  0
SECTION
  2
HEADER
  9
$ACADVER
  1
AC1018
  9
$ACADMAINTVER
 70
     0
  9
$DWGCODEPAGE
  3
ANSI_1252
  9
$INSBASE
 10
0.0
 20
0.0
 30
0.0
  9
$EXTMIN
 10
-10.20047520061032
 20
0.0006618064113312
 30
0.0
  9
$EXTMAX
 10
49.64272810993995
 20
76.60872711455092
 30
0.0
  9
$LIMMIN
 10
0.0
 20
0.0
  9
$LIMMAX
 10
12.0
 20
9.0
  9
$ORTHOMODE
 70
     0
  9
$REGENMODE
 70
     1
  9
$FILLMODE
 70
     1
  9
$QTEXTMODE
 70
     0
  9
$MIRRTEXT
 70
     1
  9
$LTSCALE
 40
0.0393700787401575
  9
$ATTMODE
 70
     1
  9
$TEXTSIZE
 40
0.2
  9
$TRACEWID
 40
0.05
  9
$TEXTSTYLE
  7
Standard
  9
$CLAYER
  8
Default
  9
$CELTYPE
  6
ByLayer
  9
$CECOLOR
 62
   256
  9
$CELTSCALE
 40
1.0
  9
$DISPSILH
 70
     0
  9
$DIMSCALE
 40
1.0
  9
$DIMASZ
 40
0.18
  9
$DIMEXO
 40
0.0625
  9
$DIMDLI
 40
0.38
  9
$DIMRND
 40
0.0
  9
$DIMDLE
 40
0.0
  9
$DIMEXE
 40
0.18
  9
$DIMTP
 40
0.0
  9
$DIMTM
 40
0.0
  9
$DIMTXT
 40
0.18
  9
$DIMCEN
 40
0.09
  9
$DIMTSZ
 40
0.0
  9
$DIMTOL
 70
     0
  9
$DIMLIM
 70
     0
  9
$DIMTIH
 70
     1
  9
$DIMTOH
 70
     1
  9
$DIMSE1
 70
     0
  9
$DIMSE2
 70
     0
  9
$DIMTAD
 70
     0
  9
$DIMZIN
 70
     0
  9
$DIMBLK
  1

  9
$DIMASO
 70
     1
  9
$DIMSHO
 70
     1
  9
$DIMPOST
  1

  9
$DIMAPOST
  1

  9
$DIMALT
 70
     0
  9
$DIMALTD
 70
     2
  9
$DIMALTF
 40
25.4
  9
$DIMLFAC
 40
1.0
  9
$DIMTOFL
 70
     0
  9
$DIMTVP
 40
0.0
  9
$DIMTIX
 70
     0
  9
$DIMSOXD
 70
     0
  9
$DIMSAH
 70
     0
  9
$DIMBLK1
  1

  9
$DIMBLK2
  1

  9
$DIMSTYLE
  2
Standard
  9
$DIMCLRD
 70
     0
  9
$DIMCLRE
 70
     0
  9
$DIMCLRT
 70
     0
  9
$DIMTFAC
 40
1.0
  9
$DIMGAP
 40
0.09
  9
$DIMJUST
 70
     0
  9
$DIMSD1
 70
     0
  9
$DIMSD2
 70
     0
  9
$DIMTOLJ
 70
     1
  9
$DIMTZIN
 70
     0
  9
$DIMALTZ
 70
     0
  9
$DIMALTTZ
 70
     0
  9
$DIMUPT
 70
     0
  9
$DIMDEC
 70
     4
  9
$DIMTDEC
 70
     4
  9
$DIMALTU
 70
     2
  9
$DIMALTTD
 70
     2
  9
$DIMTXSTY
  7
Standard
  9
$DIMAUNIT
 70
     0
  9
$DIMADEC
 70
     0
  9
$DIMALTRND
 40
0.0
  9
$DIMAZIN
 70
     0
  9
$DIMDSEP
 70
    46
  9
$DIMATFIT
 70
     3
  9
$DIMFRAC
 70
     0
  9
$DIMLDRBLK
  1

  9
$DIMLUNIT
 70
     2
  9
$DIMLWD
 70
    -2
  9
$DIMLWE
 70
    -2
  9
$DIMTMOVE
 70
     2
  9
$LUNITS
 70
     2
  9
$LUPREC
 70
     3
  9
$SKETCHINC
 40
0.1
  9
$FILLETRAD
 40
0.5
  9
$AUNITS
 70
     0
  9
$AUPREC
 70
     0
  9
$MENU
  1
.
  9
$ELEVATION
 40
0.0
  9
$PELEVATION
 40
0.0
  9
$THICKNESS
 40
0.0
  9
$LIMCHECK
 70
     0
  9
$CHAMFERA
 40
0.5
  9
$CHAMFERB
 40
0.5
  9
$CHAMFERC
 40
1.0
  9
$CHAMFERD
 40
0.0
  9
$SKPOLY
 70
     0
  9
$TDCREATE
 40
2456462.492381053
  9
$TDUCREATE
 40
2456462.65904772
  9
$TDUPDATE
 40
2456462.492381065
  9
$TDUUPDATE
 40
2456462.659047732
  9
$TDINDWG
 40
0.0000000116
  9
$TDUSRTIMER
 40
0.0000000116
  9
$USRTIMER
 70
     1
  9
$ANGBASE
 50
0.0
  9
$ANGDIR
 70
     0
  9
$PDMODE
 70
     0
  9
$PDSIZE
 40
0.0
  9
$PLINEWID
 40
0.0
  9
$SPLFRAME
 70
     0
  9
$SPLINETYPE
 70
     6
  9
$SPLINESEGS
 70
     8
  9
$HANDSEED
  5
109
  9
$SURFTAB1
 70
     6
  9
$SURFTAB2
 70
     6
  9
$SURFTYPE
 70
     6
  9
$SURFU
 70
     6
  9
$SURFV
 70
     6
  9
$UCSBASE
  2

  9
$UCSNAME
  2

  9
$UCSORG
 10
0.0
 20
0.0
 30
0.0
  9
$UCSXDIR
 10
1.0
 20
0.0
 30
0.0
  9
$UCSYDIR
 10
0.0
 20
1.0
 30
0.0
  9
$UCSORTHOREF
  2

  9
$UCSORTHOVIEW
 70
     0
  9
$UCSORGTOP
 10
0.0
 20
0.0
 30
0.0
  9
$UCSORGBOTTOM
 10
0.0
 20
0.0
 30
0.0
  9
$UCSORGLEFT
 10
0.0
 20
0.0
 30
0.0
  9
$UCSORGRIGHT
 10
0.0
 20
0.0
 30
0.0
  9
$UCSORGFRONT
 10
0.0
 20
0.0
 30
0.0
  9
$UCSORGBACK
 10
0.0
 20
0.0
 30
0.0
  9
$PUCSBASE
  2

  9
$PUCSNAME
  2

  9
$PUCSORG
 10
0.0
 20
0.0
 30
0.0
  9
$PUCSXDIR
 10
1.0
 20
0.0
 30
0.0
  9
$PUCSYDIR
 10
0.0
 20
1.0
 30
0.0
  9
$PUCSORTHOREF
  2

  9
$PUCSORTHOVIEW
 70
     0
  9
$PUCSORGTOP
 10
0.0
 20
0.0
 30
0.0
  9
$PUCSORGBOTTOM
 10
0.0
 20
0.0
 30
0.0
  9
$PUCSORGLEFT
 10
0.0
 20
0.0
 30
0.0
  9
$PUCSORGRIGHT
 10
0.0
 20
0.0
 30
0.0
  9
$PUCSORGFRONT
 10
0.0
 20
0.0
 30
0.0
  9
$PUCSORGBACK
 10
0.0
 20
0.0
 30
0.0
  9
$USERI1
 70
     0
  9
$USERI2
 70
     0
  9
$USERI3
 70
     0
  9
$USERI4
 70
     0
  9
$USERI5
 70
     0
  9
$USERR1
 40
0.0
  9
$USERR2
 40
0.0
  9
$USERR3
 40
0.0
  9
$USERR4
 40
0.0
  9
$USERR5
 40
0.0
  9
$WORLDVIEW
 70
     1
  9
$SHADEDGE
 70
     3
  9
$SHADEDIF
 70
    70
  9
$TILEMODE
 70
     1
  9
$MAXACTVP
 70
    64
  9
$PINSBASE
 10
0.0
 20
0.0
 30
0.0
  9
$PLIMCHECK
 70
     0
  9
$PEXTMIN
 10
1.000000000000000E+20
 20
1.000000000000000E+20
 30
1.000000000000000E+20
  9
$PEXTMAX
 10
-1.000000000000000E+20
 20
-1.000000000000000E+20
 30
-1.000000000000000E+20
  9
$PLIMMIN
 10
0.0
 20
0.0
  9
$PLIMMAX
 10
12.0
 20
9.0
  9
$UNITMODE
 70
     0
  9
$VISRETAIN
 70
     1
  9
$PLINEGEN
 70
     0
  9
$PSLTSCALE
 70
     1
  9
$TREEDEPTH
 70
  3020
  9
$CMLSTYLE
  2
Standard
  9
$CMLJUST
 70
     0
  9
$CMLSCALE
 40
1.0
  9
$PROXYGRAPHICS
 70
     1
  9
$MEASUREMENT
 70
     0
  9
$CELWEIGHT
370
    -1
  9
$ENDCAPS
280
     0
  9
$JOINSTYLE
280
     0
  9
$LWDISPLAY
290
     0
  9
$INSUNITS
 70
     1
  9
$HYPERLINKBASE
  1

  9
$STYLESHEET
  1

  9
$XEDIT
290
     1
  9
$CEPSNTYPE
380
     0
  9
$PSTYLEMODE
290
     1
  9
$FINGERPRINTGUID
  2
{EBD41993-0107-45BD-9546-1F79D058F1AA}
  9
$VERSIONGUID
  2
{FAEB1C32-E019-11D5-929B-00C0DF256EC4}
  9
$EXTNAMES
290
     1
  9
$PSVPSCALE
 40
0.0
  9
$OLESTARTUP
290
     0
  9
$SORTENTS
280
   127
  9
$INDEXCTL
280
     0
  9
$HIDETEXT
280
     1
  9
$XCLIPFRAME
290
     0
  9
$HALOGAP
280
     0
  9
$OBSCOLOR
 70
   257
  9
$OBSLTYPE
280
     0
  9
$INTERSECTIONDISPLAY
280
     0
  9
$INTERSECTIONCOLOR
 70
   257
  9
$DIMASSOC
280
     2
  9
$PROJECTNAME
  1

  0
ENDSEC
  0
SECTION
  2
CLASSES
  0
CLASS
  1
ACDBDICTIONARYWDFLT
  2
AcDbDictionaryWithDefault
  3
ObjectDBX Classes
 90
        0
 91
        4
280
     0
281
     0
  0
CLASS
  1
VISUALSTYLE
  2
AcDbVisualStyle
  3
ObjectDBX Classes
 90
     4095
 91
        4
280
     0
281
     0
  0
ENDSEC
  0
SECTION
  2
TABLES
  0
TABLE
  2
VPORT
  5
8
330
0
100
AcDbSymbolTable
 70
     1
  0
VPORT
  5
29
330
8
100
AcDbSymbolTableRecord
100
AcDbViewportTableRecord
  2
*Active
 70
     0
 10
0.0
 20
0.0
 11
1.0
 21
1.0
 12
19.72112645466482
 22
38.30469446048112
 13
0.0
 23
0.0
 14
0.5
 24
0.5
 15
0.5
 25
0.5
 16
0.0
 26
0.0
 36
1.0
 17
0.0
 27
0.0
 37
0.0
 40
78.14022661430238
 41
0.7811606137009696
 42
50.0
 43
0.0
 44
0.0
 50
0.0
 51
0.0
 71
     0
 72
   100
 73
     1
 74
     3
 75
     0
 76
     0
 77
     0
 78
     0
281
     0
 65
     1
110
0.0
120
0.0
130
0.0
111
1.0
121
0.0
131
0.0
112
0.0
122
1.0
132
0.0
 79
     0
146
0.0
  0
ENDTAB
  0
TABLE
  2
LTYPE
  5
5
330
0
100
AcDbSymbolTable
 70
     1
  0
LTYPE
  5
14
330
5
100
AcDbSymbolTableRecord
100
AcDbLinetypeTableRecord
  2
ByBlock
 70
     0
  3

 72
    65
 73
     0
 40
0.0
  0
LTYPE
  5
15
330
5
100
AcDbSymbolTableRecord
100
AcDbLinetypeTableRecord
  2
ByLayer
 70
     0
  3

 72
    65
 73
     0
 40
0.0
  0
LTYPE
  5
16
330
5
100
AcDbSymbolTableRecord
100
AcDbLinetypeTableRecord
  2
Continuous
 70
     0
  3
Solid line
 72
    65
 73
     0
 40
0.0
  0
ENDTAB
  0
TABLE
  2
LAYER
  5
2
330
0
100
AcDbSymbolTable
 70
     2
  0
LAYER
  5
10
330
2
100
AcDbSymbolTableRecord
100
AcDbLayerTableRecord
  2
0
 70
     0
 62
     7
  6
Continuous
370
    -3
390
F
  0
LAYER
  5
3B
330
2
100
AcDbSymbolTableRecord
100
AcDbLayerTableRecord
  2
Default
 70
     0
 62
     7
  6
Continuous
370
    -3
390
F
  0
ENDTAB
  0
TABLE
  2
STYLE
  5
3
330
0
100
AcDbSymbolTable
 70
     1
  0
STYLE
  5
11
330
3
100
AcDbSymbolTableRecord
100
AcDbTextStyleTableRecord
  2
Standard
 70
     0
 40
0.0
 41
1.0
 50
0.0
 71
     0
 42
0.2
  3
txt
  4

  0
ENDTAB
  0
TABLE
  2
VIEW
  5
6
330
0
100
AcDbSymbolTable
 70
     0
  0
ENDTAB
  0
TABLE
  2
UCS
  5
7
330
0
100
AcDbSymbolTable
 70
     0
  0
ENDTAB
  0
TABLE
  2
APPID
  5
9
330
0
100
AcDbSymbolTable
 70
     1
  0
APPID
  5
12
330
9
100
AcDbSymbolTableRecord
100
AcDbRegAppTableRecord
  2
ACAD
 70
     0
  0
ENDTAB
  0
TABLE
  2
DIMSTYLE
  5
A
330
0
100
AcDbSymbolTable
 70
     1
100
AcDbDimStyleTable
  0
DIMSTYLE
105
27
330
A
100
AcDbSymbolTableRecord
100
AcDbDimStyleTableRecord
  2
Standard
 70
     0
340
11
  0
ENDTAB
  0
TABLE
  2
BLOCK_RECORD
  5
1
330
0
100
AcDbSymbolTable
 70
     1
  0
BLOCK_RECORD
  5
1F
330
1
100
AcDbSymbolTableRecord
100
AcDbBlockTableRecord
  2
*Model_Space
340
22
  0
BLOCK_RECORD
  5
1B
330
1
100
AcDbSymbolTableRecord
100
AcDbBlockTableRecord
  2
*Paper_Space
340
1E
  0
BLOCK_RECORD
  5
23
330
1
100
AcDbSymbolTableRecord
100
AcDbBlockTableRecord
  2
*Paper_Space0
340
26
  0
ENDTAB
  0
ENDSEC
  0
SECTION
  2
BLOCKS
  0
BLOCK
  5
20
330
1F
100
AcDbEntity
  8
0
100
AcDbBlockBegin
  2
*Model_Space
 70
     0
 10
0.0
 20
0.0
 30
0.0
  3
*Model_Space
  1

  0
ENDBLK
  5
21
330
1F
100
AcDbEntity
  8
0
100
AcDbBlockEnd
  0
BLOCK
  5
1C
330
1B
100
AcDbEntity
 67
     1
  8
0
100
AcDbBlockBegin
  2
*Paper_Space
 70
     0
 10
0.0
 20
0.0
 30
0.0
  3
*Paper_Space
  1

  0
ENDBLK
  5
1D
330
1B
100
AcDbEntity
 67
     1
  8
0
100
AcDbBlockEnd
  0
BLOCK
  5
24
330
23
100
AcDbEntity
  8
0
100
AcDbBlockBegin
  2
*Paper_Space0
 70
     0
 10
0.0
 20
0.0
 30
0.0
  3
*Paper_Space0
  1

  0
ENDBLK
  5
25
330
23
100
AcDbEntity
  8
0
100
AcDbBlockEnd
  0
ENDSEC
  0
SECTION
  2
ENTITIES
  0
SPLINE
  5
3C
330
1F
100
AcDbEntity
  8
Default
100
AcDbSpline
210
0.0
220
0.0
230
1.0
 70
    12
 71
     2
 72
     6
 73
     3
 74
     0
 42
0.0000000001
 43
0.0000000001
 40
0.9405340330043281
 40
0.9405340330043281
 40
0.9405340330043281
 40
1.933919215033308
 40
1.933919215033308
 40
1.933919215033308
 10
34.09805665827536
 20
23.18823832240741
 30
0.0
 41
0.9904238679549906
 10
34.57935909613599
 20
23.0578618022517
 30
0.0
 41
0.9868722971604993
 10
35.07232566817657
 20
22.98308121503433
 30
0.0
 41
0.9865010273612516
  0
SPLINE
  5
3D
330
1F
100
AcDbEntity
  8
Default
100
AcDbSpline
210
0.0
220
0.0
230
1.0
 70
    12
 71
     2
 72
     6
 73
     3
 74
     0
 42
0.0000000001
 43
0.0000000001
 40
0.0
 40
0.0
 40
0.0
 40
0.9405340330043281
 40
0.9405340330043281
 40
0.9405340330043281
 10
33.20862429867809
 20
23.48112910722521
 30
0.0
 41
1.0
 10
33.64553145624389
 20
23.31081958625029
 30
0.0
 41
0.9937864842525486
 10
34.09805665827536
 20
23.18823832240741
 30
0.0
 41
0.9904238679549906
  0
SPLINE
  5
3E
330
1F
100
AcDbEntity
  8
Default
100
AcDbSpline
210
0.0
220
0.0
230
1.0
 70
    12
 71
     2
 72
     6
 73
     3
 74
     0
 42
0.0000000001
 43
0.0000000001
 40
3.066984303758755
 40
3.066984303758755
 40
3.066984303758755
 40
3.577868569146716
 40
3.577868569146716
 40
3.577868569146716
 10
34.10202715519602
 20
24.22593281686244
 30
0.0
 41
0.9935671052689183
 10
33.8590791460464
 20
24.30063702363415
 30
0.0
 41
0.9962477714935223
 10
33.62152160491512
 20
24.39097439939855
 30
0.0
 41
1.0
  0
SPLINE
  5
3F
330
1F
100
AcDbEntity
  8
Default
100
AcDbSpline
210
0.0
220
0.0
230
1.0
 70
    12
 71
     2
 72
     6
 73
     3
 74
     0
 42
0.0000000001
 43
0.0000000001
 40
0.0
 40
0.0
 40
0.0
 40
0.1792706639472532
 40
0.1792706639472532
 40
0.1792706639472532
 10
-9.048594814548114
 20
25.31146057492441
 30
0.0
 41
1.0
 10
-8.959503357168868
 20
25.30160096669809
 30
0.0
 41
0.9999992521276527
 10
-8.87039074205836
 20
25.29193445334013
 30
0.0
 41
0.9999996783571548
  0
SPLINE
  5
40
330
1F
100
AcDbEntity
  8
Default
100
AcDbSpline
210
0.0
220
0.0
230
1.0
 70
    12
 71
     2
 72
     6
 73
     3
 74
     0
 42
0.0000000001
 43
0.0000000001
 40
0.0
 40
0.0
 40
0.0
 40
0.1790608583758288
 40
0.1790608583758288
 40
0.1790608583758288
 10
9.048594814548114
 20
25.31146057492441
 30
0.0
 41
1.0
 10
8.959607623520519
 20
25.30161250568746
 30
0.0
 41
0.999999253002909
 10
8.870599324011382
 20
25.29195707958761
 30
0.0
 41
0.9999996773611058
  0
SPLINE
  5
41
330
1F
100
AcDbEntity
  8
Default
100
AcDbSpline
210
0.0
220
0.0
230
1.0
 70
    12
 71
     2
 72
     6
 73
     3
 74
     0
 42
0.0000000001
 43
0.0000000001
 40
-0.5984639931675464
 40
-0.5984639931675464
 40
-0.5984639931675464
 40
0.0
 40
0.0
 40
0.0
 10
8.615659525955927
 20
24.82367210584238
 30
0.0
 41
0.9999243319709192
 10
8.138224438563691
 20
24.29634241132597
 30
0.0
 41
0.9998696703802793
 10
7.945997236585255
 20
24.06699361609278
 30
0.0
 41
1.0
  0
SPLINE
  5
42
330
1F
100
AcDbEntity
  8
Default
100
AcDbSpline
210
0.0
220
0.0
230
1.0
 70
    12
 71
     2
 72
     6
 73
     3
 74
     0
 42
0.0000000001
 43
0.0000000001
 40
-0.843257195777037
 40
-0.843257195777037
 40
-0.843257195777037
 40
-0.6973579334261081
 40
-0.6973579334261081
 40
-0.6973579334261081
 10
9.053882108261615
 20
25.3048416109746
 30
0.0
 41
1.0
 10
8.909084783821804
 20
25.14661061534586
 30
0.0
 41
0.9999682270017966
 10
8.781220974852511
 20
25.00607051446544
 30
0.0
 41
0.9999474486491741
  0
SPLINE
  5
43
330
1F
100
AcDbEntity
  8
Default
100
AcDbSpline
210
0.0
220
0.0
230
1.0
 70
    12
 71
     2
 72
     6
 73
     3
 74
     0
 42
0.0000000001
 43
0.0000000001
 40
-0.5987181970693582
 40
-0.5987181970693582
 40
-0.5987181970693582
 40
0.0
 40
0.0
 40
0.0
 10
-8.616065146395883
 20
24.82412011278832
 30
0.0
 41
0.9999243784404714
 10
-8.138306099745341
 20
24.29643984235257
 30
0.0
 41
0.9998696150213968
 10
-7.945997236585255
 20
24.06699361609278
 30
0.0
 41
1.0
  0
SPLINE
  5
44
330
1F
100
AcDbEntity
  8
Default
100
AcDbSpline
210
0.0
220
0.0
230
1.0
 70
    12
 71
     2
 72
     6
 73
     3
 74
     0
 42
0.0000000001
 43
0.0000000001
 40
-0.843257195777037
 40
-0.843257195777037
 40
-0.843257195777037
 40
-0.6970629860790594
 40
-0.6970629860790594
 40
-0.6970629860790594
 10
-9.053882108261615
 20
25.3048416109746
 30
0.0
 41
1.0
 10
-8.908792054813105
 20
25.14629072820239
 30
0.0
 41
0.99996816277007
 10
-8.780704058915095
 20
25.00550234822607
 30
0.0
 41
0.9999473646838126
  0
ARC
  5
45
330
1F
100
AcDbEntity
  8
Default
100
AcDbCircle
 10
17.31739563334622
 20
-16.78458068886134
 30
0.0
 40
41.66759639119658
100
AcDbArc
 50
102.9925821655285
 51
105.516311477689
  0
ARC
  5
46
330
1F
100
AcDbEntity
  8
Default
100
AcDbCircle
 10
-17.31739563334628
 20
-16.78458068886134
 30
0.0
 40
41.66759639119658
100
AcDbArc
 50
74.4835774526648
 51
77.00741783446982
  0
SPLINE
  5
47
330
1F
100
AcDbEntity
  8
Default
100
AcDbSpline
210
0.0
220
0.0
230
1.0
 70
    12
 71
     2
 72
     6
 73
     3
 74
     0
 42
0.0000000001
 43
0.0000000001
 40
-0.9474937444752759
 40
-0.9474937444752759
 40
-0.9474937444752759
 40
0.0
 40
0.0
 40
0.0
 10
-8.386164090822158
 20
26.02388348657019
 30
0.0
 41
0.990234195150506
 10
-8.104082194051946
 20
26.41408335647452
 30
0.0
 41
0.9732574372704891
 10
-7.687292469273189
 20
26.65551605764681
 30
0.0
 41
1.0
  0
SPLINE
  5
48
330
1F
100
AcDbEntity
  8
Default
100
AcDbSpline
210
0.0
220
0.0
230
1.0
 70
    12
 71
     2
 72
     6
 73
     3
 74
     0
 42
0.0000000001
 43
0.0000000001
 40
0.0
 40
0.0
 40
0.0
 40
0.9475417383743888
 40
0.9475417383743888
 40
0.9475417383743888
 10
7.687292469273132
 20
26.65551605764681
 30
0.0
 41
1.0
 10
8.104103886050144
 20
26.41407079100707
 30
0.0
 41
0.97325608266539
 10
8.386192177343238
 20
26.02384463401729
 30
0.0
 41
0.9902359151279768
  0
SPLINE
  5
49
330
1F
100
AcDbEntity
  8
Default
100
AcDbSpline
210
0.0
220
0.0
230
1.0
 70
    12
 71
     2
 72
     6
 73
     3
 74
     0
 42
0.0000000001
 43
0.0000000001
 40
14.70378978442843
 40
14.70378978442843
 40
14.70378978442843
 40
15.9165558348646
 40
15.9165558348646
 40
15.9165558348646
 10
-6.739417108542865
 20
23.96003498714729
 30
0.0
 41
0.9993592109274667
 10
-7.34310804694483
 20
24.00899170214907
 30
0.0
 41
0.9996531793775321
 10
-7.946024052582901
 20
24.06671344153592
 30
0.0
 41
1.0
  0
SPLINE
  5
4A
330
1F
100
AcDbEntity
  8
Default
100
AcDbSpline
210
0.0
220
0.0
230
1.0
 70
    12
 71
     2
 72
     6
 73
     3
 74
     0
 42
0.0000000001
 43
0.0000000001
 40
14.28898508503281
 40
14.28898508503281
 40
14.28898508503281
 40
14.70378978442843
 40
14.70378978442843
 40
14.70378978442843
 10
-6.326210206869664
 20
23.92755930007964
 30
0.0
 41
0.9991643006967715
 10
-6.532854017945001
 20
23.94328361701235
 30
0.0
 41
0.9992586643343977
 10
-6.739417108542865
 20
23.96003498714729
 30
0.0
 41
0.9993592109274667
  0
SPLINE
  5
4B
330
1F
100
AcDbEntity
  8
Default
100
AcDbSpline
210
0.0
220
0.0
230
1.0
 70
    12
 71
     2
 72
     6
 73
     3
 74
     0
 42
0.0000000001
 43
0.0000000001
 40
14.03358536290795
 40
14.03358536290795
 40
14.03358536290795
 40
14.28898508503281
 40
14.28898508503281
 40
14.28898508503281
 10
-6.071676687837156
 20
23.90858267756542
 30
0.0
 41
0.9990504432371325
 10
-6.198957970386211
 20
23.91787619132138
 30
0.0
 41
0.999106199988502
 10
-6.326210206869664
 20
23.92755930007964
 30
0.0
 41
0.9991643006967715
  0
SPLINE
  5
4C
330
1F
100
AcDbEntity
  8
Default
100
AcDbSpline
210
0.0
220
0.0
230
1.0
 70
    12
 71
     2
 72
     6
 73
     3
 74
     0
 42
0.0000000001
 43
0.0000000001
 40
1.627869628866546
 40
1.627869628866546
 40
1.627869628866546
 40
1.883268896044734
 40
1.883268896044734
 40
1.883268896044734
 10
6.326263923218551
 20
23.92755718928399
 30
0.0
 41
0.9991641647164066
 10
6.199011893223537
 20
23.91787413894265
 30
0.0
 41
0.9991060668546204
 10
6.071730817387668
 20
23.90858068232908
 30
0.0
 41
0.9990503129413836
  0
SPLINE
  5
4D
330
1F
100
AcDbEntity
  8
Default
100
AcDbSpline
210
0.0
220
0.0
230
1.0
 70
    12
 71
     2
 72
     6
 73
     3
 74
     0
 42
0.0000000001
 43
0.0000000001
 40
1.213064080619216
 40
1.213064080619216
 40
1.213064080619216
 40
1.627869628866546
 40
1.627869628866546
 40
1.627869628866546
 10
6.739471739119604
 20
23.96003281174301
 30
0.0
 41
0.9993590664485945
 10
6.532908191415776
 20
23.94328147165324
 30
0.0
 41
0.9992585240921263
 10
6.326263923218551
 20
23.92755718928399
 30
0.0
 41
0.9991641647164066
  0
SPLINE
  5
4E
330
1F
100
AcDbEntity
  8
Default
100
AcDbSpline
210
0.0
220
0.0
230
1.0
 70
    12
 71
     2
 72
     6
 73
     3
 74
     0
 42
0.0000000001
 43
0.0000000001
 40
0.0
 40
0.0
 40
0.0
 40
1.213064080619216
 40
1.213064080619216
 40
1.213064080619216
 10
7.946375130923666
 20
24.06673925499703
 30
0.0
 41
1.0
 10
7.343311098337463
 20
24.00900136683552
 30
0.0
 41
0.999653094148387
 10
6.739471739119604
 20
23.96003281174301
 30
0.0
 41
0.9993590664485945
  0
SPLINE
  5
4F
330
1F
100
AcDbEntity
  8
Default
100
AcDbSpline
210
0.0
220
0.0
230
1.0
 70
    12
 71
     2
 72
     6
 73
     3
 74
     0
 42
0.0000000001
 43
0.0000000001
 40
0.2019563089891206
 40
0.2019563089891206
 40
0.2019563089891206
 40
0.3556666141877665
 40
0.3556666141877665
 40
0.3556666141877665
 10
9.033332810484964
 20
56.62686832952357
 30
0.0
 41
0.9743536738838291
 10
9.05425312049869
 20
56.55249831918246
 30
0.0
 41
0.9774170412854367
 10
9.053785069317868
 20
56.47524329515618
 30
0.0
 41
1.0
  0
SPLINE
  5
50
330
1F
100
AcDbEntity
  8
Default
100
AcDbSpline
210
0.0
220
0.0
230
1.0
 70
    12
 71
     2
 72
     6
 73
     3
 74
     0
 42
0.0000000001
 43
0.0000000001
 40
0.0
 40
0.0
 40
0.0
 40
0.1960913064170767
 40
0.1960913064170767
 40
0.1960913064170767
 10
9.053785069317868
 20
56.47524329515618
 30
0.0
 41
1.0
 10
9.053739863159413
 20
56.37624876043074
 30
0.0
 41
0.9718498316171948
 10
9.020870479112519
 20
56.28287037138122
 30
0.0
 41
0.9719899080369507
  0
SPLINE
  5
51
330
1F
100
AcDbEntity
  8
Default
100
AcDbSpline
210
0.0
220
0.0
230
1.0
 70
    12
 71
     2
 72
     6
 73
     3
 74
     0
 42
0.0000000001
 43
0.0000000001
 40
0.0974576665188524
 40
0.0974576665188524
 40
0.0974576665188524
 40
0.8953845740655059
 40
0.8953845740655059
 40
0.8953845740655059
 10
8.919919271785258
 20
55.21877939373186
 30
0.0
 41
0.9488090830684482
 10
9.403385222125575
 20
55.28751932835149
 30
0.0
 41
0.7356394258138832
 10
9.403493425693407
 20
55.77676496027135
 30
0.0
 41
1.0
  0
SPLINE
  5
52
330
1F
100
AcDbEntity
  8
Default
100
AcDbSpline
210
0.0
220
0.0
230
1.0
 70
    24
 71
     2
 72
     6
 73
     3
 74
     0
 42
0.0000000001
 43
0.0000000001
 40
0.0
 40
0.0
 40
0.0
 40
0.6922435494300396
 40
0.6922435494300396
 40
0.6922435494300396
 10
9.34336208852401
 20
56.02863079013026
 30
0.0
 10
9.188596435258953
 20
56.33822361329078
 30
0.0
 10
9.033830781993895
 20
56.64781643645131
 30
0.0
  0
SPLINE
  5
53
330
1F
100
AcDbEntity
  8
Default
100
AcDbSpline
210
0.0
220
0.0
230
1.0
 70
    12
 71
     2
 72
     6
 73
     3
 74
     0
 42
0.0000000001
 43
0.0000000001
 40
0.0428752878395257
 40
0.0428752878395257
 40
0.0428752878395257
 40
0.3556666141877665
 40
0.3556666141877665
 40
0.3556666141877665
 10
-8.968391585717319
 20
56.77225188431237
 30
0.0
 41
0.9889203382762479
 10
-9.054760858723615
 20
56.63630395919125
 30
0.0
 41
0.9540450225502639
 10
-9.053785069317868
 20
56.47524329515618
 30
0.0
 41
1.0
  0
SPLINE
  5
54
330
1F
100
AcDbEntity
  8
Default
100
AcDbSpline
210
0.0
220
0.0
230
1.0
 70
    12
 71
     2
 72
     6
 73
     3
 74
     0
 42
0.0000000001
 43
0.0000000001
 40
0.0
 40
0.0
 40
0.0
 40
0.3634454240757437
 40
0.3634454240757437
 40
0.3634454240757437
 10
-9.053785069317868
 20
56.47524329515618
 30
0.0
 41
1.0
 10
-9.053699158186209
 20
56.28711112917384
 30
0.0
 41
0.9478250715310589
 10
-8.943228311607449
 20
56.13482878839167
 30
0.0
 41
0.9928349634254092
  0
SPLINE
  5
55
330
1F
100
AcDbEntity
  8
Default
100
AcDbSpline
210
0.0
220
0.0
230
1.0
 70
    12
 71
     2
 72
     6
 73
     3
 74
     0
 42
0.0000000001
 43
0.0000000001
 40
0.0260262980638704
 40
0.0260262980638704
 40
0.0260262980638704
 40
0.8953845740655059
 40
0.8953845740655059
 40
0.8953845740655059
 10
-8.85380849410143
 20
55.21333676983959
 30
0.0
 41
0.9908024352593655
 10
-9.403371616967881
 20
55.22600320548742
 30
0.0
 41
0.7119735519085656
 10
-9.403493425693407
 20
55.77676496027135
 30
0.0
 41
1.0
  0
LINE
  5
56
330
1F
100
AcDbEntity
  8
Default
100
AcDbLine
 10
7.958300064712802
 20
70.40239922160777
 30
0.0
 11
7.588134988586058
 21
70.16657806001787
 31
0.0
  0
LINE
  5
57
330
1F
100
AcDbEntity
  8
Default
100
AcDbLine
 10
-7.890712194240081
 20
70.40239922160777
 30
0.0
 11
-7.520548961353796
 21
70.16657923429155
 31
0.0
  0
ARC
  5
58
330
1F
100
AcDbEntity
  8
Default
100
AcDbCircle
 10
-58.04174798871069
 20
56.45557001497372
 30
0.0
 40
67.04679918702257
100
AcDbArc
 50
11.76267804767421
 51
12.08377002123076
  0
SPLINE
  5
59
330
1F
100
AcDbEntity
  8
Default
100
AcDbSpline
210
0.0
220
0.0
230
1.0
 70
     8
 71
     3
 72
    23
 73
    19
 74
     0
 42
0.0000000001
 43
0.0000000001
 40
-0.0000000000000001
 40
-0.0000000000000001
 40
-0.0000000000000001
 40
-0.0000000000000001
 40
4.24895968232277
 40
6.486393074541591
 40
9.045091794831706
 40
11.60422115196901
 40
13.22896781163744
 40
14.51231705906568
 40
15.25797935780193
 40
15.51969434203911
 40
15.80552651594489
 40
15.9921433540386
 40
16.10658203171558
 40
16.24561988875408
 40
16.537984963297
 40
17.86615571467284
 40
21.19407775777829
 40
24.46596690678671
 40
24.46596690678671
 40
24.46596690678671
 40
24.46596690678671
 10
7.597094426749024
 20
70.12362209211251
 30
0.0
 10
7.885810100514689
 20
68.73710684427604
 30
0.0
 10
8.259585921244863
 20
66.60606418601255
 30
0.0
 10
8.608679355226187
 20
63.61077826636169
 30
0.0
 10
8.832831081563498
 20
61.16924131144066
 30
0.0
 10
8.982917730643791
 20
58.92650128103446
 30
0.0
 10
9.05716083191902
 20
57.10534510060695
 30
0.0
 10
9.011732510849981
 20
55.88661407502228
 30
0.0
 10
8.911229083998066
 20
55.12930105341954
 30
0.0
 10
8.831935237834628
 20
54.70440642049783
 30
0.0
 10
8.663697826519822
 20
54.50738006233803
 30
0.0
 10
8.498358642315722
 20
54.40932547343378
 30
0.0
 10
8.3561331503589
 20
54.36215850728856
 30
0.0
 10
8.178859881434647
 20
54.32813563804581
 30
0.0
 10
7.596717401817486
 20
54.25030453466783
 30
0.0
 10
5.959203155537665
 20
54.05394543558197
 30
0.0
 10
3.324064390453159
 20
53.84211906502506
 30
0.0
 10
1.124563336661623
 20
53.77206904789262
 30
0.0
 10
0.0338898738463485
 20
53.77024375775714
 30
0.0
  0
SPLINE
  5
5A
330
1F
100
AcDbEntity
  8
Default
100
AcDbSpline
210
0.0
220
0.0
230
1.0
 70
     8
 71
     3
 72
    21
 73
    17
 74
     0
 42
0.0000000001
 43
0.0000000001
 40
24.46596690678671
 40
24.46596690678671
 40
24.46596690678671
 40
24.46596690678671
 40
27.72223632071433
 40
31.06625574070116
 40
32.42547696658934
 40
32.82735322848757
 40
33.12657573285964
 40
33.4100113728441
 40
33.66796334267045
 40
34.39342643974651
 40
35.68712283049939
 40
37.32776181063267
 40
39.88695385814246
 40
42.54145534509678
 40
44.77891088678392
 40
48.93209882734814
 40
48.93209882734814
 40
48.93209882734814
 40
48.93209882734814
 10
0.0338898738463485
 20
53.77024375775714
 30
0.0
 10
-1.051577397228115
 20
53.77185355552987
 30
0.0
 10
-3.251246866099336
 20
53.84191066705397
 30
0.0
 10
-5.896739309421292
 20
54.05428254804717
 30
0.0
 10
-7.586173306517779
 20
54.25804259403506
 30
0.0
 10
-8.268091024578567
 20
54.34623277295206
 30
0.0
 10
-8.57579598708368
 20
54.47220248468631
 30
0.0
 10
-8.757251227013953
 20
54.70382464635351
 30
0.0
 10
-8.847250714243401
 20
55.11637014243414
 30
0.0
 10
-8.937544918055366
 20
55.87159663250172
 30
0.0
 10
-8.99308762361214
 20
57.09036416889931
 30
0.0
 10
-8.913937591243169
 20
58.92172218641595
 30
0.0
 10
-8.763782007214203
 20
61.20066410576476
 30
0.0
 10
-8.535061458467013
 20
63.67452062255568
 30
0.0
 10
-8.18173425512255
 20
66.66914193745941
 30
0.0
 10
-7.811655607930632
 20
68.76833650621036
 30
0.0
 10
-7.529507810986317
 20
70.12361596410732
 30
0.0
  0
ARC
  5
5B
330
1F
100
AcDbEntity
  8
Default
100
AcDbCircle
 10
58.54727983140208
 20
56.3674714628197
 30
0.0
 40
67.49350618154014
100
AcDbArc
 50
167.9209370110374
 51
168.2398994819786
  0
SPLINE
  5
5C
330
1F
100
AcDbEntity
  8
Default
100
AcDbSpline
210
0.0
220
0.0
230
1.0
 70
    12
 71
     2
 72
     6
 73
     3
 74
     0
 42
0.0000000001
 43
0.0000000001
 40
0.0
 40
0.0
 40
0.0
 40
0.8358662744886645
 40
0.8358662744886645
 40
0.8358662744886645
 10
-6.747435466637512
 20
23.96865838967597
 30
0.0
 41
1.0
 10
-6.462884947805307
 20
23.66252210579623
 30
0.0
 41
0.9999127732357861
 10
-6.170339640723315
 20
23.36401638473697
 30
0.0
 41
0.9999999999991276
  0
SPLINE
  5
5D
330
1F
100
AcDbEntity
  8
Default
100
AcDbSpline
210
0.0
220
0.0
230
1.0
 70
    12
 71
     2
 72
     6
 73
     3
 74
     0
 42
0.0000000001
 43
0.0000000001
 40
0.0
 40
0.0
 40
0.0
 40
0.9933248670959279
 40
0.9933248670959279
 40
0.9933248670959279
 10
-6.170339640723314
 20
23.36401638473697
 30
0.0
 41
0.9999999899372237
 10
-5.820333163592063
 20
22.99684350883382
 30
0.0
 41
0.968932994225803
 10
-5.33641186358139
 20
22.84211379182297
 30
0.0
 41
1.0
  0
SPLINE
  5
5E
330
1F
100
AcDbEntity
  8
Default
100
AcDbSpline
210
0.0
220
0.0
230
1.0
 70
    12
 71
     2
 72
     6
 73
     3
 74
     0
 42
0.0000000001
 43
0.0000000001
 40
0.0
 40
0.0
 40
0.0
 40
5.401120923603427
 40
5.401120923603427
 40
5.401120923603427
 10
-5.33641186358139
 20
22.84211379182297
 30
0.0
 41
1.0
 10
-2.717845424412313
 20
22.11110666268759
 30
0.0
 41
0.9904585897569746
 10
0.0000283270519077
 20
22.12271309713799
 30
0.0
 41
1.0
  0
SPLINE
  5
5F
330
1F
100
AcDbEntity
  8
Default
100
AcDbSpline
210
0.0
220
0.0
230
1.0
 70
    12
 71
     2
 72
     6
 73
     3
 74
     0
 42
0.0000000001
 43
0.0000000001
 40
-5.401120923603427
 40
-5.401120923603427
 40
-5.401120923603427
 40
0.0
 40
0.0
 40
0.0
 10
0.0000283270519077
 20
22.12271309713799
 30
0.0
 41
1.0
 10
2.71790207851614
 20
22.11110666268759
 30
0.0
 41
0.9904585897569746
 10
5.336468517685205
 20
22.84211379182297
 30
0.0
 41
1.0
  0
SPLINE
  5
60
330
1F
100
AcDbEntity
  8
Default
100
AcDbSpline
210
0.0
220
0.0
230
1.0
 70
    12
 71
     2
 72
     6
 73
     3
 74
     0
 42
0.0000000001
 43
0.0000000001
 40
-0.9933248670959279
 40
-0.9933248670959279
 40
-0.9933248670959279
 40
0.0
 40
0.0
 40
0.0
 10
5.336468517685205
 20
22.84211379182297
 30
0.0
 41
1.0
 10
5.820389817695892
 20
22.99684350883382
 30
0.0
 41
0.968932994225803
 10
6.17039629482712
 20
23.36401638473697
 30
0.0
 41
0.9999999899372237
  0
SPLINE
  5
61
330
1F
100
AcDbEntity
  8
Default
100
AcDbSpline
210
0.0
220
0.0
230
1.0
 70
    12
 71
     2
 72
     6
 73
     3
 74
     0
 42
0.0000000001
 43
0.0000000001
 40
-0.8358662744886645
 40
-0.8358662744886645
 40
-0.8358662744886645
 40
0.0
 40
0.0
 40
0.0
 10
6.170396294827135
 20
23.36401638473697
 30
0.0
 41
0.9999999999991276
 10
6.462941601909109
 20
23.66252210579623
 30
0.0
 41
0.9999127732357861
 10
6.747492120741327
 20
23.96865838967597
 30
0.0
 41
1.0
  0
LINE
  5
62
330
1F
100
AcDbEntity
  8
Default
100
AcDbLine
 10
6.338679250898451
 20
23.93647768140128
 30
0.0
 11
6.225083809123291
 21
23.854858632026
 31
0.0
  0
ARC
  5
63
330
1F
100
AcDbEntity
  8
Default
100
AcDbCircle
 10
5.978945469038337
 20
24.2093032642337
 30
0.0
 40
0.4315264531412024
100
AcDbArc
 50
262.2924095126972
 51
304.7774206992515
  0
ARC
  5
64
330
1F
100
AcDbEntity
  8
Default
100
AcDbCircle
 10
8.029291433890023
 20
21.43170070049607
 30
0.0
 40
3.157052107850949
100
AcDbArc
 50
121.4061072758457
 51
131.8960750393577
  0
LINE
  5
65
330
1F
100
AcDbEntity
  8
Default
100
AcDbLine
 10
6.384149652702988
 20
24.12622970042888
 30
0.0
 11
6.856874192689133
 21
24.42971412099666
 31
0.0
  0
LINE
  5
66
330
1F
100
AcDbEntity
  8
Default
100
AcDbLine
 10
-6.338622596794636
 20
23.93647768140128
 30
0.0
 11
-6.225027155019475
 21
23.854858632026
 31
0.0
  0
ARC
  5
67
330
1F
100
AcDbEntity
  8
Default
100
AcDbCircle
 10
-5.978888814934521
 20
24.2093032642337
 30
0.0
 40
0.4315264531412024
100
AcDbArc
 50
235.2225793007484
 51
277.7075904873028
  0
ARC
  5
68
330
1F
100
AcDbEntity
  8
Default
100
AcDbCircle
 10
-8.029234779786208
 20
21.43170070049607
 30
0.0
 40
3.157052107850949
100
AcDbArc
 50
48.10392496064229
 51
58.59389272415433
  0
LINE
  5
69
330
1F
100
AcDbEntity
  8
Default
100
AcDbLine
 10
-6.384092998599172
 20
24.12622970042888
 30
0.0
 11
-6.856817538585318
 21
24.42971412099666
 31
0.0
  0
SPLINE
  5
6A
330
1F
100
AcDbEntity
  8
Default
100
AcDbSpline
210
0.0
220
0.0
230
1.0
 70
     8
 71
     3
 72
    11
 73
     7
 74
     0
 42
0.0000000001
 43
0.0000000001
 40
0.0
 40
0.0
 40
0.0
 40
0.0
 40
1.214188025933714
 40
2.439691263724169
 40
4.761297182648494
 40
8.828385860723529
 40
8.828385860723529
 40
8.828385860723529
 40
8.828385860723529
 10
0.0001016515388699
 20
25.17363079819539
 30
0.0
 10
-0.4043984332705719
 20
25.1747935551574
 30
0.0
 10
-1.218374668556748
 20
25.18007693626728
 30
0.0
 10
-2.803232999988992
 20
25.24458839829634
 30
0.0
 10
-5.338610586786757
 20
25.41049366309366
 30
0.0
 10
-7.436423060223063
 20
25.80380528938457
 30
0.0
 10
-8.75706979360973
 20
26.10769909501313
 30
0.0
  0
SPLINE
  5
6B
330
1F
100
AcDbEntity
  8
Default
100
AcDbSpline
210
0.0
220
0.0
230
1.0
 70
     8
 71
     3
 72
    22
 73
    18
 74
     0
 42
0.0000000001
 43
0.0000000001
 40
0.0
 40
0.0
 40
0.0
 40
0.0
 40
0.0935397529848038
 40
0.191976763197454
 40
0.4452020639371633
 40
0.5048266649697931
 40
0.8680746548169804
 40
1.12150162456058
 40
1.258995085087951
 40
1.563620246163732
 40
1.911576306404881
 40
2.16113677711151
 40
2.914244478031624
 40
3.915317125896441
 40
5.747699567943772
 40
7.792372056652619
 40
10.22417760634461
 40
10.22417760634461
 40
10.22417760634461
 40
10.22417760634461
 10
-8.75706979360973
 20
26.10769909501313
 30
0.0
 10
-8.786601610968432
 20
26.11619160071287
 30
0.0
 10
-8.855094704249467
 20
26.11522498229256
 30
0.0
 10
-8.975313657949073
 20
26.02133025856174
 30
0.0
 10
-9.018670440351173
 20
25.87832439653101
 30
0.0
 10
-8.9653567744881
 20
25.65820489886348
 30
0.0
 10
-8.902419816463265
 20
25.44271408215308
 30
0.0
 10
-8.850087899719597
 20
25.19607739076938
 30
0.0
 10
-8.783335043754278
 20
24.97255785231727
 30
0.0
 10
-8.589775261779664
 20
24.7766728730743
 30
0.0
 10
-8.305954407855552
 20
24.6716912436114
 30
0.0
 10
-7.859788493127468
 20
24.59940965548837
 30
0.0
 10
-7.20396188968823
 20
24.48059076049453
 30
0.0
 10
-6.021067230783956
 20
24.30002450904963
 30
0.0
 10
-4.403881173258014
 20
24.12923785265575
 30
0.0
 10
-2.302943795696493
 20
24.01976529956757
 30
0.0
 10
-0.8104401968512178
 20
24.01549507296429
 30
0.0
 10
0.0001016515388699
 20
24.01595623322597
 30
0.0
  0
SPLINE
  5
6C
330
1F
100
AcDbEntity
  8
Default
100
AcDbSpline
210
0.0
220
0.0
230
1.0
 70
     8
 71
     3
 72
    22
 73
    18
 74
     0
 42
0.0000000001
 43
0.0000000001
 40
-10.22417760634461
 40
-10.22417760634461
 40
-10.22417760634461
 40
-10.22417760634461
 40
-7.792372056652619
 40
-5.747699567943772
 40
-3.915317125896441
 40
-2.914244478031624
 40
-2.16113677711151
 40
-1.911576306404881
 40
-1.563620246163732
 40
-1.258995085087951
 40
-1.12150162456058
 40
-0.8680746548169804
 40
-0.5048266649697931
 40
-0.4452020639371633
 40
-0.191976763197454
 40
-0.0935397529848038
 40
0.0
 40
0.0
 40
0.0
 40
0.0
 10
0.0001016515388699
 20
24.01595623322597
 30
0.0
 10
0.8106434999289576
 20
24.01549507296429
 30
0.0
 10
2.303147098774232
 20
24.01976529956757
 30
0.0
 10
4.404084476335754
 20
24.12923785265575
 30
0.0
 10
6.021270533861696
 20
24.30002450904963
 30
0.0
 10
7.204165192765984
 20
24.48059076049453
 30
0.0
 10
7.859991796205207
 20
24.59940965548837
 30
0.0
 10
8.306157710933306
 20
24.6716912436114
 30
0.0
 10
8.58997856485739
 20
24.7766728730743
 30
0.0
 10
8.783538346832003
 20
24.97255785231727
 30
0.0
 10
8.85029120279735
 20
25.19607739076938
 30
0.0
 10
8.902623119541005
 20
25.44271408215308
 30
0.0
 10
8.965560077565826
 20
25.65820489886348
 30
0.0
 10
9.018873743428898
 20
25.87832439653101
 30
0.0
 10
8.975516961026813
 20
26.02133025856174
 30
0.0
 10
8.855298007327207
 20
26.11522498229256
 30
0.0
 10
8.786804914046172
 20
26.11619160071287
 30
0.0
 10
8.75727309668747
 20
26.10769909501313
 30
0.0
  0
SPLINE
  5
6D
330
1F
100
AcDbEntity
  8
Default
100
AcDbSpline
210
0.0
220
0.0
230
1.0
 70
     8
 71
     3
 72
    11
 73
     7
 74
     0
 42
0.0000000001
 43
0.0000000001
 40
-8.828385860723529
 40
-8.828385860723529
 40
-8.828385860723529
 40
-8.828385860723529
 40
-4.761297182648503
 40
-2.439691263724185
 40
-1.214188025933733
 40
0.0
 40
0.0
 40
0.0
 40
0.0
 10
8.75727309668747
 20
26.10769909501313
 30
0.0
 10
7.436626363300803
 20
25.80380528938457
 30
0.0
 10
5.338813889864497
 20
25.41049366309366
 30
0.0
 10
2.803436303066732
 20
25.24458839829634
 30
0.0
 10
1.218577971634488
 20
25.18007693626727
 30
0.0
 10
0.4046017363482974
 20
25.1747935551574
 30
0.0
 10
0.0001016515388699
 20
25.17363079819539
 30
0.0
  0
SPLINE
  5
6E
330
1F
100
AcDbEntity
  8
Default
100
AcDbSpline
210
0.0
220
0.0
230
1.0
 70
    12
 71
     2
 72
     6
 73
     3
 74
     0
 42
0.0000000001
 43
0.0000000001
 40
0.0
 40
0.0
 40
0.0
 40
0.136497131246725
 40
0.136497131246725
 40
0.136497131246725
 10
47.53667025642532
 20
24.00688557365039
 30
0.0
 41
1.0
 10
47.58357365453723
 20
24.05693668797444
 30
0.0
 41
0.9924780464036579
 10
47.61690853026911
 20
24.11688523974563
 30
0.0
 41
1.0
  0
SPLINE
  5
6F
330
1F
100
AcDbEntity
  8
Default
100
AcDbSpline
210
0.0
220
0.0
230
1.0
 70
    12
 71
     2
 72
     6
 73
     3
 74
     0
 42
0.0000000001
 43
0.0000000001
 40
0.0
 40
0.0
 40
0.0
 40
0.8264390978013532
 40
0.8264390978013532
 40
0.8264390978013532
 10
47.61690853026911
 20
24.11688523974563
 30
0.0
 41
1.0
 10
47.81150680710901
 20
24.48177194936464
 30
0.0
 41
0.9986048383852346
 10
47.97232746090452
 20
24.86275425540842
 30
0.0
 41
0.9992567506520554
  0
ARC
  5
70
330
1F
100
AcDbEntity
  8
Default
100
AcDbCircle
 10
48.20264819988346
 20
24.7655310215793
 30
0.0
 40
0.25
100
AcDbArc
 50
56.90320801781194
 51
157.1143678715038
  0
LINE
  5
71
330
1F
100
AcDbEntity
  8
Default
100
AcDbLine
 10
48.33916196385621
 20
24.97496834453294
 30
0.0
 11
48.48362153286644
 21
24.88080786143782
 31
0.0
  0
ARC
  5
72
330
1F
100
AcDbEntity
  8
Default
100
AcDbCircle
 10
47.81296636345228
 20
23.88011555159982
 30
0.0
 40
1.20464245950026
100
AcDbArc
 50
25.22628804628217
 51
56.1703549918263
  0
SPLINE
  5
73
330
1F
100
AcDbEntity
  8
Default
100
AcDbSpline
210
0.0
220
0.0
230
1.0
 70
    12
 71
     2
 72
     6
 73
     3
 74
     0
 42
0.0000000001
 43
0.0000000001
 40
-1.357066206308517
 40
-1.357066206308517
 40
-1.357066206308517
 40
0.0
 40
0.0
 40
0.0
 10
48.90272400405078
 20
24.39352741354694
 30
0.0
 41
1.0
 10
48.43196409712039
 20
23.89929773271423
 30
0.0
 41
0.991190278644199
 10
47.84795644213331
 20
23.54600900333616
 30
0.0
 41
1.0
  0
SPLINE
  5
74
330
1F
100
AcDbEntity
  8
Default
100
AcDbSpline
210
0.0
220
0.0
230
1.0
 70
    12
 71
     2
 72
     6
 73
     3
 74
     0
 42
0.0000000001
 43
0.0000000001
 40
-0.2347042026955195
 40
-0.2347042026955195
 40
-0.2347042026955195
 40
0.0
 40
0.0
 40
0.0
 10
47.84795644213331
 20
23.54600900333616
 30
0.0
 41
1.0
 10
47.74558122487827
 20
23.48367398392435
 30
0.0
 41
0.9689121470040515
 10
47.62585350670373
 20
23.47805141744597
 30
0.0
 41
1.0
  0
SPLINE
  5
75
330
1F
100
AcDbEntity
  8
Default
100
AcDbSpline
210
0.0
220
0.0
230
1.0
 70
    12
 71
     2
 72
     6
 73
     3
 74
     0
 42
0.0000000001
 43
0.0000000001
 40
-0.0744622706341129
 40
-0.0744622706341129
 40
-0.0744622706341129
 40
0.0
 40
0.0
 40
0.0
 10
47.62585350670373
 20
23.47805141744597
 30
0.0
 41
1.0
 10
47.58867461379476
 20
23.47607976112171
 30
0.0
 41
0.9999999623414183
 10
47.5514968086878
 20
23.47408769836497
 30
0.0
 41
1.0
  0
SPLINE
  5
76
330
1F
100
AcDbEntity
  8
Default
100
AcDbSpline
210
0.0
220
0.0
230
1.0
 70
    12
 71
     2
 72
     6
 73
     3
 74
     0
 42
0.0000000001
 43
0.0000000001
 40
-0.3487157040704518
 40
-0.3487157040704518
 40
-0.3487157040704518
 40
-0.0287461451405254
 40
-0.0287461451405254
 40
-0.0287461451405254
 10
49.22835615153556
 20
24.13792409948417
 30
0.0
 41
1.0
 10
49.11650660455736
 20
24.25300455452176
 30
0.0
 41
0.9951609814664577
 10
48.90365050259579
 20
24.39504185694286
 30
0.0
 41
0.9992021975065695
  0
SPLINE
  5
77
330
1F
100
AcDbEntity
  8
Default
100
AcDbSpline
210
0.0
220
0.0
230
1.0
 70
     8
 71
     3
 72
    20
 73
    16
 74
     0
 42
0.0000000001
 43
0.0000000001
 40
0.0
 40
0.0
 40
0.0
 40
0.0
 40
1.0
 40
2.0
 40
3.0
 40
4.0
 40
5.0
 40
6.0
 40
7.0
 40
8.0
 40
9.0
 40
10.0
 40
11.0
 40
12.0
 40
13.0
 40
13.0
 40
13.0
 40
13.0
 10
46.41938462084569
 20
23.71401688373098
 30
0.0
 10
46.10917430288649
 20
23.70743711648547
 30
0.0
 10
45.48887132665121
 20
23.68876992702877
 30
0.0
 10
44.55902426209769
 20
23.64513101077894
 30
0.0
 10
43.63002691683563
 20
23.58595553657901
 30
0.0
 10
42.70232352512409
 20
23.50914443112604
 30
0.0
 10
41.77600242801559
 20
23.41729811047354
 30
0.0
 10
40.85079818434161
 20
23.31494331836291
 30
0.0
 10
39.92633584777231
 20
23.20612263444094
 30
0.0
 10
39.00223379386441
 20
23.09437168936967
 30
0.0
 10
38.07763365764697
 20
22.98652718064503
 30
0.0
 10
37.15210301520992
 20
22.88790296683564
 30
0.0
 10
36.22263610448451
 20
22.82416055041704
 30
0.0
 10
35.29589296344771
 20
22.77542743195861
 30
0.0
 10
34.66508878523874
 20
22.85965082075905
 30
0.0
 10
34.37462653073611
 20
22.74499000863957
 30
0.0
  0
SPLINE
  5
78
330
1F
100
AcDbEntity
  8
Default
100
AcDbSpline
210
0.0
220
0.0
230
1.0
 70
    12
 71
     2
 72
     6
 73
     3
 74
     0
 42
0.0000000001
 43
0.0000000001
 40
-0.687820922641539
 40
-0.687820922641539
 40
-0.687820922641539
 40
0.0
 40
0.0
 40
0.0
 10
34.37462653073611
 20
22.74499000863957
 30
0.0
 41
1.0
 10
34.1238333416401
 20
22.50965606185857
 30
0.0
 41
0.9999690258309426
 10
33.87677557941313
 20
22.2704035752929
 30
0.0
 41
1.0
  0
SPLINE
  5
79
330
1F
100
AcDbEntity
  8
Default
100
AcDbSpline
210
0.0
220
0.0
230
1.0
 70
    12
 71
     2
 72
     6
 73
     3
 74
     0
 42
0.0000000001
 43
0.0000000001
 40
0.0
 40
0.0
 40
0.0
 40
0.108394787279406
 40
0.108394787279406
 40
0.108394787279406
 10
32.04021073587444
 20
23.73619016065419
 30
0.0
 41
1.0
 10
31.98631810536154
 20
23.74192966716085
 30
0.0
 41
0.999999979266735
 10
31.93242781682764
 20
23.74769112186172
 30
0.0
 41
1.0
  0
SPLINE
  5
7A
330
1F
100
AcDbEntity
  8
Default
100
AcDbSpline
210
0.0
220
0.0
230
1.0
 70
    24
 71
     2
 72
     6
 73
     3
 74
     0
 42
0.0000000001
 43
0.0000000001
 40
-0.2325307321403076
 40
-0.2325307321403076
 40
-0.2325307321403076
 40
-0.0181596897530964
 40
-0.0181596897530964
 40
-0.0181596897530964
 10
32.20463900920694
 20
23.87373369314243
 30
0.0
 10
32.12242487308382
 20
23.80496192656023
 30
0.0
 10
32.04021073696069
 20
23.73619015997803
 30
0.0
  0
SPLINE
  5
7B
330
1F
100
AcDbEntity
  8
Default
100
AcDbSpline
210
0.0
220
0.0
230
1.0
 70
    12
 71
     2
 72
     6
 73
     3
 74
     0
 42
0.0000000001
 43
0.0000000001
 40
0.0
 40
0.0
 40
0.0
 40
0.0457929944082863
 40
0.0457929944082863
 40
0.0457929944082863
 10
32.04021073696069
 20
23.73619015997803
 30
0.0
 41
1.0
 10
32.03425209672834
 20
23.71180332721982
 30
0.0
 41
0.8731582744741458
 10
32.05188347101839
 20
23.69393274777039
 30
0.0
 41
1.0
  0
SPLINE
  5
7C
330
1F
100
AcDbEntity
  8
Default
100
AcDbSpline
210
0.0
220
0.0
230
1.0
 70
    12
 71
     2
 72
     6
 73
     3
 74
     0
 42
0.0000000001
 43
0.0000000001
 40
0.0
 40
0.0
 40
0.0
 40
2.137039182577097
 40
2.137039182577097
 40
2.137039182577097
 10
32.05188347101839
 20
23.69393274777039
 30
0.0
 41
1.0
 10
32.8046958999278
 20
22.92999892998392
 30
0.0
 41
0.9944000822514505
 10
33.70125519224922
 20
22.34135398909814
 30
0.0
 41
1.0
  0
SPLINE
  5
7D
330
1F
100
AcDbEntity
  8
Default
100
AcDbSpline
210
0.0
220
0.0
230
1.0
 70
    12
 71
     2
 72
     6
 73
     3
 74
     0
 42
0.0000000001
 43
0.0000000001
 40
-0.1906435954869634
 40
-0.1906435954869634
 40
-0.1906435954869634
 40
0.0
 40
0.0
 40
0.0
 10
33.70125519224922
 20
22.34135398909814
 30
0.0
 41
1.0
 10
33.78165953388537
 20
22.28768153834304
 30
0.0
 41
0.9791718629292984
 10
33.87677557941313
 20
22.2704035752929
 30
0.0
 41
1.0
  0
SPLINE
  5
7E
330
1F
100
AcDbEntity
  8
Default
100
AcDbSpline
210
0.0
220
0.0
230
1.0
 70
     8
 71
     3
 72
    14
 73
    10
 74
     0
 42
0.0000000001
 43
0.0000000001
 40
0.0
 40
0.0
 40
0.0
 40
0.0
 40
0.6990240910473118
 40
1.427452671610304
 40
2.963428520767245
 40
4.341267153930231
 40
7.279531458324128
 40
8.656584164251418
 40
12.64851224199838
 40
12.64851224199838
 40
12.64851224199838
 40
12.64851224199838
 10
33.87677557941313
 20
22.2704035752929
 30
0.0
 10
34.10592785500241
 20
22.22788396709061
 30
0.0
 10
34.57697226940871
 20
22.15931944010294
 30
0.0
 10
35.56352371375429
 20
22.09220982096586
 30
0.0
 10
36.77881307528573
 20
22.1428459787254
 30
0.0
 10
38.71279043757917
 20
22.4044024120347
 30
0.0
 10
40.57496798771054
 20
22.77369506879903
 30
0.0
 10
43.31479450796974
 20
23.17923267830442
 30
0.0
 10
45.1005563474216
 20
23.32031025846444
 30
0.0
 10
46.42789292434129
 20
23.40826770086731
 30
0.0
  0
SPLINE
  5
7F
330
1F
100
AcDbEntity
  8
Default
100
AcDbSpline
210
0.0
220
0.0
230
1.0
 70
     8
 71
     3
 72
    23
 73
    19
 74
     0
 42
0.0000000001
 43
0.0000000001
 40
-17.9686236409989
 40
-17.9686236409989
 40
-17.9686236409989
 40
-17.9686236409989
 40
-17.45341459592076
 40
-17.35126446118563
 40
-17.31388856261465
 40
-17.22998332040851
 40
-17.09577373227868
 40
-15.4228300371513
 40
-10.16604820698678
 40
-8.509741002941979
 40
-6.085128693056221
 40
-5.382701377325557
 40
-3.792327664688375
 40
-2.768276421601119
 40
-1.888480730619187
 40
-0.9523693663536067
 40
-0.723128482373148
 40
0.0
 40
0.0
 40
0.0
 40
0.0
 10
32.24705014946551
 20
25.01987429525178
 30
0.0
 10
32.37845737836805
 20
25.13039876470319
 30
0.0
 10
32.53892507816738
 20
25.25955901794749
 30
0.0
 10
32.7186072739341
 20
25.38343042111823
 30
0.0
 10
32.78061296080244
 20
25.42508060791991
 30
0.0
 10
32.862075048013
 20
25.45346367930831
 30
0.0
 10
33.49057725979128
 20
25.50289917413873
 30
0.0
 10
35.83774693234619
 20
25.6958527484387
 30
0.0
 10
38.6938230559451
 20
25.87094937623455
 30
0.0
 10
41.80566893103199
 20
25.98575246821357
 30
0.0
 10
43.39674252081063
 20
26.04370738746328
 30
0.0
 10
44.97210139500665
 20
26.09554469082032
 30
0.0
 10
46.07186834484563
 20
26.12153635185889
 30
0.0
 10
47.24484711868583
 20
26.04185896792578
 30
0.0
 10
48.13998065890564
 20
25.71840092504858
 30
0.0
 10
48.70918361426456
 20
25.32946684256767
 30
0.0
 10
49.15353742263613
 20
24.88263831724914
 30
0.0
 10
49.30578249730056
 20
24.59645389695273
 30
0.0
 10
49.48360789694675
 20
24.43046366599718
 30
0.0
  0
SPLINE
  5
80
330
1F
100
AcDbEntity
  8
Default
100
AcDbSpline
210
0.0
220
0.0
230
1.0
 70
     8
 71
     3
 72
    14
 73
    10
 74
     0
 42
0.0000000001
 43
0.0000000001
 40
-7.0
 40
-7.0
 40
-7.0
 40
-7.0
 40
-6.0
 40
-5.0
 40
-4.0
 40
-3.0
 40
-2.0
 40
-1.0
 40
0.0
 40
0.0
 40
0.0
 40
0.0
 10
49.48360789694675
 20
24.43046366599718
 30
0.0
 10
49.51108721137201
 20
24.399578857228
 30
0.0
 10
49.57780684999466
 20
24.35641598286255
 30
0.0
 10
49.66658392449337
 20
24.26760466089074
 30
0.0
 10
49.6122261116716
 20
24.14077785460176
 30
0.0
 10
49.53792448402584
 20
24.05341303500822
 30
0.0
 10
49.42251341191918
 20
23.98302202272695
 30
0.0
 10
49.31265473658428
 20
24.05506007469347
 30
0.0
 10
49.25665411804559
 20
24.10880871233607
 30
0.0
 10
49.22835615153556
 20
24.13792409948417
 30
0.0
  0
SPLINE
  5
81
330
1F
100
AcDbEntity
  8
Default
100
AcDbSpline
210
0.0
220
0.0
230
1.0
 70
    12
 71
     2
 72
     8
 73
     5
 74
     0
 42
0.0000000001
 43
0.0000000001
 40
-1.131082174975068
 40
-1.131082174975068
 40
-1.131082174975068
 40
-0.5311319982797426
 40
-0.5311319982797426
 40
0.0
 40
0.0
 40
0.0
 10
49.22835615153556
 20
24.13792409948417
 30
0.0
 41
1.0
 10
49.01908082604137
 20
24.35324459327842
 30
0.0
 41
0.9985522946097442
 10
48.79757808818263
 20
24.68260751956464
 30
0.0
 41
1.0
 10
48.62872720477996
 20
24.88964219362463
 30
0.0
 41
0.9910793595359968
 10
48.4111824783669
 20
25.04471723706766
 30
0.0
 41
1.0
  0
SPLINE
  5
82
330
1F
100
AcDbEntity
  8
Default
100
AcDbSpline
210
0.0
220
0.0
230
1.0
 70
     8
 71
     3
 72
    17
 73
    13
 74
     0
 42
0.0000000001
 43
0.0000000001
 40
-15.65411752985806
 40
-15.65411752985806
 40
-15.65411752985806
 40
-15.65411752985806
 40
-15.02730075433966
 40
-14.43451220324734
 40
-13.71768333908225
 40
-12.76915707112372
 40
-11.57409979907015
 40
-10.91174483143177
 40
-8.853644510865058
 40
-5.160327740573998
 40
-2.520433580507965
 40
0.0
 40
0.0
 40
0.0
 40
0.0
 10
48.4111824783669
 20
25.04471723706766
 30
0.0
 10
48.24633762315275
 20
25.17294749854641
 30
0.0
 10
47.90443497533349
 20
25.39730137833572
 30
0.0
 10
47.29289040929017
 20
25.61742219362334
 30
0.0
 10
46.54541170924696
 20
25.72364687417432
 30
0.0
 10
45.59150572968265
 20
25.74384700881376
 30
0.0
 10
44.65643066487951
 20
25.72589518548142
 30
0.0
 10
43.35178999293932
 20
25.68655204045758
 30
0.0
 10
41.21496364630984
 20
25.62058868032596
 30
0.0
 10
38.41932660542159
 20
25.52461611301934
 30
0.0
 10
35.47331901616656
 20
25.34498334680475
 30
0.0
 10
33.75972041752601
 20
25.19351693194155
 30
0.0
 10
32.92407813115398
 20
25.10663364302962
 30
0.0
  0
SPLINE
  5
83
330
1F
100
AcDbEntity
  8
Default
100
AcDbSpline
210
0.0
220
0.0
230
1.0
 70
    12
 71
     2
 72
     6
 73
     3
 74
     0
 42
0.0000000001
 43
0.0000000001
 40
-0.1603149038788934
 40
-0.1603149038788934
 40
-0.1603149038788934
 40
0.0
 40
0.0
 40
0.0
 10
32.92407813115398
 20
25.10663364302962
 30
0.0
 41
1.0
 10
32.84289140377506
 20
25.10202381701275
 30
0.0
 41
0.978738299541518
 10
32.77038680845699
 20
25.0652050873203
 30
0.0
 41
1.0
  0
SPLINE
  5
84
330
1F
100
AcDbEntity
  8
Default
100
AcDbSpline
210
0.0
220
0.0
230
1.0
 70
    12
 71
     2
 72
     6
 73
     3
 74
     0
 42
0.0000000001
 43
0.0000000001
 40
-0.4001929047078155
 40
-0.4001929047078155
 40
-0.4001929047078155
 40
0.0
 40
0.0
 40
0.0
 10
32.77038680845699
 20
25.0652050873203
 30
0.0
 41
1.0
 10
32.59718655473373
 20
24.96461753658792
 30
0.0
 41
0.998549274239925
 10
32.43580731224671
 20
24.84598818378495
 30
0.0
 41
1.0
  0
SPLINE
  5
85
330
1F
100
AcDbEntity
  8
Default
100
AcDbSpline
210
0.0
220
0.0
230
1.0
 70
     8
 71
     3
 72
    24
 73
    20
 74
     0
 42
0.0000000001
 43
0.0000000001
 40
0.0
 40
0.0
 40
0.0
 40
0.0
 40
1.0
 40
2.0
 40
3.0
 40
4.0
 40
5.0
 40
6.0
 40
7.0
 40
8.0
 40
9.0
 40
10.0
 40
11.0
 40
12.0
 40
13.0
 40
14.0
 40
15.0
 40
16.0
 40
16.13599113825579
 40
16.13599113825579
 40
16.13599113825579
 40
16.13599113825579
 10
34.07535053267516
 20
23.20632218479982
 30
0.0
 10
34.12359615501722
 20
23.16749398682837
 30
0.0
 10
34.22274880103375
 20
23.0927635276627
 30
0.0
 10
34.38092491429094
 20
22.99553428830378
 30
0.0
 10
34.54661245908967
 20
22.90847666929904
 30
0.0
 10
34.73073899746976
 20
22.87228277140254
 30
0.0
 10
34.91255958411247
 20
22.85735758481881
 30
0.0
 10
35.11352112920977
 20
22.93161782003474
 30
0.0
 10
35.02980416294496
 20
23.1432533133217
 30
0.0
 10
34.92486323802306
 20
23.28483036140209
 30
0.0
 10
34.80451107788829
 20
23.42995833521448
 30
0.0
 10
34.67946332507844
 20
23.56657040085062
 30
0.0
 10
34.55515412218755
 20
23.70500599854137
 30
0.0
 10
34.43184448135621
 20
23.84402525298508
 30
0.0
 10
34.3094710662842
 20
23.98395142880515
 30
0.0
 10
34.18806079438824
 20
24.12469233621682
 30
0.0
 10
34.06760300054641
 20
24.26625497765042
 30
0.0
 10
33.9825663015319
 20
24.36766202108166
 30
0.0
 10
33.93756292027427
 20
24.42177849541311
 30
0.0
 10
33.93217868366341
 20
24.42825950183705
 30
0.0
  0
ARC
  5
86
330
1F
100
AcDbEntity
  8
Default
100
AcDbCircle
 10
34.1244760451934
 20
24.58801470440838
 30
0.0
 40
0.25
100
AcDbArc
 50
92.60936929485611
 51
219.7188424820523
  0
SPLINE
  5
87
330
1F
100
AcDbEntity
  8
Default
100
AcDbSpline
210
0.0
220
0.0
230
1.0
 70
     8
 71
     3
 72
    12
 73
     8
 74
     0
 42
0.0000000001
 43
0.0000000001
 40
0.1004929713206162
 40
0.1004929713206162
 40
0.1004929713206162
 40
0.1004929713206162
 40
3.645618499081671
 40
6.068168658872678
 40
9.511558966442593
 40
11.17798759891832
 40
12.53266205303574
 40
12.53266205303574
 40
12.53266205303574
 40
12.53266205303574
 10
34.11309445913633
 20
24.83775548902079
 30
0.0
 10
35.29354770184048
 20
24.89155299025367
 30
0.0
 10
37.27639150886102
 20
25.05836850683496
 30
0.0
 10
40.40620665921173
 20
25.26685946441688
 30
0.0
 10
42.913438390677
 20
25.40604687573271
 30
0.0
 10
45.06418913094728
 20
25.53269724888741
 30
0.0
 10
46.0705495654388
 20
25.58312371951857
 30
0.0
 10
46.52203338014343
 20
25.57493048263164
 30
0.0
  0
SPLINE
  5
88
330
1F
100
AcDbEntity
  8
Default
100
AcDbSpline
210
0.0
220
0.0
230
1.0
 70
     8
 71
     3
 72
     9
 73
     5
 74
     0
 42
0.0000000001
 43
0.0000000001
 40
-2.0
 40
-2.0
 40
-2.0
 40
-2.0
 40
-1.0
 40
0.0
 40
0.0
 40
0.0
 40
0.0
 10
46.52203338014343
 20
25.57493048263164
 30
0.0
 10
46.60151980363747
 20
25.57348801431767
 30
0.0
 10
46.81025103389868
 20
25.51674086548663
 30
0.0
 10
46.77617966308991
 20
25.31384161012314
 30
0.0
 10
46.74032944330708
 20
25.24083678531121
 30
0.0
  0
SPLINE
  5
89
330
1F
100
AcDbEntity
  8
Default
100
AcDbSpline
210
0.0
220
0.0
230
1.0
 70
    12
 71
     2
 72
     6
 73
     3
 74
     0
 42
0.0000000001
 43
0.0000000001
 40
0.0
 40
0.0
 40
0.0
 40
2.011907681528288
 40
2.011907681528288
 40
2.011907681528288
 10
-7.006245521903726
 20
74.38564212717708
 30
0.0
 41
1.0
 10
-7.968810391996188
 20
74.67994838053619
 30
0.0
 41
0.9991085654434491
 10
-8.903118632466631
 20
75.05440186455174
 30
0.0
 41
1.0
  0
SPLINE
  5
8A
330
1F
100
AcDbEntity
  8
Default
100
AcDbSpline
210
0.0
220
0.0
230
1.0
 70
    12
 71
     2
 72
     8
 73
     5
 74
     0
 42
0.0000000001
 43
0.0000000001
 40
0.0
 40
0.0
 40
0.0
 40
0.1959645976220034
 40
0.1959645976220034
 40
0.3919291952440067
 40
0.3919291952440067
 40
0.3919291952440067
 10
30.07440268554376
 20
7.660785403139567
 30
0.0
 41
1.0
 10
30.07489990054886
 20
7.764167133490337
 30
0.0
 41
0.9234522264417051
 10
30.00198592655702
 20
7.837458209275845
 30
0.0
 41
1.0
 10
29.92907195256517
 20
7.910749285061357
 30
0.0
 41
0.9234522264417051
 10
29.82568903284015
 20
7.910785371200968
 30
0.0
 41
1.0
  0
SPLINE
  5
8B
330
1F
100
AcDbEntity
  8
Default
100
AcDbSpline
210
0.0
220
0.0
230
1.0
 70
    12
 71
     2
 72
     6
 73
     3
 74
     0
 42
0.0000000001
 43
0.0000000001
 40
0.0
 40
0.0
 40
0.0
 40
0.331445418919184
 40
0.331445418919184
 40
0.331445418919184
 10
-10.1985765159985
 20
76.04707918853971
 30
0.0
 41
1.0
 10
-10.19857847999861
 20
75.87554662255121
 30
0.0
 41
0.9569203431311061
 10
-10.10372963265807
 20
75.73363634611235
 30
0.0
 41
1.0
  0
SPLINE
  5
8C
330
1F
100
AcDbEntity
  8
Default
100
AcDbSpline
210
0.0
220
0.0
230
1.0
 70
    12
 71
     2
 72
     6
 73
     3
 74
     0
 42
0.0000000001
 43
0.0000000001
 40
0.0
 40
0.0
 40
0.0
 40
0.8799424134398891
 40
0.8799424134398891
 40
0.8799424134398891
 10
-9.635078285943067
 20
76.60872711455092
 30
0.0
 41
1.0
 10
-10.19693249144289
 20
76.60681983236995
 30
0.0
 41
0.7093524655190331
 10
-10.1985765159985
 20
76.04707918853971
 30
0.0
 41
1.0
  0
SPLINE
  5
8D
330
1F
100
AcDbEntity
  8
Default
100
AcDbSpline
210
0.0
220
0.0
230
1.0
 70
     8
 71
     3
 72
    13
 73
     9
 74
     0
 42
0.0000000001
 43
0.0000000001
 40
-3.219240749456699
 40
-3.219240749456699
 40
-3.219240749456699
 40
-3.219240749456699
 40
-1.608780363830926
 40
-1.137367279769164
 40
-0.8321297490398771
 40
-0.4053393049321962
 40
-0.2006690731634779
 40
0.0
 40
0.0
 40
0.0
 40
0.0
 10
-8.81436804209588
 20
73.73591953649266
 30
0.0
 10
-8.849484854439838
 20
74.27152687935649
 30
0.0
 10
-8.883715989351302
 20
74.96495425518863
 30
0.0
 10
-8.973782545977883
 20
75.75594245891875
 30
0.0
 10
-9.0361055200443
 20
76.15197841054992
 30
0.0
 10
-9.181970624830115
 20
76.4410712760162
 30
0.0
 10
-9.433373456107875
 20
76.58341117761071
 30
0.0
 10
-9.563749150235918
 20
76.60831597346679
 30
0.0
 10
-9.635078285943067
 20
76.60872711455092
 30
0.0
  0
SPLINE
  5
8E
330
1F
100
AcDbEntity
  8
Default
100
AcDbSpline
210
0.0
220
0.0
230
1.0
 70
     8
 71
     3
 72
    19
 73
    15
 74
     0
 42
0.0000000001
 43
0.0000000001
 40
0.0
 40
0.0
 40
0.0
 40
0.0
 40
2.232247940101095
 40
4.462819732511551
 40
6.899475607671127
 40
8.91937015223986
 40
9.019515739888016
 40
9.090866166954358
 40
9.218595657282524
 40
9.238659435547545
 40
9.470060216773138
 40
9.710123961932329
 40
10.86335533494464
 40
11.51386883183247
 40
11.51386883183247
 40
11.51386883183247
 40
11.51386883183247
 10
0.0337939352363605
 20
75.45395109712823
 30
0.0
 10
0.7777165357439344
 20
75.45385610347748
 30
0.0
 10
2.26484739790709
 20
75.38434418809857
 30
0.0
 10
4.543788658498613
 20
75.05886802651321
 30
0.0
 10
6.709037819653219
 20
74.51963716604888
 30
0.0
 10
8.146131444336902
 20
74.02638152349633
 30
0.0
 10
8.824779933100814
 20
73.755538470522
 30
0.0
 10
8.904064668472046
 20
73.69428081871823
 30
0.0
 10
8.958699912248193
 20
73.64243762731209
 30
0.0
 10
8.992035826455691
 20
73.51889066114583
 30
0.0
 10
9.033447639468392
 20
73.36124491490719
 30
0.0
 10
9.187505059403094
 20
72.84171461012468
 30
0.0
 10
9.407898191316832
 20
72.19739177064025
 30
0.0
 10
9.570031836565903
 20
71.56536229851818
 30
0.0
 10
9.609589287313241
 20
71.35225980532553
 30
0.0
  0
SPLINE
  5
8F
330
1F
100
AcDbEntity
  8
Default
100
AcDbSpline
210
0.0
220
0.0
230
1.0
 70
     8
 71
     3
 72
    19
 73
    15
 74
     0
 42
0.0000000001
 43
0.0000000001
 40
-11.51386883183247
 40
-11.51386883183247
 40
-11.51386883183247
 40
-11.51386883183247
 40
-10.86335533494464
 40
-9.710123961932329
 40
-9.470060216773138
 40
-9.238659435547545
 40
-9.218595657282524
 40
-9.090866166954358
 40
-9.019515739888016
 40
-8.91937015223986
 40
-6.899475607671127
 40
-4.462819732511551
 40
-2.232247940101095
 40
0.0
 40
0.0
 40
0.0
 40
0.0
 10
-9.542001416840492
 20
71.35225980532553
 30
0.0
 10
-9.502443966093182
 20
71.56536229851818
 30
0.0
 10
-9.340310320844083
 20
72.19739177064025
 30
0.0
 10
-9.119917188930373
 20
72.84171461012468
 30
0.0
 10
-8.965859768995642
 20
73.36124491490719
 30
0.0
 10
-8.92444795598297
 20
73.51889066114583
 30
0.0
 10
-8.891112041775472
 20
73.64243762731209
 30
0.0
 10
-8.836476797999325
 20
73.69428081871823
 30
0.0
 10
-8.757192062628093
 20
73.755538470522
 30
0.0
 10
-8.07854357386418
 20
74.02638152349633
 30
0.0
 10
-6.641449949180497
 20
74.51963716604888
 30
0.0
 10
-4.476200788025864
 20
75.05886802651321
 30
0.0
 10
-2.197259527434369
 20
75.38434418809857
 30
0.0
 10
-0.7101286652712133
 20
75.45385610347748
 30
0.0
 10
0.0337939352363605
 20
75.45395109712823
 30
0.0
  0
SPLINE
  5
90
330
1F
100
AcDbEntity
  8
Default
100
AcDbSpline
210
0.0
220
0.0
230
1.0
 70
    12
 71
     2
 72
    10
 73
     7
 74
     0
 42
0.0000000001
 43
0.0000000001
 40
-0.1282201628013348
 40
-0.1282201628013348
 40
-0.1282201628013348
 40
0.0
 40
0.0
 40
0.1060175460643373
 40
0.1060175460643373
 40
0.7644817079169229
 40
0.7644817079169229
 40
0.7644817079169229
 10
-9.563185417908329
 20
70.48297616138902
 30
0.0
 41
1.0
 10
-9.625955775098246
 20
70.50487945172033
 30
0.0
 41
0.9473303484341768
 10
-9.670634585779823
 20
70.55741847770858
 30
0.0
 41
1.0
 10
-9.702424139457051
 20
70.60400113165034
 30
0.0
 41
0.912286974915978
 10
-9.68874023190069
 20
70.6587119171073
 30
0.0
 41
0.9999992032399301
 10
-9.602113257941017
 20
71.0284274307181
 30
0.0
 41
0.9993961059510184
 10
-9.542001416840513
 20
71.35225980532552
 30
0.0
 41
0.9999992040962243
  0
SPLINE
  5
91
330
1F
100
AcDbEntity
  8
Default
100
AcDbSpline
210
0.0
220
0.0
230
1.0
 70
     8
 71
     3
 72
    14
 73
    10
 74
     0
 42
0.0000000001
 43
0.0000000001
 40
-10.1118640375627
 40
-10.1118640375627
 40
-10.1118640375627
 40
-10.1118640375627
 40
-7.352656220994111
 40
-6.166555932487759
 40
-3.620449295513177
 40
-2.259118278458852
 40
-1.094312261690871
 40
-0.4769411130260029
 40
0.0
 40
0.0
 40
0.0
 40
0.0
 10
0.0337939352363605
 20
73.00812156378674
 30
0.0
 10
-0.8863730088859825
 20
73.01019911436035
 30
0.0
 10
-2.197573862587916
 20
72.77686178742181
 30
0.0
 10
-4.199429777337201
 20
71.94927759379777
 30
0.0
 10
-5.666209745062787
 20
71.08281967647568
 30
0.0
 10
-7.259959578413174
 20
70.502060510685
 30
0.0
 10
-8.297150759669051
 20
70.31985306181534
 30
0.0
 10
-9.05375454763066
 20
70.36954062041104
 30
0.0
 10
-9.411584200754277
 20
70.43007594506784
 30
0.0
 10
-9.563185417908329
 20
70.48297616138902
 30
0.0
  0
SPLINE
  5
92
330
1F
100
AcDbEntity
  8
Default
100
AcDbSpline
210
0.0
220
0.0
230
1.0
 70
     8
 71
     3
 72
    14
 73
    10
 74
     0
 42
0.0000000001
 43
0.0000000001
 40
0.0
 40
0.0
 40
0.0
 40
0.0
 40
0.4769411130260029
 40
1.094312261690871
 40
2.259118278458852
 40
3.620449295513177
 40
6.166555932487759
 40
7.352656220994111
 40
10.1118640375627
 40
10.1118640375627
 40
10.1118640375627
 40
10.1118640375627
 10
9.63077328838105
 20
70.48297616138902
 30
0.0
 10
9.479172071227026
 20
70.43007594506784
 30
0.0
 10
9.12134241810341
 20
70.36954062041104
 30
0.0
 10
8.364738630141801
 20
70.31985306181534
 30
0.0
 10
7.327547448885923
 20
70.502060510685
 30
0.0
 10
5.733797615535508
 20
71.08281967647568
 30
0.0
 10
4.267017647809951
 20
71.94927759379777
 30
0.0
 10
2.265161733060665
 20
72.77686178742181
 30
0.0
 10
0.953960879358732
 20
73.01019911436035
 30
0.0
 10
0.0337939352363605
 20
73.00812156378674
 30
0.0
  0
SPLINE
  5
93
330
1F
100
AcDbEntity
  8
Default
100
AcDbSpline
210
0.0
220
0.0
230
1.0
 70
    12
 71
     2
 72
    10
 73
     7
 74
     0
 42
0.0000000001
 43
0.0000000001
 40
-0.7644817079169229
 40
-0.7644817079169229
 40
-0.7644817079169229
 40
-0.1060175460643373
 40
-0.1060175460643373
 40
0.0
 40
0.0
 40
0.1282201628013348
 40
0.1282201628013348
 40
0.1282201628013348
 10
9.609589287313241
 20
71.35225980532552
 30
0.0
 41
0.9999992040962243
 10
9.669701128413768
 20
71.0284274307181
 30
0.0
 41
0.9993961059510184
 10
9.756328102373423
 20
70.6587119171073
 30
0.0
 41
0.9999992032399301
 10
9.770012009929784
 20
70.60400113165034
 30
0.0
 41
0.912286974915978
 10
9.738222456252544
 20
70.55741847770858
 30
0.0
 41
1.0
 10
9.693543645570994
 20
70.50487945172033
 30
0.0
 41
0.9473303484341768
 10
9.63077328838105
 20
70.48297616138902
 30
0.0
 41
1.0
  0
SPLINE
  5
94
330
1F
100
AcDbEntity
  8
Default
100
AcDbSpline
210
0.0
220
0.0
230
1.0
 70
     8
 71
     2
 72
    11
 73
     8
 74
     0
 42
0.0000000001
 43
0.0000000001
 40
0.0
 40
0.0
 40
0.0
 40
1.0
 40
2.0
 40
3.0
 40
4.0
 40
5.0
 40
6.0
 40
6.0
 40
6.0
 10
-9.65415915989783
 20
70.80890890277354
 30
0.0
 10
-9.653878915602945
 20
70.90475018062398
 30
0.0
 10
-9.642369829756888
 20
71.09608232854083
 30
0.0
 10
-9.626556478744334
 20
71.28708335393318
 30
0.0
 10
-9.599209408171845
 20
71.47690103286806
 30
0.0
 10
-9.549395121608114
 20
71.66226264809461
 30
0.0
 10
-9.468506284496414
 20
71.83681264836363
 30
0.0
 10
-9.41065038024584
 20
71.91344469665319
 30
0.0
  0
SPLINE
  5
95
330
1F
100
AcDbEntity
  8
Default
100
AcDbSpline
210
0.0
220
0.0
230
1.0
 70
    12
 71
     2
 72
     6
 73
     3
 74
     0
 42
0.0000000001
 43
0.0000000001
 40
0.0
 40
0.0
 40
0.0
 40
4.878290109995292
 40
4.878290109995292
 40
4.878290109995292
 10
0.0337939352363718
 20
72.16969896834442
 30
0.0
 41
0.9999918043754388
 10
-2.414456869493356
 20
72.1579912122162
 30
0.0
 41
0.9934760685754098
 10
-4.796418041520099
 20
71.59201413744802
 30
0.0
 41
1.0
  0
SPLINE
  5
96
330
1F
100
AcDbEntity
  8
Default
100
AcDbSpline
210
0.0
220
0.0
230
1.0
 70
    12
 71
     2
 72
     6
 73
     3
 74
     0
 42
0.0000000001
 43
0.0000000001
 40
-4.878290109995292
 40
-4.878290109995292
 40
-4.878290109995292
 40
0.0
 40
0.0
 40
0.0
 10
4.864005911992848
 20
71.59201413744802
 30
0.0
 41
1.0
 10
2.482044739966064
 20
72.1579912122162
 30
0.0
 41
0.9934760685754098
 10
0.0337939352363718
 20
72.16969896834442
 30
0.0
 41
0.9999918043754388
  0
SPLINE
  5
97
330
1F
100
AcDbEntity
  8
Default
100
AcDbSpline
210
0.0
220
0.0
230
1.0
 70
     8
 71
     2
 72
    11
 73
     8
 74
     0
 42
0.0000000001
 43
0.0000000001
 40
0.0
 40
0.0
 40
0.0
 40
1.0
 40
2.0
 40
3.0
 40
4.0
 40
5.0
 40
6.0
 40
6.0
 40
6.0
 10
9.390424915365884
 20
72.21335544837606
 30
0.0
 10
9.455713814585579
 20
72.20091413709292
 30
0.0
 10
9.576871979604874
 20
72.14623301314137
 30
0.0
 10
9.681882566370433
 20
72.06473044951531
 30
0.0
 10
9.764935644163955
 20
71.96094754347652
 30
0.0
 10
9.821370783631977
 20
71.8405536639836
 30
0.0
 10
9.845956343494748
 20
71.70982586591222
 30
0.0
 10
9.841872842427023
 20
71.64346233769666
 30
0.0
  0
SPLINE
  5
98
330
1F
100
AcDbEntity
  8
Default
100
AcDbSpline
210
0.0
220
0.0
230
1.0
 70
    12
 71
     2
 72
     6
 73
     3
 74
     0
 42
0.0000000001
 43
0.0000000001
 40
0.0
 40
0.0
 40
0.0
 40
0.0742368075508645
 40
0.0742368075508645
 40
0.0742368075508645
 10
-9.30216169063496
 20
72.28387187533272
 30
0.0
 41
1.0
 10
-9.313109624326556
 20
72.24840467927216
 30
0.0
 41
0.9999981765885326
 10
-9.323922017503861
 20
72.2128959282058
 30
0.0
 41
1.0
  0
ARC
  5
99
330
1F
100
AcDbEntity
  8
Default
100
AcDbCircle
 10
9.56258237445158
 20
70.72166946507866
 30
0.0
 40
0.2482428125219768
100
AcDbArc
 50
285.9438040692629
 51
304.0351122329456
  0
SPLINE
  5
9A
330
1F
100
AcDbEntity
  8
Default
100
AcDbSpline
210
0.0
220
0.0
230
1.0
 70
     8
 71
     3
 72
    11
 73
     7
 74
     0
 42
0.0000000001
 43
0.0000000001
 40
0.0000000000000001
 40
0.0000000000000001
 40
0.0000000000000001
 40
0.0000000000000001
 40
0.3781335773925084
 40
0.5640830755754028
 40
0.63666157123833
 40
0.705388731348004
 40
0.705388731348004
 40
0.705388731348004
 40
0.705388731348004
 10
9.817766769530834
 20
71.1952962035983
 30
0.0
 10
9.809800595068992
 20
71.0696851323774
 30
0.0
 10
9.797906908515614
 20
70.88150223787588
 30
0.0
 10
9.779923465140882
 20
70.67071881590863
 30
0.0
 10
9.75700473576859
 20
70.56278324558437
 30
0.0
 10
9.719721108977467
 20
70.52824223184064
 30
0.0
 10
9.701524088276216
 20
70.51595195457386
 30
0.0
  0
SPLINE
  5
9B
330
1F
100
AcDbEntity
  8
Default
100
AcDbSpline
210
0.0
220
0.0
230
1.0
 70
    12
 71
     2
 72
     8
 73
     5
 74
     0
 42
0.0000000001
 43
0.0000000001
 40
-3.0
 40
-3.0
 40
-3.0
 40
-2.0
 40
-1.0
 40
0.0
 40
0.0
 40
0.0
 10
9.84185560264055
 20
71.64345558942199
 30
0.0
 41
1.0
 10
9.839185993924417
 20
71.60338614394743
 30
0.0
 41
1.0
 10
9.834238348142833
 20
71.52322116471387
 30
0.0
 41
1.0
 10
9.820308475770673
 20
71.23537396552092
 30
0.0
 41
1.0
 10
9.817766769530834
 20
71.1952962035983
 30
0.0
 41
1.0
  0
ARC
  5
9C
330
1F
100
AcDbEntity
  8
Default
100
AcDbCircle
 10
-9.494994503978859
 20
70.72166946507866
 30
0.0
 40
0.2482428125219768
100
AcDbArc
 50
235.9648877670548
 51
254.0561959307388
  0
SPLINE
  5
9D
330
1F
100
AcDbEntity
  8
Default
100
AcDbSpline
210
0.0
220
0.0
230
1.0
 70
     8
 71
     3
 72
    11
 73
     7
 74
     0
 42
0.0000000001
 43
0.0000000001
 40
0.0000000000000001
 40
0.0000000000000001
 40
0.0000000000000001
 40
0.0000000000000001
 40
0.3781335773925084
 40
0.5640830755754028
 40
0.63666157123833
 40
0.705388731348004
 40
0.705388731348004
 40
0.705388731348004
 40
0.705388731348004
 10
-9.750178899058113
 20
71.1952962035983
 30
0.0
 10
-9.742212724596271
 20
71.0696851323774
 30
0.0
 10
-9.730319038042893
 20
70.88150223787588
 30
0.0
 10
-9.712335594668161
 20
70.67071881590863
 30
0.0
 10
-9.689416865295868
 20
70.56278324558437
 30
0.0
 10
-9.652133238504717
 20
70.52824223184064
 30
0.0
 10
-9.633936217803495
 20
70.51595195457386
 30
0.0
  0
SPLINE
  5
9E
330
1F
100
AcDbEntity
  8
Default
100
AcDbSpline
210
0.0
220
0.0
230
1.0
 70
    12
 71
     2
 72
     8
 73
     5
 74
     0
 42
0.0000000001
 43
0.0000000001
 40
-3.0
 40
-3.0
 40
-3.0
 40
-2.0
 40
-1.0
 40
0.0
 40
0.0
 40
0.0
 10
-9.7742677321678
 20
71.64345558942199
 30
0.0
 41
1.0
 10
-9.771598123451696
 20
71.60338614394743
 30
0.0
 41
1.0
 10
-9.766650477670112
 20
71.52322116471387
 30
0.0
 41
1.0
 10
-9.752720605297952
 20
71.23537396552092
 30
0.0
 41
1.0
 10
-9.750178899058113
 20
71.1952962035983
 30
0.0
 41
1.0
  0
SPLINE
  5
9F
330
1F
100
AcDbEntity
  8
Default
100
AcDbSpline
210
0.0
220
0.0
230
1.0
 70
     8
 71
     2
 72
    11
 73
     8
 74
     0
 42
0.0000000001
 43
0.0000000001
 40
0.0
 40
0.0
 40
0.0
 40
1.0
 40
2.0
 40
3.0
 40
4.0
 40
5.0
 40
6.0
 40
6.0
 40
6.0
 10
9.72174703037058
 20
70.80890890277354
 30
0.0
 10
9.721466786075695
 20
70.90475018062398
 30
0.0
 10
9.709957700229609
 20
71.09608232854083
 30
0.0
 10
9.694144349217083
 20
71.28708335393318
 30
0.0
 10
9.666797278644566
 20
71.47690103286806
 30
0.0
 10
9.616982992080835
 20
71.66226264809461
 30
0.0
 10
9.536094154969163
 20
71.83681264836363
 30
0.0
 10
9.47823825071859
 20
71.91344469665319
 30
0.0
  0
SPLINE
  5
A0
330
1F
100
AcDbEntity
  8
Default
100
AcDbSpline
210
0.0
220
0.0
230
1.0
 70
     8
 71
     2
 72
    11
 73
     8
 74
     0
 42
0.0000000001
 43
0.0000000001
 40
0.0
 40
0.0
 40
0.0
 40
1.0
 40
2.0
 40
3.0
 40
4.0
 40
5.0
 40
6.0
 40
6.0
 40
6.0
 10
-9.322837044893163
 20
72.21335544837606
 30
0.0
 10
-9.388125944112858
 20
72.20091413709292
 30
0.0
 10
-9.509284109132125
 20
72.14623301314137
 30
0.0
 10
-9.614294695897712
 20
72.06473044951531
 30
0.0
 10
-9.697347773691206
 20
71.96094754347652
 30
0.0
 10
-9.753782913159256
 20
71.8405536639836
 30
0.0
 10
-9.778368473022027
 20
71.70982586591222
 30
0.0
 10
-9.774284971954273
 20
71.64346233769666
 30
0.0
  0
SPLINE
  5
A1
330
1F
100
AcDbEntity
  8
Default
100
AcDbSpline
210
0.0
220
0.0
230
1.0
 70
    12
 71
     2
 72
     6
 73
     3
 74
     0
 42
0.0000000001
 43
0.0000000001
 40
0.0
 40
0.0
 40
0.0
 40
0.7816405396757449
 40
0.7816405396757449
 40
0.7816405396757449
 10
31.32091929447897
 20
26.1990640068386
 30
0.0
 41
1.0
 10
31.28750928696158
 20
25.80869283110633
 30
0.0
 41
0.996260045340734
 10
31.1873899732564
 20
25.42990267380581
 30
0.0
 41
1.0
  0
SPLINE
  5
A2
330
1F
100
AcDbEntity
  8
Default
100
AcDbSpline
210
0.0
220
0.0
230
1.0
 70
    12
 71
     2
 72
     6
 73
     3
 74
     0
 42
0.0000000001
 43
0.0000000001
 40
0.0
 40
0.0
 40
0.0
 40
0.1598633113070148
 40
0.1598633113070148
 40
0.1598633113070148
 10
31.3375516039021
 20
26.35800803519729
 30
0.0
 41
1.0
 10
31.32574048246493
 20
26.27890175816633
 30
0.0
 41
0.9990343967449803
 10
31.32091929447897
 20
26.1990640068386
 30
0.0
 41
1.0
  0
SPLINE
  5
A3
330
1F
100
AcDbEntity
  8
Default
100
AcDbSpline
210
0.0
220
0.0
230
1.0
 70
    12
 71
     2
 72
     6
 73
     3
 74
     0
 42
0.0000000001
 43
0.0000000001
 40
0.0
 40
0.0
 40
0.0
 40
2.061631574185771
 40
2.061631574185771
 40
2.061631574185771
 10
32.27954669200248
 20
25.16010138853141
 30
0.0
 41
1.0
 10
32.52330121783217
 20
26.16178983407048
 30
0.0
 41
0.9998484010904932
 10
32.73203060017464
 20
27.17135808621387
 30
0.0
 41
1.0
  0
SPLINE
  5
A4
330
1F
100
AcDbEntity
  8
Default
100
AcDbSpline
210
0.0
220
0.0
230
1.0
 70
    12
 71
     2
 72
     6
 73
     3
 74
     0
 42
0.0000000001
 43
0.0000000001
 40
0.0
 40
0.0
 40
0.0
 40
0.0239581891640136
 40
0.0239581891640136
 40
0.0239581891640136
 10
32.31196532281465
 20
24.91594992572609
 30
0.0
 41
0.9999999999995819
 10
32.30259931676008
 20
24.90848152940997
 30
0.0
 41
0.9999982245823352
 10
32.29326165643822
 20
24.90097772286811
 30
0.0
 41
1.0
  0
SPLINE
  5
A5
330
1F
100
AcDbEntity
  8
Default
100
AcDbSpline
210
0.0
220
0.0
230
1.0
 70
    12
 71
     2
 72
     8
 73
     5
 74
     0
 42
0.0000000001
 43
0.0000000001
 40
0.0
 40
0.0
 40
0.0
 40
0.1959663969465106
 40
0.1959663969465106
 40
0.3919327938930212
 40
0.3919327938930212
 40
0.3919327938930212
 10
29.82568903322138
 20
7.410785394119817
 30
0.0
 41
1.0
 10
29.92907338882788
 20
7.410818056780895
 30
0.0
 41
0.923445856362263
 10
30.00198836865628
 20
7.484110155725063
 30
0.0
 41
1.0
 10
30.0749033484847
 20
7.557402254669235
 30
0.0
 41
0.923445856362263
 10
30.07440268554376
 20
7.660785403139567
 30
0.0
 41
1.0
  0
SPLINE
  5
A6
330
1F
100
AcDbEntity
  8
Default
100
AcDbSpline
210
0.0
220
0.0
230
1.0
 70
    24
 71
     2
 72
     6
 73
     3
 74
     0
 42
0.0000000001
 43
0.0000000001
 40
0.0
 40
0.0
 40
0.0
 40
16.98983124350199
 40
16.98983124350199
 40
16.98983124350199
 10
46.8571806297983
 20
7.91078540359169
 30
0.0
 10
38.3622650080473
 20
7.91078540359169
 30
0.0
 10
29.86734938629631
 20
7.91078540359169
 30
0.0
  0
SPLINE
  5
A7
330
1F
100
AcDbEntity
  8
Default
100
AcDbSpline
210
0.0
220
0.0
230
1.0
 70
    12
 71
     2
 72
     6
 73
     3
 74
     0
 42
0.0000000001
 43
0.0000000001
 40
0.0
 40
0.0
 40
0.0
 40
1.400318287699478
 40
1.400318287699478
 40
1.400318287699478
 10
29.82568903284005
 20
7.910785369575024
 30
0.0
 41
1.0
 10
29.12552988899031
 20
7.910785351344335
 30
0.0
 41
0.9999999999999999
 10
28.42537074514058
 20
7.910785329387765
 30
0.0
 41
1.0
  0
SPLINE
  5
A8
330
1F
100
AcDbEntity
  8
Default
100
AcDbSpline
210
0.0
220
0.0
230
1.0
 70
    12
 71
     2
 72
     6
 73
     3
 74
     0
 42
0.0000000001
 43
0.0000000001
 40
0.0
 40
0.0
 40
0.0
 40
1.462716062453282
 40
1.462716062453282
 40
1.462716062453282
 10
28.36297297076803
 20
7.410785347223282
 30
0.0
 41
1.0
 10
29.09433100199466
 20
7.410785356791918
 30
0.0
 41
0.9999999999999999
 10
29.82568903322131
 20
7.410785385191634
 30
0.0
 41
1.0
  0
SPLINE
  5
A9
330
1F
100
AcDbEntity
  8
Default
100
AcDbSpline
210
0.0
220
0.0
230
1.0
 70
    24
 71
     2
 72
     6
 73
     3
 74
     0
 42
0.0000000001
 43
0.0000000001
 40
0.0
 40
0.0
 40
0.0
 40
17.00374765470831
 40
17.00374765470831
 40
17.00374765470831
 10
29.86734683913643
 20
7.410785402687031
 30
0.0
 10
38.36922066649058
 20
7.410785402687031
 30
0.0
 10
46.87109449384474
 20
7.410785402687031
 30
0.0
  0
SPLINE
  5
AA
330
1F
100
AcDbEntity
  8
Default
100
AcDbSpline
210
0.0
220
0.0
230
1.0
 70
    24
 71
     2
 72
     6
 73
     3
 74
     0
 42
0.0000000001
 43
0.0000000001
 40
0.0
 40
0.0
 40
0.0
 40
25.13427378211947
 40
25.13427378211947
 40
25.13427378211947
 10
-9.403495490579715
 20
0.1729994771905712
 30
0.0
 10
-9.228688799420665
 20
12.73892054408259
 30
0.0
 10
-9.053882108261615
 20
25.3048416109746
 30
0.0
  0
SPLINE
  5
AB
330
1F
100
AcDbEntity
  8
Default
100
AcDbSpline
210
0.0
220
0.0
230
1.0
 70
    12
 71
     2
 72
     6
 73
     3
 74
     0
 42
0.0000000001
 43
0.0000000001
 40
0.0
 40
0.0
 40
0.0
 40
0.0004258303068065
 40
0.0004258303068065
 40
0.0004258303068065
 10
-8.27877266825046
 20
0.1569824818716526
 30
0.0
 41
1.0
 10
-8.278614541658317
 20
0.1571400430827636
 30
0.0
 41
0.9321373108086077
 10
-8.278604245964871
 20
0.1573630308696172
 30
0.0
 41
1.0
  0
SPLINE
  5
AC
330
1F
100
AcDbEntity
  8
Default
100
AcDbSpline
210
0.0
220
0.0
230
1.0
 70
     8
 71
     3
 72
     8
 73
     4
 74
     0
 42
0.0000000001
 43
0.0000000001
 40
0.0
 40
0.0
 40
0.0
 40
0.0
 40
1.443706964781046
 40
1.443706964781046
 40
1.443706964781046
 40
1.443706964781046
 10
33.62152160491512
 20
24.39097439939855
 30
0.0
 10
33.17171161771488
 20
24.56202623653567
 30
0.0
 10
32.67101925817563
 20
24.75459138885298
 30
0.0
 10
32.22241842978012
 20
24.92878970209363
 30
0.0
  0
SPLINE
  5
AD
330
1F
100
AcDbEntity
  8
Default
100
AcDbSpline
210
0.0
220
0.0
230
1.0
 70
    24
 71
     2
 72
     6
 73
     3
 74
     0
 42
0.0000000001
 43
0.0000000001
 40
0.0
 40
0.0
 40
0.0
 40
1.315706620815528
 40
1.315706620815528
 40
1.315706620815528
 10
31.98304677915205
 20
23.95972069222231
 30
0.0
 10
32.59583553891507
 20
23.72042489972376
 30
0.0
 10
33.20862429867809
 20
23.48112910722521
 30
0.0
  0
ARC
  5
AE
330
1F
100
AcDbEntity
  8
Default
100
AcDbCircle
 10
28.0793417204885
 20
38.92440645658078
 30
0.0
 40
0.1689744737258318
100
AcDbArc
 50
116.5741649610422
 51
135.8652056261003
  0
ARC
  5
AF
330
1F
100
AcDbEntity
  8
Default
100
AcDbCircle
 10
50.63766820460482
 20
-6.174310955719699
 30
0.0
 40
50.59488453986661
100
AcDbArc
 50
114.7800881090411
 51
116.5741649610457
  0
SPLINE
  5
B0
330
1F
100
AcDbEntity
  8
Default
100
AcDbSpline
210
0.0
220
0.0
230
1.0
 70
     8
 71
     5
 72
    12
 73
     6
 74
     0
 42
0.0000000001
 43
0.0000000001
 40
0.0
 40
0.0
 40
0.0
 40
0.0
 40
0.0
 40
0.0
 40
1.0
 40
1.0
 40
1.0
 40
1.0
 40
1.0
 40
1.0
 10
29.7429651698604
 20
39.88461087754325
 30
0.0
 10
29.73609520830944
 20
39.89482602301408
 30
0.0
 10
29.70914965070192
 20
39.92888706450492
 30
0.0
 10
29.55311642972565
 20
39.81797906411107
 30
0.0
 10
29.4922857005066
 20
39.79001893705551
 30
0.0
 10
29.4315013847331
 20
39.76195827035268
 30
0.0
  0
SPLINE
  5
B1
330
1F
100
AcDbEntity
  8
Default
100
AcDbSpline
210
0.0
220
0.0
230
1.0
 70
     8
 71
     2
 72
    11
 73
     8
 74
     0
 42
0.0000000001
 43
0.0000000001
 40
0.0
 40
0.0
 40
0.0
 40
1.0
 40
2.0
 40
3.0
 40
4.0
 40
5.0
 40
6.0
 40
6.0
 40
6.0
 10
32.73582419052978
 20
27.19006375025469
 30
0.0
 10
32.97558199534676
 20
28.28194079955923
 30
0.0
 10
33.09942963445341
 20
30.51422001369716
 30
0.0
 10
32.68550768451841
 20
32.71465193322349
 30
0.0
 10
32.04197414703445
 20
34.85166287576777
 30
0.0
 10
31.23533099736152
 20
36.92812421000687
 30
0.0
 10
30.38668182017362
 20
39.01275669071359
 30
0.0
 10
29.7429651698604
 20
39.88461087754325
 30
0.0
  0
SPLINE
  5
B2
330
1F
100
AcDbEntity
  8
Default
100
AcDbSpline
210
0.0
220
0.0
230
1.0
 70
     8
 71
     3
 72
     9
 73
     5
 74
     0
 42
0.0000000001
 43
0.0000000001
 40
0.0
 40
0.0
 40
0.0
 40
0.0
 40
0.3651881675984961
 40
0.369218707017257
 40
0.369218707017257
 40
0.369218707017257
 40
0.369218707017257
 10
31.52821555728404
 20
26.67029931798269
 30
0.0
 10
31.45981480827059
 20
26.56775031399826
 30
0.0
 10
31.39901540980806
 20
26.45853879487207
 30
0.0
 10
31.33713504108452
 20
26.35418875799094
 30
0.0
 10
31.33800687471337
 20
26.36034166202435
 30
0.0
  0
SPLINE
  5
B3
330
1F
100
AcDbEntity
  8
Default
100
AcDbSpline
210
0.0
220
0.0
230
1.0
 70
    12
 71
     2
 72
     6
 73
     3
 74
     0
 42
0.0000000001
 43
0.0000000001
 40
0.0
 40
0.0
 40
0.0
 40
0.6504522985104759
 40
0.6504522985104759
 40
0.6504522985104759
 10
31.85802115432453
 20
27.23492707916332
 30
0.0
 41
1.0
 10
31.70507661207935
 20
26.94600703731687
 30
0.0
 41
0.9991283073103383
 10
31.52821555728404
 20
26.67029931798269
 30
0.0
 41
1.0
  0
SPLINE
  5
B4
330
1F
100
AcDbEntity
  8
Default
100
AcDbSpline
210
0.0
220
0.0
230
1.0
 70
     8
 71
     3
 72
    11
 73
     7
 74
     0
 42
0.0000000001
 43
0.0000000001
 40
0.0
 40
0.0
 40
0.0
 40
0.0
 40
0.2874736741838422
 40
0.6007707123945327
 40
1.295211947608686
 40
2.682234006193673
 40
2.682234006193673
 40
2.682234006193673
 40
2.682234006193673
 10
32.65703552350475
 20
29.77947604592536
 30
0.0
 10
32.64851323870055
 20
29.68402371101127
 30
0.0
 10
32.62549264246648
 20
29.48502150784981
 30
0.0
 10
32.54936731305513
 20
29.05984591802939
 30
0.0
 10
32.34623615435994
 20
28.28674726451542
 30
0.0
 10
32.0727710299514
 20
27.64584070817828
 30
0.0
 10
31.85802115432453
 20
27.23492707916332
 30
0.0
  0
SPLINE
  5
B5
330
1F
100
AcDbEntity
  8
Default
100
AcDbSpline
210
0.0
220
0.0
230
1.0
 70
    12
 71
     2
 72
     6
 73
     3
 74
     0
 42
0.0000000001
 43
0.0000000001
 40
0.0
 40
0.0
 40
0.0
 40
0.4616602041699219
 40
0.4616602041699219
 40
0.4616602041699219
 10
32.67722732901136
 20
30.24051863071628
 30
0.0
 41
1.0
 10
32.67815523030968
 20
30.00951454017007
 30
0.0
 41
0.9988585240063492
 10
32.65703552350475
 20
29.77947604592536
 30
0.0
 41
1.0
  0
SPLINE
  5
B6
330
1F
100
AcDbEntity
  8
Default
100
AcDbSpline
210
0.0
220
0.0
230
1.0
 70
    12
 71
     3
 72
    12
 73
     8
 74
     0
 42
0.0000000001
 43
0.0000000001
 40
-0.9785015012744535
 40
-0.9785015012744535
 40
-0.9785015012744535
 40
-0.9785015012744535
 40
-0.4942537595695717
 40
-0.4942537595695717
 40
-0.2506663683008745
 40
-0.2506663683008745
 40
0.0
 40
0.0
 40
0.0
 40
0.0
 10
32.0223458568483
 20
33.94926444993438
 30
0.0
 41
1.0
 10
32.24798057430176
 20
33.18945359720948
 30
0.0
 41
1.0
 10
32.41014258557037
 20
32.54942011567147
 30
0.0
 41
1.0
 10
32.56043776376377
 20
31.70854149566723
 30
0.0
 41
1.0
 10
32.59924537918631
 20
31.45041575531554
 30
0.0
 41
1.0
 10
32.66886004607129
 20
30.72473542169459
 30
0.0
 41
1.0
 10
32.67611462591508
 20
30.43934542276788
 30
0.0
 41
1.0
 10
32.67722732901136
 20
30.24051863071628
 30
0.0
 41
1.0
  0
SPLINE
  5
B7
330
1F
100
AcDbEntity
  8
Default
100
AcDbSpline
210
0.0
220
0.0
230
1.0
 70
    12
 71
     3
 72
    30
 73
    26
 74
     0
 42
0.0000000001
 43
0.0000000001
 40
0.0
 40
0.0
 40
0.0
 40
0.0
 40
0.998777893850345
 40
2.039580217844248
 40
4.189912437327197
 40
6.986695890956174
 40
11.26981331091288
 40
11.26981331091288
 40
11.26981331091288
 40
11.3042122140525
 40
11.3042122140525
 40
11.3042122140525
 40
11.8678701670312
 40
12.41264512907092
 40
13.13074674650946
 40
13.16058978273658
 40
13.19762092784838
 40
13.24788819881942
 40
13.30844704110376
 40
13.35134589188302
 40
13.42219038585663
 40
13.76419401457089
 40
14.4210863406999
 40
15.94007407868409
 40
19.48616492399376
 40
19.48616492399376
 40
19.48616492399376
 40
19.48616492399376
 10
29.95887365230537
 20
28.09055038361988
 30
0.0
 41
1.0
 10
30.04055720071135
 20
28.41444235979026
 30
0.0
 41
1.0
 10
30.15595822469452
 20
29.08312245276643
 30
0.0
 41
1.0
 10
30.26234554220666
 20
30.48020772589193
 30
0.0
 41
1.0
 10
30.05594869110872
 20
32.47511946235323
 30
0.0
 41
1.0
 10
29.21270219559726
 20
35.44068019573706
 30
0.0
 41
1.0
 10
28.44158650806075
 20
37.6687079228694
 30
0.0
 41
1.0
 10
27.95084920446082
 20
39.0103371464011
 30
0.0
 41
1.0
 10
27.94668956022813
 20
39.02174521148099
 30
0.0
 41
0.8934048983870025
 10
27.94938297718404
 20
39.03358548572238
 30
0.0
 41
0.8934048983870025
 10
27.95806814016622
 20
39.0420716234176
 30
0.0
 41
1.0
 10
28.12725333252511
 20
39.12373040678997
 30
0.0
 41
1.0
 10
28.46144056812291
 20
39.28153344492446
 30
0.0
 41
1.0
 10
29.01577577992286
 20
39.5329933410499
 30
0.0
 41
1.0
 10
29.4058180498689
 20
39.71679567451305
 30
0.0
 41
1.0
 10
29.64583800649974
 20
39.82031694927399
 30
0.0
 41
1.0
 10
29.6861259702561
 20
39.8019143664373
 30
0.0
 41
1.0
 10
29.72417034743215
 20
39.77494142275964
 30
0.0
 41
1.0
 10
29.75952991063666
 20
39.73546369241912
 30
0.0
 41
1.0
 10
29.79406471487879
 20
39.68934885281904
 30
0.0
 41
1.0
 10
29.86888721671873
 20
39.55688676320429
 30
0.0
 41
1.0
 10
30.03974286559678
 20
39.24390074593562
 30
0.0
 41
1.0
 10
30.40685098504615
 20
38.48887690695706
 30
0.0
 41
1.0
 10
31.13962110863012
 20
36.72682174179614
 30
0.0
 41
1.0
 10
31.67203764883344
 20
35.12313828376475
 30
0.0
 41
1.0
 10
32.0223458568483
 20
33.94926444993438
 30
0.0
 41
1.0
  0
SPLINE
  5
B8
330
1F
100
AcDbEntity
  8
Default
100
AcDbSpline
210
0.0
220
0.0
230
1.0
 70
    12
 71
     2
 72
     6
 73
     3
 74
     0
 42
0.0000000001
 43
0.0000000001
 40
0.0
 40
0.0
 40
0.0
 40
0.0168225849784347
 40
0.0168225849784347
 40
0.0168225849784347
 10
29.95955951007768
 20
28.07396151261834
 30
0.0
 41
1.0
 10
29.95682809969029
 20
28.08215719766156
 30
0.0
 41
0.9609513453654801
 10
29.95887365230537
 20
28.09055038361988
 30
0.0
 41
1.0
  0
SPLINE
  5
B9
330
1F
100
AcDbEntity
  8
Default
100
AcDbSpline
210
0.0
220
0.0
230
1.0
 70
    12
 71
     2
 72
     6
 73
     3
 74
     0
 42
0.0000000001
 43
0.0000000001
 40
-0.1016264246854027
 40
-0.1016264246854027
 40
-0.1016264246854027
 40
0.0
 40
0.0
 40
0.0
 10
30.0250906884748
 20
28.00263857086236
 30
0.0
 41
1.0
 10
29.97120412709735
 20
28.01889465206058
 30
0.0
 41
0.8603657572054948
 10
29.95955951007768
 20
28.07396151261834
 30
0.0
 41
1.0
  0
SPLINE
  5
BA
330
1F
100
AcDbEntity
  8
Default
100
AcDbSpline
210
0.0
220
0.0
230
1.0
 70
     8
 71
     3
 72
    11
 73
     7
 74
     0
 42
0.0000000001
 43
0.0000000001
 40
-1.932317162159845
 40
-1.932317162159845
 40
-1.932317162159845
 40
-1.932317162159845
 40
-1.114321231087402
 40
-0.6074116793840068
 40
-0.2699890469078568
 40
0.0000000000000001
 40
0.0000000000000001
 40
0.0000000000000001
 40
0.0000000000000001
 10
31.40034207158102
 20
26.79963058830242
 30
0.0
 10
31.3603255210998
 20
27.06994826935065
 30
0.0
 10
31.12884573696736
 20
27.47787481886484
 30
0.0
 10
30.63645173527509
 20
27.75171478064705
 30
0.0
 10
30.30346907552847
 20
27.90852312306359
 30
0.0
 10
30.11133013117238
 20
27.97862726883148
 30
0.0
 10
30.0250906884748
 20
28.00263857086236
 30
0.0
  0
ARC
  5
BB
330
1F
100
AcDbEntity
  8
Default
100
AcDbCircle
 10
30.62752481235587
 20
26.68522637786893
 30
0.0
 40
0.7812392972202519
100
AcDbArc
 50
335.4266311420734
 51
8.42064028772187
  0
SPLINE
  5
BC
330
1F
100
AcDbEntity
  8
Default
100
AcDbSpline
210
0.0
220
0.0
230
1.0
 70
    24
 71
     2
 72
     6
 73
     3
 74
     0
 42
0.0000000001
 43
0.0000000001
 40
0.0
 40
0.0
 40
0.0
 40
0.724376615333608
 40
0.724376615333608
 40
0.724376615333608
 10
-9.34336208852401
 20
56.02863079013026
 30
0.0
 10
-9.181412410301162
 20
56.35259451873017
 30
0.0
 10
-9.019462732078313
 20
56.67655824733009
 30
0.0
  0
SPLINE
  5
BD
330
1F
100
AcDbEntity
  8
Default
100
AcDbSpline
210
0.0
220
0.0
230
1.0
 70
    12
 71
     2
 72
     6
 73
     3
 74
     0
 42
0.0000000001
 43
0.0000000001
 40
0.0
 40
0.0
 40
0.0
 40
0.260214335201275
 40
0.260214335201275
 40
0.260214335201275
 10
-9.403493425693407
 20
55.77676496027135
 30
0.0
 41
1.0
 10
-9.402985315927685
 20
55.91032354826549
 30
0.0
 41
0.9733221754645992
 10
-9.343362088524009
 20
56.02863079013026
 30
0.0
 41
0.9999998993186666
  0
SPLINE
  5
BE
330
1F
100
AcDbEntity
  8
Default
100
AcDbSpline
210
0.0
220
0.0
230
1.0
 70
    24
 71
     2
 72
     6
 73
     3
 74
     0
 42
0.0000000001
 43
0.0000000001
 40
0.0
 40
0.0
 40
0.0
 40
7.005062463356575
 40
7.005062463356575
 40
7.005062463356575
 10
-8.181165091264536
 20
7.161741726619514
 30
0.0
 10
-8.229884689666209
 20
3.659549351890022
 30
0.0
 10
-8.278604288067882
 20
0.1573569771605292
 30
0.0
  0
SPLINE
  5
BF
330
1F
100
AcDbEntity
  8
Default
100
AcDbSpline
210
0.0
220
0.0
230
1.0
 70
    24
 71
     2
 72
     6
 73
     3
 74
     0
 42
0.0000000001
 43
0.0000000001
 40
0.0
 40
0.0
 40
0.0
 40
15.9071138578569
 40
15.9071138578569
 40
15.9071138578569
 10
-7.945994105599121
 20
24.06693100927049
 30
0.0
 10
-8.056626694949815
 20
16.11414355757286
 30
0.0
 10
-8.167259284300508
 20
8.161356105875226
 30
0.0
  0
SPLINE
  5
C0
330
1F
100
AcDbEntity
  8
Default
100
AcDbSpline
210
0.0
220
0.0
230
1.0
 70
    12
 71
     2
 72
     6
 73
     3
 74
     0
 42
0.0000000001
 43
0.0000000001
 40
0.0
 40
0.0
 40
0.0
 40
3.017273700568131
 40
3.017273700568131
 40
3.017273700568131
 10
-8.95932161139531
 20
75.61721483280937
 30
0.0
 41
1.0
 10
-7.563377774093522
 20
75.03957370775494
 30
0.0
 41
0.9979153646721282
 10
-6.104659804026337
 20
74.64654654576985
 30
0.0
 41
1.0
  0
SPLINE
  5
C1
330
1F
100
AcDbEntity
  8
Default
100
AcDbSpline
210
0.0
220
0.0
230
1.0
 70
    12
 71
     3
 72
    13
 73
     9
 74
     0
 42
0.0000000001
 43
0.0000000001
 40
0.0
 40
0.0
 40
0.0
 40
0.0
 40
8.643112293667128
 40
12.96459165181825
 40
14.04495275024958
 40
14.58513194373151
 40
16.16168011784191
 40
25.52706692808933
 40
25.52706692808933
 40
25.52706692808933
 40
25.52706692808933
 10
-10.19857778008442
 20
76.04623590282478
 30
0.0
 41
1.0
 10
-10.15427936692349
 20
76.04591747411689
 30
0.0
 41
1.0
 10
-10.08783335638846
 20
75.73953975972115
 30
0.0
 41
1.0
 10
-10.01692530796348
 20
74.91580350168113
 30
0.0
 41
0.9999999999999999
 10
-9.987206353692732
 20
74.48238676562629
 30
0.0
 41
0.9999999999999999
 10
-9.97127542811342
 20
74.23295861395584
 30
0.0
 41
0.9999999999999999
 10
-9.914150204715062
 20
73.31331003241947
 30
0.0
 41
0.9999999999999999
 10
-9.859703427558319
 20
72.43979797744204
 30
0.0
 41
1.0
 10
-9.813103826643
 20
71.69099947058534
 30
0.0
 41
1.0
  0
SPLINE
  5
C2
330
1F
100
AcDbEntity
  8
Default
100
AcDbSpline
210
0.0
220
0.0
230
1.0
 70
    24
 71
     2
 72
     6
 73
     3
 74
     0
 42
0.0000000001
 43
0.0000000001
 40
0.0
 40
0.0
 40
0.0
 40
16.33503425540365
 40
16.33503425540365
 40
16.33503425540365
 10
-8.167438350600493
 20
8.161554249994388
 30
0.0
 10
0.0000787771013337
 20
8.161554249994392
 30
0.0
 10
8.16759590480316
 20
8.161554249994396
 30
0.0
  0
SPLINE
  5
C3
330
1F
100
AcDbEntity
  8
Default
100
AcDbSpline
210
0.0
220
0.0
230
1.0
 70
    24
 71
     2
 72
     6
 73
     3
 74
     0
 42
0.0000000001
 43
0.0000000001
 40
0.0
 40
0.0
 40
0.0
 40
16.36248727582998
 40
16.36248727582998
 40
16.36248727582998
 10
8.181322226013393
 20
7.161554249991758
 30
0.0
 10
0.000078588098404
 20
7.161554249991755
 30
0.0
 10
-8.181165049816585
 20
7.161554249991752
 30
0.0
  0
SPLINE
  5
C4
330
1F
100
AcDbEntity
  8
Default
100
AcDbSpline
210
0.0
220
0.0
230
1.0
 70
     8
 71
     3
 72
    16
 73
    12
 74
     0
 42
0.0000000001
 43
0.0000000001
 40
0.0
 40
0.0
 40
0.0
 40
0.0
 40
0.0051653854898411
 40
0.0098143762486306
 40
0.0246208546667071
 40
0.0690914466071414
 40
0.1950563379128102
 40
0.3716459122982222
 40
0.591698352566269
 40
0.7938632992620289
 40
1.198788354307877
 40
1.198788354307877
 40
1.198788354307877
 40
1.198788354307877
 10
-8.169926666297663
 20
8.15697358070862
 30
0.0
 10
-8.169017785708158
 20
8.157877454730597
 30
0.0
 10
-8.16596152359163
 20
8.162836790777945
 30
0.0
 10
-8.174029992320854
 20
8.156999997250491
 30
0.0
 10
-8.18908249079949
 20
8.141344813251687
 30
0.0
 10
-8.231123777604648
 20
8.09883344684664
 30
0.0
 10
-8.308868920746951
 20
8.007953418422503
 30
0.0
 10
-8.41503323484643
 20
7.878117767382892
 30
0.0
 10
-8.509220228308351
 20
7.684110442293909
 30
0.0
 10
-8.400974019144414
 20
7.415593108908133
 30
0.0
 10
-8.261734034721623
 20
7.271507031664655
 30
0.0
 10
-8.181165049816585
 20
7.161747733238475
 30
0.0
  0
SPLINE
  5
C5
330
1F
100
AcDbEntity
  8
Default
100
AcDbSpline
210
0.0
220
0.0
230
1.0
 70
    12
 71
     2
 72
     6
 73
     3
 74
     0
 42
0.0000000001
 43
0.0000000001
 40
0.0
 40
0.0
 40
0.0
 40
0.331445418919184
 40
0.331445418919184
 40
0.331445418919184
 10
10.1985765159985
 20
76.04707918853971
 30
0.0
 41
1.0
 10
10.19857847999861
 20
75.87554662255121
 30
0.0
 41
0.9569203431311061
 10
10.10372963265807
 20
75.73363634611235
 30
0.0
 41
1.0
  0
SPLINE
  5
C6
330
1F
100
AcDbEntity
  8
Default
100
AcDbSpline
210
0.0
220
0.0
230
1.0
 70
    12
 71
     2
 72
     6
 73
     3
 74
     0
 42
0.0000000001
 43
0.0000000001
 40
0.0
 40
0.0
 40
0.0
 40
0.8799424134398891
 40
0.8799424134398891
 40
0.8799424134398891
 10
9.635078285943067
 20
76.60872711455092
 30
0.0
 41
1.0
 10
10.19693249144289
 20
76.60681983236995
 30
0.0
 41
0.7093524655190331
 10
10.1985765159985
 20
76.04707918853971
 30
0.0
 41
1.0
  0
SPLINE
  5
C7
330
1F
100
AcDbEntity
  8
Default
100
AcDbSpline
210
0.0
220
0.0
230
1.0
 70
     8
 71
     3
 72
    13
 73
     9
 74
     0
 42
0.0000000001
 43
0.0000000001
 40
-3.219240749456699
 40
-3.219240749456699
 40
-3.219240749456699
 40
-3.219240749456699
 40
-1.608780363830926
 40
-1.137367279769164
 40
-0.8321297490398771
 40
-0.4053393049321962
 40
-0.2006690731634779
 40
0.0
 40
0.0
 40
0.0
 40
0.0
 10
8.81436804209588
 20
73.73591953649266
 30
0.0
 10
8.849484854439838
 20
74.27152687935649
 30
0.0
 10
8.883715989351302
 20
74.96495425518863
 30
0.0
 10
8.973782545977883
 20
75.75594245891875
 30
0.0
 10
9.0361055200443
 20
76.15197841054992
 30
0.0
 10
9.181970624830115
 20
76.4410712760162
 30
0.0
 10
9.433373456107875
 20
76.58341117761071
 30
0.0
 10
9.563749150235918
 20
76.60831597346679
 30
0.0
 10
9.635078285943067
 20
76.60872711455092
 30
0.0
  0
SPLINE
  5
C8
330
1F
100
AcDbEntity
  8
Default
100
AcDbSpline
210
0.0
220
0.0
230
1.0
 70
    12
 71
     2
 72
     6
 73
     3
 74
     0
 42
0.0000000001
 43
0.0000000001
 40
0.0
 40
0.0
 40
0.0
 40
0.260214335201275
 40
0.260214335201275
 40
0.260214335201275
 10
9.403493425693407
 20
55.77676496027135
 30
0.0
 41
1.0
 10
9.402985315927685
 20
55.91032354826549
 30
0.0
 41
0.9733221754645992
 10
9.343362088524009
 20
56.02863079013026
 30
0.0
 41
0.9999998993186666
  0
SPLINE
  5
C9
330
1F
100
AcDbEntity
  8
Default
100
AcDbSpline
210
0.0
220
0.0
230
1.0
 70
    12
 71
     3
 72
    13
 73
     9
 74
     0
 42
0.0000000001
 43
0.0000000001
 40
0.0
 40
0.0
 40
0.0
 40
0.0
 40
8.643112293667128
 40
12.96459165181825
 40
14.04495275024958
 40
14.58513194373151
 40
16.16168011784191
 40
25.52706692808933
 40
25.52706692808933
 40
25.52706692808933
 40
25.52706692808933
 10
10.19857778008442
 20
76.04623590282478
 30
0.0
 41
1.0
 10
10.15427936692349
 20
76.04591747411689
 30
0.0
 41
1.0
 10
10.08783335638846
 20
75.73953975972115
 30
0.0
 41
1.0
 10
10.01692530796348
 20
74.91580350168113
 30
0.0
 41
0.9999999999999999
 10
9.987206353692732
 20
74.48238676562629
 30
0.0
 41
0.9999999999999999
 10
9.97127542811342
 20
74.23295861395584
 30
0.0
 41
0.9999999999999999
 10
9.914150204715062
 20
73.31331003241947
 30
0.0
 41
0.9999999999999999
 10
9.859703427558319
 20
72.43979797744204
 30
0.0
 41
1.0
 10
9.813103826643
 20
71.69099947058534
 30
0.0
 41
1.0
  0
SPLINE
  5
CA
330
1F
100
AcDbEntity
  8
Default
100
AcDbSpline
210
0.0
220
0.0
230
1.0
 70
    12
 71
     2
 72
     6
 73
     3
 74
     0
 42
0.0000000001
 43
0.0000000001
 40
0.0
 40
0.0
 40
0.0
 40
3.017273700568131
 40
3.017273700568131
 40
3.017273700568131
 10
8.95932161139531
 20
75.61721483280937
 30
0.0
 41
1.0
 10
7.563377774093522
 20
75.03957370775494
 30
0.0
 41
0.9979153646721282
 10
6.104659804026337
 20
74.64654654576985
 30
0.0
 41
1.0
  0
SPLINE
  5
CB
330
1F
100
AcDbEntity
  8
Default
100
AcDbSpline
210
0.0
220
0.0
230
1.0
 70
    12
 71
     2
 72
     6
 73
     3
 74
     0
 42
0.0000000001
 43
0.0000000001
 40
0.0
 40
0.0
 40
0.0
 40
2.011907681528288
 40
2.011907681528288
 40
2.011907681528288
 10
7.006245521903726
 20
74.38564212717708
 30
0.0
 41
1.0
 10
7.968810391996188
 20
74.67994838053619
 30
0.0
 41
0.9991085654434491
 10
8.903118632466631
 20
75.05440186455174
 30
0.0
 41
1.0
  0
SPLINE
  5
CC
330
1F
100
AcDbEntity
  8
Default
100
AcDbSpline
210
0.0
220
0.0
230
1.0
 70
    24
 71
     2
 72
     6
 73
     3
 74
     0
 42
0.0000000001
 43
0.0000000001
 40
0.0
 40
0.0
 40
0.0
 40
0.7960449348972201
 40
0.7960449348972201
 40
0.7960449348972201
 10
-10.19888131536793
 20
0.1731144185748574
 30
0.0
 10
-9.800754132006585
 20
0.1673506837140199
 30
0.0
 10
-9.402626948645244
 20
0.1615869488531823
 30
0.0
  0
SPLINE
  5
CD
330
1F
100
AcDbEntity
  8
Default
100
AcDbSpline
210
0.0
220
0.0
230
1.0
 70
    24
 71
     2
 72
     6
 73
     3
 74
     0
 42
0.0000000001
 43
0.0000000001
 40
-0.0839211351619186
 40
-0.0839211351619186
 40
-0.0839211351619186
 40
0.0
 40
0.0
 40
0.0
 10
-10.20047520060892
 20
0.0884908899940779
 30
0.0
 10
-10.19967825798842
 20
0.1308026542844677
 30
0.0
 10
-10.19888131536793
 20
0.1731144185748574
 30
0.0
  0
SPLINE
  5
CE
330
1F
100
AcDbEntity
  8
Default
100
AcDbSpline
210
0.0
220
0.0
230
1.0
 70
    12
 71
     2
 72
     6
 73
     3
 74
     0
 42
0.0000000001
 43
0.0000000001
 40
-0.0904093603292067
 40
-0.0904093603292067
 40
-0.0904093603292067
 40
0.0
 40
0.0
 40
0.0
 10
-10.14523829911552
 20
0.0277571389145863
 30
0.0
 41
1.0
 10
-10.20134053713727
 20
0.0322182186833529
 30
0.0
 41
0.7293593170846407
 10
-10.20047520060892
 20
0.0884908899940779
 30
0.0
 41
1.0
  0
SPLINE
  5
CF
330
1F
100
AcDbEntity
  8
Default
100
AcDbSpline
210
0.0
220
0.0
230
1.0
 70
    12
 71
     2
 72
     8
 73
     5
 74
     0
 42
0.0000000001
 43
0.0000000001
 40
-0.8433053248869731
 40
-0.8433053248869731
 40
-0.8433053248869731
 40
-0.4216333844790081
 40
-0.4216333844790081
 40
0.0
 40
0.0
 40
0.0
 10
-9.21761597594515
 20
0.0085127089659066
 30
0.0
 41
1.0
 10
-9.428350608492842
 20
0.0005296362392564
 30
0.0
 41
0.9996457039810459
 10
-9.639211465054956
 20
0.003772162270628
 30
0.0
 41
1.0
 10
-9.850053032266905
 20
0.0070143916788095
 30
0.0
 41
0.9996457687649688
 10
-10.14523829911552
 20
0.0277571389145863
 30
0.0
 41
1.0
  0
SPLINE
  5
D0
330
1F
100
AcDbEntity
  8
Default
100
AcDbSpline
210
0.0
220
0.0
230
1.0
 70
    15
 71
     2
 72
    22
 73
    19
 74
     0
 42
0.0000000001
 43
0.0000000001
 40
0.0
 40
0.0
 40
0.0
 40
0.453779622357851
 40
0.453779622357851
 40
0.9088630421159327
 40
0.9088630421159327
 40
0.9993756319597356
 40
0.9993756319597356
 40
1.083258245025186
 40
1.083258245025186
 40
1.645838517933367
 40
1.645838517933367
 40
2.170467766655575
 40
2.170467766655575
 40
2.209198126140482
 40
2.209198126140482
 40
2.292861130491013
 40
2.292861130491013
 40
2.383370666709242
 40
2.383370666709242
 40
2.383370666709242
 10
-8.335520171470174
 20
0.0115303288202942
 30
0.0
 41
1.0
 10
-8.615183681266386
 20
-0.0023890054529852
 30
0.0
 41
0.9995895589252186
 10
-8.842169095054745
 20
0.0007647233281332
 30
0.0
 41
1.0
 10
-9.06980687243875
 20
0.0039282003818307
 30
0.0
 41
0.9995871947377413
 10
-9.348592656514114
 20
0.0255683762887222
 30
0.0
 41
1.0
 10
-9.403047475373159
 20
0.0327658620256023
 30
0.0
 41
0.7556419620548741
 10
-9.40365488669316
 20
0.0876939475217561
 30
0.0
 41
1.0
 10
-9.40332332904988
 20
0.1299897110137476
 30
0.0
 41
1.0
 10
-9.402991771406597
 20
0.1722854745057392
 30
0.0
 41
1.0
 10
-9.122263507773038
 20
0.1925534421731181
 30
0.0
 41
0.9984590545613797
 10
-8.841049868272236
 20
0.1808282938299576
 30
0.0
 41
1.000002485846825
 10
-8.578795832973036
 20
0.1790229005210272
 30
0.0
 41
0.9996639313696921
 10
-8.317030171284708
 20
0.1629100489306548
 30
0.0
 41
1.000002463241312
 10
-8.297649295170713
 20
0.1615662235887231
 30
0.0
 41
0.9947968588941647
 10
-8.278192748865983
 20
0.1563388776549319
 30
0.0
 41
1.000011529947611
 10
-8.278478195550882
 20
0.1141951622826088
 30
0.0
 41
1.000011529947611
 10
-8.27876364223578
 20
0.0720514469102856
 30
0.0
 41
1.000011529947611
 10
-8.280806524774967
 20
0.0170908930052505
 30
0.0
 41
0.7543279065398946
 10
-8.335520171470174
 20
0.0115303288202942
 30
0.0
 41
1.000011529947611
  0
SPLINE
  5
D1
330
1F
100
AcDbEntity
  8
Default
100
AcDbSpline
210
0.0
220
0.0
230
1.0
 70
    12
 71
     2
 72
     6
 73
     3
 74
     0
 42
0.0000000001
 43
0.0000000001
 40
0.0
 40
0.0
 40
0.0
 40
0.1393978618929742
 40
0.1393978618929742
 40
0.1393978618929742
 10
-9.165355447643279
 20
24.7615360430706
 30
0.0
 41
1.0
 10
-9.11537785760529
 20
24.81022686219747
 30
0.0
 41
0.9983647645364654
 10
-9.060169216774892
 20
24.8528948988398
 30
0.0
 41
1.0
  0
SPLINE
  5
D2
330
1F
100
AcDbEntity
  8
Default
100
AcDbSpline
210
0.0
220
0.0
230
1.0
 70
    12
 71
     3
 72
    12
 73
     8
 74
     0
 42
0.0000000001
 43
0.0000000001
 40
-1.975272820121479
 40
-1.975272820121479
 40
-1.975272820121479
 40
-1.975272820121479
 40
-1.596863394842357
 40
-1.596863394842357
 40
-1.398298080885066
 40
-1.398298080885066
 40
-1.370981876227486
 40
-1.370981876227486
 40
-1.370981876227486
 40
-1.370981876227486
 10
-9.185127285735277
 20
24.23638270492974
 30
0.0
 41
1.0
 10
-9.264601146561105
 20
24.3223519876918
 30
0.0
 41
1.0
 10
-9.343435498410614
 20
24.44629206311531
 30
0.0
 41
1.0
 10
-9.276078832773678
 20
24.64093859837783
 30
0.0
 41
1.0
 10
-9.235116078363617
 20
24.69005703773168
 30
0.0
 41
1.0
 10
-9.179057238223024
 20
24.74795680373179
 30
0.0
 41
1.0
 10
-9.172231910010467
 20
24.75481183615368
 30
0.0
 41
1.0
 10
-9.165355447643279
 20
24.7615360430706
 30
0.0
 41
1.0
  0
SPLINE
  5
D3
330
1F
100
AcDbEntity
  8
Default
100
AcDbSpline
210
0.0
220
0.0
230
1.0
 70
    12
 71
     2
 72
     6
 73
     3
 74
     0
 42
0.0000000001
 43
0.0000000001
 40
0.0
 40
0.0
 40
0.0
 40
0.1542817287576956
 40
0.1542817287576956
 40
0.1542817287576956
 10
-9.070171804235027
 20
24.13386221376767
 30
0.0
 41
1.0
 10
-9.13274014853342
 20
24.17941440259454
 30
0.0
 41
0.9951050385958604
 10
-9.185127285735277
 20
24.23638270492974
 30
0.0
 41
1.0
  0
SPLINE
  5
D4
330
1F
100
AcDbEntity
  8
Default
100
AcDbSpline
210
0.0
220
0.0
230
1.0
 70
    12
 71
     2
 72
     6
 73
     3
 74
     0
 42
0.0000000001
 43
0.0000000001
 40
-25.09328416650955
 40
-25.09328416650955
 40
-25.09328416650955
 40
0.0
 40
0.0
 40
0.0
 10
-9.81185239973968
 20
25.30785667061625
 30
0.0
 41
1.0
 10
-10.00566005916515
 20
12.71898557262817
 30
0.0
 41
0.9999999999999892
 10
-10.19857777602182
 20
0.1738267326727509
 30
0.0
 41
1.0
  0
SPLINE
  5
D5
330
1F
100
AcDbEntity
  8
Default
100
AcDbSpline
210
0.0
220
0.0
230
1.0
 70
    12
 71
     2
 72
    16
 73
    13
 74
     0
 42
0.0000000001
 43
0.0000000001
 40
0.0
 40
0.0
 40
0.0
 40
0.0806504200282762
 40
0.0806504200282762
 40
0.1743258249211015
 40
0.1743258249211015
 40
0.2423600298270026
 40
0.2423600298270026
 40
0.2924131432867252
 40
0.2924131432867252
 40
0.3265614696477811
 40
0.3265614696477811
 40
0.3521808302996258
 40
0.3521808302996258
 40
0.3521808302996258
 10
-9.502697782790861
 20
25.17904161767481
 30
0.0
 41
1.0
 10
-9.542675126356894
 20
25.18439863312636
 30
0.0
 41
0.9996482269205631
 10
-9.582312169237749
 20
25.1918679332814
 30
0.0
 41
1.0
 10
-9.628391974588508
 20
25.2004477515344
 30
0.0
 41
0.998910488017883
 10
-9.673471149898575
 20
25.21328635331897
 30
0.0
 41
1.0
 10
-9.706247757807569
 20
25.22255289868125
 30
0.0
 41
0.9980529921694051
 10
-9.737615659833223
 20
25.23582804883032
 30
0.0
 41
1.0
 10
-9.760806320820482
 20
25.24547071604457
 30
0.0
 41
0.9946970531954675
 10
-9.781533425126216
 20
25.25965433106787
 30
0.0
 41
1.0
 10
-9.79591866229685
 20
25.26924277444036
 30
0.0
 41
0.981553260770642
 10
-9.805653472021248
 20
25.28352936865985
 30
0.0
 41
1.0
 10
-9.81316881381722
 20
25.29456779382417
 30
0.0
 41
0.9399736737485752
 10
-9.81185239973968
 20
25.30785667061625
 30
0.0
 41
1.0
  0
SPLINE
  5
D6
330
1F
100
AcDbEntity
  8
Default
100
AcDbSpline
210
0.0
220
0.0
230
1.0
 70
    12
 71
     2
 72
    22
 73
    19
 74
     0
 42
0.0000000001
 43
0.0000000001
 40
0.0
 40
0.0
 40
0.0
 40
0.0001374307783543
 40
0.0001374307783543
 40
0.0813038498495856
 40
0.0813038498495856
 40
0.156455223836652
 40
0.156455223836652
 40
0.2249033506938929
 40
0.2249033506938929
 40
0.2865468965471257
 40
0.2865468965471257
 40
0.3416018977803437
 40
0.3416018977803437
 40
0.3904470426976192
 40
0.3904470426976192
 40
0.4336405031341842
 40
0.4336405031341842
 40
0.4478223388934177
 40
0.4478223388934177
 40
0.4478223388934177
 10
-9.05580740545396
 20
25.16644226030379
 30
0.0
 41
1.0
 10
-9.055875935286675
 20
25.16643721384547
 30
0.0
 41
0.9999999993809698
 10
-9.055944465474353
 20
25.16643217220975
 30
0.0
 41
1.0
 10
-9.096424645006321
 20
25.16347177351134
 30
0.0
 41
0.9998124319223778
 10
-9.13698910590392
 20
25.16208130327398
 30
0.0
 41
1.0
 10
-9.174545900371184
 20
25.16078718340423
 30
0.0
 41
0.9998644098243428
 10
-9.212124941645198
 20
25.16073049284569
 30
0.0
 41
1.0
 10
-9.246351392422628
 20
25.16067552728328
 30
0.0
 41
0.9998934419064764
 10
-9.280564860171655
 20
25.16161976169225
 30
0.0
 41
1.0
 10
-9.311376779373477
 20
25.16246851936241
 30
0.0
 41
0.9999107443139816
 10
-9.342155020852589
 20
25.16414022685348
 30
0.0
 41
1.0
 10
-9.369643481005932
 20
25.16563252375014
 30
0.0
 41
0.9999217169299037
 10
-9.397085992480942
 20
25.16781219243451
 30
0.0
 41
1.0
 10
-9.421433077367702
 20
25.16974558859035
 30
0.0
 41
0.999928940415365
 10
-9.445727148740776
 20
25.17225888509071
 30
0.0
 41
1.0
 10
-9.467210186024046
 20
25.17448130728053
 30
0.0
 41
0.999933603197915
 10
-9.488636301471525
 20
25.17719822246791
 30
0.0
 41
1.0
 10
-9.49567078023989
 20
25.17809140565112
 30
0.0
 41
0.9999917758394243
 10
-9.502697782790861
 20
25.17904161767481
 30
0.0
 41
1.0
  0
SPLINE
  5
D7
330
1F
100
AcDbEntity
  8
Default
100
AcDbSpline
210
0.0
220
0.0
230
1.0
 70
     8
 71
     3
 72
    12
 73
     8
 74
     0
 42
0.0000000001
 43
0.0000000001
 40
0.0
 40
0.0
 40
0.0
 40
0.0
 40
1.409468345024047
 40
2.584983022344898
 40
3.607507320650333
 40
4.89328680666405
 40
7.894681883043148
 40
7.894681883043148
 40
7.894681883043148
 40
7.894681883043148
 10
0.0
 20
28.001848549388
 30
0.0
 10
0.4697858141703364
 20
28.00258938769137
 30
0.0
 10
1.331581759571776
 20
27.99192952236091
 30
0.0
 10
2.532892209525698
 20
27.93896913712291
 30
0.0
 10
3.689544780288145
 20
27.82297362787673
 30
0.0
 10
5.44317163554598
 20
27.60320434956823
 30
0.0
 10
6.830430157696867
 20
27.18139412334776
 30
0.0
 10
7.687292469273132
 20
26.65551605764681
 30
0.0
  0
SPLINE
  5
D8
330
1F
100
AcDbEntity
  8
Default
100
AcDbSpline
210
0.0
220
0.0
230
1.0
 70
     8
 71
     3
 72
    12
 73
     8
 74
     0
 42
0.0000000001
 43
0.0000000001
 40
-7.894681883043148
 40
-7.894681883043148
 40
-7.894681883043148
 40
-7.894681883043148
 40
-4.89328680666405
 40
-3.607507320650333
 40
-2.584983022344898
 40
-1.409468345024047
 40
0.0
 40
0.0
 40
0.0
 40
0.0
 10
-7.687292469273189
 20
26.65551605764681
 30
0.0
 10
-6.830430157696924
 20
27.18139412334776
 30
0.0
 10
-5.44317163554598
 20
27.60320434956823
 30
0.0
 10
-3.689544780288202
 20
27.82297362787673
 30
0.0
 10
-2.532892209525698
 20
27.93896913712291
 30
0.0
 10
-1.331581759571804
 20
27.99192952236091
 30
0.0
 10
-0.4697858141703648
 20
28.00258938769137
 30
0.0
 10
0.0
 20
28.001848549388
 30
0.0
  0
SPLINE
  5
D9
330
1F
100
AcDbEntity
  8
Default
100
AcDbSpline
210
0.0
220
0.0
230
1.0
 70
    12
 71
     3
 72
    27
 73
    23
 74
     0
 42
0.0000000001
 43
0.0000000001
 40
-14.5374141795705
 40
-14.5374141795705
 40
-14.5374141795705
 40
-14.5374141795705
 40
-14.41934725534845
 40
-14.37741709520271
 40
-11.72195382020863
 40
-10.18186587578625
 40
-9.446987305907031
 40
-8.673929290600562
 40
-8.673929290600562
 40
-8.673929290600562
 40
-6.586620086222773
 40
-5.772800495400565
 40
-4.920229152264927
 40
-4.920229152264927
 40
-4.920229152264927
 40
-1.870401398594343
 40
-1.870401398594343
 40
-1.870401398594343
 40
-1.244728433228314
 40
-1.244728433228314
 40
-1.244728433228314
 40
0.0
 40
0.0
 40
0.0
 40
0.0
 10
8.849998081824594
 20
39.82488624899138
 30
0.0
 41
1.0
 10
8.878777845047978
 20
39.79932211451095
 30
0.0
 41
1.0
 10
8.93019765689354
 20
39.72432338727121
 30
0.0
 41
1.0
 10
9.06515953487144
 20
38.7956023035695
 30
0.0
 41
1.0
 10
9.26597286477488
 20
37.39728841445265
 30
0.0
 41
1.0
 10
9.440331821555219
 20
35.76281317538724
 30
0.0
 41
1.0
 10
9.524251207213496
 20
34.75028606386754
 30
0.0
 41
1.0
 10
9.557521082863389
 20
34.24869811780761
 30
0.0
 41
1.0
 10
9.572498973225379
 20
33.99136802518505
 30
0.0
 41
1.0
 10
9.608675387058042
 20
33.29648673160278
 30
0.0
 41
1.0
 10
9.67662846026468
 20
32.33161244190725
 30
0.0
 41
1.0
 10
9.716479212786084
 20
31.08088679750555
 30
0.0
 41
1.0
 10
9.725643444996109
 20
30.52552774249082
 30
0.0
 41
1.0
 10
9.72908670557456
 20
30.2413136392265
 30
0.0
 41
1.0
 10
9.748677668334176
 20
29.22487348909701
 30
0.0
 41
0.9999999998608998
 10
9.768280953900664
 20
28.20671963947298
 30
0.0
 41
0.9999999998608998
 10
9.787896562265871
 20
27.18685209077928
 30
0.0
 41
1.0
 10
9.791884196796365
 20
26.97488374368836
 30
0.0
 41
0.9999875412613548
 10
9.794564521912564
 20
26.76402120863095
 30
0.0
 41
0.9999875412613548
 10
9.79593743743402
 20
26.55427236685067
 30
0.0
 41
1.0
 10
9.799715950733711
 20
26.13818468274841
 30
0.0
 41
0.9999951491592268
 10
9.805078233260303
 20
25.72271164806335
 30
0.0
 41
0.9999951491592268
 10
9.81202420697906
 20
25.30785930897609
 30
0.0
 41
1.0
  0
SPLINE
  5
DA
330
1F
100
AcDbEntity
  8
Default
100
AcDbSpline
210
0.0
220
0.0
230
1.0
 70
     8
 71
     3
 72
    14
 73
    10
 74
     0
 42
0.0000000001
 43
0.0000000001
 40
-8.877532991886884
 40
-8.877532991886884
 40
-8.877532991886884
 40
-8.877532991886884
 40
-4.914447712395043
 40
-2.770559133715509
 40
-0.1666624510078076
 40
-0.1553079131419963
 40
-0.0815199279409795
 40
-0.0559075622214563
 40
0.0
 40
0.0
 40
0.0
 40
0.0
 10
0.0
 20
39.09784115251885
 30
0.0
 10
1.321165740089839
 20
39.09785894697116
 30
0.0
 10
3.356268677821276
 20
39.18865727164862
 30
0.0
 10
6.244612968252625
 20
39.49472853714852
 30
0.0
 10
7.810853097720894
 20
39.75018632903983
 30
0.0
 10
8.696315743605822
 20
39.88853097595396
 30
0.0
 10
8.733981365018394
 20
39.88323792445544
 30
0.0
 10
8.783619928427868
 20
39.87106589936729
 30
0.0
 10
8.836294188102386
 20
39.83705897533734
 30
0.0
 10
8.849998081824594
 20
39.82488624899138
 30
0.0
  0
SPLINE
  5
DB
330
1F
100
AcDbEntity
  8
Default
100
AcDbSpline
210
0.0
220
0.0
230
1.0
 70
     8
 71
     3
 72
    14
 73
    10
 74
     0
 42
0.0000000001
 43
0.0000000001
 40
0.0
 40
0.0
 40
0.0
 40
0.0
 40
0.0559075622214563
 40
0.0815199279409795
 40
0.1553079131419963
 40
0.1666624510078076
 40
2.770559133715509
 40
4.914447712395043
 40
8.877532991886884
 40
8.877532991886884
 40
8.877532991886884
 40
8.877532991886884
 10
-8.849998081824594
 20
39.82488624899138
 30
0.0
 10
-8.836294188102386
 20
39.83705897533734
 30
0.0
 10
-8.783619928427925
 20
39.87106589936729
 30
0.0
 10
-8.733981365018394
 20
39.88323792445544
 30
0.0
 10
-8.696315743605851
 20
39.88853097595396
 30
0.0
 10
-7.810853097720894
 20
39.75018632903983
 30
0.0
 10
-6.244612968252653
 20
39.49472853714852
 30
0.0
 10
-3.356268677821305
 20
39.18865727164862
 30
0.0
 10
-1.321165740089896
 20
39.09785894697116
 30
0.0
 10
0.0
 20
39.09784115251885
 30
0.0
  0
SPLINE
  5
DC
330
1F
100
AcDbEntity
  8
Default
100
AcDbSpline
210
0.0
220
0.0
230
1.0
 70
    12
 71
     3
 72
    27
 73
    23
 74
     0
 42
0.0000000001
 43
0.0000000001
 40
0.0
 40
0.0
 40
0.0
 40
0.0
 40
1.244728433228314
 40
1.244728433228314
 40
1.244728433228314
 40
1.870401398594343
 40
1.870401398594343
 40
1.870401398594343
 40
4.920229152264927
 40
4.920229152264927
 40
4.920229152264927
 40
5.772800495400565
 40
6.586620086222773
 40
8.673929290600562
 40
8.673929290600562
 40
8.673929290600562
 40
9.446987305907031
 40
10.18186587578625
 40
11.72195382020863
 40
14.37741709520271
 40
14.41934725534845
 40
14.5374141795705
 40
14.5374141795705
 40
14.5374141795705
 40
14.5374141795705
 10
-9.812024206979117
 20
25.30785930897609
 30
0.0
 41
1.0
 10
-9.805078233260318
 20
25.72271164806335
 30
0.0
 41
0.9999951491592268
 10
-9.799715950733725
 20
26.13818468274841
 30
0.0
 41
0.9999951491592268
 10
-9.79593743743402
 20
26.55427236685067
 30
0.0
 41
1.0
 10
-9.794564521912566
 20
26.76402120863095
 30
0.0
 41
0.9999875412613548
 10
-9.791884196796367
 20
26.97488374368836
 30
0.0
 41
0.9999875412613548
 10
-9.787896562265871
 20
27.18685209077928
 30
0.0
 41
1.0
 10
-9.76828095390068
 20
28.20671963947298
 30
0.0
 41
0.9999999998608998
 10
-9.748677668334192
 20
29.22487348909701
 30
0.0
 41
0.9999999998608998
 10
-9.729086705574616
 20
30.2413136392265
 30
0.0
 41
1.0
 10
-9.725643444996138
 20
30.52552774249082
 30
0.0
 41
1.0
 10
-9.716479212786112
 20
31.08088679750555
 30
0.0
 41
1.0
 10
-9.67662846026468
 20
32.33161244190725
 30
0.0
 41
1.0
 10
-9.60867538705807
 20
33.29648673160278
 30
0.0
 41
1.0
 10
-9.572498973225379
 20
33.99136802518505
 30
0.0
 41
1.0
 10
-9.557521082863417
 20
34.24869811780761
 30
0.0
 41
1.0
 10
-9.524251207213524
 20
34.75028606386754
 30
0.0
 41
1.0
 10
-9.440331821555219
 20
35.76281317538724
 30
0.0
 41
1.0
 10
-9.26597286477488
 20
37.39728841445265
 30
0.0
 41
1.0
 10
-9.06515953487144
 20
38.7956023035695
 30
0.0
 41
1.0
 10
-8.930197656893597
 20
39.72432338727121
 30
0.0
 41
1.0
 10
-8.878777845048006
 20
39.79932211451095
 30
0.0
 41
1.0
 10
-8.849998081824594
 20
39.82488624899138
 30
0.0
 41
1.0
  0
SPLINE
  5
DD
330
1F
100
AcDbEntity
  8
Default
100
AcDbSpline
210
0.0
220
0.0
230
1.0
 70
    12
 71
     2
 72
     6
 73
     3
 74
     0
 42
0.0000000001
 43
0.0000000001
 40
0.0
 40
0.0
 40
0.0
 40
0.0004258303068065
 40
0.0004258303068065
 40
0.0004258303068065
 10
8.27877266825046
 20
0.1569824818716526
 30
0.0
 41
1.0
 10
8.278614541658317
 20
0.1571400430827636
 30
0.0
 41
0.9321373108086077
 10
8.278604245964871
 20
0.1573630308696172
 30
0.0
 41
1.0
  0
SPLINE
  5
DE
330
1F
100
AcDbEntity
  8
Default
100
AcDbSpline
210
0.0
220
0.0
230
1.0
 70
    24
 71
     2
 72
     6
 73
     3
 74
     0
 42
0.0000000001
 43
0.0000000001
 40
0.0
 40
0.0
 40
0.0
 40
25.13427378211947
 40
25.13427378211947
 40
25.13427378211947
 10
9.403495490579715
 20
0.1729994771905712
 30
0.0
 10
9.228688799420665
 20
12.73892054408259
 30
0.0
 10
9.053882108261615
 20
25.3048416109746
 30
0.0
  0
SPLINE
  5
DF
330
1F
100
AcDbEntity
  8
Default
100
AcDbSpline
210
0.0
220
0.0
230
1.0
 70
     8
 71
     3
 72
    16
 73
    12
 74
     0
 42
0.0000000001
 43
0.0000000001
 40
0.0
 40
0.0
 40
0.0
 40
0.0
 40
0.0051653854898411
 40
0.0098143762486306
 40
0.0246208546667071
 40
0.0690914466071414
 40
0.1950563379128102
 40
0.3716459122982222
 40
0.591698352566269
 40
0.7938632992620289
 40
1.198788354307877
 40
1.198788354307877
 40
1.198788354307877
 40
1.198788354307877
 10
8.169926666297663
 20
8.15697358070862
 30
0.0
 10
8.169017785708158
 20
8.157877454730597
 30
0.0
 10
8.16596152359163
 20
8.162836790777945
 30
0.0
 10
8.174029992320854
 20
8.156999997250491
 30
0.0
 10
8.18908249079949
 20
8.141344813251687
 30
0.0
 10
8.231123777604648
 20
8.09883344684664
 30
0.0
 10
8.308868920746951
 20
8.007953418422503
 30
0.0
 10
8.41503323484643
 20
7.878117767382892
 30
0.0
 10
8.509220228308351
 20
7.684110442293909
 30
0.0
 10
8.400974019144414
 20
7.415593108908133
 30
0.0
 10
8.261734034721623
 20
7.271507031664655
 30
0.0
 10
8.181165049816585
 20
7.161747733238475
 30
0.0
  0
SPLINE
  5
E0
330
1F
100
AcDbEntity
  8
Default
100
AcDbSpline
210
0.0
220
0.0
230
1.0
 70
    24
 71
     2
 72
     6
 73
     3
 74
     0
 42
0.0000000001
 43
0.0000000001
 40
0.0
 40
0.0
 40
0.0
 40
15.9071138578569
 40
15.9071138578569
 40
15.9071138578569
 10
7.945994105599121
 20
24.06693100927049
 30
0.0
 10
8.056626694949815
 20
16.11414355757286
 30
0.0
 10
8.167259284300508
 20
8.161356105875226
 30
0.0
  0
SPLINE
  5
E1
330
1F
100
AcDbEntity
  8
Default
100
AcDbSpline
210
0.0
220
0.0
230
1.0
 70
    24
 71
     2
 72
     6
 73
     3
 74
     0
 42
0.0000000001
 43
0.0000000001
 40
0.0
 40
0.0
 40
0.0
 40
7.005062463356575
 40
7.005062463356575
 40
7.005062463356575
 10
8.181165091264536
 20
7.161741726619514
 30
0.0
 10
8.229884689666209
 20
3.659549351890022
 30
0.0
 10
8.278604288067882
 20
0.1573569771605292
 30
0.0
  0
SPLINE
  5
E2
330
1F
100
AcDbEntity
  8
Default
100
AcDbSpline
210
0.0
220
0.0
230
1.0
 70
    15
 71
     2
 72
    22
 73
    19
 74
     0
 42
0.0000000001
 43
0.0000000001
 40
0.0
 40
0.0
 40
0.0
 40
0.453779622357851
 40
0.453779622357851
 40
0.9088630421159327
 40
0.9088630421159327
 40
0.9993756319597356
 40
0.9993756319597356
 40
1.083258245025186
 40
1.083258245025186
 40
1.645838517933367
 40
1.645838517933367
 40
2.170467766655575
 40
2.170467766655575
 40
2.209198126140482
 40
2.209198126140482
 40
2.292861130491013
 40
2.292861130491013
 40
2.383370666709242
 40
2.383370666709242
 40
2.383370666709242
 10
8.335520171470174
 20
0.0115303288202942
 30
0.0
 41
1.0
 10
8.615183681266386
 20
-0.0023890054529852
 30
0.0
 41
0.9995895589252186
 10
8.842169095054745
 20
0.0007647233281332
 30
0.0
 41
1.0
 10
9.06980687243875
 20
0.0039282003818307
 30
0.0
 41
0.9995871947377413
 10
9.348592656514114
 20
0.0255683762887222
 30
0.0
 41
1.0
 10
9.403047475373159
 20
0.0327658620256023
 30
0.0
 41
0.7556419620548741
 10
9.40365488669316
 20
0.0876939475217561
 30
0.0
 41
1.0
 10
9.40332332904988
 20
0.1299897110137476
 30
0.0
 41
1.0
 10
9.402991771406597
 20
0.1722854745057392
 30
0.0
 41
1.0
 10
9.122263507773038
 20
0.1925534421731181
 30
0.0
 41
0.9984590545613797
 10
8.841049868272236
 20
0.1808282938299576
 30
0.0
 41
1.000002485846825
 10
8.578795832973036
 20
0.1790229005210272
 30
0.0
 41
0.9996639313696921
 10
8.317030171284708
 20
0.1629100489306548
 30
0.0
 41
1.000002463241312
 10
8.297649295170713
 20
0.1615662235887231
 30
0.0
 41
0.9947968588941647
 10
8.278192748865983
 20
0.1563388776549319
 30
0.0
 41
1.000011529947611
 10
8.278478195550882
 20
0.1141951622826088
 30
0.0
 41
1.000011529947611
 10
8.27876364223578
 20
0.0720514469102856
 30
0.0
 41
1.000011529947611
 10
8.280806524774967
 20
0.0170908930052505
 30
0.0
 41
0.7543279065398946
 10
8.335520171470174
 20
0.0115303288202942
 30
0.0
 41
1.000011529947611
  0
SPLINE
  5
E3
330
1F
100
AcDbEntity
  8
Default
100
AcDbSpline
210
0.0
220
0.0
230
1.0
 70
    12
 71
     2
 72
     6
 73
     3
 74
     0
 42
0.0000000001
 43
0.0000000001
 40
0.0
 40
0.0
 40
0.0
 40
0.1393978618929742
 40
0.1393978618929742
 40
0.1393978618929742
 10
9.165355447643279
 20
24.7615360430706
 30
0.0
 41
1.0
 10
9.11537785760529
 20
24.81022686219747
 30
0.0
 41
0.9983647645364654
 10
9.060169216774892
 20
24.8528948988398
 30
0.0
 41
1.0
  0
SPLINE
  5
E4
330
1F
100
AcDbEntity
  8
Default
100
AcDbSpline
210
0.0
220
0.0
230
1.0
 70
    12
 71
     3
 72
    12
 73
     8
 74
     0
 42
0.0000000001
 43
0.0000000001
 40
-1.975272820121479
 40
-1.975272820121479
 40
-1.975272820121479
 40
-1.975272820121479
 40
-1.596863394842357
 40
-1.596863394842357
 40
-1.398298080885066
 40
-1.398298080885066
 40
-1.370981876227486
 40
-1.370981876227486
 40
-1.370981876227486
 40
-1.370981876227486
 10
9.185127285735277
 20
24.23638270492974
 30
0.0
 41
1.0
 10
9.264601146561105
 20
24.3223519876918
 30
0.0
 41
1.0
 10
9.343435498410614
 20
24.44629206311531
 30
0.0
 41
1.0
 10
9.276078832773678
 20
24.64093859837783
 30
0.0
 41
1.0
 10
9.235116078363617
 20
24.69005703773168
 30
0.0
 41
1.0
 10
9.179057238223024
 20
24.74795680373179
 30
0.0
 41
1.0
 10
9.172231910010467
 20
24.75481183615368
 30
0.0
 41
1.0
 10
9.165355447643279
 20
24.7615360430706
 30
0.0
 41
1.0
  0
SPLINE
  5
E5
330
1F
100
AcDbEntity
  8
Default
100
AcDbSpline
210
0.0
220
0.0
230
1.0
 70
    12
 71
     2
 72
     6
 73
     3
 74
     0
 42
0.0000000001
 43
0.0000000001
 40
0.0
 40
0.0
 40
0.0
 40
0.1542817287576956
 40
0.1542817287576956
 40
0.1542817287576956
 10
9.070171804235027
 20
24.13386221376767
 30
0.0
 41
1.0
 10
9.13274014853342
 20
24.17941440259454
 30
0.0
 41
0.9951050385958604
 10
9.185127285735277
 20
24.23638270492974
 30
0.0
 41
1.0
  0
SPLINE
  5
E6
330
1F
100
AcDbEntity
  8
Default
100
AcDbSpline
210
0.0
220
0.0
230
1.0
 70
    12
 71
     2
 72
     6
 73
     3
 74
     0
 42
0.0000000001
 43
0.0000000001
 40
-25.09328416650955
 40
-25.09328416650955
 40
-25.09328416650955
 40
0.0
 40
0.0
 40
0.0
 10
9.81185239973968
 20
25.30785667061625
 30
0.0
 41
1.0
 10
10.00566005916515
 20
12.71898557262817
 30
0.0
 41
0.9999999999999892
 10
10.19857777602182
 20
0.1738267326727509
 30
0.0
 41
1.0
  0
SPLINE
  5
E7
330
1F
100
AcDbEntity
  8
Default
100
AcDbSpline
210
0.0
220
0.0
230
1.0
 70
    12
 71
     2
 72
    16
 73
    13
 74
     0
 42
0.0000000001
 43
0.0000000001
 40
0.0
 40
0.0
 40
0.0
 40
0.0806504200282762
 40
0.0806504200282762
 40
0.1743258249211015
 40
0.1743258249211015
 40
0.2423600298270026
 40
0.2423600298270026
 40
0.2924131432867252
 40
0.2924131432867252
 40
0.3265614696477811
 40
0.3265614696477811
 40
0.3521808302996258
 40
0.3521808302996258
 40
0.3521808302996258
 10
9.502697782790861
 20
25.17904161767481
 30
0.0
 41
1.0
 10
9.542675126356894
 20
25.18439863312636
 30
0.0
 41
0.9996482269205631
 10
9.582312169237749
 20
25.1918679332814
 30
0.0
 41
1.0
 10
9.628391974588508
 20
25.2004477515344
 30
0.0
 41
0.998910488017883
 10
9.673471149898575
 20
25.21328635331897
 30
0.0
 41
1.0
 10
9.706247757807569
 20
25.22255289868125
 30
0.0
 41
0.9980529921694051
 10
9.737615659833223
 20
25.23582804883032
 30
0.0
 41
1.0
 10
9.760806320820482
 20
25.24547071604457
 30
0.0
 41
0.9946970531954675
 10
9.781533425126216
 20
25.25965433106787
 30
0.0
 41
1.0
 10
9.79591866229685
 20
25.26924277444036
 30
0.0
 41
0.981553260770642
 10
9.805653472021248
 20
25.28352936865985
 30
0.0
 41
1.0
 10
9.81316881381722
 20
25.29456779382417
 30
0.0
 41
0.9399736737485752
 10
9.81185239973968
 20
25.30785667061625
 30
0.0
 41
1.0
  0
SPLINE
  5
E8
330
1F
100
AcDbEntity
  8
Default
100
AcDbSpline
210
0.0
220
0.0
230
1.0
 70
    12
 71
     2
 72
    22
 73
    19
 74
     0
 42
0.0000000001
 43
0.0000000001
 40
0.0
 40
0.0
 40
0.0
 40
0.0001374307783543
 40
0.0001374307783543
 40
0.0813038498495856
 40
0.0813038498495856
 40
0.156455223836652
 40
0.156455223836652
 40
0.2249033506938929
 40
0.2249033506938929
 40
0.2865468965471257
 40
0.2865468965471257
 40
0.3416018977803437
 40
0.3416018977803437
 40
0.3904470426976192
 40
0.3904470426976192
 40
0.4336405031341842
 40
0.4336405031341842
 40
0.4478223388934177
 40
0.4478223388934177
 40
0.4478223388934177
 10
9.05580740545396
 20
25.16644226030379
 30
0.0
 41
1.0
 10
9.055875935286675
 20
25.16643721384547
 30
0.0
 41
0.9999999993809698
 10
9.055944465474353
 20
25.16643217220975
 30
0.0
 41
1.0
 10
9.096424645006321
 20
25.16347177351134
 30
0.0
 41
0.9998124319223778
 10
9.13698910590392
 20
25.16208130327398
 30
0.0
 41
1.0
 10
9.174545900371184
 20
25.16078718340423
 30
0.0
 41
0.9998644098243428
 10
9.212124941645198
 20
25.16073049284569
 30
0.0
 41
1.0
 10
9.246351392422628
 20
25.16067552728328
 30
0.0
 41
0.9998934419064764
 10
9.280564860171655
 20
25.16161976169225
 30
0.0
 41
1.0
 10
9.311376779373477
 20
25.16246851936241
 30
0.0
 41
0.9999107443139816
 10
9.342155020852589
 20
25.16414022685348
 30
0.0
 41
1.0
 10
9.369643481005932
 20
25.16563252375014
 30
0.0
 41
0.9999217169299037
 10
9.397085992480942
 20
25.16781219243451
 30
0.0
 41
1.0
 10
9.421433077367702
 20
25.16974558859035
 30
0.0
 41
0.999928940415365
 10
9.445727148740776
 20
25.17225888509071
 30
0.0
 41
1.0
 10
9.467210186024046
 20
25.17448130728053
 30
0.0
 41
0.999933603197915
 10
9.488636301471525
 20
25.17719822246791
 30
0.0
 41
1.0
 10
9.49567078023989
 20
25.17809140565112
 30
0.0
 41
0.9999917758394243
 10
9.502697782790861
 20
25.17904161767481
 30
0.0
 41
1.0
  0
SPLINE
  5
E9
330
1F
100
AcDbEntity
  8
Default
100
AcDbSpline
210
0.0
220
0.0
230
1.0
 70
    24
 71
     2
 72
     6
 73
     3
 74
     0
 42
0.0000000001
 43
0.0000000001
 40
0.0
 40
0.0
 40
0.0
 40
0.7960449348972201
 40
0.7960449348972201
 40
0.7960449348972201
 10
10.19888131536793
 20
0.1731144185748574
 30
0.0
 10
9.800754132006585
 20
0.1673506837140199
 30
0.0
 10
9.402626948645244
 20
0.1615869488531823
 30
0.0
  0
SPLINE
  5
EA
330
1F
100
AcDbEntity
  8
Default
100
AcDbSpline
210
0.0
220
0.0
230
1.0
 70
    24
 71
     2
 72
     6
 73
     3
 74
     0
 42
0.0000000001
 43
0.0000000001
 40
-0.0839211351619186
 40
-0.0839211351619186
 40
-0.0839211351619186
 40
0.0
 40
0.0
 40
0.0
 10
10.20047520060892
 20
0.0884908899940779
 30
0.0
 10
10.19967825798842
 20
0.1308026542844677
 30
0.0
 10
10.19888131536793
 20
0.1731144185748574
 30
0.0
  0
SPLINE
  5
EB
330
1F
100
AcDbEntity
  8
Default
100
AcDbSpline
210
0.0
220
0.0
230
1.0
 70
    12
 71
     2
 72
     6
 73
     3
 74
     0
 42
0.0000000001
 43
0.0000000001
 40
-0.0904093603292067
 40
-0.0904093603292067
 40
-0.0904093603292067
 40
0.0
 40
0.0
 40
0.0
 10
10.14523829911552
 20
0.0277571389145863
 30
0.0
 41
1.0
 10
10.20134053713727
 20
0.0322182186833529
 30
0.0
 41
0.7293593170846407
 10
10.20047520060892
 20
0.0884908899940779
 30
0.0
 41
1.0
  0
SPLINE
  5
EC
330
1F
100
AcDbEntity
  8
Default
100
AcDbSpline
210
0.0
220
0.0
230
1.0
 70
    12
 71
     2
 72
     8
 73
     5
 74
     0
 42
0.0000000001
 43
0.0000000001
 40
-0.8433053248869731
 40
-0.8433053248869731
 40
-0.8433053248869731
 40
-0.4216333844790081
 40
-0.4216333844790081
 40
0.0
 40
0.0
 40
0.0
 10
9.21761597594515
 20
0.0085127089659066
 30
0.0
 41
1.0
 10
9.428350608492842
 20
0.0005296362392564
 30
0.0
 41
0.9996457039810459
 10
9.639211465054956
 20
0.003772162270628
 30
0.0
 41
1.0
 10
9.850053032266905
 20
0.0070143916788095
 30
0.0
 41
0.9996457687649688
 10
10.14523829911552
 20
0.0277571389145863
 30
0.0
 41
1.0
  0
SPLINE
  5
ED
330
1F
100
AcDbEntity
  8
Default
100
AcDbSpline
210
0.0
220
0.0
230
1.0
 70
     8
 71
     3
 72
    11
 73
     7
 74
     0
 42
0.0000000001
 43
0.0000000001
 40
0.0
 40
0.0
 40
0.0
 40
0.0
 40
10.18141145748611
 40
11.42881579600434
 40
14.99093573564483
 40
25.71014457820393
 40
25.71014457820393
 40
25.71014457820393
 40
25.71014457820393
 10
31.18579402347124
 20
25.41469737912751
 30
0.0
 10
30.37263417378828
 20
22.11971631514198
 30
0.0
 10
29.45752672305771
 20
18.42174378088472
 30
0.0
 10
28.25972817422238
 20
13.57034160764916
 30
0.0
 10
27.21799014606406
 20
8.497712927879844
 30
0.0
 10
26.80228766188773
 20
3.737558650999607
 30
0.0
 10
26.80219638382484
 20
0.164412398026464
 30
0.0
  0
SPLINE
  5
EE
330
1F
100
AcDbEntity
  8
Default
100
AcDbSpline
210
0.0
220
0.0
230
1.0
 70
    12
 71
     2
 72
     6
 73
     3
 74
     0
 42
0.0000000001
 43
0.0000000001
 40
0.0
 40
0.0
 40
0.0
 40
0.5605701597067834
 40
0.5605701597067834
 40
0.5605701597067834
 10
31.73190484425053
 20
25.28856410590356
 30
0.0
 41
1.0
 10
31.46075228524365
 20
25.35986675475558
 30
0.0
 41
0.9995454043361723
 10
31.18579402347124
 20
25.41469737912751
 30
0.0
 41
1.0
  0
SPLINE
  5
EF
330
1F
100
AcDbEntity
  8
Default
100
AcDbSpline
210
0.0
220
0.0
230
1.0
 70
    12
 71
     2
 72
     6
 73
     3
 74
     0
 42
0.0000000001
 43
0.0000000001
 40
0.0
 40
0.0
 40
0.0
 40
0.5647131262011991
 40
0.5647131262011991
 40
0.5647131262011991
 10
32.27801342674621
 20
25.14511772207855
 30
0.0
 41
1.0
 10
32.0070789612488
 20
25.22491489305411
 30
0.0
 41
0.9995639493881749
 10
31.73190484425053
 20
25.28856410590356
 30
0.0
 41
1.0
  0
SPLINE
  5
F0
330
1F
100
AcDbEntity
  8
Default
100
AcDbSpline
210
0.0
220
0.0
230
1.0
 70
    12
 71
     2
 72
     6
 73
     3
 74
     0
 42
0.0000000001
 43
0.0000000001
 40
0.0
 40
0.0
 40
0.0
 40
0.5059202388420065
 40
0.5059202388420065
 40
0.5059202388420065
 10
32.15664724783017
 20
24.65395458513434
 30
0.0
 41
1.0
 10
32.21732994215472
 20
24.89952828547581
 30
0.0
 41
0.9999999998305749
 10
32.27801342674621
 20
25.14511772207855
 30
0.0
 41
1.0
  0
SPLINE
  5
F1
330
1F
100
AcDbEntity
  8
Default
100
AcDbSpline
210
0.0
220
0.0
230
1.0
 70
    12
 71
     2
 72
     6
 73
     3
 74
     0
 42
0.0000000001
 43
0.0000000001
 40
-0.3259487401652906
 40
-0.3259487401652906
 40
-0.3259487401652906
 40
0.0
 40
0.0
 40
0.0
 10
32.0782943886461
 20
24.3375895178345
 30
0.0
 41
1.0
 10
32.11392494402939
 20
24.49665254748601
 30
0.0
 41
0.9997629657398175
 10
32.15664724783017
 20
24.65395458513434
 30
0.0
 41
1.0
  0
SPLINE
  5
F2
330
1F
100
AcDbEntity
  8
Default
100
AcDbSpline
210
0.0
220
0.0
230
1.0
 70
     8
 71
     3
 72
    13
 73
     9
 74
     0
 42
0.0000000001
 43
0.0000000001
 40
0.0
 40
0.0
 40
0.0
 40
0.0
 40
2.573181444041982
 40
5.146363825740421
 40
10.1790271953643
 40
13.91086206765759
 40
15.2644176150709
 40
24.60606049536534
 40
24.60606049536534
 40
24.60606049536534
 40
24.60606049536534
 10
27.92719638382501
 20
0.1644123685307353
 30
0.0
 10
27.92716311232356
 20
1.022177881591944
 30
0.0
 10
27.9642077769027
 20
2.737526474332693
 30
0.0
 10
28.18007719681554
 20
6.124565978665144
 30
0.0
 10
28.6585152152831
 20
9.87651763958887
 30
0.0
 10
29.32358015478838
 20
13.18473173496788
 30
0.0
 10
30.47570633944686
 20
17.85382974896188
 30
0.0
 10
31.33273024739737
 20
21.31423949470512
 30
0.0
 10
32.0782943886461
 20
24.3375895178345
 30
0.0
  0
SPLINE
  5
F3
330
1F
100
AcDbEntity
  8
Default
100
AcDbSpline
210
0.0
220
0.0
230
1.0
 70
    24
 71
     2
 72
     6
 73
     3
 74
     0
 42
0.0000000001
 43
0.0000000001
 40
-24.53139678272293
 40
-24.53139678272293
 40
-24.53139678272293
 40
0.0
 40
0.0
 40
0.0
 10
47.51535601225837
 20
24.70196676234556
 30
0.0
 10
47.85655029702322
 20
12.4410147816513
 30
0.0
 10
48.19774458178806
 20
0.1800628009570429
 30
0.0
  0
SPLINE
  5
F4
330
1F
100
AcDbEntity
  8
Default
100
AcDbSpline
210
0.0
220
0.0
230
1.0
 70
    12
 71
     3
 72
    10
 73
     6
 74
     0
 42
0.0000000001
 43
0.0000000001
 40
0.0
 40
0.0
 40
0.0
 40
0.0
 40
0.5385699588464252
 40
0.5385699588464252
 40
1.094039292319471
 40
1.094039292319471
 40
1.094039292319471
 40
1.094039292319471
 10
46.93568899149254
 20
25.3110517304159
 30
0.0
 41
1.0
 10
47.1336334343119
 20
25.3164738489548
 30
0.0
 41
1.0
 10
47.28639705821031
 20
25.20909222677145
 30
0.0
 41
1.0
 10
47.46778330534507
 20
24.97835416771528
 30
0.0
 41
1.0
 10
47.51161115574332
 20
24.83655316111426
 30
0.0
 41
1.0
 10
47.51535601225837
 20
24.70196676234556
 30
0.0
 41
1.0
  0
SPLINE
  5
F5
330
1F
100
AcDbEntity
  8
Default
100
AcDbSpline
210
0.0
220
0.0
230
1.0
 70
    12
 71
     3
 72
    10
 73
     6
 74
     0
 42
0.0000000001
 43
0.0000000001
 40
-1.094047586592026
 40
-1.094047586592026
 40
-1.094047586592026
 40
-1.094047586592026
 40
-0.5381012620924772
 40
-0.5381012620924772
 40
0.0
 40
0.0
 40
0.0
 40
0.0
 10
46.39079134956351
 20
24.67067268274585
 30
0.0
 41
1.0
 10
46.38704325257693
 20
24.80537880545009
 30
0.0
 41
1.0
 10
46.42298257441538
 20
24.94954317613834
 30
0.0
 41
1.0
 10
46.59146687298777
 20
25.18996324093786
 30
0.0
 41
1.0
 10
46.73793889466273
 20
25.30546187378726
 30
0.0
 41
1.0
 10
46.93568899149254
 20
25.3110517304159
 30
0.0
 41
1.0
  0
SPLINE
  5
F6
330
1F
100
AcDbEntity
  8
Default
100
AcDbSpline
210
0.0
220
0.0
230
1.0
 70
    24
 71
     2
 72
     6
 73
     3
 74
     0
 42
0.0000000001
 43
0.0000000001
 40
-24.53139678272294
 40
-24.53139678272294
 40
-24.53139678272294
 40
0.0
 40
0.0
 40
0.0
 10
47.07317991909319
 20
0.1487687213573157
 30
0.0
 10
46.73198563432835
 20
12.40972070205158
 30
0.0
 10
46.39079134956351
 20
24.67067268274585
 30
0.0
  0
SPLINE
  5
F7
330
1F
100
AcDbEntity
  8
Default
100
AcDbSpline
210
0.0
220
0.0
230
1.0
 70
    12
 71
     2
 72
     6
 73
     3
 74
     0
 42
0.0000000001
 43
0.0000000001
 40
0.0
 40
0.0
 40
0.0
 40
0.0904048108433082
 40
0.0904048108433082
 40
0.0904048108433082
 10
48.19558923364691
 20
0.0947542441453113
 30
0.0
 41
1.0
 10
48.19715220307066
 20
0.0384992992473749
 30
0.0
 41
0.7293564259667951
 10
48.14111221131257
 20
0.0333436205682121
 30
0.0
 41
1.0
  0
SPLINE
  5
F8
330
1F
100
AcDbEntity
  8
Default
100
AcDbSpline
210
0.0
220
0.0
230
1.0
 70
    24
 71
     2
 72
     6
 73
     3
 74
     0
 42
0.0000000001
 43
0.0000000001
 40
0.0
 40
0.0
 40
0.0
 40
0.0839130223841496
 40
0.0839130223841496
 40
0.0839130223841496
 10
48.19325502848963
 20
0.1786347950014335
 30
0.0
 10
48.19442213106827
 20
0.1366945195733724
 30
0.0
 10
48.19558923364691
 20
0.0947542441453113
 30
0.0
  0
SPLINE
  5
F9
330
1F
100
AcDbEntity
  8
Default
100
AcDbSpline
210
0.0
220
0.0
230
1.0
 70
    12
 71
     2
 72
     6
 73
     3
 74
     0
 42
0.0000000001
 43
0.0000000001
 40
-0.0396677367062233
 40
-0.0396677367062233
 40
-0.0396677367062233
 40
0.0
 40
0.0
 40
0.0
 10
48.15369995823821
 20
0.1811420115459519
 30
0.0
 41
0.999988126231597
 10
48.17358931630248
 20
0.1815472981639516
 30
0.0
 41
0.9947997884601657
 10
48.19325502848963
 20
0.1786347950014335
 30
0.0
 41
1.0
  0
SPLINE
  5
FA
330
1F
100
AcDbEntity
  8
Default
100
AcDbSpline
210
0.0
220
0.0
230
1.0
 70
    12
 71
     2
 72
     6
 73
     3
 74
     0
 42
0.0000000001
 43
0.0000000001
 40
-0.5185619870506811
 40
-0.5185619870506811
 40
-0.5185619870506811
 40
0.0
 40
0.0
 40
0.0
 10
47.63298172398265
 20
0.1721708844611511
 30
0.0
 41
1.0
 10
47.89441016787286
 20
0.1802757196338292
 30
0.0
 41
0.9999226791243575
 10
48.15369995823819
 20
0.1811420115459519
 30
0.0
 41
0.9999999975285743
  0
SPLINE
  5
FB
330
1F
100
AcDbEntity
  8
Default
100
AcDbSpline
210
0.0
220
0.0
230
1.0
 70
    12
 71
     2
 72
     6
 73
     3
 74
     0
 42
0.0000000001
 43
0.0000000001
 40
-0.5532852519650923
 40
-0.5532852519650923
 40
-0.5532852519650923
 40
0.0
 40
0.0
 40
0.0
 10
47.07797792040537
 20
0.1494708687905966
 30
0.0
 41
0.9999999748093268
 10
47.35410593844563
 20
0.1667159554092878
 30
0.0
 41
0.9997872064411198
 10
47.63298172398265
 20
0.1721708844611511
 30
0.0
 41
1.0
  0
SPLINE
  5
FC
330
1F
100
AcDbEntity
  8
Default
100
AcDbSpline
210
0.0
220
0.0
230
1.0
 70
    12
 71
     2
 72
     6
 73
     3
 74
     0
 42
0.0000000001
 43
0.0000000001
 40
-0.0095607264504046
 40
-0.0095607264504046
 40
-0.0095607264504046
 40
0.0
 40
0.0
 40
0.0
 10
47.06869036579477
 20
0.1473407154017381
 30
0.0
 41
1.0
 10
47.07316183067208
 20
0.1491105824969317
 30
0.0
 41
0.9804713528275351
 10
47.07797792040537
 20
0.1494708687905967
 30
0.0
 41
0.9997212034231858
  0
SPLINE
  5
FD
330
1F
100
AcDbEntity
  8
Default
100
AcDbSpline
210
0.0
220
0.0
230
1.0
 70
    24
 71
     2
 72
     6
 73
     3
 74
     0
 42
0.0000000001
 43
0.0000000001
 40
0.0
 40
0.0
 40
0.0
 40
0.0839130223841461
 40
0.0839130223841461
 40
0.0839130223841461
 10
47.07102457095205
 20
0.0634601645456184
 30
0.0
 10
47.06985746837341
 20
0.1054004399736783
 30
0.0
 10
47.06869036579477
 20
0.1473407154017381
 30
0.0
  0
SPLINE
  5
FE
330
1F
100
AcDbEntity
  8
Default
100
AcDbSpline
210
0.0
220
0.0
230
1.0
 70
    12
 71
     2
 72
     6
 73
     3
 74
     0
 42
0.0000000001
 43
0.0000000001
 40
0.0
 40
0.0
 40
0.0
 40
0.0904048108432987
 40
0.0904048108432987
 40
0.0904048108432987
 10
47.12883247807149
 20
0.0051741754486312
 30
0.0
 41
1.0
 10
47.07259249230895
 20
0.0072053574487391
 30
0.0
 41
0.7293564259668366
 10
47.07102457095205
 20
0.0634601645456184
 30
0.0
 41
1.0
  0
SPLINE
  5
FF
330
1F
100
AcDbEntity
  8
Default
100
AcDbSpline
210
0.0
220
0.0
230
1.0
 70
    12
 71
     2
 72
     8
 73
     5
 74
     0
 42
0.0000000001
 43
0.0000000001
 40
0.0
 40
0.0
 40
0.0
 40
0.4683147364634115
 40
0.4683147364634115
 40
0.8897132124986529
 40
0.8897132124986529
 40
0.8897132124986529
 10
48.14111221131257
 20
0.0333436205682121
 30
0.0
 41
1.0
 10
47.86955794554246
 20
0.009580574544703
 30
0.0
 41
0.9995630791006821
 10
47.6354229804283
 20
0.0030651312877138
 30
0.0
 41
1.0
 10
47.42475558571712
 20
-0.0027972642549773
 30
0.0
 41
0.999646231579018
 10
47.12883247807149
 20
0.0051741754486312
 30
0.0
 41
1.0
  0
SPLINE
  5
100
330
1F
100
AcDbEntity
  8
Default
100
AcDbSpline
210
0.0
220
0.0
230
1.0
 70
    12
 71
     2
 72
     6
 73
     3
 74
     0
 42
0.0000000001
 43
0.0000000001
 40
0.0
 40
0.0
 40
0.0
 40
0.0903237802530619
 40
0.0903237802530619
 40
0.0903237802530619
 10
26.80050411633453
 20
0.0790765406674383
 30
0.0
 41
1.0
 10
26.80138897715552
 20
0.0236482293951481
 30
0.0
 41
0.7438500827909555
 10
26.85659565234703
 20
0.0186179527158765
 30
0.0
 41
1.0
  0
SPLINE
  5
101
330
1F
100
AcDbEntity
  8
Default
100
AcDbSpline
210
0.0
220
0.0
230
1.0
 70
    24
 71
     2
 72
     6
 73
     3
 74
     0
 42
0.0000000001
 43
0.0000000001
 40
0.0
 40
0.0
 40
0.0
 40
0.0839112145300478
 40
0.0839112145300478
 40
0.0839112145300478
 10
26.80050411633452
 20
0.1629877551975284
 30
0.0
 10
26.80050411633453
 20
0.1210321479324833
 30
0.0
 10
26.80050411633453
 20
0.0790765406674383
 30
0.0
  0
SPLINE
  5
102
330
1F
100
AcDbEntity
  8
Default
100
AcDbSpline
210
0.0
220
0.0
230
1.0
 70
    12
 71
     2
 72
     6
 73
     3
 74
     0
 42
0.0000000001
 43
0.0000000001
 40
-0.5626550649758444
 40
-0.5626550649758444
 40
-0.5626550649758444
 40
0.0
 40
0.0
 40
0.0
 10
27.36300411633452
 20
0.1716366116508808
 30
0.0
 41
1.0
 10
27.08162116515629
 20
0.1759589956541443
 30
0.0
 41
0.9995277311970242
 10
26.80050411633452
 20
0.1629877551975284
 30
0.0
 41
1.0
  0
SPLINE
  5
103
330
1F
100
AcDbEntity
  8
Default
100
AcDbSpline
210
0.0
220
0.0
230
1.0
 70
    12
 71
     2
 72
     6
 73
     3
 74
     0
 42
0.0000000001
 43
0.0000000001
 40
-0.5626550649758444
 40
-0.5626550649758444
 40
-0.5626550649758444
 40
0.0
 40
0.0
 40
0.0
 10
27.92550411633452
 20
0.1629877551975266
 30
0.0
 41
1.0
 10
27.64438706751275
 20
0.1759589956541445
 30
0.0
 41
0.9995277311970238
 10
27.36300411633452
 20
0.1716366116508808
 30
0.0
 41
1.0
  0
SPLINE
  5
104
330
1F
100
AcDbEntity
  8
Default
100
AcDbSpline
210
0.0
220
0.0
230
1.0
 70
    24
 71
     2
 72
     6
 73
     3
 74
     0
 42
0.0000000001
 43
0.0000000001
 40
0.0
 40
0.0
 40
0.0
 40
0.0839112145300478
 40
0.0839112145300478
 40
0.0839112145300478
 10
27.92550411633452
 20
0.0790765406674373
 30
0.0
 10
27.92550411633452
 20
0.121032147932482
 30
0.0
 10
27.92550411633452
 20
0.1629877551975266
 30
0.0
  0
SPLINE
  5
105
330
1F
100
AcDbEntity
  8
Default
100
AcDbSpline
210
0.0
220
0.0
230
1.0
 70
    12
 71
     2
 72
     6
 73
     3
 74
     0
 42
0.0000000001
 43
0.0000000001
 40
0.0
 40
0.0
 40
0.0
 40
0.0904493524147892
 40
0.0904493524147892
 40
0.0904493524147892
 10
27.86941266747183
 20
0.0186147476953603
 30
0.0
 41
1.0
 10
27.92491481687025
 20
0.0233738448633592
 30
0.0
 41
0.7402594161839205
 10
27.92550411633452
 20
0.0790765406674373
 30
0.0
 41
1.0
  0
SPLINE
  5
106
330
1F
100
AcDbEntity
  8
Default
100
AcDbSpline
210
0.0
220
0.0
230
1.0
 70
    12
 71
     2
 72
     8
 73
     5
 74
     0
 42
0.0000000001
 43
0.0000000001
 40
-0.8898952949257324
 40
-0.8898952949257324
 40
-0.8898952949257324
 40
-0.4217351829039724
 40
-0.4217351829039724
 40
0.0
 40
0.0
 40
0.0
 10
27.86941266747183
 20
0.0186147476953603
 30
0.0
 41
1.0
 10
27.5971523332959
 20
0.0020710573831722
 30
0.0
 41
0.9995634045967902
 10
27.36300411633453
 20
0.0020703980155186
 30
0.0
 41
1.0
 10
27.15208671805638
 20
0.0020715457303836
 30
0.0
 41
0.9996458219849661
 10
26.85659565234703
 20
0.0186179527158765
 30
0.0
 41
1.0
  0
ENDSEC
  0
SECTION
  2
OBJECTS
  0
DICTIONARY
  5
C
330
0
100
AcDbDictionary
281
     1
  3
ACAD_GROUP
350
D
  3
ACAD_LAYOUT
350
1A
  3
ACAD_MLEADERSTYLE
350
108
  3
ACAD_MLINESTYLE
350
17
  3
ACAD_PLOTSETTINGS
350
19
  3
ACAD_PLOTSTYLENAME
350
E
  3
ACAD_TABLESTYLE
350
107
  3
ACAD_VISUALSTYLE
350
2A
  0
DICTIONARY
  5
D
102
{ACAD_REACTORS
330
C
102
}
330
C
100
AcDbDictionary
281
     1
  0
DICTIONARY
  5
1A
102
{ACAD_REACTORS
330
C
102
}
330
C
100
AcDbDictionary
281
     1
  3
Layout1
350
1E
  3
Layout2
350
26
  3
Model
350
22
  0
DICTIONARY
  5
108
102
{ACAD_REACTORS
330
C
102
}
330
C
100
AcDbDictionary
281
     1
  0
DICTIONARY
  5
17
102
{ACAD_REACTORS
330
C
102
}
330
C
100
AcDbDictionary
281
     1
  3
Standard
350
18
  0
DICTIONARY
  5
19
102
{ACAD_REACTORS
330
C
102
}
330
C
100
AcDbDictionary
281
     1
  0
ACDBDICTIONARYWDFLT
  5
E
102
{ACAD_REACTORS
330
C
102
}
330
C
100
AcDbDictionary
281
     1
  3
Normal
350
F
100
AcDbDictionaryWithDefault
340
F
  0
DICTIONARY
  5
107
102
{ACAD_REACTORS
330
C
102
}
330
C
100
AcDbDictionary
281
     1
  0
DICTIONARY
  5
2A
102
{ACAD_REACTORS
330
C
102
}
330
C
100
AcDbDictionary
281
     1
  3
2dWireframe
350
2F
  3
3D Hidden
350
31
  3
3dWireframe
350
30
  3
Basic
350
32
  3
Brighten
350
36
  3
ColorChange
350
3A
  3
Conceptual
350
34
  3
Dim
350
35
  3
Facepattern
350
39
  3
Flat
350
2B
  3
FlatWithEdges
350
2C
  3
Gouraud
350
2D
  3
GouraudWithEdges
350
2E
  3
Linepattern
350
38
  3
Realistic
350
33
  3
Thicken
350
37
  0
LAYOUT
  5
1E
102
{ACAD_REACTORS
330
1A
102
}
330
1A
100
AcDbPlotSettings
  1

  2
none_device
  4

  6

 40
0.0
 41
0.0
 42
0.0
 43
0.0
 44
0.0
 45
0.0
 46
0.0
 47
0.0
 48
0.0
 49
0.0
140
0.0
141
0.0
142
1.0
143
1.0
 70
   688
 72
     0
 73
     0
 74
     5
  7

 75
    16
 76
     0
 77
     2
 78
   300
147
1.0
148
0.0
149
0.0
100
AcDbLayout
  1
Layout1
 70
     1
 71
     1
 10
0.0
 20
0.0
 11
12.0
 21
9.0
 12
0.0
 22
0.0
 32
0.0
 14
1.000000000000000E+20
 24
1.000000000000000E+20
 34
1.000000000000000E+20
 15
-1.000000000000000E+20
 25
-1.000000000000000E+20
 35
-1.000000000000000E+20
146
0.0
 13
0.0
 23
0.0
 33
0.0
 16
1.0
 26
0.0
 36
0.0
 17
0.0
 27
1.0
 37
0.0
 76
     0
330
1B
  0
LAYOUT
  5
26
102
{ACAD_REACTORS
330
1A
102
}
330
1A
100
AcDbPlotSettings
  1

  2
none_device
  4

  6

 40
0.0
 41
0.0
 42
0.0
 43
0.0
 44
0.0
 45
0.0
 46
0.0
 47
0.0
 48
0.0
 49
0.0
140
0.0
141
0.0
142
1.0
143
1.0
 70
   688
 72
     0
 73
     0
 74
     5
  7

 75
    16
 76
     0
 77
     2
 78
   300
147
1.0
148
0.0
149
0.0
100
AcDbLayout
  1
Layout2
 70
     1
 71
     2
 10
0.0
 20
0.0
 11
0.0
 21
0.0
 12
0.0
 22
0.0
 32
0.0
 14
0.0
 24
0.0
 34
0.0
 15
0.0
 25
0.0
 35
0.0
146
0.0
 13
0.0
 23
0.0
 33
0.0
 16
1.0
 26
0.0
 36
0.0
 17
0.0
 27
1.0
 37
0.0
 76
     0
330
23
  0
LAYOUT
  5
22
102
{ACAD_REACTORS
330
1A
102
}
330
1A
100
AcDbPlotSettings
  1

  2
none_device
  4

  6

 40
0.0
 41
0.0
 42
0.0
 43
0.0
 44
0.0
 45
0.0
 46
0.0
 47
0.0
 48
0.0
 49
0.0
140
0.0
141
0.0
142
1.0
143
1.0
 70
  1712
 72
     0
 73
     0
 74
     0
  7

 75
     0
 76
     0
 77
     2
 78
   300
147
1.0
148
0.0
149
0.0
100
AcDbLayout
  1
Model
 70
     1
 71
     0
 10
0.0
 20
0.0
 11
12.0
 21
9.0
 12
0.0
 22
0.0
 32
0.0
 14
-10.20047520061032
 24
0.0006618064113312
 34
0.0
 15
49.64272810993995
 25
76.60872711455092
 35
0.0
146
0.0
 13
0.0
 23
0.0
 33
0.0
 16
1.0
 26
0.0
 36
0.0
 17
0.0
 27
1.0
 37
0.0
 76
     0
330
1F
331
29
  0
MLINESTYLE
  5
18
102
{ACAD_REACTORS
330
17
102
}
330
17
100
AcDbMlineStyle
  2
Standard
 70
     0
  3

 62
   256
 51
90.0
 52
90.0
 71
     2
 49
0.5
 62
   256
  6
BYLAYER
 49
-0.5
 62
   256
  6
BYLAYER
  0
ACDBPLACEHOLDER
  5
F
102
{ACAD_REACTORS
330
E
102
}
330
E
  0
VISUALSTYLE
  5
2F
102
{ACAD_REACTORS
330
2A
102
}
330
2A
100
AcDbVisualStyle
  2
2dWireframe
 70
     4
 71
     0
 72
     2
 73
     0
 90
        0
 40
-0.6
 41
-30.0
 62
     5
 63
     7
421
 16777215
 74
     1
 91
        4
 64
     7
 65
   257
 75
     1
175
     1
 42
1.0
 92
        0
 66
   257
 43
1.0
 76
     1
 77
     6
 78
     2
 67
     7
 79
     5
170
     0
171
     0
290
     0
174
     0
 93
        1
 44
0.0
173
     0
291
     0
 45
0.0
1001
ACAD
1000
AcDbSavedByObjectVersion
1070
     0
  0
VISUALSTYLE
  5
31
102
{ACAD_REACTORS
330
2A
102
}
330
2A
100
AcDbVisualStyle
  2
3D Hidden
 70
     6
 71
     1
 72
     2
 73
     2
 90
        0
 40
-0.6
 41
-30.0
 62
     5
 63
     7
421
 16777215
 74
     2
 91
        2
 64
     7
 65
   257
 75
     2
175
     1
 42
40.0
 92
        0
 66
   257
 43
1.0
 76
     1
 77
     6
 78
     2
 67
     7
 79
     3
170
     0
171
     0
290
     0
174
     0
 93
        1
 44
0.0
173
     0
291
     0
 45
0.0
1001
ACAD
1000
AcDbSavedByObjectVersion
1070
     0
  0
VISUALSTYLE
  5
30
102
{ACAD_REACTORS
330
2A
102
}
330
2A
100
AcDbVisualStyle
  2
3dWireframe
 70
     5
 71
     0
 72
     2
 73
     0
 90
        0
 40
-0.6
 41
-30.0
 62
     5
 63
     7
421
 16777215
 74
     1
 91
        4
 64
     7
 65
   257
 75
     1
175
     1
 42
1.0
 92
        0
 66
   257
 43
1.0
 76
     1
 77
     6
 78
     2
 67
     7
 79
     5
170
     0
171
     0
290
     0
174
     0
 93
        1
 44
0.0
173
     0
291
     0
 45
0.0
1001
ACAD
1000
AcDbSavedByObjectVersion
1070
     0
  0
VISUALSTYLE
  5
32
102
{ACAD_REACTORS
330
2A
102
}
330
2A
100
AcDbVisualStyle
  2
Basic
 70
     7
 71
     1
 72
     0
 73
     1
 90
        0
 40
-0.6
 41
-30.0
 62
     5
 63
     7
421
 16777215
 74
     0
 91
        4
 64
     7
 65
   257
 75
     1
175
     1
 42
1.0
 92
        8
 66
     7
 43
1.0
 76
     1
 77
     6
 78
     2
 67
     7
 79
     5
170
     0
171
     0
290
     0
174
     0
 93
        1
 44
0.0
173
     0
291
     1
 45
0.0
1001
ACAD
1000
AcDbSavedByObjectVersion
1070
     0
  0
VISUALSTYLE
  5
36
102
{ACAD_REACTORS
330
2A
102
}
330
2A
100
AcDbVisualStyle
  2
Brighten
 70
    12
 71
     2
 72
     2
 73
     0
 90
        0
 40
-0.6
 41
-30.0
 62
     5
 63
     7
421
 16777215
 74
     1
 91
        4
 64
     7
 65
   257
 75
     1
175
     1
 42
1.0
 92
        8
 66
     7
 43
1.0
 76
     1
 77
     6
 78
     2
 67
     7
 79
     5
170
     0
171
     0
290
     0
174
     0
 93
        1
 44
50.0
173
     0
291
     1
 45
0.0
1001
ACAD
1000
AcDbSavedByObjectVersion
1070
     0
  0
VISUALSTYLE
  5
3A
102
{ACAD_REACTORS
330
2A
102
}
330
2A
100
AcDbVisualStyle
  2
ColorChange
 70
    16
 71
     2
 72
     2
 73
     3
 90
        0
 40
-0.6
 41
-30.0
 62
     5
 63
     8
421
  8421504
 74
     1
 91
        4
 64
     7
 65
   257
 75
     1
175
     1
 42
1.0
 92
        8
 66
     8
424
  8421504
 43
1.0
 76
     1
 77
     6
 78
     2
 67
     7
 79
     5
170
     0
171
     0
290
     0
174
     0
 93
        1
 44
0.0
173
     0
291
     1
 45
0.0
1001
ACAD
1000
AcDbSavedByObjectVersion
1070
     0
  0
VISUALSTYLE
  5
34
102
{ACAD_REACTORS
330
2A
102
}
330
2A
100
AcDbVisualStyle
  2
Conceptual
 70
     9
 71
     3
 72
     2
 73
     0
 90
        0
 40
-0.6
 41
-30.0
 62
     5
 63
     7
421
 16777215
 74
     2
 91
        2
 64
     7
 65
   257
 75
     1
175
     1
 42
40.0
 92
        8
 66
     7
 43
1.0
 76
     1
 77
     6
 78
     2
 67
     7
 79
     3
170
     0
171
     0
290
     0
174
     0
 93
        1
 44
0.0
173
     0
291
     0
 45
0.0
1001
ACAD
1000
AcDbSavedByObjectVersion
1070
     0
  0
VISUALSTYLE
  5
35
102
{ACAD_REACTORS
330
2A
102
}
330
2A
100
AcDbVisualStyle
  2
Dim
 70
    11
 71
     2
 72
     2
 73
     0
 90
        0
 40
-0.6
 41
-30.0
 62
     5
 63
     7
421
 16777215
 74
     1
 91
        4
 64
     7
 65
   257
 75
     1
175
     1
 42
1.0
 92
        8
 66
     7
 43
1.0
 76
     1
 77
     6
 78
     2
 67
     7
 79
     5
170
     0
171
     0
290
     0
174
     0
 93
        1
 44
-50.0
173
     0
291
     1
 45
0.0
1001
ACAD
1000
AcDbSavedByObjectVersion
1070
     0
  0
VISUALSTYLE
  5
39
102
{ACAD_REACTORS
330
2A
102
}
330
2A
100
AcDbVisualStyle
  2
Facepattern
 70
    15
 71
     2
 72
     2
 73
     0
 90
        0
 40
-0.6
 41
-30.0
 62
     5
 63
     7
421
 16777215
 74
     1
 91
        4
 64
     7
 65
   257
 75
     1
175
     1
 42
1.0
 92
        8
 66
     7
 43
1.0
 76
     1
 77
     6
 78
     2
 67
     7
 79
     5
170
     0
171
     0
290
     0
174
     0
 93
        1
 44
0.0
173
     0
291
     1
 45
0.0
1001
ACAD
1000
AcDbSavedByObjectVersion
1070
     0
  0
VISUALSTYLE
  5
2B
102
{ACAD_REACTORS
330
2A
102
}
330
2A
100
AcDbVisualStyle
  2
Flat
 70
     0
 71
     2
 72
     1
 73
     1
 90
        2
 40
-0.6
 41
30.0
 62
     5
 63
     7
421
 16777215
 74
     0
 91
        4
 64
     7
 65
   257
 75
     1
175
     1
 42
1.0
 92
        8
 66
     7
 43
1.0
 76
     1
 77
     6
 78
     2
 67
     7
 79
     5
170
     0
171
     0
290
     0
174
     0
 93
       13
 44
0.0
173
     0
291
     1
 45
0.0
1001
ACAD
1000
AcDbSavedByObjectVersion
1070
     0
  0
VISUALSTYLE
  5
2C
102
{ACAD_REACTORS
330
2A
102
}
330
2A
100
AcDbVisualStyle
  2
FlatWithEdges
 70
     1
 71
     2
 72
     1
 73
     1
 90
        2
 40
-0.6
 41
30.0
 62
     5
 63
     7
421
 16777215
 74
     1
 91
        4
 64
     7
 65
   257
 75
     1
175
     1
 42
1.0
 92
        0
 66
   257
 43
1.0
 76
     1
 77
     6
 78
     2
 67
     7
 79
     5
170
     0
171
     0
290
     0
174
     0
 93
       13
 44
0.0
173
     0
291
     1
 45
0.0
1001
ACAD
1000
AcDbSavedByObjectVersion
1070
     0
  0
VISUALSTYLE
  5
2D
102
{ACAD_REACTORS
330
2A
102
}
330
2A
100
AcDbVisualStyle
  2
Gouraud
 70
     2
 71
     2
 72
     2
 73
     1
 90
        2
 40
-0.6
 41
30.0
 62
     5
 63
     7
421
 16777215
 74
     0
 91
        4
 64
     7
 65
   257
 75
     1
175
     1
 42
1.0
 92
        0
 66
     7
 43
1.0
 76
     1
 77
     6
 78
     2
 67
     7
 79
     5
170
     0
171
     0
290
     0
174
     0
 93
       13
 44
0.0
173
     0
291
     1
 45
0.0
1001
ACAD
1000
AcDbSavedByObjectVersion
1070
     0
  0
VISUALSTYLE
  5
2E
102
{ACAD_REACTORS
330
2A
102
}
330
2A
100
AcDbVisualStyle
  2
GouraudWithEdges
 70
     3
 71
     2
 72
     2
 73
     1
 90
        2
 40
-0.6
 41
30.0
 62
     5
 63
     7
421
 16777215
 74
     1
 91
        4
 64
     7
 65
   257
 75
     1
175
     1
 42
1.0
 92
        0
 66
   257
 43
1.0
 76
     1
 77
     6
 78
     2
 67
     7
 79
     5
170
     0
171
     0
290
     0
174
     0
 93
       13
 44
0.0
173
     0
291
     1
 45
0.0
1001
ACAD
1000
AcDbSavedByObjectVersion
1070
     0
  0
VISUALSTYLE
  5
38
102
{ACAD_REACTORS
330
2A
102
}
330
2A
100
AcDbVisualStyle
  2
Linepattern
 70
    14
 71
     2
 72
     2
 73
     0
 90
        0
 40
-0.6
 41
-30.0
 62
     5
 63
     7
421
 16777215
 74
     1
 91
        4
 64
     7
 65
   257
 75
     7
175
     7
 42
1.0
 92
        8
 66
     7
 43
1.0
 76
     1
 77
     6
 78
     2
 67
     7
 79
     5
170
     0
171
     0
290
     0
174
     0
 93
        1
 44
0.0
173
     0
291
     1
 45
0.0
1001
ACAD
1000
AcDbSavedByObjectVersion
1070
     0
  0
VISUALSTYLE
  5
33
102
{ACAD_REACTORS
330
2A
102
}
330
2A
100
AcDbVisualStyle
  2
Realistic
 70
     8
 71
     2
 72
     2
 73
     0
 90
        0
 40
-0.6
 41
-30.0
 62
     5
 63
     7
421
 16777215
 74
     1
 91
        0
 64
     7
 65
   257
 75
     1
175
     1
 42
1.0
 92
        8
 66
     8
424
  7895160
 43
1.0
 76
     1
 77
     6
 78
     2
 67
     7
 79
     5
170
     0
171
     0
290
     0
174
     0
 93
       13
 44
0.0
173
     0
291
     0
 45
0.0
1001
ACAD
1000
AcDbSavedByObjectVersion
1070
     0
  0
VISUALSTYLE
  5
37
102
{ACAD_REACTORS
330
2A
102
}
330
2A
100
AcDbVisualStyle
  2
Thicken
 70
    13
 71
     2
 72
     2
 73
     0
 90
        0
 40
-0.6
 41
-30.0
 62
     5
 63
     7
421
 16777215
 74
     1
 91
        4
 64
     7
 65
   257
 75
     1
175
     1
 42
1.0
 92
       12
 66
     7
 43
1.0
 76
     1
 77
     6
 78
     2
 67
     7
 79
     5
170
     0
171
     0
290
     0
174
     0
 93
        1
 44
0.0
173
     0
291
     1
 45
0.0
1001
ACAD
1000
AcDbSavedByObjectVersion
1070
     0
  0
ENDSEC
  0
EOF
