  0
SECTION
  2
HEADER
  9
$ACADVER
  1
AC1018
  9
$ACADMAINTVER
 70
     0
  9
$DWGCODEPAGE
  3
ANSI_1252
  9
$INSBASE
 10
0.0
 20
0.0
 30
0.0
  9
$EXTMIN
 10
-10.27776551203658
 20
0.0008208563719239
 30
0.0
  9
$EXTMAX
 10
48.67248146248846
 20
81.65770515434426
 30
0.0
  9
$LIMMIN
 10
0.0
 20
0.0
  9
$LIMMAX
 10
12.0
 20
9.0
  9
$ORTHOMODE
 70
     0
  9
$REGENMODE
 70
     1
  9
$FILLMODE
 70
     1
  9
$QTEXTMODE
 70
     0
  9
$MIRRTEXT
 70
     1
  9
$LTSCALE
 40
0.0393700787401575
  9
$ATTMODE
 70
     1
  9
$TEXTSIZE
 40
0.2
  9
$TRACEWID
 40
0.05
  9
$TEXTSTYLE
  7
Standard
  9
$CLAYER
  8
Default
  9
$CELTYPE
  6
ByLayer
  9
$CECOLOR
 62
   256
  9
$CELTSCALE
 40
1.0
  9
$DISPSILH
 70
     0
  9
$DIMSCALE
 40
1.0
  9
$DIMASZ
 40
0.18
  9
$DIMEXO
 40
0.0625
  9
$DIMDLI
 40
0.38
  9
$DIMRND
 40
0.0
  9
$DIMDLE
 40
0.0
  9
$DIMEXE
 40
0.18
  9
$DIMTP
 40
0.0
  9
$DIMTM
 40
0.0
  9
$DIMTXT
 40
0.18
  9
$DIMCEN
 40
0.09
  9
$DIMTSZ
 40
0.0
  9
$DIMTOL
 70
     0
  9
$DIMLIM
 70
     0
  9
$DIMTIH
 70
     1
  9
$DIMTOH
 70
     1
  9
$DIMSE1
 70
     0
  9
$DIMSE2
 70
     0
  9
$DIMTAD
 70
     0
  9
$DIMZIN
 70
     0
  9
$DIMBLK
  1

  9
$DIMASO
 70
     1
  9
$DIMSHO
 70
     1
  9
$DIMPOST
  1

  9
$DIMAPOST
  1

  9
$DIMALT
 70
     0
  9
$DIMALTD
 70
     2
  9
$DIMALTF
 40
25.4
  9
$DIMLFAC
 40
1.0
  9
$DIMTOFL
 70
     0
  9
$DIMTVP
 40
0.0
  9
$DIMTIX
 70
     0
  9
$DIMSOXD
 70
     0
  9
$DIMSAH
 70
     0
  9
$DIMBLK1
  1

  9
$DIMBLK2
  1

  9
$DIMSTYLE
  2
Standard
  9
$DIMCLRD
 70
     0
  9
$DIMCLRE
 70
     0
  9
$DIMCLRT
 70
     0
  9
$DIMTFAC
 40
1.0
  9
$DIMGAP
 40
0.09
  9
$DIMJUST
 70
     0
  9
$DIMSD1
 70
     0
  9
$DIMSD2
 70
     0
  9
$DIMTOLJ
 70
     1
  9
$DIMTZIN
 70
     0
  9
$DIMALTZ
 70
     0
  9
$DIMALTTZ
 70
     0
  9
$DIMUPT
 70
     0
  9
$DIMDEC
 70
     4
  9
$DIMTDEC
 70
     4
  9
$DIMALTU
 70
     2
  9
$DIMALTTD
 70
     2
  9
$DIMTXSTY
  7
Standard
  9
$DIMAUNIT
 70
     0
  9
$DIMADEC
 70
     0
  9
$DIMALTRND
 40
0.0
  9
$DIMAZIN
 70
     0
  9
$DIMDSEP
 70
    46
  9
$DIMATFIT
 70
     3
  9
$DIMFRAC
 70
     0
  9
$DIMLDRBLK
  1

  9
$DIMLUNIT
 70
     2
  9
$DIMLWD
 70
    -2
  9
$DIMLWE
 70
    -2
  9
$DIMTMOVE
 70
     2
  9
$LUNITS
 70
     2
  9
$LUPREC
 70
     3
  9
$SKETCHINC
 40
0.1
  9
$FILLETRAD
 40
0.5
  9
$AUNITS
 70
     0
  9
$AUPREC
 70
     0
  9
$MENU
  1
.
  9
$ELEVATION
 40
0.0
  9
$PELEVATION
 40
0.0
  9
$THICKNESS
 40
0.0
  9
$LIMCHECK
 70
     0
  9
$CHAMFERA
 40
0.5
  9
$CHAMFERB
 40
0.5
  9
$CHAMFERC
 40
1.0
  9
$CHAMFERD
 40
0.0
  9
$SKPOLY
 70
     0
  9
$TDCREATE
 40
2456462.497639908
  9
$TDUCREATE
 40
2456462.664306574
  9
$TDUPDATE
 40
2456462.497639919
  9
$TDUUPDATE
 40
2456462.664306586
  9
$TDINDWG
 40
0.0000000116
  9
$TDUSRTIMER
 40
0.0000000116
  9
$USRTIMER
 70
     1
  9
$ANGBASE
 50
0.0
  9
$ANGDIR
 70
     0
  9
$PDMODE
 70
     0
  9
$PDSIZE
 40
0.0
  9
$PLINEWID
 40
0.0
  9
$SPLFRAME
 70
     0
  9
$SPLINETYPE
 70
     6
  9
$SPLINESEGS
 70
     8
  9
$HANDSEED
  5
FA
  9
$SURFTAB1
 70
     6
  9
$SURFTAB2
 70
     6
  9
$SURFTYPE
 70
     6
  9
$SURFU
 70
     6
  9
$SURFV
 70
     6
  9
$UCSBASE
  2

  9
$UCSNAME
  2

  9
$UCSORG
 10
0.0
 20
0.0
 30
0.0
  9
$UCSXDIR
 10
1.0
 20
0.0
 30
0.0
  9
$UCSYDIR
 10
0.0
 20
1.0
 30
0.0
  9
$UCSORTHOREF
  2

  9
$UCSORTHOVIEW
 70
     0
  9
$UCSORGTOP
 10
0.0
 20
0.0
 30
0.0
  9
$UCSORGBOTTOM
 10
0.0
 20
0.0
 30
0.0
  9
$UCSORGLEFT
 10
0.0
 20
0.0
 30
0.0
  9
$UCSORGRIGHT
 10
0.0
 20
0.0
 30
0.0
  9
$UCSORGFRONT
 10
0.0
 20
0.0
 30
0.0
  9
$UCSORGBACK
 10
0.0
 20
0.0
 30
0.0
  9
$PUCSBASE
  2

  9
$PUCSNAME
  2

  9
$PUCSORG
 10
0.0
 20
0.0
 30
0.0
  9
$PUCSXDIR
 10
1.0
 20
0.0
 30
0.0
  9
$PUCSYDIR
 10
0.0
 20
1.0
 30
0.0
  9
$PUCSORTHOREF
  2

  9
$PUCSORTHOVIEW
 70
     0
  9
$PUCSORGTOP
 10
0.0
 20
0.0
 30
0.0
  9
$PUCSORGBOTTOM
 10
0.0
 20
0.0
 30
0.0
  9
$PUCSORGLEFT
 10
0.0
 20
0.0
 30
0.0
  9
$PUCSORGRIGHT
 10
0.0
 20
0.0
 30
0.0
  9
$PUCSORGFRONT
 10
0.0
 20
0.0
 30
0.0
  9
$PUCSORGBACK
 10
0.0
 20
0.0
 30
0.0
  9
$USERI1
 70
     0
  9
$USERI2
 70
     0
  9
$USERI3
 70
     0
  9
$USERI4
 70
     0
  9
$USERI5
 70
     0
  9
$USERR1
 40
0.0
  9
$USERR2
 40
0.0
  9
$USERR3
 40
0.0
  9
$USERR4
 40
0.0
  9
$USERR5
 40
0.0
  9
$WORLDVIEW
 70
     1
  9
$SHADEDGE
 70
     3
  9
$SHADEDIF
 70
    70
  9
$TILEMODE
 70
     1
  9
$MAXACTVP
 70
    64
  9
$PINSBASE
 10
0.0
 20
0.0
 30
0.0
  9
$PLIMCHECK
 70
     0
  9
$PEXTMIN
 10
1.000000000000000E+20
 20
1.000000000000000E+20
 30
1.000000000000000E+20
  9
$PEXTMAX
 10
-1.000000000000000E+20
 20
-1.000000000000000E+20
 30
-1.000000000000000E+20
  9
$PLIMMIN
 10
0.0
 20
0.0
  9
$PLIMMAX
 10
12.0
 20
9.0
  9
$UNITMODE
 70
     0
  9
$VISRETAIN
 70
     1
  9
$PLINEGEN
 70
     0
  9
$PSLTSCALE
 70
     1
  9
$TREEDEPTH
 70
  3020
  9
$CMLSTYLE
  2
Standard
  9
$CMLJUST
 70
     0
  9
$CMLSCALE
 40
1.0
  9
$PROXYGRAPHICS
 70
     1
  9
$MEASUREMENT
 70
     0
  9
$CELWEIGHT
370
    -1
  9
$ENDCAPS
280
     0
  9
$JOINSTYLE
280
     0
  9
$LWDISPLAY
290
     0
  9
$INSUNITS
 70
     1
  9
$HYPERLINKBASE
  1

  9
$STYLESHEET
  1

  9
$XEDIT
290
     1
  9
$CEPSNTYPE
380
     0
  9
$PSTYLEMODE
290
     1
  9
$FINGERPRINTGUID
  2
{A9A9CAE5-7F02-4166-B574-8D91A69029B0}
  9
$VERSIONGUID
  2
{FAEB1C32-E019-11D5-929B-00C0DF256EC4}
  9
$EXTNAMES
290
     1
  9
$PSVPSCALE
 40
0.0
  9
$OLESTARTUP
290
     0
  9
$SORTENTS
280
   127
  9
$INDEXCTL
280
     0
  9
$HIDETEXT
280
     1
  9
$XCLIPFRAME
290
     0
  9
$HALOGAP
280
     0
  9
$OBSCOLOR
 70
   257
  9
$OBSLTYPE
280
     0
  9
$INTERSECTIONDISPLAY
280
     0
  9
$INTERSECTIONCOLOR
 70
   257
  9
$DIMASSOC
280
     2
  9
$PROJECTNAME
  1

  0
ENDSEC
  0
SECTION
  2
CLASSES
  0
CLASS
  1
ACDBDICTIONARYWDFLT
  2
AcDbDictionaryWithDefault
  3
ObjectDBX Classes
 90
        0
 91
        4
280
     0
281
     0
  0
CLASS
  1
VISUALSTYLE
  2
AcDbVisualStyle
  3
ObjectDBX Classes
 90
     4095
 91
        4
280
     0
281
     0
  0
ENDSEC
  0
SECTION
  2
TABLES
  0
TABLE
  2
VPORT
  5
8
330
0
100
AcDbSymbolTable
 70
     1
  0
VPORT
  5
29
330
8
100
AcDbSymbolTableRecord
100
AcDbViewportTableRecord
  2
*Active
 70
     0
 10
0.0
 20
0.0
 11
1.0
 21
1.0
 12
19.19735797522594
 22
40.82926300535809
 13
0.0
 23
0.0
 14
0.5
 24
0.5
 15
0.5
 25
0.5
 16
0.0
 26
0.0
 36
1.0
 17
0.0
 27
0.0
 37
0.0
 40
83.29002198393178
 41
0.7219262341606251
 42
50.0
 43
0.0
 44
0.0
 50
0.0
 51
0.0
 71
     0
 72
   100
 73
     1
 74
     3
 75
     0
 76
     0
 77
     0
 78
     0
281
     0
 65
     1
110
0.0
120
0.0
130
0.0
111
1.0
121
0.0
131
0.0
112
0.0
122
1.0
132
0.0
 79
     0
146
0.0
  0
ENDTAB
  0
TABLE
  2
LTYPE
  5
5
330
0
100
AcDbSymbolTable
 70
     1
  0
LTYPE
  5
14
330
5
100
AcDbSymbolTableRecord
100
AcDbLinetypeTableRecord
  2
ByBlock
 70
     0
  3

 72
    65
 73
     0
 40
0.0
  0
LTYPE
  5
15
330
5
100
AcDbSymbolTableRecord
100
AcDbLinetypeTableRecord
  2
ByLayer
 70
     0
  3

 72
    65
 73
     0
 40
0.0
  0
LTYPE
  5
16
330
5
100
AcDbSymbolTableRecord
100
AcDbLinetypeTableRecord
  2
Continuous
 70
     0
  3
Solid line
 72
    65
 73
     0
 40
0.0
  0
ENDTAB
  0
TABLE
  2
LAYER
  5
2
330
0
100
AcDbSymbolTable
 70
     3
  0
LAYER
  5
10
330
2
100
AcDbSymbolTableRecord
100
AcDbLayerTableRecord
  2
0
 70
     0
 62
     7
  6
Continuous
370
    -3
390
F
  0
LAYER
  5
3B
330
2
100
AcDbSymbolTableRecord
100
AcDbLayerTableRecord
  2
Default
 70
     0
 62
     7
  6
Continuous
370
    -3
390
F
  0
LAYER
  5
5C
330
2
100
AcDbSymbolTableRecord
100
AcDbLayerTableRecord
  2
MAKE2D VISIBLE LINES
 70
     0
 62
     7
  6
Continuous
370
    -3
390
F
  0
ENDTAB
  0
TABLE
  2
STYLE
  5
3
330
0
100
AcDbSymbolTable
 70
     1
  0
STYLE
  5
11
330
3
100
AcDbSymbolTableRecord
100
AcDbTextStyleTableRecord
  2
Standard
 70
     0
 40
0.0
 41
1.0
 50
0.0
 71
     0
 42
0.2
  3
txt
  4

  0
ENDTAB
  0
TABLE
  2
VIEW
  5
6
330
0
100
AcDbSymbolTable
 70
     0
  0
ENDTAB
  0
TABLE
  2
UCS
  5
7
330
0
100
AcDbSymbolTable
 70
     0
  0
ENDTAB
  0
TABLE
  2
APPID
  5
9
330
0
100
AcDbSymbolTable
 70
     1
  0
APPID
  5
12
330
9
100
AcDbSymbolTableRecord
100
AcDbRegAppTableRecord
  2
ACAD
 70
     0
  0
ENDTAB
  0
TABLE
  2
DIMSTYLE
  5
A
330
0
100
AcDbSymbolTable
 70
     1
100
AcDbDimStyleTable
  0
DIMSTYLE
105
27
330
A
100
AcDbSymbolTableRecord
100
AcDbDimStyleTableRecord
  2
Standard
 70
     0
340
11
  0
ENDTAB
  0
TABLE
  2
BLOCK_RECORD
  5
1
330
0
100
AcDbSymbolTable
 70
     1
  0
BLOCK_RECORD
  5
1F
330
1
100
AcDbSymbolTableRecord
100
AcDbBlockTableRecord
  2
*Model_Space
340
22
  0
BLOCK_RECORD
  5
1B
330
1
100
AcDbSymbolTableRecord
100
AcDbBlockTableRecord
  2
*Paper_Space
340
1E
  0
BLOCK_RECORD
  5
23
330
1
100
AcDbSymbolTableRecord
100
AcDbBlockTableRecord
  2
*Paper_Space0
340
26
  0
ENDTAB
  0
ENDSEC
  0
SECTION
  2
BLOCKS
  0
BLOCK
  5
20
330
1F
100
AcDbEntity
  8
0
100
AcDbBlockBegin
  2
*Model_Space
 70
     0
 10
0.0
 20
0.0
 30
0.0
  3
*Model_Space
  1

  0
ENDBLK
  5
21
330
1F
100
AcDbEntity
  8
0
100
AcDbBlockEnd
  0
BLOCK
  5
1C
330
1B
100
AcDbEntity
 67
     1
  8
0
100
AcDbBlockBegin
  2
*Paper_Space
 70
     0
 10
0.0
 20
0.0
 30
0.0
  3
*Paper_Space
  1

  0
ENDBLK
  5
1D
330
1B
100
AcDbEntity
 67
     1
  8
0
100
AcDbBlockEnd
  0
BLOCK
  5
24
330
23
100
AcDbEntity
  8
0
100
AcDbBlockBegin
  2
*Paper_Space0
 70
     0
 10
0.0
 20
0.0
 30
0.0
  3
*Paper_Space0
  1

  0
ENDBLK
  5
25
330
23
100
AcDbEntity
  8
0
100
AcDbBlockEnd
  0
ENDSEC
  0
SECTION
  2
ENTITIES
  0
SPLINE
  5
3C
330
1F
100
AcDbEntity
  8
Default
100
AcDbSpline
210
0.0
220
0.0
230
1.0
 70
    12
 71
     2
 72
     6
 73
     3
 74
     0
 42
0.0000000001
 43
0.0000000001
 40
0.9406107727432146
 40
0.9406107727432146
 40
0.9406107727432146
 40
1.933926196484749
 40
1.933926196484749
 40
1.933926196484749
 10
33.12787511747035
 20
28.23840887376293
 30
0.0
 41
0.9904233192510364
 10
33.6091449223908
 20
28.10804573019185
 30
0.0
 41
0.9868722435211335
 10
34.10207696366821
 20
28.03327078570278
 30
0.0
 41
0.986501022142885
  0
SPLINE
  5
3D
330
1F
100
AcDbEntity
  8
Default
100
AcDbSpline
210
0.0
220
0.0
230
1.0
 70
    12
 71
     2
 72
     6
 73
     3
 74
     0
 42
0.0000000001
 43
0.0000000001
 40
0.0
 40
0.0
 40
0.0
 40
0.9406107727432146
 40
0.9406107727432146
 40
0.9406107727432146
 10
32.23836866248256
 20
28.53131972939343
 30
0.0
 41
1.0
 10
32.67531169093382
 20
28.36099622569195
 30
0.0
 41
0.9937859772814456
 10
33.12787511747035
 20
28.23840887376293
 30
0.0
 41
0.9904233192510364
  0
SPLINE
  5
3E
330
1F
100
AcDbEntity
  8
Default
100
AcDbSpline
210
0.0
220
0.0
230
1.0
 70
    12
 71
     2
 72
     6
 73
     3
 74
     0
 42
0.0000000001
 43
0.0000000001
 40
3.066933977576713
 40
3.066933977576713
 40
3.066933977576713
 40
3.577868569146716
 40
3.577868569146716
 40
3.577868569146716
 10
33.13181951284076
 20
29.27610868154919
 30
0.0
 41
0.9935665771452339
 10
32.88884699931324
 20
29.35081871332909
 30
0.0
 41
0.9962474018690345
 10
32.65126596871958
 20
29.44116502156676
 30
0.0
 41
1.0
  0
SPLINE
  5
3F
330
1F
100
AcDbEntity
  8
Default
100
AcDbSpline
210
0.0
220
0.0
230
1.0
 70
    12
 71
     2
 72
     6
 73
     3
 74
     0
 42
0.0000000001
 43
0.0000000001
 40
0.0
 40
0.0
 40
0.0
 40
0.136497131246725
 40
0.136497131246725
 40
0.136497131246725
 10
46.56642360897384
 20
29.05710742287505
 30
0.0
 41
1.0
 10
46.61332700708574
 20
29.1071585371991
 30
0.0
 41
0.9924780464036579
 10
46.64666188281763
 20
29.16710708897029
 30
0.0
 41
1.0
  0
SPLINE
  5
40
330
1F
100
AcDbEntity
  8
Default
100
AcDbSpline
210
0.0
220
0.0
230
1.0
 70
    12
 71
     2
 72
     6
 73
     3
 74
     0
 42
0.0000000001
 43
0.0000000001
 40
0.0
 40
0.0
 40
0.0
 40
0.8264390978013532
 40
0.8264390978013532
 40
0.8264390978013532
 10
46.64666188281763
 20
29.16710708897029
 30
0.0
 41
1.0
 10
46.84126015965752
 20
29.5319937985893
 30
0.0
 41
0.9986048383852346
 10
47.00208081345303
 20
29.91297610463308
 30
0.0
 41
0.9992567506520554
  0
ARC
  5
41
330
1F
100
AcDbEntity
  8
Default
100
AcDbCircle
 10
47.23240155243197
 20
29.81575287080395
 30
0.0
 40
0.25
100
AcDbArc
 50
56.90320801781194
 51
157.1143678715038
  0
LINE
  5
42
330
1F
100
AcDbEntity
  8
Default
100
AcDbLine
 10
47.36891531640472
 20
30.0251901937576
 30
0.0
 11
47.51337488541495
 21
29.93102971066248
 31
0.0
  0
ARC
  5
43
330
1F
100
AcDbEntity
  8
Default
100
AcDbCircle
 10
46.84271971600079
 20
28.93033740082448
 30
0.0
 40
1.20464245950026
100
AcDbArc
 50
25.22628804628217
 51
56.1703549918263
  0
SPLINE
  5
44
330
1F
100
AcDbEntity
  8
Default
100
AcDbSpline
210
0.0
220
0.0
230
1.0
 70
    12
 71
     2
 72
     6
 73
     3
 74
     0
 42
0.0000000001
 43
0.0000000001
 40
-1.357066206308517
 40
-1.357066206308517
 40
-1.357066206308517
 40
0.0
 40
0.0
 40
0.0
 10
47.93247735659929
 20
29.4437492627716
 30
0.0
 41
1.0
 10
47.4617174496689
 20
28.94951958193889
 30
0.0
 41
0.991190278644199
 10
46.87770979468182
 20
28.59623085256082
 30
0.0
 41
1.0
  0
SPLINE
  5
45
330
1F
100
AcDbEntity
  8
Default
100
AcDbSpline
210
0.0
220
0.0
230
1.0
 70
    12
 71
     2
 72
     6
 73
     3
 74
     0
 42
0.0000000001
 43
0.0000000001
 40
-0.2347042026955195
 40
-0.2347042026955195
 40
-0.2347042026955195
 40
0.0
 40
0.0
 40
0.0
 10
46.87770979468182
 20
28.59623085256082
 30
0.0
 41
1.0
 10
46.77533457742678
 20
28.53389583314901
 30
0.0
 41
0.9689121470040515
 10
46.65560685925225
 20
28.52827326667063
 30
0.0
 41
1.0
  0
SPLINE
  5
46
330
1F
100
AcDbEntity
  8
Default
100
AcDbSpline
210
0.0
220
0.0
230
1.0
 70
    12
 71
     2
 72
     6
 73
     3
 74
     0
 42
0.0000000001
 43
0.0000000001
 40
-0.0744622706341129
 40
-0.0744622706341129
 40
-0.0744622706341129
 40
0.0
 40
0.0
 40
0.0
 10
46.65560685925225
 20
28.52827326667063
 30
0.0
 41
1.0
 10
46.61842796634327
 20
28.52630161034637
 30
0.0
 41
0.9999999623414183
 10
46.58125016123631
 20
28.52430954758963
 30
0.0
 41
1.0
  0
SPLINE
  5
47
330
1F
100
AcDbEntity
  8
Default
100
AcDbSpline
210
0.0
220
0.0
230
1.0
 70
    12
 71
     2
 72
     6
 73
     3
 74
     0
 42
0.0000000001
 43
0.0000000001
 40
-0.3487157040704518
 40
-0.3487157040704518
 40
-0.3487157040704518
 40
-0.0287461451405254
 40
-0.0287461451405254
 40
-0.0287461451405254
 10
48.25810950408408
 20
29.18814594870883
 30
0.0
 41
1.0
 10
48.14625995710587
 20
29.30322640374642
 30
0.0
 41
0.9951609814664577
 10
47.9334038551443
 20
29.44526370616752
 30
0.0
 41
0.9992021975065695
  0
SPLINE
  5
48
330
1F
100
AcDbEntity
  8
Default
100
AcDbSpline
210
0.0
220
0.0
230
1.0
 70
     8
 71
     3
 72
    20
 73
    16
 74
     0
 42
0.0000000001
 43
0.0000000001
 40
0.0
 40
0.0
 40
0.0
 40
0.0
 40
1.0
 40
2.0
 40
3.0
 40
4.0
 40
5.0
 40
6.0
 40
7.0
 40
8.0
 40
9.0
 40
10.0
 40
11.0
 40
12.0
 40
13.0
 40
13.0
 40
13.0
 40
13.0
 10
45.4491379733942
 20
28.76423873295564
 30
0.0
 10
45.138927655435
 20
28.75765896571012
 30
0.0
 10
44.51862467919972
 20
28.73899177625342
 30
0.0
 10
43.5887776146462
 20
28.6953528600036
 30
0.0
 10
42.65978026938414
 20
28.63617738580367
 30
0.0
 10
41.7320768776726
 20
28.55936628035069
 30
0.0
 10
40.8057557805641
 20
28.4675199596982
 30
0.0
 10
39.88055153689012
 20
28.36516516758756
 30
0.0
 10
38.95608920032082
 20
28.25634448366561
 30
0.0
 10
38.03198714641292
 20
28.14459353859433
 30
0.0
 10
37.10738701019548
 20
28.03674902986969
 30
0.0
 10
36.18185636775843
 20
27.9381248160603
 30
0.0
 10
35.25238945703302
 20
27.8743823996417
 30
0.0
 10
34.32564631599622
 20
27.82564928118327
 30
0.0
 10
33.69484213778725
 20
27.90987266998371
 30
0.0
 10
33.40437988328462
 20
27.79521185786422
 30
0.0
  0
SPLINE
  5
49
330
1F
100
AcDbEntity
  8
Default
100
AcDbSpline
210
0.0
220
0.0
230
1.0
 70
    12
 71
     2
 72
     6
 73
     3
 74
     0
 42
0.0000000001
 43
0.0000000001
 40
-0.687820922641539
 40
-0.687820922641539
 40
-0.687820922641539
 40
0.0
 40
0.0
 40
0.0
 10
33.40437988328462
 20
27.79521185786422
 30
0.0
 41
1.0
 10
33.15358669418861
 20
27.55987791108323
 30
0.0
 41
0.9999690258309426
 10
32.90652893196165
 20
27.32062542451756
 30
0.0
 41
1.0
  0
SPLINE
  5
4A
330
1F
100
AcDbEntity
  8
Default
100
AcDbSpline
210
0.0
220
0.0
230
1.0
 70
    12
 71
     2
 72
     6
 73
     3
 74
     0
 42
0.0000000001
 43
0.0000000001
 40
0.0
 40
0.0
 40
0.0
 40
0.108394787279406
 40
0.108394787279406
 40
0.108394787279406
 10
31.06996408842295
 20
28.78641200987885
 30
0.0
 41
1.0
 10
31.01607145791005
 20
28.7921515163855
 30
0.0
 41
0.999999979266735
 10
30.96218116937615
 20
28.79791297108638
 30
0.0
 41
1.0
  0
SPLINE
  5
4B
330
1F
100
AcDbEntity
  8
Default
100
AcDbSpline
210
0.0
220
0.0
230
1.0
 70
    24
 71
     2
 72
     6
 73
     3
 74
     0
 42
0.0000000001
 43
0.0000000001
 40
-0.2325307321403076
 40
-0.2325307321403076
 40
-0.2325307321403076
 40
-0.0181596897530964
 40
-0.0181596897530964
 40
-0.0181596897530964
 10
31.23439236175545
 20
28.92395554236709
 30
0.0
 10
31.15217822563233
 20
28.85518377578489
 30
0.0
 10
31.0699640895092
 20
28.78641200920269
 30
0.0
  0
SPLINE
  5
4C
330
1F
100
AcDbEntity
  8
Default
100
AcDbSpline
210
0.0
220
0.0
230
1.0
 70
    12
 71
     2
 72
     6
 73
     3
 74
     0
 42
0.0000000001
 43
0.0000000001
 40
0.0
 40
0.0
 40
0.0
 40
0.0457929944082863
 40
0.0457929944082863
 40
0.0457929944082863
 10
31.0699640895092
 20
28.78641200920269
 30
0.0
 41
1.0
 10
31.06400544927686
 20
28.76202517644448
 30
0.0
 41
0.8731582744741458
 10
31.0816368235669
 20
28.74415459699505
 30
0.0
 41
1.0
  0
SPLINE
  5
4D
330
1F
100
AcDbEntity
  8
Default
100
AcDbSpline
210
0.0
220
0.0
230
1.0
 70
    12
 71
     2
 72
     6
 73
     3
 74
     0
 42
0.0000000001
 43
0.0000000001
 40
0.0
 40
0.0
 40
0.0
 40
2.137039182577097
 40
2.137039182577097
 40
2.137039182577097
 10
31.0816368235669
 20
28.74415459699505
 30
0.0
 41
1.0
 10
31.83444925247631
 20
27.98022077920857
 30
0.0
 41
0.9944000822514505
 10
32.73100854479773
 20
27.39157583832279
 30
0.0
 41
1.0
  0
SPLINE
  5
4E
330
1F
100
AcDbEntity
  8
Default
100
AcDbSpline
210
0.0
220
0.0
230
1.0
 70
    12
 71
     2
 72
     6
 73
     3
 74
     0
 42
0.0000000001
 43
0.0000000001
 40
-0.1906435954869634
 40
-0.1906435954869634
 40
-0.1906435954869634
 40
0.0
 40
0.0
 40
0.0
 10
32.73100854479773
 20
27.39157583832279
 30
0.0
 41
1.0
 10
32.81141288643388
 20
27.33790338756769
 30
0.0
 41
0.9791718629292984
 10
32.90652893196165
 20
27.32062542451756
 30
0.0
 41
1.0
  0
SPLINE
  5
4F
330
1F
100
AcDbEntity
  8
Default
100
AcDbSpline
210
0.0
220
0.0
230
1.0
 70
     8
 71
     3
 72
    14
 73
    10
 74
     0
 42
0.0000000001
 43
0.0000000001
 40
0.0
 40
0.0
 40
0.0
 40
0.0
 40
0.6990240910473118
 40
1.427452671610304
 40
2.963428520767245
 40
4.341267153930231
 40
7.279531458324128
 40
8.656584164251418
 40
12.64851224199838
 40
12.64851224199838
 40
12.64851224199838
 40
12.64851224199838
 10
32.90652893196165
 20
27.32062542451756
 30
0.0
 10
33.13568120755092
 20
27.27810581631526
 30
0.0
 10
33.60672562195722
 20
27.2095412893276
 30
0.0
 10
34.5932770663028
 20
27.14243167019052
 30
0.0
 10
35.80856642783424
 20
27.19306782795007
 30
0.0
 10
37.74254379012768
 20
27.45462426125936
 30
0.0
 10
39.60472134025905
 20
27.82391691802368
 30
0.0
 10
42.34454786051825
 20
28.22945452752908
 30
0.0
 10
44.13030969997011
 20
28.37053210768909
 30
0.0
 10
45.4576462768898
 20
28.45848955009197
 30
0.0
  0
SPLINE
  5
50
330
1F
100
AcDbEntity
  8
Default
100
AcDbSpline
210
0.0
220
0.0
230
1.0
 70
     8
 71
     3
 72
    23
 73
    19
 74
     0
 42
0.0000000001
 43
0.0000000001
 40
-17.9686236409989
 40
-17.9686236409989
 40
-17.9686236409989
 40
-17.9686236409989
 40
-17.45341459592076
 40
-17.35126446118563
 40
-17.31388856261465
 40
-17.22998332040851
 40
-17.09577373227868
 40
-15.4228300371513
 40
-10.16604820698678
 40
-8.509741002941979
 40
-6.085128693056221
 40
-5.382701377325557
 40
-3.792327664688375
 40
-2.768276421601119
 40
-1.888480730619187
 40
-0.9523693663536067
 40
-0.723128482373148
 40
0.0
 40
0.0
 40
0.0
 40
0.0
 10
31.27680350201402
 20
30.07009614447644
 30
0.0
 10
31.40821073091657
 20
30.18062061392785
 30
0.0
 10
31.56867843071589
 20
30.30978086717215
 30
0.0
 10
31.74836062648261
 20
30.43365227034289
 30
0.0
 10
31.81036631335095
 20
30.47530245714457
 30
0.0
 10
31.89182840056151
 20
30.50368552853297
 30
0.0
 10
32.52033061233979
 20
30.55312102336339
 30
0.0
 10
34.8675002848947
 20
30.74607459766336
 30
0.0
 10
37.72357640849361
 20
30.92117122545921
 30
0.0
 10
40.8354222835805
 20
31.03597431743822
 30
0.0
 10
42.42649587335914
 20
31.09392923668794
 30
0.0
 10
44.00185474755516
 20
31.14576654004498
 30
0.0
 10
45.10162169739414
 20
31.17175820108355
 30
0.0
 10
46.27460047123434
 20
31.09208081715044
 30
0.0
 10
47.16973401145415
 20
30.76862277427324
 30
0.0
 10
47.73893696681307
 20
30.37968869179233
 30
0.0
 10
48.18329077518464
 20
29.93286016647379
 30
0.0
 10
48.33553584984907
 20
29.64667574617739
 30
0.0
 10
48.51336124949526
 20
29.48068551522184
 30
0.0
  0
SPLINE
  5
51
330
1F
100
AcDbEntity
  8
Default
100
AcDbSpline
210
0.0
220
0.0
230
1.0
 70
     8
 71
     3
 72
    14
 73
    10
 74
     0
 42
0.0000000001
 43
0.0000000001
 40
-7.0
 40
-7.0
 40
-7.0
 40
-7.0
 40
-6.0
 40
-5.0
 40
-4.0
 40
-3.0
 40
-2.0
 40
-1.0
 40
0.0
 40
0.0
 40
0.0
 40
0.0
 10
48.51336124949526
 20
29.48068551522184
 30
0.0
 10
48.54084056392053
 20
29.44980070645266
 30
0.0
 10
48.60756020254317
 20
29.40663783208721
 30
0.0
 10
48.69633727704188
 20
29.3178265101154
 30
0.0
 10
48.64197946422011
 20
29.19099970382642
 30
0.0
 10
48.56767783657435
 20
29.10363488423288
 30
0.0
 10
48.45226676446769
 20
29.03324387195161
 30
0.0
 10
48.34240808913279
 20
29.10528192391813
 30
0.0
 10
48.2864074705941
 20
29.15903056156073
 30
0.0
 10
48.25810950408408
 20
29.18814594870883
 30
0.0
  0
SPLINE
  5
52
330
1F
100
AcDbEntity
  8
Default
100
AcDbSpline
210
0.0
220
0.0
230
1.0
 70
    12
 71
     2
 72
     8
 73
     5
 74
     0
 42
0.0000000001
 43
0.0000000001
 40
-1.131082174975068
 40
-1.131082174975068
 40
-1.131082174975068
 40
-0.5311319982797426
 40
-0.5311319982797426
 40
0.0
 40
0.0
 40
0.0
 10
48.25810950408408
 20
29.18814594870883
 30
0.0
 41
1.0
 10
48.04883417858989
 20
29.40346644250308
 30
0.0
 41
0.9985522946097442
 10
47.82733144073114
 20
29.7328293687893
 30
0.0
 41
1.0
 10
47.65848055732847
 20
29.93986404284929
 30
0.0
 41
0.9910793595359968
 10
47.44093583091541
 20
30.09493908629232
 30
0.0
 41
1.0
  0
SPLINE
  5
53
330
1F
100
AcDbEntity
  8
Default
100
AcDbSpline
210
0.0
220
0.0
230
1.0
 70
     8
 71
     3
 72
    17
 73
    13
 74
     0
 42
0.0000000001
 43
0.0000000001
 40
-15.65411752985806
 40
-15.65411752985806
 40
-15.65411752985806
 40
-15.65411752985806
 40
-15.02730075433966
 40
-14.43451220324734
 40
-13.71768333908225
 40
-12.76915707112372
 40
-11.57409979907015
 40
-10.91174483143177
 40
-8.853644510865058
 40
-5.160327740573998
 40
-2.520433580507965
 40
0.0
 40
0.0
 40
0.0
 40
0.0
 10
47.44093583091541
 20
30.09493908629232
 30
0.0
 10
47.27609097570127
 20
30.22316934777107
 30
0.0
 10
46.934188327882
 20
30.44752322756038
 30
0.0
 10
46.32264376183868
 20
30.667644042848
 30
0.0
 10
45.57516506179547
 20
30.77386872339898
 30
0.0
 10
44.62125908223116
 20
30.79406885803842
 30
0.0
 10
43.68618401742802
 20
30.77611703470608
 30
0.0
 10
42.38154334548783
 20
30.73677388968224
 30
0.0
 10
40.24471699885835
 20
30.67081052955062
 30
0.0
 10
37.4490799579701
 20
30.574837962244
 30
0.0
 10
34.50307236871507
 20
30.39520519602941
 30
0.0
 10
32.78947377007452
 20
30.24373878116621
 30
0.0
 10
31.95383148370249
 20
30.15685549225428
 30
0.0
  0
SPLINE
  5
54
330
1F
100
AcDbEntity
  8
Default
100
AcDbSpline
210
0.0
220
0.0
230
1.0
 70
    12
 71
     2
 72
     6
 73
     3
 74
     0
 42
0.0000000001
 43
0.0000000001
 40
-0.1603149038788934
 40
-0.1603149038788934
 40
-0.1603149038788934
 40
0.0
 40
0.0
 40
0.0
 10
31.95383148370249
 20
30.15685549225428
 30
0.0
 41
1.0
 10
31.87264475632357
 20
30.15224566623742
 30
0.0
 41
0.978738299541518
 10
31.8001401610055
 20
30.11542693654496
 30
0.0
 41
1.0
  0
SPLINE
  5
55
330
1F
100
AcDbEntity
  8
Default
100
AcDbSpline
210
0.0
220
0.0
230
1.0
 70
    12
 71
     2
 72
     6
 73
     3
 74
     0
 42
0.0000000001
 43
0.0000000001
 40
-0.4001929047078155
 40
-0.4001929047078155
 40
-0.4001929047078155
 40
0.0
 40
0.0
 40
0.0
 10
31.8001401610055
 20
30.11542693654496
 30
0.0
 41
1.0
 10
31.62693990728224
 20
30.01483938581258
 30
0.0
 41
0.998549274239925
 10
31.46556066479522
 20
29.89621003300961
 30
0.0
 41
1.0
  0
SPLINE
  5
56
330
1F
100
AcDbEntity
  8
Default
100
AcDbSpline
210
0.0
220
0.0
230
1.0
 70
     8
 71
     3
 72
    24
 73
    20
 74
     0
 42
0.0000000001
 43
0.0000000001
 40
0.0
 40
0.0
 40
0.0
 40
0.0
 40
1.0
 40
2.0
 40
3.0
 40
4.0
 40
5.0
 40
6.0
 40
7.0
 40
8.0
 40
9.0
 40
10.0
 40
11.0
 40
12.0
 40
13.0
 40
14.0
 40
15.0
 40
16.0
 40
16.13599113825579
 40
16.13599113825579
 40
16.13599113825579
 40
16.13599113825579
 10
33.10510388522367
 20
28.25654403402447
 30
0.0
 10
33.15334950756574
 20
28.21771583605303
 30
0.0
 10
33.25250215358226
 20
28.14298537688737
 30
0.0
 10
33.41067826683945
 20
28.04575613752844
 30
0.0
 10
33.57636581163818
 20
27.9586985185237
 30
0.0
 10
33.76049235001827
 20
27.9225046206272
 30
0.0
 10
33.94231293666098
 20
27.90757943404347
 30
0.0
 10
34.14327448175828
 20
27.9818396692594
 30
0.0
 10
34.05955751549347
 20
28.19347516254636
 30
0.0
 10
33.95461659057158
 20
28.33505221062675
 30
0.0
 10
33.8342644304368
 20
28.48018018443914
 30
0.0
 10
33.70921667762696
 20
28.61679225007528
 30
0.0
 10
33.58490747473606
 20
28.75522784776603
 30
0.0
 10
33.46159783390472
 20
28.89424710220974
 30
0.0
 10
33.33922441883271
 20
29.0341732780298
 30
0.0
 10
33.21781414693675
 20
29.17491418544148
 30
0.0
 10
33.09735635309492
 20
29.31647682687508
 30
0.0
 10
33.01231965408041
 20
29.41788387030632
 30
0.0
 10
32.96731627282279
 20
29.47200034463777
 30
0.0
 10
32.96193203621192
 20
29.47848135106171
 30
0.0
  0
ARC
  5
57
330
1F
100
AcDbEntity
  8
Default
100
AcDbCircle
 10
33.15422939774191
 20
29.63823655363304
 30
0.0
 40
0.25
100
AcDbArc
 50
92.60936929485611
 51
219.7188424820523
  0
SPLINE
  5
58
330
1F
100
AcDbEntity
  8
Default
100
AcDbSpline
210
0.0
220
0.0
230
1.0
 70
     8
 71
     3
 72
    12
 73
     8
 74
     0
 42
0.0000000001
 43
0.0000000001
 40
0.1004929713206162
 40
0.1004929713206162
 40
0.1004929713206162
 40
0.1004929713206162
 40
3.645618499081671
 40
6.068168658872678
 40
9.511558966442593
 40
11.17798759891832
 40
12.53266205303574
 40
12.53266205303574
 40
12.53266205303574
 40
12.53266205303574
 10
33.14284781168485
 20
29.88797733824545
 30
0.0
 10
34.32330105438899
 20
29.94177483947833
 30
0.0
 10
36.30614486140954
 20
30.10859035605962
 30
0.0
 10
39.43596001176024
 20
30.31708131364154
 30
0.0
 10
41.94319174322551
 20
30.45626872495736
 30
0.0
 10
44.09394248349579
 20
30.58291909811207
 30
0.0
 10
45.10030291798731
 20
30.63334556874323
 30
0.0
 10
45.55178673269194
 20
30.6251523318563
 30
0.0
  0
SPLINE
  5
59
330
1F
100
AcDbEntity
  8
Default
100
AcDbSpline
210
0.0
220
0.0
230
1.0
 70
     8
 71
     3
 72
     9
 73
     5
 74
     0
 42
0.0000000001
 43
0.0000000001
 40
-2.0
 40
-2.0
 40
-2.0
 40
-2.0
 40
-1.0
 40
0.0
 40
0.0
 40
0.0
 40
0.0
 10
45.55178673269194
 20
30.6251523318563
 30
0.0
 10
45.63127315618598
 20
30.62370986354233
 30
0.0
 10
45.84000438644719
 20
30.56696271471129
 30
0.0
 10
45.80593301563842
 20
30.3640634593478
 30
0.0
 10
45.77008279585559
 20
30.29105863453587
 30
0.0
  0
SPLINE
  5
5A
330
1F
100
AcDbEntity
  8
Default
100
AcDbSpline
210
0.0
220
0.0
230
1.0
 70
    12
 71
     2
 72
     6
 73
     3
 74
     0
 42
0.0000000001
 43
0.0000000001
 40
-0.9475314943368975
 40
-0.9475314943368975
 40
-0.9475314943368975
 40
0.0
 40
0.0
 40
0.0
 10
-8.386264729137539
 20
31.0732780562236
 30
0.0
 41
0.9902355479892807
 10
-8.104177802642242
 20
31.46349860233617
 30
0.0
 41
0.9732563717985023
 10
-7.687371015909704
 20
31.7049411869421
 30
0.0
 41
1.0
  0
SPLINE
  5
5B
330
1F
100
AcDbEntity
  8
Default
100
AcDbSpline
210
0.0
220
0.0
230
1.0
 70
    12
 71
     2
 72
     6
 73
     3
 74
     0
 42
0.0000000001
 43
0.0000000001
 40
0.0
 40
0.0
 40
0.0
 40
0.9474983709173302
 40
0.9474983709173302
 40
0.9474983709173302
 10
7.687213922636616
 20
31.7049411869421
 30
0.0
 41
1.0
 10
8.10400573844465
 20
31.46350727450473
 30
0.0
 41
0.9732573066913507
 10
8.386088251664908
 20
31.07330487063984
 30
0.0
 41
0.9902343609404775
  0
SPLINE
  5
5D
330
1F
100
AcDbEntity
  8
MAKE2D VISIBLE LINES
100
AcDbSpline
210
0.0
220
0.0
230
1.0
 70
    12
 71
     2
 72
     6
 73
     3
 74
     0
 42
0.0000000001
 43
0.0000000001
 40
0.0492876416503465
 40
0.0492876416503465
 40
0.0492876416503465
 40
0.2284141118063499
 40
0.2284141118063499
 40
0.2284141118063499
 10
-8.870643432150617
 20
30.34137223443755
 30
0.0
 41
0.9999996728009964
 10
-8.95968424749672
 20
30.35103211401715
 30
0.0
 41
0.9999992418295208
 10
-9.048703783323134
 20
30.36088616456708
 30
0.0
 41
1.0
  0
SPLINE
  5
5E
330
1F
100
AcDbEntity
  8
MAKE2D VISIBLE LINES
100
AcDbSpline
210
0.0
220
0.0
230
1.0
 70
    12
 71
     2
 72
     6
 73
     3
 74
     0
 42
0.0000000001
 43
0.0000000001
 40
-0.5984781851982669
 40
-0.5984781851982669
 40
-0.5984781851982669
 40
0.0
 40
0.0
 40
0.0
 10
-8.615759844503213
 20
29.87313902484057
 30
0.0
 41
0.9999242938068935
 10
-8.138306426631255
 20
29.34577398166772
 30
0.0
 41
0.9998695971013242
 10
-7.946075845531958
 20
29.11641874341448
 30
0.0
 41
1.0
  0
SPLINE
  5
5F
330
1F
100
AcDbEntity
  8
MAKE2D VISIBLE LINES
100
AcDbSpline
210
0.0
220
0.0
230
1.0
 70
    12
 71
     2
 72
     6
 73
     3
 74
     0
 42
0.0000000001
 43
0.0000000001
 40
-0.8432572339889038
 40
-0.8432572339889038
 40
-0.8432572339889038
 40
-0.6973292034645072
 40
-0.6973292034645072
 40
-0.6973292034645072
 10
-9.053960261719457
 20
30.35429893779751
 30
0.0
 41
1.0
 10
-8.909134198484173
 20
30.19603143900866
 30
0.0
 41
0.9999682036227067
 10
-8.781248405459108
 20
30.05546268059368
 30
0.0
 41
0.999947412150036
  0
SPLINE
  5
60
330
1F
100
AcDbEntity
  8
MAKE2D VISIBLE LINES
100
AcDbSpline
210
0.0
220
0.0
230
1.0
 70
    12
 71
     2
 72
     6
 73
     3
 74
     0
 42
0.0000000001
 43
0.0000000001
 40
-0.5988507874578265
 40
-0.5988507874578265
 40
-0.5988507874578265
 40
0.0
 40
0.0
 40
0.0
 10
8.61635443108553
 20
29.87379576121551
 30
0.0
 41
0.9999243619851025
 10
8.138426121714316
 20
29.34591679294226
 30
0.0
 41
0.9998695159147147
 10
7.946075845531958
 20
29.11641874341448
 30
0.0
 41
1.0
  0
SPLINE
  5
61
330
1F
100
AcDbEntity
  8
MAKE2D VISIBLE LINES
100
AcDbSpline
210
0.0
220
0.0
230
1.0
 70
    12
 71
     2
 72
     6
 73
     3
 74
     0
 42
0.0000000001
 43
0.0000000001
 40
-0.8432572339889038
 40
-0.8432572339889038
 40
-0.8432572339889038
 40
-0.6968970133550328
 40
-0.6968970133550328
 40
-0.6968970133550328
 10
9.053960261719457
 20
30.35429893779751
 30
0.0
 41
1.0
 10
8.90870525835479
 20
30.19556268856492
 30
0.0
 41
0.9999681094524521
 10
8.78049102823496
 20
30.05463018303981
 30
0.0
 41
0.9999472890917631
  0
ARC
  5
62
330
1F
100
AcDbEntity
  8
Default
100
AcDbCircle
 10
17.31731708670971
 20
-11.73515555956605
 30
0.0
 40
41.66759639119658
100
AcDbArc
 50
102.9925821655294
 51
105.5166533740711
  0
ARC
  5
63
330
1F
100
AcDbEntity
  8
Default
100
AcDbCircle
 10
-17.3174741799828
 20
-11.73515555956605
 30
0.0
 40
41.66759639119658
100
AcDbArc
 50
74.48390920822818
 51
77.00741783447066
  0
SPLINE
  5
64
330
1F
100
AcDbEntity
  8
MAKE2D VISIBLE LINES
100
AcDbSpline
210
0.0
220
0.0
230
1.0
 70
    12
 71
     2
 72
     6
 73
     3
 74
     0
 42
0.0000000001
 43
0.0000000001
 40
0.04898072363206
 40
0.04898072363206
 40
0.04898072363206
 40
0.2284141118063499
 40
0.2284141118063499
 40
0.2284141118063499
 10
8.870338304446035
 20
30.34133913225277
 30
0.0
 41
0.9999996742813537
 10
8.959531719954303
 20
30.35101522992425
 30
0.0
 41
0.99999924053046
 10
9.048703783323134
 20
30.36088616456708
 30
0.0
 41
1.0
  0
SPLINE
  5
65
330
1F
100
AcDbEntity
  8
MAKE2D VISIBLE LINES
100
AcDbSpline
210
0.0
220
0.0
230
1.0
 70
    12
 71
     2
 72
     6
 73
     3
 74
     0
 42
0.0000000001
 43
0.0000000001
 40
14.70377804984611
 40
14.70377804984611
 40
14.70377804984611
 40
15.91655746647908
 40
15.91655746647908
 40
15.91655746647908
 10
-6.739678821302566
 20
29.00947496624264
 30
0.0
 41
0.999359204382214
 10
-7.343376307402333
 20
29.05843355122478
 30
0.0
 41
0.9996531755226383
 10
-7.946298823639214
 20
29.11615735204576
 30
0.0
 41
1.0
  0
SPLINE
  5
66
330
1F
100
AcDbEntity
  8
MAKE2D VISIBLE LINES
100
AcDbSpline
210
0.0
220
0.0
230
1.0
 70
    12
 71
     2
 72
     6
 73
     3
 74
     0
 42
0.0000000001
 43
0.0000000001
 40
14.2889781771938
 40
14.2889781771938
 40
14.2889781771938
 40
14.70377804984611
 40
14.70377804984611
 40
14.70377804984611
 10
-6.326476798228261
 20
28.97699873446961
 30
0.0
 41
0.9991642967234425
 10
-6.533118170211475
 20
28.99272333579317
 30
0.0
 41
0.9992586591470797
 10
-6.739678821302566
 20
29.00947496624264
 30
0.0
 41
0.999359204382214
  0
SPLINE
  5
67
330
1F
100
AcDbEntity
  8
MAKE2D VISIBLE LINES
100
AcDbSpline
210
0.0
220
0.0
230
1.0
 70
    12
 71
     2
 72
     6
 73
     3
 74
     0
 42
0.0000000001
 43
0.0000000001
 40
14.03357597250092
 40
14.03357597250092
 40
14.03357597250092
 40
14.2889781771938
 40
14.2889781771938
 40
14.2889781771938
 10
-6.07194084662248
 20
28.95802135561415
 30
0.0
 41
0.9990504383226301
 10
-6.19922334617818
 20
28.96731524378557
 30
0.0
 41
0.9991061955218125
 10
-6.326476798228261
 20
28.97699873446961
 30
0.0
 41
0.9991642967234425
  0
SPLINE
  5
68
330
1F
100
AcDbEntity
  8
MAKE2D VISIBLE LINES
100
AcDbSpline
210
0.0
220
0.0
230
1.0
 70
    12
 71
     2
 72
     6
 73
     3
 74
     0
 42
0.0000000001
 43
0.0000000001
 40
1.627870974772045
 40
1.627870974772045
 40
1.627870974772045
 40
1.883266894549422
 40
1.883266894549422
 40
1.883266894549422
 10
6.325989109527267
 20
28.97696738240582
 30
0.0
 41
0.9991641640159987
 10
6.198738724552569
 20
28.96728475940368
 30
0.0
 41
0.9991060669210514
 10
6.071459295410483
 20
28.95799171998294
 30
0.0
 41
0.9990503137131911
  0
SPLINE
  5
69
330
1F
100
AcDbEntity
  8
MAKE2D VISIBLE LINES
100
AcDbSpline
210
0.0
220
0.0
230
1.0
 70
    12
 71
     2
 72
     6
 73
     3
 74
     0
 42
0.0000000001
 43
0.0000000001
 40
1.213057684903139
 40
1.213057684903139
 40
1.213057684903139
 40
1.627870974772045
 40
1.627870974772045
 40
1.627870974772045
 10
6.739204711790802
 20
29.00944265452341
 30
0.0
 41
0.9993590694835633
 10
6.532637271223352
 20
28.99269147034621
 30
0.0
 41
0.9992585251440385
 10
6.325989109527267
 20
28.97696738240582
 30
0.0
 41
0.9991641640159987
  0
SPLINE
  5
6A
330
1F
100
AcDbEntity
  8
MAKE2D VISIBLE LINES
100
AcDbSpline
210
0.0
220
0.0
230
1.0
 70
    12
 71
     2
 72
     6
 73
     3
 74
     0
 42
0.0000000001
 43
0.0000000001
 40
0.0
 40
0.0
 40
0.0
 40
1.213057684903139
 40
1.213057684903139
 40
1.213057684903139
 10
7.946101984281036
 20
29.11614575128429
 30
0.0
 41
1.0
 10
7.343040997147646
 20
29.05840958174638
 30
0.0
 41
0.9996530959448965
 10
6.739204711790802
 20
29.00944265452341
 30
0.0
 41
0.9993590694835633
  0
SPLINE
  5
6B
330
1F
100
AcDbEntity
  8
Default
100
AcDbSpline
210
0.0
220
0.0
230
1.0
 70
    12
 71
     2
 72
     6
 73
     3
 74
     0
 42
0.0000000001
 43
0.0000000001
 40
0.0
 40
0.0
 40
0.0
 40
0.8358662744886645
 40
0.8358662744886645
 40
0.8358662744886645
 10
-6.747685820513468
 20
29.01808615733111
 30
0.0
 41
1.0
 10
-6.463135301681262
 20
28.71194987345137
 30
0.0
 41
0.9999127732357861
 10
-6.170589994599269
 20
28.41344415239211
 30
0.0
 41
0.9999999999991276
  0
SPLINE
  5
6C
330
1F
100
AcDbEntity
  8
Default
100
AcDbSpline
210
0.0
220
0.0
230
1.0
 70
    12
 71
     2
 72
     6
 73
     3
 74
     0
 42
0.0000000001
 43
0.0000000001
 40
0.0
 40
0.0
 40
0.0
 40
0.9933248670959279
 40
0.9933248670959279
 40
0.9933248670959279
 10
-6.170589994599268
 20
28.41344415239211
 30
0.0
 41
0.9999999899372237
 10
-5.82058351746802
 20
28.04627127648896
 30
0.0
 41
0.968932994225803
 10
-5.336662217457345
 20
27.89154155947811
 30
0.0
 41
1.0
  0
SPLINE
  5
6D
330
1F
100
AcDbEntity
  8
Default
100
AcDbSpline
210
0.0
220
0.0
230
1.0
 70
    12
 71
     2
 72
     6
 73
     3
 74
     0
 42
0.0000000001
 43
0.0000000001
 40
0.0
 40
0.0
 40
0.0
 40
5.401120923603427
 40
5.401120923603427
 40
5.401120923603427
 10
-5.336662217457345
 20
27.89154155947811
 30
0.0
 41
1.0
 10
-2.718095778288268
 20
27.16053443034273
 30
0.0
 41
0.9904585897569746
 10
-0.0002220268240478
 20
27.17214086479313
 30
0.0
 41
1.0
  0
SPLINE
  5
6E
330
1F
100
AcDbEntity
  8
Default
100
AcDbSpline
210
0.0
220
0.0
230
1.0
 70
    12
 71
     2
 72
     6
 73
     3
 74
     0
 42
0.0000000001
 43
0.0000000001
 40
-5.401120923603427
 40
-5.401120923603427
 40
-5.401120923603427
 40
0.0
 40
0.0
 40
0.0
 10
-0.0002220268240478
 20
27.17214086479313
 30
0.0
 41
1.0
 10
2.717651724640185
 20
27.16053443034273
 30
0.0
 41
0.9904585897569746
 10
5.336218163809249
 20
27.89154155947811
 30
0.0
 41
1.0
  0
SPLINE
  5
6F
330
1F
100
AcDbEntity
  8
Default
100
AcDbSpline
210
0.0
220
0.0
230
1.0
 70
    12
 71
     2
 72
     6
 73
     3
 74
     0
 42
0.0000000001
 43
0.0000000001
 40
-0.9933248670959279
 40
-0.9933248670959279
 40
-0.9933248670959279
 40
0.0
 40
0.0
 40
0.0
 10
5.336218163809249
 20
27.89154155947811
 30
0.0
 41
1.0
 10
5.820139463819936
 20
28.04627127648896
 30
0.0
 41
0.968932994225803
 10
6.170145940951165
 20
28.41344415239211
 30
0.0
 41
0.9999999899372237
  0
SPLINE
  5
70
330
1F
100
AcDbEntity
  8
Default
100
AcDbSpline
210
0.0
220
0.0
230
1.0
 70
    12
 71
     2
 72
     6
 73
     3
 74
     0
 42
0.0000000001
 43
0.0000000001
 40
-0.8358662744886645
 40
-0.8358662744886645
 40
-0.8358662744886645
 40
0.0
 40
0.0
 40
0.0
 10
6.170145940951181
 20
28.41344415239211
 30
0.0
 41
0.9999999999991276
 10
6.462691248033154
 20
28.71194987345137
 30
0.0
 41
0.9999127732357861
 10
6.747241766865372
 20
29.01808615733111
 30
0.0
 41
1.0
  0
LINE
  5
71
330
1F
100
AcDbEntity
  8
Default
100
AcDbLine
 10
6.338428897022496
 20
28.98590544905642
 30
0.0
 11
6.224833455247335
 21
28.90428639968114
 31
0.0
  0
ARC
  5
72
330
1F
100
AcDbEntity
  8
Default
100
AcDbCircle
 10
5.978695115162381
 20
29.25873103188884
 30
0.0
 40
0.4315264531412024
100
AcDbArc
 50
262.2924095126972
 51
304.7774206992515
  0
ARC
  5
73
330
1F
100
AcDbEntity
  8
Default
100
AcDbCircle
 10
8.029041080014068
 20
26.48112846815121
 30
0.0
 40
3.157052107850949
100
AcDbArc
 50
121.4061072758457
 51
131.8960750393577
  0
LINE
  5
74
330
1F
100
AcDbEntity
  8
Default
100
AcDbLine
 10
6.383899298827032
 20
29.17565746808402
 30
0.0
 11
6.856623838813178
 21
29.4791418886518
 31
0.0
  0
LINE
  5
75
330
1F
100
AcDbEntity
  8
Default
100
AcDbLine
 10
-6.338872950670591
 20
28.98590544905642
 30
0.0
 11
-6.225277508895431
 21
28.90428639968114
 31
0.0
  0
ARC
  5
76
330
1F
100
AcDbEntity
  8
Default
100
AcDbCircle
 10
-5.979139168810477
 20
29.25873103188884
 30
0.0
 40
0.4315264531412024
100
AcDbArc
 50
235.2225793007484
 51
277.7075904873028
  0
ARC
  5
77
330
1F
100
AcDbEntity
  8
Default
100
AcDbCircle
 10
-8.029485133662163
 20
26.48112846815121
 30
0.0
 40
3.157052107850949
100
AcDbArc
 50
48.10392496064229
 51
58.59389272415433
  0
LINE
  5
78
330
1F
100
AcDbEntity
  8
Default
100
AcDbLine
 10
-6.384343352475128
 20
29.17565746808402
 30
0.0
 11
-6.857067892461274
 21
29.4791418886518
 31
0.0
  0
SPLINE
  5
79
330
1F
100
AcDbEntity
  8
Default
100
AcDbSpline
210
0.0
220
0.0
230
1.0
 70
     8
 71
     3
 72
    11
 73
     7
 74
     0
 42
0.0000000001
 43
0.0000000001
 40
0.0
 40
0.0
 40
0.0
 40
0.0
 40
1.214188025933714
 40
2.439691263724169
 40
4.761297182648494
 40
8.828385860723529
 40
8.828385860723529
 40
8.828385860723529
 40
8.828385860723529
 10
-0.0001487023370856
 20
30.22305856585053
 30
0.0
 10
-0.4046487871465274
 20
30.22422132281254
 30
0.0
 10
-1.218625022432704
 20
30.22950470392242
 30
0.0
 10
-2.803483353864948
 20
30.29401616595148
 30
0.0
 10
-5.338860940662713
 20
30.4599214307488
 30
0.0
 10
-7.436673414099019
 20
30.85323305703971
 30
0.0
 10
-8.757320147485686
 20
31.15712686266827
 30
0.0
  0
SPLINE
  5
7A
330
1F
100
AcDbEntity
  8
Default
100
AcDbSpline
210
0.0
220
0.0
230
1.0
 70
     8
 71
     3
 72
    22
 73
    18
 74
     0
 42
0.0000000001
 43
0.0000000001
 40
0.0
 40
0.0
 40
0.0
 40
0.0
 40
0.0935397529848038
 40
0.191976763197454
 40
0.4452020639371633
 40
0.5048266649697931
 40
0.8680746548169804
 40
1.12150162456058
 40
1.258995085087951
 40
1.563620246163732
 40
1.911576306404881
 40
2.16113677711151
 40
2.914244478031624
 40
3.915317125896441
 40
5.747699567943772
 40
7.792372056652619
 40
10.22417760634461
 40
10.22417760634461
 40
10.22417760634461
 40
10.22417760634461
 10
-8.757320147485686
 20
31.15712686266827
 30
0.0
 10
-8.786851964844388
 20
31.16561936836801
 30
0.0
 10
-8.855345058125422
 20
31.1646527499477
 30
0.0
 10
-8.975564011825028
 20
31.07075802621688
 30
0.0
 10
-9.018920794227128
 20
30.92775216418615
 30
0.0
 10
-8.965607128364056
 20
30.70763266651862
 30
0.0
 10
-8.90267017033922
 20
30.49214184980822
 30
0.0
 10
-8.850338253595552
 20
30.24550515842452
 30
0.0
 10
-8.783585397630233
 20
30.0219856199724
 30
0.0
 10
-8.59002561565562
 20
29.82610064072944
 30
0.0
 10
-8.306204761731507
 20
29.72111901126654
 30
0.0
 10
-7.860038847003423
 20
29.64883742314351
 30
0.0
 10
-7.204212243564186
 20
29.53001852814967
 30
0.0
 10
-6.021317584659911
 20
29.34945227670477
 30
0.0
 10
-4.40413152713397
 20
29.17866562031089
 30
0.0
 10
-2.303194149572448
 20
29.06919306722271
 30
0.0
 10
-0.8106905507271733
 20
29.06492284061943
 30
0.0
 10
-0.0001487023370856
 20
29.06538400088111
 30
0.0
  0
SPLINE
  5
7B
330
1F
100
AcDbEntity
  8
Default
100
AcDbSpline
210
0.0
220
0.0
230
1.0
 70
     8
 71
     3
 72
    22
 73
    18
 74
     0
 42
0.0000000001
 43
0.0000000001
 40
-10.22417760634461
 40
-10.22417760634461
 40
-10.22417760634461
 40
-10.22417760634461
 40
-7.792372056652619
 40
-5.747699567943772
 40
-3.915317125896441
 40
-2.914244478031624
 40
-2.16113677711151
 40
-1.911576306404881
 40
-1.563620246163732
 40
-1.258995085087951
 40
-1.12150162456058
 40
-0.8680746548169804
 40
-0.5048266649697931
 40
-0.4452020639371633
 40
-0.191976763197454
 40
-0.0935397529848038
 40
0.0
 40
0.0
 40
0.0
 40
0.0
 10
-0.0001487023370856
 20
29.06538400088111
 30
0.0
 10
0.8103931460530021
 20
29.06492284061943
 30
0.0
 10
2.302896744898277
 20
29.06919306722271
 30
0.0
 10
4.403834122459799
 20
29.17866562031089
 30
0.0
 10
6.02102017998574
 20
29.34945227670477
 30
0.0
 10
7.203914838890029
 20
29.53001852814967
 30
0.0
 10
7.859741442329252
 20
29.64883742314351
 30
0.0
 10
8.30590735705735
 20
29.72111901126654
 30
0.0
 10
8.589728210981434
 20
29.82610064072944
 30
0.0
 10
8.783287992956048
 20
30.0219856199724
 30
0.0
 10
8.850040848921395
 20
30.24550515842452
 30
0.0
 10
8.90237276566505
 20
30.49214184980822
 30
0.0
 10
8.96530972368987
 20
30.70763266651862
 30
0.0
 10
9.018623389552943
 20
30.92775216418615
 30
0.0
 10
8.975266607150857
 20
31.07075802621688
 30
0.0
 10
8.855047653451251
 20
31.1646527499477
 30
0.0
 10
8.786554560170217
 20
31.16561936836801
 30
0.0
 10
8.757022742811515
 20
31.15712686266827
 30
0.0
  0
SPLINE
  5
7C
330
1F
100
AcDbEntity
  8
Default
100
AcDbSpline
210
0.0
220
0.0
230
1.0
 70
     8
 71
     3
 72
    11
 73
     7
 74
     0
 42
0.0000000001
 43
0.0000000001
 40
-8.828385860723529
 40
-8.828385860723529
 40
-8.828385860723529
 40
-8.828385860723529
 40
-4.761297182648503
 40
-2.439691263724185
 40
-1.214188025933733
 40
0.0
 40
0.0
 40
0.0
 40
0.0
 10
8.757022742811515
 20
31.15712686266827
 30
0.0
 10
7.436376009424848
 20
30.85323305703971
 30
0.0
 10
5.338563535988541
 20
30.4599214307488
 30
0.0
 10
2.803185949190777
 20
30.29401616595148
 30
0.0
 10
1.218327617758533
 20
30.22950470392241
 30
0.0
 10
0.4043513824723419
 20
30.22422132281254
 30
0.0
 10
-0.0001487023370856
 20
30.22305856585053
 30
0.0
  0
ARC
  5
7D
330
1F
100
AcDbEntity
  8
MAKE2D VISIBLE LINES
100
AcDbCircle
 10
8.57531030743545
 20
61.52752828144317
 30
0.0
 40
0.547359301417254
100
AcDbArc
 50
359.6410309783683
 51
32.66175803391993
  0
ARC
  5
7E
330
1F
100
AcDbEntity
  8
MAKE2D VISIBLE LINES
100
AcDbCircle
 10
8.542770241873717
 20
61.52426079981644
 30
0.0
 40
0.5798886469446155
100
AcDbArc
 50
323.8111986920254
 51
359.9840127224279
  0
ARC
  5
7F
330
1F
100
AcDbEntity
  8
MAKE2D VISIBLE LINES
100
AcDbCircle
 10
-8.507687653015799
 20
61.52752828144317
 30
0.0
 40
0.547359301417254
100
AcDbArc
 50
147.3382419660801
 51
180.3589690216317
  0
ARC
  5
80
330
1F
100
AcDbEntity
  8
MAKE2D VISIBLE LINES
100
AcDbCircle
 10
-8.475147587454066
 20
61.52426079981644
 30
0.0
 40
0.5798886469446155
100
AcDbArc
 50
180.0159872775721
 51
216.1888013079746
  0
LINE
  5
81
330
1F
100
AcDbEntity
  8
Default
100
AcDbLine
 10
7.958221518076277
 20
75.45182435090305
 30
0.0
 11
7.588056441949523
 21
75.21600318931314
 31
0.0
  0
LINE
  5
82
330
1F
100
AcDbEntity
  8
Default
100
AcDbLine
 10
-7.890790740876605
 20
75.45182435090305
 30
0.0
 11
-7.52062750799032
 21
75.21600436358683
 31
0.0
  0
ARC
  5
83
330
1F
100
AcDbEntity
  8
Default
100
AcDbCircle
 10
-58.04182653812106
 20
61.50499514368527
 30
0.0
 40
67.04679918985717
100
AcDbArc
 50
11.76267804767934
 51
12.08377002122231
  0
SPLINE
  5
84
330
1F
100
AcDbEntity
  8
Default
100
AcDbSpline
210
0.0
220
0.0
230
1.0
 70
     8
 71
     3
 72
    23
 73
    19
 74
     0
 42
0.0000000001
 43
0.0000000001
 40
0.0000000000000001
 40
0.0000000000000001
 40
0.0000000000000001
 40
0.0000000000000001
 40
4.24895968232277
 40
6.486393074541591
 40
9.045091794831706
 40
11.60422115196901
 40
13.22896781163744
 40
14.51231705906568
 40
15.25797935780193
 40
15.51969434203911
 40
15.80552651594489
 40
15.9921433540386
 40
16.10658203171558
 40
16.24561988875408
 40
16.537984963297
 40
17.86615571467284
 40
21.19407775777829
 40
24.46596690678671
 40
24.46596690678671
 40
24.46596690678671
 40
24.46596690678671
 10
7.597015880112501
 20
75.1730472214078
 30
0.0
 10
7.885731553878166
 20
73.78653197357133
 30
0.0
 10
8.25950737460834
 20
71.65548931530783
 30
0.0
 10
8.608600808589664
 20
68.66020339565698
 30
0.0
 10
8.832752534926975
 20
66.21866644073594
 30
0.0
 10
8.982839184007268
 20
63.97592641032975
 30
0.0
 10
9.057082285282497
 20
62.15477022990224
 30
0.0
 10
9.011653964213458
 20
60.93603920431757
 30
0.0
 10
8.911150537361543
 20
60.17872618271483
 30
0.0
 10
8.831856691198105
 20
59.75383154979312
 30
0.0
 10
8.6636192798833
 20
59.55680519163332
 30
0.0
 10
8.498280095679199
 20
59.45875060272907
 30
0.0
 10
8.356054603722377
 20
59.41158363658384
 30
0.0
 10
8.178781334798124
 20
59.37756076734109
 30
0.0
 10
7.596638855180963
 20
59.29972966396312
 30
0.0
 10
5.959124608901142
 20
59.10337056487725
 30
0.0
 10
3.323985843816637
 20
58.89154419432035
 30
0.0
 10
1.1244847900251
 20
58.82149417718791
 30
0.0
 10
0.0338113272098255
 20
58.81966888705242
 30
0.0
  0
SPLINE
  5
85
330
1F
100
AcDbEntity
  8
Default
100
AcDbSpline
210
0.0
220
0.0
230
1.0
 70
     8
 71
     3
 72
    21
 73
    17
 74
     0
 42
0.0000000001
 43
0.0000000001
 40
24.46596690678671
 40
24.46596690678671
 40
24.46596690678671
 40
24.46596690678671
 40
27.72223632071433
 40
31.06625574070116
 40
32.42547696658934
 40
32.82735322848757
 40
33.12657573285964
 40
33.4100113728441
 40
33.66796334267045
 40
34.39342643974651
 40
35.68712283049939
 40
37.32776181063267
 40
39.88695385814246
 40
42.54145534509678
 40
44.77891088678392
 40
48.93209882734814
 40
48.93209882734814
 40
48.93209882734814
 40
48.93209882734814
 10
0.0338113272098255
 20
58.81966888705242
 30
0.0
 10
-1.051655943864638
 20
58.82127868482516
 30
0.0
 10
-3.251325412735859
 20
58.89133579634925
 30
0.0
 10
-5.896817856057815
 20
59.10370767734246
 30
0.0
 10
-7.586251853154302
 20
59.30746772333035
 30
0.0
 10
-8.26816957121509
 20
59.39565790224735
 30
0.0
 10
-8.575874533720203
 20
59.52162761398159
 30
0.0
 10
-8.757329773650476
 20
59.7532497756488
 30
0.0
 10
-8.847329260879924
 20
60.16579527172942
 30
0.0
 10
-8.937623464691889
 20
60.92102176179701
 30
0.0
 10
-8.993166170248664
 20
62.1397892981946
 30
0.0
 10
-8.914016137879692
 20
63.97114731571124
 30
0.0
 10
-8.763860553850726
 20
66.25008923506005
 30
0.0
 10
-8.535140005103536
 20
68.72394575185096
 30
0.0
 10
-8.181812801759072
 20
71.7185670667547
 30
0.0
 10
-7.811734154567156
 20
73.81776163550565
 30
0.0
 10
-7.52958635762284
 20
75.1730410934026
 30
0.0
  0
ARC
  5
86
330
1F
100
AcDbEntity
  8
Default
100
AcDbCircle
 10
58.54720128476388
 20
61.41689659211531
 30
0.0
 40
67.49350618153844
100
AcDbArc
 50
167.9209370110373
 51
168.2398994819786
  0
SPLINE
  5
87
330
1F
100
AcDbEntity
  8
Default
100
AcDbSpline
210
0.0
220
0.0
230
1.0
 70
     8
 71
     3
 72
    14
 73
    10
 74
     0
 42
0.0000000001
 43
0.0000000001
 40
-10.1118640375627
 40
-10.1118640375627
 40
-10.1118640375627
 40
-10.1118640375627
 40
-7.352656220994111
 40
-6.166555932487759
 40
-3.620449295513177
 40
-2.259118278458852
 40
-1.094312261690871
 40
-0.4769411130260029
 40
0.0
 40
0.0
 40
0.0
 40
0.0
 10
0.0337153885998356
 20
78.05754669308203
 30
0.0
 10
-0.8864515555225216
 20
78.05962424365563
 30
0.0
 10
-2.197652409224455
 20
77.8262869167171
 30
0.0
 10
-4.19950832397374
 20
76.99870272309306
 30
0.0
 10
-5.666288291699312
 20
76.13224480577097
 30
0.0
 10
-7.260038125049713
 20
75.55148563998029
 30
0.0
 10
-8.29722930630559
 20
75.36927819111062
 30
0.0
 10
-9.0538330942672
 20
75.41896574970633
 30
0.0
 10
-9.411662747390816
 20
75.47950107436313
 30
0.0
 10
-9.563263964544854
 20
75.5324012906843
 30
0.0
  0
SPLINE
  5
88
330
1F
100
AcDbEntity
  8
Default
100
AcDbSpline
210
0.0
220
0.0
230
1.0
 70
     8
 71
     3
 72
    14
 73
    10
 74
     0
 42
0.0000000001
 43
0.0000000001
 40
0.0
 40
0.0
 40
0.0
 40
0.0
 40
0.4769411130260029
 40
1.094312261690871
 40
2.259118278458852
 40
3.620449295513177
 40
6.166555932487759
 40
7.352656220994111
 40
10.1118640375627
 40
10.1118640375627
 40
10.1118640375627
 40
10.1118640375627
 10
9.630694741744525
 20
75.5324012906843
 30
0.0
 10
9.479093524590487
 20
75.47950107436313
 30
0.0
 10
9.121263871466871
 20
75.41896574970633
 30
0.0
 10
8.364660083505262
 20
75.36927819111062
 30
0.0
 10
7.327468902249384
 20
75.55148563998029
 30
0.0
 10
5.733719068898983
 20
76.13224480577097
 30
0.0
 10
4.266939101173412
 20
76.99870272309306
 30
0.0
 10
2.265083186424127
 20
77.8262869167171
 30
0.0
 10
0.9538823327221928
 20
78.05962424365563
 30
0.0
 10
0.0337153885998356
 20
78.05754669308203
 30
0.0
  0
SPLINE
  5
89
330
1F
100
AcDbEntity
  8
MAKE2D VISIBLE LINES
100
AcDbSpline
210
0.0
220
0.0
230
1.0
 70
     8
 71
     3
 72
    12
 73
     8
 74
     0
 42
0.0000000001
 43
0.0000000001
 40
0.0
 40
0.0
 40
0.0
 40
0.0
 40
1.802513261316641
 40
2.830644998100385
 40
3.638444201131116
 40
3.913925955063766
 40
4.09105482492869
 40
4.09105482492869
 40
4.09105482492869
 40
4.09105482492869
 10
-9.81550094831196
 20
76.73978467613108
 30
0.0
 10
-9.853863955744753
 20
77.33938145341443
 30
0.0
 10
-9.907590900917674
 20
78.28146676099374
 30
0.0
 10
-9.99791810960164
 20
79.49089638939417
 30
0.0
 10
-10.06803643508468
 20
80.19139175155992
 30
0.0
 10
-10.1294484198098
 20
80.60707295024486
 30
0.0
 10
-10.15990536532273
 20
80.7550025930238
 30
0.0
 10
-10.177285360678
 20
80.81146072673957
 30
0.0
  0
SPLINE
  5
8A
330
1F
100
AcDbEntity
  8
MAKE2D VISIBLE LINES
100
AcDbSpline
210
0.0
220
0.0
230
1.0
 70
     8
 71
     3
 72
    12
 73
     8
 74
     0
 42
0.0000000001
 43
0.0000000001
 40
0.0
 40
0.0
 40
0.0
 40
0.0
 40
0.1340381984017992
 40
0.26123221353169
 40
0.4613717576740069
 40
0.6425263264191151
 40
0.9012720204707741
 40
0.9012720204707741
 40
0.9012720204707741
 40
0.9012720204707741
 10
9.070244703897686
 20
29.18369700464941
 30
0.0
 10
9.10632393617778
 20
29.20887086373729
 30
0.0
 10
9.172788674495674
 20
29.26911272664667
 30
0.0
 10
9.270076555256242
 20
29.38260688380782
 30
0.0
 10
9.341590031718866
 20
29.55287424454335
 30
0.0
 10
9.24002450220043
 20
29.75503815205957
 30
0.0
 10
9.12720801069273
 20
29.84700544031513
 30
0.0
 10
9.060249395869977
 20
29.90220658557865
 30
0.0
  0
SPLINE
  5
8B
330
1F
100
AcDbEntity
  8
MAKE2D VISIBLE LINES
100
AcDbSpline
210
0.0
220
0.0
230
1.0
 70
    24
 71
     2
 72
     6
 73
     3
 74
     0
 42
0.0000000001
 43
0.0000000001
 40
0.0
 40
0.0
 40
0.0
 40
16.35897529705303
 40
16.35897529705303
 40
16.35897529705303
 10
-8.179487607064242
 20
12.34893694599857
 30
0.0
 10
0.0000000414622718
 20
12.34893694599857
 30
0.0
 10
8.179487689988786
 20
12.34893694599857
 30
0.0
  0
SPLINE
  5
8C
330
1F
100
AcDbEntity
  8
MAKE2D VISIBLE LINES
100
AcDbSpline
210
0.0
220
0.0
230
1.0
 70
     8
 71
     3
 72
    16
 73
    12
 74
     0
 42
0.0000000001
 43
0.0000000001
 40
0.0
 40
0.0
 40
0.0
 40
0.0
 40
0.0048943814559885
 40
0.3998145956759581
 40
0.6093643102546916
 40
0.827151623906513
 40
1.010536402295179
 40
1.125829395863809
 40
1.174340553723367
 40
1.191619902304069
 40
1.198485555255068
 40
1.198485555255068
 40
1.198485555255068
 40
1.198485555255068
 10
8.197302399075408
 20
11.35183283752628
 30
0.0
 10
8.192431819404778
 20
11.34723593911013
 30
0.0
 10
8.269874932090804
 20
11.45407353627774
 30
0.0
 10
8.409511280891511
 20
11.60031675481681
 30
0.0
 10
8.521621846819237
 20
11.86485268802311
 30
0.0
 10
8.429173630631329
 20
12.06441511302053
 30
0.0
 10
8.32306275580143
 20
12.19185909092356
 30
0.0
 10
8.246100410359556
 20
12.28341922949344
 30
0.0
 10
8.204966260082056
 20
12.32465646422218
 30
0.0
 10
8.187500066983802
 20
12.34302692253441
 30
0.0
 10
8.181573009862309
 20
12.34769115528761
 30
0.0
 10
8.17948768998879
 20
12.34893694599857
 30
0.0
  0
SPLINE
  5
8D
330
1F
100
AcDbEntity
  8
MAKE2D VISIBLE LINES
100
AcDbSpline
210
0.0
220
0.0
230
1.0
 70
    24
 71
     2
 72
     6
 73
     3
 74
     0
 42
0.0000000001
 43
0.0000000001
 40
0.0
 40
0.0
 40
0.0
 40
30.1899448026857
 40
30.1899448026857
 40
30.1899448026857
 10
9.473897127164669
 20
0.1672749006677505
 30
0.0
 10
9.263928694442063
 20
15.26078691923263
 30
0.0
 10
9.053960261719457
 20
30.35429893779751
 30
0.0
  0
SPLINE
  5
8E
330
1F
100
AcDbEntity
  8
MAKE2D VISIBLE LINES
100
AcDbSpline
210
0.0
220
0.0
230
1.0
 70
    12
 71
     2
 72
     6
 73
     3
 74
     0
 42
0.0000000001
 43
0.0000000001
 40
0.0
 40
0.0
 40
0.0
 40
2.637119918663169
 40
2.637119918663169
 40
2.637119918663169
 10
-8.972404681379107
 20
80.45888212121402
 30
0.0
 41
1.0
 10
-7.752655992797135
 20
79.95437738041034
 30
0.0
 41
0.9984022397453695
 10
-6.483772193839568
 20
79.59072122202191
 30
0.0
 41
1.0
  0
SPLINE
  5
8F
330
1F
100
AcDbEntity
  8
MAKE2D VISIBLE LINES
100
AcDbSpline
210
0.0
220
0.0
230
1.0
 70
    12
 71
     2
 72
     6
 73
     3
 74
     0
 42
0.0000000001
 43
0.0000000001
 40
0.0
 40
0.0
 40
0.0
 40
1.671523865440103
 40
1.671523865440103
 40
1.671523865440103
 10
-7.336886142953337
 20
79.32946025911464
 30
0.0
 41
1.0
 10
-8.133029843528428
 20
79.58485926453825
 30
0.0
 41
0.9993826318049557
 10
-8.909273108283013
 20
79.89553568440287
 30
0.0
 41
1.0
  0
SPLINE
  5
90
330
1F
100
AcDbEntity
  8
MAKE2D VISIBLE LINES
100
AcDbSpline
210
0.0
220
0.0
230
1.0
 70
    12
 71
     2
 72
     6
 73
     3
 74
     0
 42
0.0000000001
 43
0.0000000001
 40
0.0
 40
0.0
 40
0.0
 40
0.1535129193051557
 40
0.1535129193051557
 40
0.1535129193051557
 10
-8.97068717137463
 20
80.40988096307395
 30
0.0
 41
1.0
 10
-8.96062558575454
 20
80.33378580295921
 30
0.0
 41
0.9999802943697026
 10
-8.951520195976716
 20
80.25757031388335
 30
0.0
 41
1.0
  0
SPLINE
  5
91
330
1F
100
AcDbEntity
  8
MAKE2D VISIBLE LINES
100
AcDbSpline
210
0.0
220
0.0
230
1.0
 70
    12
 71
     2
 72
     6
 73
     3
 74
     0
 42
0.0000000001
 43
0.0000000001
 40
0.0
 40
0.0
 40
0.0
 40
0.0277033917528687
 40
0.0277033917528687
 40
0.0277033917528687
 10
-8.971313860392135
 20
80.437261360628
 30
0.0
 41
1.0
 10
-8.97088041011172
 20
80.42341627826808
 30
0.0
 41
0.9999816049464368
 10
-8.970614942138589
 20
80.40956695657158
 30
0.0
 41
1.0
  0
SPLINE
  5
92
330
1F
100
AcDbEntity
  8
MAKE2D VISIBLE LINES
100
AcDbSpline
210
0.0
220
0.0
230
1.0
 70
    24
 71
     2
 72
     6
 73
     3
 74
     0
 42
0.0000000001
 43
0.0000000001
 40
0.0
 40
0.0
 40
0.0
 40
16.38681270649467
 40
16.38681270649467
 40
16.38681270649467
 10
8.193406353247333
 20
11.34895620803811
 30
0.0
 10
-0.0000000000000018
 20
11.34895620803811
 30
0.0
 10
-8.193406353247337
 20
11.34895620803811
 30
0.0
  0
SPLINE
  5
93
330
1F
100
AcDbEntity
  8
MAKE2D VISIBLE LINES
100
AcDbSpline
210
0.0
220
0.0
230
1.0
 70
    24
 71
     2
 72
     6
 73
     3
 74
     0
 42
0.0000000001
 43
0.0000000001
 40
0.0
 40
0.0
 40
0.0
 40
16.76904379744363
 40
16.76904379744363
 40
16.76904379744363
 10
8.179327161566388
 20
12.34893471286017
 30
0.0
 10
8.062699924669536
 20
20.7326454400835
 30
0.0
 10
7.946072687772684
 20
29.11635616730683
 30
0.0
  0
SPLINE
  5
94
330
1F
100
AcDbEntity
  8
MAKE2D VISIBLE LINES
100
AcDbSpline
210
0.0
220
0.0
230
1.0
 70
    24
 71
     2
 72
     6
 73
     3
 74
     0
 42
0.0000000001
 43
0.0000000001
 40
0.0
 40
0.0
 40
0.0
 40
11.19858422692651
 40
11.19858422692651
 40
11.19858422692651
 10
8.349005840446832
 20
0.1516384537606148
 30
0.0
 10
8.271120663968123
 20
5.750388856410895
 30
0.0
 10
8.193235487489414
 20
11.34913925906118
 30
0.0
  0
SPLINE
  5
95
330
1F
100
AcDbEntity
  8
Default
100
AcDbSpline
210
0.0
220
0.0
230
1.0
 70
     8
 71
     3
 72
    12
 73
     8
 74
     0
 42
0.0000000001
 43
0.0000000001
 40
0.0
 40
0.0
 40
0.0
 40
0.0
 40
1.409468345024047
 40
2.584983022344898
 40
3.607507320650333
 40
4.89328680666405
 40
7.894681883043148
 40
7.894681883043148
 40
7.894681883043148
 40
7.894681883043148
 10
-0.0000785466365443
 20
33.05127367868329
 30
0.0
 10
0.4697072675338063
 20
33.05201451698667
 30
0.0
 10
1.331503212935246
 20
33.0413546516562
 30
0.0
 10
2.532813662889154
 20
32.9883942664182
 30
0.0
 10
3.689466233651629
 20
32.87239875717203
 30
0.0
 10
5.443093088909436
 20
32.65262947886352
 30
0.0
 10
6.830351611060351
 20
32.23081925264306
 30
0.0
 10
7.687213922636616
 20
31.7049411869421
 30
0.0
  0
SPLINE
  5
96
330
1F
100
AcDbEntity
  8
Default
100
AcDbSpline
210
0.0
220
0.0
230
1.0
 70
     8
 71
     3
 72
    12
 73
     8
 74
     0
 42
0.0000000001
 43
0.0000000001
 40
-7.894681883043148
 40
-7.894681883043148
 40
-7.894681883043148
 40
-7.894681883043148
 40
-4.89328680666405
 40
-3.607507320650333
 40
-2.584983022344898
 40
-1.409468345024047
 40
0.0
 40
0.0
 40
0.0
 40
0.0
 10
-7.687371015909704
 20
31.7049411869421
 30
0.0
 10
-6.83050870433344
 20
32.23081925264306
 30
0.0
 10
-5.443250182182524
 20
32.65262947886352
 30
0.0
 10
-3.689623326924718
 20
32.87239875717203
 30
0.0
 10
-2.532970756162243
 20
32.9883942664182
 30
0.0
 10
-1.331660306208335
 20
33.0413546516562
 30
0.0
 10
-0.4698643608068949
 20
33.05201451698667
 30
0.0
 10
-0.0000785466365443
 20
33.05127367868329
 30
0.0
  0
SPLINE
  5
97
330
1F
100
AcDbEntity
  8
Default
100
AcDbSpline
210
0.0
220
0.0
230
1.0
 70
    12
 71
     3
 72
    27
 73
    23
 74
     0
 42
0.0000000001
 43
0.0000000001
 40
-14.5374141795705
 40
-14.5374141795705
 40
-14.5374141795705
 40
-14.5374141795705
 40
-14.41934725534845
 40
-14.37741709520271
 40
-11.72195382020863
 40
-10.18186587578625
 40
-9.446987305907031
 40
-8.673929290600562
 40
-8.673929290600562
 40
-8.673929290600562
 40
-6.586620086222773
 40
-5.772800495400565
 40
-4.920229152264927
 40
-4.920229152264927
 40
-4.920229152264927
 40
-1.870401398594343
 40
-1.870401398594343
 40
-1.870401398594343
 40
-1.244728433228314
 40
-1.244728433228314
 40
-1.244728433228314
 40
0.0
 40
0.0
 40
0.0
 40
0.0
 10
8.84991953518805
 20
44.87431137828667
 30
0.0
 41
1.0
 10
8.878699298411448
 20
44.84874724380624
 30
0.0
 41
1.0
 10
8.930119110257024
 20
44.77374851656651
 30
0.0
 41
1.0
 10
9.065080988234897
 20
43.84502743286479
 30
0.0
 41
1.0
 10
9.265894318138336
 20
42.44671354374795
 30
0.0
 41
1.0
 10
9.440253274918675
 20
40.81223830468253
 30
0.0
 41
1.0
 10
9.524172660576966
 20
39.79971119316284
 30
0.0
 41
1.0
 10
9.557442536226858
 20
39.29812324710291
 30
0.0
 41
1.0
 10
9.572420426588835
 20
39.04079315448034
 30
0.0
 41
1.0
 10
9.608596840421512
 20
38.34591186089808
 30
0.0
 41
1.0
 10
9.676549913628136
 20
37.38103757120254
 30
0.0
 41
1.0
 10
9.716400666149553
 20
36.13031192680084
 30
0.0
 41
1.0
 10
9.725564898359579
 20
35.57495287178611
 30
0.0
 41
1.0
 10
9.729008158938043
 20
35.2907387685218
 30
0.0
 41
1.0
 10
9.748599121697634
 20
34.27429861839231
 30
0.0
 41
0.9999999998608998
 10
9.768202407264122
 20
33.25614476876827
 30
0.0
 41
0.9999999998608998
 10
9.787818015629327
 20
32.23627722007457
 30
0.0
 41
1.0
 10
9.79180565015983
 20
32.02430887298365
 30
0.0
 41
0.9999875412613548
 10
9.794485975276023
 20
31.81344633792624
 30
0.0
 41
0.9999875412613548
 10
9.795858890797476
 20
31.60369749614596
 30
0.0
 41
1.0
 10
9.799637404097165
 20
31.1876098120437
 30
0.0
 41
0.9999951491592268
 10
9.804999686623772
 20
30.77213677735864
 30
0.0
 41
0.9999951491592268
 10
9.811945660342545
 20
30.35728443827139
 30
0.0
 41
1.0
  0
SPLINE
  5
98
330
1F
100
AcDbEntity
  8
Default
100
AcDbSpline
210
0.0
220
0.0
230
1.0
 70
     8
 71
     3
 72
    14
 73
    10
 74
     0
 42
0.0000000001
 43
0.0000000001
 40
-8.877532991886884
 40
-8.877532991886884
 40
-8.877532991886884
 40
-8.877532991886884
 40
-4.914447712395043
 40
-2.770559133715509
 40
-0.1666624510078076
 40
-0.1553079131419963
 40
-0.0815199279409795
 40
-0.0559075622214563
 40
0.0
 40
0.0
 40
0.0
 40
0.0
 10
-0.0000785466365443
 20
44.14726628181414
 30
0.0
 10
1.321087193453323
 20
44.14728407626645
 30
0.0
 10
3.356190131184746
 20
44.23808240094391
 30
0.0
 10
6.244534421616095
 20
44.54415366644381
 30
0.0
 10
7.81077455108435
 20
44.79961145833512
 30
0.0
 10
8.696237196969292
 20
44.93795610524926
 30
0.0
 10
8.73390281838185
 20
44.93266305375073
 30
0.0
 10
8.783541381791352
 20
44.92049102866258
 30
0.0
 10
8.836215641465841
 20
44.88648410463264
 30
0.0
 10
8.84991953518805
 20
44.87431137828667
 30
0.0
  0
SPLINE
  5
99
330
1F
100
AcDbEntity
  8
Default
100
AcDbSpline
210
0.0
220
0.0
230
1.0
 70
     8
 71
     3
 72
    14
 73
    10
 74
     0
 42
0.0000000001
 43
0.0000000001
 40
0.0
 40
0.0
 40
0.0
 40
0.0
 40
0.0559075622214563
 40
0.0815199279409795
 40
0.1553079131419963
 40
0.1666624510078076
 40
2.770559133715509
 40
4.914447712395043
 40
8.877532991886884
 40
8.877532991886884
 40
8.877532991886884
 40
8.877532991886884
 10
-8.850076628461139
 20
44.87431137828667
 30
0.0
 10
-8.83637273473893
 20
44.88648410463264
 30
0.0
 10
-8.78369847506444
 20
44.92049102866258
 30
0.0
 10
-8.734059911654938
 20
44.93266305375073
 30
0.0
 10
-8.696394290242381
 20
44.93795610524926
 30
0.0
 10
-7.810931644357439
 20
44.79961145833512
 30
0.0
 10
-6.244691514889183
 20
44.54415366644381
 30
0.0
 10
-3.356347224457835
 20
44.23808240094391
 30
0.0
 10
-1.321244286726412
 20
44.14728407626645
 30
0.0
 10
-0.0000785466365443
 20
44.14726628181414
 30
0.0
  0
SPLINE
  5
9A
330
1F
100
AcDbEntity
  8
Default
100
AcDbSpline
210
0.0
220
0.0
230
1.0
 70
    12
 71
     3
 72
    27
 73
    23
 74
     0
 42
0.0000000001
 43
0.0000000001
 40
0.0
 40
0.0
 40
0.0
 40
0.0
 40
1.244728433228314
 40
1.244728433228314
 40
1.244728433228314
 40
1.870401398594343
 40
1.870401398594343
 40
1.870401398594343
 40
4.920229152264927
 40
4.920229152264927
 40
4.920229152264927
 40
5.772800495400565
 40
6.586620086222773
 40
8.673929290600562
 40
8.673929290600562
 40
8.673929290600562
 40
9.446987305907031
 40
10.18186587578625
 40
11.72195382020863
 40
14.37741709520271
 40
14.41934725534845
 40
14.5374141795705
 40
14.5374141795705
 40
14.5374141795705
 40
14.5374141795705
 10
-9.812102753615633
 20
30.35728443827139
 30
0.0
 41
1.0
 10
-9.805156779896855
 20
30.77213677735864
 30
0.0
 41
0.9999951491592268
 10
-9.799794497370245
 20
31.1876098120437
 30
0.0
 41
0.9999951491592268
 10
-9.796015984070564
 20
31.60369749614596
 30
0.0
 41
1.0
 10
-9.794643068549108
 20
31.81344633792624
 30
0.0
 41
0.9999875412613548
 10
-9.791962743432913
 20
32.02430887298365
 30
0.0
 41
0.9999875412613548
 10
-9.787975108902415
 20
32.23627722007457
 30
0.0
 41
1.0
 10
-9.76835950053721
 20
33.25614476876827
 30
0.0
 41
0.9999999998608998
 10
-9.748756214970722
 20
34.27429861839231
 30
0.0
 41
0.9999999998608998
 10
-9.729165252211132
 20
35.2907387685218
 30
0.0
 41
1.0
 10
-9.725721991632668
 20
35.57495287178611
 30
0.0
 41
1.0
 10
-9.716557759422642
 20
36.13031192680084
 30
0.0
 41
1.0
 10
-9.676707006901225
 20
37.38103757120254
 30
0.0
 41
1.0
 10
-9.6087539336946
 20
38.34591186089808
 30
0.0
 41
1.0
 10
-9.572577519861923
 20
39.04079315448034
 30
0.0
 41
1.0
 10
-9.557599629499947
 20
39.29812324710291
 30
0.0
 41
1.0
 10
-9.524329753850054
 20
39.79971119316284
 30
0.0
 41
1.0
 10
-9.440410368191763
 20
40.81223830468253
 30
0.0
 41
1.0
 10
-9.266051411411425
 20
42.44671354374795
 30
0.0
 41
1.0
 10
-9.065238081507985
 20
43.84502743286479
 30
0.0
 41
1.0
 10
-8.930276203530113
 20
44.77374851656651
 30
0.0
 41
1.0
 10
-8.878856391684536
 20
44.84874724380624
 30
0.0
 41
1.0
 10
-8.850076628461139
 20
44.87431137828667
 30
0.0
 41
1.0
  0
SPLINE
  5
9B
330
1F
100
AcDbEntity
  8
Default
100
AcDbSpline
210
0.0
220
0.0
230
1.0
 70
     8
 71
     3
 72
    19
 73
    15
 74
     0
 42
0.0000000001
 43
0.0000000001
 40
0.0
 40
0.0
 40
0.0
 40
0.0
 40
2.232247940101095
 40
4.462819732511551
 40
6.899475607671127
 40
8.91937015223986
 40
9.019515739888016
 40
9.090866166954358
 40
9.218595657282524
 40
9.238659435547545
 40
9.470060216773138
 40
9.710123961932329
 40
10.86335533494464
 40
11.51386883183247
 40
11.51386883183247
 40
11.51386883183247
 40
11.51386883183247
 10
0.0337153885998356
 20
80.50337622642351
 30
0.0
 10
0.7776379891074094
 20
80.50328123277276
 30
0.0
 10
2.264768851270565
 20
80.43376931739385
 30
0.0
 10
4.543710111862074
 20
80.1082931558085
 30
0.0
 10
6.708959273016694
 20
79.56906229534417
 30
0.0
 10
8.146052897700377
 20
79.07580665279161
 30
0.0
 10
8.82470138646429
 20
78.80496359981728
 30
0.0
 10
8.903986121835521
 20
78.74370594801351
 30
0.0
 10
8.958621365611668
 20
78.69186275660738
 30
0.0
 10
8.991957279819166
 20
78.56831579044112
 30
0.0
 10
9.033369092831853
 20
78.41067004420248
 30
0.0
 10
9.187426512766569
 20
77.89113973941997
 30
0.0
 10
9.407819644680293
 20
77.24681689993554
 30
0.0
 10
9.569953289929378
 20
76.61478742781347
 30
0.0
 10
9.609510740676702
 20
76.40168493462082
 30
0.0
  0
SPLINE
  5
9C
330
1F
100
AcDbEntity
  8
Default
100
AcDbSpline
210
0.0
220
0.0
230
1.0
 70
     8
 71
     3
 72
    19
 73
    15
 74
     0
 42
0.0000000001
 43
0.0000000001
 40
-11.51386883183247
 40
-11.51386883183247
 40
-11.51386883183247
 40
-11.51386883183247
 40
-10.86335533494464
 40
-9.710123961932329
 40
-9.470060216773138
 40
-9.238659435547545
 40
-9.218595657282524
 40
-9.090866166954358
 40
-9.019515739888016
 40
-8.91937015223986
 40
-6.899475607671127
 40
-4.462819732511551
 40
-2.232247940101095
 40
0.0
 40
0.0
 40
0.0
 40
0.0
 10
-9.54207996347703
 20
76.40168493462082
 30
0.0
 10
-9.502522512729707
 20
76.61478742781347
 30
0.0
 10
-9.340388867480621
 20
77.24681689993554
 30
0.0
 10
-9.119995735566897
 20
77.89113973941997
 30
0.0
 10
-8.965938315632181
 20
78.41067004420248
 30
0.0
 10
-8.924526502619495
 20
78.56831579044112
 30
0.0
 10
-8.891190588411996
 20
78.69186275660738
 30
0.0
 10
-8.83655534463585
 20
78.74370594801351
 30
0.0
 10
-8.757270609264618
 20
78.80496359981728
 30
0.0
 10
-8.078622120500706
 20
79.07580665279161
 30
0.0
 10
-6.641528495817022
 20
79.56906229534417
 30
0.0
 10
-4.476279334662403
 20
80.1082931558085
 30
0.0
 10
-2.197338074070894
 20
80.43376931739385
 30
0.0
 10
-0.7102072119077383
 20
80.50328123277276
 30
0.0
 10
0.0337153885998356
 20
80.50337622642351
 30
0.0
  0
SPLINE
  5
9D
330
1F
100
AcDbEntity
  8
Default
100
AcDbSpline
210
0.0
220
0.0
230
1.0
 70
    12
 71
     2
 72
    10
 73
     7
 74
     0
 42
0.0000000001
 43
0.0000000001
 40
-0.1282201628013348
 40
-0.1282201628013348
 40
-0.1282201628013348
 40
0.0
 40
0.0
 40
0.1060175460643373
 40
0.1060175460643373
 40
0.7644817079169229
 40
0.7644817079169229
 40
0.7644817079169229
 10
-9.563263964544854
 20
75.5324012906843
 30
0.0
 41
1.0
 10
-9.62603432173478
 20
75.55430458101561
 30
0.0
 41
0.9473303484341768
 10
-9.670713132416347
 20
75.60684360700387
 30
0.0
 41
1.0
 10
-9.702502686093586
 20
75.65342626094565
 30
0.0
 41
0.912286974915978
 10
-9.68881877853722
 20
75.7081370464026
 30
0.0
 41
0.9999992032399301
 10
-9.602191804577558
 20
76.0778525600134
 30
0.0
 41
0.9993961059510184
 10
-9.542079963477025
 20
76.40168493462082
 30
0.0
 41
0.9999992040962243
  0
SPLINE
  5
9E
330
1F
100
AcDbEntity
  8
Default
100
AcDbSpline
210
0.0
220
0.0
230
1.0
 70
    12
 71
     2
 72
    10
 73
     7
 74
     0
 42
0.0000000001
 43
0.0000000001
 40
-0.7644817079169229
 40
-0.7644817079169229
 40
-0.7644817079169229
 40
-0.1060175460643373
 40
-0.1060175460643373
 40
0.0
 40
0.0
 40
0.1282201628013348
 40
0.1282201628013348
 40
0.1282201628013348
 10
9.609510740676706
 20
76.40168493462082
 30
0.0
 41
0.9999992040962243
 10
9.669622581777231
 20
76.0778525600134
 30
0.0
 41
0.9993961059510184
 10
9.756249555736888
 20
75.7081370464026
 30
0.0
 41
0.9999992032399301
 10
9.769933463293249
 20
75.65342626094565
 30
0.0
 41
0.912286974915978
 10
9.738143909616019
 20
75.60684360700387
 30
0.0
 41
1.0
 10
9.693465098934457
 20
75.55430458101561
 30
0.0
 41
0.9473303484341768
 10
9.630694741744525
 20
75.5324012906843
 30
0.0
 41
1.0
  0
SPLINE
  5
9F
330
1F
100
AcDbEntity
  8
Default
100
AcDbSpline
210
0.0
220
0.0
230
1.0
 70
     8
 71
     2
 72
    11
 73
     8
 74
     0
 42
0.0000000001
 43
0.0000000001
 40
0.0
 40
0.0
 40
0.0
 40
1.0
 40
2.0
 40
3.0
 40
4.0
 40
5.0
 40
6.0
 40
6.0
 40
6.0
 10
-9.322915591529688
 20
77.26278057767135
 30
0.0
 10
-9.388204490749382
 20
77.25033926638821
 30
0.0
 10
-9.509362655768664
 20
77.19565814243666
 30
0.0
 10
-9.614373242534237
 20
77.1141555788106
 30
0.0
 10
-9.697426320327745
 20
77.01037267277181
 30
0.0
 10
-9.75386145979578
 20
76.88997879327889
 30
0.0
 10
-9.778447019658552
 20
76.75925099520751
 30
0.0
 10
-9.774363518590812
 20
76.69288746699195
 30
0.0
  0
SPLINE
  5
A0
330
1F
100
AcDbEntity
  8
Default
100
AcDbSpline
210
0.0
220
0.0
230
1.0
 70
    12
 71
     2
 72
     6
 73
     3
 74
     0
 42
0.0000000001
 43
0.0000000001
 40
0.0
 40
0.0
 40
0.0
 40
4.878290109995292
 40
4.878290109995292
 40
4.878290109995292
 10
0.033715388599848
 20
77.2191240976397
 30
0.0
 41
0.9999918043754388
 10
-2.414535416129876
 20
77.20741634151149
 30
0.0
 41
0.9934760685754098
 10
-4.796496588156637
 20
76.6414392667433
 30
0.0
 41
1.0
  0
SPLINE
  5
A1
330
1F
100
AcDbEntity
  8
Default
100
AcDbSpline
210
0.0
220
0.0
230
1.0
 70
    12
 71
     2
 72
     6
 73
     3
 74
     0
 42
0.0000000001
 43
0.0000000001
 40
-4.878290109995292
 40
-4.878290109995292
 40
-4.878290109995292
 40
0.0
 40
0.0
 40
0.0
 10
4.863927365356309
 20
76.6414392667433
 30
0.0
 41
1.0
 10
2.481966193329546
 20
77.20741634151149
 30
0.0
 41
0.9934760685754098
 10
0.033715388599848
 20
77.2191240976397
 30
0.0
 41
0.9999918043754388
  0
SPLINE
  5
A2
330
1F
100
AcDbEntity
  8
Default
100
AcDbSpline
210
0.0
220
0.0
230
1.0
 70
     8
 71
     2
 72
    11
 73
     8
 74
     0
 42
0.0000000001
 43
0.0000000001
 40
0.0
 40
0.0
 40
0.0
 40
1.0
 40
2.0
 40
3.0
 40
4.0
 40
5.0
 40
6.0
 40
6.0
 40
6.0
 10
9.72166848373404
 20
75.85833403206883
 30
0.0
 10
9.721388239439156
 20
75.95417530991926
 30
0.0
 10
9.709879153593084
 20
76.14550745783612
 30
0.0
 10
9.694065802580544
 20
76.33650848322847
 30
0.0
 10
9.666718732008041
 20
76.52632616216334
 30
0.0
 10
9.61690444544431
 20
76.7116877773899
 30
0.0
 10
9.536015608332624
 20
76.88623777765892
 30
0.0
 10
9.478159704082051
 20
76.96286982594847
 30
0.0
  0
SPLINE
  5
A3
330
1F
100
AcDbEntity
  8
Default
100
AcDbSpline
210
0.0
220
0.0
230
1.0
 70
    12
 71
     2
 72
     6
 73
     3
 74
     0
 42
0.0000000001
 43
0.0000000001
 40
0.0
 40
0.0
 40
0.0
 40
0.0742368075508645
 40
0.0742368075508645
 40
0.0742368075508645
 10
-9.302240237271485
 20
77.33329700462801
 30
0.0
 41
1.0
 10
-9.313188170963082
 20
77.29782980856746
 30
0.0
 41
0.9999981765885326
 10
-9.324000564140386
 20
77.26232105750108
 30
0.0
 41
1.0
  0
SPLINE
  5
A4
330
1F
100
AcDbEntity
  8
Default
100
AcDbSpline
210
0.0
220
0.0
230
1.0
 70
     8
 71
     2
 72
    11
 73
     8
 74
     0
 42
0.0000000001
 43
0.0000000001
 40
0.0
 40
0.0
 40
0.0
 40
1.0
 40
2.0
 40
3.0
 40
4.0
 40
5.0
 40
6.0
 40
6.0
 40
6.0
 10
-9.654237706534369
 20
75.85833403206883
 30
0.0
 10
-9.653957462239484
 20
75.95417530991926
 30
0.0
 10
-9.642448376393412
 20
76.14550745783612
 30
0.0
 10
-9.626635025380873
 20
76.33650848322847
 30
0.0
 10
-9.59928795480837
 20
76.52632616216334
 30
0.0
 10
-9.549473668244639
 20
76.7116877773899
 30
0.0
 10
-9.468584831132953
 20
76.88623777765892
 30
0.0
 10
-9.41072892688238
 20
76.96286982594847
 30
0.0
  0
ARC
  5
A5
330
1F
100
AcDbEntity
  8
Default
100
AcDbCircle
 10
-9.495073050615384
 20
75.77109459437395
 30
0.0
 40
0.2482428125219768
100
AcDbArc
 50
235.9648877670548
 51
254.0561959307388
  0
SPLINE
  5
A6
330
1F
100
AcDbEntity
  8
Default
100
AcDbSpline
210
0.0
220
0.0
230
1.0
 70
     8
 71
     3
 72
    11
 73
     7
 74
     0
 42
0.0000000001
 43
0.0000000001
 40
0.0000000000000001
 40
0.0000000000000001
 40
0.0000000000000001
 40
0.0000000000000001
 40
0.3781335773925084
 40
0.5640830755754028
 40
0.63666157123833
 40
0.705388731348004
 40
0.705388731348004
 40
0.705388731348004
 40
0.705388731348004
 10
-9.750257445694638
 20
76.24472133289359
 30
0.0
 10
-9.742291271232796
 20
76.11911026167269
 30
0.0
 10
-9.730397584679418
 20
75.93092736717117
 30
0.0
 10
-9.712414141304686
 20
75.72014394520392
 30
0.0
 10
-9.689495411932393
 20
75.61220837487966
 30
0.0
 10
-9.652211785141256
 20
75.57766736113592
 30
0.0
 10
-9.63401476444002
 20
75.56537708386915
 30
0.0
  0
SPLINE
  5
A7
330
1F
100
AcDbEntity
  8
Default
100
AcDbSpline
210
0.0
220
0.0
230
1.0
 70
    12
 71
     2
 72
     8
 73
     5
 74
     0
 42
0.0000000001
 43
0.0000000001
 40
-3.0
 40
-3.0
 40
-3.0
 40
-2.0
 40
-1.0
 40
0.0
 40
0.0
 40
0.0
 10
-9.77434627880434
 20
76.69288071871728
 30
0.0
 41
1.0
 10
-9.77167667008822
 20
76.65281127324272
 30
0.0
 41
1.0
 10
-9.766729024306636
 20
76.57264629400916
 30
0.0
 41
1.0
 10
-9.752799151934477
 20
76.28479909481621
 30
0.0
 41
1.0
 10
-9.750257445694638
 20
76.24472133289359
 30
0.0
 41
1.0
  0
SPLINE
  5
A8
330
1F
100
AcDbEntity
  8
Default
100
AcDbSpline
210
0.0
220
0.0
230
1.0
 70
     8
 71
     2
 72
    11
 73
     8
 74
     0
 42
0.0000000001
 43
0.0000000001
 40
0.0
 40
0.0
 40
0.0
 40
1.0
 40
2.0
 40
3.0
 40
4.0
 40
5.0
 40
6.0
 40
6.0
 40
6.0
 10
9.39034636872936
 20
77.26278057767135
 30
0.0
 10
9.455635267949054
 20
77.25033926638821
 30
0.0
 10
9.576793432968335
 20
77.19565814243666
 30
0.0
 10
9.681804019733908
 20
77.1141555788106
 30
0.0
 10
9.764857097527416
 20
77.01037267277181
 30
0.0
 10
9.821292236995452
 20
76.88997879327889
 30
0.0
 10
9.845877796858224
 20
76.75925099520751
 30
0.0
 10
9.841794295790484
 20
76.69288746699195
 30
0.0
  0
ARC
  5
A9
330
1F
100
AcDbEntity
  8
Default
100
AcDbCircle
 10
9.562503827815055
 20
75.77109459437395
 30
0.0
 40
0.2482428125219768
100
AcDbArc
 50
285.9438040692629
 51
304.0351122329456
  0
SPLINE
  5
AA
330
1F
100
AcDbEntity
  8
Default
100
AcDbSpline
210
0.0
220
0.0
230
1.0
 70
     8
 71
     3
 72
    11
 73
     7
 74
     0
 42
0.0000000001
 43
0.0000000001
 40
0.0000000000000001
 40
0.0000000000000001
 40
0.0000000000000001
 40
0.0000000000000001
 40
0.3781335773925084
 40
0.5640830755754028
 40
0.63666157123833
 40
0.705388731348004
 40
0.705388731348004
 40
0.705388731348004
 40
0.705388731348004
 10
9.81768822289431
 20
76.24472133289359
 30
0.0
 10
9.809722048432468
 20
76.11911026167269
 30
0.0
 10
9.79782836187909
 20
75.93092736717117
 30
0.0
 10
9.779844918504358
 20
75.72014394520392
 30
0.0
 10
9.756926189132065
 20
75.61220837487966
 30
0.0
 10
9.719642562340928
 20
75.57766736113592
 30
0.0
 10
9.701445541639691
 20
75.56537708386915
 30
0.0
  0
SPLINE
  5
AB
330
1F
100
AcDbEntity
  8
Default
100
AcDbSpline
210
0.0
220
0.0
230
1.0
 70
    12
 71
     2
 72
     8
 73
     5
 74
     0
 42
0.0000000001
 43
0.0000000001
 40
-3.0
 40
-3.0
 40
-3.0
 40
-2.0
 40
-1.0
 40
0.0
 40
0.0
 40
0.0
 10
9.84177705600401
 20
76.69288071871728
 30
0.0
 41
1.0
 10
9.839107447287892
 20
76.65281127324272
 30
0.0
 41
1.0
 10
9.834159801506308
 20
76.57264629400916
 30
0.0
 41
1.0
 10
9.820229929134149
 20
76.28479909481621
 30
0.0
 41
1.0
 10
9.81768822289431
 20
76.24472133289359
 30
0.0
 41
1.0
  0
SPLINE
  5
AC
330
1F
100
AcDbEntity
  8
MAKE2D VISIBLE LINES
100
AcDbSpline
210
0.0
220
0.0
230
1.0
 70
    12
 71
     2
 72
     6
 73
     3
 74
     0
 42
0.0000000001
 43
0.0000000001
 40
0.0
 40
0.0
 40
0.0
 40
1.460206311535241
 40
1.460206311535241
 40
1.460206311535241
 10
27.60057897819711
 20
11.59996261913329
 30
0.0
 41
1.0
 10
28.33068213396472
 20
11.59996262030742
 30
0.0
 41
0.999999999999991
 10
29.06078528973232
 20
11.59996242407034
 30
0.0
 41
1.0
  0
SPLINE
  5
AD
330
1F
100
AcDbEntity
  8
MAKE2D VISIBLE LINES
100
AcDbSpline
210
0.0
220
0.0
230
1.0
 70
    24
 71
     2
 72
     6
 73
     3
 74
     0
 42
0.0000000001
 43
0.0000000001
 40
0.0
 40
0.0
 40
0.0
 40
16.79543345617235
 40
16.79543345617235
 40
16.79543345617235
 10
45.9109428482363
 20
12.09792911716199
 30
0.0
 10
37.51322612015013
 20
12.09792911716199
 30
0.0
 10
29.11550939206396
 20
12.09792911716199
 30
0.0
  0
SPLINE
  5
AE
330
1F
100
AcDbEntity
  8
MAKE2D VISIBLE LINES
100
AcDbSpline
210
0.0
220
0.0
230
1.0
 70
    24
 71
     2
 72
     6
 73
     3
 74
     0
 42
0.0000000001
 43
0.0000000001
 40
0.0
 40
0.0
 40
0.0
 40
16.83855038982411
 40
16.83855038982411
 40
16.83855038982411
 10
29.08630643819006
 20
11.59792495740457
 30
0.0
 10
37.50558163310212
 20
11.59792495740457
 30
0.0
 10
45.92485682801417
 20
11.59792495740457
 30
0.0
  0
SPLINE
  5
AF
330
1F
100
AcDbEntity
  8
MAKE2D VISIBLE LINES
100
AcDbSpline
210
0.0
220
0.0
230
1.0
 70
    12
 71
     2
 72
     6
 73
     3
 74
     0
 42
0.0000000001
 43
0.0000000001
 40
0.0
 40
0.0
 40
0.0
 40
0.3834636067290872
 40
0.3834636067290872
 40
0.3834636067290872
 10
29.30839954291142
 20
11.8547821833071
 30
0.0
 41
1.0
 10
29.30392586674042
 20
12.09686688642781
 30
0.0
 41
0.7151443091044377
 10
29.06180216084972
 20
12.09792910546278
 30
0.0
 41
1.0
  0
SPLINE
  5
B0
330
1F
100
AcDbEntity
  8
MAKE2D VISIBLE LINES
100
AcDbSpline
210
0.0
220
0.0
230
1.0
 70
    12
 71
     2
 72
     6
 73
     3
 74
     0
 42
0.0000000001
 43
0.0000000001
 40
0.0
 40
0.0
 40
0.0
 40
1.403859247050119
 40
1.403859247050119
 40
1.403859247050119
 10
29.06180215563816
 20
12.09792910516262
 30
0.0
 41
1.0
 10
28.35987253211313
 20
12.09792930647501
 30
0.0
 41
0.9999999999999891
 10
27.65794290858807
 20
12.09792930159858
 30
0.0
 41
1.0
  0
SPLINE
  5
B1
330
1F
100
AcDbEntity
  8
MAKE2D VISIBLE LINES
100
AcDbSpline
210
0.0
220
0.0
230
1.0
 70
    12
 71
     2
 72
     6
 73
     3
 74
     0
 42
0.0000000001
 43
0.0000000001
 40
0.0
 40
0.0
 40
0.0
 40
0.3646706623648148
 40
0.3646706623648148
 40
0.3646706623648148
 10
29.08630778524345
 20
11.60139855082419
 30
0.0
 41
1.0
 10
29.30952755792999
 20
11.62453384806657
 30
0.0
 41
0.7410732163700272
 10
29.3084646329865
 20
11.84894681357278
 30
0.0
 41
1.0
  0
SPLINE
  5
B2
330
1F
100
AcDbEntity
  8
Default
100
AcDbSpline
210
0.0
220
0.0
230
1.0
 70
     8
 71
     3
 72
     8
 73
     4
 74
     0
 42
0.0000000001
 43
0.0000000001
 40
0.0
 40
0.0
 40
0.0
 40
0.0
 40
1.443706964781046
 40
1.443706964781046
 40
1.443706964781046
 40
1.443706964781046
 10
32.65126596871958
 20
29.44116502156676
 30
0.0
 10
32.20145598151937
 20
29.61221685870388
 30
0.0
 10
31.70076362198013
 20
29.80478201102119
 30
0.0
 10
31.25216279358462
 20
29.97898032426185
 30
0.0
  0
SPLINE
  5
B3
330
1F
100
AcDbEntity
  8
Default
100
AcDbSpline
210
0.0
220
0.0
230
1.0
 70
    24
 71
     2
 72
     6
 73
     3
 74
     0
 42
0.0000000001
 43
0.0000000001
 40
0.0
 40
0.0
 40
0.0
 40
1.315706620815528
 40
1.315706620815528
 40
1.315706620815528
 10
31.01279114295652
 20
29.00991131439052
 30
0.0
 10
31.62557990271954
 20
28.77061552189198
 30
0.0
 10
32.23836866248256
 20
28.53131972939343
 30
0.0
  0
SPLINE
  5
B4
330
1F
100
AcDbEntity
  8
Default
100
AcDbSpline
210
0.0
220
0.0
230
1.0
 70
    12
 71
     2
 72
     6
 73
     3
 74
     0
 42
0.0000000001
 43
0.0000000001
 40
0.0
 40
0.0
 40
0.0
 40
0.7816405396757449
 40
0.7816405396757449
 40
0.7816405396757449
 10
30.35066365828344
 20
31.24925462900681
 30
0.0
 41
1.0
 10
30.31725365076607
 20
30.85888345327455
 30
0.0
 41
0.996260045340734
 10
30.2171343370609
 20
30.48009329597402
 30
0.0
 41
1.0
  0
SPLINE
  5
B5
330
1F
100
AcDbEntity
  8
Default
100
AcDbSpline
210
0.0
220
0.0
230
1.0
 70
    12
 71
     2
 72
     6
 73
     3
 74
     0
 42
0.0000000001
 43
0.0000000001
 40
0.0
 40
0.0
 40
0.0
 40
0.1598633113070148
 40
0.1598633113070148
 40
0.1598633113070148
 10
30.36729596770658
 20
31.4081986573655
 30
0.0
 41
1.0
 10
30.35548484626941
 20
31.32909238033454
 30
0.0
 41
0.9990343967449803
 10
30.35066365828344
 20
31.24925462900681
 30
0.0
 41
1.0
  0
SPLINE
  5
B6
330
1F
100
AcDbEntity
  8
Default
100
AcDbSpline
210
0.0
220
0.0
230
1.0
 70
    12
 71
     2
 72
     6
 73
     3
 74
     0
 42
0.0000000001
 43
0.0000000001
 40
0.0
 40
0.0
 40
0.0
 40
2.061631574185771
 40
2.061631574185771
 40
2.061631574185771
 10
31.30929105580695
 20
30.21029201069962
 30
0.0
 41
1.0
 10
31.55304558163666
 20
31.21198045623869
 30
0.0
 41
0.9998484010904932
 10
31.76177496397914
 20
32.22154870838209
 30
0.0
 41
1.0
  0
ARC
  5
B7
330
1F
100
AcDbEntity
  8
Default
100
AcDbCircle
 10
27.10908608429298
 20
43.974597078749
 30
0.0
 40
0.1689744737258318
100
AcDbArc
 50
116.5741649610433
 51
135.8652056261011
  0
ARC
  5
B8
330
1F
100
AcDbEntity
  8
Default
100
AcDbCircle
 10
49.66741256840929
 20
-1.124120333551486
 30
0.0
 40
50.59488453986661
100
AcDbArc
 50
114.7800881090393
 51
116.5741649610439
  0
SPLINE
  5
B9
330
1F
100
AcDbEntity
  8
Default
100
AcDbSpline
210
0.0
220
0.0
230
1.0
 70
     8
 71
     5
 72
    12
 73
     6
 74
     0
 42
0.0000000001
 43
0.0000000001
 40
0.0
 40
0.0
 40
0.0
 40
0.0
 40
0.0
 40
0.0
 40
1.0
 40
1.0
 40
1.0
 40
1.0
 40
1.0
 40
1.0
 10
28.77270953366488
 20
44.93480149971147
 30
0.0
 10
28.7658395721139
 20
44.94501664518229
 30
0.0
 10
28.73889401450641
 20
44.97907768667314
 30
0.0
 10
28.58286079353014
 20
44.86816968627929
 30
0.0
 10
28.52203006431107
 20
44.84020955922372
 30
0.0
 10
28.46124574853756
 20
44.8121488925209
 30
0.0
  0
SPLINE
  5
BA
330
1F
100
AcDbEntity
  8
Default
100
AcDbSpline
210
0.0
220
0.0
230
1.0
 70
     8
 71
     2
 72
    11
 73
     8
 74
     0
 42
0.0000000001
 43
0.0000000001
 40
0.0
 40
0.0
 40
0.0
 40
1.0
 40
2.0
 40
3.0
 40
4.0
 40
5.0
 40
6.0
 40
6.0
 40
6.0
 10
31.76556855433428
 20
32.2402543724229
 30
0.0
 10
32.00532635915123
 20
33.33213142172744
 30
0.0
 10
32.12917399825791
 20
35.56441063586537
 30
0.0
 10
31.7152520483229
 20
37.76484255539171
 30
0.0
 10
31.07171851083895
 20
39.90185349793599
 30
0.0
 10
30.26507536116598
 20
41.97831483217508
 30
0.0
 10
29.41642618397812
 20
44.0629473128818
 30
0.0
 10
28.77270953366488
 20
44.93480149971147
 30
0.0
  0
SPLINE
  5
BB
330
1F
100
AcDbEntity
  8
Default
100
AcDbSpline
210
0.0
220
0.0
230
1.0
 70
     8
 71
     3
 72
     9
 73
     5
 74
     0
 42
0.0000000001
 43
0.0000000001
 40
0.0
 40
0.0
 40
0.0
 40
0.0
 40
0.3651881675984961
 40
0.369218707017257
 40
0.369218707017257
 40
0.369218707017257
 40
0.369218707017257
 10
30.55795992108851
 20
31.72048994015091
 30
0.0
 10
30.48955917207508
 20
31.61794093616647
 30
0.0
 10
30.42875977361254
 20
31.50872941704028
 30
0.0
 10
30.36687940488902
 20
31.40437938015915
 30
0.0
 10
30.36775123851785
 20
31.41053228419256
 30
0.0
  0
SPLINE
  5
BC
330
1F
100
AcDbEntity
  8
Default
100
AcDbSpline
210
0.0
220
0.0
230
1.0
 70
    12
 71
     2
 72
     6
 73
     3
 74
     0
 42
0.0000000001
 43
0.0000000001
 40
0.0
 40
0.0
 40
0.0
 40
0.6504522985104759
 40
0.6504522985104759
 40
0.6504522985104759
 10
30.88776551812903
 20
32.28511770133153
 30
0.0
 41
1.0
 10
30.73482097588382
 20
31.99619765948508
 30
0.0
 41
0.9991283073103383
 10
30.55795992108851
 20
31.72048994015091
 30
0.0
 41
1.0
  0
SPLINE
  5
BD
330
1F
100
AcDbEntity
  8
Default
100
AcDbSpline
210
0.0
220
0.0
230
1.0
 70
     8
 71
     3
 72
    11
 73
     7
 74
     0
 42
0.0000000001
 43
0.0000000001
 40
0.0
 40
0.0
 40
0.0
 40
0.0
 40
0.2874736741838422
 40
0.6007707123945327
 40
1.295211947608686
 40
2.682234006193673
 40
2.682234006193673
 40
2.682234006193673
 40
2.682234006193673
 10
31.68677988730924
 20
34.82966666809357
 30
0.0
 10
31.67825760250503
 20
34.73421433317948
 30
0.0
 10
31.65523700627097
 20
34.53521213001802
 30
0.0
 10
31.5791116768596
 20
34.1100365401976
 30
0.0
 10
31.37598051816443
 20
33.33693788668363
 30
0.0
 10
31.10251539375587
 20
32.69603133034649
 30
0.0
 10
30.88776551812903
 20
32.28511770133153
 30
0.0
  0
SPLINE
  5
BE
330
1F
100
AcDbEntity
  8
Default
100
AcDbSpline
210
0.0
220
0.0
230
1.0
 70
    12
 71
     2
 72
     6
 73
     3
 74
     0
 42
0.0000000001
 43
0.0000000001
 40
0.0
 40
0.0
 40
0.0
 40
0.4616602041699219
 40
0.4616602041699219
 40
0.4616602041699219
 10
31.70697169281583
 20
35.2907092528845
 30
0.0
 41
1.0
 10
31.70789959411414
 20
35.05970516233828
 30
0.0
 41
0.9988585240063492
 10
31.68677988730924
 20
34.82966666809357
 30
0.0
 41
1.0
  0
SPLINE
  5
BF
330
1F
100
AcDbEntity
  8
Default
100
AcDbSpline
210
0.0
220
0.0
230
1.0
 70
    12
 71
     3
 72
    12
 73
     8
 74
     0
 42
0.0000000001
 43
0.0000000001
 40
-0.9785015012744535
 40
-0.9785015012744535
 40
-0.9785015012744535
 40
-0.9785015012744535
 40
-0.4942537595695717
 40
-0.4942537595695717
 40
-0.2506663683008745
 40
-0.2506663683008745
 40
0.0
 40
0.0
 40
0.0
 40
0.0
 10
31.05209022065279
 20
38.99945507210259
 30
0.0
 41
1.0
 10
31.27772493810626
 20
38.23964421937769
 30
0.0
 41
1.0
 10
31.43988694937487
 20
37.59961073783968
 30
0.0
 41
1.0
 10
31.59018212756826
 20
36.75873211783544
 30
0.0
 41
1.0
 10
31.6289897429908
 20
36.50060637748375
 30
0.0
 41
1.0
 10
31.69860440987576
 20
35.77492604386281
 30
0.0
 41
1.0
 10
31.70585898971957
 20
35.48953604493609
 30
0.0
 41
1.0
 10
31.70697169281583
 20
35.2907092528845
 30
0.0
 41
1.0
  0
SPLINE
  5
C0
330
1F
100
AcDbEntity
  8
Default
100
AcDbSpline
210
0.0
220
0.0
230
1.0
 70
    12
 71
     3
 72
    30
 73
    26
 74
     0
 42
0.0000000001
 43
0.0000000001
 40
0.0
 40
0.0
 40
0.0
 40
0.0
 40
0.998777893850345
 40
2.039580217844248
 40
4.189912437327197
 40
6.986695890956174
 40
11.26981331091288
 40
11.26981331091288
 40
11.26981331091288
 40
11.3042122140525
 40
11.3042122140525
 40
11.3042122140525
 40
11.8678701670312
 40
12.41264512907092
 40
13.13074674650946
 40
13.16058978273658
 40
13.19762092784838
 40
13.24788819881942
 40
13.30844704110376
 40
13.35134589188302
 40
13.42219038585663
 40
13.76419401457089
 40
14.4210863406999
 40
15.94007407868409
 40
19.48616492399376
 40
19.48616492399376
 40
19.48616492399376
 40
19.48616492399376
 10
28.98861801610984
 20
33.14074100578809
 30
0.0
 41
1.0
 10
29.07030156451583
 20
33.46463298195847
 30
0.0
 41
1.0
 10
29.185702588499
 20
34.13331307493464
 30
0.0
 41
1.0
 10
29.29208990601116
 20
35.53039834806015
 30
0.0
 41
1.0
 10
29.08569305491321
 20
37.52531008452145
 30
0.0
 41
1.0
 10
28.24244655940176
 20
40.49087081790528
 30
0.0
 41
1.0
 10
27.47133087186525
 20
42.71889854503761
 30
0.0
 41
1.0
 10
26.98059356826532
 20
44.06052776856932
 30
0.0
 41
1.0
 10
26.97643392403262
 20
44.07193583364921
 30
0.0
 41
0.8934048983870025
 10
26.97912734098851
 20
44.08377610789061
 30
0.0
 41
0.8934048983870025
 10
26.9878125039707
 20
44.09226224558581
 30
0.0
 41
1.0
 10
27.15699769632961
 20
44.17392102895818
 30
0.0
 41
1.0
 10
27.49118493192739
 20
44.33172406709268
 30
0.0
 41
1.0
 10
28.04552014372736
 20
44.58318396321812
 30
0.0
 41
1.0
 10
28.43556241367337
 20
44.76698629668127
 30
0.0
 41
1.0
 10
28.67558237030423
 20
44.8705075714422
 30
0.0
 41
1.0
 10
28.71587033406057
 20
44.85210498860552
 30
0.0
 41
1.0
 10
28.75391471123665
 20
44.82513204492786
 30
0.0
 41
1.0
 10
28.78927427444115
 20
44.78565431458733
 30
0.0
 41
1.0
 10
28.82380907868325
 20
44.73953947498725
 30
0.0
 41
1.0
 10
28.8986315805232
 20
44.60707738537251
 30
0.0
 41
1.0
 10
29.06948722940128
 20
44.29409136810383
 30
0.0
 41
1.0
 10
29.43659534885064
 20
43.53906752912528
 30
0.0
 41
1.0
 10
30.16936547243459
 20
41.77701236396436
 30
0.0
 41
1.0
 10
30.70178201263793
 20
40.17332890593296
 30
0.0
 41
1.0
 10
31.05209022065279
 20
38.99945507210259
 30
0.0
 41
1.0
  0
SPLINE
  5
C1
330
1F
100
AcDbEntity
  8
Default
100
AcDbSpline
210
0.0
220
0.0
230
1.0
 70
    12
 71
     2
 72
     6
 73
     3
 74
     0
 42
0.0000000001
 43
0.0000000001
 40
0.0
 40
0.0
 40
0.0
 40
0.0168225849784347
 40
0.0168225849784347
 40
0.0168225849784347
 10
28.98930387388216
 20
33.12415213478656
 30
0.0
 41
1.0
 10
28.98657246349475
 20
33.13234781982977
 30
0.0
 41
0.9609513453654801
 10
28.98861801610984
 20
33.14074100578809
 30
0.0
 41
1.0
  0
SPLINE
  5
C2
330
1F
100
AcDbEntity
  8
Default
100
AcDbSpline
210
0.0
220
0.0
230
1.0
 70
    12
 71
     2
 72
     6
 73
     3
 74
     0
 42
0.0000000001
 43
0.0000000001
 40
-0.1016264246854027
 40
-0.1016264246854027
 40
-0.1016264246854027
 40
0.0
 40
0.0
 40
0.0
 10
29.05483505227929
 20
33.05282919303058
 30
0.0
 41
1.0
 10
29.00094849090183
 20
33.06908527422879
 30
0.0
 41
0.8603657572054948
 10
28.98930387388216
 20
33.12415213478656
 30
0.0
 41
1.0
  0
SPLINE
  5
C3
330
1F
100
AcDbEntity
  8
Default
100
AcDbSpline
210
0.0
220
0.0
230
1.0
 70
     8
 71
     3
 72
    11
 73
     7
 74
     0
 42
0.0000000001
 43
0.0000000001
 40
-1.932317162159845
 40
-1.932317162159845
 40
-1.932317162159845
 40
-1.932317162159845
 40
-1.114321231087402
 40
-0.6074116793840068
 40
-0.2699890469078568
 40
0.0000000000000001
 40
0.0000000000000001
 40
0.0000000000000001
 40
0.0000000000000001
 10
30.4300864353855
 20
31.84982121047063
 30
0.0
 10
30.39006988490429
 20
32.12013889151886
 30
0.0
 10
30.15859010077183
 20
32.52806544103305
 30
0.0
 10
29.66619609907958
 20
32.80190540281527
 30
0.0
 10
29.33321343933297
 20
32.9587137452318
 30
0.0
 10
29.14107449497685
 20
33.0288178909997
 30
0.0
 10
29.05483505227929
 20
33.05282919303058
 30
0.0
  0
ARC
  5
C4
330
1F
100
AcDbEntity
  8
Default
100
AcDbCircle
 10
29.65726917616034
 20
31.73541700003715
 30
0.0
 40
0.7812392972202519
100
AcDbArc
 50
335.4266311420732
 51
8.420640287721612
  0
SPLINE
  5
C5
330
1F
100
AcDbEntity
  8
MAKE2D VISIBLE LINES
100
AcDbSpline
210
0.0
220
0.0
230
1.0
 70
    12
 71
     2
 72
     8
 73
     5
 74
     0
 42
0.0000000001
 43
0.0000000001
 40
0.0
 40
0.0
 40
0.0
 40
0.5605711386892483
 40
0.5605711386892483
 40
1.125284724561671
 40
1.125284724561671
 40
1.125284724561671
 10
30.21554737601976
 20
30.46491922835217
 30
0.0
 41
1.0
 10
30.49050295415853
 20
30.41007261177873
 30
0.0
 41
0.9995454162833313
 10
30.76165121488619
 20
30.33875455395718
 30
0.0
 41
1.0
 10
31.03682119309468
 20
30.27508965966976
 30
0.0
 41
0.9995639637041813
 10
31.30775322874841
 20
30.19529261881969
 30
0.0
 41
1.0
  0
SPLINE
  5
C6
330
1F
100
AcDbEntity
  8
MAKE2D VISIBLE LINES
100
AcDbSpline
210
0.0
220
0.0
230
1.0
 70
     8
 71
     3
 72
    12
 73
     8
 74
     0
 42
0.0000000001
 43
0.0000000001
 40
-30.71228672741064
 40
-30.71228672741064
 40
-30.71228672741064
 40
-30.71228672741064
 40
-15.83661619618178
 40
-9.051852068190692
 40
-6.109599801964782
 40
-4.976244890207441
 40
0.0
 40
0.0
 40
0.0
 40
0.0
 10
25.83194219871558
 20
0.1630389664551423
 30
0.0
 10
25.83287364344186
 20
5.121522896155619
 30
0.0
 10
26.35355252842402
 20
12.34177915028427
 30
0.0
 10
27.79904790807632
 20
20.41875780427191
 30
0.0
 10
28.60558546034663
 20
23.94831483947106
 30
0.0
 10
29.32513063357263
 20
26.87849394652661
 30
0.0
 10
29.82129425039435
 20
28.85371493076787
 30
0.0
 10
30.21554737601976
 20
30.46491922835217
 30
0.0
  0
SPLINE
  5
C7
330
1F
100
AcDbEntity
  8
MAKE2D VISIBLE LINES
100
AcDbSpline
210
0.0
220
0.0
230
1.0
 70
    24
 71
     2
 72
     6
 73
     3
 74
     0
 42
0.0000000001
 43
0.0000000001
 40
0.0
 40
0.0
 40
0.0
 40
0.0839130223841449
 40
0.0839130223841449
 40
0.0839130223841449
 10
25.83171231275008
 20
0.163038979174936
 30
0.0
 10
25.83144111093975
 20
0.121083344499858
 30
0.0
 10
25.83116990912941
 20
0.07912770982478
 30
0.0
  0
SPLINE
  5
C8
330
1F
100
AcDbEntity
  8
MAKE2D VISIBLE LINES
100
AcDbSpline
210
0.0
220
0.0
230
1.0
 70
    12
 71
     2
 72
     8
 73
     5
 74
     0
 42
0.0000000001
 43
0.0000000001
 40
-1.125253641403958
 40
-1.125253641403958
 40
-1.125253641403958
 40
-0.5626268207019698
 40
-0.5626268207019698
 40
0.0
 40
0.0
 40
0.0
 10
26.95668881028071
 20
0.1557671153340843
 30
0.0
 41
1.0
 10
26.67562923637918
 20
0.1693144961881767
 30
0.0
 41
0.9996137062945417
 10
26.39425111712698
 20
0.1672241335824227
 30
0.0
 41
1.0
 10
26.112923533942
 20
0.1729518337321862
 30
0.0
 41
0.9996137062945415
 10
25.83171231275008
 20
0.163038979174936
 30
0.0
 41
1.0
  0
SPLINE
  5
C9
330
1F
100
AcDbEntity
  8
MAKE2D VISIBLE LINES
100
AcDbSpline
210
0.0
220
0.0
230
1.0
 70
    24
 71
     2
 72
     6
 73
     3
 74
     0
 42
0.0000000001
 43
0.0000000001
 40
0.0
 40
0.0
 40
0.0
 40
0.0839130223841467
 40
0.0839130223841467
 40
0.0839130223841467
 10
26.95614640666004
 20
0.0718558459839276
 30
0.0
 10
26.95641760847037
 20
0.1138114806590059
 30
0.0
 10
26.95668881028071
 20
0.1557671153340843
 30
0.0
  0
SPLINE
  5
CA
330
1F
100
AcDbEntity
  8
MAKE2D VISIBLE LINES
100
AcDbSpline
210
0.0
220
0.0
230
1.0
 70
    12
 71
     2
 72
     6
 73
     3
 74
     0
 42
0.0000000001
 43
0.0000000001
 40
0.0
 40
0.0
 40
0.0
 40
0.0904048108433017
 40
0.0904048108433017
 40
0.0904048108433017
 10
26.89959637963572
 20
0.0123486607531262
 30
0.0
 41
1.0
 10
26.95578016431178
 20
0.0155803844981987
 30
0.0
 41
0.7293564259667261
 10
26.95614640666004
 20
0.0718558459839276
 30
0.0
 41
1.0
  0
SPLINE
  5
CB
330
1F
100
AcDbEntity
  8
MAKE2D VISIBLE LINES
100
AcDbSpline
210
0.0
220
0.0
230
1.0
 70
    12
 71
     2
 72
     9
 73
     6
 74
     0
 42
0.0000000001
 43
0.0000000001
 40
-0.0904048108433102
 40
-0.0904048108433102
 40
-0.0904048108433102
 40
0.0
 40
0.0
 40
1.0
 40
2.0
 40
2.0
 40
2.0
 10
25.83116990912941
 20
0.07912770982478
 30
0.0
 41
1.0
 10
25.83080862052777
 20
0.0228522163179524
 30
0.0
 41
0.7293564259666196
 10
25.88694593222274
 20
0.0188944474323449
 30
0.0
 41
1.0
 10
26.12065572018065
 20
0.0079817489089489
 30
0.0
 41
1.0
 10
26.66576504749924
 20
0.0044581545801625
 30
0.0
 41
1.0
 10
26.89959637963572
 20
0.0123486607531262
 30
0.0
 41
1.0
  0
SPLINE
  5
CC
330
1F
100
AcDbEntity
  8
MAKE2D VISIBLE LINES
100
AcDbSpline
210
0.0
220
0.0
230
1.0
 70
    15
 71
     2
 72
    19
 73
    16
 74
     0
 42
0.0000000001
 43
0.0000000001
 40
-3.434306260239156
 40
-3.434306260239156
 40
-3.434306260239156
 40
-2.911262487156899
 40
-2.911262487156899
 40
-2.348635666454915
 40
-2.348635666454915
 40
-2.264722644070767
 40
-2.264722644070767
 40
-2.174317833227452
 40
-2.174317833227452
 40
-1.174317833227452
 40
-0.1743178332274522
 40
-0.1743178332274522
 40
-0.0839130223841461
 40
-0.0839130223841461
 40
0.0
 40
0.0
 40
0.0
 10
47.36618966407319
 20
0.1751207553173426
 30
0.0
 41
1.0
 10
47.06509830900373
 20
0.1754686584539821
 30
0.0
 41
0.9999168191314707
 10
46.80368976933786
 20
0.1672919386781964
 30
0.0
 41
1.0
 10
46.52233117699151
 20
0.1633729946126753
 30
0.0
 41
0.9996137062945416
 10
46.24162500137832
 20
0.143826675717618
 30
0.0
 41
1.0
 10
46.24279210395697
 20
0.1018864002895576
 30
0.0
 41
1.0
 10
46.24395920653561
 20
0.0599461248614972
 30
0.0
 41
1.0
 10
46.2455271278925
 20
0.0036913177645949
 30
0.0
 41
0.7293564259666073
 10
46.30176711365506
 20
0.001660135764519
 30
0.0
 41
1.0
 10
46.53571362371764
 20
-0.0012351027283613
 30
0.0
 41
1.0
 10
47.08062339574705
 20
0.0139284982153119
 30
0.0
 41
1.0
 10
47.31404684689613
 20
0.0298295808841268
 30
0.0
 41
1.0
 10
47.37008683865422
 20
0.0349852595632894
 30
0.0
 41
0.7293564259668062
 10
47.36852386923047
 20
0.0912402044612239
 30
0.0
 41
1.0
 10
47.36735676665183
 20
0.1331804798892833
 30
0.0
 41
1.0
 10
47.36618966407319
 20
0.1751207553173426
 30
0.0
 41
1.0
  0
SPLINE
  5
CD
330
1F
100
AcDbEntity
  8
MAKE2D VISIBLE LINES
100
AcDbSpline
210
0.0
220
0.0
230
1.0
 70
    24
 71
     2
 72
     6
 73
     3
 74
     0
 42
0.0000000001
 43
0.0000000001
 40
-29.58843151096515
 40
-29.58843151096515
 40
-29.58843151096515
 40
0.0
 40
0.0
 40
0.0
 10
46.54510129043666
 20
29.75215740628839
 30
0.0
 10
46.95663139307462
 20
14.96366651660017
 30
0.0
 10
47.36816149571258
 20
0.1751756269119491
 30
0.0
  0
SPLINE
  5
CE
330
1F
100
AcDbEntity
  8
MAKE2D VISIBLE LINES
100
AcDbSpline
210
0.0
220
0.0
230
1.0
 70
    12
 71
     3
 72
    10
 73
     6
 74
     0
 42
0.0000000001
 43
0.0000000001
 40
0.0
 40
0.0
 40
0.0
 40
0.0
 40
0.538468863386672
 40
0.538468863386672
 40
1.094042527383084
 40
1.094042527383084
 40
1.094042527383084
 40
1.094042527383084
 10
45.96543408672549
 20
30.36124237254337
 30
0.0
 41
1.0
 10
46.1631665807992
 20
30.36674469277462
 30
0.0
 41
1.0
 10
46.31599028207501
 20
30.25940900121135
 30
0.0
 41
1.0
 10
46.49749813348819
 20
30.02865174843752
 30
0.0
 41
1.0
 10
46.5413545887352
 20
29.88679655812852
 30
0.0
 41
1.0
 10
46.54510129043666
 20
29.75215740628839
 30
0.0
 41
1.0
  0
SPLINE
  5
CF
330
1F
100
AcDbEntity
  8
MAKE2D VISIBLE LINES
100
AcDbSpline
210
0.0
220
0.0
230
1.0
 70
    12
 71
     3
 72
    10
 73
     6
 74
     0
 42
0.0000000001
 43
0.0000000001
 40
-1.094049485730651
 40
-1.094049485730651
 40
-1.094049485730651
 40
-1.094049485730651
 40
-0.5380030632188038
 40
-0.5380030632188038
 40
0.0
 40
0.0
 40
0.0
 40
0.0
 10
45.42053662774181
 20
29.7208633266887
 30
0.0
 41
1.0
 10
45.4167866359374
 20
29.85562070963117
 30
0.0
 41
1.0
 10
45.45275507662384
 20
29.99985022290302
 30
0.0
 41
1.0
 10
45.62136049751625
 20
30.24029249045535
 30
0.0
 41
1.0
 10
45.76789199812929
 20
30.3557451002976
 30
0.0
 41
1.0
 10
45.96543408672549
 20
30.36124237254337
 30
0.0
 41
1.0
  0
SPLINE
  5
D0
330
1F
100
AcDbEntity
  8
MAKE2D VISIBLE LINES
100
AcDbSpline
210
0.0
220
0.0
230
1.0
 70
    24
 71
     2
 72
     6
 73
     3
 74
     0
 42
0.0000000001
 43
0.0000000001
 40
-29.58843151096517
 40
-29.58843151096517
 40
-29.58843151096517
 40
0.0
 40
0.0
 40
0.0
 10
46.24359683301773
 20
0.1438815473122257
 30
0.0
 10
45.83206673037977
 20
14.93237243700046
 30
0.0
 10
45.42053662774181
 20
29.7208633266887
 30
0.0
  0
SPLINE
  5
D1
330
1F
100
AcDbEntity
  8
MAKE2D VISIBLE LINES
100
AcDbSpline
210
0.0
220
0.0
230
1.0
 70
     8
 71
     3
 72
    14
 73
    10
 74
     0
 42
0.0000000001
 43
0.0000000001
 40
-29.61249063286822
 40
-29.61249063286822
 40
-29.61249063286822
 40
-29.61249063286822
 40
-25.46929908936273
 40
-24.22812600268948
 40
-21.17696221667365
 40
-14.39108908695449
 40
-7.417604482609248
 40
-3.371644092444409
 40
0.0
 40
0.0
 40
0.0
 40
0.0
 10
31.30929105580695
 20
30.21029201069962
 30
0.0
 10
30.77941951040474
 20
28.04629582848626
 30
0.0
 10
30.34179226633911
 20
26.30563279703358
 30
0.0
 10
29.67280468605551
 20
23.57457301720421
 30
0.0
 10
28.85579508676193
 20
19.97290166480668
 30
0.0
 10
27.88417344423682
 20
14.45110317200315
 30
0.0
 10
27.25220031372152
 20
8.546228758409622
 30
0.0
 10
26.99778117229596
 20
3.755059714642098
 30
0.0
 10
26.95710128791005
 20
1.282466496560848
 30
0.0
 10
26.95694204897866
 20
0.1586030010180774
 30
0.0
  0
SPLINE
  5
D2
330
1F
100
AcDbEntity
  8
MAKE2D VISIBLE LINES
100
AcDbSpline
210
0.0
220
0.0
230
1.0
 70
    12
 71
     2
 72
     6
 73
     3
 74
     0
 42
0.0000000001
 43
0.0000000001
 40
0.0
 40
0.0
 40
0.0
 40
0.4478187281420624
 40
0.4478187281420624
 40
0.4478187281420624
 10
9.502776412351878
 20
30.2284667469701
 30
0.0
 41
1.0
 10
9.279966574591564
 20
30.19966889329176
 30
0.0
 41
0.9949746801232122
 10
9.055886349749017
 20
30.21584273061535
 30
0.0
 41
1.0
  0
SPLINE
  5
D3
330
1F
100
AcDbEntity
  8
MAKE2D VISIBLE LINES
100
AcDbSpline
210
0.0
220
0.0
230
1.0
 70
    12
 71
     2
 72
    16
 73
    13
 74
     0
 42
0.0000000001
 43
0.0000000001
 40
0.0
 40
0.0
 40
0.0
 40
0.0256193606518451
 40
0.0256193606518451
 40
0.0597676870129098
 40
0.0597676870129098
 40
0.1098208004726134
 40
0.1098208004726134
 40
0.1778550053785159
 40
0.1778550053785159
 40
0.2715304102713095
 40
0.2715304102713095
 40
0.3521808302996111
 40
0.3521808302996111
 40
0.3521808302996111
 10
9.811931029300695
 20
30.35728179991154
 30
0.0
 41
1.0
 10
9.813247443378197
 20
30.34399292311947
 30
0.0
 41
0.9399736737492735
 10
9.805732101582251
 20
30.33295449795514
 30
0.0
 41
1.0
 10
9.795997291857857
 20
30.31866790373563
 30
0.0
 41
0.9815532607704681
 10
9.781612054687212
 20
30.30907946036317
 30
0.0
 41
1.0
 10
9.760884950381486
 20
30.29489584533984
 30
0.0
 41
0.9946970531954401
 10
9.737694289394238
 20
30.28525317812561
 30
0.0
 41
1.0
 10
9.706326387368582
 20
30.27197802797654
 30
0.0
 41
0.99805299216939
 10
9.673549779459588
 20
30.26271148261427
 30
0.0
 41
1.0
 10
9.628470604149538
 20
30.2498728808297
 30
0.0
 41
0.9989104880178763
 10
9.582390798798794
 20
30.2412930625767
 30
0.0
 41
1.0
 10
9.542753755917929
 20
30.23382376242164
 30
0.0
 41
0.9996482269205506
 10
9.502776412351878
 20
30.2284667469701
 30
0.0
 41
1.0
  0
SPLINE
  5
D4
330
1F
100
AcDbEntity
  8
MAKE2D VISIBLE LINES
100
AcDbSpline
210
0.0
220
0.0
230
1.0
 70
    12
 71
     2
 72
     6
 73
     3
 74
     0
 42
0.0000000001
 43
0.0000000001
 40
-30.14988097534397
 40
-30.14988097534397
 40
-30.14988097534397
 40
0.0
 40
0.0
 40
0.0
 10
10.276405344255
 20
0.1672518617340728
 30
0.0
 41
1.0
 10
10.04461599742736
 20
15.24041027006438
 30
0.0
 41
0.9999999999999979
 10
9.811931029300695
 20
30.35728179991154
 30
0.0
 41
1.0
  0
SPLINE
  5
D5
330
1F
100
AcDbEntity
  8
MAKE2D VISIBLE LINES
100
AcDbSpline
210
0.0
220
0.0
230
1.0
 70
    12
 71
     2
 72
     6
 73
     3
 74
     0
 42
0.0000000001
 43
0.0000000001
 40
0.0
 40
0.0
 40
0.0
 40
0.3581630989211183
 40
0.3581630989211183
 40
0.3581630989211183
 10
9.716152449777464
 20
0.0123486607531277
 30
0.0
 41
1.0
 10
9.537088559719534
 20
0.009794930179521
 30
0.0
 41
0.9999953951611111
 10
9.358012468142036
 20
0.0083280669113277
 30
0.0
 41
1.0
  0
SPLINE
  5
D6
330
1F
100
AcDbEntity
  8
MAKE2D VISIBLE LINES
100
AcDbSpline
210
0.0
220
0.0
230
1.0
 70
    12
 71
     2
 72
     6
 73
     3
 74
     0
 42
0.0000000001
 43
0.0000000001
 40
0.0
 40
0.0
 40
0.0
 40
0.5064059952311961
 40
0.5064059952311961
 40
0.5064059952311961
 10
10.22244650537904
 20
0.0225908653524315
 30
0.0
 41
1.0
 10
9.969362562920319
 20
0.0142314352179153
 30
0.0
 41
0.9999163867220515
 10
9.716152449777464
 20
0.0123486607531277
 30
0.0
 41
1.0
  0
SPLINE
  5
D7
330
1F
100
AcDbEntity
  8
MAKE2D VISIBLE LINES
100
AcDbSpline
210
0.0
220
0.0
230
1.0
 70
    12
 71
     2
 72
     6
 73
     3
 74
     0
 42
0.0000000001
 43
0.0000000001
 40
0.0
 40
0.0
 40
0.0
 40
0.0904184490542389
 40
0.0904184490542389
 40
0.0904184490542389
 10
10.27776551203658
 20
0.0833130276521606
 30
0.0
 41
1.0
 10
10.27839261898323
 20
0.0271834079923504
 30
0.0
 41
0.7320995322254283
 10
10.22244650537904
 20
0.0225908653524315
 30
0.0
 41
1.0
  0
SPLINE
  5
D8
330
1F
100
AcDbEntity
  8
MAKE2D VISIBLE LINES
100
AcDbSpline
210
0.0
220
0.0
230
1.0
 70
    24
 71
     2
 72
     6
 73
     3
 74
     0
 42
0.0000000001
 43
0.0000000001
 40
0.0
 40
0.0
 40
0.0
 40
0.0839190555371661
 40
0.0839190555371661
 40
0.0839190555371661
 10
10.2765020019861
 20
0.1672379977680588
 30
0.0
 10
10.27713375701134
 20
0.1252755127101097
 30
0.0
 10
10.27776551203658
 20
0.0833130276521606
 30
0.0
  0
SPLINE
  5
D9
330
1F
100
AcDbEntity
  8
MAKE2D VISIBLE LINES
100
AcDbSpline
210
0.0
220
0.0
230
1.0
 70
    24
 71
     2
 72
     6
 73
     3
 74
     0
 42
0.0000000001
 43
0.0000000001
 40
0.0
 40
0.0
 40
0.0
 40
0.8012062076846513
 40
0.8012062076846513
 40
0.8012062076846513
 10
9.475293872289964
 20
0.1549327197381241
 30
0.0
 10
9.875897937138031
 20
0.1610853587530914
 30
0.0
 10
10.2765020019861
 20
0.1672379977680588
 30
0.0
  0
SPLINE
  5
DA
330
1F
100
AcDbEntity
  8
MAKE2D VISIBLE LINES
100
AcDbSpline
210
0.0
220
0.0
230
1.0
 70
    24
 71
     2
 72
     6
 73
     3
 74
     0
 42
0.0000000001
 43
0.0000000001
 40
-0.0838826130654557
 40
-0.0838826130654557
 40
-0.0838826130654557
 40
0.0
 40
0.0
 40
0.0
 10
9.47628877552152
 20
0.0834144149642935
 30
0.0
 10
9.47570535829492
 20
0.1253531771140955
 30
0.0
 10
9.475121941068323
 20
0.1672919392638976
 30
0.0
  0
SPLINE
  5
DB
330
1F
100
AcDbEntity
  8
MAKE2D VISIBLE LINES
100
AcDbSpline
210
0.0
220
0.0
230
1.0
 70
    12
 71
     2
 72
     6
 73
     3
 74
     0
 42
0.0000000001
 43
0.0000000001
 40
-0.0905053209521182
 40
-0.0905053209521182
 40
-0.0905053209521182
 40
0.0
 40
0.0
 40
0.0
 10
9.421235769506275
 20
0.021343616095259
 30
0.0
 41
1.0
 10
9.47576967149774
 20
0.0284224218270832
 30
0.0
 41
0.7543480160102284
 10
9.47628877552152
 20
0.0834144149642935
 30
0.0
 41
1.0
  0
SPLINE
  5
DC
330
1F
100
AcDbEntity
  8
MAKE2D VISIBLE LINES
100
AcDbSpline
210
0.0
220
0.0
230
1.0
 70
    12
 71
     2
 72
    16
 73
    13
 74
     0
 42
0.0000000001
 43
0.0000000001
 40
-2.214773605981371
 40
-2.214773605981371
 40
-2.214773605981371
 40
-1.660484431630388
 40
-1.660484431630388
 40
-1.098538968595709
 40
-1.098538968595709
 40
-1.014656355530252
 40
-1.014656355530252
 40
-0.9241415837742845
 40
-0.9241415837742845
 40
-0.4681485405974217
 40
-0.4681485405974217
 40
0.0
 40
0.0
 40
0.0
 10
9.46558306176819
 20
0.1689878133418916
 30
0.0
 41
1.000000103610334
 10
9.188622626787678
 20
0.1820864738399861
 30
0.0
 41
0.9992871719574524
 10
8.911463380435176
 20
0.1742500452689888
 30
0.0
 41
1.000000103610334
 10
8.630293133044054
 20
0.1763851430366265
 30
0.0
 41
0.998868969273511
 10
8.350198263834471
 20
0.1517247099772598
 30
0.0
 41
1.0
 10
8.350797897452539
 20
0.1097483121652538
 30
0.0
 41
1.0
 10
8.351397531070607
 20
0.0677719143532478
 30
0.0
 41
1.0
 10
8.35353581818605
 20
0.012885688119276
 30
0.0
 41
0.7557362780887492
 10
8.408164921196214
 20
0.0071936935387414
 30
0.0
 41
1.0
 10
8.686682118548479
 20
-0.0027861609685559
 30
0.0
 41
0.9997341125134014
 10
8.91467571342552
 20
0.0016601357645164
 30
0.0
 41
1.0
 10
9.148794641373263
 20
0.0033116725472247
 30
0.0
 41
0.9996765963466815
 10
9.421235769506275
 20
0.021343616095259
 30
0.0
 41
1.0
  0
SPLINE
  5
DD
330
1F
100
AcDbEntity
  8
MAKE2D VISIBLE LINES
100
AcDbSpline
210
0.0
220
0.0
230
1.0
 70
    12
 71
     2
 72
     6
 73
     3
 74
     0
 42
0.0000000001
 43
0.0000000001
 40
0.0
 40
0.0
 40
0.0
 40
0.3581630989211183
 40
0.3581630989211183
 40
0.3581630989211183
 10
-9.716152449777464
 20
0.0123486607531277
 30
0.0
 41
1.0
 10
-9.537088559719534
 20
0.009794930179521
 30
0.0
 41
0.9999953951611111
 10
-9.358012468142036
 20
0.0083280669113277
 30
0.0
 41
1.0
  0
SPLINE
  5
DE
330
1F
100
AcDbEntity
  8
MAKE2D VISIBLE LINES
100
AcDbSpline
210
0.0
220
0.0
230
1.0
 70
    12
 71
     2
 72
     6
 73
     3
 74
     0
 42
0.0000000001
 43
0.0000000001
 40
0.0
 40
0.0
 40
0.0
 40
0.5064059952311961
 40
0.5064059952311961
 40
0.5064059952311961
 10
-10.22244650537904
 20
0.0225908653524315
 30
0.0
 41
1.0
 10
-9.969362562920319
 20
0.0142314352179153
 30
0.0
 41
0.9999163867220515
 10
-9.716152449777464
 20
0.0123486607531277
 30
0.0
 41
1.0
  0
SPLINE
  5
DF
330
1F
100
AcDbEntity
  8
MAKE2D VISIBLE LINES
100
AcDbSpline
210
0.0
220
0.0
230
1.0
 70
    12
 71
     2
 72
     6
 73
     3
 74
     0
 42
0.0000000001
 43
0.0000000001
 40
0.0
 40
0.0
 40
0.0
 40
0.0904184490542389
 40
0.0904184490542389
 40
0.0904184490542389
 10
-10.27776551203658
 20
0.0833130276521606
 30
0.0
 41
1.0
 10
-10.27839261898323
 20
0.0271834079923504
 30
0.0
 41
0.7320995322254283
 10
-10.22244650537904
 20
0.0225908653524315
 30
0.0
 41
1.0
  0
SPLINE
  5
E0
330
1F
100
AcDbEntity
  8
MAKE2D VISIBLE LINES
100
AcDbSpline
210
0.0
220
0.0
230
1.0
 70
    24
 71
     2
 72
     6
 73
     3
 74
     0
 42
0.0000000001
 43
0.0000000001
 40
0.0
 40
0.0
 40
0.0
 40
0.0839190555371661
 40
0.0839190555371661
 40
0.0839190555371661
 10
-10.2765020019861
 20
0.1672379977680588
 30
0.0
 10
-10.27713375701134
 20
0.1252755127101097
 30
0.0
 10
-10.27776551203658
 20
0.0833130276521606
 30
0.0
  0
SPLINE
  5
E1
330
1F
100
AcDbEntity
  8
MAKE2D VISIBLE LINES
100
AcDbSpline
210
0.0
220
0.0
230
1.0
 70
    24
 71
     2
 72
     6
 73
     3
 74
     0
 42
0.0000000001
 43
0.0000000001
 40
0.0
 40
0.0
 40
0.0
 40
0.8012062076846513
 40
0.8012062076846513
 40
0.8012062076846513
 10
-9.475293872289964
 20
0.1549327197381241
 30
0.0
 10
-9.875897937138031
 20
0.1610853587530914
 30
0.0
 10
-10.2765020019861
 20
0.1672379977680588
 30
0.0
  0
SPLINE
  5
E2
330
1F
100
AcDbEntity
  8
MAKE2D VISIBLE LINES
100
AcDbSpline
210
0.0
220
0.0
230
1.0
 70
    12
 71
     2
 72
     6
 73
     3
 74
     0
 42
0.0000000001
 43
0.0000000001
 40
0.0
 40
0.0
 40
0.0
 40
0.4478187281420624
 40
0.4478187281420624
 40
0.4478187281420624
 10
-9.502776412351878
 20
30.2284667469701
 30
0.0
 41
1.0
 10
-9.279966574591564
 20
30.19966889329176
 30
0.0
 41
0.9949746801232122
 10
-9.055886349749017
 20
30.21584273061535
 30
0.0
 41
1.0
  0
SPLINE
  5
E3
330
1F
100
AcDbEntity
  8
MAKE2D VISIBLE LINES
100
AcDbSpline
210
0.0
220
0.0
230
1.0
 70
    12
 71
     2
 72
    16
 73
    13
 74
     0
 42
0.0000000001
 43
0.0000000001
 40
0.0
 40
0.0
 40
0.0
 40
0.0256193606518451
 40
0.0256193606518451
 40
0.0597676870129098
 40
0.0597676870129098
 40
0.1098208004726134
 40
0.1098208004726134
 40
0.1778550053785159
 40
0.1778550053785159
 40
0.2715304102713095
 40
0.2715304102713095
 40
0.3521808302996111
 40
0.3521808302996111
 40
0.3521808302996111
 10
-9.811931029300695
 20
30.35728179991154
 30
0.0
 41
1.0
 10
-9.813247443378197
 20
30.34399292311947
 30
0.0
 41
0.9399736737492735
 10
-9.805732101582251
 20
30.33295449795514
 30
0.0
 41
1.0
 10
-9.795997291857857
 20
30.31866790373563
 30
0.0
 41
0.9815532607704681
 10
-9.781612054687212
 20
30.30907946036317
 30
0.0
 41
1.0
 10
-9.760884950381486
 20
30.29489584533984
 30
0.0
 41
0.9946970531954401
 10
-9.737694289394238
 20
30.28525317812561
 30
0.0
 41
1.0
 10
-9.706326387368582
 20
30.27197802797654
 30
0.0
 41
0.99805299216939
 10
-9.673549779459588
 20
30.26271148261427
 30
0.0
 41
1.0
 10
-9.628470604149538
 20
30.2498728808297
 30
0.0
 41
0.9989104880178763
 10
-9.582390798798794
 20
30.2412930625767
 30
0.0
 41
1.0
 10
-9.542753755917929
 20
30.23382376242164
 30
0.0
 41
0.9996482269205506
 10
-9.502776412351878
 20
30.2284667469701
 30
0.0
 41
1.0
  0
SPLINE
  5
E4
330
1F
100
AcDbEntity
  8
MAKE2D VISIBLE LINES
100
AcDbSpline
210
0.0
220
0.0
230
1.0
 70
    12
 71
     2
 72
     6
 73
     3
 74
     0
 42
0.0000000001
 43
0.0000000001
 40
-30.14988097534397
 40
-30.14988097534397
 40
-30.14988097534397
 40
0.0
 40
0.0
 40
0.0
 10
-10.276405344255
 20
0.1672518617340728
 30
0.0
 41
1.0
 10
-10.04461599742736
 20
15.24041027006438
 30
0.0
 41
0.9999999999999979
 10
-9.811931029300695
 20
30.35728179991154
 30
0.0
 41
1.0
  0
SPLINE
  5
E5
330
1F
100
AcDbEntity
  8
MAKE2D VISIBLE LINES
100
AcDbSpline
210
0.0
220
0.0
230
1.0
 70
    24
 71
     2
 72
     6
 73
     3
 74
     0
 42
0.0000000001
 43
0.0000000001
 40
-0.0838826130654557
 40
-0.0838826130654557
 40
-0.0838826130654557
 40
0.0
 40
0.0
 40
0.0
 10
-9.47628877552152
 20
0.0834144149642935
 30
0.0
 10
-9.47570535829492
 20
0.1253531771140955
 30
0.0
 10
-9.475121941068323
 20
0.1672919392638976
 30
0.0
  0
SPLINE
  5
E6
330
1F
100
AcDbEntity
  8
MAKE2D VISIBLE LINES
100
AcDbSpline
210
0.0
220
0.0
230
1.0
 70
    12
 71
     2
 72
     6
 73
     3
 74
     0
 42
0.0000000001
 43
0.0000000001
 40
-0.0905053209521182
 40
-0.0905053209521182
 40
-0.0905053209521182
 40
0.0
 40
0.0
 40
0.0
 10
-9.421235769506275
 20
0.021343616095259
 30
0.0
 41
1.0
 10
-9.47576967149774
 20
0.0284224218270832
 30
0.0
 41
0.7543480160102284
 10
-9.47628877552152
 20
0.0834144149642935
 30
0.0
 41
1.0
  0
SPLINE
  5
E7
330
1F
100
AcDbEntity
  8
MAKE2D VISIBLE LINES
100
AcDbSpline
210
0.0
220
0.0
230
1.0
 70
    12
 71
     2
 72
    16
 73
    13
 74
     0
 42
0.0000000001
 43
0.0000000001
 40
-2.214773605981371
 40
-2.214773605981371
 40
-2.214773605981371
 40
-1.660484431630388
 40
-1.660484431630388
 40
-1.098538968595709
 40
-1.098538968595709
 40
-1.014656355530252
 40
-1.014656355530252
 40
-0.9241415837742845
 40
-0.9241415837742845
 40
-0.4681485405974217
 40
-0.4681485405974217
 40
0.0
 40
0.0
 40
0.0
 10
-9.46558306176819
 20
0.1689878133418916
 30
0.0
 41
1.000000103610334
 10
-9.188622626787678
 20
0.1820864738399861
 30
0.0
 41
0.9992871719574524
 10
-8.911463380435176
 20
0.1742500452689888
 30
0.0
 41
1.000000103610334
 10
-8.630293133044054
 20
0.1763851430366265
 30
0.0
 41
0.998868969273511
 10
-8.350198263834471
 20
0.1517247099772598
 30
0.0
 41
1.0
 10
-8.350797897452539
 20
0.1097483121652538
 30
0.0
 41
1.0
 10
-8.351397531070607
 20
0.0677719143532478
 30
0.0
 41
1.0
 10
-8.35353581818605
 20
0.012885688119276
 30
0.0
 41
0.7557362780887492
 10
-8.408164921196214
 20
0.0071936935387414
 30
0.0
 41
1.0
 10
-8.686682118548479
 20
-0.0027861609685559
 30
0.0
 41
0.9997341125134014
 10
-8.91467571342552
 20
0.0016601357645164
 30
0.0
 41
1.0
 10
-9.148794641373263
 20
0.0033116725472247
 30
0.0
 41
0.9996765963466815
 10
-9.421235769506275
 20
0.021343616095259
 30
0.0
 41
1.0
  0
SPLINE
  5
E8
330
1F
100
AcDbEntity
  8
MAKE2D VISIBLE LINES
100
AcDbSpline
210
0.0
220
0.0
230
1.0
 70
    24
 71
     2
 72
     6
 73
     3
 74
     0
 42
0.0000000001
 43
0.0000000001
 40
0.0
 40
0.0
 40
0.0
 40
30.1899448026857
 40
30.1899448026857
 40
30.1899448026857
 10
-9.473897127164669
 20
0.1672749006677505
 30
0.0
 10
-9.263928694442063
 20
15.26078691923263
 30
0.0
 10
-9.053960261719457
 20
30.35429893779751
 30
0.0
  0
SPLINE
  5
E9
330
1F
100
AcDbEntity
  8
MAKE2D VISIBLE LINES
100
AcDbSpline
210
0.0
220
0.0
230
1.0
 70
     8
 71
     3
 72
    16
 73
    12
 74
     0
 42
0.0000000001
 43
0.0000000001
 40
0.0
 40
0.0
 40
0.0
 40
0.0
 40
0.0048943814559885
 40
0.3998145956759581
 40
0.6093643102546916
 40
0.827151623906513
 40
1.010536402295179
 40
1.125829395863809
 40
1.174340553723367
 40
1.191619902304069
 40
1.198485555255068
 40
1.198485555255068
 40
1.198485555255068
 40
1.198485555255068
 10
-8.197302399075408
 20
11.35183283752628
 30
0.0
 10
-8.192431819404778
 20
11.34723593911013
 30
0.0
 10
-8.269874932090804
 20
11.45407353627774
 30
0.0
 10
-8.409511280891511
 20
11.60031675481681
 30
0.0
 10
-8.521621846819237
 20
11.86485268802311
 30
0.0
 10
-8.429173630631329
 20
12.06441511302053
 30
0.0
 10
-8.32306275580143
 20
12.19185909092356
 30
0.0
 10
-8.246100410359556
 20
12.28341922949344
 30
0.0
 10
-8.204966260082056
 20
12.32465646422218
 30
0.0
 10
-8.187500066983802
 20
12.34302692253441
 30
0.0
 10
-8.181573009862309
 20
12.34769115528761
 30
0.0
 10
-8.17948768998879
 20
12.34893694599857
 30
0.0
  0
SPLINE
  5
EA
330
1F
100
AcDbEntity
  8
MAKE2D VISIBLE LINES
100
AcDbSpline
210
0.0
220
0.0
230
1.0
 70
     8
 71
     3
 72
    12
 73
     8
 74
     0
 42
0.0000000001
 43
0.0000000001
 40
0.0
 40
0.0
 40
0.0
 40
0.0
 40
0.1340381984017992
 40
0.26123221353169
 40
0.4613717576740069
 40
0.6425263264191151
 40
0.9012720204707741
 40
0.9012720204707741
 40
0.9012720204707741
 40
0.9012720204707741
 10
-9.070244703897686
 20
29.18369700464941
 30
0.0
 10
-9.10632393617778
 20
29.20887086373729
 30
0.0
 10
-9.172788674495674
 20
29.26911272664667
 30
0.0
 10
-9.270076555256242
 20
29.38260688380782
 30
0.0
 10
-9.341590031718866
 20
29.55287424454335
 30
0.0
 10
-9.24002450220043
 20
29.75503815205957
 30
0.0
 10
-9.12720801069273
 20
29.84700544031513
 30
0.0
 10
-9.060249395869977
 20
29.90220658557865
 30
0.0
  0
SPLINE
  5
EB
330
1F
100
AcDbEntity
  8
MAKE2D VISIBLE LINES
100
AcDbSpline
210
0.0
220
0.0
230
1.0
 70
    24
 71
     2
 72
     6
 73
     3
 74
     0
 42
0.0000000001
 43
0.0000000001
 40
0.0
 40
0.0
 40
0.0
 40
11.19858422692651
 40
11.19858422692651
 40
11.19858422692651
 10
-8.349005840446832
 20
0.1516384537606148
 30
0.0
 10
-8.271120663968123
 20
5.750388856410895
 30
0.0
 10
-8.193235487489414
 20
11.34913925906118
 30
0.0
  0
SPLINE
  5
EC
330
1F
100
AcDbEntity
  8
MAKE2D VISIBLE LINES
100
AcDbSpline
210
0.0
220
0.0
230
1.0
 70
    24
 71
     2
 72
     6
 73
     3
 74
     0
 42
0.0000000001
 43
0.0000000001
 40
0.0
 40
0.0
 40
0.0
 40
16.76904379744363
 40
16.76904379744363
 40
16.76904379744363
 10
-8.179327161566388
 20
12.34893471286017
 30
0.0
 10
-8.062699924669536
 20
20.7326454400835
 30
0.0
 10
-7.946072687772684
 20
29.11635616730683
 30
0.0
  0
SPLINE
  5
ED
330
1F
100
AcDbEntity
  8
MAKE2D VISIBLE LINES
100
AcDbSpline
210
0.0
220
0.0
230
1.0
 70
     8
 71
     3
 72
    13
 73
     9
 74
     0
 42
0.0000000001
 43
0.0000000001
 40
0.0
 40
0.0
 40
0.0
 40
0.0
 40
0.2067584192797316
 40
0.4192453923779486
 40
0.865275026023634
 40
1.203943889513886
 40
1.700608404510488
 40
3.24129182343059
 40
3.24129182343059
 40
3.24129182343059
 40
3.24129182343059
 10
-9.715595105444333
 20
81.65770515434426
 30
0.0
 10
-9.644028518648474
 20
81.65720638854624
 30
0.0
 10
-9.50895369293662
 20
81.63277745981023
 30
0.0
 10
-9.248326623133204
 20
81.48342998410271
 30
0.0
 10
-9.093614992777564
 20
81.17674133121345
 30
0.0
 10
-9.01265249289589
 20
80.75809775861639
 30
0.0
 10
-8.90485195595666
 20
79.97265380959735
 30
0.0
 10
-8.855942054227839
 20
79.29529198629228
 30
0.0
 10
-8.818188156890518
 20
78.78308472774023
 30
0.0
  0
SPLINE
  5
EE
330
1F
100
AcDbEntity
  8
MAKE2D VISIBLE LINES
100
AcDbSpline
210
0.0
220
0.0
230
1.0
 70
    12
 71
     2
 72
     6
 73
     3
 74
     0
 42
0.0000000001
 43
0.0000000001
 40
-0.8818383843788322
 40
-0.8818383843788322
 40
-0.8818383843788322
 40
0.0
 40
0.0
 40
0.0
 10
-10.27767417422364
 20
81.09582292040682
 30
0.0
 41
1.0
 10
-10.27724210137023
 20
81.65657522209911
 30
0.0
 41
0.7082238011118341
 10
-9.715595105444333
 20
81.65770515434426
 30
0.0
 41
1.0
  0
SPLINE
  5
EF
330
1F
100
AcDbEntity
  8
MAKE2D VISIBLE LINES
100
AcDbSpline
210
0.0
220
0.0
230
1.0
 70
    12
 71
     2
 72
     8
 73
     5
 74
     0
 42
0.0000000001
 43
0.0000000001
 40
0.0
 40
0.0
 40
0.0
 40
0.3670684445243085
 40
0.3670684445243085
 40
0.3678000097614414
 40
0.3678000097614414
 40
0.3678000097614414
 10
-10.16201023225639
 20
80.75352118396879
 30
0.0
 41
1.0
 10
-10.27757895405363
 20
80.9047550118247
 30
0.0
 41
0.9472483774171215
 10
-10.27757790779869
 20
81.09509103086656
 30
0.0
 41
1.0
 10
-10.27757790779869
 20
81.0954568135367
 30
0.0
 41
0.9999997886178166
 10
-10.27767417422364
 20
81.09582292040682
 30
0.0
 41
1.0
  0
SPLINE
  5
F0
330
1F
100
AcDbEntity
  8
MAKE2D VISIBLE LINES
100
AcDbSpline
210
0.0
220
0.0
230
1.0
 70
    12
 71
     2
 72
     6
 73
     3
 74
     0
 42
0.0000000001
 43
0.0000000001
 40
0.0
 40
0.0
 40
0.0
 40
0.1535129193051557
 40
0.1535129193051557
 40
0.1535129193051557
 10
8.97068717137463
 20
80.40988096307395
 30
0.0
 41
1.0
 10
8.96062558575454
 20
80.33378580295921
 30
0.0
 41
0.9999802943697026
 10
8.951520195976716
 20
80.25757031388335
 30
0.0
 41
1.0
  0
SPLINE
  5
F1
330
1F
100
AcDbEntity
  8
MAKE2D VISIBLE LINES
100
AcDbSpline
210
0.0
220
0.0
230
1.0
 70
    12
 71
     2
 72
     6
 73
     3
 74
     0
 42
0.0000000001
 43
0.0000000001
 40
0.0
 40
0.0
 40
0.0
 40
1.671523865440103
 40
1.671523865440103
 40
1.671523865440103
 10
7.336886142953337
 20
79.32946025911464
 30
0.0
 41
1.0
 10
8.133029843528428
 20
79.58485926453825
 30
0.0
 41
0.9993826318049557
 10
8.909273108283013
 20
79.89553568440287
 30
0.0
 41
1.0
  0
SPLINE
  5
F2
330
1F
100
AcDbEntity
  8
MAKE2D VISIBLE LINES
100
AcDbSpline
210
0.0
220
0.0
230
1.0
 70
    12
 71
     2
 72
     6
 73
     3
 74
     0
 42
0.0000000001
 43
0.0000000001
 40
0.0
 40
0.0
 40
0.0
 40
2.637119918663169
 40
2.637119918663169
 40
2.637119918663169
 10
8.972404681379107
 20
80.45888212121402
 30
0.0
 41
1.0
 10
7.752655992797135
 20
79.95437738041034
 30
0.0
 41
0.9984022397453695
 10
6.483772193839568
 20
79.59072122202191
 30
0.0
 41
1.0
  0
SPLINE
  5
F3
330
1F
100
AcDbEntity
  8
MAKE2D VISIBLE LINES
100
AcDbSpline
210
0.0
220
0.0
230
1.0
 70
    12
 71
     2
 72
     6
 73
     3
 74
     0
 42
0.0000000001
 43
0.0000000001
 40
0.0
 40
0.0
 40
0.0
 40
0.0277033917528687
 40
0.0277033917528687
 40
0.0277033917528687
 10
8.971313860392135
 20
80.437261360628
 30
0.0
 41
1.0
 10
8.97088041011172
 20
80.42341627826808
 30
0.0
 41
0.9999816049464368
 10
8.970614942138589
 20
80.40956695657158
 30
0.0
 41
1.0
  0
SPLINE
  5
F4
330
1F
100
AcDbEntity
  8
MAKE2D VISIBLE LINES
100
AcDbSpline
210
0.0
220
0.0
230
1.0
 70
     8
 71
     3
 72
    12
 73
     8
 74
     0
 42
0.0000000001
 43
0.0000000001
 40
0.0
 40
0.0
 40
0.0
 40
0.0
 40
1.802513261316641
 40
2.830644998100385
 40
3.638444201131116
 40
3.913925955063766
 40
4.09105482492869
 40
4.09105482492869
 40
4.09105482492869
 40
4.09105482492869
 10
9.81550094831196
 20
76.73978467613108
 30
0.0
 10
9.853863955744753
 20
77.33938145341443
 30
0.0
 10
9.907590900917674
 20
78.28146676099374
 30
0.0
 10
9.99791810960164
 20
79.49089638939417
 30
0.0
 10
10.06803643508468
 20
80.19139175155992
 30
0.0
 10
10.1294484198098
 20
80.60707295024486
 30
0.0
 10
10.15990536532273
 20
80.7550025930238
 30
0.0
 10
10.177285360678
 20
80.81146072673957
 30
0.0
  0
SPLINE
  5
F5
330
1F
100
AcDbEntity
  8
MAKE2D VISIBLE LINES
100
AcDbSpline
210
0.0
220
0.0
230
1.0
 70
     8
 71
     3
 72
    13
 73
     9
 74
     0
 42
0.0000000001
 43
0.0000000001
 40
0.0
 40
0.0
 40
0.0
 40
0.0
 40
0.2067584192797316
 40
0.4192453923779486
 40
0.865275026023634
 40
1.203943889513886
 40
1.700608404510488
 40
3.24129182343059
 40
3.24129182343059
 40
3.24129182343059
 40
3.24129182343059
 10
9.715595105444333
 20
81.65770515434426
 30
0.0
 10
9.644028518648474
 20
81.65720638854624
 30
0.0
 10
9.50895369293662
 20
81.63277745981023
 30
0.0
 10
9.248326623133204
 20
81.48342998410271
 30
0.0
 10
9.093614992777564
 20
81.17674133121345
 30
0.0
 10
9.01265249289589
 20
80.75809775861639
 30
0.0
 10
8.90485195595666
 20
79.97265380959735
 30
0.0
 10
8.855942054227839
 20
79.29529198629228
 30
0.0
 10
8.818188156890518
 20
78.78308472774023
 30
0.0
  0
SPLINE
  5
F6
330
1F
100
AcDbEntity
  8
MAKE2D VISIBLE LINES
100
AcDbSpline
210
0.0
220
0.0
230
1.0
 70
    12
 71
     2
 72
     6
 73
     3
 74
     0
 42
0.0000000001
 43
0.0000000001
 40
-0.8818383843788322
 40
-0.8818383843788322
 40
-0.8818383843788322
 40
0.0
 40
0.0
 40
0.0
 10
10.27767417422364
 20
81.09582292040682
 30
0.0
 41
1.0
 10
10.27724210137023
 20
81.65657522209911
 30
0.0
 41
0.7082238011118341
 10
9.715595105444333
 20
81.65770515434426
 30
0.0
 41
1.0
  0
SPLINE
  5
F7
330
1F
100
AcDbEntity
  8
MAKE2D VISIBLE LINES
100
AcDbSpline
210
0.0
220
0.0
230
1.0
 70
    12
 71
     2
 72
     8
 73
     5
 74
     0
 42
0.0000000001
 43
0.0000000001
 40
0.0
 40
0.0
 40
0.0
 40
0.3670684445243085
 40
0.3670684445243085
 40
0.3678000097614414
 40
0.3678000097614414
 40
0.3678000097614414
 10
10.16201023225639
 20
80.75352118396879
 30
0.0
 41
1.0
 10
10.27757895405363
 20
80.9047550118247
 30
0.0
 41
0.9472483774171215
 10
10.27757790779869
 20
81.09509103086656
 30
0.0
 41
1.0
 10
10.27757790779869
 20
81.0954568135367
 30
0.0
 41
0.9999997886178166
 10
10.27767417422364
 20
81.09582292040682
 30
0.0
 41
1.0
  0
ENDSEC
  0
SECTION
  2
OBJECTS
  0
DICTIONARY
  5
C
330
0
100
AcDbDictionary
281
     1
  3
ACAD_GROUP
350
D
  3
ACAD_LAYOUT
350
1A
  3
ACAD_MLEADERSTYLE
350
F9
  3
ACAD_MLINESTYLE
350
17
  3
ACAD_PLOTSETTINGS
350
19
  3
ACAD_PLOTSTYLENAME
350
E
  3
ACAD_TABLESTYLE
350
F8
  3
ACAD_VISUALSTYLE
350
2A
  0
DICTIONARY
  5
D
102
{ACAD_REACTORS
330
C
102
}
330
C
100
AcDbDictionary
281
     1
  0
DICTIONARY
  5
1A
102
{ACAD_REACTORS
330
C
102
}
330
C
100
AcDbDictionary
281
     1
  3
Layout1
350
1E
  3
Layout2
350
26
  3
Model
350
22
  0
DICTIONARY
  5
F9
102
{ACAD_REACTORS
330
C
102
}
330
C
100
AcDbDictionary
281
     1
  0
DICTIONARY
  5
17
102
{ACAD_REACTORS
330
C
102
}
330
C
100
AcDbDictionary
281
     1
  3
Standard
350
18
  0
DICTIONARY
  5
19
102
{ACAD_REACTORS
330
C
102
}
330
C
100
AcDbDictionary
281
     1
  0
ACDBDICTIONARYWDFLT
  5
E
102
{ACAD_REACTORS
330
C
102
}
330
C
100
AcDbDictionary
281
     1
  3
Normal
350
F
100
AcDbDictionaryWithDefault
340
F
  0
DICTIONARY
  5
F8
102
{ACAD_REACTORS
330
C
102
}
330
C
100
AcDbDictionary
281
     1
  0
DICTIONARY
  5
2A
102
{ACAD_REACTORS
330
C
102
}
330
C
100
AcDbDictionary
281
     1
  3
2dWireframe
350
2F
  3
3D Hidden
350
31
  3
3dWireframe
350
30
  3
Basic
350
32
  3
Brighten
350
36
  3
ColorChange
350
3A
  3
Conceptual
350
34
  3
Dim
350
35
  3
Facepattern
350
39
  3
Flat
350
2B
  3
FlatWithEdges
350
2C
  3
Gouraud
350
2D
  3
GouraudWithEdges
350
2E
  3
Linepattern
350
38
  3
Realistic
350
33
  3
Thicken
350
37
  0
LAYOUT
  5
1E
102
{ACAD_REACTORS
330
1A
102
}
330
1A
100
AcDbPlotSettings
  1

  2
none_device
  4

  6

 40
0.0
 41
0.0
 42
0.0
 43
0.0
 44
0.0
 45
0.0
 46
0.0
 47
0.0
 48
0.0
 49
0.0
140
0.0
141
0.0
142
1.0
143
1.0
 70
   688
 72
     0
 73
     0
 74
     5
  7

 75
    16
 76
     0
 77
     2
 78
   300
147
1.0
148
0.0
149
0.0
100
AcDbLayout
  1
Layout1
 70
     1
 71
     1
 10
0.0
 20
0.0
 11
12.0
 21
9.0
 12
0.0
 22
0.0
 32
0.0
 14
1.000000000000000E+20
 24
1.000000000000000E+20
 34
1.000000000000000E+20
 15
-1.000000000000000E+20
 25
-1.000000000000000E+20
 35
-1.000000000000000E+20
146
0.0
 13
0.0
 23
0.0
 33
0.0
 16
1.0
 26
0.0
 36
0.0
 17
0.0
 27
1.0
 37
0.0
 76
     0
330
1B
  0
LAYOUT
  5
26
102
{ACAD_REACTORS
330
1A
102
}
330
1A
100
AcDbPlotSettings
  1

  2
none_device
  4

  6

 40
0.0
 41
0.0
 42
0.0
 43
0.0
 44
0.0
 45
0.0
 46
0.0
 47
0.0
 48
0.0
 49
0.0
140
0.0
141
0.0
142
1.0
143
1.0
 70
   688
 72
     0
 73
     0
 74
     5
  7

 75
    16
 76
     0
 77
     2
 78
   300
147
1.0
148
0.0
149
0.0
100
AcDbLayout
  1
Layout2
 70
     1
 71
     2
 10
0.0
 20
0.0
 11
0.0
 21
0.0
 12
0.0
 22
0.0
 32
0.0
 14
0.0
 24
0.0
 34
0.0
 15
0.0
 25
0.0
 35
0.0
146
0.0
 13
0.0
 23
0.0
 33
0.0
 16
1.0
 26
0.0
 36
0.0
 17
0.0
 27
1.0
 37
0.0
 76
     0
330
23
  0
LAYOUT
  5
22
102
{ACAD_REACTORS
330
1A
102
}
330
1A
100
AcDbPlotSettings
  1

  2
none_device
  4

  6

 40
0.0
 41
0.0
 42
0.0
 43
0.0
 44
0.0
 45
0.0
 46
0.0
 47
0.0
 48
0.0
 49
0.0
140
0.0
141
0.0
142
1.0
143
1.0
 70
  1712
 72
     0
 73
     0
 74
     0
  7

 75
     0
 76
     0
 77
     2
 78
   300
147
1.0
148
0.0
149
0.0
100
AcDbLayout
  1
Model
 70
     1
 71
     0
 10
0.0
 20
0.0
 11
12.0
 21
9.0
 12
0.0
 22
0.0
 32
0.0
 14
-10.27776551203658
 24
0.0008208563719239
 34
0.0
 15
48.67248146248846
 25
81.65770515434426
 35
0.0
146
0.0
 13
0.0
 23
0.0
 33
0.0
 16
1.0
 26
0.0
 36
0.0
 17
0.0
 27
1.0
 37
0.0
 76
     0
330
1F
331
29
  0
MLINESTYLE
  5
18
102
{ACAD_REACTORS
330
17
102
}
330
17
100
AcDbMlineStyle
  2
Standard
 70
     0
  3

 62
   256
 51
90.0
 52
90.0
 71
     2
 49
0.5
 62
   256
  6
BYLAYER
 49
-0.5
 62
   256
  6
BYLAYER
  0
ACDBPLACEHOLDER
  5
F
102
{ACAD_REACTORS
330
E
102
}
330
E
  0
VISUALSTYLE
  5
2F
102
{ACAD_REACTORS
330
2A
102
}
330
2A
100
AcDbVisualStyle
  2
2dWireframe
 70
     4
 71
     0
 72
     2
 73
     0
 90
        0
 40
-0.6
 41
-30.0
 62
     5
 63
     7
421
 16777215
 74
     1
 91
        4
 64
     7
 65
   257
 75
     1
175
     1
 42
1.0
 92
        0
 66
   257
 43
1.0
 76
     1
 77
     6
 78
     2
 67
     7
 79
     5
170
     0
171
     0
290
     0
174
     0
 93
        1
 44
0.0
173
     0
291
     0
 45
0.0
1001
ACAD
1000
AcDbSavedByObjectVersion
1070
     0
  0
VISUALSTYLE
  5
31
102
{ACAD_REACTORS
330
2A
102
}
330
2A
100
AcDbVisualStyle
  2
3D Hidden
 70
     6
 71
     1
 72
     2
 73
     2
 90
        0
 40
-0.6
 41
-30.0
 62
     5
 63
     7
421
 16777215
 74
     2
 91
        2
 64
     7
 65
   257
 75
     2
175
     1
 42
40.0
 92
        0
 66
   257
 43
1.0
 76
     1
 77
     6
 78
     2
 67
     7
 79
     3
170
     0
171
     0
290
     0
174
     0
 93
        1
 44
0.0
173
     0
291
     0
 45
0.0
1001
ACAD
1000
AcDbSavedByObjectVersion
1070
     0
  0
VISUALSTYLE
  5
30
102
{ACAD_REACTORS
330
2A
102
}
330
2A
100
AcDbVisualStyle
  2
3dWireframe
 70
     5
 71
     0
 72
     2
 73
     0
 90
        0
 40
-0.6
 41
-30.0
 62
     5
 63
     7
421
 16777215
 74
     1
 91
        4
 64
     7
 65
   257
 75
     1
175
     1
 42
1.0
 92
        0
 66
   257
 43
1.0
 76
     1
 77
     6
 78
     2
 67
     7
 79
     5
170
     0
171
     0
290
     0
174
     0
 93
        1
 44
0.0
173
     0
291
     0
 45
0.0
1001
ACAD
1000
AcDbSavedByObjectVersion
1070
     0
  0
VISUALSTYLE
  5
32
102
{ACAD_REACTORS
330
2A
102
}
330
2A
100
AcDbVisualStyle
  2
Basic
 70
     7
 71
     1
 72
     0
 73
     1
 90
        0
 40
-0.6
 41
-30.0
 62
     5
 63
     7
421
 16777215
 74
     0
 91
        4
 64
     7
 65
   257
 75
     1
175
     1
 42
1.0
 92
        8
 66
     7
 43
1.0
 76
     1
 77
     6
 78
     2
 67
     7
 79
     5
170
     0
171
     0
290
     0
174
     0
 93
        1
 44
0.0
173
     0
291
     1
 45
0.0
1001
ACAD
1000
AcDbSavedByObjectVersion
1070
     0
  0
VISUALSTYLE
  5
36
102
{ACAD_REACTORS
330
2A
102
}
330
2A
100
AcDbVisualStyle
  2
Brighten
 70
    12
 71
     2
 72
     2
 73
     0
 90
        0
 40
-0.6
 41
-30.0
 62
     5
 63
     7
421
 16777215
 74
     1
 91
        4
 64
     7
 65
   257
 75
     1
175
     1
 42
1.0
 92
        8
 66
     7
 43
1.0
 76
     1
 77
     6
 78
     2
 67
     7
 79
     5
170
     0
171
     0
290
     0
174
     0
 93
        1
 44
50.0
173
     0
291
     1
 45
0.0
1001
ACAD
1000
AcDbSavedByObjectVersion
1070
     0
  0
VISUALSTYLE
  5
3A
102
{ACAD_REACTORS
330
2A
102
}
330
2A
100
AcDbVisualStyle
  2
ColorChange
 70
    16
 71
     2
 72
     2
 73
     3
 90
        0
 40
-0.6
 41
-30.0
 62
     5
 63
     8
421
  8421504
 74
     1
 91
        4
 64
     7
 65
   257
 75
     1
175
     1
 42
1.0
 92
        8
 66
     8
424
  8421504
 43
1.0
 76
     1
 77
     6
 78
     2
 67
     7
 79
     5
170
     0
171
     0
290
     0
174
     0
 93
        1
 44
0.0
173
     0
291
     1
 45
0.0
1001
ACAD
1000
AcDbSavedByObjectVersion
1070
     0
  0
VISUALSTYLE
  5
34
102
{ACAD_REACTORS
330
2A
102
}
330
2A
100
AcDbVisualStyle
  2
Conceptual
 70
     9
 71
     3
 72
     2
 73
     0
 90
        0
 40
-0.6
 41
-30.0
 62
     5
 63
     7
421
 16777215
 74
     2
 91
        2
 64
     7
 65
   257
 75
     1
175
     1
 42
40.0
 92
        8
 66
     7
 43
1.0
 76
     1
 77
     6
 78
     2
 67
     7
 79
     3
170
     0
171
     0
290
     0
174
     0
 93
        1
 44
0.0
173
     0
291
     0
 45
0.0
1001
ACAD
1000
AcDbSavedByObjectVersion
1070
     0
  0
VISUALSTYLE
  5
35
102
{ACAD_REACTORS
330
2A
102
}
330
2A
100
AcDbVisualStyle
  2
Dim
 70
    11
 71
     2
 72
     2
 73
     0
 90
        0
 40
-0.6
 41
-30.0
 62
     5
 63
     7
421
 16777215
 74
     1
 91
        4
 64
     7
 65
   257
 75
     1
175
     1
 42
1.0
 92
        8
 66
     7
 43
1.0
 76
     1
 77
     6
 78
     2
 67
     7
 79
     5
170
     0
171
     0
290
     0
174
     0
 93
        1
 44
-50.0
173
     0
291
     1
 45
0.0
1001
ACAD
1000
AcDbSavedByObjectVersion
1070
     0
  0
VISUALSTYLE
  5
39
102
{ACAD_REACTORS
330
2A
102
}
330
2A
100
AcDbVisualStyle
  2
Facepattern
 70
    15
 71
     2
 72
     2
 73
     0
 90
        0
 40
-0.6
 41
-30.0
 62
     5
 63
     7
421
 16777215
 74
     1
 91
        4
 64
     7
 65
   257
 75
     1
175
     1
 42
1.0
 92
        8
 66
     7
 43
1.0
 76
     1
 77
     6
 78
     2
 67
     7
 79
     5
170
     0
171
     0
290
     0
174
     0
 93
        1
 44
0.0
173
     0
291
     1
 45
0.0
1001
ACAD
1000
AcDbSavedByObjectVersion
1070
     0
  0
VISUALSTYLE
  5
2B
102
{ACAD_REACTORS
330
2A
102
}
330
2A
100
AcDbVisualStyle
  2
Flat
 70
     0
 71
     2
 72
     1
 73
     1
 90
        2
 40
-0.6
 41
30.0
 62
     5
 63
     7
421
 16777215
 74
     0
 91
        4
 64
     7
 65
   257
 75
     1
175
     1
 42
1.0
 92
        8
 66
     7
 43
1.0
 76
     1
 77
     6
 78
     2
 67
     7
 79
     5
170
     0
171
     0
290
     0
174
     0
 93
       13
 44
0.0
173
     0
291
     1
 45
0.0
1001
ACAD
1000
AcDbSavedByObjectVersion
1070
     0
  0
VISUALSTYLE
  5
2C
102
{ACAD_REACTORS
330
2A
102
}
330
2A
100
AcDbVisualStyle
  2
FlatWithEdges
 70
     1
 71
     2
 72
     1
 73
     1
 90
        2
 40
-0.6
 41
30.0
 62
     5
 63
     7
421
 16777215
 74
     1
 91
        4
 64
     7
 65
   257
 75
     1
175
     1
 42
1.0
 92
        0
 66
   257
 43
1.0
 76
     1
 77
     6
 78
     2
 67
     7
 79
     5
170
     0
171
     0
290
     0
174
     0
 93
       13
 44
0.0
173
     0
291
     1
 45
0.0
1001
ACAD
1000
AcDbSavedByObjectVersion
1070
     0
  0
VISUALSTYLE
  5
2D
102
{ACAD_REACTORS
330
2A
102
}
330
2A
100
AcDbVisualStyle
  2
Gouraud
 70
     2
 71
     2
 72
     2
 73
     1
 90
        2
 40
-0.6
 41
30.0
 62
     5
 63
     7
421
 16777215
 74
     0
 91
        4
 64
     7
 65
   257
 75
     1
175
     1
 42
1.0
 92
        0
 66
     7
 43
1.0
 76
     1
 77
     6
 78
     2
 67
     7
 79
     5
170
     0
171
     0
290
     0
174
     0
 93
       13
 44
0.0
173
     0
291
     1
 45
0.0
1001
ACAD
1000
AcDbSavedByObjectVersion
1070
     0
  0
VISUALSTYLE
  5
2E
102
{ACAD_REACTORS
330
2A
102
}
330
2A
100
AcDbVisualStyle
  2
GouraudWithEdges
 70
     3
 71
     2
 72
     2
 73
     1
 90
        2
 40
-0.6
 41
30.0
 62
     5
 63
     7
421
 16777215
 74
     1
 91
        4
 64
     7
 65
   257
 75
     1
175
     1
 42
1.0
 92
        0
 66
   257
 43
1.0
 76
     1
 77
     6
 78
     2
 67
     7
 79
     5
170
     0
171
     0
290
     0
174
     0
 93
       13
 44
0.0
173
     0
291
     1
 45
0.0
1001
ACAD
1000
AcDbSavedByObjectVersion
1070
     0
  0
VISUALSTYLE
  5
38
102
{ACAD_REACTORS
330
2A
102
}
330
2A
100
AcDbVisualStyle
  2
Linepattern
 70
    14
 71
     2
 72
     2
 73
     0
 90
        0
 40
-0.6
 41
-30.0
 62
     5
 63
     7
421
 16777215
 74
     1
 91
        4
 64
     7
 65
   257
 75
     7
175
     7
 42
1.0
 92
        8
 66
     7
 43
1.0
 76
     1
 77
     6
 78
     2
 67
     7
 79
     5
170
     0
171
     0
290
     0
174
     0
 93
        1
 44
0.0
173
     0
291
     1
 45
0.0
1001
ACAD
1000
AcDbSavedByObjectVersion
1070
     0
  0
VISUALSTYLE
  5
33
102
{ACAD_REACTORS
330
2A
102
}
330
2A
100
AcDbVisualStyle
  2
Realistic
 70
     8
 71
     2
 72
     2
 73
     0
 90
        0
 40
-0.6
 41
-30.0
 62
     5
 63
     7
421
 16777215
 74
     1
 91
        0
 64
     7
 65
   257
 75
     1
175
     1
 42
1.0
 92
        8
 66
     8
424
  7895160
 43
1.0
 76
     1
 77
     6
 78
     2
 67
     7
 79
     5
170
     0
171
     0
290
     0
174
     0
 93
       13
 44
0.0
173
     0
291
     0
 45
0.0
1001
ACAD
1000
AcDbSavedByObjectVersion
1070
     0
  0
VISUALSTYLE
  5
37
102
{ACAD_REACTORS
330
2A
102
}
330
2A
100
AcDbVisualStyle
  2
Thicken
 70
    13
 71
     2
 72
     2
 73
     0
 90
        0
 40
-0.6
 41
-30.0
 62
     5
 63
     7
421
 16777215
 74
     1
 91
        4
 64
     7
 65
   257
 75
     1
175
     1
 42
1.0
 92
       12
 66
     7
 43
1.0
 76
     1
 77
     6
 78
     2
 67
     7
 79
     5
170
     0
171
     0
290
     0
174
     0
 93
        1
 44
0.0
173
     0
291
     1
 45
0.0
1001
ACAD
1000
AcDbSavedByObjectVersion
1070
     0
  0
ENDSEC
  0
EOF
