  0
SECTION
  2
HEADER
  9
$ACADVER
  1
AC1018
  9
$ACADMAINTVER
 70
     0
  9
$DWGCODEPAGE
  3
ANSI_1252
  9
$INSBASE
 10
0.0
 20
0.0
 30
0.0
  9
$EXTMIN
 10
-12.34249379374232
 20
0.0000047233536771
 30
0.0
  9
$EXTMAX
 10
44.91294101862226
 20
66.47486563784624
 30
0.0
  9
$LIMMIN
 10
0.0
 20
0.0
  9
$LIMMAX
 10
12.0
 20
9.0
  9
$ORTHOMODE
 70
     0
  9
$REGENMODE
 70
     1
  9
$FILLMODE
 70
     1
  9
$QTEXTMODE
 70
     0
  9
$MIRRTEXT
 70
     1
  9
$LTSCALE
 40
0.0393700787401575
  9
$ATTMODE
 70
     1
  9
$TEXTSIZE
 40
0.2
  9
$TRACEWID
 40
0.05
  9
$TEXTSTYLE
  7
Standard
  9
$CLAYER
  8
Default
  9
$CELTYPE
  6
ByLayer
  9
$CECOLOR
 62
   256
  9
$CELTSCALE
 40
1.0
  9
$DISPSILH
 70
     0
  9
$DIMSCALE
 40
1.0
  9
$DIMASZ
 40
0.18
  9
$DIMEXO
 40
0.0625
  9
$DIMDLI
 40
0.38
  9
$DIMRND
 40
0.0
  9
$DIMDLE
 40
0.0
  9
$DIMEXE
 40
0.18
  9
$DIMTP
 40
0.0
  9
$DIMTM
 40
0.0
  9
$DIMTXT
 40
0.18
  9
$DIMCEN
 40
0.09
  9
$DIMTSZ
 40
0.0
  9
$DIMTOL
 70
     0
  9
$DIMLIM
 70
     0
  9
$DIMTIH
 70
     1
  9
$DIMTOH
 70
     1
  9
$DIMSE1
 70
     0
  9
$DIMSE2
 70
     0
  9
$DIMTAD
 70
     0
  9
$DIMZIN
 70
     0
  9
$DIMBLK
  1

  9
$DIMASO
 70
     1
  9
$DIMSHO
 70
     1
  9
$DIMPOST
  1

  9
$DIMAPOST
  1

  9
$DIMALT
 70
     0
  9
$DIMALTD
 70
     2
  9
$DIMALTF
 40
25.4
  9
$DIMLFAC
 40
1.0
  9
$DIMTOFL
 70
     0
  9
$DIMTVP
 40
0.0
  9
$DIMTIX
 70
     0
  9
$DIMSOXD
 70
     0
  9
$DIMSAH
 70
     0
  9
$DIMBLK1
  1

  9
$DIMBLK2
  1

  9
$DIMSTYLE
  2
Standard
  9
$DIMCLRD
 70
     0
  9
$DIMCLRE
 70
     0
  9
$DIMCLRT
 70
     0
  9
$DIMTFAC
 40
1.0
  9
$DIMGAP
 40
0.09
  9
$DIMJUST
 70
     0
  9
$DIMSD1
 70
     0
  9
$DIMSD2
 70
     0
  9
$DIMTOLJ
 70
     1
  9
$DIMTZIN
 70
     0
  9
$DIMALTZ
 70
     0
  9
$DIMALTTZ
 70
     0
  9
$DIMUPT
 70
     0
  9
$DIMDEC
 70
     4
  9
$DIMTDEC
 70
     4
  9
$DIMALTU
 70
     2
  9
$DIMALTTD
 70
     2
  9
$DIMTXSTY
  7
Standard
  9
$DIMAUNIT
 70
     0
  9
$DIMADEC
 70
     0
  9
$DIMALTRND
 40
0.0
  9
$DIMAZIN
 70
     0
  9
$DIMDSEP
 70
    46
  9
$DIMATFIT
 70
     3
  9
$DIMFRAC
 70
     0
  9
$DIMLDRBLK
  1

  9
$DIMLUNIT
 70
     2
  9
$DIMLWD
 70
    -2
  9
$DIMLWE
 70
    -2
  9
$DIMTMOVE
 70
     2
  9
$LUNITS
 70
     2
  9
$LUPREC
 70
     3
  9
$SKETCHINC
 40
0.1
  9
$FILLETRAD
 40
0.5
  9
$AUNITS
 70
     0
  9
$AUPREC
 70
     0
  9
$MENU
  1
.
  9
$ELEVATION
 40
0.0
  9
$PELEVATION
 40
0.0
  9
$THICKNESS
 40
0.0
  9
$LIMCHECK
 70
     0
  9
$CHAMFERA
 40
0.5
  9
$CHAMFERB
 40
0.5
  9
$CHAMFERC
 40
1.0
  9
$CHAMFERD
 40
0.0
  9
$SKPOLY
 70
     0
  9
$TDCREATE
 40
2456462.502152894
  9
$TDUCREATE
 40
2456462.66881956
  9
$TDUPDATE
 40
2456462.502152905
  9
$TDUUPDATE
 40
2456462.668819572
  9
$TDINDWG
 40
0.0000000116
  9
$TDUSRTIMER
 40
0.0000000116
  9
$USRTIMER
 70
     1
  9
$ANGBASE
 50
0.0
  9
$ANGDIR
 70
     0
  9
$PDMODE
 70
     0
  9
$PDSIZE
 40
0.0
  9
$PLINEWID
 40
0.0
  9
$SPLFRAME
 70
     0
  9
$SPLINETYPE
 70
     6
  9
$SPLINESEGS
 70
     8
  9
$HANDSEED
  5
13B
  9
$SURFTAB1
 70
     6
  9
$SURFTAB2
 70
     6
  9
$SURFTYPE
 70
     6
  9
$SURFU
 70
     6
  9
$SURFV
 70
     6
  9
$UCSBASE
  2

  9
$UCSNAME
  2

  9
$UCSORG
 10
0.0
 20
0.0
 30
0.0
  9
$UCSXDIR
 10
1.0
 20
0.0
 30
0.0
  9
$UCSYDIR
 10
0.0
 20
1.0
 30
0.0
  9
$UCSORTHOREF
  2

  9
$UCSORTHOVIEW
 70
     0
  9
$UCSORGTOP
 10
0.0
 20
0.0
 30
0.0
  9
$UCSORGBOTTOM
 10
0.0
 20
0.0
 30
0.0
  9
$UCSORGLEFT
 10
0.0
 20
0.0
 30
0.0
  9
$UCSORGRIGHT
 10
0.0
 20
0.0
 30
0.0
  9
$UCSORGFRONT
 10
0.0
 20
0.0
 30
0.0
  9
$UCSORGBACK
 10
0.0
 20
0.0
 30
0.0
  9
$PUCSBASE
  2

  9
$PUCSNAME
  2

  9
$PUCSORG
 10
0.0
 20
0.0
 30
0.0
  9
$PUCSXDIR
 10
1.0
 20
0.0
 30
0.0
  9
$PUCSYDIR
 10
0.0
 20
1.0
 30
0.0
  9
$PUCSORTHOREF
  2

  9
$PUCSORTHOVIEW
 70
     0
  9
$PUCSORGTOP
 10
0.0
 20
0.0
 30
0.0
  9
$PUCSORGBOTTOM
 10
0.0
 20
0.0
 30
0.0
  9
$PUCSORGLEFT
 10
0.0
 20
0.0
 30
0.0
  9
$PUCSORGRIGHT
 10
0.0
 20
0.0
 30
0.0
  9
$PUCSORGFRONT
 10
0.0
 20
0.0
 30
0.0
  9
$PUCSORGBACK
 10
0.0
 20
0.0
 30
0.0
  9
$USERI1
 70
     0
  9
$USERI2
 70
     0
  9
$USERI3
 70
     0
  9
$USERI4
 70
     0
  9
$USERI5
 70
     0
  9
$USERR1
 40
0.0
  9
$USERR2
 40
0.0
  9
$USERR3
 40
0.0
  9
$USERR4
 40
0.0
  9
$USERR5
 40
0.0
  9
$WORLDVIEW
 70
     1
  9
$SHADEDGE
 70
     3
  9
$SHADEDIF
 70
    70
  9
$TILEMODE
 70
     1
  9
$MAXACTVP
 70
    64
  9
$PINSBASE
 10
0.0
 20
0.0
 30
0.0
  9
$PLIMCHECK
 70
     0
  9
$PEXTMIN
 10
1.000000000000000E+20
 20
1.000000000000000E+20
 30
1.000000000000000E+20
  9
$PEXTMAX
 10
-1.000000000000000E+20
 20
-1.000000000000000E+20
 30
-1.000000000000000E+20
  9
$PLIMMIN
 10
0.0
 20
0.0
  9
$PLIMMAX
 10
12.0
 20
9.0
  9
$UNITMODE
 70
     0
  9
$VISRETAIN
 70
     1
  9
$PLINEGEN
 70
     0
  9
$PSLTSCALE
 70
     1
  9
$TREEDEPTH
 70
  3020
  9
$CMLSTYLE
  2
Standard
  9
$CMLJUST
 70
     0
  9
$CMLSCALE
 40
1.0
  9
$PROXYGRAPHICS
 70
     1
  9
$MEASUREMENT
 70
     0
  9
$CELWEIGHT
370
    -1
  9
$ENDCAPS
280
     0
  9
$JOINSTYLE
280
     0
  9
$LWDISPLAY
290
     0
  9
$INSUNITS
 70
     1
  9
$HYPERLINKBASE
  1

  9
$STYLESHEET
  1

  9
$XEDIT
290
     1
  9
$CEPSNTYPE
380
     0
  9
$PSTYLEMODE
290
     1
  9
$FINGERPRINTGUID
  2
{24CB91D0-D56D-4B1A-8533-11EE7AFD6DF2}
  9
$VERSIONGUID
  2
{FAEB1C32-E019-11D5-929B-00C0DF256EC4}
  9
$EXTNAMES
290
     1
  9
$PSVPSCALE
 40
0.0
  9
$OLESTARTUP
290
     0
  9
$SORTENTS
280
   127
  9
$INDEXCTL
280
     0
  9
$HIDETEXT
280
     1
  9
$XCLIPFRAME
290
     0
  9
$HALOGAP
280
     0
  9
$OBSCOLOR
 70
   257
  9
$OBSLTYPE
280
     0
  9
$INTERSECTIONDISPLAY
280
     0
  9
$INTERSECTIONCOLOR
 70
   257
  9
$DIMASSOC
280
     2
  9
$PROJECTNAME
  1

  0
ENDSEC
  0
SECTION
  2
CLASSES
  0
CLASS
  1
ACDBDICTIONARYWDFLT
  2
AcDbDictionaryWithDefault
  3
ObjectDBX Classes
 90
        0
 91
        4
280
     0
281
     0
  0
CLASS
  1
VISUALSTYLE
  2
AcDbVisualStyle
  3
ObjectDBX Classes
 90
     4095
 91
        4
280
     0
281
     0
  0
ENDSEC
  0
SECTION
  2
TABLES
  0
TABLE
  2
VPORT
  5
8
330
0
100
AcDbSymbolTable
 70
     1
  0
VPORT
  5
29
330
8
100
AcDbSymbolTableRecord
100
AcDbViewportTableRecord
  2
*Active
 70
     0
 10
0.0
 20
0.0
 11
1.0
 21
1.0
 12
16.28522361243997
 22
33.23743518059996
 13
0.0
 23
0.0
 14
0.5
 24
0.5
 15
0.5
 25
0.5
 16
0.0
 26
0.0
 36
1.0
 17
0.0
 27
0.0
 37
0.0
 40
67.80435813278241
 41
0.8613095841751811
 42
50.0
 43
0.0
 44
0.0
 50
0.0
 51
0.0
 71
     0
 72
   100
 73
     1
 74
     3
 75
     0
 76
     0
 77
     0
 78
     0
281
     0
 65
     1
110
0.0
120
0.0
130
0.0
111
1.0
121
0.0
131
0.0
112
0.0
122
1.0
132
0.0
 79
     0
146
0.0
  0
ENDTAB
  0
TABLE
  2
LTYPE
  5
5
330
0
100
AcDbSymbolTable
 70
     1
  0
LTYPE
  5
14
330
5
100
AcDbSymbolTableRecord
100
AcDbLinetypeTableRecord
  2
ByBlock
 70
     0
  3

 72
    65
 73
     0
 40
0.0
  0
LTYPE
  5
15
330
5
100
AcDbSymbolTableRecord
100
AcDbLinetypeTableRecord
  2
ByLayer
 70
     0
  3

 72
    65
 73
     0
 40
0.0
  0
LTYPE
  5
16
330
5
100
AcDbSymbolTableRecord
100
AcDbLinetypeTableRecord
  2
Continuous
 70
     0
  3
Solid line
 72
    65
 73
     0
 40
0.0
  0
ENDTAB
  0
TABLE
  2
LAYER
  5
2
330
0
100
AcDbSymbolTable
 70
     2
  0
LAYER
  5
10
330
2
100
AcDbSymbolTableRecord
100
AcDbLayerTableRecord
  2
0
 70
     0
 62
     7
  6
Continuous
370
    -3
390
F
  0
LAYER
  5
3B
330
2
100
AcDbSymbolTableRecord
100
AcDbLayerTableRecord
  2
Default
 70
     0
 62
     7
  6
Continuous
370
    -3
390
F
  0
ENDTAB
  0
TABLE
  2
STYLE
  5
3
330
0
100
AcDbSymbolTable
 70
     1
  0
STYLE
  5
11
330
3
100
AcDbSymbolTableRecord
100
AcDbTextStyleTableRecord
  2
Standard
 70
     0
 40
0.0
 41
1.0
 50
0.0
 71
     0
 42
0.2
  3
txt
  4

  0
ENDTAB
  0
TABLE
  2
VIEW
  5
6
330
0
100
AcDbSymbolTable
 70
     0
  0
ENDTAB
  0
TABLE
  2
UCS
  5
7
330
0
100
AcDbSymbolTable
 70
     0
  0
ENDTAB
  0
TABLE
  2
APPID
  5
9
330
0
100
AcDbSymbolTable
 70
     1
  0
APPID
  5
12
330
9
100
AcDbSymbolTableRecord
100
AcDbRegAppTableRecord
  2
ACAD
 70
     0
  0
ENDTAB
  0
TABLE
  2
DIMSTYLE
  5
A
330
0
100
AcDbSymbolTable
 70
     1
100
AcDbDimStyleTable
  0
DIMSTYLE
105
27
330
A
100
AcDbSymbolTableRecord
100
AcDbDimStyleTableRecord
  2
Standard
 70
     0
340
11
  0
ENDTAB
  0
TABLE
  2
BLOCK_RECORD
  5
1
330
0
100
AcDbSymbolTable
 70
     1
  0
BLOCK_RECORD
  5
1F
330
1
100
AcDbSymbolTableRecord
100
AcDbBlockTableRecord
  2
*Model_Space
340
22
  0
BLOCK_RECORD
  5
1B
330
1
100
AcDbSymbolTableRecord
100
AcDbBlockTableRecord
  2
*Paper_Space
340
1E
  0
BLOCK_RECORD
  5
23
330
1
100
AcDbSymbolTableRecord
100
AcDbBlockTableRecord
  2
*Paper_Space0
340
26
  0
ENDTAB
  0
ENDSEC
  0
SECTION
  2
BLOCKS
  0
BLOCK
  5
20
330
1F
100
AcDbEntity
  8
0
100
AcDbBlockBegin
  2
*Model_Space
 70
     0
 10
0.0
 20
0.0
 30
0.0
  3
*Model_Space
  1

  0
ENDBLK
  5
21
330
1F
100
AcDbEntity
  8
0
100
AcDbBlockEnd
  0
BLOCK
  5
1C
330
1B
100
AcDbEntity
 67
     1
  8
0
100
AcDbBlockBegin
  2
*Paper_Space
 70
     0
 10
0.0
 20
0.0
 30
0.0
  3
*Paper_Space
  1

  0
ENDBLK
  5
1D
330
1B
100
AcDbEntity
 67
     1
  8
0
100
AcDbBlockEnd
  0
BLOCK
  5
24
330
23
100
AcDbEntity
  8
0
100
AcDbBlockBegin
  2
*Paper_Space0
 70
     0
 10
0.0
 20
0.0
 30
0.0
  3
*Paper_Space0
  1

  0
ENDBLK
  5
25
330
23
100
AcDbEntity
  8
0
100
AcDbBlockEnd
  0
ENDSEC
  0
SECTION
  2
ENTITIES
  0
SPLINE
  5
3C
330
1F
100
AcDbEntity
  8
Default
100
AcDbSpline
210
0.0
220
0.0
230
1.0
 70
     8
 71
     3
 72
    24
 73
    20
 74
     0
 42
0.0000000001
 43
0.0000000001
 40
0.0
 40
0.0
 40
0.0
 40
0.0
 40
1.0
 40
2.0
 40
3.0
 40
4.0
 40
5.0
 40
6.0
 40
7.0
 40
8.0
 40
9.0
 40
10.0
 40
11.0
 40
12.0
 40
13.0
 40
14.0
 40
15.0
 40
16.0
 40
16.13599113825579
 40
16.13599113825579
 40
16.13599113825579
 40
16.13599113825579
 10
29.34556344135747
 20
15.87130246867263
 30
0.0
 10
29.39380906369954
 20
15.83247427070119
 30
0.0
 10
29.49296170971606
 20
15.75774381153552
 30
0.0
 10
29.65113782297325
 20
15.6605145721766
 30
0.0
 10
29.81682536777198
 20
15.57345695317186
 30
0.0
 10
30.00095190615207
 20
15.53726305527536
 30
0.0
 10
30.18277249279478
 20
15.52233786869163
 30
0.0
 10
30.38373403789208
 20
15.59659810390756
 30
0.0
 10
30.30001707162727
 20
15.80823359719452
 30
0.0
 10
30.19507614670538
 20
15.94981064527491
 30
0.0
 10
30.0747239865706
 20
16.0949386190873
 30
0.0
 10
29.94967623376075
 20
16.23155068472344
 30
0.0
 10
29.82536703086986
 20
16.36998628241419
 30
0.0
 10
29.70205739003852
 20
16.5090055368579
 30
0.0
 10
29.57968397496651
 20
16.64893171267796
 30
0.0
 10
29.45827370307055
 20
16.78967262008964
 30
0.0
 10
29.33781590922872
 20
16.93123526152324
 30
0.0
 10
29.25277921021421
 20
17.03264230495448
 30
0.0
 10
29.20777582895658
 20
17.08675877928593
 30
0.0
 10
29.20239159234572
 20
17.09323978570987
 30
0.0
  0
ARC
  5
3D
330
1F
100
AcDbEntity
  8
Default
100
AcDbCircle
 10
29.39468895387571
 20
17.25299498828119
 30
0.0
 40
0.25
100
AcDbArc
 50
92.60936929485611
 51
219.7188424820518
  0
SPLINE
  5
3E
330
1F
100
AcDbEntity
  8
Default
100
AcDbSpline
210
0.0
220
0.0
230
1.0
 70
     8
 71
     3
 72
    12
 73
     8
 74
     0
 42
0.0000000001
 43
0.0000000001
 40
0.1004929713206162
 40
0.1004929713206162
 40
0.1004929713206162
 40
0.1004929713206162
 40
3.645618499081671
 40
6.068168658872678
 40
9.511558966442593
 40
11.17798759891832
 40
12.37544832417153
 40
12.37544832417153
 40
12.37544832417153
 40
12.37544832417153
 10
29.38330736781865
 20
17.50273577289361
 30
0.0
 10
30.56376061052279
 20
17.55653327412649
 30
0.0
 10
32.54660441754334
 20
17.72334879070778
 30
0.0
 10
35.67641956789404
 20
17.9318397482897
 30
0.0
 10
38.18365129935931
 20
18.07102715960552
 30
0.0
 10
40.2820966967174
 20
18.19459744957171
 30
0.0
 10
41.23602680090042
 20
18.24283203803168
 30
0.0
 10
41.63506767867064
 20
18.24156405057632
 30
0.0
  0
SPLINE
  5
3F
330
1F
100
AcDbEntity
  8
Default
100
AcDbSpline
210
0.0
220
0.0
230
1.0
 70
     8
 71
     3
 72
    14
 73
    10
 74
     0
 42
0.0000000001
 43
0.0000000001
 40
-13.46105149780784
 40
-13.46105149780784
 40
-13.46105149780784
 40
-13.46105149780784
 40
-12.76915707112372
 40
-11.57409979907015
 40
-10.91174483143177
 40
-8.853644510865058
 40
-5.160327740573998
 40
-2.520433580507965
 40
0.0
 40
0.0
 40
0.0
 40
0.0
 10
41.63562724928313
 20
18.38393314398677
 30
0.0
 10
41.40541390273348
 20
18.3969004890659
 30
0.0
 10
40.77619643787627
 20
18.40718541441182
 30
0.0
 10
39.92664357356182
 20
18.39087546935424
 30
0.0
 10
38.62200290162163
 20
18.3515323243304
 30
0.0
 10
36.48517655499215
 20
18.28556896419878
 30
0.0
 10
33.6895395141039
 20
18.18959639689216
 30
0.0
 10
30.74353192484887
 20
18.00996363067757
 30
0.0
 10
29.02993332620832
 20
17.85849721581437
 30
0.0
 10
28.19429103983629
 20
17.77161392690244
 30
0.0
  0
SPLINE
  5
40
330
1F
100
AcDbEntity
  8
Default
100
AcDbSpline
210
0.0
220
0.0
230
1.0
 70
    12
 71
     2
 72
     6
 73
     3
 74
     0
 42
0.0000000001
 43
0.0000000001
 40
-0.1603149038788934
 40
-0.1603149038788934
 40
-0.1603149038788934
 40
0.0
 40
0.0
 40
0.0
 10
28.19429103983629
 20
17.77161392690244
 30
0.0
 41
1.0
 10
28.11310431245737
 20
17.76700410088558
 30
0.0
 41
0.978738299541518
 10
28.0405997171393
 20
17.73018537119312
 30
0.0
 41
1.0
  0
SPLINE
  5
41
330
1F
100
AcDbEntity
  8
Default
100
AcDbSpline
210
0.0
220
0.0
230
1.0
 70
    12
 71
     2
 72
     6
 73
     3
 74
     0
 42
0.0000000001
 43
0.0000000001
 40
-0.4001929047078155
 40
-0.4001929047078155
 40
-0.4001929047078155
 40
0.0
 40
0.0
 40
0.0
 10
28.0405997171393
 20
17.73018537119312
 30
0.0
 41
1.0
 10
27.86739946341604
 20
17.62959782046075
 30
0.0
 41
0.998549274239925
 10
27.70602022092902
 20
17.51096846765777
 30
0.0
 41
1.0
  0
SPLINE
  5
42
330
1F
100
AcDbEntity
  8
Default
100
AcDbSpline
210
0.0
220
0.0
230
1.0
 70
     8
 71
     3
 72
    11
 73
     7
 74
     0
 42
0.0000000001
 43
0.0000000001
 40
-2.554449752814213
 40
-2.554449752814213
 40
-2.554449752814213
 40
-2.554449752814213
 40
-1.888480730619187
 40
-0.9523693663536067
 40
-0.723128482373148
 40
0.0
 40
0.0
 40
0.0
 40
0.0
 10
42.75887762952937
 20
18.60081764900568
 30
0.0
 10
42.97169798844356
 20
18.53957626659737
 30
0.0
 10
43.46970553221092
 20
18.34271692364432
 30
0.0
 10
43.97939652294687
 20
17.99444712644049
 30
0.0
 10
44.42375033131844
 20
17.54761860112195
 30
0.0
 10
44.57599540598287
 20
17.26143418082555
 30
0.0
 10
44.75382080562906
 20
17.09544394987
 30
0.0
  0
SPLINE
  5
43
330
1F
100
AcDbEntity
  8
Default
100
AcDbSpline
210
0.0
220
0.0
230
1.0
 70
     8
 71
     3
 72
    14
 73
    10
 74
     0
 42
0.0000000001
 43
0.0000000001
 40
-7.0
 40
-7.0
 40
-7.0
 40
-7.0
 40
-6.0
 40
-5.0
 40
-4.0
 40
-3.0
 40
-2.0
 40
-1.0
 40
0.0
 40
0.0
 40
0.0
 40
0.0
 10
44.75382080562906
 20
17.09544394987
 30
0.0
 10
44.78130012005433
 20
17.06455914110082
 30
0.0
 10
44.84801975867697
 20
17.02139626673537
 30
0.0
 10
44.93679683317568
 20
16.93258494476355
 30
0.0
 10
44.88243902035391
 20
16.80575813847458
 30
0.0
 10
44.80813739270815
 20
16.71839331888104
 30
0.0
 10
44.69272632060149
 20
16.64800230659977
 30
0.0
 10
44.58286764526659
 20
16.72004035856629
 30
0.0
 10
44.5268670267279
 20
16.77378899620889
 30
0.0
 10
44.49856906021787
 20
16.80290438335699
 30
0.0
  0
SPLINE
  5
44
330
1F
100
AcDbEntity
  8
Default
100
AcDbSpline
210
0.0
220
0.0
230
1.0
 70
    12
 71
     2
 72
     8
 73
     5
 74
     0
 42
0.0000000001
 43
0.0000000001
 40
-1.131082174975068
 40
-1.131082174975068
 40
-1.131082174975068
 40
-0.5311319982797426
 40
-0.5311319982797426
 40
0.0
 40
0.0
 40
0.0
 10
44.49856906021787
 20
16.80290438335699
 30
0.0
 41
1.0
 10
44.28929373472368
 20
17.01822487715124
 30
0.0
 41
0.9985522946097442
 10
44.06779099686494
 20
17.34758780343746
 30
0.0
 41
1.0
 10
43.89894011346227
 20
17.55462247749745
 30
0.0
 41
0.9910793595359968
 10
43.68139538704921
 20
17.70969752094048
 30
0.0
 41
1.0
  0
SPLINE
  5
45
330
1F
100
AcDbEntity
  8
Default
100
AcDbSpline
210
0.0
220
0.0
230
1.0
 70
     8
 71
     3
 72
     9
 73
     5
 74
     0
 42
0.0000000001
 43
0.0000000001
 40
-15.65411752985806
 40
-15.65411752985806
 40
-15.65411752985806
 40
-15.65411752985806
 40
-15.02730075433966
 40
-14.60330403185971
 40
-14.60330403185971
 40
-14.60330403185971
 40
-14.60330403185971
 10
43.68139538704921
 20
17.70969752094048
 30
0.0
 10
43.51655053183507
 20
17.83792778241923
 30
0.0
 10
43.22196677634403
 20
18.03123137011843
 30
0.0
 10
42.89526832675595
 20
18.1609021055604
 30
0.0
 10
42.76046585458399
 20
18.2037312563192
 30
0.0
  0
SPLINE
  5
46
330
1F
100
AcDbEntity
  8
Default
100
AcDbSpline
210
0.0
220
0.0
230
1.0
 70
     8
 71
     3
 72
    19
 73
    15
 74
     0
 42
0.0000000001
 43
0.0000000001
 40
-17.9686236409989
 40
-17.9686236409989
 40
-17.9686236409989
 40
-17.9686236409989
 40
-17.45341459592076
 40
-17.35126446118563
 40
-17.31388856261465
 40
-17.22998332040851
 40
-17.09577373227868
 40
-15.4228300371513
 40
-10.16604820698678
 40
-8.509741002941979
 40
-6.085128693056221
 40
-5.382701377325557
 40
-3.792327664688375
 40
-3.674850164877689
 40
-3.674850164877689
 40
-3.674850164877689
 40
-3.674850164877689
 10
27.51726305814782
 20
17.6848545791246
 30
0.0
 10
27.64867028705036
 20
17.79537904857601
 30
0.0
 10
27.80913798684969
 20
17.92453930182031
 30
0.0
 10
27.98882018261641
 20
18.04841070499105
 30
0.0
 10
28.05082586948475
 20
18.09006089179273
 30
0.0
 10
28.13228795669531
 20
18.11844396318113
 30
0.0
 10
28.76079016847359
 20
18.16787945801155
 30
0.0
 10
31.1079598410285
 20
18.36083303231151
 30
0.0
 10
33.96403596462741
 20
18.53592966010737
 30
0.0
 10
37.0758818397143
 20
18.65073275208638
 30
0.0
 10
38.66695542949294
 20
18.7086876713361
 30
0.0
 10
40.24231430368896
 20
18.76052497469314
 30
0.0
 10
41.04148907791983
 20
18.77941250340586
 30
0.0
 10
41.61235865296238
 20
18.75861371520693
 30
0.0
 10
41.65162911888211
 20
18.75696410095843
 30
0.0
  0
SPLINE
  5
47
330
1F
100
AcDbEntity
  8
Default
100
AcDbSpline
210
0.0
220
0.0
230
1.0
 70
    12
 71
     2
 72
     6
 73
     3
 74
     0
 42
0.0000000001
 43
0.0000000001
 40
0.9740564369475483
 40
0.9740564369475483
 40
0.9740564369475483
 40
1.933459869706155
 40
1.933459869706155
 40
1.933459869706155
 10
29.39903365715633
 20
15.82934512415065
 30
0.0
 41
0.9901877896243253
 10
29.86435421551233
 20
15.70521226159635
 30
0.0
 41
0.9868613610639652
 10
30.34045883909307
 20
15.63296383740559
 30
0.0
 41
0.9865013713945701
  0
SPLINE
  5
48
330
1F
100
AcDbEntity
  8
Default
100
AcDbSpline
210
0.0
220
0.0
230
1.0
 70
    12
 71
     2
 72
     6
 73
     3
 74
     0
 42
0.0000000001
 43
0.0000000001
 40
0.0
 40
0.0
 40
0.0
 40
0.9740564369475483
 40
0.9740564369475483
 40
0.9740564369475483
 10
28.47721353874306
 20
16.13094253385117
 30
0.0
 41
1.0
 10
28.9297937458074
 20
15.95452354658327
 30
0.0
 41
0.9935650228513824
 10
29.39903365715633
 20
15.82934512415065
 30
0.0
 41
0.9901877896243253
  0
SPLINE
  5
49
330
1F
100
AcDbEntity
  8
Default
100
AcDbSpline
210
0.0
220
0.0
230
1.0
 70
    12
 71
     2
 72
     6
 73
     3
 74
     0
 42
0.0000000001
 43
0.0000000001
 40
3.046448101564063
 40
3.046448101564063
 40
3.046448101564063
 40
3.577868569146716
 40
3.577868569146716
 40
3.577868569146716
 10
29.3902108502417
 20
16.86974926029415
 30
0.0
 41
0.9933533252827174
 10
29.13725499079823
 20
16.94680489682587
 30
0.0
 41
0.9960969417880288
 10
28.89011084498009
 20
17.04078782602451
 30
0.0
 41
1.0
  0
SPLINE
  5
4A
330
1F
100
AcDbEntity
  8
Default
100
AcDbSpline
210
0.0
220
0.0
230
1.0
 70
    12
 71
     2
 72
     6
 73
     3
 74
     0
 42
0.0000000001
 43
0.0000000001
 40
0.041800989526491
 40
0.041800989526491
 40
0.041800989526491
 40
0.6756478290434975
 40
0.6756478290434975
 40
0.6756478290434975
 10
-8.857389443925921
 20
17.87669248660496
 30
0.0
 41
0.9999990238872575
 10
-9.17247439023365
 20
17.91079457205332
 30
0.0
 41
0.9999921113296256
 10
-9.48728761407898
 20
17.94732003870025
 30
0.0
 41
1.0
  0
ARC
  5
4B
330
1F
100
AcDbEntity
  8
Default
100
AcDbCircle
 10
-17.31739563334625
 20
-24.13552727969294
 30
0.0
 40
41.66759639119658
100
AcDbArc
 50
74.50134037147116
 51
77.00741783447066
  0
ARC
  5
4C
330
1F
100
AcDbEntity
  8
Default
100
AcDbCircle
 10
17.31739563334625
 20
-24.13552727969294
 30
0.0
 40
41.66759639119658
100
AcDbArc
 50
102.9925821655294
 51
105.4986596285289
  0
SPLINE
  5
4D
330
1F
100
AcDbEntity
  8
Default
100
AcDbSpline
210
0.0
220
0.0
230
1.0
 70
    12
 71
     2
 72
     6
 73
     3
 74
     0
 42
0.0000000001
 43
0.0000000001
 40
15.70054520800294
 40
15.70054520800294
 40
15.70054520800294
 40
19.04348847755149
 40
19.04348847755149
 40
19.04348847755149
 10
-6.176944607175461
 20
16.62806756425834
 30
0.0
 41
0.9981117377355612
 10
-7.842096709842651
 20
16.75186315457627
 30
0.0
 41
0.9988548454783243
 10
-9.500951653360886
 20
16.9422762569727
 30
0.0
 41
1.0
  0
SPLINE
  5
4E
330
1F
100
AcDbEntity
  8
Default
100
AcDbSpline
210
0.0
220
0.0
230
1.0
 70
    12
 71
     2
 72
     6
 73
     3
 74
     0
 42
0.0000000001
 43
0.0000000001
 40
0.0
 40
0.0
 40
0.0
 40
3.343117079229499
 40
3.343117079229499
 40
3.343117079229499
 10
9.501108632818244
 20
16.94227796715696
 30
0.0
 41
1.0
 10
7.842167375828769
 20
16.75185465465028
 30
0.0
 41
0.9988547859382945
 10
6.176928361720191
 20
16.62805579367603
 30
0.0
 41
0.9981116604638323
  0
SPLINE
  5
4F
330
1F
100
AcDbEntity
  8
Default
100
AcDbSpline
210
0.0
220
0.0
230
1.0
 70
    12
 71
     2
 72
     6
 73
     3
 74
     0
 42
0.0000000001
 43
0.0000000001
 40
0.0419524518322334
 40
0.0419524518322334
 40
0.0419524518322334
 40
0.6756478290434975
 40
0.6756478290434975
 40
0.6756478290434975
 10
8.857540026542841
 20
17.87670878451274
 30
0.0
 41
0.999999020584491
 10
9.172549617733186
 20
17.91080330014769
 30
0.0
 41
0.9999921132146806
 10
9.48728761407898
 20
17.94732003870025
 30
0.0
 41
1.0
  0
SPLINE
  5
50
330
1F
100
AcDbEntity
  8
Default
100
AcDbSpline
210
0.0
220
0.0
230
1.0
 70
    12
 71
     2
 72
     6
 73
     3
 74
     0
 42
0.0000000001
 43
0.0000000001
 40
-0.9573149498785631
 40
-0.9573149498785631
 40
-0.9573149498785631
 40
0.0
 40
0.0
 40
0.0
 10
-8.391893333643385
 20
18.66497536900291
 30
0.0
 41
0.9905908361702419
 10
-8.108522382746575
 20
19.06056470907212
 30
0.0
 41
0.9729802383938652
 10
-7.68729246927316
 20
19.30456946681521
 30
0.0
 41
1.0
  0
SPLINE
  5
51
330
1F
100
AcDbEntity
  8
Default
100
AcDbSpline
210
0.0
220
0.0
230
1.0
 70
    12
 71
     2
 72
     6
 73
     3
 74
     0
 42
0.0000000001
 43
0.0000000001
 40
0.0
 40
0.0
 40
0.0
 40
0.9573495355228381
 40
0.9573495355228381
 40
0.9573495355228381
 10
7.68729246927316
 20
19.30456946681521
 30
0.0
 41
1.0
 10
8.108538023463291
 20
19.06055564891479
 30
0.0
 41
0.9729792622304161
 10
8.391913444526867
 20
18.66494729350839
 30
0.0
 41
0.9905921086913764
  0
LINE
  5
52
330
1F
100
AcDbEntity
  8
Default
100
AcDbLine
 10
-7.924506129476441
 20
60.23509431705963
 30
0.0
 11
-7.554342896590159
 21
59.99927432974342
 31
0.0
  0
SPLINE
  5
53
330
1F
100
AcDbEntity
  8
Default
100
AcDbSpline
210
0.0
220
0.0
230
1.0
 70
    12
 71
     2
 72
     6
 73
     3
 74
     0
 42
0.0000000001
 43
0.0000000001
 40
0.0592236376901336
 40
0.0592236376901336
 40
0.0592236376901336
 40
0.8053367947165757
 40
0.8053367947165757
 40
0.8053367947165757
 10
-9.00464241037794
 20
46.79313395647984
 30
0.0
 41
0.9999999987000893
 10
-9.377697262604288
 20
46.79426955205159
 30
0.0
 41
0.9999999911617559
 10
-9.750751811965328
 20
46.79550062799319
 30
0.0
 41
1.0
  0
SPLINE
  5
54
330
1F
100
AcDbEntity
  8
Default
100
AcDbSpline
210
0.0
220
0.0
230
1.0
 70
    12
 71
     2
 72
     6
 73
     3
 74
     0
 42
0.0000000001
 43
0.0000000001
 40
0.0
 40
0.0
 40
0.0
 40
0.8140578786361556
 40
0.8140578786361556
 40
0.8140578786361556
 10
-9.779416074620398
 20
45.79558988956663
 30
0.0
 41
1.0
 10
-9.372389360507768
 20
45.7942431687388
 30
0.0
 41
0.999999989632986
 10
-8.965362286386796
 20
45.79301004635227
 30
0.0
 41
0.9999999987392264
  0
SPLINE
  5
55
330
1F
100
AcDbEntity
  8
Default
100
AcDbSpline
210
0.0
220
0.0
230
1.0
 70
    12
 71
     2
 72
     6
 73
     3
 74
     0
 42
0.0000000001
 43
0.0000000001
 40
0.0
 40
0.0
 40
0.0
 40
0.8121512644604405
 40
0.8121512644604405
 40
0.8121512644604405
 10
9.779416074620398
 20
45.79558988956663
 30
0.0
 41
1.0
 10
9.373342662393805
 20
45.79424632290893
 30
0.0
 41
0.9999999896572668
 10
8.967268891806304
 20
45.79301582319517
 30
0.0
 41
0.9999999986966776
  0
SPLINE
  5
56
330
1F
100
AcDbEntity
  8
Default
100
AcDbSpline
210
0.0
220
0.0
230
1.0
 70
    12
 71
     2
 72
     6
 73
     3
 74
     0
 42
0.0000000001
 43
0.0000000001
 40
0.0588574880627839
 40
0.0588574880627839
 40
0.0588574880627839
 40
0.8053367947165757
 40
0.8053367947165757
 40
0.8053367947165757
 10
9.004276262447608
 20
46.79313284193224
 30
0.0
 41
0.999999998707492
 10
9.377514188784787
 20
46.79426894790999
 30
0.0
 41
0.9999999911574186
 10
9.750751811965328
 20
46.79550062799319
 30
0.0
 41
1.0
  0
LINE
  5
57
330
1F
100
AcDbEntity
  8
Default
100
AcDbLine
 10
7.924506129476441
 20
60.23509431705963
 30
0.0
 11
7.554341053349701
 21
59.99927315546974
 31
0.0
  0
ARC
  5
58
330
1F
100
AcDbEntity
  8
Default
100
AcDbCircle
 10
-58.07554192356182
 20
46.28826511050657
 30
0.0
 40
67.04679918662893
100
AcDbArc
 50
11.76267804767357
 51
12.08377002123198
  0
SPLINE
  5
59
330
1F
100
AcDbEntity
  8
Default
100
AcDbSpline
210
0.0
220
0.0
230
1.0
 70
     8
 71
     3
 72
    23
 73
    19
 74
     0
 42
0.0000000001
 43
0.0000000001
 40
0.0
 40
0.0
 40
0.0
 40
0.0
 40
4.24895968232277
 40
6.486393074541591
 40
9.045091794831706
 40
11.60422115196901
 40
13.22896781163744
 40
14.51231705906568
 40
15.25797935780193
 40
15.51969434203911
 40
15.80552651594489
 40
15.9921433540386
 40
16.10658203171558
 40
16.24561988875408
 40
16.537984963297
 40
17.86615571467284
 40
21.19407775777829
 40
24.46596690678671
 40
24.46596690678671
 40
24.46596690678671
 40
24.46596690678671
 10
7.563300491512663
 20
59.95631718756439
 30
0.0
 10
7.852016165278329
 20
58.56980193972792
 30
0.0
 10
8.225791986008502
 20
56.43875928146443
 30
0.0
 10
8.574885419989826
 20
53.44347336181357
 30
0.0
 10
8.799037146327137
 20
51.00193640689254
 30
0.0
 10
8.94912379540743
 20
48.75919637648634
 30
0.0
 10
9.02336689668266
 20
46.93804019605884
 30
0.0
 10
8.97793857561362
 20
45.71930917047416
 30
0.0
 10
8.877435148761705
 20
44.96199614887142
 30
0.0
 10
8.798141302598268
 20
44.53710151594971
 30
0.0
 10
8.629903891283462
 20
44.34007515778991
 30
0.0
 10
8.464564707079361
 20
44.24202056888566
 30
0.0
 10
8.32233921512254
 20
44.19485360274044
 30
0.0
 10
8.145065946198287
 20
44.16083073349769
 30
0.0
 10
7.562923466581125
 20
44.08299963011972
 30
0.0
 10
5.925409220301304
 20
43.88664053103385
 30
0.0
 10
3.290270455216799
 20
43.67481416047694
 30
0.0
 10
1.090769401425263
 20
43.6047641433445
 30
0.0
 10
0.0000959386099879
 20
43.60293885320902
 30
0.0
  0
SPLINE
  5
5A
330
1F
100
AcDbEntity
  8
Default
100
AcDbSpline
210
0.0
220
0.0
230
1.0
 70
     8
 71
     3
 72
    21
 73
    17
 74
     0
 42
0.0000000001
 43
0.0000000001
 40
24.46596690678671
 40
24.46596690678671
 40
24.46596690678671
 40
24.46596690678671
 40
27.72223632071433
 40
31.06625574070116
 40
32.42547696658934
 40
32.82735322848757
 40
33.12657573285964
 40
33.4100113728441
 40
33.66796334267045
 40
34.39342643974651
 40
35.68712283049939
 40
37.32776181063267
 40
39.88695385814246
 40
42.54145534509678
 40
44.77891088678392
 40
48.93209882734814
 40
48.93209882734814
 40
48.93209882734814
 40
48.93209882734814
 10
0.0000959386099879
 20
43.60293885320902
 30
0.0
 10
-1.085371332464476
 20
43.60454865098176
 30
0.0
 10
-3.285040801335697
 20
43.67460576250585
 30
0.0
 10
-5.930533244657653
 20
43.88697764349905
 30
0.0
 10
-7.619967241754139
 20
44.09073768948694
 30
0.0
 10
-8.301884959814927
 20
44.17892786840395
 30
0.0
 10
-8.60958992232004
 20
44.30489758013819
 30
0.0
 10
-8.791045162250313
 20
44.53651974180539
 30
0.0
 10
-8.881044649479762
 20
44.94906523788602
 30
0.0
 10
-8.971338853291726
 20
45.7042917279536
 30
0.0
 10
-9.026881558848501
 20
46.9230592643512
 30
0.0
 10
-8.94773152647953
 20
48.75441728186783
 30
0.0
 10
-8.797575942450564
 20
51.03335920121664
 30
0.0
 10
-8.568855393703373
 20
53.50721571800756
 30
0.0
 10
-8.21552819035891
 20
56.5018370329113
 30
0.0
 10
-7.845449543166993
 20
58.60103160166224
 30
0.0
 10
-7.563301746222677
 20
59.9563110595592
 30
0.0
  0
ARC
  5
5B
330
1F
100
AcDbEntity
  8
Default
100
AcDbCircle
 10
58.51348589616747
 20
46.20016655827123
 30
0.0
 40
67.49350618154193
100
AcDbArc
 50
167.9209370110374
 51
168.2398994819786
  0
SPLINE
  5
5C
330
1F
100
AcDbEntity
  8
Default
100
AcDbSpline
210
0.0
220
0.0
230
1.0
 70
    12
 71
     2
 72
     6
 73
     3
 74
     0
 42
0.0000000001
 43
0.0000000001
 40
0.0
 40
0.0
 40
0.0
 40
0.8358662744886645
 40
0.8358662744886645
 40
0.8358662744886645
 10
-6.74746379368942
 20
16.60848575882963
 30
0.0
 41
1.0
 10
-6.462913274857215
 20
16.3023494749499
 30
0.0
 41
0.9999127732357861
 10
-6.170367967775222
 20
16.00384375389064
 30
0.0
 41
0.9999999999991276
  0
SPLINE
  5
5D
330
1F
100
AcDbEntity
  8
Default
100
AcDbSpline
210
0.0
220
0.0
230
1.0
 70
    12
 71
     2
 72
     6
 73
     3
 74
     0
 42
0.0000000001
 43
0.0000000001
 40
0.0
 40
0.0
 40
0.0
 40
0.9933248670959279
 40
0.9933248670959279
 40
0.9933248670959279
 10
-6.170367967775221
 20
16.00384375389064
 30
0.0
 41
0.9999999899372237
 10
-5.820361490643972
 20
15.63667087798748
 30
0.0
 41
0.968932994225803
 10
-5.336440190633297
 20
15.48194116097664
 30
0.0
 41
1.0
  0
SPLINE
  5
5E
330
1F
100
AcDbEntity
  8
Default
100
AcDbSpline
210
0.0
220
0.0
230
1.0
 70
    12
 71
     2
 72
     6
 73
     3
 74
     0
 42
0.0000000001
 43
0.0000000001
 40
0.0
 40
0.0
 40
0.0
 40
5.401120923603427
 40
5.401120923603427
 40
5.401120923603427
 10
-5.336440190633297
 20
15.48194116097664
 30
0.0
 41
1.0
 10
-2.717873751464221
 20
14.75093403184125
 30
0.0
 41
0.9904585897569746
 10
0.0
 20
14.76254046629165
 30
0.0
 41
1.0
  0
SPLINE
  5
5F
330
1F
100
AcDbEntity
  8
Default
100
AcDbSpline
210
0.0
220
0.0
230
1.0
 70
    12
 71
     2
 72
     6
 73
     3
 74
     0
 42
0.0000000001
 43
0.0000000001
 40
-5.401120923603427
 40
-5.401120923603427
 40
-5.401120923603427
 40
0.0
 40
0.0
 40
0.0
 10
0.0
 20
14.76254046629165
 30
0.0
 41
1.0
 10
2.717873751464232
 20
14.75093403184125
 30
0.0
 41
0.9904585897569746
 10
5.336440190633297
 20
15.48194116097664
 30
0.0
 41
1.0
  0
SPLINE
  5
60
330
1F
100
AcDbEntity
  8
Default
100
AcDbSpline
210
0.0
220
0.0
230
1.0
 70
    12
 71
     2
 72
     6
 73
     3
 74
     0
 42
0.0000000001
 43
0.0000000001
 40
-0.9933248670959279
 40
-0.9933248670959279
 40
-0.9933248670959279
 40
0.0
 40
0.0
 40
0.0
 10
5.336440190633297
 20
15.48194116097664
 30
0.0
 41
1.0
 10
5.820361490643983
 20
15.63667087798748
 30
0.0
 41
0.968932994225803
 10
6.170367967775213
 20
16.00384375389064
 30
0.0
 41
0.9999999899372237
  0
SPLINE
  5
61
330
1F
100
AcDbEntity
  8
Default
100
AcDbSpline
210
0.0
220
0.0
230
1.0
 70
    12
 71
     2
 72
     6
 73
     3
 74
     0
 42
0.0000000001
 43
0.0000000001
 40
-0.8358662744886645
 40
-0.8358662744886645
 40
-0.8358662744886645
 40
0.0
 40
0.0
 40
0.0
 10
6.170367967775228
 20
16.00384375389064
 30
0.0
 41
0.9999999999991276
 10
6.4629132748572
 20
16.3023494749499
 30
0.0
 41
0.9999127732357861
 10
6.74746379368942
 20
16.60848575882963
 30
0.0
 41
1.0
  0
LINE
  5
62
330
1F
100
AcDbEntity
  8
Default
100
AcDbLine
 10
6.338650923846544
 20
16.57630505055494
 30
0.0
 11
6.225055482071383
 21
16.49468600117966
 31
0.0
  0
ARC
  5
63
330
1F
100
AcDbEntity
  8
Default
100
AcDbCircle
 10
5.978917141986429
 20
16.84913063338736
 30
0.0
 40
0.4315264531412024
100
AcDbArc
 50
262.2924095126972
 51
304.7774206992515
  0
ARC
  5
64
330
1F
100
AcDbEntity
  8
Default
100
AcDbCircle
 10
8.029263106838116
 20
14.07152806964973
 30
0.0
 40
3.157052107850949
100
AcDbArc
 50
121.4061072758457
 51
131.8960750393577
  0
LINE
  5
65
330
1F
100
AcDbEntity
  8
Default
100
AcDbLine
 10
6.38412132565108
 20
16.76605706958254
 30
0.0
 11
6.856845865637226
 21
17.06954149015032
 31
0.0
  0
LINE
  5
66
330
1F
100
AcDbEntity
  8
Default
100
AcDbLine
 10
-6.338650923846544
 20
16.57630505055494
 30
0.0
 11
-6.225055482071383
 21
16.49468600117966
 31
0.0
  0
ARC
  5
67
330
1F
100
AcDbEntity
  8
Default
100
AcDbCircle
 10
-5.978917141986429
 20
16.84913063338736
 30
0.0
 40
0.4315264531412024
100
AcDbArc
 50
235.2225793007484
 51
277.7075904873028
  0
ARC
  5
68
330
1F
100
AcDbEntity
  8
Default
100
AcDbCircle
 10
-8.029263106838116
 20
14.07152806964973
 30
0.0
 40
3.157052107850949
100
AcDbArc
 50
48.10392496064229
 51
58.59389272415433
  0
LINE
  5
69
330
1F
100
AcDbEntity
  8
Default
100
AcDbLine
 10
-6.38412132565108
 20
16.76605706958254
 30
0.0
 11
-6.856845865637226
 21
17.06954149015032
 31
0.0
  0
SPLINE
  5
6A
330
1F
100
AcDbEntity
  8
Default
100
AcDbSpline
210
0.0
220
0.0
230
1.0
 70
     8
 71
     3
 72
    11
 73
     7
 74
     0
 42
0.0000000001
 43
0.0000000001
 40
0.0
 40
0.0
 40
0.0
 40
0.0
 40
1.214188025933714
 40
2.439691263724169
 40
4.761297182648494
 40
8.828385860723529
 40
8.828385860723529
 40
8.828385860723529
 40
8.828385860723529
 10
0.0000733244869622
 20
17.81345816734905
 30
0.0
 10
-0.4044267603224796
 20
17.81462092431106
 30
0.0
 10
-1.218402995608656
 20
17.81990430542094
 30
0.0
 10
-2.8032613270409
 20
17.88441576745
 30
0.0
 10
-5.338638913838665
 20
18.05032103224732
 30
0.0
 10
-7.436451387274971
 20
18.44363265853823
 30
0.0
 10
-8.757098120661638
 20
18.74752646416679
 30
0.0
  0
SPLINE
  5
6B
330
1F
100
AcDbEntity
  8
Default
100
AcDbSpline
210
0.0
220
0.0
230
1.0
 70
     8
 71
     3
 72
    22
 73
    18
 74
     0
 42
0.0000000001
 43
0.0000000001
 40
0.0
 40
0.0
 40
0.0
 40
0.0
 40
0.0935397529848038
 40
0.191976763197454
 40
0.4452020639371633
 40
0.5048266649697931
 40
0.8680746548169804
 40
1.12150162456058
 40
1.258995085087951
 40
1.563620246163732
 40
1.911576306404881
 40
2.16113677711151
 40
2.914244478031624
 40
3.915317125896441
 40
5.747699567943772
 40
7.792372056652619
 40
10.22417760634461
 40
10.22417760634461
 40
10.22417760634461
 40
10.22417760634461
 10
-8.757098120661638
 20
18.74752646416679
 30
0.0
 10
-8.78662993802034
 20
18.75601896986653
 30
0.0
 10
-8.855123031301375
 20
18.75505235144622
 30
0.0
 10
-8.97534198500098
 20
18.6611576277154
 30
0.0
 10
-9.01869876740308
 20
18.51815176568467
 30
0.0
 10
-8.965385101540008
 20
18.29803226801715
 30
0.0
 10
-8.902448143515173
 20
18.08254145130675
 30
0.0
 10
-8.850116226771505
 20
17.83590475992304
 30
0.0
 10
-8.783363370806185
 20
17.61238522147093
 30
0.0
 10
-8.589803588831572
 20
17.41650024222796
 30
0.0
 10
-8.30598273490746
 20
17.31151861276506
 30
0.0
 10
-7.859816820179375
 20
17.23923702464203
 30
0.0
 10
-7.203990216740138
 20
17.12041812964819
 30
0.0
 10
-6.021095557835864
 20
16.93985187820329
 30
0.0
 10
-4.403909500309922
 20
16.76906522180941
 30
0.0
 10
-2.3029721227484
 20
16.65959266872123
 30
0.0
 10
-0.8104685239031255
 20
16.65532244211795
 30
0.0
 10
0.0000733244869622
 20
16.65578360237963
 30
0.0
  0
SPLINE
  5
6C
330
1F
100
AcDbEntity
  8
Default
100
AcDbSpline
210
0.0
220
0.0
230
1.0
 70
     8
 71
     3
 72
    22
 73
    18
 74
     0
 42
0.0000000001
 43
0.0000000001
 40
-10.22417760634461
 40
-10.22417760634461
 40
-10.22417760634461
 40
-10.22417760634461
 40
-7.792372056652619
 40
-5.747699567943772
 40
-3.915317125896441
 40
-2.914244478031624
 40
-2.16113677711151
 40
-1.911576306404881
 40
-1.563620246163732
 40
-1.258995085087951
 40
-1.12150162456058
 40
-0.8680746548169804
 40
-0.5048266649697931
 40
-0.4452020639371633
 40
-0.191976763197454
 40
-0.0935397529848038
 40
0.0
 40
0.0
 40
0.0
 40
0.0
 10
0.0000733244869622
 20
16.65578360237963
 30
0.0
 10
0.8106151728770499
 20
16.65532244211795
 30
0.0
 10
2.303118771722325
 20
16.65959266872123
 30
0.0
 10
4.404056149283846
 20
16.76906522180941
 30
0.0
 10
6.021242206809788
 20
16.93985187820329
 30
0.0
 10
7.204136865714077
 20
17.12041812964819
 30
0.0
 10
7.8599634691533
 20
17.23923702464203
 30
0.0
 10
8.306129383881398
 20
17.31151861276506
 30
0.0
 10
8.589950237805482
 20
17.41650024222796
 30
0.0
 10
8.783510019780095
 20
17.61238522147093
 30
0.0
 10
8.850262875745443
 20
17.83590475992304
 30
0.0
 10
8.902594792489097
 20
18.08254145130675
 30
0.0
 10
8.965531750513918
 20
18.29803226801715
 30
0.0
 10
9.01884541637699
 20
18.51815176568467
 30
0.0
 10
8.975488633974905
 20
18.6611576277154
 30
0.0
 10
8.855269680275299
 20
18.75505235144622
 30
0.0
 10
8.786776586994264
 20
18.75601896986653
 30
0.0
 10
8.757244769635562
 20
18.74752646416679
 30
0.0
  0
SPLINE
  5
6D
330
1F
100
AcDbEntity
  8
Default
100
AcDbSpline
210
0.0
220
0.0
230
1.0
 70
     8
 71
     3
 72
    11
 73
     7
 74
     0
 42
0.0000000001
 43
0.0000000001
 40
-8.828385860723529
 40
-8.828385860723529
 40
-8.828385860723529
 40
-8.828385860723529
 40
-4.761297182648503
 40
-2.439691263724185
 40
-1.214188025933733
 40
0.0
 40
0.0
 40
0.0
 40
0.0
 10
8.757244769635562
 20
18.74752646416679
 30
0.0
 10
7.436598036248895
 20
18.44363265853823
 30
0.0
 10
5.338785562812589
 20
18.05032103224732
 30
0.0
 10
2.803407976014824
 20
17.88441576745
 30
0.0
 10
1.218549644582581
 20
17.81990430542093
 30
0.0
 10
0.4045734092963897
 20
17.81462092431106
 30
0.0
 10
0.0000733244869622
 20
17.81345816734905
 30
0.0
  0
SPLINE
  5
6E
330
1F
100
AcDbEntity
  8
Default
100
AcDbSpline
210
0.0
220
0.0
230
1.0
 70
    12
 71
     2
 72
     6
 73
     3
 74
     0
 42
0.0000000001
 43
0.0000000001
 40
0.0
 40
0.0
 40
0.0
 40
0.136497131246725
 40
0.136497131246725
 40
0.136497131246725
 10
42.80688316510764
 20
16.67186585752321
 30
0.0
 41
1.0
 10
42.85378656321954
 20
16.72191697184726
 30
0.0
 41
0.9924780464036579
 10
42.88712143895143
 20
16.78186552361845
 30
0.0
 41
1.0
  0
SPLINE
  5
6F
330
1F
100
AcDbEntity
  8
Default
100
AcDbSpline
210
0.0
220
0.0
230
1.0
 70
    12
 71
     2
 72
     6
 73
     3
 74
     0
 42
0.0000000001
 43
0.0000000001
 40
0.0
 40
0.0
 40
0.0
 40
0.8264390978013532
 40
0.8264390978013532
 40
0.8264390978013532
 10
42.88712143895143
 20
16.78186552361845
 30
0.0
 41
1.0
 10
43.08171971579132
 20
17.14675223323746
 30
0.0
 41
0.9986048383852346
 10
43.24254036958683
 20
17.52773453928124
 30
0.0
 41
0.9992567506520554
  0
ARC
  5
70
330
1F
100
AcDbEntity
  8
Default
100
AcDbCircle
 10
43.47286110856577
 20
17.43051130545211
 30
0.0
 40
0.25
100
AcDbArc
 50
56.90320801781194
 51
157.1143678715038
  0
LINE
  5
71
330
1F
100
AcDbEntity
  8
Default
100
AcDbLine
 10
43.60937487253852
 20
17.63994862840576
 30
0.0
 11
43.75383444154875
 21
17.54578814531063
 31
0.0
  0
ARC
  5
72
330
1F
100
AcDbEntity
  8
Default
100
AcDbCircle
 10
43.08317927213459
 20
16.54509583547264
 30
0.0
 40
1.20464245950026
100
AcDbArc
 50
25.22628804628217
 51
56.1703549918263
  0
SPLINE
  5
73
330
1F
100
AcDbEntity
  8
Default
100
AcDbSpline
210
0.0
220
0.0
230
1.0
 70
    12
 71
     2
 72
     6
 73
     3
 74
     0
 42
0.0000000001
 43
0.0000000001
 40
-1.357066206308517
 40
-1.357066206308517
 40
-1.357066206308517
 40
0.0
 40
0.0
 40
0.0
 10
44.17293691273309
 20
17.05850769741976
 30
0.0
 41
1.0
 10
43.7021770058027
 20
16.56427801658706
 30
0.0
 41
0.991190278644199
 10
43.11816935081562
 20
16.21098928720897
 30
0.0
 41
1.0
  0
SPLINE
  5
74
330
1F
100
AcDbEntity
  8
Default
100
AcDbSpline
210
0.0
220
0.0
230
1.0
 70
    12
 71
     2
 72
     6
 73
     3
 74
     0
 42
0.0000000001
 43
0.0000000001
 40
-0.2347042026955195
 40
-0.2347042026955195
 40
-0.2347042026955195
 40
0.0
 40
0.0
 40
0.0
 10
43.11816935081562
 20
16.21098928720897
 30
0.0
 41
1.0
 10
43.01579413356058
 20
16.14865426779717
 30
0.0
 41
0.9689121470040515
 10
42.89606641538604
 20
16.14303170131879
 30
0.0
 41
1.0
  0
SPLINE
  5
75
330
1F
100
AcDbEntity
  8
Default
100
AcDbSpline
210
0.0
220
0.0
230
1.0
 70
    12
 71
     2
 72
     6
 73
     3
 74
     0
 42
0.0000000001
 43
0.0000000001
 40
-0.0744622706341129
 40
-0.0744622706341129
 40
-0.0744622706341129
 40
0.0
 40
0.0
 40
0.0
 10
42.89606641538604
 20
16.14303170131879
 30
0.0
 41
1.0
 10
42.85888752247706
 20
16.14106004499453
 30
0.0
 41
0.9999999623414183
 10
42.82170971737011
 20
16.13906798223779
 30
0.0
 41
1.0
  0
SPLINE
  5
76
330
1F
100
AcDbEntity
  8
Default
100
AcDbSpline
210
0.0
220
0.0
230
1.0
 70
    12
 71
     2
 72
     6
 73
     3
 74
     0
 42
0.0000000001
 43
0.0000000001
 40
-0.3487157040704518
 40
-0.3487157040704518
 40
-0.3487157040704518
 40
-0.0287461451405254
 40
-0.0287461451405254
 40
-0.0287461451405254
 10
44.49856906021787
 20
16.80290438335699
 30
0.0
 41
1.0
 10
44.38671951323967
 20
16.91798483839458
 30
0.0
 41
0.9951609814664577
 10
44.17386341127809
 20
17.06002214081568
 30
0.0
 41
0.9992021975065695
  0
SPLINE
  5
77
330
1F
100
AcDbEntity
  8
Default
100
AcDbSpline
210
0.0
220
0.0
230
1.0
 70
     8
 71
     3
 72
    20
 73
    16
 74
     0
 42
0.0000000001
 43
0.0000000001
 40
0.0
 40
0.0
 40
0.0
 40
0.0
 40
1.0
 40
2.0
 40
3.0
 40
4.0
 40
5.0
 40
6.0
 40
7.0
 40
8.0
 40
9.0
 40
10.0
 40
11.0
 40
12.0
 40
13.0
 40
13.0
 40
13.0
 40
13.0
 10
41.689597529528
 20
16.3789971676038
 30
0.0
 10
41.3793872115688
 20
16.37241740035828
 30
0.0
 10
40.75908423533352
 20
16.35375021090158
 30
0.0
 10
39.82923717078
 20
16.31011129465176
 30
0.0
 10
38.90023982551794
 20
16.25093582045183
 30
0.0
 10
37.9725364338064
 20
16.17412471499885
 30
0.0
 10
37.0462153366979
 20
16.08227839434636
 30
0.0
 10
36.12101109302392
 20
15.97992360223572
 30
0.0
 10
35.19654875645462
 20
15.87110291831377
 30
0.0
 10
34.27244670254672
 20
15.75935197324249
 30
0.0
 10
33.34784656632928
 20
15.65150746451785
 30
0.0
 10
32.42231592389223
 20
15.55288325070846
 30
0.0
 10
31.49284901316682
 20
15.48914083428986
 30
0.0
 10
30.56610587213002
 20
15.44040771583143
 30
0.0
 10
29.93530169392105
 20
15.52463110463187
 30
0.0
 10
29.64483943941842
 20
15.40997029251238
 30
0.0
  0
SPLINE
  5
78
330
1F
100
AcDbEntity
  8
Default
100
AcDbSpline
210
0.0
220
0.0
230
1.0
 70
    12
 71
     2
 72
     6
 73
     3
 74
     0
 42
0.0000000001
 43
0.0000000001
 40
-0.687820922641539
 40
-0.687820922641539
 40
-0.687820922641539
 40
0.0
 40
0.0
 40
0.0
 10
29.64483943941842
 20
15.40997029251238
 30
0.0
 41
1.0
 10
29.39404625032241
 20
15.17463634573139
 30
0.0
 41
0.9999690258309426
 10
29.14698848809545
 20
14.93538385916572
 30
0.0
 41
1.0
  0
SPLINE
  5
79
330
1F
100
AcDbEntity
  8
Default
100
AcDbSpline
210
0.0
220
0.0
230
1.0
 70
    12
 71
     2
 72
     6
 73
     3
 74
     0
 42
0.0000000001
 43
0.0000000001
 40
0.0
 40
0.0
 40
0.0
 40
0.108394787279406
 40
0.108394787279406
 40
0.108394787279406
 10
27.31042364455675
 20
16.40117044452701
 30
0.0
 41
1.0
 10
27.25653101404385
 20
16.40690995103366
 30
0.0
 41
0.999999979266735
 10
27.20264072550995
 20
16.41267140573454
 30
0.0
 41
1.0
  0
SPLINE
  5
7A
330
1F
100
AcDbEntity
  8
Default
100
AcDbSpline
210
0.0
220
0.0
230
1.0
 70
    24
 71
     2
 72
     6
 73
     3
 74
     0
 42
0.0000000001
 43
0.0000000001
 40
-0.2325307321403076
 40
-0.2325307321403076
 40
-0.2325307321403076
 40
-0.0181596897530964
 40
-0.0181596897530964
 40
-0.0181596897530964
 10
27.47485191788925
 20
16.53871397701525
 30
0.0
 10
27.39263778176613
 20
16.46994221043305
 30
0.0
 10
27.310423645643
 20
16.40117044385085
 30
0.0
  0
SPLINE
  5
7B
330
1F
100
AcDbEntity
  8
Default
100
AcDbSpline
210
0.0
220
0.0
230
1.0
 70
    12
 71
     2
 72
     6
 73
     3
 74
     0
 42
0.0000000001
 43
0.0000000001
 40
0.0
 40
0.0
 40
0.0
 40
0.0457929944082863
 40
0.0457929944082863
 40
0.0457929944082863
 10
27.310423645643
 20
16.40117044385085
 30
0.0
 41
1.0
 10
27.30446500541065
 20
16.37678361109264
 30
0.0
 41
0.8731582744741458
 10
27.3220963797007
 20
16.3589130316432
 30
0.0
 41
1.0
  0
SPLINE
  5
7C
330
1F
100
AcDbEntity
  8
Default
100
AcDbSpline
210
0.0
220
0.0
230
1.0
 70
    12
 71
     2
 72
     6
 73
     3
 74
     0
 42
0.0000000001
 43
0.0000000001
 40
0.0
 40
0.0
 40
0.0
 40
2.137039182577097
 40
2.137039182577097
 40
2.137039182577097
 10
27.3220963797007
 20
16.3589130316432
 30
0.0
 41
1.0
 10
28.07490880861011
 20
15.59497921385674
 30
0.0
 41
0.9944000822514505
 10
28.97146810093153
 20
15.00633427297096
 30
0.0
 41
1.0
  0
SPLINE
  5
7D
330
1F
100
AcDbEntity
  8
Default
100
AcDbSpline
210
0.0
220
0.0
230
1.0
 70
    12
 71
     2
 72
     6
 73
     3
 74
     0
 42
0.0000000001
 43
0.0000000001
 40
-0.1906435954869634
 40
-0.1906435954869634
 40
-0.1906435954869634
 40
0.0
 40
0.0
 40
0.0
 10
28.97146810093153
 20
15.00633427297096
 30
0.0
 41
1.0
 10
29.05187244256768
 20
14.95266182221586
 30
0.0
 41
0.9791718629292984
 10
29.14698848809545
 20
14.93538385916572
 30
0.0
 41
1.0
  0
SPLINE
  5
7E
330
1F
100
AcDbEntity
  8
Default
100
AcDbSpline
210
0.0
220
0.0
230
1.0
 70
     8
 71
     3
 72
    14
 73
    10
 74
     0
 42
0.0000000001
 43
0.0000000001
 40
0.0
 40
0.0
 40
0.0
 40
0.0
 40
0.6990240910473118
 40
1.427452671610304
 40
2.963428520767245
 40
4.341267153930231
 40
7.279531458324128
 40
8.656584164251418
 40
12.64851224199838
 40
12.64851224199838
 40
12.64851224199838
 40
12.64851224199838
 10
29.14698848809545
 20
14.93538385916572
 30
0.0
 10
29.37614076368472
 20
14.89286425096342
 30
0.0
 10
29.84718517809102
 20
14.82429972397576
 30
0.0
 10
30.8337366224366
 20
14.75719010483868
 30
0.0
 10
32.04902598396804
 20
14.80782626259822
 30
0.0
 10
33.98300334626148
 20
15.06938269590752
 30
0.0
 10
35.84518089639285
 20
15.43867535267184
 30
0.0
 10
38.58500741665205
 20
15.84421296217724
 30
0.0
 10
40.37076925610391
 20
15.98529054233726
 30
0.0
 10
41.6981058330236
 20
16.07324798474013
 30
0.0
  0
SPLINE
  5
7F
330
1F
100
AcDbEntity
  8
Default
100
AcDbSpline
210
0.0
220
0.0
230
1.0
 70
    12
 71
     2
 72
     6
 73
     3
 74
     0
 42
0.0000000001
 43
0.0000000001
 40
0.0
 40
0.0
 40
0.0
 40
0.0849799967781024
 40
0.0849799967781024
 40
0.0849799967781024
 10
27.88743932415935
 20
16.67119256041643
 30
0.0
 41
1.0
 10
27.93322635013572
 20
16.67981936839157
 30
0.0
 41
0.8730054950337861
 10
27.94988530518842
 20
16.72333204217927
 30
0.0
 41
1.0
  0
SPLINE
  5
80
330
1F
100
AcDbEntity
  8
Default
100
AcDbSpline
210
0.0
220
0.0
230
1.0
 70
    12
 71
     3
 72
    36
 73
    32
 74
     0
 42
0.0000000001
 43
0.0000000001
 40
-0.0889457941897172
 40
-0.0889457941897172
 40
-0.0889457941897172
 40
-0.0889457941897172
 40
0.0
 40
0.0
 40
0.0
 40
0.2215729701957649
 40
0.2215729701957649
 40
0.2215729701957649
 40
0.3158714000432518
 40
0.3158714000432518
 40
0.3158714000432518
 40
0.7215575836071267
 40
0.7215575836071267
 40
0.9710263337659925
 40
0.9710263337659925
 40
1.222332614297898
 40
1.222332614297898
 40
1.222332614297898
 40
1.587029359019114
 40
1.587029359019114
 40
1.587029359019114
 40
1.628812051493471
 40
1.664042597137328
 40
1.68787289307827
 40
1.707876599877494
 40
1.707876599877494
 40
1.707876599877494
 40
1.947677305818644
 40
1.947677305818644
 40
1.947677305818644
 40
2.062852807233988
 40
2.062852807233988
 40
2.062852807233988
 40
2.062852807233988
 10
28.06182677797318
 20
17.1205499286931
 30
0.0
 41
1.0
 10
28.0669669132753
 20
17.15097237652878
 30
0.0
 41
0.924278334233492
 10
28.05744107543353
 20
17.18031866652686
 30
0.0
 41
0.924278334233492
 10
28.03541320137552
 20
17.20192234879917
 30
0.0
 41
1.0
 10
27.94940423494357
 20
17.23824439023696
 30
0.0
 41
1.0
 10
27.84627367066236
 20
17.28624017264634
 30
0.0
 41
1.0
 10
27.77439577565571
 20
17.30322609821267
 30
0.0
 41
1.0
 10
27.74380552525703
 20
17.31045507613807
 30
0.0
 41
1.0
 10
27.71321527485834
 20
17.31768405406348
 30
0.0
 41
1.0
 10
27.67445219411542
 20
17.32651012480429
 30
0.0
 41
1.0
 10
27.66335990528734
 20
17.32724738570355
 30
0.0
 41
1.0
 10
27.65496195897792
 20
17.31956702419183
 30
0.0
 41
1.0
 10
27.64564843587038
 20
17.29879181958419
 30
0.0
 41
1.0
 10
27.64305411189569
 20
17.28894305121616
 30
0.0
 41
1.0
 10
27.6395581086405
 20
17.26667488656028
 30
0.0
 41
1.0
 10
27.63863436584091
 20
17.25413381344913
 30
0.0
 41
1.0
 10
27.63865941067345
 20
17.24054067899784
 30
0.0
 41
1.0
 10
27.64165757386683
 20
17.11715083761452
 30
0.0
 41
0.9702102744834417
 10
27.60804916753257
 20
16.99838839842263
 30
0.0
 41
0.9702102744834417
 10
27.5408377472699
 20
16.89486706281778
 30
0.0
 41
1.0
 10
27.53357554090037
 20
16.88301263027817
 30
0.0
 41
1.0
 10
27.52185256424346
 20
16.85998605896417
 30
0.0
 41
1.0
 10
27.51204768911214
 20
16.82777982670915
 30
0.0
 41
1.0
 10
27.51304254998482
 20
16.8005470267607
 30
0.0
 41
1.0
 10
27.52400552873846
 20
16.78901485932554
 30
0.0
 41
1.0
 10
27.53038734742184
 20
16.78689780951874
 30
0.0
 41
1.0
 10
27.60490024925109
 20
16.75796335155532
 30
0.0
 41
1.0
 10
27.67941315108034
 20
16.7290288935919
 30
0.0
 41
1.0
 10
27.75392605290959
 20
16.70009443562848
 30
0.0
 41
1.0
 10
27.79128878968965
 20
16.69126500737839
 30
0.0
 41
1.0
 10
27.82865152646971
 20
16.68243557912831
 30
0.0
 41
1.0
 10
27.88743932415935
 20
16.67119256041643
 30
0.0
 41
1.0
  0
SPLINE
  5
81
330
1F
100
AcDbEntity
  8
Default
100
AcDbSpline
210
0.0
220
0.0
230
1.0
 70
     8
 71
     2
 72
    11
 73
     8
 74
     0
 42
0.0000000001
 43
0.0000000001
 40
0.0
 40
0.0
 40
0.0
 40
1.000004143264599
 40
2.000008286529197
 40
3.000012429793797
 40
4.000016573058396
 40
5.000020716322994
 40
6.0
 40
6.0
 40
6.0
 10
23.17845525855553
 20
0.1240308316735862
 30
0.0
 10
23.08803957626789
 20
0.1519624094332632
 30
0.0
 10
22.9066172515974
 20
0.1983654390863449
 30
0.0
 10
22.72512030104437
 20
0.2443067606907554
 30
0.0
 10
22.54338847259302
 20
0.2893592950152835
 30
0.0
 10
22.36132468942824
 20
0.332951489963928
 30
0.0
 10
22.17915928155465
 20
0.3766320443486372
 30
0.0
 10
22.08719946622776
 20
0.3931930026811459
 30
0.0
  0
SPLINE
  5
82
330
1F
100
AcDbEntity
  8
Default
100
AcDbSpline
210
0.0
220
0.0
230
1.0
 70
    12
 71
     2
 72
     6
 73
     3
 74
     0
 42
0.0000000001
 43
0.0000000001
 40
-0.0708654497355923
 40
-0.0708654497355923
 40
-0.0708654497355923
 40
0.0
 40
0.0
 40
0.0
 10
23.16749349858824
 20
0.0536459461038596
 30
0.0
 41
1.0
 10
23.17084615637851
 20
0.08898444707195
 30
0.0
 41
0.9972784465641281
 10
23.17845525855553
 20
0.1240308316735862
 30
0.0
 41
1.0
  0
SPLINE
  5
83
330
1F
100
AcDbEntity
  8
Default
100
AcDbSpline
210
0.0
220
0.0
230
1.0
 70
    12
 71
     2
 72
     8
 73
     5
 74
     0
 42
0.0000000001
 43
0.0000000001
 40
0.0
 40
0.0
 40
0.0
 40
0.0400487643131459
 40
0.0400487643131459
 40
0.0737985633247636
 40
0.0737985633247636
 40
0.0737985633247636
 10
23.11772666773444
 20
0.0083630491118285
 30
0.0
 41
1.0
 10
23.13889353212216
 20
0.0083771491827248
 30
0.0
 41
0.9209692297744823
 10
23.15362335338257
 20
0.023578093642058
 30
0.0
 41
1.0
 10
23.16583392429818
 20
0.0361784597201908
 30
0.0
 41
0.9435914231870833
 10
23.16749349858824
 20
0.0536459461038596
 30
0.0
 41
1.0
  0
SPLINE
  5
84
330
1F
100
AcDbEntity
  8
Default
100
AcDbSpline
210
0.0
220
0.0
230
1.0
 70
    12
 71
     2
 72
    12
 73
     9
 74
     0
 42
0.0000000001
 43
0.0000000001
 40
-0.4171709231871386
 40
-0.4171709231871386
 40
-0.4171709231871386
 40
-0.0801336414061238
 40
-0.0801336414061238
 40
-0.0400668207030619
 40
-0.0400668207030619
 40
0.0
 40
0.0
 40
0.9002440585113858
 40
0.9002440585113858
 40
0.9002440585113858
 10
22.08719946622776
 20
0.3931930026811459
 30
0.0
 41
1.0
 10
22.04666039886895
 20
0.2289542388617509
 30
0.0
 41
0.994502632275188
 10
22.04121108638006
 20
0.0599024973427458
 30
0.0
 41
1.0
 10
22.0405279678872
 20
0.0387337480959867
 30
0.0
 41
0.9207550203895514
 10
22.05526147180838
 20
0.0235184118278704
 30
0.0
 41
1.0
 10
22.06999497572956
 20
0.0083030755597541
 30
0.0
 41
0.9207550203895514
 10
22.09117474419691
 20
0.0083048693151531
 30
0.0
 41
1.0
 10
22.62899452853109
 20
-0.0047046777954313
 30
0.0
 41
0.9997936884095617
 10
23.11772666773444
 20
0.0083630491118285
 30
0.0
 41
1.0
  0
SPLINE
  5
85
330
1F
100
AcDbEntity
  8
Default
100
AcDbSpline
210
0.0
220
0.0
230
1.0
 70
    12
 71
     2
 72
     6
 73
     3
 74
     0
 42
0.0000000001
 43
0.0000000001
 40
0.0
 40
0.0
 40
0.0
 40
0.0904048108433086
 40
0.0904048108433086
 40
0.0904048108433086
 10
43.2639685735007
 20
0.1020985816155164
 30
0.0
 41
1.0
 10
43.26553154292445
 20
0.0458436367175797
 30
0.0
 41
0.7293564259667926
 10
43.20949155116637
 20
0.0406879580384168
 30
0.0
 41
1.0
  0
SPLINE
  5
86
330
1F
100
AcDbEntity
  8
Default
100
AcDbSpline
210
0.0
220
0.0
230
1.0
 70
    24
 71
     2
 72
     6
 73
     3
 74
     0
 42
0.0000000001
 43
0.0000000001
 40
0.0
 40
0.0
 40
0.0
 40
0.0839130223841461
 40
0.0839130223841461
 40
0.0839130223841461
 10
43.26163436834341
 20
0.1859791324716351
 30
0.0
 10
43.26280147092206
 20
0.1440388570435758
 30
0.0
 10
43.2639685735007
 20
0.1020985816155164
 30
0.0
  0
SPLINE
  5
87
330
1F
100
AcDbEntity
  8
Default
100
AcDbSpline
210
0.0
220
0.0
230
1.0
 70
    12
 71
     2
 72
     6
 73
     3
 74
     0
 42
0.0000000001
 43
0.0000000001
 40
-0.5626268167511917
 40
-0.5626268167511917
 40
-0.5626268167511917
 40
0.0
 40
0.0
 40
0.0
 10
42.69913447755781
 20
0.1781503159405826
 30
0.0
 41
1.0
 10
42.98027558865089
 20
0.1898844606226482
 30
0.0
 41
0.9996137062916401
 10
43.26163436834341
 20
0.1859791324716351
 30
0.0
 41
1.0
  0
SPLINE
  5
88
330
1F
100
AcDbEntity
  8
Default
100
AcDbSpline
210
0.0
220
0.0
230
1.0
 70
    12
 71
     2
 72
     6
 73
     3
 74
     0
 42
0.0000000001
 43
0.0000000001
 40
-0.8835729338221291
 40
-0.8835729338221291
 40
-0.8835729338221291
 40
0.0
 40
0.0
 40
0.0
 10
42.1370697036715
 20
0.1546850528959354
 30
0.0
 41
1.0
 10
42.13685214620813
 20
0.1625032762212801
 30
0.0
 41
0.7071067811865476
 10
42.69913447755781
 20
0.1781503159405826
 30
0.0
 41
1.0
  0
SPLINE
  5
89
330
1F
100
AcDbEntity
  8
Default
100
AcDbSpline
210
0.0
220
0.0
230
1.0
 70
    24
 71
     2
 72
     6
 73
     3
 74
     0
 42
0.0000000001
 43
0.0000000001
 40
0.0
 40
0.0
 40
0.0
 40
0.0839130223841461
 40
0.0839130223841461
 40
0.0839130223841461
 10
42.13940391080584
 20
0.0708045020157896
 30
0.0
 10
42.13823680822721
 20
0.112744777443849
 30
0.0
 10
42.13706970564857
 20
0.1546850528719084
 30
0.0
  0
SPLINE
  5
8A
330
1F
100
AcDbEntity
  8
Default
100
AcDbSpline
210
0.0
220
0.0
230
1.0
 70
    12
 71
     2
 72
     6
 73
     3
 74
     0
 42
0.0000000001
 43
0.0000000001
 40
0.0
 40
0.0
 40
0.0
 40
0.0904048108433135
 40
0.0904048108433135
 40
0.0904048108433135
 10
42.19721181792528
 20
0.0125185129188097
 30
0.0
 41
1.0
 10
42.14097183216272
 20
0.0145496949188919
 30
0.0
 41
0.729356425966674
 10
42.13940391080584
 20
0.0708045020157896
 30
0.0
 41
1.0
  0
SPLINE
  5
8B
330
1F
100
AcDbEntity
  8
Default
100
AcDbSpline
210
0.0
220
0.0
230
1.0
 70
    12
 71
     2
 72
     7
 73
     4
 74
     0
 42
0.0000000001
 43
0.0000000001
 40
-2.0
 40
-2.0
 40
-2.0
 40
-1.0
 40
0.0
 40
0.0
 40
0.0
 10
43.20949155116637
 20
0.0406879580384168
 30
0.0
 41
1.0
 10
42.97606810001727
 20
0.0247868753695916
 30
0.0
 41
1.0
 10
42.43115832798787
 20
0.0096232744259
 30
0.0
 41
1.0
 10
42.19721181792528
 20
0.0125185129188097
 30
0.0
 41
1.0
  0
SPLINE
  5
8C
330
1F
100
AcDbEntity
  8
Default
100
AcDbSpline
210
0.0
220
0.0
230
1.0
 70
    12
 71
     2
 72
     6
 73
     3
 74
     0
 42
0.0000000001
 43
0.0000000001
 40
0.0
 40
0.0
 40
0.0
 40
4.878290109995292
 40
4.878290109995292
 40
4.878290109995292
 10
0.0000000000000071
 20
62.00239406379631
 30
0.0
 41
0.9999918043754388
 10
-2.448250804729712
 20
61.99068630766807
 30
0.0
 41
0.9934760685754098
 10
-4.830211976756473
 20
61.4247092328999
 30
0.0
 41
1.0
  0
SPLINE
  5
8D
330
1F
100
AcDbEntity
  8
Default
100
AcDbSpline
210
0.0
220
0.0
230
1.0
 70
    12
 71
     2
 72
     6
 73
     3
 74
     0
 42
0.0000000001
 43
0.0000000001
 40
-4.878290109995292
 40
-4.878290109995292
 40
-4.878290109995292
 40
0.0
 40
0.0
 40
0.0
 10
4.830211976756473
 20
61.4247092328999
 30
0.0
 41
1.0
 10
2.44825080472971
 20
61.99068630766807
 30
0.0
 41
0.9934760685754098
 10
0.0000000000000071
 20
62.00239406379631
 30
0.0
 41
0.9999918043754388
  0
SPLINE
  5
8E
330
1F
100
AcDbEntity
  8
Default
100
AcDbSpline
210
0.0
220
0.0
230
1.0
 70
    12
 71
     2
 72
     6
 73
     3
 74
     0
 42
0.0000000001
 43
0.0000000001
 40
0.0
 40
0.0
 40
0.0
 40
0.0742368075508645
 40
0.0742368075508645
 40
0.0742368075508645
 10
9.335955625871321
 20
62.11656697078459
 30
0.0
 41
1.0
 10
9.34690355956293
 20
62.08109977472404
 30
0.0
 41
0.9999981765885326
 10
9.357715952740222
 20
62.04559102365766
 30
0.0
 41
1.0
  0
SPLINE
  5
8F
330
1F
100
AcDbEntity
  8
Default
100
AcDbSpline
210
0.0
220
0.0
230
1.0
 70
    24
 71
     2
 72
     6
 73
     3
 74
     0
 42
0.0000000001
 43
0.0000000001
 40
0.0
 40
0.0
 40
0.0
 40
4.328712305731482
 40
4.328712305731482
 40
4.328712305731482
 10
10.08007788435725
 20
65.84508627010612
 30
0.0
 10
9.945612716624808
 20
63.68490204714418
 30
0.0
 10
9.811147548892365
 20
61.52471782418223
 30
0.0
  0
SPLINE
  5
90
330
1F
100
AcDbEntity
  8
Default
100
AcDbSpline
210
0.0
220
0.0
230
1.0
 70
    12
 71
     2
 72
     8
 73
     5
 74
     0
 42
0.0000000001
 43
0.0000000001
 40
-3.141592653589793
 40
-3.141592653589793
 40
-3.141592653589793
 40
-1.570796326794897
 40
-1.570796326794897
 40
0.0
 40
0.0
 40
0.0
 10
8.957279649586397
 20
65.91493550687377
 30
0.0
 41
1.0
 10
8.99106639024709
 20
66.45765672688385
 30
0.0
 41
0.7071067811865475
 10
9.553639161221142
 20
66.42385621572359
 30
0.0
 41
1.0
 10
10.11494709068074
 20
66.38775710465293
 30
0.0
 41
0.7071067811865475
 10
10.08007788435725
 20
65.84508627010612
 30
0.0
 41
1.0
  0
SPLINE
  5
91
330
1F
100
AcDbEntity
  8
Default
100
AcDbSpline
210
0.0
220
0.0
230
1.0
 70
    24
 71
     2
 72
     6
 73
     3
 74
     0
 42
0.0000000001
 43
0.0000000001
 40
0.0
 40
0.0
 40
0.0
 40
2.34975482514205
 40
2.34975482514205
 40
2.34975482514205
 10
8.811279904834919
 20
63.56972084445781
 30
0.0
 10
8.884279777210658
 20
64.74232817566579
 30
0.0
 10
8.957279649586397
 20
65.91493550687377
 30
0.0
  0
SPLINE
  5
92
330
1F
100
AcDbEntity
  8
Default
100
AcDbSpline
210
0.0
220
0.0
230
1.0
 70
     8
 71
     3
 72
     8
 73
     4
 74
     0
 42
0.0000000001
 43
0.0000000001
 40
0.0
 40
0.0
 40
0.0
 40
0.0
 40
1.443706964781046
 40
1.443706964781046
 40
1.443706964781046
 40
1.443706964781046
 10
28.89011084498009
 20
17.04078782602451
 30
0.0
 10
28.44030085777987
 20
17.21183966316163
 30
0.0
 10
27.93960849824063
 20
17.40440481547893
 30
0.0
 10
27.49100766984512
 20
17.57860312871959
 30
0.0
  0
SPLINE
  5
93
330
1F
100
AcDbEntity
  8
Default
100
AcDbSpline
210
0.0
220
0.0
230
1.0
 70
    24
 71
     2
 72
     6
 73
     3
 74
     0
 42
0.0000000001
 43
0.0000000001
 40
0.0
 40
0.0
 40
0.0
 40
1.315706620815528
 40
1.315706620815528
 40
1.315706620815528
 10
27.25163601921702
 20
16.60953411884827
 30
0.0
 10
27.86442477898004
 20
16.37023832634972
 30
0.0
 10
28.47721353874306
 20
16.13094253385117
 30
0.0
  0
SPLINE
  5
94
330
1F
100
AcDbEntity
  8
Default
100
AcDbSpline
210
0.0
220
0.0
230
1.0
 70
    12
 71
     2
 72
     8
 73
     5
 74
     0
 42
0.0000000001
 43
0.0000000001
 40
-0.0898917853188032
 40
-0.0898917853188032
 40
-0.0898917853188032
 40
-0.0522765087782868
 40
-0.0522765087782868
 40
0.0
 40
0.0
 40
0.0
 10
27.67480517141593
 20
16.78350236312304
 30
0.0
 41
1.0
 10
27.65668600288976
 20
16.79298360585488
 30
0.0
 41
0.8837810173697971
 10
27.65434193500434
 20
16.81329871298156
 30
0.0
 41
1.0
 10
27.64940192986791
 20
16.83947995889463
 30
0.0
 41
0.9718115344464822
 10
27.65700802677364
 20
16.86501441753719
 30
0.0
 41
1.0
  0
SPLINE
  5
95
330
1F
100
AcDbEntity
  8
Default
100
AcDbSpline
210
0.0
220
0.0
230
1.0
 70
    24
 71
     2
 72
     6
 73
     3
 74
     0
 42
0.0000000001
 43
0.0000000001
 40
0.0
 40
0.0
 40
0.0
 40
0.2398007059438631
 40
0.2398007059438631
 40
0.2398007059438631
 10
27.89834387690225
 20
16.69669898922158
 30
0.0
 10
27.78657452415909
 20
16.74010067617231
 30
0.0
 10
27.67480517141593
 20
16.78350236312304
 30
0.0
  0
SPLINE
  5
96
330
1F
100
AcDbEntity
  8
Default
100
AcDbSpline
210
0.0
220
0.0
230
1.0
 70
    12
 71
     2
 72
     6
 73
     3
 74
     0
 42
0.0000000001
 43
0.0000000001
 40
0.0
 40
0.0
 40
0.0
 40
0.0850192936796374
 40
0.0850192936796374
 40
0.0850192936796374
 10
27.95418301265897
 20
16.7496169906896
 30
0.0
 41
1.0
 10
27.95175252158793
 20
16.69626188691553
 30
0.0
 41
0.7201836708809143
 10
27.89834387690225
 20
16.69669898922158
 30
0.0
 41
1.0
  0
SPLINE
  5
97
330
1F
100
AcDbEntity
  8
Default
100
AcDbSpline
210
0.0
220
0.0
230
1.0
 70
    24
 71
     2
 72
     6
 73
     3
 74
     0
 42
0.0000000001
 43
0.0000000001
 40
0.0
 40
0.0
 40
0.0
 40
0.3578031650550604
 40
0.3578031650550604
 40
0.3578031650550604
 10
28.05180802355477
 20
17.09459724239993
 30
0.0
 10
28.00299551810687
 20
16.92210711654477
 30
0.0
 10
27.95418301265897
 20
16.7496169906896
 30
0.0
  0
SPLINE
  5
98
330
1F
100
AcDbEntity
  8
Default
100
AcDbSpline
210
0.0
220
0.0
230
1.0
 70
    12
 71
     2
 72
     6
 73
     3
 74
     0
 42
0.0000000001
 43
0.0000000001
 40
0.0
 40
0.0
 40
0.0
 40
0.08967655564239
 40
0.08967655564239
 40
0.08967655564239
 10
28.03420812962742
 20
17.17680632722319
 30
0.0
 41
1.0
 10
28.07430228226214
 20
17.14286146750576
 30
0.0
 41
0.7940831638840014
 10
28.05180802355477
 20
17.09459724239993
 30
0.0
 41
1.0
  0
SPLINE
  5
99
330
1F
100
AcDbEntity
  8
Default
100
AcDbSpline
210
0.0
220
0.0
230
1.0
 70
    24
 71
     2
 72
     6
 73
     3
 74
     0
 42
0.0000000001
 43
0.0000000001
 40
-0.2398007059438697
 40
-0.2398007059438697
 40
-0.2398007059438697
 40
0.0
 40
0.0
 40
0.0
 10
27.81066942414108
 20
17.26360970112464
 30
0.0
 10
27.92243877688425
 20
17.22020801417391
 30
0.0
 10
28.03420812962742
 20
17.17680632722319
 30
0.0
  0
SPLINE
  5
9A
330
1F
100
AcDbEntity
  8
Default
100
AcDbSpline
210
0.0
220
0.0
230
1.0
 70
    12
 71
     2
 72
     8
 73
     5
 74
     0
 42
0.0000000001
 43
0.0000000001
 40
-0.0851434026212989
 40
-0.0851434026212989
 40
-0.0851434026212989
 40
-0.0349273505781476
 40
-0.0349273505781476
 40
0.0
 40
0.0
 40
0.0
 10
27.75483028838437
 20
17.21069169965662
 30
0.0
 41
1.0
 10
27.7612010745092
 20
17.23557491090508
 30
0.0
 41
0.9665972973670869
 10
27.77906394678782
 20
17.25403240022082
 30
0.0
 41
1.0
 10
27.79175337120548
 20
17.26909511267556
 30
0.0
 41
0.8383882943599786
 10
27.81066942414108
 20
17.26360970112464
 30
0.0
 41
1.0
  0
SPLINE
  5
9B
330
1F
100
AcDbEntity
  8
Default
100
AcDbSpline
210
0.0
220
0.0
230
1.0
 70
    24
 71
     2
 72
     6
 73
     3
 74
     0
 42
0.0000000001
 43
0.0000000001
 40
-0.3592519704053348
 40
-0.3592519704053348
 40
-0.3592519704053348
 40
0.0
 40
0.0
 40
0.0
 10
27.65700802677364
 20
16.86501441753719
 30
0.0
 10
27.705919157579
 20
17.03785305859691
 30
0.0
 10
27.75483028838437
 20
17.21069169965662
 30
0.0
  0
LINE
  5
9C
330
1F
100
AcDbEntity
  8
Default
100
AcDbLine
 10
27.34394550690206
 20
16.98323862227607
 30
0.0
 11
23.17937385497805
 21
0.123442081298764
 31
0.0
  0
ARC
  5
9D
330
1F
100
AcDbEntity
  8
Default
100
AcDbCircle
 10
-42652.81477724839
 20
10559.49356419321
 30
0.0
 40
43962.94431182191
100
AcDbArc
 50
346.1249999996745
 51
346.1261097646095
  0
SPLINE
  5
9E
330
1F
100
AcDbEntity
  8
Default
100
AcDbSpline
210
0.0
220
0.0
230
1.0
 70
     8
 71
     2
 72
    11
 73
     8
 74
     0
 42
0.0000000001
 43
0.0000000001
 40
0.0
 40
0.0
 40
0.0
 40
1.0
 40
2.0
 40
3.0
 40
4.0
 40
5.0
 40
6.0
 40
6.0
 40
6.0
 10
26.45600693215356
 20
18.07967766300033
 30
0.0
 10
26.54803224218392
 20
18.0631036346349
 30
0.0
 10
26.73040480289305
 20
18.01946650612292
 30
0.0
 10
26.91259140597298
 20
17.97567439570509
 30
0.0
 10
27.09452413146724
 20
17.93072544508391
 30
0.0
 10
27.27618154590616
 20
17.88473422393082
 30
0.0
 10
27.45779240961258
 20
17.83834209008075
 30
0.0
 10
27.54813593206913
 20
17.80991481515813
 30
0.0
  0
LINE
  5
9F
330
1F
100
AcDbEntity
  8
Default
100
AcDbLine
 10
22.08719999549353
 20
0.3932221040366883
 30
0.0
 11
26.45600693215356
 21
18.07967766300033
 31
0.0
  0
SPLINE
  5
A0
330
1F
100
AcDbEntity
  8
Default
100
AcDbSpline
210
0.0
220
0.0
230
1.0
 70
    12
 71
     2
 72
     6
 73
     3
 74
     0
 42
0.0000000001
 43
0.0000000001
 40
0.0
 40
0.0
 40
0.0
 40
0.7816405396757449
 40
0.7816405396757449
 40
0.7816405396757449
 10
26.58950853454394
 20
18.84887743346455
 30
0.0
 41
1.0
 10
26.55609852702656
 20
18.45850625773229
 30
0.0
 41
0.996260045340734
 10
26.4559792133214
 20
18.07971610043176
 30
0.0
 41
1.0
  0
SPLINE
  5
A1
330
1F
100
AcDbEntity
  8
Default
100
AcDbSpline
210
0.0
220
0.0
230
1.0
 70
    12
 71
     2
 72
     6
 73
     3
 74
     0
 42
0.0000000001
 43
0.0000000001
 40
0.0
 40
0.0
 40
0.0
 40
0.1598633113070148
 40
0.1598633113070148
 40
0.1598633113070148
 10
26.60614084396708
 20
19.00782146182324
 30
0.0
 41
1.0
 10
26.59432972252991
 20
18.92871518479228
 30
0.0
 41
0.9990343967449803
 10
26.58950853454394
 20
18.84887743346455
 30
0.0
 41
1.0
  0
SPLINE
  5
A2
330
1F
100
AcDbEntity
  8
Default
100
AcDbSpline
210
0.0
220
0.0
230
1.0
 70
    12
 71
     2
 72
     6
 73
     3
 74
     0
 42
0.0000000001
 43
0.0000000001
 40
0.0
 40
0.0
 40
0.0
 40
2.061631574185771
 40
2.061631574185771
 40
2.061631574185771
 10
27.54813593206745
 20
17.80991481515736
 30
0.0
 41
1.0
 10
27.79189045789716
 20
18.81160326069643
 30
0.0
 41
0.9998484010904932
 10
28.00061984023964
 20
19.82117151283983
 30
0.0
 41
1.0
  0
SPLINE
  5
A3
330
1F
100
AcDbEntity
  8
Default
100
AcDbSpline
210
0.0
220
0.0
230
1.0
 70
     8
 71
     3
 72
    12
 73
     8
 74
     0
 42
0.0000000001
 43
0.0000000001
 40
0.0
 40
0.0
 40
0.0
 40
0.0
 40
1.409468345024047
 40
2.584983022344898
 40
3.607507320650333
 40
4.89328680666405
 40
7.894681883043148
 40
7.894681883043148
 40
7.894681883043148
 40
7.894681883043148
 10
0.0
 20
20.6509019585564
 30
0.0
 10
0.4697858141703506
 20
20.65164279685978
 30
0.0
 10
1.33158175957179
 20
20.64098293152931
 30
0.0
 10
2.532892209525698
 20
20.58802254629132
 30
0.0
 10
3.689544780288173
 20
20.47202703704514
 30
0.0
 10
5.44317163554598
 20
20.25225775873664
 30
0.0
 10
6.830430157696895
 20
19.83044753251617
 30
0.0
 10
7.68729246927316
 20
19.30456946681521
 30
0.0
  0
SPLINE
  5
A4
330
1F
100
AcDbEntity
  8
Default
100
AcDbSpline
210
0.0
220
0.0
230
1.0
 70
     8
 71
     3
 72
    12
 73
     8
 74
     0
 42
0.0000000001
 43
0.0000000001
 40
-7.894681883043148
 40
-7.894681883043148
 40
-7.894681883043148
 40
-7.894681883043148
 40
-4.89328680666405
 40
-3.607507320650333
 40
-2.584983022344898
 40
-1.409468345024047
 40
0.0
 40
0.0
 40
0.0
 40
0.0
 10
-7.68729246927316
 20
19.30456946681521
 30
0.0
 10
-6.830430157696895
 20
19.83044753251617
 30
0.0
 10
-5.44317163554598
 20
20.25225775873664
 30
0.0
 10
-3.689544780288173
 20
20.47202703704514
 30
0.0
 10
-2.532892209525698
 20
20.58802254629132
 30
0.0
 10
-1.33158175957179
 20
20.64098293152931
 30
0.0
 10
-0.4697858141703506
 20
20.65164279685978
 30
0.0
 10
0.0
 20
20.6509019585564
 30
0.0
  0
SPLINE
  5
A5
330
1F
100
AcDbEntity
  8
Default
100
AcDbSpline
210
0.0
220
0.0
230
1.0
 70
     8
 71
     2
 72
    11
 73
     8
 74
     0
 42
0.0000000001
 43
0.0000000001
 40
0.0
 40
0.0
 40
0.0
 40
1.0
 40
2.0
 40
3.0
 40
4.0
 40
5.0
 40
6.0
 40
6.0
 40
6.0
 10
9.356630980129523
 20
62.04605054382793
 30
0.0
 10
9.421919879349218
 20
62.03360923254479
 30
0.0
 10
9.5430780443685
 20
61.97892810859325
 30
0.0
 10
9.648088631134073
 20
61.89742554496718
 30
0.0
 10
9.73114170892758
 20
61.7936426389284
 30
0.0
 10
9.787576848395616
 20
61.67324875943548
 30
0.0
 10
9.812162408258388
 20
61.5425209613641
 30
0.0
 10
9.808078907190648
 20
61.47615743314853
 30
0.0
  0
SPLINE
  5
A6
330
1F
100
AcDbEntity
  8
Default
100
AcDbSpline
210
0.0
220
0.0
230
1.0
 70
    12
 71
     2
 72
     8
 73
     5
 74
     0
 42
0.0000000001
 43
0.0000000001
 40
0.0
 40
0.0
 40
0.0
 40
1.570796326794897
 40
1.570796326794897
 40
3.141592653589793
 40
3.141592653589793
 40
3.141592653589793
 10
10.08007788435725
 20
65.84508627010612
 30
0.0
 41
1.0
 10
10.11708377637188
 20
66.43994101946241
 30
0.0
 41
0.7071067811865475
 10
9.55568465898645
 20
66.47486563784624
 30
0.0
 41
1.0
 10
8.994285541601034
 20
66.50979025623006
 30
0.0
 41
0.7071067811865475
 10
8.957279649586397
 20
65.91493550687377
 30
0.0
 41
1.0
  0
SPLINE
  5
A7
330
1F
100
AcDbEntity
  8
Default
100
AcDbSpline
210
0.0
220
0.0
230
1.0
 70
     8
 71
     3
 72
    17
 73
    13
 74
     0
 42
0.0000000001
 43
0.0000000001
 40
0.0
 40
0.0
 40
0.0
 40
0.0
 40
0.0047195487793021
 40
0.0094332170594017
 40
0.0238655807282687
 40
0.0671615523774499
 40
0.1755398295510834
 40
0.3480399467799769
 40
0.4715619212285612
 40
0.5666415614261937
 40
0.7713350354149381
 40
1.204786480809649
 40
1.204786480809649
 40
1.204786480809649
 40
1.204786480809649
 10
9.489630343496543
 20
17.94321234491473
 30
0.0
 10
9.488661866399895
 20
17.94399136731202
 30
0.0
 10
9.485856025737093
 20
17.94866678844254
 30
0.0
 10
9.494224874253575
 20
17.9428057155701
 30
0.0
 10
9.509528264681308
 20
17.92986987020993
 30
0.0
 10
9.549626926241473
 20
17.89104666530367
 30
0.0
 10
9.625716506268219
 20
17.81489638776856
 30
0.0
 10
9.713454634722495
 20
17.71151313782854
 30
0.0
 10
9.782898677825045
 20
17.60149910190646
 30
0.0
 10
9.812613587711922
 20
17.45772820420689
 30
0.0
 10
9.71909580410042
 20
17.22540394127058
 30
0.0
 10
9.582616395393927
 20
17.06193564061262
 30
0.0
 10
9.501091075614681
 20
16.94243092575727
 30
0.0
  0
SPLINE
  5
A8
330
1F
100
AcDbEntity
  8
Default
 62
    17
100
AcDbSpline
210
0.0
220
0.0
230
1.0
 70
    12
 71
     2
 72
     6
 73
     3
 74
     0
 42
0.0000000001
 43
0.0000000001
 40
0.0
 40
0.0
 40
0.0
 40
0.0039883534300923
 40
0.0039883534300923
 40
0.0039883534300923
 10
9.551486962441599
 20
46.5897083893566
 30
0.0
 41
1.0
 10
9.55247328633882
 20
46.59144157601914
 30
0.0
 41
0.9999943295923494
 10
9.553471261184738
 20
46.5931680803036
 30
0.0
 41
1.0
  0
SPLINE
  5
A9
330
1F
100
AcDbEntity
  8
Default
100
AcDbSpline
210
0.0
220
0.0
230
1.0
 70
    12
 71
     2
 72
     6
 73
     3
 74
     0
 42
0.0000000001
 43
0.0000000001
 40
0.0
 40
0.0
 40
0.0
 40
0.5806136477528836
 40
0.5806136477528836
 40
0.5806136477528836
 10
9.555838015382049
 20
46.59722469940958
 30
0.0
 41
1.0
 10
9.716810214766275
 20
46.87199943080321
 30
0.0
 41
0.8725415371224636
 10
10.03520074697334
 20
46.87837681176455
 30
0.0
 41
1.0
  0
SPLINE
  5
AA
330
1F
100
AcDbEntity
  8
Default
100
AcDbSpline
210
0.0
220
0.0
230
1.0
 70
    24
 71
     2
 72
     6
 73
     3
 74
     0
 42
0.0000000001
 43
0.0000000001
 40
0.0
 40
0.0
 40
0.0
 40
16.40449565683652
 40
16.40449565683652
 40
16.40449565683652
 10
8.959389723938813
 20
0.2501859601332512
 30
0.0
 10
8.833274054489678
 20
8.451464170065616
 30
0.0
 10
8.707158385040543
 20
16.65274237999798
 30
0.0
  0
SPLINE
  5
AB
330
1F
100
AcDbEntity
  8
Default
100
AcDbSpline
210
0.0
220
0.0
230
1.0
 70
     8
 71
     3
 72
     8
 73
     4
 74
     0
 42
0.0000000001
 43
0.0000000001
 40
0.0000000000000001
 40
0.0000000000000001
 40
0.0000000000000001
 40
0.0000000000000001
 40
0.0308111800759202
 40
0.0308111800759202
 40
0.0308111800759202
 40
0.0308111800759202
 10
9.783972834294474
 20
61.02799129905018
 30
0.0
 10
9.783323732361891
 20
61.01775622455189
 30
0.0
 10
9.782674585490128
 20
61.00751758143244
 30
0.0
 10
9.782024415277492
 20
60.99727600774082
 30
0.0
  0
SPLINE
  5
AC
330
1F
100
AcDbEntity
  8
Default
100
AcDbSpline
210
0.0
220
0.0
230
1.0
 70
    12
 71
     2
 72
     8
 73
     5
 74
     0
 42
0.0000000001
 43
0.0000000001
 40
-3.0
 40
-3.0
 40
-3.0
 40
-2.0
 40
-1.0
 40
0.0
 40
0.0
 40
0.0
 10
9.808061667404175
 20
61.47615068487386
 30
0.0
 41
1.0
 10
9.805392058688057
 20
61.43608123939931
 30
0.0
 41
1.0
 10
9.800444412906472
 20
61.35591626016576
 30
0.0
 41
1.0
 10
9.786514540534313
 20
61.0680690609728
 30
0.0
 41
1.0
 10
9.783972834294474
 20
61.02799129905018
 30
0.0
 41
1.0
  0
SPLINE
  5
AD
330
1F
100
AcDbEntity
  8
Default
100
AcDbSpline
210
0.0
220
0.0
230
1.0
 70
     8
 71
     2
 72
     9
 73
     6
 74
     0
 42
0.0000000001
 43
0.0000000001
 40
2.020322663502027
 40
2.020322663502027
 40
2.020322663502027
 40
3.0
 40
4.0
 40
5.0
 40
6.0
 40
6.0
 40
6.0
 10
9.667933338300996
 20
61.02815934188911
 30
0.0
 10
9.660072531324204
 20
61.12170724979291
 30
0.0
 10
9.633003343408205
 20
61.30959612831992
 30
0.0
 10
9.583189056844475
 20
61.49495774354649
 30
0.0
 10
9.502300219732788
 20
61.66950774381552
 30
0.0
 10
9.444444315482215
 20
61.74613979210507
 30
0.0
  0
SPLINE
  5
AE
330
1F
100
AcDbEntity
  8
Default
100
AcDbSpline
210
0.0
220
0.0
230
1.0
 70
    24
 71
     2
 72
     6
 73
     3
 74
     0
 42
0.0000000001
 43
0.0000000001
 40
0.0
 40
0.0
 40
0.0
 40
0.0838826131717245
 40
0.0838826131717245
 40
0.0838826131717245
 10
10.8605775009428
 20
0.0941719852639064
 30
0.0
 10
10.85999408371222
 20
0.1361107474666116
 30
0.0
 10
10.85941066648165
 20
0.1780495096693168
 30
0.0
  0
SPLINE
  5
AF
330
1F
100
AcDbEntity
  8
Default
100
AcDbSpline
210
0.0
220
0.0
230
1.0
 70
    12
 71
     2
 72
     6
 73
     3
 74
     0
 42
0.0000000001
 43
0.0000000001
 40
0.0
 40
0.0
 40
0.0
 40
0.0905125898444878
 40
0.0905125898444878
 40
0.0905125898444878
 10
10.80091658103225
 20
0.0314136768626967
 30
0.0
 41
1.0
 10
10.85997008962594
 20
0.0392438997650774
 30
0.0
 41
0.7556419620120104
 10
10.8605775009428
 20
0.0941719852639064
 30
0.0
 41
1.0
  0
SPLINE
  5
B0
330
1F
100
AcDbEntity
  8
Default
100
AcDbSpline
210
0.0
220
0.0
230
1.0
 70
    12
 71
     2
 72
     6
 73
     3
 74
     0
 42
0.0000000001
 43
0.0000000001
 40
-0.0147217657248775
 40
-0.0147217657248775
 40
-0.0147217657248775
 40
0.0
 40
0.0
 40
0.0
 10
10.78170867019165
 20
0.028955378737882
 30
0.0
 41
1.0
 10
10.7890388340968
 20
0.0296741409247309
 30
0.0
 41
0.9996253281867565
 10
10.80091658103225
 20
0.0314136768626967
 30
0.0
 41
1.0
  0
SPLINE
  5
B1
330
1F
100
AcDbEntity
  8
Default
100
AcDbSpline
210
0.0
220
0.0
230
1.0
 70
    12
 71
     2
 72
     6
 73
     3
 74
     0
 42
0.0000000001
 43
0.0000000001
 40
0.0
 40
0.0
 40
0.0
 40
0.0149504543859661
 40
0.0149504543859661
 40
0.0149504543859661
 10
10.76681567086501
 20
0.0276202818457507
 30
0.0
 41
1.0
 10
10.7742677329831
 20
0.0282111214671106
 30
0.0
 41
0.9999561228672283
 10
10.78170867019165
 20
0.028955378737882
 30
0.0
 41
1.0
  0
SPLINE
  5
B2
330
1F
100
AcDbEntity
  8
Default
100
AcDbSpline
210
0.0
220
0.0
230
1.0
 70
    12
 71
     2
 72
     6
 73
     3
 74
     0
 42
0.0000000001
 43
0.0000000001
 40
-0.4681485405974239
 40
-0.4681485405974239
 40
-0.4681485405974239
 40
0.0
 40
0.0
 40
0.0
 10
10.29896443884034
 20
0.0124177060636798
 30
0.0
 41
1.0
 10
10.53308336678807
 20
0.0140692428463913
 30
0.0
 41
0.9996765963466816
 10
10.76681567086501
 20
0.0276202818457507
 30
0.0
 41
1.0
  0
SPLINE
  5
B3
330
1F
100
AcDbEntity
  8
Default
100
AcDbSpline
210
0.0
220
0.0
230
1.0
 70
    12
 71
     2
 72
     6
 73
     3
 74
     0
 42
0.0000000001
 43
0.0000000001
 40
-0.4678786518234926
 40
-0.4678786518234926
 40
-0.4678786518234926
 40
0.0
 40
0.0
 40
0.0
 10
9.831141401960423
 20
0.0146127091278879
 30
0.0
 41
1.0
 10
10.06502499463271
 20
0.0075600148960759
 30
0.0
 41
0.99967599695013
 10
10.29896443884034
 20
0.0124177060636798
 30
0.0
 41
1.0
  0
SPLINE
  5
B4
330
1F
100
AcDbEntity
  8
Default
100
AcDbSpline
210
0.0
220
0.0
230
1.0
 70
    12
 71
     2
 72
     6
 73
     3
 74
     0
 42
0.0000000001
 43
0.0000000001
 40
0.0
 40
0.0
 40
0.0
 40
0.0287637614208012
 40
0.0287637614208012
 40
0.0287637614208012
 10
9.797449851394617
 20
0.017355560770371
 30
0.0
 41
1.0
 10
9.816772075912134
 20
0.015286083152476
 30
0.0
 41
0.9996656851759237
 10
9.831141401960423
 20
0.0146127091278879
 30
0.0
 41
1.0
  0
SPLINE
  5
B5
330
1F
100
AcDbEntity
  8
Default
100
AcDbSpline
210
0.0
220
0.0
230
1.0
 70
    12
 71
     2
 72
     6
 73
     3
 74
     0
 42
0.0000000001
 43
0.0000000001
 40
0.0
 40
0.0
 40
0.0
 40
0.090509536218289
 40
0.090509536218289
 40
0.090509536218289
 10
9.735686256485423
 20
0.0785294846524102
 30
0.0
 41
1.0
 10
9.73772913902449
 20
0.0235689307472339
 30
0.0
 41
0.7543192092771731
 10
9.797449851394617
 20
0.017355560770371
 30
0.0
 41
1.0
  0
SPLINE
  5
B6
330
1F
100
AcDbEntity
  8
Default
100
AcDbSpline
210
0.0
220
0.0
230
1.0
 70
    24
 71
     2
 72
     6
 73
     3
 74
     0
 42
0.0000000001
 43
0.0000000001
 40
0.0
 40
0.0
 40
0.0
 40
0.0838826130654592
 40
0.0838826130654592
 40
0.0838826130654592
 10
9.734519421868299
 20
0.1624070089468379
 30
0.0
 10
9.73510283917686
 20
0.1204682467996241
 30
0.0
 10
9.735686256485423
 20
0.0785294846524102
 30
0.0
  0
SPLINE
  5
B7
330
1F
100
AcDbEntity
  8
Default
100
AcDbSpline
210
0.0
220
0.0
230
1.0
 70
     8
 71
     2
 72
    11
 73
     8
 74
     0
 42
0.0000000001
 43
0.0000000001
 40
0.0
 40
0.0
 40
0.0
 40
1.0
 40
2.0
 40
3.0
 40
4.0
 40
5.0
 40
6.0
 40
6.0
 40
6.0
 10
9.734519379765274
 20
0.1624130624329476
 30
0.0
 10
9.827929314652366
 20
0.1715073297669419
 30
0.0
 10
10.01529441526152
 20
0.182861890789028
 30
0.0
 10
10.20294926461912
 20
0.1868695121675202
 30
0.0
 10
10.39063476903175
 20
0.1863420518246407
 30
0.0
 10
10.57826779584448
 20
0.1907790531485547
 30
0.0
 10
10.76596852542744
 20
0.1873453228210305
 30
0.0
 10
10.85941062438013
 20
0.1780495090836354
 30
0.0
  0
SPLINE
  5
B8
330
1F
100
AcDbEntity
  8
Default
100
AcDbSpline
210
0.0
220
0.0
230
1.0
 70
    12
 71
     2
 72
     6
 73
     3
 74
     0
 42
0.0000000001
 43
0.0000000001
 40
0.0
 40
0.0
 40
0.0
 40
0.5065890987312437
 40
0.5065890987312437
 40
0.5065890987312437
 10
10.2989684691246
 20
0.0405872072049905
 30
0.0
 41
1.0
 10
10.55230812145842
 20
0.0511606312494932
 30
0.0
 41
0.9984529850107059
 10
10.80525129223265
 20
0.0335400220301522
 30
0.0
 41
1.0
  0
SPLINE
  5
B9
330
1F
100
AcDbEntity
  8
Default
100
AcDbSpline
210
0.0
220
0.0
230
1.0
 70
    12
 71
     2
 72
     6
 73
     3
 74
     0
 42
0.0000000001
 43
0.0000000001
 40
0.0
 40
0.0
 40
0.0
 40
0.5069875979584633
 40
0.5069875979584633
 40
0.5069875979584633
 10
9.792677585448033
 20
0.0194648352168203
 30
0.0
 41
1.0
 10
10.04523416437036
 20
0.0440923159131805
 30
0.0
 41
0.9984597417000961
 10
10.2989684691246
 20
0.0405872072049905
 30
0.0
 41
1.0
  0
POLYLINE
  5
BA
330
1F
100
AcDbEntity
  8
Default
100
AcDb2dPolyline
 66
     1
 10
0.0
 20
0.0
 30
0.0
  0
VERTEX
  5
BB
330
BA
100
AcDbEntity
  8
Default
100
AcDbVertex
100
AcDb2dVertex
 10
9.734519379765274
 20
0.1624130624329476
 30
0.0
  0
VERTEX
  5
BC
330
BA
100
AcDbEntity
  8
Default
100
AcDbVertex
100
AcDb2dVertex
 10
9.501108632818244
 20
16.94227796715696
 30
0.0
  0
SEQEND
  5
BD
330
BA
100
AcDbEntity
  8
Default
  0
ARC
  5
BE
330
1F
100
AcDbEntity
  8
Default
100
AcDbCircle
 10
0.8340655899287375
 20
47.30381471572219
 30
0.0
 40
31.6487029838954
100
AcDbArc
 50
282.9925821655289
 51
284.7828399908281
  0
SPLINE
  5
BF
330
1F
100
AcDbEntity
  8
Default
100
AcDbSpline
210
0.0
220
0.0
230
1.0
 70
    12
 71
     2
 72
     6
 73
     3
 74
     0
 42
0.0000000001
 43
0.0000000001
 40
-0.3687350703256946
 40
-0.3687350703256946
 40
-0.3687350703256946
 40
0.0
 40
0.0
 40
0.0
 10
9.208758175659284
 20
16.90924475555264
 30
0.0
 41
1.0
 10
9.089615493493165
 20
16.76173510362477
 30
0.0
 41
0.958996314771429
 10
8.909427877367534
 20
16.70268851929861
 30
0.0
 41
1.0
  0
SPLINE
  5
C0
330
1F
100
AcDbEntity
  8
Default
100
AcDbSpline
210
0.0
220
0.0
230
1.0
 70
    12
 71
     2
 72
     6
 73
     3
 74
     0
 42
0.0000000001
 43
0.0000000001
 40
0.0
 40
0.0
 40
0.0
 40
0.2651910966065845
 40
0.2651910966065845
 40
0.2651910966065845
 10
9.52579306011799
 20
0.0083386225463222
 30
0.0
 41
1.0
 10
9.660209857204935
 20
0.0105244918593709
 30
0.0
 41
0.9999999999998926
 10
9.792787874633035
 20
0.0126805820282385
 30
0.0
 41
1.0
  0
SPLINE
  5
C1
330
1F
100
AcDbEntity
  8
Default
100
AcDbSpline
210
0.0
220
0.0
230
1.0
 70
     8
 71
     3
 72
    10
 73
     6
 74
     0
 42
0.0000000001
 43
0.0000000001
 40
0.0
 40
0.0
 40
0.0
 40
0.0
 40
0.0051614376977289
 40
0.0076964859399476
 40
0.5184066067045128
 40
0.5184066067045128
 40
0.5184066067045128
 40
0.5184066067045128
 10
9.017234338080058
 20
0.0000693463675532
 30
0.0
 10
9.02412576353754
 20
0.000181633121116
 30
0.0
 10
9.010661828058431
 20
-0.0000376096013426
 30
0.0
 10
9.181537450231417
 20
0.0027402190062418
 30
0.0
 10
9.35433213697695
 20
0.0055504775875264
 30
0.0
 10
9.52579306011799
 20
0.0083386225463222
 30
0.0
  0
SPLINE
  5
C2
330
1F
100
AcDbEntity
  8
Default
100
AcDbSpline
210
0.0
220
0.0
230
1.0
 70
    12
 71
     2
 72
     6
 73
     3
 74
     0
 42
0.0000000001
 43
0.0000000001
 40
-0.0784805824544201
 40
-0.0784805824544201
 40
-0.0784805824544201
 40
0.0
 40
0.0
 40
0.0
 10
8.962597969212297
 20
0.0491856068599787
 30
0.0
 41
1.0
 10
8.96360272976867
 20
-0.0006797836398309
 30
0.0
 41
0.7090345959967733
 10
9.017234338080058
 20
0.0000693463675532
 30
0.0
 41
1.0
  0
SPLINE
  5
C3
330
1F
100
AcDbEntity
  8
Default
100
AcDbSpline
210
0.0
220
0.0
230
1.0
 70
    12
 71
     2
 72
     6
 73
     3
 74
     0
 42
0.0000000001
 43
0.0000000001
 40
-0.2004902742673454
 40
-0.2004902742673454
 40
-0.2004902742673454
 40
0.0
 40
0.0
 40
0.0
 10
8.95939798461336
 20
0.2496621210540582
 30
0.0
 41
1.0
 10
8.960939963646073
 20
0.1494288398350443
 30
0.0
 41
0.9999999369853753
 10
8.962597969212297
 20
0.0491856068599787
 30
0.0
 41
1.0
  0
SPLINE
  5
C4
330
1F
100
AcDbEntity
  8
Default
100
AcDbSpline
210
0.0
220
0.0
230
1.0
 70
    12
 71
     2
 72
     6
 73
     3
 74
     0
 42
0.0000000001
 43
0.0000000001
 40
0.0
 40
0.0
 40
0.0
 40
0.1664592237014624
 40
0.1664592237014624
 40
0.1664592237014624
 10
9.523898228511271
 20
0.123910767859428
 30
0.0
 41
1.0
 10
9.652116431703185
 20
0.1273973942237912
 30
0.0
 41
0.999258636387584
 10
9.734878563802198
 20
0.136587159471155
 30
0.0
 41
1.0
  0
SPLINE
  5
C5
330
1F
100
AcDbEntity
  8
Default
100
AcDbSpline
210
0.0
220
0.0
230
1.0
 70
    12
 71
     3
 72
    13
 73
     9
 74
     0
 42
0.0000000001
 43
0.0000000001
 40
-0.316572622776446
 40
-0.316572622776446
 40
-0.316572622776446
 40
-0.316572622776446
 40
-0.3141558423604641
 40
-0.0573429062699113
 40
0.0
 40
0.0
 40
0.0
 40
0.1902251592942832
 40
0.1902251592942832
 40
0.1902251592942832
 40
0.1902251592942832
 10
8.959394407179758
 20
0.2501860175645376
 30
0.0
 41
1.0
 10
8.959393838972659
 20
0.2498544345145746
 30
0.0
 41
1.0
 10
8.959909362228416
 20
0.214296486031202
 30
0.0
 41
1.0
 10
9.036255434741975
 20
0.1721042356648113
 30
0.0
 41
1.0
 10
9.175932250783319
 20
0.1467166346114865
 30
0.0
 41
1.0
 10
9.246014971205781
 20
0.1374249029789318
 30
0.0
 41
1.0
 10
9.337792887069726
 20
0.1281058720048054
 30
0.0
 41
0.9993313691336558
 10
9.415474467343264
 20
0.1233673563041122
 30
0.0
 41
0.9993313691336558
 10
9.523898228511271
 20
0.123910767859428
 30
0.0
 41
1.0
  0
SPLINE
  5
C6
330
1F
100
AcDbEntity
  8
Default
100
AcDbSpline
210
0.0
220
0.0
230
1.0
 70
    12
 71
     5
 72
    32
 73
    26
 74
     0
 42
0.0000000001
 43
0.0000000001
 40
-1.349413554296205
 40
-1.349413554296205
 40
-1.349413554296205
 40
-1.349413554296205
 40
-1.349413554296205
 40
-1.349413554296205
 40
-1.0
 40
-1.0
 40
-1.0
 40
-1.0
 40
-1.0
 40
0.0
 40
0.0
 40
0.0
 40
0.0
 40
0.0
 40
0.0500800887229542
 40
0.0500800887229542
 40
0.0500800887229542
 40
0.0500800887229542
 40
0.0500800887229542
 40
0.1338010880470246
 40
0.1338010880470246
 40
0.1338010880470246
 40
0.1338010880470246
 40
0.1338010880470246
 40
0.1964928401470981
 40
0.1964928401470981
 40
0.1964928401470981
 40
0.1964928401470981
 40
0.1964928401470981
 40
0.1964928401470981
 10
8.952968464604027
 20
16.76052263476886
 30
0.0
 41
1.0
 10
8.879200693422893
 20
16.7421067211354
 30
0.0
 41
1.0
 10
8.811362951600426
 20
16.72532476471
 30
0.0
 41
1.0
 10
8.74352520977796
 20
16.70854280828459
 30
0.0
 41
1.0
 10
8.675687467955493
 20
16.69176085185919
 30
0.0
 41
1.0
 10
8.607849726133026
 20
16.67497889543379
 30
0.0
 41
1.0
 10
8.59342930718981
 20
16.6714115178083
 30
0.0
 41
1.0
 10
8.579008888246594
 20
16.66784414018282
 30
0.0
 41
1.0
 10
8.562101280720167
 20
16.67320866920164
 30
0.0
 41
1.0
 10
8.548045336709242
 20
16.67801544604089
 30
0.0
 41
1.0
 10
8.533989392698317
 20
16.68282222288014
 30
0.0
 41
1.0
 10
8.524512199871486
 20
16.68606318278619
 30
0.0
 41
1.0
 10
8.515035007044656
 20
16.68930414269225
 30
0.0
 41
1.0
 10
8.505557814217827
 20
16.6925451025983
 30
0.0
 41
1.0
 10
8.496080621390997
 20
16.69578606250436
 30
0.0
 41
1.0
 10
8.486603428564166
 20
16.69902702241041
 30
0.0
 41
1.0
 10
8.470568130457064
 20
16.70487025691554
 30
0.0
 41
0.886189080138356
 10
8.456939738075782
 20
16.71661649989304
 30
0.0
 41
0.8292836202075341
 10
8.449019278927718
 20
16.73306286270907
 30
0.0
 41
0.8292836202075341
 10
8.448332558444639
 20
16.75104110104235
 30
0.0
 41
0.8861890801383561
 10
8.453761893384097
 20
16.76722051888701
 30
0.0
 41
1.0
 10
8.455789164598748
 20
16.77959490796492
 30
0.0
 41
0.9995210355482312
 10
8.457513429332066
 20
16.79201741904423
 30
0.0
 41
0.9992815533223467
 10
8.458933230050633
 20
16.80447915539436
 30
0.0
 41
0.9992815533223469
 10
8.460047546214543
 20
16.81697115963199
 30
0.0
 41
0.9995210355482312
 10
8.460855796721404
 20
16.8294844351723
 30
0.0
 41
1.0
  0
SPLINE
  5
C7
330
1F
100
AcDbEntity
  8
Default
100
AcDbSpline
210
0.0
220
0.0
230
1.0
 70
    12
 71
     2
 72
     8
 73
     5
 74
     0
 42
0.0000000001
 43
0.0000000001
 40
0.0
 40
0.0
 40
0.0
 40
0.0165110924637132
 40
0.0165110924637132
 40
0.1543477838612571
 40
0.1543477838612571
 40
0.1543477838612571
 10
9.026837876693975
 20
16.88921605425202
 30
0.0
 41
1.0
 10
9.027415417966608
 20
16.88055801109368
 30
0.0
 41
1.0
 10
9.027992959239242
 20
16.87189996793534
 30
0.0
 41
1.0
 10
9.032872452580857
 20
16.79159003149826
 30
0.0
 41
0.8101392455592907
 10
8.952968464604027
 20
16.76052263476886
 30
0.0
 41
1.0
  0
SPLINE
  5
C8
330
1F
100
AcDbEntity
  8
Default
100
AcDbSpline
210
0.0
220
0.0
230
1.0
 70
    24
 71
     2
 72
     6
 73
     3
 74
     0
 42
0.0000000001
 43
0.0000000001
 40
-0.0227731244339891
 40
-0.0227731244339891
 40
-0.0227731244339891
 40
0.0
 40
0.0
 40
0.0
 10
9.014826996882675
 20
16.86501989295255
 30
0.0
 10
9.01406466131239
 20
16.87638090715023
 30
0.0
 10
9.013302325742103
 20
16.8877419213479
 30
0.0
  0
SPLINE
  5
C9
330
1F
100
AcDbEntity
  8
Default
100
AcDbSpline
210
0.0
220
0.0
230
1.0
 70
    12
 71
     2
 72
     8
 73
     5
 74
     0
 42
0.0000000001
 43
0.0000000001
 40
-0.1050980495387224
 40
-0.1050980495387224
 40
-0.1050980495387224
 40
-0.0544259658729994
 40
-0.0544259658729994
 40
0.0
 40
0.0
 40
0.0
 10
8.9615442897516
 20
16.78350783853839
 30
0.0
 41
1.0
 10
8.987123080137074
 20
16.79069992644949
 30
0.0
 41
0.9317365067511197
 10
9.001089038318213
 20
16.81330418839692
 30
0.0
 41
1.0
 10
9.016489703057527
 20
16.83689565095228
 30
0.0
 41
0.9496440122272175
 10
9.014826996882675
 20
16.86501989295255
 30
0.0
 41
1.0
  0
SPLINE
  5
CA
330
1F
100
AcDbEntity
  8
Default
100
AcDbSpline
210
0.0
220
0.0
230
1.0
 70
    24
 71
     2
 72
     6
 73
     3
 74
     0
 42
0.0000000001
 43
0.0000000001
 40
0.0
 40
0.0
 40
0.0
 40
0.3614629263831907
 40
0.3614629263831907
 40
0.3614629263831907
 10
8.610658807822176
 20
16.69670446463693
 30
0.0
 10
8.786101548786888
 20
16.74010615158766
 30
0.0
 10
8.9615442897516
 20
16.78350783853839
 30
0.0
  0
SPLINE
  5
CB
330
1F
100
AcDbEntity
  8
Default
100
AcDbSpline
210
0.0
220
0.0
230
1.0
 70
    12
 71
     2
 72
     8
 73
     5
 74
     0
 42
0.0000000001
 43
0.0000000001
 40
0.0
 40
0.0
 40
0.0
 40
0.0471552986655018
 40
0.0471552986655018
 40
0.0943105973310035
 40
0.0943105973310035
 40
0.0943105973310035
 10
8.548355707658374
 20
16.74962246610496
 30
0.0
 41
1.0
 10
8.547180909631777
 20
16.72428511790164
 30
0.0
 41
0.8975997738324872
 10
8.566513239509618
 20
16.70786493562877
 30
0.0
 41
1.0
 10
8.585845569387455
 20
16.69144475335589
 30
0.0
 41
0.8975997738324872
 10
8.610658807822176
 20
16.69670446463693
 30
0.0
 41
1.0
  0
SPLINE
  5
CC
330
1F
100
AcDbEntity
  8
Default
100
AcDbSpline
210
0.0
220
0.0
230
1.0
 70
    24
 71
     2
 72
     6
 73
     3
 74
     0
 42
0.0000000001
 43
0.0000000001
 40
0.0
 40
0.0
 40
0.0
 40
0.0884283344012462
 40
0.0884283344012462
 40
0.0884283344012462
 10
8.542435390055033
 20
16.83785239393251
 30
0.0
 10
8.545395548856703
 20
16.79373743001874
 30
0.0
 10
8.548355707658374
 20
16.74962246610496
 30
0.0
  0
POLYLINE
  5
CD
330
1F
100
AcDbEntity
  8
Default
100
AcDb2dPolyline
 66
     1
 10
0.0
 20
0.0
 30
0.0
  0
VERTEX
  5
CE
330
CD
100
AcDbEntity
  8
Default
100
AcDbVertex
100
AcDb2dVertex
 10
10.60952423145797
 20
18.14104950879124
 30
0.0
  0
VERTEX
  5
CF
330
CD
100
AcDbEntity
  8
Default
100
AcDbVertex
100
AcDb2dVertex
 10
10.85941062438013
 20
0.1780495090836354
 30
0.0
  0
SEQEND
  5
D0
330
CD
100
AcDbEntity
  8
Default
  0
SPLINE
  5
D1
330
1F
100
AcDbEntity
  8
Default
100
AcDbSpline
210
0.0
220
0.0
230
1.0
 70
    12
 71
     2
 72
     8
 73
     5
 74
     0
 42
0.0000000001
 43
0.0000000001
 40
-1.126013572061999
 40
-1.126013572061999
 40
-1.126013572061999
 40
-0.562789910270183
 40
-0.562789910270183
 40
0.0
 40
0.0
 40
0.0
 10
9.484632986843138
 20
18.12541003532245
 30
0.0
 41
1.0
 10
9.765204324157615
 20
18.15276055248944
 30
0.0
 41
0.9984620498676386
 10
10.04707858809905
 20
18.14887832513757
 30
0.0
 41
1.0
 10
10.32851922176258
 20
18.16061293795858
 30
0.0
 41
0.9984553286292258
 10
10.60952423145797
 20
18.14104950879124
 30
0.0
 41
1.0
  0
SPLINE
  5
D2
330
1F
100
AcDbEntity
  8
Default
100
AcDbSpline
210
0.0
220
0.0
230
1.0
 70
    24
 71
     2
 72
     6
 73
     3
 74
     0
 42
0.0000000001
 43
0.0000000001
 40
0.0
 40
0.0
 40
0.0
 40
0.182246548959419
 40
0.182246548959419
 40
0.182246548959419
 10
9.4871680255971
 20
17.94317809118839
 30
0.0
 10
9.48590050622012
 20
18.03429406325542
 30
0.0
 10
9.484632986843138
 20
18.12541003532245
 30
0.0
  0
SPLINE
  5
D3
330
1F
100
AcDbEntity
  8
Default
100
AcDbSpline
210
0.0
220
0.0
230
1.0
 70
     8
 71
     3
 72
    12
 73
     8
 74
     0
 42
0.0000000001
 43
0.0000000001
 40
0.0
 40
0.0
 40
0.0
 40
0.0
 40
0.7878562625600279
 40
1.184000317423179
 40
2.191858947532162
 40
3.962869177404546
 40
5.720430333429824
 40
5.720430333429824
 40
5.720430333429824
 40
5.720430333429824
 10
9.484427598291376
 20
18.14038495636949
 30
0.0
 10
9.481057658041152
 20
18.40304122541963
 30
0.0
 10
9.467913641100239
 20
18.79733007922703
 30
0.0
 10
9.468396805501186
 20
19.52840397258525
 30
0.0
 10
9.54884974828866
 20
20.58427281879843
 30
0.0
 10
9.744669089600137
 20
22.0839399048547
 30
0.0
 10
9.921084926061098
 20
23.24684454644656
 30
0.0
 10
10.02578705925708
 20
23.82336143708664
 30
0.0
  0
SPLINE
  5
D4
330
1F
100
AcDbEntity
  8
Default
100
AcDbSpline
210
0.0
220
0.0
230
1.0
 70
     8
 71
     3
 72
    12
 73
     8
 74
     0
 42
0.0000000001
 43
0.0000000001
 40
0.0
 40
0.0
 40
0.0
 40
0.0
 40
1.287016841321923
 40
1.769127044398118
 40
2.327701460882205
 40
2.420853988570939
 40
2.474227538685975
 40
2.474227538685975
 40
2.474227538685975
 40
2.474227538685975
 10
10.02915648678683
 20
23.84230333578919
 30
0.0
 10
10.10470801795242
 20
24.26461512505207
 30
0.0
 10
10.2093322296723
 20
24.8449457169238
 30
0.0
 10
10.35919090478856
 20
25.60631269779527
 30
0.0
 10
10.44653289280024
 20
25.97411525382275
 30
0.0
 10
10.49467543657698
 20
26.20413945237028
 30
0.0
 10
10.49944026656689
 20
26.25296582565955
 30
0.0
 10
10.49944569650904
 20
26.27069372529657
 30
0.0
  0
SPLINE
  5
D5
330
1F
100
AcDbEntity
  8
Default
100
AcDbSpline
210
0.0
220
0.0
230
1.0
 70
    12
 71
     2
 72
     6
 73
     3
 74
     0
 42
0.0000000001
 43
0.0000000001
 40
0.0
 40
0.0
 40
0.0
 40
1.102793144367181
 40
1.102793144367181
 40
1.102793144367181
 10
9.683477085294413
 20
22.89019874410215
 30
0.0
 41
1.0
 10
9.684230532307652
 20
22.33870294159324
 30
0.0
 41
0.9997455309739954
 10
9.709858725376819
 20
21.78780860743762
 30
0.0
 41
1.0
  0
SPLINE
  5
D6
330
1F
100
AcDbEntity
  8
Default
100
AcDbSpline
210
0.0
220
0.0
230
1.0
 70
     8
 71
     3
 72
    11
 73
     7
 74
     0
 42
0.0000000001
 43
0.0000000001
 40
0.0
 40
0.0
 40
0.0
 40
0.0
 40
0.13566170168807
 40
0.2744464145988897
 40
0.5613280325995922
 40
1.564089556579592
 40
1.564089556579592
 40
1.564089556579592
 40
1.564089556579592
 10
10.11870802928561
 20
24.33923106355051
 30
0.0
 10
10.0812735093196
 20
24.31261946531644
 30
0.0
 10
10.01537265682171
 20
24.25183171557425
 30
0.0
 10
9.89133621511968
 20
24.10653876775199
 30
0.0
 10
9.725075014480012
 20
23.65726871101041
 30
0.0
 10
9.686169526095426
 20
23.22359773697455
 30
0.0
 10
9.683477085294413
 20
22.89019874410215
 30
0.0
  0
SPLINE
  5
D7
330
1F
100
AcDbEntity
  8
Default
100
AcDbSpline
210
0.0
220
0.0
230
1.0
 70
    12
 71
     2
 72
     6
 73
     3
 74
     0
 42
0.0000000001
 43
0.0000000001
 40
0.0
 40
0.0
 40
0.0
 40
0.5065890987312437
 40
0.5065890987312437
 40
0.5065890987312437
 10
-10.2989684691246
 20
0.0405872072049905
 30
0.0
 41
1.0
 10
-10.55230812145842
 20
0.0511606312494932
 30
0.0
 41
0.9984529850107059
 10
-10.80525129223265
 20
0.0335400220301522
 30
0.0
 41
1.0
  0
SPLINE
  5
D8
330
1F
100
AcDbEntity
  8
Default
100
AcDbSpline
210
0.0
220
0.0
230
1.0
 70
    12
 71
     2
 72
     6
 73
     3
 74
     0
 42
0.0000000001
 43
0.0000000001
 40
0.0
 40
0.0
 40
0.0
 40
0.5069875979584633
 40
0.5069875979584633
 40
0.5069875979584633
 10
-9.792677585448033
 20
0.0194648352168203
 30
0.0
 41
1.0
 10
-10.04523416437036
 20
0.0440923159131805
 30
0.0
 41
0.9984597417000961
 10
-10.2989684691246
 20
0.0405872072049905
 30
0.0
 41
1.0
  0
SPLINE
  5
D9
330
1F
100
AcDbEntity
  8
Default
100
AcDbSpline
210
0.0
220
0.0
230
1.0
 70
     8
 71
     2
 72
    11
 73
     8
 74
     0
 42
0.0000000001
 43
0.0000000001
 40
0.0
 40
0.0
 40
0.0
 40
1.0
 40
2.0
 40
3.0
 40
4.0
 40
5.0
 40
6.0
 40
6.0
 40
6.0
 10
-9.734519379765274
 20
0.1624130624329476
 30
0.0
 10
-9.827929314652366
 20
0.1715073297669419
 30
0.0
 10
-10.01529441526152
 20
0.182861890789028
 30
0.0
 10
-10.20294926461912
 20
0.1868695121675202
 30
0.0
 10
-10.39063476903175
 20
0.1863420518246407
 30
0.0
 10
-10.57826779584448
 20
0.1907790531485547
 30
0.0
 10
-10.76596852542744
 20
0.1873453228210305
 30
0.0
 10
-10.85941062438013
 20
0.1780495090836354
 30
0.0
  0
SPLINE
  5
DA
330
1F
100
AcDbEntity
  8
Default
100
AcDbSpline
210
0.0
220
0.0
230
1.0
 70
    24
 71
     2
 72
     6
 73
     3
 74
     0
 42
0.0000000001
 43
0.0000000001
 40
0.0
 40
0.0
 40
0.0
 40
0.0838826131717245
 40
0.0838826131717245
 40
0.0838826131717245
 10
-10.8605775009428
 20
0.0941719852639064
 30
0.0
 10
-10.85999408371222
 20
0.1361107474666116
 30
0.0
 10
-10.85941066648165
 20
0.1780495096693168
 30
0.0
  0
SPLINE
  5
DB
330
1F
100
AcDbEntity
  8
Default
100
AcDbSpline
210
0.0
220
0.0
230
1.0
 70
    12
 71
     2
 72
     6
 73
     3
 74
     0
 42
0.0000000001
 43
0.0000000001
 40
0.0
 40
0.0
 40
0.0
 40
0.0905125898444878
 40
0.0905125898444878
 40
0.0905125898444878
 10
-10.80091658103225
 20
0.0314136768626967
 30
0.0
 41
1.0
 10
-10.85997008962594
 20
0.0392438997650774
 30
0.0
 41
0.7556419620120104
 10
-10.8605775009428
 20
0.0941719852639064
 30
0.0
 41
1.0
  0
SPLINE
  5
DC
330
1F
100
AcDbEntity
  8
Default
100
AcDbSpline
210
0.0
220
0.0
230
1.0
 70
    12
 71
     2
 72
     6
 73
     3
 74
     0
 42
0.0000000001
 43
0.0000000001
 40
-0.0147217657248775
 40
-0.0147217657248775
 40
-0.0147217657248775
 40
0.0
 40
0.0
 40
0.0
 10
-10.78170867019165
 20
0.028955378737882
 30
0.0
 41
1.0
 10
-10.7890388340968
 20
0.0296741409247309
 30
0.0
 41
0.9996253281867565
 10
-10.80091658103225
 20
0.0314136768626967
 30
0.0
 41
1.0
  0
SPLINE
  5
DD
330
1F
100
AcDbEntity
  8
Default
100
AcDbSpline
210
0.0
220
0.0
230
1.0
 70
    12
 71
     2
 72
     6
 73
     3
 74
     0
 42
0.0000000001
 43
0.0000000001
 40
0.0
 40
0.0
 40
0.0
 40
0.0149504543859661
 40
0.0149504543859661
 40
0.0149504543859661
 10
-10.76681567086501
 20
0.0276202818457507
 30
0.0
 41
1.0
 10
-10.7742677329831
 20
0.0282111214671106
 30
0.0
 41
0.9999561228672283
 10
-10.78170867019165
 20
0.028955378737882
 30
0.0
 41
1.0
  0
SPLINE
  5
DE
330
1F
100
AcDbEntity
  8
Default
100
AcDbSpline
210
0.0
220
0.0
230
1.0
 70
    12
 71
     2
 72
     6
 73
     3
 74
     0
 42
0.0000000001
 43
0.0000000001
 40
-0.4681485405974239
 40
-0.4681485405974239
 40
-0.4681485405974239
 40
0.0
 40
0.0
 40
0.0
 10
-10.29896443884034
 20
0.0124177060636798
 30
0.0
 41
1.0
 10
-10.53308336678807
 20
0.0140692428463913
 30
0.0
 41
0.9996765963466816
 10
-10.76681567086501
 20
0.0276202818457507
 30
0.0
 41
1.0
  0
SPLINE
  5
DF
330
1F
100
AcDbEntity
  8
Default
100
AcDbSpline
210
0.0
220
0.0
230
1.0
 70
    12
 71
     2
 72
     6
 73
     3
 74
     0
 42
0.0000000001
 43
0.0000000001
 40
-0.4678786518234926
 40
-0.4678786518234926
 40
-0.4678786518234926
 40
0.0
 40
0.0
 40
0.0
 10
-9.831141401960423
 20
0.0146127091278879
 30
0.0
 41
1.0
 10
-10.06502499463271
 20
0.0075600148960759
 30
0.0
 41
0.99967599695013
 10
-10.29896443884034
 20
0.0124177060636798
 30
0.0
 41
1.0
  0
SPLINE
  5
E0
330
1F
100
AcDbEntity
  8
Default
100
AcDbSpline
210
0.0
220
0.0
230
1.0
 70
    12
 71
     2
 72
     6
 73
     3
 74
     0
 42
0.0000000001
 43
0.0000000001
 40
0.0
 40
0.0
 40
0.0
 40
0.0287637614208012
 40
0.0287637614208012
 40
0.0287637614208012
 10
-9.797449851394617
 20
0.017355560770371
 30
0.0
 41
1.0
 10
-9.816772075912134
 20
0.015286083152476
 30
0.0
 41
0.9996656851759237
 10
-9.831141401960423
 20
0.0146127091278879
 30
0.0
 41
1.0
  0
SPLINE
  5
E1
330
1F
100
AcDbEntity
  8
Default
100
AcDbSpline
210
0.0
220
0.0
230
1.0
 70
    12
 71
     2
 72
     6
 73
     3
 74
     0
 42
0.0000000001
 43
0.0000000001
 40
0.0
 40
0.0
 40
0.0
 40
0.090509536218289
 40
0.090509536218289
 40
0.090509536218289
 10
-9.735686256485423
 20
0.0785294846524102
 30
0.0
 41
1.0
 10
-9.73772913902449
 20
0.0235689307472339
 30
0.0
 41
0.7543192092771731
 10
-9.797449851394617
 20
0.017355560770371
 30
0.0
 41
1.0
  0
SPLINE
  5
E2
330
1F
100
AcDbEntity
  8
Default
100
AcDbSpline
210
0.0
220
0.0
230
1.0
 70
    24
 71
     2
 72
     6
 73
     3
 74
     0
 42
0.0000000001
 43
0.0000000001
 40
0.0
 40
0.0
 40
0.0
 40
0.0838826130654592
 40
0.0838826130654592
 40
0.0838826130654592
 10
-9.734519421868299
 20
0.1624070089468379
 30
0.0
 10
-9.73510283917686
 20
0.1204682467996241
 30
0.0
 10
-9.735686256485423
 20
0.0785294846524102
 30
0.0
  0
POLYLINE
  5
E3
330
1F
100
AcDbEntity
  8
Default
100
AcDb2dPolyline
 66
     1
 10
0.0
 20
0.0
 30
0.0
  0
VERTEX
  5
E4
330
E3
100
AcDbEntity
  8
Default
100
AcDbVertex
100
AcDb2dVertex
 10
-9.734519379765274
 20
0.1624130624329476
 30
0.0
  0
VERTEX
  5
E5
330
E3
100
AcDbEntity
  8
Default
100
AcDbVertex
100
AcDb2dVertex
 10
-9.501108632818244
 20
16.94227796715696
 30
0.0
  0
SEQEND
  5
E6
330
E3
100
AcDbEntity
  8
Default
  0
SPLINE
  5
E7
330
1F
100
AcDbEntity
  8
Default
100
AcDbSpline
210
0.0
220
0.0
230
1.0
 70
    12
 71
     2
 72
     6
 73
     3
 74
     0
 42
0.0000000001
 43
0.0000000001
 40
0.0
 40
0.0
 40
0.0
 40
0.2651910966065845
 40
0.2651910966065845
 40
0.2651910966065845
 10
-9.52579306011799
 20
0.0083386225463222
 30
0.0
 41
1.0
 10
-9.660209857204935
 20
0.0105244918593709
 30
0.0
 41
0.9999999999998926
 10
-9.792787874633035
 20
0.0126805820282385
 30
0.0
 41
1.0
  0
SPLINE
  5
E8
330
1F
100
AcDbEntity
  8
Default
100
AcDbSpline
210
0.0
220
0.0
230
1.0
 70
     8
 71
     3
 72
    10
 73
     6
 74
     0
 42
0.0000000001
 43
0.0000000001
 40
0.0
 40
0.0
 40
0.0
 40
0.0
 40
0.0051614376977289
 40
0.0076964859399476
 40
0.5184066067045128
 40
0.5184066067045128
 40
0.5184066067045128
 40
0.5184066067045128
 10
-9.017234338080058
 20
0.0000693463675532
 30
0.0
 10
-9.02412576353754
 20
0.000181633121116
 30
0.0
 10
-9.010661828058431
 20
-0.0000376096013426
 30
0.0
 10
-9.181537450231417
 20
0.0027402190062418
 30
0.0
 10
-9.35433213697695
 20
0.0055504775875264
 30
0.0
 10
-9.52579306011799
 20
0.0083386225463222
 30
0.0
  0
SPLINE
  5
E9
330
1F
100
AcDbEntity
  8
Default
100
AcDbSpline
210
0.0
220
0.0
230
1.0
 70
    12
 71
     2
 72
     6
 73
     3
 74
     0
 42
0.0000000001
 43
0.0000000001
 40
-0.0784805824544201
 40
-0.0784805824544201
 40
-0.0784805824544201
 40
0.0
 40
0.0
 40
0.0
 10
-8.962597969212297
 20
0.0491856068599787
 30
0.0
 41
1.0
 10
-8.96360272976867
 20
-0.0006797836398309
 30
0.0
 41
0.7090345959967733
 10
-9.017234338080058
 20
0.0000693463675532
 30
0.0
 41
1.0
  0
SPLINE
  5
EA
330
1F
100
AcDbEntity
  8
Default
100
AcDbSpline
210
0.0
220
0.0
230
1.0
 70
    12
 71
     2
 72
     6
 73
     3
 74
     0
 42
0.0000000001
 43
0.0000000001
 40
-0.2004902742673454
 40
-0.2004902742673454
 40
-0.2004902742673454
 40
0.0
 40
0.0
 40
0.0
 10
-8.95939798461336
 20
0.2496621210540582
 30
0.0
 41
1.0
 10
-8.960939963646073
 20
0.1494288398350443
 30
0.0
 41
0.9999999369853753
 10
-8.962597969212297
 20
0.0491856068599787
 30
0.0
 41
1.0
  0
ARC
  5
EB
330
1F
100
AcDbEntity
  8
Default
100
AcDbCircle
 10
-0.8340655899287375
 20
47.30381471572219
 30
0.0
 40
31.6487029838954
100
AcDbArc
 50
255.217160009172
 51
257.0074178344712
  0
SPLINE
  5
EC
330
1F
100
AcDbEntity
  8
Default
100
AcDbSpline
210
0.0
220
0.0
230
1.0
 70
    12
 71
     2
 72
     6
 73
     3
 74
     0
 42
0.0000000001
 43
0.0000000001
 40
-0.3687350703256946
 40
-0.3687350703256946
 40
-0.3687350703256946
 40
0.0
 40
0.0
 40
0.0
 10
-9.208758175659284
 20
16.90924475555264
 30
0.0
 41
1.0
 10
-9.089615493493165
 20
16.76173510362477
 30
0.0
 41
0.958996314771429
 10
-8.909427877367534
 20
16.70268851929861
 30
0.0
 41
1.0
  0
POLYLINE
  5
ED
330
1F
100
AcDbEntity
  8
Default
100
AcDb2dPolyline
 66
     1
 10
0.0
 20
0.0
 30
0.0
  0
VERTEX
  5
EE
330
ED
100
AcDbEntity
  8
Default
100
AcDbVertex
100
AcDb2dVertex
 10
-10.60952423145797
 20
18.14104950879124
 30
0.0
  0
VERTEX
  5
EF
330
ED
100
AcDbEntity
  8
Default
100
AcDbVertex
100
AcDb2dVertex
 10
-10.85941062438013
 20
0.1780495090836354
 30
0.0
  0
SEQEND
  5
F0
330
ED
100
AcDbEntity
  8
Default
  0
SPLINE
  5
F1
330
1F
100
AcDbEntity
  8
Default
100
AcDbSpline
210
0.0
220
0.0
230
1.0
 70
    12
 71
     2
 72
     8
 73
     5
 74
     0
 42
0.0000000001
 43
0.0000000001
 40
-1.126013572061999
 40
-1.126013572061999
 40
-1.126013572061999
 40
-0.562789910270183
 40
-0.562789910270183
 40
0.0
 40
0.0
 40
0.0
 10
-9.484632986843138
 20
18.12541003532245
 30
0.0
 41
1.0
 10
-9.765204324157615
 20
18.15276055248944
 30
0.0
 41
0.9984620498676386
 10
-10.04707858809905
 20
18.14887832513757
 30
0.0
 41
1.0
 10
-10.32851922176258
 20
18.16061293795858
 30
0.0
 41
0.9984553286292258
 10
-10.60952423145797
 20
18.14104950879124
 30
0.0
 41
1.0
  0
SPLINE
  5
F2
330
1F
100
AcDbEntity
  8
Default
100
AcDbSpline
210
0.0
220
0.0
230
1.0
 70
    24
 71
     2
 72
     6
 73
     3
 74
     0
 42
0.0000000001
 43
0.0000000001
 40
0.0
 40
0.0
 40
0.0
 40
0.182246548959419
 40
0.182246548959419
 40
0.182246548959419
 10
-9.4871680255971
 20
17.94317809118839
 30
0.0
 10
-9.48590050622012
 20
18.03429406325542
 30
0.0
 10
-9.484632986843138
 20
18.12541003532245
 30
0.0
  0
SPLINE
  5
F3
330
1F
100
AcDbEntity
  8
Default
100
AcDbSpline
210
0.0
220
0.0
230
1.0
 70
     8
 71
     3
 72
    17
 73
    13
 74
     0
 42
0.0000000001
 43
0.0000000001
 40
0.0
 40
0.0
 40
0.0
 40
0.0
 40
0.0047195487793021
 40
0.0094332170594017
 40
0.0238655807282687
 40
0.0671615523774499
 40
0.1755398295510834
 40
0.3480399467799769
 40
0.4715619212285612
 40
0.5666415614261937
 40
0.7713350354149381
 40
1.204786480809649
 40
1.204786480809649
 40
1.204786480809649
 40
1.204786480809649
 10
-9.489630343496543
 20
17.94321234491473
 30
0.0
 10
-9.488661866399895
 20
17.94399136731202
 30
0.0
 10
-9.485856025737093
 20
17.94866678844254
 30
0.0
 10
-9.494224874253575
 20
17.9428057155701
 30
0.0
 10
-9.509528264681308
 20
17.92986987020993
 30
0.0
 10
-9.549626926241473
 20
17.89104666530367
 30
0.0
 10
-9.625716506268219
 20
17.81489638776856
 30
0.0
 10
-9.713454634722495
 20
17.71151313782854
 30
0.0
 10
-9.782898677825045
 20
17.60149910190646
 30
0.0
 10
-9.812613587711922
 20
17.45772820420689
 30
0.0
 10
-9.71909580410042
 20
17.22540394127058
 30
0.0
 10
-9.582616395393927
 20
17.06193564061262
 30
0.0
 10
-9.501091075614681
 20
16.94243092575727
 30
0.0
  0
SPLINE
  5
F4
330
1F
100
AcDbEntity
  8
Default
100
AcDbSpline
210
0.0
220
0.0
230
1.0
 70
    24
 71
     2
 72
     6
 73
     3
 74
     0
 42
0.0000000001
 43
0.0000000001
 40
0.0
 40
0.0
 40
0.0
 40
16.40449565683652
 40
16.40449565683652
 40
16.40449565683652
 10
-8.959389723938813
 20
0.2501859601332512
 30
0.0
 10
-8.833274054489678
 20
8.451464170065616
 30
0.0
 10
-8.707158385040543
 20
16.65274237999798
 30
0.0
  0
SPLINE
  5
F5
330
1F
100
AcDbEntity
  8
Default
100
AcDbSpline
210
0.0
220
0.0
230
1.0
 70
    12
 71
     2
 72
     6
 73
     3
 74
     0
 42
0.0000000001
 43
0.0000000001
 40
0.0
 40
0.0
 40
0.0
 40
0.1664592237014624
 40
0.1664592237014624
 40
0.1664592237014624
 10
-9.523898228511271
 20
0.123910767859428
 30
0.0
 41
1.0
 10
-9.652116431703185
 20
0.1273973942237912
 30
0.0
 41
0.999258636387584
 10
-9.734878563802198
 20
0.136587159471155
 30
0.0
 41
1.0
  0
SPLINE
  5
F6
330
1F
100
AcDbEntity
  8
Default
100
AcDbSpline
210
0.0
220
0.0
230
1.0
 70
    12
 71
     3
 72
    13
 73
     9
 74
     0
 42
0.0000000001
 43
0.0000000001
 40
-0.316572622776446
 40
-0.316572622776446
 40
-0.316572622776446
 40
-0.316572622776446
 40
-0.3141558423604641
 40
-0.0573429062699113
 40
0.0
 40
0.0
 40
0.0
 40
0.1902251592942832
 40
0.1902251592942832
 40
0.1902251592942832
 40
0.1902251592942832
 10
-8.959394407179758
 20
0.2501860175645376
 30
0.0
 41
1.0
 10
-8.959393838972659
 20
0.2498544345145746
 30
0.0
 41
1.0
 10
-8.959909362228416
 20
0.214296486031202
 30
0.0
 41
1.0
 10
-9.036255434741975
 20
0.1721042356648113
 30
0.0
 41
1.0
 10
-9.175932250783319
 20
0.1467166346114865
 30
0.0
 41
1.0
 10
-9.246014971205781
 20
0.1374249029789318
 30
0.0
 41
1.0
 10
-9.337792887069726
 20
0.1281058720048054
 30
0.0
 41
0.9993313691336558
 10
-9.415474467343264
 20
0.1233673563041122
 30
0.0
 41
0.9993313691336558
 10
-9.523898228511271
 20
0.123910767859428
 30
0.0
 41
1.0
  0
SPLINE
  5
F7
330
1F
100
AcDbEntity
  8
Default
100
AcDbSpline
210
0.0
220
0.0
230
1.0
 70
    12
 71
     5
 72
    32
 73
    26
 74
     0
 42
0.0000000001
 43
0.0000000001
 40
-1.349413554296205
 40
-1.349413554296205
 40
-1.349413554296205
 40
-1.349413554296205
 40
-1.349413554296205
 40
-1.349413554296205
 40
-1.0
 40
-1.0
 40
-1.0
 40
-1.0
 40
-1.0
 40
0.0
 40
0.0
 40
0.0
 40
0.0
 40
0.0
 40
0.0500800887229542
 40
0.0500800887229542
 40
0.0500800887229542
 40
0.0500800887229542
 40
0.0500800887229542
 40
0.1338010880470246
 40
0.1338010880470246
 40
0.1338010880470246
 40
0.1338010880470246
 40
0.1338010880470246
 40
0.1964928401470981
 40
0.1964928401470981
 40
0.1964928401470981
 40
0.1964928401470981
 40
0.1964928401470981
 40
0.1964928401470981
 10
-8.952968464604027
 20
16.76052263476886
 30
0.0
 41
1.0
 10
-8.879200693422893
 20
16.7421067211354
 30
0.0
 41
1.0
 10
-8.811362951600426
 20
16.72532476471
 30
0.0
 41
1.0
 10
-8.74352520977796
 20
16.70854280828459
 30
0.0
 41
1.0
 10
-8.675687467955493
 20
16.69176085185919
 30
0.0
 41
1.0
 10
-8.607849726133026
 20
16.67497889543379
 30
0.0
 41
1.0
 10
-8.59342930718981
 20
16.6714115178083
 30
0.0
 41
1.0
 10
-8.579008888246594
 20
16.66784414018282
 30
0.0
 41
1.0
 10
-8.562101280720167
 20
16.67320866920164
 30
0.0
 41
1.0
 10
-8.548045336709242
 20
16.67801544604089
 30
0.0
 41
1.0
 10
-8.533989392698317
 20
16.68282222288014
 30
0.0
 41
1.0
 10
-8.524512199871486
 20
16.68606318278619
 30
0.0
 41
1.0
 10
-8.515035007044656
 20
16.68930414269225
 30
0.0
 41
1.0
 10
-8.505557814217827
 20
16.6925451025983
 30
0.0
 41
1.0
 10
-8.496080621390997
 20
16.69578606250436
 30
0.0
 41
1.0
 10
-8.486603428564166
 20
16.69902702241041
 30
0.0
 41
1.0
 10
-8.470568130457064
 20
16.70487025691554
 30
0.0
 41
0.886189080138356
 10
-8.456939738075782
 20
16.71661649989304
 30
0.0
 41
0.8292836202075341
 10
-8.449019278927718
 20
16.73306286270907
 30
0.0
 41
0.8292836202075341
 10
-8.448332558444639
 20
16.75104110104235
 30
0.0
 41
0.8861890801383561
 10
-8.453761893384097
 20
16.76722051888701
 30
0.0
 41
1.0
 10
-8.455789164598748
 20
16.77959490796492
 30
0.0
 41
0.9995210355482312
 10
-8.457513429332066
 20
16.79201741904423
 30
0.0
 41
0.9992815533223467
 10
-8.458933230050633
 20
16.80447915539436
 30
0.0
 41
0.9992815533223469
 10
-8.460047546214543
 20
16.81697115963199
 30
0.0
 41
0.9995210355482312
 10
-8.460855796721404
 20
16.8294844351723
 30
0.0
 41
1.0
  0
SPLINE
  5
F8
330
1F
100
AcDbEntity
  8
Default
100
AcDbSpline
210
0.0
220
0.0
230
1.0
 70
    12
 71
     2
 72
     8
 73
     5
 74
     0
 42
0.0000000001
 43
0.0000000001
 40
0.0
 40
0.0
 40
0.0
 40
0.0165110924637132
 40
0.0165110924637132
 40
0.1543477838612571
 40
0.1543477838612571
 40
0.1543477838612571
 10
-9.026837876693975
 20
16.88921605425202
 30
0.0
 41
1.0
 10
-9.027415417966608
 20
16.88055801109368
 30
0.0
 41
1.0
 10
-9.027992959239242
 20
16.87189996793534
 30
0.0
 41
1.0
 10
-9.032872452580857
 20
16.79159003149826
 30
0.0
 41
0.8101392455592907
 10
-8.952968464604027
 20
16.76052263476886
 30
0.0
 41
1.0
  0
SPLINE
  5
F9
330
1F
100
AcDbEntity
  8
Default
100
AcDbSpline
210
0.0
220
0.0
230
1.0
 70
     8
 71
     3
 72
    12
 73
     8
 74
     0
 42
0.0000000001
 43
0.0000000001
 40
0.0
 40
0.0
 40
0.0
 40
0.0
 40
1.287016841321923
 40
1.769127044398118
 40
2.327701460882205
 40
2.420853988570939
 40
2.474227538685975
 40
2.474227538685975
 40
2.474227538685975
 40
2.474227538685975
 10
-10.02915648678683
 20
23.84230333578919
 30
0.0
 10
-10.10470801795242
 20
24.26461512505207
 30
0.0
 10
-10.2093322296723
 20
24.8449457169238
 30
0.0
 10
-10.35919090478856
 20
25.60631269779527
 30
0.0
 10
-10.44653289280024
 20
25.97411525382275
 30
0.0
 10
-10.49467543657698
 20
26.20413945237028
 30
0.0
 10
-10.49944026656689
 20
26.25296582565955
 30
0.0
 10
-10.49944569650904
 20
26.27069372529657
 30
0.0
  0
SPLINE
  5
FA
330
1F
100
AcDbEntity
  8
Default
100
AcDbSpline
210
0.0
220
0.0
230
1.0
 70
     8
 71
     3
 72
    12
 73
     8
 74
     0
 42
0.0000000001
 43
0.0000000001
 40
0.0
 40
0.0
 40
0.0
 40
0.0
 40
0.7878562625600279
 40
1.184000317423179
 40
2.191858947532162
 40
3.962869177404546
 40
5.720430333429824
 40
5.720430333429824
 40
5.720430333429824
 40
5.720430333429824
 10
-9.484427598291376
 20
18.14038495636949
 30
0.0
 10
-9.481057658041152
 20
18.40304122541963
 30
0.0
 10
-9.467913641100239
 20
18.79733007922703
 30
0.0
 10
-9.468396805501186
 20
19.52840397258525
 30
0.0
 10
-9.54884974828866
 20
20.58427281879843
 30
0.0
 10
-9.744669089600137
 20
22.0839399048547
 30
0.0
 10
-9.921084926061098
 20
23.24684454644656
 30
0.0
 10
-10.02578705925708
 20
23.82336143708664
 30
0.0
  0
SPLINE
  5
FB
330
1F
100
AcDbEntity
  8
Default
100
AcDbSpline
210
0.0
220
0.0
230
1.0
 70
    12
 71
     2
 72
     6
 73
     3
 74
     0
 42
0.0000000001
 43
0.0000000001
 40
0.0
 40
0.0
 40
0.0
 40
1.102793144367181
 40
1.102793144367181
 40
1.102793144367181
 10
-9.683477085294413
 20
22.89019874410215
 30
0.0
 41
1.0
 10
-9.684230532307652
 20
22.33870294159324
 30
0.0
 41
0.9997455309739954
 10
-9.709858725376819
 20
21.78780860743762
 30
0.0
 41
1.0
  0
SPLINE
  5
FC
330
1F
100
AcDbEntity
  8
Default
100
AcDbSpline
210
0.0
220
0.0
230
1.0
 70
     8
 71
     3
 72
    11
 73
     7
 74
     0
 42
0.0000000001
 43
0.0000000001
 40
0.0
 40
0.0
 40
0.0
 40
0.0
 40
0.13566170168807
 40
0.2744464145988897
 40
0.5613280325995922
 40
1.564089556579592
 40
1.564089556579592
 40
1.564089556579592
 40
1.564089556579592
 10
-10.11870802928561
 20
24.33923106355051
 30
0.0
 10
-10.0812735093196
 20
24.31261946531644
 30
0.0
 10
-10.01537265682171
 20
24.25183171557425
 30
0.0
 10
-9.89133621511968
 20
24.10653876775199
 30
0.0
 10
-9.725075014480012
 20
23.65726871101041
 30
0.0
 10
-9.686169526095426
 20
23.22359773697455
 30
0.0
 10
-9.683477085294413
 20
22.89019874410215
 30
0.0
  0
SPLINE
  5
FD
330
1F
100
AcDbEntity
  8
Default
100
AcDbSpline
210
0.0
220
0.0
230
1.0
 70
    24
 71
     2
 72
     6
 73
     3
 74
     0
 42
0.0000000001
 43
0.0000000001
 40
-0.0227731244339891
 40
-0.0227731244339891
 40
-0.0227731244339891
 40
0.0
 40
0.0
 40
0.0
 10
-9.014826996882675
 20
16.86501989295255
 30
0.0
 10
-9.01406466131239
 20
16.87638090715023
 30
0.0
 10
-9.013302325742103
 20
16.8877419213479
 30
0.0
  0
SPLINE
  5
FE
330
1F
100
AcDbEntity
  8
Default
100
AcDbSpline
210
0.0
220
0.0
230
1.0
 70
    12
 71
     2
 72
     8
 73
     5
 74
     0
 42
0.0000000001
 43
0.0000000001
 40
-0.1050980495387224
 40
-0.1050980495387224
 40
-0.1050980495387224
 40
-0.0544259658729994
 40
-0.0544259658729994
 40
0.0
 40
0.0
 40
0.0
 10
-8.9615442897516
 20
16.78350783853839
 30
0.0
 41
1.0
 10
-8.987123080137074
 20
16.79069992644949
 30
0.0
 41
0.9317365067511197
 10
-9.001089038318213
 20
16.81330418839692
 30
0.0
 41
1.0
 10
-9.016489703057527
 20
16.83689565095228
 30
0.0
 41
0.9496440122272175
 10
-9.014826996882675
 20
16.86501989295255
 30
0.0
 41
1.0
  0
SPLINE
  5
FF
330
1F
100
AcDbEntity
  8
Default
100
AcDbSpline
210
0.0
220
0.0
230
1.0
 70
    24
 71
     2
 72
     6
 73
     3
 74
     0
 42
0.0000000001
 43
0.0000000001
 40
0.0
 40
0.0
 40
0.0
 40
0.3614629263831907
 40
0.3614629263831907
 40
0.3614629263831907
 10
-8.610658807822176
 20
16.69670446463693
 30
0.0
 10
-8.786101548786888
 20
16.74010615158766
 30
0.0
 10
-8.9615442897516
 20
16.78350783853839
 30
0.0
  0
SPLINE
  5
100
330
1F
100
AcDbEntity
  8
Default
100
AcDbSpline
210
0.0
220
0.0
230
1.0
 70
    12
 71
     2
 72
     8
 73
     5
 74
     0
 42
0.0000000001
 43
0.0000000001
 40
0.0
 40
0.0
 40
0.0
 40
0.0471552986655018
 40
0.0471552986655018
 40
0.0943105973310035
 40
0.0943105973310035
 40
0.0943105973310035
 10
-8.548355707658374
 20
16.74962246610496
 30
0.0
 41
1.0
 10
-8.547180909631777
 20
16.72428511790164
 30
0.0
 41
0.8975997738324872
 10
-8.566513239509618
 20
16.70786493562877
 30
0.0
 41
1.0
 10
-8.585845569387455
 20
16.69144475335589
 30
0.0
 41
0.8975997738324872
 10
-8.610658807822176
 20
16.69670446463693
 30
0.0
 41
1.0
  0
SPLINE
  5
101
330
1F
100
AcDbEntity
  8
Default
100
AcDbSpline
210
0.0
220
0.0
230
1.0
 70
    24
 71
     2
 72
     6
 73
     3
 74
     0
 42
0.0000000001
 43
0.0000000001
 40
0.0
 40
0.0
 40
0.0
 40
0.0884283344012462
 40
0.0884283344012462
 40
0.0884283344012462
 10
-8.542435390055033
 20
16.83785239393251
 30
0.0
 10
-8.545395548856703
 20
16.79373743001874
 30
0.0
 10
-8.548355707658374
 20
16.74962246610496
 30
0.0
  0
SPLINE
  5
102
330
1F
100
AcDbEntity
  8
Default
100
AcDbSpline
210
0.0
220
0.0
230
1.0
 70
    12
 71
     3
 72
    38
 73
    34
 74
     0
 42
0.0000000001
 43
0.0000000001
 40
0.0
 40
0.0
 40
0.0
 40
0.0
 40
0.1109898140483419
 40
0.1109898140483419
 40
0.1109898140483419
 40
0.2175483925551074
 40
0.617048848387215
 40
0.7890373634091792
 40
0.9327735793276459
 40
1.030679174350167
 40
1.030679174350167
 40
1.030679174350167
 40
1.184372815048584
 40
1.41138727799838
 40
1.901106448483389
 40
2.357737372802939
 40
2.733863559036053
 40
2.733863559036053
 40
2.733863559036053
 40
2.825356720675527
 40
2.934935236086079
 40
3.122128236811944
 40
3.403015736046659
 40
3.736307219618227
 40
4.27205496857778
 40
5.400384133660618
 40
5.400384133660618
 40
5.400384133660618
 40
6.425446975909134
 40
8.049530532595302
 40
8.82618390544533
 40
9.96909391054309
 40
11.25916574905244
 40
11.25916574905244
 40
11.25916574905244
 40
11.25916574905244
 10
10.09667209982197
 20
25.444113333407
 30
0.0
 41
1.0
 10
10.12395143043183
 20
25.47693741359178
 30
0.0
 41
0.9968343937410573
 10
10.14693284108524
 20
25.51354898647928
 30
0.0
 41
0.9968343937410573
 10
10.1695918046054
 20
25.55743905909891
 30
0.0
 41
1.0
 10
10.19378100997963
 20
25.60586773255444
 30
0.0
 41
1.0
 10
10.25193821310927
 20
25.76425849358609
 30
0.0
 41
1.0
 10
10.30956317454547
 20
25.98331386883421
 30
0.0
 41
1.0
 10
10.39050491198199
 20
26.20742830055762
 30
0.0
 41
1.0
 10
10.45102426673279
 20
26.33223538847688
 30
0.0
 41
1.0
 10
10.50876777568348
 20
26.39065949555606
 30
0.0
 41
1.0
 10
10.54528261634327
 20
26.40848372058936
 30
0.0
 41
1.0
 10
10.59815709123623
 20
26.43472108528399
 30
0.0
 41
1.0
 10
10.71918078077286
 20
26.47427103757312
 30
0.0
 41
1.0
 10
11.00402683812757
 20
26.52955002064791
 30
0.0
 41
1.0
 10
11.39368273796151
 20
26.57480539292948
 30
0.0
 41
1.0
 10
11.8351989675447
 20
26.54963356234223
 30
0.0
 41
1.0
 10
12.10886196109811
 20
26.49896840483397
 30
0.0
 41
1.0
 10
12.24254444657737
 20
26.44514020651359
 30
0.0
 41
1.0
 10
12.28477588989927
 20
26.42099809350587
 30
0.0
 41
1.0
 10
12.33043393864767
 20
26.36715724803319
 30
0.0
 41
1.0
 10
12.34833232933201
 20
26.23661041723515
 30
0.0
 41
1.0
 10
12.33211135634841
 20
26.04497692980647
 30
0.0
 41
1.0
 10
12.29359162479116
 20
25.78016470059175
 30
0.0
 41
1.0
 10
12.21027754583491
 20
25.40607940432346
 30
0.0
 41
1.0
 10
12.05435939547203
 20
24.75861914336375
 30
0.0
 41
1.0
 10
11.89878010449823
 20
24.22607423112317
 30
0.0
 41
1.0
 10
11.79661717597584
 20
23.86112157808859
 30
0.0
 41
1.0
 10
11.70440710949515
 20
23.52923151747995
 30
0.0
 41
1.0
 10
11.4657439108999
 20
22.67846503803492
 30
0.0
 41
1.0
 10
11.07269382665552
 20
21.60538608196027
 30
0.0
 41
1.0
 10
10.76793940789963
 20
20.4627684087756
 30
0.0
 41
1.0
 10
10.63206160776986
 20
19.39878304820622
 30
0.0
 41
1.0
 10
10.60330005376338
 20
18.58846372856568
 30
0.0
 41
1.0
 10
10.60929765771542
 20
18.15808790281412
 30
0.0
 41
1.0
  0
SPLINE
  5
103
330
1F
100
AcDbEntity
  8
Default
100
AcDbSpline
210
0.0
220
0.0
230
1.0
 70
    12
 71
     3
 72
    38
 73
    34
 74
     0
 42
0.0000000001
 43
0.0000000001
 40
23.41494717145738
 40
23.41494717145738
 40
23.41494717145738
 40
23.41494717145738
 40
27.37803245094922
 40
29.52192102962876
 40
32.12581771233646
 40
32.13717225020227
 40
32.21096023540328
 40
32.23657260112281
 40
32.29248016334427
 40
32.29248016334427
 40
32.29248016334427
 40
32.41054708756631
 40
32.45247724771205
 40
35.10794052270614
 40
36.64802846712851
 40
37.38290703700773
 40
38.1559650523142
 40
38.1559650523142
 40
38.1559650523142
 40
38.15615167230342
 40
38.15615167230342
 40
38.15615167230342
 40
39.15615167230342
 40
39.15615167230342
 40
40.15615167230342
 40
40.15615167230342
 40
41.15615167230342
 40
41.15615167230342
 40
42.15615167230342
 40
42.15615167230342
 40
43.15615167230342
 40
43.15615167230342
 40
44.15615167230342
 40
44.15615167230342
 40
44.15615167230342
 40
44.15615167230342
 10
0.0
 20
31.74689456168725
 30
0.0
 41
1.0
 10
1.321165740089867
 20
31.74691235613956
 30
0.0
 41
1.0
 10
3.356268677821291
 20
31.83771068081702
 30
0.0
 41
1.0
 10
6.244612968252639
 20
32.14378194631692
 30
0.0
 41
1.0
 10
7.810853097720894
 20
32.39923973820823
 30
0.0
 41
1.0
 10
8.696315743605837
 20
32.53758438512236
 30
0.0
 41
1.0
 10
8.733981365018394
 20
32.53229133362384
 30
0.0
 41
1.0
 10
8.783619928427896
 20
32.52011930853569
 30
0.0
 41
1.0
 10
8.836294188102386
 20
32.48611238450574
 30
0.0
 41
1.0
 10
8.849998081824594
 20
32.47393965815978
 30
0.0
 41
1.0
 10
8.878777845047992
 20
32.44837552367935
 30
0.0
 41
1.0
 10
8.930197656893569
 20
32.37337679643962
 30
0.0
 41
1.0
 10
9.06515953487144
 20
31.4446557127379
 30
0.0
 41
1.0
 10
9.26597286477488
 20
30.04634182362106
 30
0.0
 41
1.0
 10
9.440331821555219
 20
28.41186658455564
 30
0.0
 41
1.0
 10
9.52425120721351
 20
27.39933947303594
 30
0.0
 41
1.0
 10
9.557521082863403
 20
26.89775152697602
 30
0.0
 41
1.0
 10
9.572498973225379
 20
26.64042143435345
 30
0.0
 41
1.0
 10
9.572502207648887
 20
26.64035930712321
 30
0.0
 41
1.0
 10
9.57250544217403
 20
26.64029717989834
 30
0.0
 41
1.0
 10
9.572508676800787
 20
26.64023505267885
 30
0.0
 41
1.0
 10
9.575911857753988
 20
26.56118209767381
 30
0.0
 41
1.0
 10
9.580864689469754
 20
26.48222859265705
 30
0.0
 41
1.0
 10
9.593869654426415
 20
26.3245204826001
 30
0.0
 41
1.0
 10
9.602058698602887
 20
26.24582497150932
 30
0.0
 41
1.0
 10
9.621809910352107
 20
26.08875103720312
 30
0.0
 41
1.0
 10
9.634403882752045
 20
26.01070631192085
 30
0.0
 41
1.0
 10
9.665028560602567
 20
25.85560134509795
 30
0.0
 41
1.0
 10
9.685288945671545
 20
25.77885532694919
 30
0.0
 41
1.0
 10
9.735705808096926
 20
25.62697622117708
 30
0.0
 41
1.0
 10
9.784677683788027
 20
25.56190585872347
 30
0.0
 41
1.0
 10
9.930148324127051
 20
25.45350351468116
 30
0.0
 41
1.0
 10
10.00850344837672
 20
25.43102683008196
 30
0.0
 41
1.0
 10
10.09667209982197
 20
25.444113333407
 30
0.0
 41
1.0
  0
SPLINE
  5
104
330
1F
100
AcDbEntity
  8
Default
100
AcDbSpline
210
0.0
220
0.0
230
1.0
 70
    12
 71
     3
 72
    38
 73
    34
 74
     0
 42
0.0000000001
 43
0.0000000001
 40
-44.15615167230342
 40
-44.15615167230342
 40
-44.15615167230342
 40
-44.15615167230342
 40
-43.15615167230342
 40
-43.15615167230342
 40
-42.15615167230342
 40
-42.15615167230342
 40
-41.15615167230342
 40
-41.15615167230342
 40
-40.15615167230342
 40
-40.15615167230342
 40
-39.15615167230342
 40
-39.15615167230342
 40
-38.15615167230342
 40
-38.15615167230342
 40
-38.15615167230342
 40
-38.1559650523142
 40
-38.1559650523142
 40
-38.1559650523142
 40
-37.38290703700773
 40
-36.64802846712851
 40
-35.10794052270614
 40
-32.45247724771205
 40
-32.41054708756631
 40
-32.29248016334427
 40
-32.29248016334427
 40
-32.29248016334427
 40
-32.23657260112281
 40
-32.21096023540328
 40
-32.13717225020227
 40
-32.12581771233646
 40
-29.52192102962876
 40
-27.37803245094922
 40
-23.41494717145738
 40
-23.41494717145738
 40
-23.41494717145738
 40
-23.41494717145738
 10
-10.09667209982197
 20
25.444113333407
 30
0.0
 41
1.0
 10
-10.00850344837672
 20
25.43102683008196
 30
0.0
 41
1.0
 10
-9.930148324127051
 20
25.45350351468116
 30
0.0
 41
1.0
 10
-9.784677683788027
 20
25.56190585872347
 30
0.0
 41
1.0
 10
-9.735705808096926
 20
25.62697622117708
 30
0.0
 41
1.0
 10
-9.685288945671545
 20
25.77885532694919
 30
0.0
 41
1.0
 10
-9.665028560602567
 20
25.85560134509795
 30
0.0
 41
1.0
 10
-9.634403882752045
 20
26.01070631192085
 30
0.0
 41
1.0
 10
-9.621809910352107
 20
26.08875103720312
 30
0.0
 41
1.0
 10
-9.602058698602887
 20
26.24582497150932
 30
0.0
 41
1.0
 10
-9.593869654426415
 20
26.3245204826001
 30
0.0
 41
1.0
 10
-9.580864689469754
 20
26.48222859265705
 30
0.0
 41
1.0
 10
-9.575911857753988
 20
26.56118209767381
 30
0.0
 41
1.0
 10
-9.572508676800787
 20
26.64023505267885
 30
0.0
 41
1.0
 10
-9.57250544217403
 20
26.64029717989834
 30
0.0
 41
1.0
 10
-9.572502207648887
 20
26.64035930712321
 30
0.0
 41
1.0
 10
-9.572498973225379
 20
26.64042143435345
 30
0.0
 41
1.0
 10
-9.557521082863403
 20
26.89775152697602
 30
0.0
 41
1.0
 10
-9.52425120721351
 20
27.39933947303594
 30
0.0
 41
1.0
 10
-9.440331821555219
 20
28.41186658455564
 30
0.0
 41
1.0
 10
-9.26597286477488
 20
30.04634182362106
 30
0.0
 41
1.0
 10
-9.06515953487144
 20
31.4446557127379
 30
0.0
 41
1.0
 10
-8.930197656893569
 20
32.37337679643962
 30
0.0
 41
1.0
 10
-8.878777845047992
 20
32.44837552367935
 30
0.0
 41
1.0
 10
-8.849998081824594
 20
32.47393965815978
 30
0.0
 41
1.0
 10
-8.836294188102386
 20
32.48611238450574
 30
0.0
 41
1.0
 10
-8.783619928427896
 20
32.52011930853569
 30
0.0
 41
1.0
 10
-8.733981365018394
 20
32.53229133362384
 30
0.0
 41
1.0
 10
-8.696315743605837
 20
32.53758438512236
 30
0.0
 41
1.0
 10
-7.810853097720894
 20
32.39923973820823
 30
0.0
 41
1.0
 10
-6.244612968252639
 20
32.14378194631692
 30
0.0
 41
1.0
 10
-3.356268677821291
 20
31.83771068081702
 30
0.0
 41
1.0
 10
-1.321165740089867
 20
31.74691235613956
 30
0.0
 41
1.0
 10
0.0
 20
31.74689456168725
 30
0.0
 41
1.0
  0
SPLINE
  5
105
330
1F
100
AcDbEntity
  8
Default
100
AcDbSpline
210
0.0
220
0.0
230
1.0
 70
    12
 71
     3
 72
    38
 73
    34
 74
     0
 42
0.0000000001
 43
0.0000000001
 40
-11.25916574905244
 40
-11.25916574905244
 40
-11.25916574905244
 40
-11.25916574905244
 40
-9.96909391054309
 40
-8.82618390544533
 40
-8.049530532595302
 40
-6.425446975909134
 40
-5.400384133660618
 40
-5.400384133660618
 40
-5.400384133660618
 40
-4.27205496857778
 40
-3.736307219618227
 40
-3.403015736046659
 40
-3.122128236811944
 40
-2.934935236086079
 40
-2.825356720675527
 40
-2.733863559036053
 40
-2.733863559036053
 40
-2.733863559036053
 40
-2.357737372802939
 40
-1.901106448483389
 40
-1.41138727799838
 40
-1.184372815048584
 40
-1.030679174350167
 40
-1.030679174350167
 40
-1.030679174350167
 40
-0.9327735793276459
 40
-0.7890373634091792
 40
-0.617048848387215
 40
-0.2175483925551074
 40
-0.1109898140483419
 40
-0.1109898140483419
 40
-0.1109898140483419
 40
0.0
 40
0.0
 40
0.0
 40
0.0
 10
-10.60929765771542
 20
18.15808790281412
 30
0.0
 41
1.0
 10
-10.60330005376338
 20
18.58846372856568
 30
0.0
 41
1.0
 10
-10.63206160776986
 20
19.39878304820622
 30
0.0
 41
1.0
 10
-10.76793940789963
 20
20.4627684087756
 30
0.0
 41
1.0
 10
-11.07269382665552
 20
21.60538608196027
 30
0.0
 41
1.0
 10
-11.4657439108999
 20
22.67846503803492
 30
0.0
 41
1.0
 10
-11.70440710949515
 20
23.52923151747995
 30
0.0
 41
1.0
 10
-11.79661717597584
 20
23.86112157808859
 30
0.0
 41
1.0
 10
-11.89878010449823
 20
24.22607423112317
 30
0.0
 41
1.0
 10
-12.05435939547203
 20
24.75861914336375
 30
0.0
 41
1.0
 10
-12.21027754583491
 20
25.40607940432346
 30
0.0
 41
1.0
 10
-12.29359162479116
 20
25.78016470059175
 30
0.0
 41
1.0
 10
-12.33211135634841
 20
26.04497692980647
 30
0.0
 41
1.0
 10
-12.34833232933201
 20
26.23661041723515
 30
0.0
 41
1.0
 10
-12.33043393864767
 20
26.36715724803319
 30
0.0
 41
1.0
 10
-12.28477588989927
 20
26.42099809350587
 30
0.0
 41
1.0
 10
-12.24254444657737
 20
26.44514020651359
 30
0.0
 41
1.0
 10
-12.10886196109811
 20
26.49896840483397
 30
0.0
 41
1.0
 10
-11.8351989675447
 20
26.54963356234223
 30
0.0
 41
1.0
 10
-11.39368273796151
 20
26.57480539292948
 30
0.0
 41
1.0
 10
-11.00402683812757
 20
26.52955002064791
 30
0.0
 41
1.0
 10
-10.71918078077286
 20
26.47427103757312
 30
0.0
 41
1.0
 10
-10.59815709123623
 20
26.43472108528399
 30
0.0
 41
1.0
 10
-10.54528261634327
 20
26.40848372058936
 30
0.0
 41
1.0
 10
-10.50876777568348
 20
26.39065949555606
 30
0.0
 41
1.0
 10
-10.45102426673279
 20
26.33223538847688
 30
0.0
 41
1.0
 10
-10.39050491198199
 20
26.20742830055762
 30
0.0
 41
1.0
 10
-10.30956317454547
 20
25.98331386883421
 30
0.0
 41
1.0
 10
-10.25193821310927
 20
25.76425849358609
 30
0.0
 41
1.0
 10
-10.19378100997963
 20
25.60586773255444
 30
0.0
 41
1.0
 10
-10.1695918046054
 20
25.55743905909891
 30
0.0
 41
1.0
 10
-10.14693284108524
 20
25.51354898647928
 30
0.0
 41
0.9968343937410573
 10
-10.12395143043183
 20
25.47693741359178
 30
0.0
 41
0.9968343937410573
 10
-10.09667209982197
 20
25.444113333407
 30
0.0
 41
1.0
  0
LINE
  5
106
330
1F
100
AcDbEntity
  8
Default
100
AcDbLine
 10
42.76176636635886
 20
18.14887289081948
 30
0.0
 11
43.26163436637094
 21
0.1859791323309068
 31
0.0
  0
SPLINE
  5
107
330
1F
100
AcDbEntity
  8
Default
100
AcDbSpline
210
0.0
220
0.0
230
1.0
 70
    12
 71
     2
 72
     8
 73
     5
 74
     0
 42
0.0000000001
 43
0.0000000001
 40
0.0
 40
0.0
 40
0.0
 40
0.5626260824973863
 40
0.5626260824973863
 40
1.125253641403958
 40
1.125253641403958
 40
1.125253641403958
 10
41.63720170375051
 20
18.11757881122212
 30
0.0
 41
0.9999999979726337
 10
41.91790714104139
 20
18.13712509930529
 30
0.0
 41
0.9996137073082292
 10
42.19926499478024
 20
18.14104403308302
 30
0.0
 41
1.0
 10
42.48040610784707
 20
18.15277817784374
 30
0.0
 41
0.9996137062945434
 10
42.76176636635886
 20
18.14887289081948
 30
0.0
 41
1.0
  0
LINE
  5
108
330
1F
100
AcDbEntity
  8
Default
100
AcDbLine
 10
42.1370697036715
 20
0.1546850528959354
 30
0.0
 11
41.63720170375051
 21
18.11757881122212
 31
0.0
  0
SPLINE
  5
109
330
1F
100
AcDbEntity
  8
Default
100
AcDbSpline
210
0.0
220
0.0
230
1.0
 70
     8
 71
     3
 72
    14
 73
    10
 74
     0
 42
0.0000000001
 43
0.0000000001
 40
0.0
 40
0.0
 40
0.0
 40
0.0
 40
0.2518026097524419
 40
0.3993978094503035
 40
0.6408038471311446
 40
0.8299381435286958
 40
1.34429103653412
 40
1.503771313972345
 40
2.081296446122036
 40
2.081296446122036
 40
2.081296446122036
 40
2.081296446122036
 10
28.56325076104116
 20
24.67687434264523
 30
0.0
 10
28.48270502367396
 20
24.65034172421998
 30
0.0
 10
28.36144155519557
 20
24.60097075244146
 30
0.0
 10
28.16305174101126
 20
24.51251975544837
 30
0.0
 10
28.04741798455206
 20
24.34244540122468
 30
0.0
 10
28.06817482520182
 20
24.02066433066744
 30
0.0
 10
28.12815280594214
 20
23.74284573695712
 30
0.0
 10
28.18102523515347
 20
23.32670715907059
 30
0.0
 10
28.19975846376221
 20
23.08314342408276
 30
0.0
 10
28.20636801739741
 20
22.8901499126914
 30
0.0
  0
SPLINE
  5
10A
330
1F
100
AcDbEntity
  8
Default
100
AcDbSpline
210
0.0
220
0.0
230
1.0
 70
    12
 71
     2
 72
     6
 73
     3
 74
     0
 42
0.0000000001
 43
0.0000000001
 40
-0.3818374946388466
 40
-0.3818374946388466
 40
-0.3818374946388466
 40
0.0
 40
0.0
 40
0.0
 10
28.9245942687902
 20
24.80025922381299
 30
0.0
 41
1.0
 10
28.74324829701747
 20
24.74053984327403
 30
0.0
 41
0.9999497799871767
 10
28.56325076104116
 20
24.67687434264523
 30
0.0
 41
1.0
  0
SPLINE
  5
10B
330
1F
100
AcDbEntity
  8
Default
100
AcDbSpline
210
0.0
220
0.0
230
1.0
 70
    12
 71
     3
 72
    27
 73
    23
 74
     0
 42
0.0000000001
 43
0.0000000001
 40
-17.84751507560201
 40
-17.84751507560201
 40
-17.84751507560201
 40
-17.84751507560201
 40
-16.95129587884805
 40
-15.65269240854135
 40
-15.21017777281098
 40
-14.39303538772804
 40
-13.19416178627385
 40
-12.67283013748999
 40
-12.17771109150672
 40
-12.17771109150672
 40
-12.17771109150672
 40
-11.17017766051491
 40
-10.10746988013587
 40
-8.93276930188814
 40
-7.617032957020962
 40
-5.997738481901326
 40
-3.794423638278215
 40
-2.023441253887982
 40
0.0
 40
0.0
 40
0.0
 40
1.343161462371087
 40
1.343161462371087
 40
1.343161462371087
 40
1.343161462371087
 10
41.63678688742968
 20
18.13333236758227
 30
0.0
 41
1.0
 10
41.62944245603998
 20
18.43182640170724
 30
0.0
 41
1.0
 10
41.66458634091904
 20
19.16487616327073
 30
0.0
 41
1.0
 10
41.83393289878802
 20
20.02868486393363
 30
0.0
 41
1.0
 10
41.93754380090334
 20
20.87573584380027
 30
0.0
 41
1.0
 10
41.96164032215739
 20
21.69566053339562
 30
0.0
 41
1.0
 10
41.87715448743589
 20
22.54055450549275
 30
0.0
 41
1.0
 10
41.69777040903276
 20
23.25807186758544
 30
0.0
 41
1.0
 10
41.57356564475404
 20
23.57423798859033
 30
0.0
 41
1.0
 10
41.50408044621142
 20
23.72385838379352
 30
0.0
 41
1.0
 10
41.36360768511207
 20
24.02891576402106
 30
0.0
 41
1.0
 10
40.97876028148391
 20
24.61201428197721
 30
0.0
 41
1.0
 10
40.12116248676844
 20
25.29151779709613
 30
0.0
 41
1.0
 10
39.0309652832866
 20
25.76944679055596
 30
0.0
 41
1.0
 10
37.68413893398909
 20
26.06012530393635
 30
0.0
 41
1.0
 10
35.96808690111502
 20
26.0992241809892
 30
0.0
 41
1.0
 10
34.10693736034011
 20
25.97176122219588
 30
0.0
 41
1.0
 10
32.12650617816573
 20
25.68319296335264
 30
0.0
 41
1.0
 10
30.90356035298109
 20
25.34893009553763
 30
0.0
 41
1.0
 10
30.23435791827688
 20
25.17214431307617
 30
0.0
 41
1.0
 10
29.7895364687225
 20
25.05478301141147
 30
0.0
 41
0.9998764356020825
 10
29.35293082482238
 20
24.93069741730047
 30
0.0
 41
0.9998764356020825
 10
28.9245942687902
 20
24.80025922381299
 30
0.0
 41
1.0
  0
SPLINE
  5
10C
330
1F
100
AcDbEntity
  8
Default
100
AcDbSpline
210
0.0
220
0.0
230
1.0
 70
     8
 71
     2
 72
     8
 73
     5
 74
     0
 42
0.0000000001
 43
0.0000000001
 40
0.0
 40
0.0
 40
0.0
 40
1.0
 40
2.0
 40
2.082380386027239
 40
2.082380386027239
 40
2.082380386027239
 10
28.00441343059478
 20
19.83987717688064
 30
0.0
 10
28.24417123541173
 20
20.93175422618518
 30
0.0
 10
28.36801887451841
 20
23.16403344032311
 30
0.0
 10
28.14400837454051
 20
24.3548856155649
 30
0.0
 10
28.12617971679587
 20
24.44530662692542
 30
0.0
  0
ARC
  5
10D
330
1F
100
AcDbEntity
  8
Default
100
AcDbCircle
 10
23.34793096055348
 20
31.57421988320674
 30
0.0
 40
0.1689744737258318
100
AcDbArc
 50
116.5741649610433
 51
135.8652056261011
  0
ARC
  5
10E
330
1F
100
AcDbEntity
  8
Default
100
AcDbCircle
 10
45.90625744466979
 20
-13.52449752909375
 30
0.0
 40
50.59488453986661
100
AcDbArc
 50
114.7800881090393
 51
116.5741649610439
  0
SPLINE
  5
10F
330
1F
100
AcDbEntity
  8
Default
100
AcDbSpline
210
0.0
220
0.0
230
1.0
 70
     8
 71
     5
 72
    12
 73
     6
 74
     0
 42
0.0000000001
 43
0.0000000001
 40
0.0
 40
0.0
 40
0.0
 40
0.0
 40
0.0
 40
0.0
 40
1.0
 40
1.0
 40
1.0
 40
1.0
 40
1.0
 40
1.0
 10
25.01155440992538
 20
32.53442430416921
 30
0.0
 10
25.00468444837441
 20
32.54463944964004
 30
0.0
 10
24.97773889076691
 20
32.57870049113087
 30
0.0
 10
24.82170566979065
 20
32.46779249073703
 30
0.0
 10
24.76087494057157
 20
32.43983236368147
 30
0.0
 10
24.70009062479807
 20
32.41177169697863
 30
0.0
  0
SPLINE
  5
110
330
1F
100
AcDbEntity
  8
Default
100
AcDbSpline
210
0.0
220
0.0
230
1.0
 70
     8
 71
     2
 72
     9
 73
     6
 74
     0
 42
0.0000000001
 43
0.0000000001
 40
2.546990271718815
 40
2.546990271718815
 40
2.546990271718815
 40
3.0
 40
4.0
 40
5.0
 40
6.0
 40
6.0
 40
6.0
 10
27.90029691477341
 20
25.45837652757931
 30
0.0
 10
27.77809363231914
 20
25.94892745791364
 30
0.0
 10
27.31056338709945
 20
27.50147630239373
 30
0.0
 10
26.50392023742648
 20
29.57793763663282
 30
0.0
 10
25.65527106023862
 20
31.66257011733954
 30
0.0
 10
25.01155440992538
 20
32.53442430416921
 30
0.0
  0
SPLINE
  5
111
330
1F
100
AcDbEntity
  8
Default
100
AcDbSpline
210
0.0
220
0.0
230
1.0
 70
    12
 71
     3
 72
    64
 73
    60
 74
     0
 42
0.0000000001
 43
0.0000000001
 40
20.58321454143402
 40
20.58321454143402
 40
20.58321454143402
 40
20.58321454143402
 40
21.04477563910197
 40
21.04477563910197
 40
21.04477563910197
 40
21.33224931328581
 40
21.6455463514965
 40
22.33998758671066
 40
23.72700964529565
 40
23.72700964529565
 40
23.72700964529565
 40
24.37746194380612
 40
24.37746194380612
 40
24.37746194380612
 40
24.74265011140462
 40
24.74668065082338
 40
24.74668065082338
 40
24.74668065082338
 40
25.19656049775939
 40
25.19656049775939
 40
25.19656049775939
 40
26.01455642883183
 40
26.52146598053523
 40
26.85888861301138
 40
27.12887765991923
 40
27.12887765991923
 40
27.12887765991923
 40
27.23050408460464
 40
27.23050408460464
 40
27.23050408460464
 40
27.24732666958307
 40
27.24732666958307
 40
27.24732666958307
 40
28.24610456343342
 40
29.28690688742732
 40
31.43723910691027
 40
34.23402256053924
 40
38.51713998049595
 40
38.51713998049595
 40
38.51713998049595
 40
38.55153888363557
 40
38.55153888363557
 40
38.55153888363557
 40
39.11519683661427
 40
39.65997179865398
 40
40.37807341609253
 40
40.40791645231965
 40
40.44494759743145
 40
40.49521486840248
 40
40.55577371068683
 40
40.59867256146609
 40
40.66951705543971
 40
41.01152068415396
 40
41.66841301028297
 40
43.18740074826716
 40
46.73349159357683
 40
46.73349159357683
 40
46.73349159357683
 40
47.01966925118212
 40
47.01966925118212
 40
47.01966925118212
 40
47.01966925118212
 10
27.94404804639418
 20
23.11158929028294
 30
0.0
 41
0.9999995100144816
 10
27.94643204207809
 20
22.73632193889405
 30
0.0
 41
0.9992390160393029
 10
27.93969618305416
 20
22.58255713767486
 30
0.0
 41
0.9992391793678088
 10
27.92562476356974
 20
22.42928947255131
 30
0.0
 41
1.0
 10
27.91710247876553
 20
22.33383713763722
 30
0.0
 41
1.0
 10
27.89408188253147
 20
22.13483493447577
 30
0.0
 41
1.0
 10
27.8179565531201
 20
21.70965934465534
 30
0.0
 41
1.0
 10
27.61482539442493
 20
20.93656069114137
 30
0.0
 41
1.0
 10
27.34136027001637
 20
20.29565413480423
 30
0.0
 41
1.0
 10
27.12661039438953
 20
19.88474050578927
 30
0.0
 41
1.0
 10
27.0246770102618
 20
19.69218314365395
 30
0.0
 41
0.9994188715402256
 10
26.91467788762759
 20
19.50386445257617
 30
0.0
 41
0.9994188715402256
 10
26.79680479734901
 20
19.32011274460865
 30
0.0
 41
1.0
 10
26.72840404833558
 20
19.21756374062421
 30
0.0
 41
1.0
 10
26.66760464987304
 20
19.10835222149802
 30
0.0
 41
1.0
 10
26.60572428114952
 20
19.00400218461689
 30
0.0
 41
1.0
 10
26.60659611477836
 20
19.0101550886503
 30
0.0
 41
1.0
 10
26.66983560747355
 20
19.1484519151899
 30
0.0
 41
0.9725563879326877
 10
26.69120033163114
 20
19.29901351131899
 30
0.0
 41
0.9725563879326877
 10
26.668931311646
 20
19.44944401492837
 30
0.0
 41
1.0
 10
26.62891476116479
 20
19.7197616959766
 30
0.0
 41
1.0
 10
26.39743497703233
 20
20.12768824549079
 30
0.0
 41
1.0
 10
25.90504097534009
 20
20.401528207273
 30
0.0
 41
1.0
 10
25.57205831559347
 20
20.55833654968955
 30
0.0
 41
1.0
 10
25.37991937123735
 20
20.62844069545744
 30
0.0
 41
1.0
 10
25.29367992853979
 20
20.65245199748832
 30
0.0
 41
1.0
 10
25.25959927637904
 20
20.66273318512864
 30
0.0
 41
0.9069105048036632
 10
25.23551340901211
 20
20.6889478047551
 30
0.0
 41
0.9069105048036632
 10
25.22814875014267
 20
20.7237749392443
 30
0.0
 41
1.0
 10
25.2263521451463
 20
20.72916571053415
 30
0.0
 41
0.9739675635769868
 10
25.22611741529903
 20
20.73484313129637
 30
0.0
 41
0.9739675635769868
 10
25.22746289237034
 20
20.74036381024584
 30
0.0
 41
1.0
 10
25.30914644077633
 20
21.06425578641621
 30
0.0
 41
1.0
 10
25.4245474647595
 20
21.73293587939238
 30
0.0
 41
1.0
 10
25.53093478227166
 20
23.13002115251788
 30
0.0
 41
1.0
 10
25.32453793117371
 20
25.12493288897919
 30
0.0
 41
1.0
 10
24.48129143566226
 20
28.09049362236302
 30
0.0
 41
1.0
 10
23.71017574812575
 20
30.31852134949535
 30
0.0
 41
1.0
 10
23.21943844452582
 20
31.66015057302705
 30
0.0
 41
1.0
 10
23.21527880029311
 20
31.67155863810694
 30
0.0
 41
0.8934048983870025
 10
23.21797221724901
 20
31.68339891234833
 30
0.0
 41
0.8934048983870025
 10
23.2266573802312
 20
31.69188505004356
 30
0.0
 41
1.0
 10
23.39584257259011
 20
31.77354383341592
 30
0.0
 41
1.0
 10
23.73002980818789
 20
31.93134687155042
 30
0.0
 41
1.0
 10
24.28436501998786
 20
32.18280676767586
 30
0.0
 41
1.0
 10
24.67440728993387
 20
32.36660910113901
 30
0.0
 41
1.0
 10
24.91442724656473
 20
32.47013037589994
 30
0.0
 41
1.0
 10
24.95471521032107
 20
32.45172779306326
 30
0.0
 41
1.0
 10
24.99275958749715
 20
32.42475484938559
 30
0.0
 41
1.0
 10
25.02811915070166
 20
32.38527711904508
 30
0.0
 41
1.0
 10
25.06265395494376
 20
32.33916227944499
 30
0.0
 41
1.0
 10
25.1374764567837
 20
32.20670018983024
 30
0.0
 41
1.0
 10
25.30833210566178
 20
31.89371417256157
 30
0.0
 41
1.0
 10
25.67544022511115
 20
31.13869033358302
 30
0.0
 41
1.0
 10
26.40821034869509
 20
29.3766351684221
 30
0.0
 41
1.0
 10
26.94062688889844
 20
27.7729517103907
 30
0.0
 41
1.0
 10
27.29093509691329
 20
26.59907787656033
 30
0.0
 41
1.0
 10
27.42427927047191
 20
26.15004968018642
 30
0.0
 41
1.0
 10
27.53545561026075
 20
25.74285371397011
 30
0.0
 41
1.0
 10
27.62473367263468
 20
25.36939869804742
 30
0.0
 41
1.0
  0
SPLINE
  5
112
330
1F
100
AcDbEntity
  8
Default
100
AcDbSpline
210
0.0
220
0.0
230
1.0
 70
     8
 71
     3
 72
    18
 73
    14
 74
     0
 42
0.0000000001
 43
0.0000000001
 40
0.0
 40
0.0
 40
0.0
 40
0.0
 40
0.0593836568210491
 40
0.1135642017618635
 40
0.2352849768150596
 40
0.6154804948049609
 40
0.7612091161103206
 40
0.7612091161103206
 40
0.7612091161103206
 40
0.8523739615905102
 40
0.9344918554712651
 40
1.11979452643305
 40
1.68470910305339
 40
1.68470910305339
 40
1.68470910305339
 40
1.68470910305339
 10
27.30278927896848
 20
24.85177816124347
 30
0.0
 10
27.30508252363268
 20
24.83207518368174
 30
0.0
 10
27.31224071125081
 20
24.79492292281513
 30
0.0
 10
27.33538372685908
 20
24.71973463292711
 30
0.0
 10
27.42649902988822
 20
24.55650941288252
 30
0.0
 10
27.58777702026978
 20
24.40868938805373
 30
0.0
 10
27.68791341546819
 20
24.26467623652742
 30
0.0
 10
27.71431835290849
 20
24.22223326954294
 30
0.0
 10
27.73094820666211
 20
24.195080418662
 30
0.0
 10
27.75776566926825
 20
24.14407674774267
 30
0.0
 10
27.806667429275
 20
24.0346635606458
 30
0.0
 10
27.88578923026651
 20
23.76834515434372
 30
0.0
 10
27.92316618944662
 20
23.52012962767466
 30
0.0
 10
27.94404804639419
 20
23.11158929028294
 30
0.0
  0
SPLINE
  5
113
330
1F
100
AcDbEntity
  8
Default
100
AcDbSpline
210
0.0
220
0.0
230
1.0
 70
     8
 71
     5
 72
    12
 73
     6
 74
     0
 42
0.0000000001
 43
0.0000000001
 40
0.0
 40
0.0
 40
0.0
 40
0.0
 40
0.0
 40
0.0
 40
1.0
 40
1.0
 40
1.0
 40
1.0
 40
1.0
 40
1.0
 10
27.344034153671
 20
25.11229350612437
 30
0.0
 10
27.31885958249348
 20
25.06593602182751
 30
0.0
 10
27.29891600291577
 20
25.01673783182033
 30
0.0
 10
27.29920923946252
 20
24.95757773098211
 30
0.0
 10
27.29669060102685
 20
24.90417645808287
 30
0.0
 10
27.30278927896848
 20
24.85177816124347
 30
0.0
  0
SPLINE
  5
114
330
1F
100
AcDbEntity
  8
Default
100
AcDbSpline
210
0.0
220
0.0
230
1.0
 70
    12
 71
     2
 72
     8
 73
     5
 74
     0
 42
0.0000000001
 43
0.0000000001
 40
-0.6177731832905559
 40
-0.6177731832905559
 40
-0.6177731832905559
 40
-0.4600410774079766
 40
-0.4600410774079766
 40
0.0
 40
0.0
 40
0.0
 10
27.84414093779154
 20
25.44334272219858
 30
0.0
 41
1.0
 10
27.76656076967392
 20
25.4217626990161
 30
0.0
 41
0.9990427713074699
 10
27.69267411797475
 20
25.39403968821041
 30
0.0
 41
1.0
 10
27.45984986318243
 20
25.32556128721771
 30
0.0
 41
0.9235251450677496
 10
27.344034153671
 20
25.11229350612437
 30
0.0
 41
1.0
  0
SPLINE
  5
115
330
1F
100
AcDbEntity
  8
Default
100
AcDbSpline
210
0.0
220
0.0
230
1.0
 70
    12
 71
     3
 72
    25
 73
    21
 74
     0
 42
0.0000000001
 43
0.0000000001
 40
0.0
 40
0.0
 40
0.0
 40
0.0
 40
1.473337225222238
 40
2.180778529516569
 40
3.691154581659405
 40
4.86162751763762
 40
5.929158539635224
 40
5.929158539635224
 40
5.929158539635224
 40
7.08447714822221
 40
8.255675214010646
 40
9.53711295372142
 40
11.01938668735557
 40
12.83465240124909
 40
14.97084977560966
 40
17.30949843945334
 40
19.62645110586711
 40
19.62645110586711
 40
19.62645110586711
 40
20.9293810752833
 40
20.9293810752833
 40
20.9293810752833
 40
20.9293810752833
 10
42.76135142700016
 20
18.16421546414344
 30
0.0
 41
1.0
 10
42.74937341941947
 20
18.65503163265035
 30
0.0
 41
1.0
 10
42.78639485223735
 20
19.38243610949174
 30
0.0
 41
1.0
 10
42.76232323434999
 20
20.61185757170372
 30
0.0
 41
1.0
 10
42.71855154313459
 20
21.74270806494484
 30
0.0
 41
1.0
 10
42.46545327259187
 20
22.97138762105554
 30
0.0
 41
1.0
 10
42.17572481173812
 20
23.66330304740195
 30
0.0
 41
1.0
 10
42.00118056519537
 20
23.97335674265489
 30
0.0
 41
1.0
 10
41.8100340912554
 20
24.30771269071094
 30
0.0
 41
1.0
 10
41.33576737011009
 20
24.92996434579439
 30
0.0
 41
1.0
 10
40.36674101575315
 20
25.66167335821454
 30
0.0
 41
1.0
 10
39.14532921303999
 20
26.16087331718157
 30
0.0
 41
1.0
 10
37.64710361451793
 20
26.47668586006009
 30
0.0
 41
1.0
 10
35.83651538672032
 20
26.58895610238658
 30
0.0
 41
1.0
 10
33.73847616061494
 20
26.53159227462859
 30
0.0
 41
1.0
 10
31.48987182797015
 20
26.25009456265953
 30
0.0
 41
1.0
 10
29.96257785091993
 20
25.97494276527625
 30
0.0
 41
1.0
 10
29.15804263893438
 20
25.78679012712289
 30
0.0
 41
1.0
 10
28.70265483540246
 20
25.67053872901997
 30
0.0
 41
0.9999903277390821
 10
28.26520109564641
 20
25.55619552952116
 30
0.0
 41
0.9999903277390821
 10
27.84414093779154
 20
25.44334272219858
 30
0.0
 41
1.0
  0
SPLINE
  5
116
330
1F
100
AcDbEntity
  8
Default
100
AcDbSpline
210
0.0
220
0.0
230
1.0
 70
    12
 71
     2
 72
    10
 73
     7
 74
     0
 42
0.0000000001
 43
0.0000000001
 40
0.0
 40
0.0
 40
0.0
 40
0.6227389772555622
 40
0.6227389772555622
 40
1.506203123415036
 40
1.506203123415036
 40
1.562847357700877
 40
1.562847357700877
 40
1.562847357700877
 10
9.793937344110711
 20
45.56245122546645
 30
0.0
 41
0.9999999869992794
 10
9.949415892970732
 20
45.25148870157215
 30
0.0
 41
0.8505124624616743
 10
10.29708130373379
 20
45.25166920446759
 30
0.0
 41
1.0
 10
10.85940025811505
 20
45.25185012998195
 30
0.0
 41
0.7073001515603876
 10
10.85952692604121
 20
45.8141690992029
 30
0.0
 41
1.0
 10
10.85952695195967
 20
45.8425152090869
 30
0.0
 41
0.9987308260895954
 10
10.85667523963332
 20
45.87071750832587
 30
0.0
 41
1.0
  0
SPLINE
  5
117
330
1F
100
AcDbEntity
  8
Default
100
AcDbSpline
210
0.0
220
0.0
230
1.0
 70
    24
 71
     2
 72
     6
 73
     3
 74
     0
 42
0.0000000001
 43
0.0000000001
 40
-0.2602720793271335
 40
-0.2602720793271335
 40
-0.2602720793271335
 40
0.0
 40
0.0
 40
0.0
 10
9.677558164298118
 20
45.79525463694716
 30
0.0
 10
9.735747754204416
 20
45.67885293120681
 30
0.0
 10
9.793937344110715
 20
45.56245122546645
 30
0.0
  0
SPLINE
  5
118
330
1F
100
AcDbEntity
  8
Default
100
AcDbSpline
210
0.0
220
0.0
230
1.0
 70
    12
 71
     2
 72
     6
 73
     3
 74
     0
 42
0.0000000001
 43
0.0000000001
 40
0.0
 40
0.0
 40
0.0
 40
0.5806136477528836
 40
0.5806136477528836
 40
0.5806136477528836
 10
-9.555838015382049
 20
46.59722469940958
 30
0.0
 41
1.0
 10
-9.716810214766275
 20
46.87199943080321
 30
0.0
 41
0.8725415371224636
 10
-10.03520074697334
 20
46.87837681176455
 30
0.0
 41
1.0
  0
SPLINE
  5
119
330
1F
100
AcDbEntity
  8
Default
100
AcDbSpline
210
0.0
220
0.0
230
1.0
 70
     8
 71
     3
 72
     8
 73
     4
 74
     0
 42
0.0000000001
 43
0.0000000001
 40
0.0000000000000001
 40
0.0000000000000001
 40
0.0000000000000001
 40
0.0000000000000001
 40
0.0308111800759202
 40
0.0308111800759202
 40
0.0308111800759202
 40
0.0308111800759202
 10
-9.783972834294474
 20
61.02799129905018
 30
0.0
 10
-9.783323732361891
 20
61.01775622455189
 30
0.0
 10
-9.782674585490128
 20
61.00751758143244
 30
0.0
 10
-9.782024415277492
 20
60.99727600774082
 30
0.0
  0
SPLINE
  5
11A
330
1F
100
AcDbEntity
  8
Default
100
AcDbSpline
210
0.0
220
0.0
230
1.0
 70
    12
 71
     2
 72
     8
 73
     5
 74
     0
 42
0.0000000001
 43
0.0000000001
 40
-3.0
 40
-3.0
 40
-3.0
 40
-2.0
 40
-1.0
 40
0.0
 40
0.0
 40
0.0
 10
-9.808061667404175
 20
61.47615068487386
 30
0.0
 41
1.0
 10
-9.805392058688057
 20
61.43608123939931
 30
0.0
 41
1.0
 10
-9.800444412906472
 20
61.35591626016576
 30
0.0
 41
1.0
 10
-9.786514540534313
 20
61.0680690609728
 30
0.0
 41
1.0
 10
-9.783972834294474
 20
61.02799129905018
 30
0.0
 41
1.0
  0
SPLINE
  5
11B
330
1F
100
AcDbEntity
  8
Default
100
AcDbSpline
210
0.0
220
0.0
230
1.0
 70
     8
 71
     2
 72
     9
 73
     6
 74
     0
 42
0.0000000001
 43
0.0000000001
 40
2.020322663502027
 40
2.020322663502027
 40
2.020322663502027
 40
3.0
 40
4.0
 40
5.0
 40
6.0
 40
6.0
 40
6.0
 10
-9.667933338300996
 20
61.02815934188911
 30
0.0
 10
-9.660072531324204
 20
61.12170724979291
 30
0.0
 10
-9.633003343408205
 20
61.30959612831992
 30
0.0
 10
-9.583189056844475
 20
61.49495774354649
 30
0.0
 10
-9.502300219732788
 20
61.66950774381552
 30
0.0
 10
-9.444444315482215
 20
61.74613979210507
 30
0.0
  0
SPLINE
  5
11C
330
1F
100
AcDbEntity
  8
Default
100
AcDbSpline
210
0.0
220
0.0
230
1.0
 70
    12
 71
     2
 72
    10
 73
     7
 74
     0
 42
0.0000000001
 43
0.0000000001
 40
0.0
 40
0.0
 40
0.0
 40
0.6227389772555622
 40
0.6227389772555622
 40
1.506203123415036
 40
1.506203123415036
 40
1.562847357700877
 40
1.562847357700877
 40
1.562847357700877
 10
-9.793937344110711
 20
45.56245122546645
 30
0.0
 41
0.9999999869992794
 10
-9.949415892970732
 20
45.25148870157215
 30
0.0
 41
0.8505124624616743
 10
-10.29708130373379
 20
45.25166920446759
 30
0.0
 41
1.0
 10
-10.85940025811505
 20
45.25185012998195
 30
0.0
 41
0.7073001515603876
 10
-10.85952692604121
 20
45.8141690992029
 30
0.0
 41
1.0
 10
-10.85952695195967
 20
45.8425152090869
 30
0.0
 41
0.9987308260895954
 10
-10.85667523963332
 20
45.87071750832587
 30
0.0
 41
1.0
  0
SPLINE
  5
11D
330
1F
100
AcDbEntity
  8
Default
100
AcDbSpline
210
0.0
220
0.0
230
1.0
 70
    24
 71
     2
 72
     6
 73
     3
 74
     0
 42
0.0000000001
 43
0.0000000001
 40
-0.2602720793271335
 40
-0.2602720793271335
 40
-0.2602720793271335
 40
0.0
 40
0.0
 40
0.0
 10
-9.677558164298118
 20
45.79525463694716
 30
0.0
 10
-9.735747754204416
 20
45.67885293120681
 30
0.0
 10
-9.793937344110715
 20
45.56245122546645
 30
0.0
  0
SPLINE
  5
11E
330
1F
100
AcDbEntity
  8
Default
 62
    17
100
AcDbSpline
210
0.0
220
0.0
230
1.0
 70
    12
 71
     2
 72
     6
 73
     3
 74
     0
 42
0.0000000001
 43
0.0000000001
 40
0.0
 40
0.0
 40
0.0
 40
0.0039883534300923
 40
0.0039883534300923
 40
0.0039883534300923
 10
-9.551486962441599
 20
46.5897083893566
 30
0.0
 41
1.0
 10
-9.55247328633882
 20
46.59144157601914
 30
0.0
 41
0.9999943295923494
 10
-9.553471261184738
 20
46.5931680803036
 30
0.0
 41
1.0
  0
SPLINE
  5
11F
330
1F
100
AcDbEntity
  8
Default
100
AcDbSpline
210
0.0
220
0.0
230
1.0
 70
    24
 71
     2
 72
     6
 73
     3
 74
     0
 42
0.0000000001
 43
0.0000000001
 40
0.0
 40
0.0
 40
0.0
 40
4.328712305731482
 40
4.328712305731482
 40
4.328712305731482
 10
-10.08007788435725
 20
65.84508627010612
 30
0.0
 10
-9.945612716624808
 20
63.68490204714418
 30
0.0
 10
-9.811147548892365
 20
61.52471782418223
 30
0.0
  0
SPLINE
  5
120
330
1F
100
AcDbEntity
  8
Default
100
AcDbSpline
210
0.0
220
0.0
230
1.0
 70
    12
 71
     2
 72
     8
 73
     5
 74
     0
 42
0.0000000001
 43
0.0000000001
 40
-3.141592653589793
 40
-3.141592653589793
 40
-3.141592653589793
 40
-1.570796326794897
 40
-1.570796326794897
 40
0.0
 40
0.0
 40
0.0
 10
-8.957279649586397
 20
65.91493550687377
 30
0.0
 41
1.0
 10
-8.99106639024709
 20
66.45765672688385
 30
0.0
 41
0.7071067811865475
 10
-9.553639161221142
 20
66.42385621572359
 30
0.0
 41
1.0
 10
-10.11494709068074
 20
66.38775710465293
 30
0.0
 41
0.7071067811865475
 10
-10.08007788435725
 20
65.84508627010612
 30
0.0
 41
1.0
  0
SPLINE
  5
121
330
1F
100
AcDbEntity
  8
Default
100
AcDbSpline
210
0.0
220
0.0
230
1.0
 70
    24
 71
     2
 72
     6
 73
     3
 74
     0
 42
0.0000000001
 43
0.0000000001
 40
0.0
 40
0.0
 40
0.0
 40
2.34975482514205
 40
2.34975482514205
 40
2.34975482514205
 10
-8.811279904834919
 20
63.56972084445781
 30
0.0
 10
-8.884279777210658
 20
64.74232817566579
 30
0.0
 10
-8.957279649586397
 20
65.91493550687377
 30
0.0
  0
SPLINE
  5
122
330
1F
100
AcDbEntity
  8
Default
100
AcDbSpline
210
0.0
220
0.0
230
1.0
 70
    12
 71
     2
 72
     6
 73
     3
 74
     0
 42
0.0000000001
 43
0.0000000001
 40
0.0
 40
0.0
 40
0.0
 40
0.0742368075508645
 40
0.0742368075508645
 40
0.0742368075508645
 10
-9.335955625871321
 20
62.11656697078459
 30
0.0
 41
1.0
 10
-9.34690355956293
 20
62.08109977472404
 30
0.0
 41
0.9999981765885326
 10
-9.357715952740222
 20
62.04559102365766
 30
0.0
 41
1.0
  0
SPLINE
  5
123
330
1F
100
AcDbEntity
  8
Default
100
AcDbSpline
210
0.0
220
0.0
230
1.0
 70
     8
 71
     2
 72
    11
 73
     8
 74
     0
 42
0.0000000001
 43
0.0000000001
 40
0.0
 40
0.0
 40
0.0
 40
1.0
 40
2.0
 40
3.0
 40
4.0
 40
5.0
 40
6.0
 40
6.0
 40
6.0
 10
-9.356630980129523
 20
62.04605054382793
 30
0.0
 10
-9.421919879349218
 20
62.03360923254479
 30
0.0
 10
-9.5430780443685
 20
61.97892810859325
 30
0.0
 10
-9.648088631134073
 20
61.89742554496718
 30
0.0
 10
-9.73114170892758
 20
61.7936426389284
 30
0.0
 10
-9.787576848395616
 20
61.67324875943548
 30
0.0
 10
-9.812162408258388
 20
61.5425209613641
 30
0.0
 10
-9.808078907190648
 20
61.47615743314853
 30
0.0
  0
SPLINE
  5
124
330
1F
100
AcDbEntity
  8
Default
100
AcDbSpline
210
0.0
220
0.0
230
1.0
 70
    12
 71
     2
 72
     8
 73
     5
 74
     0
 42
0.0000000001
 43
0.0000000001
 40
0.0
 40
0.0
 40
0.0
 40
1.570796326794897
 40
1.570796326794897
 40
3.141592653589793
 40
3.141592653589793
 40
3.141592653589793
 10
-10.08007788435725
 20
65.84508627010612
 30
0.0
 41
1.0
 10
-10.11708377637188
 20
66.43994101946241
 30
0.0
 41
0.7071067811865475
 10
-9.55568465898645
 20
66.47486563784624
 30
0.0
 41
1.0
 10
-8.994285541601034
 20
66.50979025623006
 30
0.0
 41
0.7071067811865475
 10
-8.957279649586397
 20
65.91493550687377
 30
0.0
 41
1.0
  0
SPLINE
  5
125
330
1F
100
AcDbEntity
  8
Default
100
AcDbSpline
210
0.0
220
0.0
230
1.0
 70
    12
 71
     3
 72
    46
 73
    42
 74
     0
 42
0.0000000001
 43
0.0000000001
 40
-15.86148237398441
 40
-15.86148237398441
 40
-15.86148237398441
 40
-15.86148237398441
 40
-15.448121183493
 40
-15.448121183493
 40
-14.948121183493
 40
-14.948121183493
 40
-14.948121183493
 40
-14.78954328516126
 40
-14.65980449474063
 40
-14.4915656808773
 40
-14.27824802498169
 40
-13.89564517931405
 40
-13.89564517931405
 40
-13.89564517931405
 40
-12.67736369473384
 40
-12.67736369473384
 40
-12.67736369473384
 40
-10.47859678300101
 40
-8.465949136993554
 40
-4.7034210821857
 40
-3.270804401605309
 40
-2.109921547423667
 40
-1.162859745537729
 40
-0.4241005593510128
 40
-0.4241005593510128
 40
-0.4241005593510128
 40
0.0
 40
0.0
 40
0.0
 40
0.2509462701711973
 40
0.5001275768196121
 40
1.079181098748561
 40
1.397384519522803
 40
1.578338617390344
 40
1.948993809521346
 40
1.948993809521346
 40
1.948993809521346
 40
2.033873203993569
 40
2.116080232193494
 40
2.283280389040947
 40
2.645534879113056
 40
2.645534879113056
 40
2.645534879113056
 40
2.645534879113056
 10
10.20614723244775
 20
61.21456890418826
 30
0.0
 41
1.0
 10
10.33975129712658
 20
61.25022233662931
 30
0.0
 41
1.0
 10
10.52345580867765
 20
61.17052102512064
 30
0.0
 41
1.0
 10
10.81093315891226
 20
61.08550246677856
 30
0.0
 41
1.0
 10
10.96343055204309
 20
61.03123609073977
 30
0.0
 41
1.0
 10
11.10917989692898
 20
60.96614027149848
 30
0.0
 41
1.0
 10
11.15842205573136
 20
60.94645787785375
 30
0.0
 41
1.0
 10
11.24248018195422
 20
60.89987065617677
 30
0.0
 41
1.0
 10
11.37795194831432
 20
60.83025658213358
 30
0.0
 41
1.0
 10
11.5002485929491
 20
60.7041393465088
 30
0.0
 41
1.0
 10
11.57052156740852
 20
60.45448266860225
 30
0.0
 41
1.0
 10
11.59760385073585
 20
60.26000496988285
 30
0.0
 41
1.0
 10
11.61546455949461
 20
60.12900521489487
 30
0.0
 41
1.0
 10
11.66545467523942
 20
59.72334803331132
 30
0.0
 41
0.999988716404561
 10
11.71423676328108
 20
59.30736860505453
 30
0.0
 41
0.999988716404561
 10
11.76180917230753
 20
58.88108101135519
 30
0.0
 41
1.0
 10
11.85307966361853
 20
58.11946360169773
 30
0.0
 41
1.0
 10
12.02196366282558
 20
56.72544165477669
 30
0.0
 41
1.0
 10
12.2437660669253
 20
54.07671766864482
 30
0.0
 41
1.0
 10
12.36399376201783
 20
51.67593770520109
 30
0.0
 41
1.0
 10
12.32921534213915
 20
49.5563554947414
 30
0.0
 41
1.0
 10
12.2322645299397
 20
48.37981858708896
 30
0.0
 41
1.0
 10
12.07434967179085
 20
47.44217875718698
 30
0.0
 41
1.0
 10
11.89450112142853
 20
46.90757399002375
 30
0.0
 41
1.0
 10
11.78675008900994
 20
46.68452253383265
 30
0.0
 41
1.0
 10
11.7268680467375
 20
46.5551855985792
 30
0.0
 41
0.9938480587755496
 10
11.65024729684316
 20
46.43543416737695
 30
0.0
 41
0.9938480587755496
 10
11.48781348579474
 20
46.25630342942419
 30
0.0
 41
1.0
 10
11.35438733352012
 20
46.12915173944856
 30
0.0
 41
1.0
 10
11.22098280548178
 20
46.03078770269643
 30
0.0
 41
1.0
 10
10.89871632020723
 20
45.86278593147256
 30
0.0
 41
1.0
 10
10.52186389170779
 20
45.78701259855005
 30
0.0
 41
1.0
 10
10.16619275577855
 20
45.73766939108668
 30
0.0
 41
1.0
 10
9.874841300245945
 20
45.73579789031454
 30
0.0
 41
1.0
 10
9.700602821264964
 20
45.82519157944132
 30
0.0
 41
1.0
 10
9.608202474190277
 20
45.91793497992798
 30
0.0
 41
1.0
 10
9.582838126227783
 20
45.94519658189037
 30
0.0
 41
1.0
 10
9.549128808696848
 20
45.98951711563062
 30
0.0
 41
1.0
 10
9.495625973477472
 20
46.08796387795398
 30
0.0
 41
1.0
 10
9.447626988991912
 20
46.28883330589355
 30
0.0
 41
1.0
 10
9.487467334648498
 20
46.46863772976458
 30
0.0
 41
1.0
 10
9.54352962031703
 20
46.57526938006528
 30
0.0
 41
1.0
  0
SPLINE
  5
126
330
1F
100
AcDbEntity
  8
Default
100
AcDbSpline
210
0.0
220
0.0
230
1.0
 70
     8
 71
     3
 72
    12
 73
     8
 74
     0
 42
0.0000000001
 43
0.0000000001
 40
0.0
 40
0.0
 40
0.0
 40
0.0
 40
0.052417229037855
 40
0.1074375238630979
 40
0.2185210975122434
 40
0.346423130085688
 40
0.6046057894628148
 40
0.6046057894628148
 40
0.6046057894628148
 40
0.6046057894628148
 10
9.639053344701805
 20
61.0560830118176
 30
0.0
 10
9.650491023886756
 20
61.04250614248073
 30
0.0
 10
9.676321186170894
 20
61.01826894150243
 30
0.0
 10
9.746452872171515
 20
60.98968778105179
 30
0.0
 10
9.84577240088444
 20
61.0040318586295
 30
0.0
 10
9.994268988248164
 20
61.08047400320338
 30
0.0
 10
10.12316015813949
 20
61.19242306562832
 30
0.0
 10
10.20614723244774
 20
61.21456890418825
 30
0.0
  0
LINE
  5
127
330
1F
100
AcDbEntity
  8
Default
100
AcDbLine
 10
9.58886090756168
 20
61.11566294492562
 30
0.0
 11
9.639053344701805
 21
61.0560830118176
 31
0.0
  0
SPLINE
  5
128
330
1F
100
AcDbEntity
  8
Default
100
AcDbSpline
210
0.0
220
0.0
230
1.0
 70
    12
 71
     2
 72
     6
 73
     3
 74
     0
 42
0.0000000001
 43
0.0000000001
 40
-0.7644817079169229
 40
-0.7644817079169229
 40
-0.7644817079169229
 40
-0.6945311587242259
 40
-0.6945311587242259
 40
-0.6945311587242259
 10
9.57579535207687
 20
61.1849549007774
 30
0.0
 41
0.9999992040962243
 10
9.582177764140756
 20
61.15057179727349
 30
0.0
 41
0.9999351352388464
 10
9.58886090756168
 20
61.11566294492562
 30
0.0
 41
0.9998846788112339
  0
SPLINE
  5
129
330
1F
100
AcDbEntity
  8
Default
100
AcDbSpline
210
0.0
220
0.0
230
1.0
 70
     8
 71
     3
 72
    19
 73
    15
 74
     0
 42
0.0000000001
 43
0.0000000001
 40
0.0
 40
0.0
 40
0.0
 40
0.0
 40
2.232247940101095
 40
4.462819732511551
 40
6.899475607671127
 40
8.91937015223986
 40
9.019515739888016
 40
9.090866166954358
 40
9.218595657282524
 40
9.238659435547545
 40
9.470060216773138
 40
9.710123961932329
 40
10.86335533494464
 40
11.51386883183247
 40
11.51386883183247
 40
11.51386883183247
 40
11.51386883183247
 10
0.0
 20
65.28664619258011
 30
0.0
 10
0.7439226005075739
 20
65.28655119892935
 30
0.0
 10
2.231053462670729
 20
65.21703928355045
 30
0.0
 10
4.509994723262238
 20
64.89156312196508
 30
0.0
 10
6.675243884416858
 20
64.35233226150076
 30
0.0
 10
8.112337509100541
 20
63.85907661894821
 30
0.0
 10
8.790985997864453
 20
63.58823356597388
 30
0.0
 10
8.870270733235685
 20
63.52697591417011
 30
0.0
 10
8.924905977011832
 20
63.47513272276396
 30
0.0
 10
8.95824189121933
 20
63.3515857565977
 30
0.0
 10
8.999653704232017
 20
63.19394001035906
 30
0.0
 10
9.153711124166733
 20
62.67440970557656
 30
0.0
 10
9.374104256080457
 20
62.03008686609212
 30
0.0
 10
9.536237901329542
 20
61.39805739397005
 30
0.0
 10
9.575795352076867
 20
61.1849549007774
 30
0.0
  0
SPLINE
  5
12A
330
1F
100
AcDbEntity
  8
Default
100
AcDbSpline
210
0.0
220
0.0
230
1.0
 70
     8
 71
     3
 72
    19
 73
    15
 74
     0
 42
0.0000000001
 43
0.0000000001
 40
-11.51386883183247
 40
-11.51386883183247
 40
-11.51386883183247
 40
-11.51386883183247
 40
-10.86335533494464
 40
-9.710123961932329
 40
-9.470060216773138
 40
-9.238659435547545
 40
-9.218595657282524
 40
-9.090866166954358
 40
-9.019515739888016
 40
-8.91937015223986
 40
-6.899475607671127
 40
-4.462819732511551
 40
-2.232247940101095
 40
0.0
 40
0.0
 40
0.0
 40
0.0
 10
-9.575795352076867
 20
61.1849549007774
 30
0.0
 10
-9.536237901329542
 20
61.39805739397005
 30
0.0
 10
-9.374104256080457
 20
62.03008686609212
 30
0.0
 10
-9.153711124166733
 20
62.67440970557656
 30
0.0
 10
-8.999653704232017
 20
63.19394001035906
 30
0.0
 10
-8.95824189121933
 20
63.3515857565977
 30
0.0
 10
-8.924905977011832
 20
63.47513272276396
 30
0.0
 10
-8.870270733235685
 20
63.52697591417011
 30
0.0
 10
-8.790985997864453
 20
63.58823356597388
 30
0.0
 10
-8.112337509100541
 20
63.85907661894821
 30
0.0
 10
-6.675243884416858
 20
64.35233226150076
 30
0.0
 10
-4.509994723262238
 20
64.89156312196508
 30
0.0
 10
-2.231053462670729
 20
65.21703928355045
 30
0.0
 10
-0.7439226005075739
 20
65.28655119892935
 30
0.0
 10
0.0
 20
65.28664619258011
 30
0.0
  0
SPLINE
  5
12B
330
1F
100
AcDbEntity
  8
Default
100
AcDbSpline
210
0.0
220
0.0
230
1.0
 70
    12
 71
     2
 72
     6
 73
     3
 74
     0
 42
0.0000000001
 43
0.0000000001
 40
0.6945311587242328
 40
0.6945311587242328
 40
0.6945311587242328
 40
0.7644817079169229
 40
0.7644817079169229
 40
0.7644817079169229
 10
-9.588860907561672
 20
61.11566294492564
 30
0.0
 41
0.9998846788112339
 10
-9.582177764140742
 20
61.15057179727349
 30
0.0
 41
0.9999351352388464
 10
-9.575795352076856
 20
61.1849549007774
 30
0.0
 41
0.9999992040962243
  0
LINE
  5
12C
330
1F
100
AcDbEntity
  8
Default
100
AcDbLine
 10
-9.639053344701805
 20
61.0560830118176
 30
0.0
 11
-9.588860907561672
 21
61.11566294492562
 31
0.0
  0
SPLINE
  5
12D
330
1F
100
AcDbEntity
  8
Default
100
AcDbSpline
210
0.0
220
0.0
230
1.0
 70
     8
 71
     3
 72
    12
 73
     8
 74
     0
 42
0.0000000001
 43
0.0000000001
 40
-0.6046057894628148
 40
-0.6046057894628148
 40
-0.6046057894628148
 40
-0.6046057894628148
 40
-0.346423130085688
 40
-0.2185210975122434
 40
-0.1074375238630979
 40
-0.052417229037855
 40
0.0
 40
0.0
 40
0.0
 40
0.0
 10
-10.20614723244774
 20
61.21456890418825
 30
0.0
 10
-10.12316015813949
 20
61.19242306562832
 30
0.0
 10
-9.994268988248164
 20
61.08047400320338
 30
0.0
 10
-9.84577240088444
 20
61.0040318586295
 30
0.0
 10
-9.746452872171515
 20
60.98968778105179
 30
0.0
 10
-9.676321186170894
 20
61.01826894150243
 30
0.0
 10
-9.650491023886756
 20
61.04250614248073
 30
0.0
 10
-9.639053344701805
 20
61.0560830118176
 30
0.0
  0
SPLINE
  5
12E
330
1F
100
AcDbEntity
  8
Default
100
AcDbSpline
210
0.0
220
0.0
230
1.0
 70
    12
 71
     3
 72
    46
 73
    42
 74
     0
 42
0.0000000001
 43
0.0000000001
 40
-2.645534879113056
 40
-2.645534879113056
 40
-2.645534879113056
 40
-2.645534879113056
 40
-2.283280389040947
 40
-2.116080232193494
 40
-2.033873203993569
 40
-1.948993809521346
 40
-1.948993809521346
 40
-1.948993809521346
 40
-1.578338617390344
 40
-1.397384519522803
 40
-1.079181098748561
 40
-0.5001275768196121
 40
-0.2509462701711973
 40
0.0
 40
0.0
 40
0.0
 40
0.4241005593510128
 40
0.4241005593510128
 40
0.4241005593510128
 40
1.162859745537729
 40
2.109921547423667
 40
3.270804401605309
 40
4.7034210821857
 40
8.465949136993554
 40
10.47859678300101
 40
12.67736369473384
 40
12.67736369473384
 40
12.67736369473384
 40
13.89564517931405
 40
13.89564517931405
 40
13.89564517931405
 40
14.27824802498169
 40
14.4915656808773
 40
14.65980449474063
 40
14.78954328516126
 40
14.948121183493
 40
14.948121183493
 40
14.948121183493
 40
15.448121183493
 40
15.448121183493
 40
15.86148237398441
 40
15.86148237398441
 40
15.86148237398441
 40
15.86148237398441
 10
-9.54352962031703
 20
46.57526938006528
 30
0.0
 41
1.0
 10
-9.487467334648498
 20
46.46863772976458
 30
0.0
 41
1.0
 10
-9.447626988991912
 20
46.28883330589355
 30
0.0
 41
1.0
 10
-9.495625973477472
 20
46.08796387795398
 30
0.0
 41
1.0
 10
-9.549128808696848
 20
45.98951711563062
 30
0.0
 41
1.0
 10
-9.582838126227783
 20
45.94519658189037
 30
0.0
 41
1.0
 10
-9.608202474190277
 20
45.91793497992798
 30
0.0
 41
1.0
 10
-9.700602821264964
 20
45.82519157944132
 30
0.0
 41
1.0
 10
-9.874841300245945
 20
45.73579789031454
 30
0.0
 41
1.0
 10
-10.16619275577855
 20
45.73766939108668
 30
0.0
 41
1.0
 10
-10.52186389170779
 20
45.78701259855005
 30
0.0
 41
1.0
 10
-10.89871632020723
 20
45.86278593147256
 30
0.0
 41
1.0
 10
-11.22098280548178
 20
46.03078770269643
 30
0.0
 41
1.0
 10
-11.35438733352012
 20
46.12915173944856
 30
0.0
 41
1.0
 10
-11.48781348579474
 20
46.25630342942419
 30
0.0
 41
1.0
 10
-11.65024729684316
 20
46.43543416737695
 30
0.0
 41
0.9938480587755496
 10
-11.7268680467375
 20
46.5551855985792
 30
0.0
 41
0.9938480587755496
 10
-11.78675008900994
 20
46.68452253383265
 30
0.0
 41
1.0
 10
-11.89450112142853
 20
46.90757399002375
 30
0.0
 41
1.0
 10
-12.07434967179085
 20
47.44217875718698
 30
0.0
 41
1.0
 10
-12.2322645299397
 20
48.37981858708896
 30
0.0
 41
1.0
 10
-12.32921534213915
 20
49.5563554947414
 30
0.0
 41
1.0
 10
-12.36399376201783
 20
51.67593770520109
 30
0.0
 41
1.0
 10
-12.2437660669253
 20
54.07671766864482
 30
0.0
 41
1.0
 10
-12.02196366282558
 20
56.72544165477669
 30
0.0
 41
1.0
 10
-11.85307966361853
 20
58.11946360169773
 30
0.0
 41
1.0
 10
-11.76180917230753
 20
58.88108101135519
 30
0.0
 41
1.0
 10
-11.71423676328108
 20
59.30736860505453
 30
0.0
 41
0.999988716404561
 10
-11.66545467523942
 20
59.72334803331132
 30
0.0
 41
0.999988716404561
 10
-11.61546455949461
 20
60.12900521489487
 30
0.0
 41
1.0
 10
-11.59760385073585
 20
60.26000496988285
 30
0.0
 41
1.0
 10
-11.57052156740852
 20
60.45448266860225
 30
0.0
 41
1.0
 10
-11.5002485929491
 20
60.7041393465088
 30
0.0
 41
1.0
 10
-11.37795194831432
 20
60.83025658213358
 30
0.0
 41
1.0
 10
-11.24248018195422
 20
60.89987065617677
 30
0.0
 41
1.0
 10
-11.15842205573136
 20
60.94645787785375
 30
0.0
 41
1.0
 10
-11.10917989692898
 20
60.96614027149848
 30
0.0
 41
1.0
 10
-10.96343055204309
 20
61.03123609073977
 30
0.0
 41
1.0
 10
-10.81093315891226
 20
61.08550246677856
 30
0.0
 41
1.0
 10
-10.52345580867765
 20
61.17052102512064
 30
0.0
 41
1.0
 10
-10.33975129712658
 20
61.25022233662931
 30
0.0
 41
1.0
 10
-10.20614723244775
 20
61.21456890418826
 30
0.0
 41
1.0
  0
SPLINE
  5
12F
330
1F
100
AcDbEntity
  8
Default
100
AcDbSpline
210
0.0
220
0.0
230
1.0
 70
    12
 71
     3
 72
    27
 73
    23
 74
     0
 42
0.0000000001
 43
0.0000000001
 40
-12.34794305444288
 40
-12.34794305444288
 40
-12.34794305444288
 40
-12.34794305444288
 40
-11.07487045093276
 40
-7.632928227407522
 40
-5.715077383816216
 40
-4.234632274820855
 40
-1.690111099355139
 40
-0.7088876801336855
 40
0.0
 40
0.0
 40
0.0
 40
0.1161245821545688
 40
0.2183975914342078
 40
0.3079763156920016
 40
0.3742235676346553
 40
0.3742235676346553
 40
0.3742235676346553
 40
0.5716157204351209
 40
0.5716157204351209
 40
0.8216157204351209
 40
0.8216157204351209
 40
0.9919158107346908
 40
0.9919158107346908
 40
0.9919158107346908
 40
0.9919158107346908
 10
-10.16661103686101
 20
59.25097853043819
 30
0.0
 41
1.0
 10
-10.21946170233639
 20
58.75378146884029
 30
0.0
 41
1.0
 10
-10.30207445599532
 20
57.18422256605305
 30
0.0
 41
1.0
 10
-10.41978250373088
 20
54.97640579171983
 30
0.0
 41
1.0
 10
-10.4919398658543
 20
52.69722402323114
 30
0.0
 41
1.0
 10
-10.51130530990289
 20
50.71641742659584
 30
0.0
 41
1.0
 10
-10.43035250816038
 20
49.04768349003753
 30
0.0
 41
1.0
 10
-10.24211438805736
 20
47.6478084655221
 30
0.0
 41
1.0
 10
-10.1135668391677
 20
47.09825939746956
 30
0.0
 41
1.0
 10
-10.02899323846424
 20
46.85821801189466
 30
0.0
 41
1.0
 10
-10.00939576259509
 20
46.80504786783595
 30
0.0
 41
1.0
 10
-9.982217264595503
 20
46.7375209981403
 30
0.0
 41
1.0
 10
-9.93763462905727
 20
46.64490671430602
 30
0.0
 41
1.0
 10
-9.893435433988286
 20
46.57104067292943
 30
0.0
 41
1.0
 10
-9.861682385958344
 20
46.5296827078476
 30
0.0
 41
1.0
 10
-9.845625930449968
 20
46.51445139558129
 30
0.0
 41
1.0
 10
-9.789088519068939
 20
46.46593626038779
 30
0.0
 41
1.0
 10
-9.736227092866612
 20
46.44110910079442
 30
0.0
 41
1.0
 10
-9.630875514386444
 20
46.42858256680171
 30
0.0
 41
1.0
 10
-9.579453531063733
 20
46.45874372060797
 30
0.0
 41
1.0
 10
-9.541982137012893
 20
46.5388680113593
 30
0.0
 41
1.0
 10
-9.545467271994026
 20
46.57384354906621
 30
0.0
 41
1.0
 10
-9.551423293903268
 20
46.58898483878258
 30
0.0
 41
1.0
  0
SPLINE
  5
130
330
1F
100
AcDbEntity
  8
Default
100
AcDbSpline
210
0.0
220
0.0
230
1.0
 70
    12
 71
     2
 72
     6
 73
     3
 74
     0
 42
0.0000000001
 43
0.0000000001
 40
-0.7847090864605429
 40
-0.7847090864605429
 40
-0.7847090864605429
 40
0.0
 40
0.0
 40
0.0
 10
-10.05050333569959
 20
60.11099539649367
 30
0.0
 41
1.0
 10
-10.11594332845192
 20
59.71611574384865
 30
0.0
 41
0.9996199172071438
 10
-10.16661103686101
 20
59.25097853043819
 30
0.0
 41
1.0
  0
SPLINE
  5
131
330
1F
100
AcDbEntity
  8
Default
100
AcDbSpline
210
0.0
220
0.0
230
1.0
 70
     8
 71
     3
 72
    12
 73
     8
 74
     0
 42
0.0000000001
 43
0.0000000001
 40
-0.5076009082732449
 40
-0.5076009082732449
 40
-0.5076009082732449
 40
-0.5076009082732449
 40
-0.3814322183297587
 40
-0.2475491133605145
 40
-0.2012912027849215
 40
-0.1527348915727592
 40
0.0
 40
0.0
 40
0.0
 40
0.0
 10
-9.722830997064497
 20
60.42906209374007
 30
0.0
 10
-9.766095742776086
 20
60.43295120169235
 30
0.0
 10
-9.84971637515079
 20
60.4109095078235
 30
0.0
 10
-9.94616720774283
 20
60.37089380203292
 30
0.0
 10
-9.996332539960717
 20
60.31142879477837
 30
0.0
 10
-10.03016425590667
 20
60.23583214508593
 30
0.0
 10
-10.03948260056441
 20
60.16846770719064
 30
0.0
 10
-10.05050333569959
 20
60.11099539649367
 30
0.0
  0
SPLINE
  5
132
330
1F
100
AcDbEntity
  8
Default
100
AcDbSpline
210
0.0
220
0.0
230
1.0
 70
    12
 71
     2
 72
     8
 73
     5
 74
     0
 42
0.0000000001
 43
0.0000000001
 40
-0.1282201628013348
 40
-0.1282201628013348
 40
-0.1282201628013348
 40
0.0
 40
0.0
 40
0.043318742301032
 40
0.043318742301032
 40
0.043318742301032
 10
-9.59697935314469
 20
60.31567125684088
 30
0.0
 41
1.0
 10
-9.65974971033462
 20
60.3375745471722
 30
0.0
 41
0.9473303484341768
 10
-9.704428521016183
 20
60.39011357316044
 30
0.0
 41
1.0
 10
-9.716718882877345
 20
60.4081231897537
 30
0.0
 41
0.9641604803062233
 10
-9.722830997064497
 20
60.42906209374007
 30
0.0
 41
0.9576088648151702
  0
SPLINE
  5
133
330
1F
100
AcDbEntity
  8
Default
100
AcDbSpline
210
0.0
220
0.0
230
1.0
 70
     8
 71
     3
 72
    14
 73
    10
 74
     0
 42
0.0000000001
 43
0.0000000001
 40
-10.1118640375627
 40
-10.1118640375627
 40
-10.1118640375627
 40
-10.1118640375627
 40
-7.352656220994111
 40
-6.166555932487759
 40
-3.620449295513177
 40
-2.259118278458852
 40
-1.094312261690871
 40
-0.4769411130260029
 40
0.0
 40
0.0
 40
0.0
 40
0.0
 10
0.0
 20
62.84081665923863
 30
0.0
 10
-0.9201669441223572
 20
62.84289420981223
 30
0.0
 10
-2.231367797824291
 20
62.60955688287368
 30
0.0
 10
-4.233223712573576
 20
61.78197268924964
 30
0.0
 10
-5.700003680299147
 20
60.91551477192756
 30
0.0
 10
-7.293753513649548
 20
60.33475560613686
 30
0.0
 10
-8.330944694905426
 20
60.15254815726722
 30
0.0
 10
-9.087548482867035
 20
60.20223571586292
 30
0.0
 10
-9.445378135990651
 20
60.26277104051972
 30
0.0
 10
-9.59697935314469
 20
60.31567125684088
 30
0.0
  0
SPLINE
  5
134
330
1F
100
AcDbEntity
  8
Default
100
AcDbSpline
210
0.0
220
0.0
230
1.0
 70
     8
 71
     3
 72
    14
 73
    10
 74
     0
 42
0.0000000001
 43
0.0000000001
 40
0.0
 40
0.0
 40
0.0
 40
0.0
 40
0.4769411130260029
 40
1.094312261690871
 40
2.259118278458852
 40
3.620449295513177
 40
6.166555932487759
 40
7.352656220994111
 40
10.1118640375627
 40
10.1118640375627
 40
10.1118640375627
 40
10.1118640375627
 10
9.59697935314469
 20
60.31567125684088
 30
0.0
 10
9.445378135990651
 20
60.26277104051972
 30
0.0
 10
9.087548482867035
 20
60.20223571586292
 30
0.0
 10
8.330944694905426
 20
60.15254815726722
 30
0.0
 10
7.293753513649548
 20
60.33475560613686
 30
0.0
 10
5.700003680299147
 20
60.91551477192756
 30
0.0
 10
4.233223712573576
 20
61.78197268924964
 30
0.0
 10
2.231367797824291
 20
62.60955688287368
 30
0.0
 10
0.9201669441223572
 20
62.84289420981223
 30
0.0
 10
0.0
 20
62.84081665923863
 30
0.0
  0
SPLINE
  5
135
330
1F
100
AcDbEntity
  8
Default
100
AcDbSpline
210
0.0
220
0.0
230
1.0
 70
    12
 71
     2
 72
     8
 73
     5
 74
     0
 42
0.0000000001
 43
0.0000000001
 40
-0.0433187423010104
 40
-0.0433187423010104
 40
-0.0433187423010104
 40
0.0
 40
0.0
 40
0.1282201628013348
 40
0.1282201628013348
 40
0.1282201628013348
 10
9.722830997064495
 20
60.42906209374006
 30
0.0
 41
0.9576088648151766
 10
9.716718882877334
 20
60.40812318975369
 30
0.0
 41
0.9641604803062411
 10
9.704428521016183
 20
60.39011357316044
 30
0.0
 41
1.0
 10
9.65974971033462
 20
60.3375745471722
 30
0.0
 41
0.9473303484341768
 10
9.59697935314469
 20
60.31567125684088
 30
0.0
 41
1.0
  0
SPLINE
  5
136
330
1F
100
AcDbEntity
  8
Default
100
AcDbSpline
210
0.0
220
0.0
230
1.0
 70
     8
 71
     3
 72
    12
 73
     8
 74
     0
 42
0.0000000001
 43
0.0000000001
 40
0.0
 40
0.0
 40
0.0
 40
0.0
 40
0.1527348915727592
 40
0.2012912027849215
 40
0.2475491133605145
 40
0.3814322183297587
 40
0.5076009082732449
 40
0.5076009082732449
 40
0.5076009082732449
 40
0.5076009082732449
 10
10.05050333569959
 20
60.11099539649367
 30
0.0
 10
10.03948260056441
 20
60.16846770719064
 30
0.0
 10
10.03016425590667
 20
60.23583214508593
 30
0.0
 10
9.996332539960717
 20
60.31142879477837
 30
0.0
 10
9.94616720774283
 20
60.37089380203292
 30
0.0
 10
9.84971637515079
 20
60.4109095078235
 30
0.0
 10
9.766095742776086
 20
60.43295120169235
 30
0.0
 10
9.722830997064495
 20
60.42906209374006
 30
0.0
  0
SPLINE
  5
137
330
1F
100
AcDbEntity
  8
Default
100
AcDbSpline
210
0.0
220
0.0
230
1.0
 70
    12
 71
     2
 72
     6
 73
     3
 74
     0
 42
0.0000000001
 43
0.0000000001
 40
0.0
 40
0.0
 40
0.0
 40
0.7847090864605429
 40
0.7847090864605429
 40
0.7847090864605429
 10
10.16661103686101
 20
59.25097853043819
 30
0.0
 41
1.0
 10
10.11594332845192
 20
59.71611574384865
 30
0.0
 41
0.9996199172071438
 10
10.05050333569959
 20
60.11099539649367
 30
0.0
 41
1.0
  0
SPLINE
  5
138
330
1F
100
AcDbEntity
  8
Default
100
AcDbSpline
210
0.0
220
0.0
230
1.0
 70
    12
 71
     3
 72
    27
 73
    23
 74
     0
 42
0.0000000001
 43
0.0000000001
 40
-0.9919158107346908
 40
-0.9919158107346908
 40
-0.9919158107346908
 40
-0.9919158107346908
 40
-0.8216157204351209
 40
-0.8216157204351209
 40
-0.5716157204351209
 40
-0.5716157204351209
 40
-0.3742235676346553
 40
-0.3742235676346553
 40
-0.3742235676346553
 40
-0.3079763156920016
 40
-0.2183975914342078
 40
-0.1161245821545688
 40
0.0
 40
0.0
 40
0.0
 40
0.7088876801336855
 40
1.690111099355139
 40
4.234632274820855
 40
5.715077383816216
 40
7.632928227407522
 40
11.07487045093276
 40
12.34794305444288
 40
12.34794305444288
 40
12.34794305444288
 40
12.34794305444288
 10
9.551423293903268
 20
46.58898483878258
 30
0.0
 41
1.0
 10
9.545467271994026
 20
46.57384354906621
 30
0.0
 41
1.0
 10
9.541982137012893
 20
46.5388680113593
 30
0.0
 41
1.0
 10
9.579453531063733
 20
46.45874372060797
 30
0.0
 41
1.0
 10
9.630875514386444
 20
46.42858256680171
 30
0.0
 41
1.0
 10
9.736227092866612
 20
46.44110910079442
 30
0.0
 41
1.0
 10
9.789088519068939
 20
46.46593626038779
 30
0.0
 41
1.0
 10
9.845625930449968
 20
46.51445139558129
 30
0.0
 41
1.0
 10
9.861682385958344
 20
46.5296827078476
 30
0.0
 41
1.0
 10
9.893435433988286
 20
46.57104067292943
 30
0.0
 41
1.0
 10
9.93763462905727
 20
46.64490671430602
 30
0.0
 41
1.0
 10
9.982217264595503
 20
46.7375209981403
 30
0.0
 41
1.0
 10
10.00939576259509
 20
46.80504786783595
 30
0.0
 41
1.0
 10
10.02899323846424
 20
46.85821801189466
 30
0.0
 41
1.0
 10
10.1135668391677
 20
47.09825939746956
 30
0.0
 41
1.0
 10
10.24211438805736
 20
47.6478084655221
 30
0.0
 41
1.0
 10
10.43035250816038
 20
49.04768349003753
 30
0.0
 41
1.0
 10
10.51130530990289
 20
50.71641742659584
 30
0.0
 41
1.0
 10
10.4919398658543
 20
52.69722402323114
 30
0.0
 41
1.0
 10
10.41978250373088
 20
54.97640579171983
 30
0.0
 41
1.0
 10
10.30207445599532
 20
57.18422256605305
 30
0.0
 41
1.0
 10
10.21946170233639
 20
58.75378146884029
 30
0.0
 41
1.0
 10
10.16661103686101
 20
59.25097853043819
 30
0.0
 41
1.0
  0
ENDSEC
  0
SECTION
  2
OBJECTS
  0
DICTIONARY
  5
C
330
0
100
AcDbDictionary
281
     1
  3
ACAD_GROUP
350
D
  3
ACAD_LAYOUT
350
1A
  3
ACAD_MLEADERSTYLE
350
13A
  3
ACAD_MLINESTYLE
350
17
  3
ACAD_PLOTSETTINGS
350
19
  3
ACAD_PLOTSTYLENAME
350
E
  3
ACAD_TABLESTYLE
350
139
  3
ACAD_VISUALSTYLE
350
2A
  0
DICTIONARY
  5
D
102
{ACAD_REACTORS
330
C
102
}
330
C
100
AcDbDictionary
281
     1
  0
DICTIONARY
  5
1A
102
{ACAD_REACTORS
330
C
102
}
330
C
100
AcDbDictionary
281
     1
  3
Layout1
350
1E
  3
Layout2
350
26
  3
Model
350
22
  0
DICTIONARY
  5
13A
102
{ACAD_REACTORS
330
C
102
}
330
C
100
AcDbDictionary
281
     1
  0
DICTIONARY
  5
17
102
{ACAD_REACTORS
330
C
102
}
330
C
100
AcDbDictionary
281
     1
  3
Standard
350
18
  0
DICTIONARY
  5
19
102
{ACAD_REACTORS
330
C
102
}
330
C
100
AcDbDictionary
281
     1
  0
ACDBDICTIONARYWDFLT
  5
E
102
{ACAD_REACTORS
330
C
102
}
330
C
100
AcDbDictionary
281
     1
  3
Normal
350
F
100
AcDbDictionaryWithDefault
340
F
  0
DICTIONARY
  5
139
102
{ACAD_REACTORS
330
C
102
}
330
C
100
AcDbDictionary
281
     1
  0
DICTIONARY
  5
2A
102
{ACAD_REACTORS
330
C
102
}
330
C
100
AcDbDictionary
281
     1
  3
2dWireframe
350
2F
  3
3D Hidden
350
31
  3
3dWireframe
350
30
  3
Basic
350
32
  3
Brighten
350
36
  3
ColorChange
350
3A
  3
Conceptual
350
34
  3
Dim
350
35
  3
Facepattern
350
39
  3
Flat
350
2B
  3
FlatWithEdges
350
2C
  3
Gouraud
350
2D
  3
GouraudWithEdges
350
2E
  3
Linepattern
350
38
  3
Realistic
350
33
  3
Thicken
350
37
  0
LAYOUT
  5
1E
102
{ACAD_REACTORS
330
1A
102
}
330
1A
100
AcDbPlotSettings
  1

  2
none_device
  4

  6

 40
0.0
 41
0.0
 42
0.0
 43
0.0
 44
0.0
 45
0.0
 46
0.0
 47
0.0
 48
0.0
 49
0.0
140
0.0
141
0.0
142
1.0
143
1.0
 70
   688
 72
     0
 73
     0
 74
     5
  7

 75
    16
 76
     0
 77
     2
 78
   300
147
1.0
148
0.0
149
0.0
100
AcDbLayout
  1
Layout1
 70
     1
 71
     1
 10
0.0
 20
0.0
 11
12.0
 21
9.0
 12
0.0
 22
0.0
 32
0.0
 14
1.000000000000000E+20
 24
1.000000000000000E+20
 34
1.000000000000000E+20
 15
-1.000000000000000E+20
 25
-1.000000000000000E+20
 35
-1.000000000000000E+20
146
0.0
 13
0.0
 23
0.0
 33
0.0
 16
1.0
 26
0.0
 36
0.0
 17
0.0
 27
1.0
 37
0.0
 76
     0
330
1B
  0
LAYOUT
  5
26
102
{ACAD_REACTORS
330
1A
102
}
330
1A
100
AcDbPlotSettings
  1

  2
none_device
  4

  6

 40
0.0
 41
0.0
 42
0.0
 43
0.0
 44
0.0
 45
0.0
 46
0.0
 47
0.0
 48
0.0
 49
0.0
140
0.0
141
0.0
142
1.0
143
1.0
 70
   688
 72
     0
 73
     0
 74
     5
  7

 75
    16
 76
     0
 77
     2
 78
   300
147
1.0
148
0.0
149
0.0
100
AcDbLayout
  1
Layout2
 70
     1
 71
     2
 10
0.0
 20
0.0
 11
0.0
 21
0.0
 12
0.0
 22
0.0
 32
0.0
 14
0.0
 24
0.0
 34
0.0
 15
0.0
 25
0.0
 35
0.0
146
0.0
 13
0.0
 23
0.0
 33
0.0
 16
1.0
 26
0.0
 36
0.0
 17
0.0
 27
1.0
 37
0.0
 76
     0
330
23
  0
LAYOUT
  5
22
102
{ACAD_REACTORS
330
1A
102
}
330
1A
100
AcDbPlotSettings
  1

  2
none_device
  4

  6

 40
0.0
 41
0.0
 42
0.0
 43
0.0
 44
0.0
 45
0.0
 46
0.0
 47
0.0
 48
0.0
 49
0.0
140
0.0
141
0.0
142
1.0
143
1.0
 70
  1712
 72
     0
 73
     0
 74
     0
  7

 75
     0
 76
     0
 77
     2
 78
   300
147
1.0
148
0.0
149
0.0
100
AcDbLayout
  1
Model
 70
     1
 71
     0
 10
0.0
 20
0.0
 11
12.0
 21
9.0
 12
0.0
 22
0.0
 32
0.0
 14
-12.34249379374232
 24
0.0000047233536771
 34
0.0
 15
44.91294101862226
 25
66.47486563784624
 35
0.0
146
0.0
 13
0.0
 23
0.0
 33
0.0
 16
1.0
 26
0.0
 36
0.0
 17
0.0
 27
1.0
 37
0.0
 76
     0
330
1F
331
29
  0
MLINESTYLE
  5
18
102
{ACAD_REACTORS
330
17
102
}
330
17
100
AcDbMlineStyle
  2
Standard
 70
     0
  3

 62
   256
 51
90.0
 52
90.0
 71
     2
 49
0.5
 62
   256
  6
BYLAYER
 49
-0.5
 62
   256
  6
BYLAYER
  0
ACDBPLACEHOLDER
  5
F
102
{ACAD_REACTORS
330
E
102
}
330
E
  0
VISUALSTYLE
  5
2F
102
{ACAD_REACTORS
330
2A
102
}
330
2A
100
AcDbVisualStyle
  2
2dWireframe
 70
     4
 71
     0
 72
     2
 73
     0
 90
        0
 40
-0.6
 41
-30.0
 62
     5
 63
     7
421
 16777215
 74
     1
 91
        4
 64
     7
 65
   257
 75
     1
175
     1
 42
1.0
 92
        0
 66
   257
 43
1.0
 76
     1
 77
     6
 78
     2
 67
     7
 79
     5
170
     0
171
     0
290
     0
174
     0
 93
        1
 44
0.0
173
     0
291
     0
 45
0.0
1001
ACAD
1000
AcDbSavedByObjectVersion
1070
     0
  0
VISUALSTYLE
  5
31
102
{ACAD_REACTORS
330
2A
102
}
330
2A
100
AcDbVisualStyle
  2
3D Hidden
 70
     6
 71
     1
 72
     2
 73
     2
 90
        0
 40
-0.6
 41
-30.0
 62
     5
 63
     7
421
 16777215
 74
     2
 91
        2
 64
     7
 65
   257
 75
     2
175
     1
 42
40.0
 92
        0
 66
   257
 43
1.0
 76
     1
 77
     6
 78
     2
 67
     7
 79
     3
170
     0
171
     0
290
     0
174
     0
 93
        1
 44
0.0
173
     0
291
     0
 45
0.0
1001
ACAD
1000
AcDbSavedByObjectVersion
1070
     0
  0
VISUALSTYLE
  5
30
102
{ACAD_REACTORS
330
2A
102
}
330
2A
100
AcDbVisualStyle
  2
3dWireframe
 70
     5
 71
     0
 72
     2
 73
     0
 90
        0
 40
-0.6
 41
-30.0
 62
     5
 63
     7
421
 16777215
 74
     1
 91
        4
 64
     7
 65
   257
 75
     1
175
     1
 42
1.0
 92
        0
 66
   257
 43
1.0
 76
     1
 77
     6
 78
     2
 67
     7
 79
     5
170
     0
171
     0
290
     0
174
     0
 93
        1
 44
0.0
173
     0
291
     0
 45
0.0
1001
ACAD
1000
AcDbSavedByObjectVersion
1070
     0
  0
VISUALSTYLE
  5
32
102
{ACAD_REACTORS
330
2A
102
}
330
2A
100
AcDbVisualStyle
  2
Basic
 70
     7
 71
     1
 72
     0
 73
     1
 90
        0
 40
-0.6
 41
-30.0
 62
     5
 63
     7
421
 16777215
 74
     0
 91
        4
 64
     7
 65
   257
 75
     1
175
     1
 42
1.0
 92
        8
 66
     7
 43
1.0
 76
     1
 77
     6
 78
     2
 67
     7
 79
     5
170
     0
171
     0
290
     0
174
     0
 93
        1
 44
0.0
173
     0
291
     1
 45
0.0
1001
ACAD
1000
AcDbSavedByObjectVersion
1070
     0
  0
VISUALSTYLE
  5
36
102
{ACAD_REACTORS
330
2A
102
}
330
2A
100
AcDbVisualStyle
  2
Brighten
 70
    12
 71
     2
 72
     2
 73
     0
 90
        0
 40
-0.6
 41
-30.0
 62
     5
 63
     7
421
 16777215
 74
     1
 91
        4
 64
     7
 65
   257
 75
     1
175
     1
 42
1.0
 92
        8
 66
     7
 43
1.0
 76
     1
 77
     6
 78
     2
 67
     7
 79
     5
170
     0
171
     0
290
     0
174
     0
 93
        1
 44
50.0
173
     0
291
     1
 45
0.0
1001
ACAD
1000
AcDbSavedByObjectVersion
1070
     0
  0
VISUALSTYLE
  5
3A
102
{ACAD_REACTORS
330
2A
102
}
330
2A
100
AcDbVisualStyle
  2
ColorChange
 70
    16
 71
     2
 72
     2
 73
     3
 90
        0
 40
-0.6
 41
-30.0
 62
     5
 63
     8
421
  8421504
 74
     1
 91
        4
 64
     7
 65
   257
 75
     1
175
     1
 42
1.0
 92
        8
 66
     8
424
  8421504
 43
1.0
 76
     1
 77
     6
 78
     2
 67
     7
 79
     5
170
     0
171
     0
290
     0
174
     0
 93
        1
 44
0.0
173
     0
291
     1
 45
0.0
1001
ACAD
1000
AcDbSavedByObjectVersion
1070
     0
  0
VISUALSTYLE
  5
34
102
{ACAD_REACTORS
330
2A
102
}
330
2A
100
AcDbVisualStyle
  2
Conceptual
 70
     9
 71
     3
 72
     2
 73
     0
 90
        0
 40
-0.6
 41
-30.0
 62
     5
 63
     7
421
 16777215
 74
     2
 91
        2
 64
     7
 65
   257
 75
     1
175
     1
 42
40.0
 92
        8
 66
     7
 43
1.0
 76
     1
 77
     6
 78
     2
 67
     7
 79
     3
170
     0
171
     0
290
     0
174
     0
 93
        1
 44
0.0
173
     0
291
     0
 45
0.0
1001
ACAD
1000
AcDbSavedByObjectVersion
1070
     0
  0
VISUALSTYLE
  5
35
102
{ACAD_REACTORS
330
2A
102
}
330
2A
100
AcDbVisualStyle
  2
Dim
 70
    11
 71
     2
 72
     2
 73
     0
 90
        0
 40
-0.6
 41
-30.0
 62
     5
 63
     7
421
 16777215
 74
     1
 91
        4
 64
     7
 65
   257
 75
     1
175
     1
 42
1.0
 92
        8
 66
     7
 43
1.0
 76
     1
 77
     6
 78
     2
 67
     7
 79
     5
170
     0
171
     0
290
     0
174
     0
 93
        1
 44
-50.0
173
     0
291
     1
 45
0.0
1001
ACAD
1000
AcDbSavedByObjectVersion
1070
     0
  0
VISUALSTYLE
  5
39
102
{ACAD_REACTORS
330
2A
102
}
330
2A
100
AcDbVisualStyle
  2
Facepattern
 70
    15
 71
     2
 72
     2
 73
     0
 90
        0
 40
-0.6
 41
-30.0
 62
     5
 63
     7
421
 16777215
 74
     1
 91
        4
 64
     7
 65
   257
 75
     1
175
     1
 42
1.0
 92
        8
 66
     7
 43
1.0
 76
     1
 77
     6
 78
     2
 67
     7
 79
     5
170
     0
171
     0
290
     0
174
     0
 93
        1
 44
0.0
173
     0
291
     1
 45
0.0
1001
ACAD
1000
AcDbSavedByObjectVersion
1070
     0
  0
VISUALSTYLE
  5
2B
102
{ACAD_REACTORS
330
2A
102
}
330
2A
100
AcDbVisualStyle
  2
Flat
 70
     0
 71
     2
 72
     1
 73
     1
 90
        2
 40
-0.6
 41
30.0
 62
     5
 63
     7
421
 16777215
 74
     0
 91
        4
 64
     7
 65
   257
 75
     1
175
     1
 42
1.0
 92
        8
 66
     7
 43
1.0
 76
     1
 77
     6
 78
     2
 67
     7
 79
     5
170
     0
171
     0
290
     0
174
     0
 93
       13
 44
0.0
173
     0
291
     1
 45
0.0
1001
ACAD
1000
AcDbSavedByObjectVersion
1070
     0
  0
VISUALSTYLE
  5
2C
102
{ACAD_REACTORS
330
2A
102
}
330
2A
100
AcDbVisualStyle
  2
FlatWithEdges
 70
     1
 71
     2
 72
     1
 73
     1
 90
        2
 40
-0.6
 41
30.0
 62
     5
 63
     7
421
 16777215
 74
     1
 91
        4
 64
     7
 65
   257
 75
     1
175
     1
 42
1.0
 92
        0
 66
   257
 43
1.0
 76
     1
 77
     6
 78
     2
 67
     7
 79
     5
170
     0
171
     0
290
     0
174
     0
 93
       13
 44
0.0
173
     0
291
     1
 45
0.0
1001
ACAD
1000
AcDbSavedByObjectVersion
1070
     0
  0
VISUALSTYLE
  5
2D
102
{ACAD_REACTORS
330
2A
102
}
330
2A
100
AcDbVisualStyle
  2
Gouraud
 70
     2
 71
     2
 72
     2
 73
     1
 90
        2
 40
-0.6
 41
30.0
 62
     5
 63
     7
421
 16777215
 74
     0
 91
        4
 64
     7
 65
   257
 75
     1
175
     1
 42
1.0
 92
        0
 66
     7
 43
1.0
 76
     1
 77
     6
 78
     2
 67
     7
 79
     5
170
     0
171
     0
290
     0
174
     0
 93
       13
 44
0.0
173
     0
291
     1
 45
0.0
1001
ACAD
1000
AcDbSavedByObjectVersion
1070
     0
  0
VISUALSTYLE
  5
2E
102
{ACAD_REACTORS
330
2A
102
}
330
2A
100
AcDbVisualStyle
  2
GouraudWithEdges
 70
     3
 71
     2
 72
     2
 73
     1
 90
        2
 40
-0.6
 41
30.0
 62
     5
 63
     7
421
 16777215
 74
     1
 91
        4
 64
     7
 65
   257
 75
     1
175
     1
 42
1.0
 92
        0
 66
   257
 43
1.0
 76
     1
 77
     6
 78
     2
 67
     7
 79
     5
170
     0
171
     0
290
     0
174
     0
 93
       13
 44
0.0
173
     0
291
     1
 45
0.0
1001
ACAD
1000
AcDbSavedByObjectVersion
1070
     0
  0
VISUALSTYLE
  5
38
102
{ACAD_REACTORS
330
2A
102
}
330
2A
100
AcDbVisualStyle
  2
Linepattern
 70
    14
 71
     2
 72
     2
 73
     0
 90
        0
 40
-0.6
 41
-30.0
 62
     5
 63
     7
421
 16777215
 74
     1
 91
        4
 64
     7
 65
   257
 75
     7
175
     7
 42
1.0
 92
        8
 66
     7
 43
1.0
 76
     1
 77
     6
 78
     2
 67
     7
 79
     5
170
     0
171
     0
290
     0
174
     0
 93
        1
 44
0.0
173
     0
291
     1
 45
0.0
1001
ACAD
1000
AcDbSavedByObjectVersion
1070
     0
  0
VISUALSTYLE
  5
33
102
{ACAD_REACTORS
330
2A
102
}
330
2A
100
AcDbVisualStyle
  2
Realistic
 70
     8
 71
     2
 72
     2
 73
     0
 90
        0
 40
-0.6
 41
-30.0
 62
     5
 63
     7
421
 16777215
 74
     1
 91
        0
 64
     7
 65
   257
 75
     1
175
     1
 42
1.0
 92
        8
 66
     8
424
  7895160
 43
1.0
 76
     1
 77
     6
 78
     2
 67
     7
 79
     5
170
     0
171
     0
290
     0
174
     0
 93
       13
 44
0.0
173
     0
291
     0
 45
0.0
1001
ACAD
1000
AcDbSavedByObjectVersion
1070
     0
  0
VISUALSTYLE
  5
37
102
{ACAD_REACTORS
330
2A
102
}
330
2A
100
AcDbVisualStyle
  2
Thicken
 70
    13
 71
     2
 72
     2
 73
     0
 90
        0
 40
-0.6
 41
-30.0
 62
     5
 63
     7
421
 16777215
 74
     1
 91
        4
 64
     7
 65
   257
 75
     1
175
     1
 42
1.0
 92
       12
 66
     7
 43
1.0
 76
     1
 77
     6
 78
     2
 67
     7
 79
     5
170
     0
171
     0
290
     0
174
     0
 93
        1
 44
0.0
173
     0
291
     1
 45
0.0
1001
ACAD
1000
AcDbSavedByObjectVersion
1070
     0
  0
ENDSEC
  0
EOF
