  0
SECTION
  2
HEADER
  9
$ACADVER
  1
AC1018
  9
$ACADMAINTVER
 70
     0
  9
$DWGCODEPAGE
  3
ANSI_1252
  9
$INSBASE
 10
0.0
 20
0.0
 30
0.0
  9
$EXTMIN
 10
-12.34268991383237
 20
-0.0027757289007644
 30
0.0
  9
$EXTMAX
 10
47.39007406605671
 20
82.88959781294542
 30
0.0
  9
$LIMMIN
 10
0.0
 20
0.0
  9
$LIMMAX
 10
12.0
 20
9.0
  9
$ORTHOMODE
 70
     0
  9
$REGENMODE
 70
     1
  9
$FILLMODE
 70
     1
  9
$QTEXTMODE
 70
     0
  9
$MIRRTEXT
 70
     1
  9
$LTSCALE
 40
0.0393700787401575
  9
$ATTMODE
 70
     1
  9
$TEXTSIZE
 40
0.2
  9
$TRACEWID
 40
0.05
  9
$TEXTSTYLE
  7
Standard
  9
$CLAYER
  8
Default
  9
$CELTYPE
  6
ByLayer
  9
$CECOLOR
 62
   256
  9
$CELTSCALE
 40
1.0
  9
$DISPSILH
 70
     0
  9
$DIMSCALE
 40
1.0
  9
$DIMASZ
 40
0.18
  9
$DIMEXO
 40
0.0625
  9
$DIMDLI
 40
0.38
  9
$DIMRND
 40
0.0
  9
$DIMDLE
 40
0.0
  9
$DIMEXE
 40
0.18
  9
$DIMTP
 40
0.0
  9
$DIMTM
 40
0.0
  9
$DIMTXT
 40
0.18
  9
$DIMCEN
 40
0.09
  9
$DIMTSZ
 40
0.0
  9
$DIMTOL
 70
     0
  9
$DIMLIM
 70
     0
  9
$DIMTIH
 70
     1
  9
$DIMTOH
 70
     1
  9
$DIMSE1
 70
     0
  9
$DIMSE2
 70
     0
  9
$DIMTAD
 70
     0
  9
$DIMZIN
 70
     0
  9
$DIMBLK
  1

  9
$DIMASO
 70
     1
  9
$DIMSHO
 70
     1
  9
$DIMPOST
  1

  9
$DIMAPOST
  1

  9
$DIMALT
 70
     0
  9
$DIMALTD
 70
     2
  9
$DIMALTF
 40
25.4
  9
$DIMLFAC
 40
1.0
  9
$DIMTOFL
 70
     0
  9
$DIMTVP
 40
0.0
  9
$DIMTIX
 70
     0
  9
$DIMSOXD
 70
     0
  9
$DIMSAH
 70
     0
  9
$DIMBLK1
  1

  9
$DIMBLK2
  1

  9
$DIMSTYLE
  2
Standard
  9
$DIMCLRD
 70
     0
  9
$DIMCLRE
 70
     0
  9
$DIMCLRT
 70
     0
  9
$DIMTFAC
 40
1.0
  9
$DIMGAP
 40
0.09
  9
$DIMJUST
 70
     0
  9
$DIMSD1
 70
     0
  9
$DIMSD2
 70
     0
  9
$DIMTOLJ
 70
     1
  9
$DIMTZIN
 70
     0
  9
$DIMALTZ
 70
     0
  9
$DIMALTTZ
 70
     0
  9
$DIMUPT
 70
     0
  9
$DIMDEC
 70
     4
  9
$DIMTDEC
 70
     4
  9
$DIMALTU
 70
     2
  9
$DIMALTTD
 70
     2
  9
$DIMTXSTY
  7
Standard
  9
$DIMAUNIT
 70
     0
  9
$DIMADEC
 70
     0
  9
$DIMALTRND
 40
0.0
  9
$DIMAZIN
 70
     0
  9
$DIMDSEP
 70
    46
  9
$DIMATFIT
 70
     3
  9
$DIMFRAC
 70
     0
  9
$DIMLDRBLK
  1

  9
$DIMLUNIT
 70
     2
  9
$DIMLWD
 70
    -2
  9
$DIMLWE
 70
    -2
  9
$DIMTMOVE
 70
     2
  9
$LUNITS
 70
     2
  9
$LUPREC
 70
     3
  9
$SKETCHINC
 40
0.1
  9
$FILLETRAD
 40
0.5
  9
$AUNITS
 70
     0
  9
$AUPREC
 70
     0
  9
$MENU
  1
.
  9
$ELEVATION
 40
0.0
  9
$PELEVATION
 40
0.0
  9
$THICKNESS
 40
0.0
  9
$LIMCHECK
 70
     0
  9
$CHAMFERA
 40
0.5
  9
$CHAMFERB
 40
0.5
  9
$CHAMFERC
 40
1.0
  9
$CHAMFERD
 40
0.0
  9
$SKPOLY
 70
     0
  9
$TDCREATE
 40
2456462.512045532
  9
$TDUCREATE
 40
2456462.678712199
  9
$TDUPDATE
 40
2456462.512045544
  9
$TDUUPDATE
 40
2456462.678712211
  9
$TDINDWG
 40
0.0000000116
  9
$TDUSRTIMER
 40
0.0000000116
  9
$USRTIMER
 70
     1
  9
$ANGBASE
 50
0.0
  9
$ANGDIR
 70
     0
  9
$PDMODE
 70
     0
  9
$PDSIZE
 40
0.0
  9
$PLINEWID
 40
0.0
  9
$SPLFRAME
 70
     0
  9
$SPLINETYPE
 70
     6
  9
$SPLINESEGS
 70
     8
  9
$HANDSEED
  5
13B
  9
$SURFTAB1
 70
     6
  9
$SURFTAB2
 70
     6
  9
$SURFTYPE
 70
     6
  9
$SURFU
 70
     6
  9
$SURFV
 70
     6
  9
$UCSBASE
  2

  9
$UCSNAME
  2

  9
$UCSORG
 10
0.0
 20
0.0
 30
0.0
  9
$UCSXDIR
 10
1.0
 20
0.0
 30
0.0
  9
$UCSYDIR
 10
0.0
 20
1.0
 30
0.0
  9
$UCSORTHOREF
  2

  9
$UCSORTHOVIEW
 70
     0
  9
$UCSORGTOP
 10
0.0
 20
0.0
 30
0.0
  9
$UCSORGBOTTOM
 10
0.0
 20
0.0
 30
0.0
  9
$UCSORGLEFT
 10
0.0
 20
0.0
 30
0.0
  9
$UCSORGRIGHT
 10
0.0
 20
0.0
 30
0.0
  9
$UCSORGFRONT
 10
0.0
 20
0.0
 30
0.0
  9
$UCSORGBACK
 10
0.0
 20
0.0
 30
0.0
  9
$PUCSBASE
  2

  9
$PUCSNAME
  2

  9
$PUCSORG
 10
0.0
 20
0.0
 30
0.0
  9
$PUCSXDIR
 10
1.0
 20
0.0
 30
0.0
  9
$PUCSYDIR
 10
0.0
 20
1.0
 30
0.0
  9
$PUCSORTHOREF
  2

  9
$PUCSORTHOVIEW
 70
     0
  9
$PUCSORGTOP
 10
0.0
 20
0.0
 30
0.0
  9
$PUCSORGBOTTOM
 10
0.0
 20
0.0
 30
0.0
  9
$PUCSORGLEFT
 10
0.0
 20
0.0
 30
0.0
  9
$PUCSORGRIGHT
 10
0.0
 20
0.0
 30
0.0
  9
$PUCSORGFRONT
 10
0.0
 20
0.0
 30
0.0
  9
$PUCSORGBACK
 10
0.0
 20
0.0
 30
0.0
  9
$USERI1
 70
     0
  9
$USERI2
 70
     0
  9
$USERI3
 70
     0
  9
$USERI4
 70
     0
  9
$USERI5
 70
     0
  9
$USERR1
 40
0.0
  9
$USERR2
 40
0.0
  9
$USERR3
 40
0.0
  9
$USERR4
 40
0.0
  9
$USERR5
 40
0.0
  9
$WORLDVIEW
 70
     1
  9
$SHADEDGE
 70
     3
  9
$SHADEDIF
 70
    70
  9
$TILEMODE
 70
     1
  9
$MAXACTVP
 70
    64
  9
$PINSBASE
 10
0.0
 20
0.0
 30
0.0
  9
$PLIMCHECK
 70
     0
  9
$PEXTMIN
 10
1.000000000000000E+20
 20
1.000000000000000E+20
 30
1.000000000000000E+20
  9
$PEXTMAX
 10
-1.000000000000000E+20
 20
-1.000000000000000E+20
 30
-1.000000000000000E+20
  9
$PLIMMIN
 10
0.0
 20
0.0
  9
$PLIMMAX
 10
12.0
 20
9.0
  9
$UNITMODE
 70
     0
  9
$VISRETAIN
 70
     1
  9
$PLINEGEN
 70
     0
  9
$PSLTSCALE
 70
     1
  9
$TREEDEPTH
 70
  3020
  9
$CMLSTYLE
  2
Standard
  9
$CMLJUST
 70
     0
  9
$CMLSCALE
 40
1.0
  9
$PROXYGRAPHICS
 70
     1
  9
$MEASUREMENT
 70
     0
  9
$CELWEIGHT
370
    -1
  9
$ENDCAPS
280
     0
  9
$JOINSTYLE
280
     0
  9
$LWDISPLAY
290
     0
  9
$INSUNITS
 70
     1
  9
$HYPERLINKBASE
  1

  9
$STYLESHEET
  1

  9
$XEDIT
290
     1
  9
$CEPSNTYPE
380
     0
  9
$PSTYLEMODE
290
     1
  9
$FINGERPRINTGUID
  2
{8DFB5EF8-1B1B-49E7-AC94-63CEF5FCE4F6}
  9
$VERSIONGUID
  2
{FAEB1C32-E019-11D5-929B-00C0DF256EC4}
  9
$EXTNAMES
290
     1
  9
$PSVPSCALE
 40
0.0
  9
$OLESTARTUP
290
     0
  9
$SORTENTS
280
   127
  9
$INDEXCTL
280
     0
  9
$HIDETEXT
280
     1
  9
$XCLIPFRAME
290
     0
  9
$HALOGAP
280
     0
  9
$OBSCOLOR
 70
   257
  9
$OBSLTYPE
280
     0
  9
$INTERSECTIONDISPLAY
280
     0
  9
$INTERSECTIONCOLOR
 70
   257
  9
$DIMASSOC
280
     2
  9
$PROJECTNAME
  1

  0
ENDSEC
  0
SECTION
  2
CLASSES
  0
CLASS
  1
ACDBDICTIONARYWDFLT
  2
AcDbDictionaryWithDefault
  3
ObjectDBX Classes
 90
        0
 91
        4
280
     0
281
     0
  0
CLASS
  1
VISUALSTYLE
  2
AcDbVisualStyle
  3
ObjectDBX Classes
 90
     4095
 91
        4
280
     0
281
     0
  0
ENDSEC
  0
SECTION
  2
TABLES
  0
TABLE
  2
VPORT
  5
8
330
0
100
AcDbSymbolTable
 70
     1
  0
VPORT
  5
29
330
8
100
AcDbSymbolTableRecord
100
AcDbViewportTableRecord
  2
*Active
 70
     0
 10
0.0
 20
0.0
 11
1.0
 21
1.0
 12
17.52369207611217
 22
41.44341104202233
 13
0.0
 23
0.0
 14
0.5
 24
0.5
 15
0.5
 25
0.5
 16
0.0
 26
0.0
 36
1.0
 17
0.0
 27
0.0
 37
0.0
 40
84.55022101268311
 41
0.7206062684371616
 42
50.0
 43
0.0
 44
0.0
 50
0.0
 51
0.0
 71
     0
 72
   100
 73
     1
 74
     3
 75
     0
 76
     0
 77
     0
 78
     0
281
     0
 65
     1
110
0.0
120
0.0
130
0.0
111
1.0
121
0.0
131
0.0
112
0.0
122
1.0
132
0.0
 79
     0
146
0.0
  0
ENDTAB
  0
TABLE
  2
LTYPE
  5
5
330
0
100
AcDbSymbolTable
 70
     1
  0
LTYPE
  5
14
330
5
100
AcDbSymbolTableRecord
100
AcDbLinetypeTableRecord
  2
ByBlock
 70
     0
  3

 72
    65
 73
     0
 40
0.0
  0
LTYPE
  5
15
330
5
100
AcDbSymbolTableRecord
100
AcDbLinetypeTableRecord
  2
ByLayer
 70
     0
  3

 72
    65
 73
     0
 40
0.0
  0
LTYPE
  5
16
330
5
100
AcDbSymbolTableRecord
100
AcDbLinetypeTableRecord
  2
Continuous
 70
     0
  3
Solid line
 72
    65
 73
     0
 40
0.0
  0
ENDTAB
  0
TABLE
  2
LAYER
  5
2
330
0
100
AcDbSymbolTable
 70
     4
  0
LAYER
  5
10
330
2
100
AcDbSymbolTableRecord
100
AcDbLayerTableRecord
  2
0
 70
     0
 62
     7
  6
Continuous
370
    -3
390
F
  0
LAYER
  5
3B
330
2
100
AcDbSymbolTableRecord
100
AcDbLayerTableRecord
  2
Default
 70
     0
 62
     7
  6
Continuous
370
    -3
390
F
  0
LAYER
  5
4A
330
2
100
AcDbSymbolTableRecord
100
AcDbLayerTableRecord
  2
MAKE2D VISIBLE LINES
 70
     0
 62
     7
  6
Continuous
370
    -3
390
F
  0
LAYER
  5
F7
330
2
100
AcDbSymbolTableRecord
100
AcDbLayerTableRecord
  2
MAKE2D VISIBLE LINES - TANGENT
 70
     0
 62
     7
  6
Continuous
370
    -3
390
F
  0
ENDTAB
  0
TABLE
  2
STYLE
  5
3
330
0
100
AcDbSymbolTable
 70
     1
  0
STYLE
  5
11
330
3
100
AcDbSymbolTableRecord
100
AcDbTextStyleTableRecord
  2
Standard
 70
     0
 40
0.0
 41
1.0
 50
0.0
 71
     0
 42
0.2
  3
txt
  4

  0
ENDTAB
  0
TABLE
  2
VIEW
  5
6
330
0
100
AcDbSymbolTable
 70
     0
  0
ENDTAB
  0
TABLE
  2
UCS
  5
7
330
0
100
AcDbSymbolTable
 70
     0
  0
ENDTAB
  0
TABLE
  2
APPID
  5
9
330
0
100
AcDbSymbolTable
 70
     1
  0
APPID
  5
12
330
9
100
AcDbSymbolTableRecord
100
AcDbRegAppTableRecord
  2
ACAD
 70
     0
  0
ENDTAB
  0
TABLE
  2
DIMSTYLE
  5
A
330
0
100
AcDbSymbolTable
 70
     1
100
AcDbDimStyleTable
  0
DIMSTYLE
105
27
330
A
100
AcDbSymbolTableRecord
100
AcDbDimStyleTableRecord
  2
Standard
 70
     0
340
11
  0
ENDTAB
  0
TABLE
  2
BLOCK_RECORD
  5
1
330
0
100
AcDbSymbolTable
 70
     1
  0
BLOCK_RECORD
  5
1F
330
1
100
AcDbSymbolTableRecord
100
AcDbBlockTableRecord
  2
*Model_Space
340
22
  0
BLOCK_RECORD
  5
1B
330
1
100
AcDbSymbolTableRecord
100
AcDbBlockTableRecord
  2
*Paper_Space
340
1E
  0
BLOCK_RECORD
  5
23
330
1
100
AcDbSymbolTableRecord
100
AcDbBlockTableRecord
  2
*Paper_Space0
340
26
  0
ENDTAB
  0
ENDSEC
  0
SECTION
  2
BLOCKS
  0
BLOCK
  5
20
330
1F
100
AcDbEntity
  8
0
100
AcDbBlockBegin
  2
*Model_Space
 70
     0
 10
0.0
 20
0.0
 30
0.0
  3
*Model_Space
  1

  0
ENDBLK
  5
21
330
1F
100
AcDbEntity
  8
0
100
AcDbBlockEnd
  0
BLOCK
  5
1C
330
1B
100
AcDbEntity
 67
     1
  8
0
100
AcDbBlockBegin
  2
*Paper_Space
 70
     0
 10
0.0
 20
0.0
 30
0.0
  3
*Paper_Space
  1

  0
ENDBLK
  5
1D
330
1B
100
AcDbEntity
 67
     1
  8
0
100
AcDbBlockEnd
  0
BLOCK
  5
24
330
23
100
AcDbEntity
  8
0
100
AcDbBlockBegin
  2
*Paper_Space0
 70
     0
 10
0.0
 20
0.0
 30
0.0
  3
*Paper_Space0
  1

  0
ENDBLK
  5
25
330
23
100
AcDbEntity
  8
0
100
AcDbBlockEnd
  0
ENDSEC
  0
SECTION
  2
ENTITIES
  0
SPLINE
  5
3C
330
1F
100
AcDbEntity
  8
Default
100
AcDbSpline
210
0.0
220
0.0
230
1.0
 70
     8
 71
     3
 72
    24
 73
    20
 74
     0
 42
0.0000000001
 43
0.0000000001
 40
0.0
 40
0.0
 40
0.0
 40
0.0
 40
1.0
 40
2.0
 40
3.0
 40
4.0
 40
5.0
 40
6.0
 40
7.0
 40
8.0
 40
9.0
 40
10.0
 40
11.0
 40
12.0
 40
13.0
 40
14.0
 40
15.0
 40
16.0
 40
16.13599113825579
 40
16.13599113825579
 40
16.13599113825579
 40
16.13599113825579
 10
31.82269648879192
 20
28.25870833089182
 30
0.0
 10
31.87094211113399
 20
28.21988013292038
 30
0.0
 10
31.97009475715051
 20
28.14514967375472
 30
0.0
 10
32.1282708704077
 20
28.04792043439579
 30
0.0
 10
32.29395841520643
 20
27.96086281539105
 30
0.0
 10
32.47808495358652
 20
27.92466891749455
 30
0.0
 10
32.65990554022923
 20
27.90974373091082
 30
0.0
 10
32.86086708532653
 20
27.98400396612675
 30
0.0
 10
32.77715011906172
 20
28.19563945941371
 30
0.0
 10
32.67220919413982
 20
28.3372165074941
 30
0.0
 10
32.55185703400505
 20
28.48234448130649
 30
0.0
 10
32.4268092811952
 20
28.61895654694263
 30
0.0
 10
32.30250007830431
 20
28.75739214463337
 30
0.0
 10
32.17919043747297
 20
28.89641139907709
 30
0.0
 10
32.05681702240096
 20
29.03633757489715
 30
0.0
 10
31.935406750505
 20
29.17707848230883
 30
0.0
 10
31.81494895666317
 20
29.31864112374243
 30
0.0
 10
31.72991225764866
 20
29.42004816717366
 30
0.0
 10
31.68490887639103
 20
29.47416464150512
 30
0.0
 10
31.67952463978017
 20
29.48064564792906
 30
0.0
  0
ARC
  5
3D
330
1F
100
AcDbEntity
  8
Default
100
AcDbCircle
 10
31.87182200131016
 20
29.64040085050038
 30
0.0
 40
0.25
100
AcDbArc
 50
92.60936929485611
 51
219.7188424820518
  0
SPLINE
  5
3E
330
1F
100
AcDbEntity
  8
Default
100
AcDbSpline
210
0.0
220
0.0
230
1.0
 70
     8
 71
     3
 72
    12
 73
     8
 74
     0
 42
0.0000000001
 43
0.0000000001
 40
0.1004929713206162
 40
0.1004929713206162
 40
0.1004929713206162
 40
0.1004929713206162
 40
3.645618499081671
 40
6.068168658872678
 40
9.511558966442593
 40
11.17798759891832
 40
12.37718938063022
 40
12.37718938063022
 40
12.37718938063022
 40
12.37718938063022
 10
31.86044041525309
 20
29.8901416351128
 30
0.0
 10
33.04089365795724
 20
29.94393913634568
 30
0.0
 10
35.02373746497778
 20
30.11075465292697
 30
0.0
 10
38.15355261532849
 20
30.31924561050889
 30
0.0
 10
40.66078434679376
 20
30.45843302182471
 30
0.0
 10
42.75980899734913
 20
30.58203742203538
 30
0.0
 10
43.71431970232918
 20
30.63029654425855
 30
0.0
 10
44.11394129213322
 20
30.62896424598928
 30
0.0
  0
SPLINE
  5
3F
330
1F
100
AcDbEntity
  8
Default
100
AcDbSpline
210
0.0
220
0.0
230
1.0
 70
     8
 71
     3
 72
    14
 73
    10
 74
     0
 42
0.0000000001
 43
0.0000000001
 40
-13.46245674081793
 40
-13.46245674081793
 40
-13.46245674081793
 40
-13.46245674081793
 40
-12.76915707112372
 40
-11.57409979907015
 40
-10.91174483143177
 40
-8.853644510865058
 40
-5.160327740573998
 40
-2.520433580507965
 40
0.0
 40
0.0
 40
0.0
 40
0.0
 10
44.11416298581894
 20
30.77125988201323
 30
0.0
 10
43.88348412693911
 20
30.78429102019
 30
0.0
 10
43.2537977805692
 20
30.79460026708971
 30
0.0
 10
42.40377662099627
 20
30.77828133157343
 30
0.0
 10
41.09913594905608
 20
30.73893818654959
 30
0.0
 10
38.9623096024266
 20
30.67297482641797
 30
0.0
 10
36.16667256153835
 20
30.57700225911135
 30
0.0
 10
33.22066497228332
 20
30.39736949289676
 30
0.0
 10
31.50706637364277
 20
30.24590307803356
 30
0.0
 10
30.67142408727074
 20
30.15901978912163
 30
0.0
  0
SPLINE
  5
40
330
1F
100
AcDbEntity
  8
Default
100
AcDbSpline
210
0.0
220
0.0
230
1.0
 70
    12
 71
     2
 72
     6
 73
     3
 74
     0
 42
0.0000000001
 43
0.0000000001
 40
-0.1603149038788934
 40
-0.1603149038788934
 40
-0.1603149038788934
 40
0.0
 40
0.0
 40
0.0
 10
30.67142408727074
 20
30.15901978912163
 30
0.0
 41
1.0
 10
30.59023735989182
 20
30.15440996310476
 30
0.0
 41
0.978738299541518
 10
30.51773276457375
 20
30.11759123341231
 30
0.0
 41
1.0
  0
SPLINE
  5
41
330
1F
100
AcDbEntity
  8
Default
100
AcDbSpline
210
0.0
220
0.0
230
1.0
 70
    12
 71
     2
 72
     6
 73
     3
 74
     0
 42
0.0000000001
 43
0.0000000001
 40
-0.4001929047078155
 40
-0.4001929047078155
 40
-0.4001929047078155
 40
0.0
 40
0.0
 40
0.0
 10
30.51773276457375
 20
30.11759123341231
 30
0.0
 41
1.0
 10
30.34453251085049
 20
30.01700368267993
 30
0.0
 41
0.998549274239925
 10
30.18315326836347
 20
29.89837432987696
 30
0.0
 41
1.0
  0
SPLINE
  5
42
330
1F
100
AcDbEntity
  8
Default
100
AcDbSpline
210
0.0
220
0.0
230
1.0
 70
     8
 71
     3
 72
    11
 73
     7
 74
     0
 42
0.0000000001
 43
0.0000000001
 40
-2.552914164169032
 40
-2.552914164169032
 40
-2.552914164169032
 40
-2.552914164169032
 40
-1.888480730619187
 40
-0.9523693663536067
 40
-0.723128482373148
 40
0.0
 40
0.0
 40
0.0
 40
0.0
 10
45.23748274529488
 20
30.98779955243246
 30
0.0
 10
45.4497856650968
 20
30.92660465173334
 30
0.0
 10
45.94726596271057
 20
30.72983075673969
 30
0.0
 10
46.45652957038132
 20
30.38185298865968
 30
0.0
 10
46.90088337875289
 20
29.93502446334114
 30
0.0
 10
47.05312845341732
 20
29.64884004304474
 30
0.0
 10
47.23095385306351
 20
29.48284981208919
 30
0.0
  0
SPLINE
  5
43
330
1F
100
AcDbEntity
  8
Default
100
AcDbSpline
210
0.0
220
0.0
230
1.0
 70
     8
 71
     3
 72
    14
 73
    10
 74
     0
 42
0.0000000001
 43
0.0000000001
 40
-7.0
 40
-7.0
 40
-7.0
 40
-7.0
 40
-6.0
 40
-5.0
 40
-4.0
 40
-3.0
 40
-2.0
 40
-1.0
 40
0.0
 40
0.0
 40
0.0
 40
0.0
 10
47.23095385306351
 20
29.48284981208919
 30
0.0
 10
47.25843316748877
 20
29.45196500332001
 30
0.0
 10
47.32515280611142
 20
29.40880212895456
 30
0.0
 10
47.41392988061013
 20
29.31999080698274
 30
0.0
 10
47.35957206778836
 20
29.19316400069377
 30
0.0
 10
47.2852704401426
 20
29.10579918110023
 30
0.0
 10
47.16985936803594
 20
29.03540816881896
 30
0.0
 10
47.06000069270104
 20
29.10744622078548
 30
0.0
 10
47.00400007416235
 20
29.16119485842808
 30
0.0
 10
46.97570210765232
 20
29.19031024557618
 30
0.0
  0
SPLINE
  5
44
330
1F
100
AcDbEntity
  8
Default
100
AcDbSpline
210
0.0
220
0.0
230
1.0
 70
    12
 71
     2
 72
     8
 73
     5
 74
     0
 42
0.0000000001
 43
0.0000000001
 40
-1.131082174975068
 40
-1.131082174975068
 40
-1.131082174975068
 40
-0.5311319982797426
 40
-0.5311319982797426
 40
0.0
 40
0.0
 40
0.0
 10
46.97570210765232
 20
29.19031024557618
 30
0.0
 41
1.0
 10
46.76642678215813
 20
29.40563073937043
 30
0.0
 41
0.9985522946097442
 10
46.54492404429939
 20
29.73499366565665
 30
0.0
 41
1.0
 10
46.37607316089672
 20
29.94202833971664
 30
0.0
 41
0.9910793595359968
 10
46.15852843448366
 20
30.09710338315967
 30
0.0
 41
1.0
  0
SPLINE
  5
45
330
1F
100
AcDbEntity
  8
Default
100
AcDbSpline
210
0.0
220
0.0
230
1.0
 70
     8
 71
     3
 72
     9
 73
     5
 74
     0
 42
0.0000000001
 43
0.0000000001
 40
-15.65411752985806
 40
-15.65411752985806
 40
-15.65411752985806
 40
-15.65411752985806
 40
-15.02730075433966
 40
-14.60534575604528
 40
-14.60534575604528
 40
-14.60534575604528
 40
-14.60534575604528
 10
46.15852843448366
 20
30.09710338315967
 30
0.0
 10
45.99368357926951
 20
30.22533364463841
 30
0.0
 10
45.69967219820972
 20
30.41826164465159
 30
0.0
 10
45.37367079912025
 20
30.54780382866296
 30
0.0
 10
45.23954608771005
 20
30.59051773649854
 30
0.0
  0
SPLINE
  5
46
330
1F
100
AcDbEntity
  8
Default
100
AcDbSpline
210
0.0
220
0.0
230
1.0
 70
     8
 71
     3
 72
    19
 73
    15
 74
     0
 42
0.0000000001
 43
0.0000000001
 40
-17.9686236409989
 40
-17.9686236409989
 40
-17.9686236409989
 40
-17.9686236409989
 40
-17.45341459592076
 40
-17.35126446118563
 40
-17.31388856261465
 40
-17.22998332040851
 40
-17.09577373227868
 40
-15.4228300371513
 40
-10.16604820698678
 40
-8.509741002941979
 40
-6.085128693056221
 40
-5.382701377325557
 40
-3.792327664688375
 40
-3.674285446847438
 40
-3.674285446847438
 40
-3.674285446847438
 40
-3.674285446847438
 10
29.99439610558227
 20
30.07226044134379
 30
0.0
 10
30.12580333448481
 20
30.1827849107952
 30
0.0
 10
30.28627103428414
 20
30.3119451640395
 30
0.0
 10
30.46595323005086
 20
30.43581656721024
 30
0.0
 10
30.5279589169192
 20
30.47746675401192
 30
0.0
 10
30.60942100412976
 20
30.50584982540032
 30
0.0
 10
31.23792321590804
 20
30.55528532023074
 30
0.0
 10
33.58509288846295
 20
30.7482388945307
 30
0.0
 10
36.44116901206186
 20
30.92333552232656
 30
0.0
 10
39.55301488714875
 20
31.03813861430557
 30
0.0
 10
41.14408847692739
 20
31.09609353355529
 30
0.0
 10
42.71944735112341
 20
31.14793083691233
 30
0.0
 10
43.51880936861229
 20
31.16682279089287
 30
0.0
 10
44.08986922833242
 20
31.14600581903545
 30
0.0
 10
44.12932848955609
 20
31.14434615875174
 30
0.0
  0
SPLINE
  5
47
330
1F
100
AcDbEntity
  8
Default
100
AcDbSpline
210
0.0
220
0.0
230
1.0
 70
    12
 71
     2
 72
     6
 73
     3
 74
     0
 42
0.0000000001
 43
0.0000000001
 40
3.066931887164713
 40
3.066931887164713
 40
3.066931887164713
 40
3.577868569146716
 40
3.577868569146716
 40
3.577868569146716
 10
31.84941224430719
 20
29.27827282763304
 30
0.0
 41
0.9935665552088699
 10
31.60643871293257
 20
29.3529831013612
 30
0.0
 41
0.996247386515844
 10
31.3688567066505
 20
29.44332978062954
 30
0.0
 41
1.0
  0
SPLINE
  5
48
330
1F
100
AcDbEntity
  8
Default
100
AcDbSpline
210
0.0
220
0.0
230
1.0
 70
    12
 71
     2
 72
     6
 73
     3
 74
     0
 42
0.0000000001
 43
0.0000000001
 40
0.9406127914103319
 40
0.9406127914103319
 40
0.9406127914103319
 40
1.933928086932434
 40
1.933928086932434
 40
1.933928086932434
 10
31.84546780451073
 20
28.2405731048642
 30
0.0
 41
0.990423304817689
 10
32.32673758094088
 20
28.11021008835455
 30
0.0
 41
0.9868722360084311
 10
32.81966957857171
 20
28.03543526003985
 30
0.0
 41
0.986501020729902
  0
SPLINE
  5
49
330
1F
100
AcDbEntity
  8
Default
100
AcDbSpline
210
0.0
220
0.0
230
1.0
 70
    12
 71
     2
 72
     6
 73
     3
 74
     0
 42
0.0000000001
 43
0.0000000001
 40
0.0
 40
0.0
 40
0.0
 40
0.9406127914103319
 40
0.9406127914103319
 40
0.9406127914103319
 10
30.95595940041347
 20
28.53348448845619
 30
0.0
 41
1.0
 10
31.3929033724621
 20
28.36316061693374
 30
0.0
 41
0.9937859639453839
 10
31.84546780451073
 20
28.2405731048642
 30
0.0
 41
0.990423304817689
  0
SPLINE
  5
4B
330
1F
100
AcDbEntity
  8
MAKE2D VISIBLE LINES
100
AcDbSpline
210
0.0
220
0.0
230
1.0
 70
    24
 71
     2
 72
     6
 73
     3
 74
     0
 42
0.0000000001
 43
0.0000000001
 40
-1.179527910277489
 40
-1.179527910277489
 40
-1.179527910277489
 40
-0.0557716525305567
 40
-0.0557716525305567
 40
-0.0557716525305567
 10
10.04533827541998
 20
61.74085157670527
 30
0.0
 10
9.481845543381823
 20
61.74084888205221
 30
0.0
 10
8.91835281134367
 20
61.74084618739913
 30
0.0
  0
SPLINE
  5
4C
330
1F
100
AcDbEntity
  8
MAKE2D VISIBLE LINES
100
AcDbSpline
210
0.0
220
0.0
230
1.0
 70
    24
 71
     2
 72
     6
 73
     3
 74
     0
 42
0.0000000001
 43
0.0000000001
 40
-1.179527910277489
 40
-1.179527910277489
 40
-1.179527910277489
 40
-0.0568587746156848
 40
-0.0568587746156848
 40
-0.0568587746156848
 10
-10.04573051560007
 20
61.74085157670527
 30
0.0
 10
-9.482782906571988
 20
61.74084888465901
 30
0.0
 10
-8.919835297543907
 20
61.74084619261275
 30
0.0
  0
SPLINE
  5
4D
330
1F
100
AcDbEntity
  8
Default
100
AcDbSpline
210
0.0
220
0.0
230
1.0
 70
    12
 71
     2
 72
     6
 73
     3
 74
     0
 42
0.0000000001
 43
0.0000000001
 40
0.0
 40
0.0
 40
0.0
 40
0.8121512644604417
 40
0.8121512644604417
 40
0.8121512644604417
 10
9.779219954530355
 20
62.24255693146417
 30
0.0
 41
1.0
 10
9.373146542303752
 20
62.24121336480649
 30
0.0
 41
0.9999999896572668
 10
8.967072771716259
 20
62.23998286509273
 30
0.0
 41
0.9999999986966776
  0
SPLINE
  5
4E
330
1F
100
AcDbEntity
  8
Default
100
AcDbSpline
210
0.0
220
0.0
230
1.0
 70
    12
 71
     2
 72
     6
 73
     3
 74
     0
 42
0.0000000001
 43
0.0000000001
 40
0.0592236376901293
 40
0.0592236376901293
 40
0.0592236376901293
 40
0.8053367947165757
 40
0.8053367947165757
 40
0.8053367947165757
 10
-9.004838530467984
 20
63.24010099837739
 30
0.0
 41
0.9999999987000893
 10
-9.377893382694335
 20
63.24123659394914
 30
0.0
 41
0.9999999911617559
 10
-9.750947932055375
 20
63.24246766989074
 30
0.0
 41
1.0
  0
SPLINE
  5
4F
330
1F
100
AcDbEntity
  8
Default
100
AcDbSpline
210
0.0
220
0.0
230
1.0
 70
    12
 71
     2
 72
     6
 73
     3
 74
     0
 42
0.0000000001
 43
0.0000000001
 40
0.0
 40
0.0
 40
0.0
 40
0.8140578786361541
 40
0.8140578786361541
 40
0.8140578786361541
 10
-9.779612194710445
 20
62.24255693146417
 30
0.0
 41
1.0
 10
-9.37258548059781
 20
62.24121021063636
 30
0.0
 41
0.999999989632986
 10
-8.965558406476845
 20
62.23997708824983
 30
0.0
 41
0.9999999987392264
  0
LINE
  5
50
330
1F
100
AcDbEntity
  8
Default
100
AcDbLine
 10
7.924310009386396
 20
76.68206135895718
 30
0.0
 11
7.554144933259686
 21
76.4462401973673
 31
0.0
  0
LINE
  5
51
330
1F
100
AcDbEntity
  8
Default
100
AcDbLine
 10
-7.924702249566487
 20
76.68206135895718
 30
0.0
 11
-7.554539016680223
 21
76.44624137164098
 31
0.0
  0
SPLINE
  5
52
330
1F
100
AcDbEntity
  8
Default
100
AcDbSpline
210
0.0
220
0.0
230
1.0
 70
    12
 71
     2
 72
     6
 73
     3
 74
     0
 42
0.0000000001
 43
0.0000000001
 40
0.0588574880627815
 40
0.0588574880627815
 40
0.0588574880627815
 40
0.8053367947165757
 40
0.8053367947165757
 40
0.8053367947165757
 10
9.00408014235756
 20
63.24009988382979
 30
0.0
 41
0.999999998707492
 10
9.377318068694738
 20
63.24123598980754
 30
0.0
 41
0.9999999911574186
 10
9.750555691875284
 20
63.24246766989074
 30
0.0
 41
1.0
  0
ARC
  5
53
330
1F
100
AcDbEntity
  8
Default
100
AcDbCircle
 10
-58.07573804079458
 20
62.7352321530026
 30
0.0
 40
67.04679918370967
100
AcDbArc
 50
11.76267804767066
 51
12.08377002124303
  0
SPLINE
  5
54
330
1F
100
AcDbEntity
  8
Default
100
AcDbSpline
210
0.0
220
0.0
230
1.0
 70
     8
 71
     3
 72
    23
 73
    19
 74
     0
 42
0.0000000001
 43
0.0000000001
 40
0.0
 40
0.0
 40
0.0
 40
0.0
 40
4.24895968232277
 40
6.486393074541591
 40
9.045091794831706
 40
11.60422115196901
 40
13.22896781163744
 40
14.51231705906568
 40
15.25797935780193
 40
15.51969434203911
 40
15.80552651594489
 40
15.9921433540386
 40
16.10658203171558
 40
16.24561988875408
 40
16.537984963297
 40
17.86615571467284
 40
21.19407775777829
 40
24.46596690678671
 40
24.46596690678671
 40
24.46596690678671
 40
24.46596690678671
 10
7.563104371422618
 20
76.40328422946196
 30
0.0
 10
7.851820045188283
 20
75.01676898162549
 30
0.0
 10
8.225595865918457
 20
72.885726323362
 30
0.0
 10
8.57468929989978
 20
69.89044040371114
 30
0.0
 10
8.798841026237092
 20
67.4489034487901
 30
0.0
 10
8.948927675317385
 20
65.20616341838391
 30
0.0
 10
9.023170776592615
 20
63.3850072379564
 30
0.0
 10
8.977742455523575
 20
62.16627621237173
 30
0.0
 10
8.87723902867166
 20
61.40896319076899
 30
0.0
 10
8.797945182508222
 20
60.98406855784728
 30
0.0
 10
8.629707771193416
 20
60.78704219968748
 30
0.0
 10
8.464368586989316
 20
60.68898761078323
 30
0.0
 10
8.322143095032494
 20
60.641820644638
 30
0.0
 10
8.144869826108241
 20
60.60779777539526
 30
0.0
 10
7.56272734649108
 20
60.52996667201728
 30
0.0
 10
5.925213100211259
 20
60.33360757293141
 30
0.0
 10
3.290074335126754
 20
60.12178120237451
 30
0.0
 10
1.090573281335217
 20
60.05173118524207
 30
0.0
 10
-0.0001001814800574
 20
60.04990589510658
 30
0.0
  0
SPLINE
  5
55
330
1F
100
AcDbEntity
  8
Default
100
AcDbSpline
210
0.0
220
0.0
230
1.0
 70
     8
 71
     3
 72
    21
 73
    17
 74
     0
 42
0.0000000001
 43
0.0000000001
 40
24.46596690678671
 40
24.46596690678671
 40
24.46596690678671
 40
24.46596690678671
 40
27.72223632071433
 40
31.06625574070116
 40
32.42547696658934
 40
32.82735322848757
 40
33.12657573285964
 40
33.4100113728441
 40
33.66796334267045
 40
34.39342643974651
 40
35.68712283049939
 40
37.32776181063267
 40
39.88695385814246
 40
42.54145534509678
 40
44.77891088678392
 40
48.93209882734814
 40
48.93209882734814
 40
48.93209882734814
 40
48.93209882734814
 10
-0.0001001814800574
 20
60.04990589510658
 30
0.0
 10
-1.085567452554521
 20
60.05151569287932
 30
0.0
 10
-3.285236921425742
 20
60.12157280440341
 30
0.0
 10
-5.930729364747698
 20
60.33394468539662
 30
0.0
 10
-7.620163361844185
 20
60.53770473138451
 30
0.0
 10
-8.302081079904973
 20
60.62589491030151
 30
0.0
 10
-8.609786042410086
 20
60.75186462203575
 30
0.0
 10
-8.791241282340359
 20
60.98348678370296
 30
0.0
 10
-8.881240769569807
 20
61.39603227978358
 30
0.0
 10
-8.971534973381772
 20
62.15125876985117
 30
0.0
 10
-9.027077678938547
 20
63.37002630624876
 30
0.0
 10
-8.947927646569575
 20
65.2013843237654
 30
0.0
 10
-8.79777206254061
 20
67.4803262431142
 30
0.0
 10
-8.569051513793418
 20
69.95418275990512
 30
0.0
 10
-8.215724310448955
 20
72.94880407480886
 30
0.0
 10
-7.845645663257051
 20
75.04799864355981
 30
0.0
 10
-7.563497866312737
 20
76.40327810145676
 30
0.0
  0
ARC
  5
56
330
1F
100
AcDbEntity
  8
Default
100
AcDbCircle
 10
58.51328977607506
 20
62.64713360016932
 30
0.0
 40
67.49350618153952
100
AcDbArc
 50
167.9209370110374
 51
168.2398994819786
  0
SPLINE
  5
57
330
1F
100
AcDbEntity
  8
MAKE2D VISIBLE LINES
100
AcDbSpline
210
0.0
220
0.0
230
1.0
 70
    12
 71
     2
 72
     6
 73
     3
 74
     0
 42
0.0000000001
 43
0.0000000001
 40
0.0
 40
0.0
 40
0.0
 40
0.6361187694489597
 40
0.6361187694489597
 40
0.6361187694489597
 10
-9.487013134345649
 20
30.34983278788708
 30
0.0
 41
1.0
 10
-9.17107128847403
 20
30.31317825234048
 30
0.0
 41
0.9999921039094534
 10
-8.854855983948841
 20
30.27896296141756
 30
0.0
 41
0.9999990964772386
  0
SPLINE
  5
58
330
1F
100
AcDbEntity
  8
MAKE2D VISIBLE LINES
100
AcDbSpline
210
0.0
220
0.0
230
1.0
 70
    12
 71
     2
 72
     6
 73
     3
 74
     0
 42
0.0000000001
 43
0.0000000001
 40
0.0385921752490912
 40
0.0385921752490912
 40
0.0385921752490912
 40
0.6747218335345062
 40
0.6747218335345062
 40
0.6747218335345062
 10
8.85484515864095
 20
30.27896173957891
 30
0.0
 41
0.9999990979408451
 10
9.17106573123747
 20
30.31317893415655
 30
0.0
 41
0.9999921144765359
 10
9.487013017261031
 20
30.34983380276054
 30
0.0
 41
1.0
  0
SPLINE
  5
59
330
1F
100
AcDbEntity
  8
Default
100
AcDbSpline
210
0.0
220
0.0
230
1.0
 70
    12
 71
     2
 72
     6
 73
     3
 74
     0
 42
0.0000000001
 43
0.0000000001
 40
-0.9461446270349323
 40
-0.9461446270349323
 40
-0.9461446270349323
 40
0.0
 40
0.0
 40
0.0
 10
-8.38545280411344
 20
31.0765653113587
 30
0.0
 41
0.9901859380548393
 10
-8.103551040746979
 20
31.4660264481518
 30
0.0
 41
0.973295515472048
 10
-7.687371057372282
 20
31.70710594600488
 30
0.0
 41
1.0
  0
SPLINE
  5
5A
330
1F
100
AcDbEntity
  8
Default
100
AcDbSpline
210
0.0
220
0.0
230
1.0
 70
    12
 71
     2
 72
     6
 73
     3
 74
     0
 42
0.0000000001
 43
0.0000000001
 40
0.0
 40
0.0
 40
0.0
 40
0.9461792513233452
 40
0.9461792513233452
 40
0.9461792513233452
 10
7.687213881174038
 20
31.70710594600488
 30
0.0
 41
1.0
 10
8.103409512598967
 20
31.4660173837464
 30
0.0
 41
0.9732945382178864
 10
8.385315908207858
 20
31.07653729268638
 30
0.0
 41
0.9901871743277416
  0
ARC
  5
5B
330
1F
100
AcDbEntity
  8
Default
100
AcDbCircle
 10
-17.31747422144537
 20
-11.73299080050327
 30
0.0
 40
41.66759639119658
100
AcDbArc
 50
74.48125488379407
 51
77.00741783447067
  0
SPLINE
  5
5C
330
1F
100
AcDbEntity
  8
Default
100
AcDbSpline
210
0.0
220
0.0
230
1.0
 70
    12
 71
     2
 72
     6
 73
     3
 74
     0
 42
0.0000000001
 43
0.0000000001
 40
15.684469240627
 40
15.684469240627
 40
15.684469240627
 40
19.04348847755149
 40
19.04348847755149
 40
19.04348847755149
 10
-6.160995912544802
 20
29.02941405084154
 30
0.0
 41
0.9981045999326592
 10
-7.834188797231799
 20
29.15348289636015
 30
0.0
 41
0.9988493385147755
 10
-9.501030241460008
 20
29.34481273616236
 30
0.0
 41
1.0
  0
SPLINE
  5
5D
330
1F
100
AcDbEntity
  8
Default
100
AcDbSpline
210
0.0
220
0.0
230
1.0
 70
    12
 71
     2
 72
     6
 73
     3
 74
     0
 42
0.0000000001
 43
0.0000000001
 40
0.0
 40
0.0
 40
0.0
 40
3.3591927587738
 40
3.3591927587738
 40
3.3591927587738
 10
9.501030044719123
 20
29.34481444634664
 30
0.0
 41
1.0
 10
7.834102429227409
 20
29.15347441130114
 30
0.0
 41
0.998849279073345
 10
6.160822774347615
 20
29.0294023319865
 30
0.0
 41
0.9981045229896068
  0
ARC
  5
5E
330
1F
100
AcDbEntity
  8
Default
100
AcDbCircle
 10
17.31731704524713
 20
-11.73299080050327
 30
0.0
 40
41.66759639119658
100
AcDbArc
 50
102.9925821655293
 51
105.5187451162059
  0
SPLINE
  5
5F
330
1F
100
AcDbEntity
  8
Default
100
AcDbSpline
210
0.0
220
0.0
230
1.0
 70
    12
 71
     2
 72
     6
 73
     3
 74
     0
 42
0.0000000001
 43
0.0000000001
 40
0.0
 40
0.0
 40
0.0
 40
0.136497131246725
 40
0.136497131246725
 40
0.136497131246725
 10
45.28401621254208
 20
29.0592717197424
 30
0.0
 41
1.0
 10
45.33091961065399
 20
29.10932283406645
 30
0.0
 41
0.9924780464036579
 10
45.36425448638587
 20
29.16927138583764
 30
0.0
 41
1.0
  0
SPLINE
  5
60
330
1F
100
AcDbEntity
  8
Default
100
AcDbSpline
210
0.0
220
0.0
230
1.0
 70
    12
 71
     2
 72
     6
 73
     3
 74
     0
 42
0.0000000001
 43
0.0000000001
 40
0.0
 40
0.0
 40
0.0
 40
0.8264390978013532
 40
0.8264390978013532
 40
0.8264390978013532
 10
45.36425448638587
 20
29.16927138583764
 30
0.0
 41
1.0
 10
45.55885276322578
 20
29.53415809545664
 30
0.0
 41
0.9986048383852346
 10
45.71967341702128
 20
29.91514040150043
 30
0.0
 41
0.9992567506520554
  0
ARC
  5
61
330
1F
100
AcDbEntity
  8
Default
100
AcDbCircle
 10
45.94999415600022
 20
29.8179171676713
 30
0.0
 40
0.25
100
AcDbArc
 50
56.90320801781194
 51
157.1143678715038
  0
LINE
  5
62
330
1F
100
AcDbEntity
  8
Default
100
AcDbLine
 10
46.08650791997297
 20
30.02735449062495
 30
0.0
 11
46.2309674889832
 21
29.93319400752982
 31
0.0
  0
ARC
  5
63
330
1F
100
AcDbEntity
  8
Default
100
AcDbCircle
 10
45.56031231956904
 20
28.93250169769183
 30
0.0
 40
1.20464245950026
100
AcDbArc
 50
25.22628804628217
 51
56.1703549918263
  0
SPLINE
  5
64
330
1F
100
AcDbEntity
  8
Default
100
AcDbSpline
210
0.0
220
0.0
230
1.0
 70
    12
 71
     2
 72
     6
 73
     3
 74
     0
 42
0.0000000001
 43
0.0000000001
 40
-1.357066206308517
 40
-1.357066206308517
 40
-1.357066206308517
 40
0.0
 40
0.0
 40
0.0
 10
46.65006996016754
 20
29.44591355963895
 30
0.0
 41
1.0
 10
46.17931005323715
 20
28.95168387880625
 30
0.0
 41
0.991190278644199
 10
45.59530239825007
 20
28.59839514942816
 30
0.0
 41
1.0
  0
SPLINE
  5
65
330
1F
100
AcDbEntity
  8
Default
100
AcDbSpline
210
0.0
220
0.0
230
1.0
 70
    12
 71
     2
 72
     6
 73
     3
 74
     0
 42
0.0000000001
 43
0.0000000001
 40
-0.2347042026955195
 40
-0.2347042026955195
 40
-0.2347042026955195
 40
0.0
 40
0.0
 40
0.0
 10
45.59530239825007
 20
28.59839514942816
 30
0.0
 41
1.0
 10
45.49292718099503
 20
28.53606013001636
 30
0.0
 41
0.9689121470040515
 10
45.37319946282049
 20
28.53043756353798
 30
0.0
 41
1.0
  0
SPLINE
  5
66
330
1F
100
AcDbEntity
  8
Default
100
AcDbSpline
210
0.0
220
0.0
230
1.0
 70
    12
 71
     2
 72
     6
 73
     3
 74
     0
 42
0.0000000001
 43
0.0000000001
 40
-0.0744622706341129
 40
-0.0744622706341129
 40
-0.0744622706341129
 40
0.0
 40
0.0
 40
0.0
 10
45.37319946282049
 20
28.53043756353798
 30
0.0
 41
1.0
 10
45.33602056991152
 20
28.52846590721372
 30
0.0
 41
0.9999999623414183
 10
45.29884276480456
 20
28.52647384445698
 30
0.0
 41
1.0
  0
SPLINE
  5
67
330
1F
100
AcDbEntity
  8
Default
100
AcDbSpline
210
0.0
220
0.0
230
1.0
 70
    12
 71
     2
 72
     6
 73
     3
 74
     0
 42
0.0000000001
 43
0.0000000001
 40
-0.3487157040704518
 40
-0.3487157040704518
 40
-0.3487157040704518
 40
-0.0287461451405254
 40
-0.0287461451405254
 40
-0.0287461451405254
 10
46.97570210765232
 20
29.19031024557618
 30
0.0
 41
1.0
 10
46.86385256067412
 20
29.30539070061377
 30
0.0
 41
0.9951609814664577
 10
46.65099645871255
 20
29.44742800303487
 30
0.0
 41
0.9992021975065695
  0
SPLINE
  5
68
330
1F
100
AcDbEntity
  8
Default
100
AcDbSpline
210
0.0
220
0.0
230
1.0
 70
     8
 71
     3
 72
    20
 73
    16
 74
     0
 42
0.0000000001
 43
0.0000000001
 40
0.0
 40
0.0
 40
0.0
 40
0.0
 40
1.0
 40
2.0
 40
3.0
 40
4.0
 40
5.0
 40
6.0
 40
7.0
 40
8.0
 40
9.0
 40
10.0
 40
11.0
 40
12.0
 40
13.0
 40
13.0
 40
13.0
 40
13.0
 10
44.16673057696245
 20
28.76640302982299
 30
0.0
 10
43.85652025900325
 20
28.75982326257747
 30
0.0
 10
43.23621728276797
 20
28.74115607312077
 30
0.0
 10
42.30637021821445
 20
28.69751715687095
 30
0.0
 10
41.37737287295239
 20
28.63834168267102
 30
0.0
 10
40.44966948124085
 20
28.56153057721804
 30
0.0
 10
39.52334838413235
 20
28.46968425656555
 30
0.0
 10
38.59814414045837
 20
28.36732946445491
 30
0.0
 10
37.67368180388907
 20
28.25850878053296
 30
0.0
 10
36.74957974998117
 20
28.14675783546168
 30
0.0
 10
35.82497961376373
 20
28.03891332673704
 30
0.0
 10
34.89944897132668
 20
27.94028911292765
 30
0.0
 10
33.96998206060127
 20
27.87654669650905
 30
0.0
 10
33.04323891956447
 20
27.82781357805062
 30
0.0
 10
32.4124347413555
 20
27.91203696685105
 30
0.0
 10
32.12197248685287
 20
27.79737615473157
 30
0.0
  0
SPLINE
  5
69
330
1F
100
AcDbEntity
  8
Default
100
AcDbSpline
210
0.0
220
0.0
230
1.0
 70
    12
 71
     2
 72
     6
 73
     3
 74
     0
 42
0.0000000001
 43
0.0000000001
 40
-0.687820922641539
 40
-0.687820922641539
 40
-0.687820922641539
 40
0.0
 40
0.0
 40
0.0
 10
32.12197248685287
 20
27.79737615473157
 30
0.0
 41
1.0
 10
31.87117929775686
 20
27.56204220795058
 30
0.0
 41
0.9999690258309426
 10
31.62412153552989
 20
27.32278972138491
 30
0.0
 41
1.0
  0
SPLINE
  5
6A
330
1F
100
AcDbEntity
  8
Default
100
AcDbSpline
210
0.0
220
0.0
230
1.0
 70
    12
 71
     2
 72
     6
 73
     3
 74
     0
 42
0.0000000001
 43
0.0000000001
 40
0.0
 40
0.0
 40
0.0
 40
0.108394787279406
 40
0.108394787279406
 40
0.108394787279406
 10
29.7875566919912
 20
28.7885763067462
 30
0.0
 41
1.0
 10
29.7336640614783
 20
28.79431581325285
 30
0.0
 41
0.999999979266735
 10
29.6797737729444
 20
28.80007726795373
 30
0.0
 41
1.0
  0
SPLINE
  5
6B
330
1F
100
AcDbEntity
  8
Default
100
AcDbSpline
210
0.0
220
0.0
230
1.0
 70
    24
 71
     2
 72
     6
 73
     3
 74
     0
 42
0.0000000001
 43
0.0000000001
 40
-0.2325307321403076
 40
-0.2325307321403076
 40
-0.2325307321403076
 40
-0.0181596897530964
 40
-0.0181596897530964
 40
-0.0181596897530964
 10
29.9519849653237
 20
28.92611983923444
 30
0.0
 10
29.86977082920058
 20
28.85734807265224
 30
0.0
 10
29.78755669307745
 20
28.78857630607004
 30
0.0
  0
SPLINE
  5
6C
330
1F
100
AcDbEntity
  8
Default
100
AcDbSpline
210
0.0
220
0.0
230
1.0
 70
    12
 71
     2
 72
     6
 73
     3
 74
     0
 42
0.0000000001
 43
0.0000000001
 40
0.0
 40
0.0
 40
0.0
 40
0.0457929944082863
 40
0.0457929944082863
 40
0.0457929944082863
 10
29.78755669307745
 20
28.78857630607004
 30
0.0
 41
1.0
 10
29.7815980528451
 20
28.76418947331183
 30
0.0
 41
0.8731582744741458
 10
29.79922942713515
 20
28.74631889386239
 30
0.0
 41
1.0
  0
SPLINE
  5
6D
330
1F
100
AcDbEntity
  8
Default
100
AcDbSpline
210
0.0
220
0.0
230
1.0
 70
    12
 71
     2
 72
     6
 73
     3
 74
     0
 42
0.0000000001
 43
0.0000000001
 40
0.0
 40
0.0
 40
0.0
 40
2.137039182577097
 40
2.137039182577097
 40
2.137039182577097
 10
29.79922942713515
 20
28.74631889386239
 30
0.0
 41
1.0
 10
30.55204185604456
 20
27.98238507607592
 30
0.0
 41
0.9944000822514505
 10
31.44860114836598
 20
27.39374013519014
 30
0.0
 41
1.0
  0
SPLINE
  5
6E
330
1F
100
AcDbEntity
  8
Default
100
AcDbSpline
210
0.0
220
0.0
230
1.0
 70
    12
 71
     2
 72
     6
 73
     3
 74
     0
 42
0.0000000001
 43
0.0000000001
 40
-0.1906435954869634
 40
-0.1906435954869634
 40
-0.1906435954869634
 40
0.0
 40
0.0
 40
0.0
 10
31.44860114836598
 20
27.39374013519014
 30
0.0
 41
1.0
 10
31.52900549000212
 20
27.34006768443504
 30
0.0
 41
0.9791718629292984
 10
31.62412153552989
 20
27.32278972138491
 30
0.0
 41
1.0
  0
SPLINE
  5
6F
330
1F
100
AcDbEntity
  8
Default
100
AcDbSpline
210
0.0
220
0.0
230
1.0
 70
     8
 71
     3
 72
    14
 73
    10
 74
     0
 42
0.0000000001
 43
0.0000000001
 40
0.0
 40
0.0
 40
0.0
 40
0.0
 40
0.6990240910473118
 40
1.427452671610304
 40
2.963428520767245
 40
4.341267153930231
 40
7.279531458324128
 40
8.656584164251418
 40
12.64851224199838
 40
12.64851224199838
 40
12.64851224199838
 40
12.64851224199838
 10
31.62412153552989
 20
27.32278972138491
 30
0.0
 10
31.85327381111917
 20
27.28027011318261
 30
0.0
 10
32.32431822552547
 20
27.21170558619495
 30
0.0
 10
33.31086966987105
 20
27.14459596705787
 30
0.0
 10
34.52615903140249
 20
27.19523212481742
 30
0.0
 10
36.46013639369593
 20
27.45678855812671
 30
0.0
 10
38.3223139438273
 20
27.82608121489103
 30
0.0
 10
41.0621404640865
 20
28.23161882439643
 30
0.0
 10
42.84790230353836
 20
28.37269640455644
 30
0.0
 10
44.17523888045805
 20
28.46065384695932
 30
0.0
  0
SPLINE
  5
70
330
1F
100
AcDbEntity
  8
Default
100
AcDbSpline
210
0.0
220
0.0
230
1.0
 70
    12
 71
     2
 72
     6
 73
     3
 74
     0
 42
0.0000000001
 43
0.0000000001
 40
0.0
 40
0.0
 40
0.0
 40
0.8358662744886645
 40
0.8358662744886645
 40
0.8358662744886645
 10
-6.747542381788541
 20
29.02152163655708
 30
0.0
 41
1.0
 10
-6.462991862956336
 20
28.71538535267735
 30
0.0
 41
0.9999127732357861
 10
-6.170446555874343
 20
28.41687963161809
 30
0.0
 41
0.9999999999991276
  0
SPLINE
  5
71
330
1F
100
AcDbEntity
  8
Default
100
AcDbSpline
210
0.0
220
0.0
230
1.0
 70
    12
 71
     2
 72
     6
 73
     3
 74
     0
 42
0.0000000001
 43
0.0000000001
 40
0.0
 40
0.0
 40
0.0
 40
0.9933248670959279
 40
0.9933248670959279
 40
0.9933248670959279
 10
-6.170446555874342
 20
28.41687963161808
 30
0.0
 41
0.9999999899372237
 10
-5.820440078743093
 20
28.04970675571494
 30
0.0
 41
0.968932994225803
 10
-5.336518778732419
 20
27.89497703870409
 30
0.0
 41
1.0
  0
SPLINE
  5
72
330
1F
100
AcDbEntity
  8
Default
100
AcDbSpline
210
0.0
220
0.0
230
1.0
 70
    12
 71
     2
 72
     6
 73
     3
 74
     0
 42
0.0000000001
 43
0.0000000001
 40
0.0
 40
0.0
 40
0.0
 40
5.401120923603427
 40
5.401120923603427
 40
5.401120923603427
 10
-5.336518778732419
 20
27.89497703870409
 30
0.0
 41
1.0
 10
-2.717952339563342
 20
27.1639699095687
 30
0.0
 41
0.9904585897569746
 10
-0.0000785880991216
 20
27.17557634401911
 30
0.0
 41
1.0
  0
SPLINE
  5
73
330
1F
100
AcDbEntity
  8
Default
100
AcDbSpline
210
0.0
220
0.0
230
1.0
 70
    12
 71
     2
 72
     6
 73
     3
 74
     0
 42
0.0000000001
 43
0.0000000001
 40
-5.401120923603427
 40
-5.401120923603427
 40
-5.401120923603427
 40
0.0
 40
0.0
 40
0.0
 10
-0.0000785880991216
 20
27.17557634401911
 30
0.0
 41
1.0
 10
2.717795163365111
 20
27.1639699095687
 30
0.0
 41
0.9904585897569746
 10
5.336361602534176
 20
27.89497703870409
 30
0.0
 41
1.0
  0
SPLINE
  5
74
330
1F
100
AcDbEntity
  8
Default
100
AcDbSpline
210
0.0
220
0.0
230
1.0
 70
    12
 71
     2
 72
     6
 73
     3
 74
     0
 42
0.0000000001
 43
0.0000000001
 40
-0.9933248670959279
 40
-0.9933248670959279
 40
-0.9933248670959279
 40
0.0
 40
0.0
 40
0.0
 10
5.336361602534176
 20
27.89497703870409
 30
0.0
 41
1.0
 10
5.820282902544863
 20
28.04970675571494
 30
0.0
 41
0.968932994225803
 10
6.170289379676091
 20
28.41687963161808
 30
0.0
 41
0.9999999899372237
  0
SPLINE
  5
75
330
1F
100
AcDbEntity
  8
Default
100
AcDbSpline
210
0.0
220
0.0
230
1.0
 70
    12
 71
     2
 72
     6
 73
     3
 74
     0
 42
0.0000000001
 43
0.0000000001
 40
-0.8358662744886645
 40
-0.8358662744886645
 40
-0.8358662744886645
 40
0.0
 40
0.0
 40
0.0
 10
6.170289379676107
 20
28.41687963161809
 30
0.0
 41
0.9999999999991276
 10
6.46283468675808
 20
28.71538535267735
 30
0.0
 41
0.9999127732357861
 10
6.747385205590298
 20
29.02152163655708
 30
0.0
 41
1.0
  0
LINE
  5
76
330
1F
100
AcDbEntity
  8
Default
100
AcDbLine
 10
6.338572335747422
 20
28.9893409282824
 30
0.0
 11
6.224976893972261
 21
28.90772187890711
 31
0.0
  0
ARC
  5
77
330
1F
100
AcDbEntity
  8
Default
100
AcDbCircle
 10
5.978838553887307
 20
29.26216651111482
 30
0.0
 40
0.4315264531412024
100
AcDbArc
 50
262.2924095126972
 51
304.7774206992515
  0
ARC
  5
78
330
1F
100
AcDbEntity
  8
Default
100
AcDbCircle
 10
8.029184518738994
 20
26.48456394737719
 30
0.0
 40
3.157052107850949
100
AcDbArc
 50
121.4061072758457
 51
131.8960750393577
  0
LINE
  5
79
330
1F
100
AcDbEntity
  8
Default
100
AcDbLine
 10
6.384042737551958
 20
29.17909294730999
 30
0.0
 11
6.856767277538104
 21
29.48257736787777
 31
0.0
  0
LINE
  5
7A
330
1F
100
AcDbEntity
  8
Default
100
AcDbLine
 10
-6.338729511945665
 20
28.9893409282824
 30
0.0
 11
-6.225134070170505
 21
28.90772187890711
 31
0.0
  0
ARC
  5
7B
330
1F
100
AcDbEntity
  8
Default
100
AcDbCircle
 10
-5.978995730085551
 20
29.26216651111482
 30
0.0
 40
0.4315264531412024
100
AcDbArc
 50
235.2225793007484
 51
277.7075904873028
  0
ARC
  5
7C
330
1F
100
AcDbEntity
  8
Default
100
AcDbCircle
 10
-8.029341694937237
 20
26.48456394737719
 30
0.0
 40
3.157052107850949
100
AcDbArc
 50
48.10392496064229
 51
58.59389272415433
  0
LINE
  5
7D
330
1F
100
AcDbEntity
  8
Default
100
AcDbLine
 10
-6.384199913750201
 20
29.17909294730999
 30
0.0
 11
-6.856924453736347
 21
29.48257736787777
 31
0.0
  0
SPLINE
  5
7E
330
1F
100
AcDbEntity
  8
Default
100
AcDbSpline
210
0.0
220
0.0
230
1.0
 70
     8
 71
     3
 72
    11
 73
     7
 74
     0
 42
0.0000000001
 43
0.0000000001
 40
0.0
 40
0.0
 40
0.0
 40
0.0
 40
1.214188025933714
 40
2.439691263724169
 40
4.761297182648494
 40
8.828385860723529
 40
8.828385860723529
 40
8.828385860723529
 40
8.828385860723529
 10
-0.0000052636121595
 20
30.2264940450765
 30
0.0
 10
-0.4045053484216012
 20
30.22765680203851
 30
0.0
 10
-1.218481583707778
 20
30.23294018314839
 30
0.0
 10
-2.803339915140022
 20
30.29745164517745
 30
0.0
 10
-5.338717501937786
 20
30.46335690997477
 30
0.0
 10
-7.436529975374093
 20
30.85666853626569
 30
0.0
 10
-8.75717670876076
 20
31.16056234189425
 30
0.0
  0
SPLINE
  5
7F
330
1F
100
AcDbEntity
  8
Default
100
AcDbSpline
210
0.0
220
0.0
230
1.0
 70
     8
 71
     3
 72
    22
 73
    18
 74
     0
 42
0.0000000001
 43
0.0000000001
 40
0.0
 40
0.0
 40
0.0
 40
0.0
 40
0.0935397529848038
 40
0.191976763197454
 40
0.4452020639371633
 40
0.5048266649697931
 40
0.8680746548169804
 40
1.12150162456058
 40
1.258995085087951
 40
1.563620246163732
 40
1.911576306404881
 40
2.16113677711151
 40
2.914244478031624
 40
3.915317125896441
 40
5.747699567943772
 40
7.792372056652619
 40
10.22417760634461
 40
10.22417760634461
 40
10.22417760634461
 40
10.22417760634461
 10
-8.75717670876076
 20
31.16056234189425
 30
0.0
 10
-8.786708526119462
 20
31.16905484759399
 30
0.0
 10
-8.855201619400496
 20
31.16808822917367
 30
0.0
 10
-8.975420573100102
 20
31.07419350544286
 30
0.0
 10
-9.018777355502202
 20
30.93118764341212
 30
0.0
 10
-8.96546368963913
 20
30.7110681457446
 30
0.0
 10
-8.902526731614294
 20
30.4955773290342
 30
0.0
 10
-8.850194814870626
 20
30.2489406376505
 30
0.0
 10
-8.783441958905307
 20
30.02542109919838
 30
0.0
 10
-8.589882176930693
 20
29.82953611995541
 30
0.0
 10
-8.306061323006581
 20
29.72455449049252
 30
0.0
 10
-7.859895408278497
 20
29.65227290236949
 30
0.0
 10
-7.20406880483926
 20
29.53345400737564
 30
0.0
 10
-6.021174145934985
 20
29.35288775593074
 30
0.0
 10
-4.403988088409044
 20
29.18210109953686
 30
0.0
 10
-2.303050710847522
 20
29.07262854644868
 30
0.0
 10
-0.8105471120022472
 20
29.0683583198454
 30
0.0
 10
-0.0000052636121595
 20
29.06881948010708
 30
0.0
  0
SPLINE
  5
80
330
1F
100
AcDbEntity
  8
Default
100
AcDbSpline
210
0.0
220
0.0
230
1.0
 70
     8
 71
     3
 72
    22
 73
    18
 74
     0
 42
0.0000000001
 43
0.0000000001
 40
-10.22417760634461
 40
-10.22417760634461
 40
-10.22417760634461
 40
-10.22417760634461
 40
-7.792372056652619
 40
-5.747699567943772
 40
-3.915317125896441
 40
-2.914244478031624
 40
-2.16113677711151
 40
-1.911576306404881
 40
-1.563620246163732
 40
-1.258995085087951
 40
-1.12150162456058
 40
-0.8680746548169804
 40
-0.5048266649697931
 40
-0.4452020639371633
 40
-0.191976763197454
 40
-0.0935397529848038
 40
0.0
 40
0.0
 40
0.0
 40
0.0
 10
-0.0000052636121595
 20
29.06881948010708
 30
0.0
 10
0.8105365847779282
 20
29.0683583198454
 30
0.0
 10
2.303040183623203
 20
29.07262854644868
 30
0.0
 10
4.403977561184725
 20
29.18210109953686
 30
0.0
 10
6.021163618710666
 20
29.35288775593074
 30
0.0
 10
7.204058277614955
 20
29.53345400737564
 30
0.0
 10
7.859884881054178
 20
29.65227290236949
 30
0.0
 10
8.306050795782276
 20
29.72455449049252
 30
0.0
 10
8.58987164970636
 20
29.82953611995541
 30
0.0
 10
8.783431431680974
 20
30.02542109919838
 30
0.0
 10
8.850184287646321
 20
30.2489406376505
 30
0.0
 10
8.902516204389975
 20
30.4955773290342
 30
0.0
 10
8.965453162414796
 20
30.7110681457446
 30
0.0
 10
9.018766828277869
 20
30.93118764341212
 30
0.0
 10
8.975410045875783
 20
31.07419350544286
 30
0.0
 10
8.855191092176177
 20
31.16808822917367
 30
0.0
 10
8.786697998895143
 20
31.16905484759399
 30
0.0
 10
8.75716618153644
 20
31.16056234189425
 30
0.0
  0
SPLINE
  5
81
330
1F
100
AcDbEntity
  8
Default
100
AcDbSpline
210
0.0
220
0.0
230
1.0
 70
     8
 71
     3
 72
    11
 73
     7
 74
     0
 42
0.0000000001
 43
0.0000000001
 40
-8.828385860723529
 40
-8.828385860723529
 40
-8.828385860723529
 40
-8.828385860723529
 40
-4.761297182648503
 40
-2.439691263724185
 40
-1.214188025933733
 40
0.0
 40
0.0
 40
0.0
 40
0.0
 10
8.75716618153644
 20
31.16056234189425
 30
0.0
 10
7.436519448149774
 20
30.85666853626569
 30
0.0
 10
5.338706974713467
 20
30.46335690997477
 30
0.0
 10
2.803329387915703
 20
30.29745164517745
 30
0.0
 10
1.218471056483459
 20
30.23294018314839
 30
0.0
 10
0.4044948211972681
 20
30.22765680203851
 30
0.0
 10
-0.0000052636121595
 20
30.2264940450765
 30
0.0
  0
SPLINE
  5
82
330
1F
100
AcDbEntity
  8
Default
100
AcDbSpline
210
0.0
220
0.0
230
1.0
 70
    24
 71
     2
 72
     6
 73
     3
 74
     0
 42
0.0000000001
 43
0.0000000001
 40
0.0
 40
0.0
 40
0.0
 40
1.315706620815528
 40
1.315706620815528
 40
1.315706620815528
 10
29.73038188088743
 20
29.0120760734533
 30
0.0
 10
30.34317064065045
 20
28.77278028095474
 30
0.0
 10
30.95595940041347
 20
28.53348448845619
 30
0.0
  0
ARC
  5
83
330
1F
100
AcDbEntity
  8
MAKE2D VISIBLE LINES
100
AcDbCircle
 10
231.8803025763339
 20
-20.10996362483984
 30
0.0
 40
208.0294712853241
100
AcDbArc
 50
166.0055245754379
 51
166.22993685926
  0
SPLINE
  5
84
330
1F
100
AcDbEntity
  8
Default
100
AcDbSpline
210
0.0
220
0.0
230
1.0
 70
    12
 71
     3
 72
    27
 73
    23
 74
     0
 42
0.0000000001
 43
0.0000000001
 40
-12.34794305444288
 40
-12.34794305444288
 40
-12.34794305444288
 40
-12.34794305444288
 40
-11.07487045093276
 40
-7.632928227407522
 40
-5.715077383816216
 40
-4.234632274820855
 40
-1.690111099355139
 40
-0.7088876801336855
 40
0.0
 40
0.0
 40
0.0
 40
0.1161245821545688
 40
0.2183975914342078
 40
0.3079763156920016
 40
0.3742235676346553
 40
0.3742235676346553
 40
0.3742235676346553
 40
0.5716157204351209
 40
0.5716157204351209
 40
0.8216157204351209
 40
0.8216157204351209
 40
0.9919158107346908
 40
0.9919158107346908
 40
0.9919158107346908
 40
0.9919158107346908
 10
-10.16680715695106
 20
75.69794557233575
 30
0.0
 41
1.0
 10
-10.21965782242643
 20
75.20074851073784
 30
0.0
 41
1.0
 10
-10.30227057608537
 20
73.6311896079506
 30
0.0
 41
1.0
 10
-10.41997862382093
 20
71.42337283361738
 30
0.0
 41
1.0
 10
-10.49213598594435
 20
69.1441910651287
 30
0.0
 41
1.0
 10
-10.51150142999294
 20
67.1633844684934
 30
0.0
 41
1.0
 10
-10.43054862825043
 20
65.49465053193506
 30
0.0
 41
1.0
 10
-10.2423105081474
 20
64.09477550741966
 30
0.0
 41
1.0
 10
-10.11376295925775
 20
63.54522643936712
 30
0.0
 41
1.0
 10
-10.02918935855428
 20
63.30518505379222
 30
0.0
 41
1.0
 10
-10.00959188268514
 20
63.2520149097335
 30
0.0
 41
1.0
 10
-9.98241338468555
 20
63.18448804003784
 30
0.0
 41
1.0
 10
-9.937830749147317
 20
63.09187375620356
 30
0.0
 41
1.0
 10
-9.893631554078333
 20
63.01800771482697
 30
0.0
 41
1.0
 10
-9.861878506048392
 20
62.97664974974514
 30
0.0
 41
1.0
 10
-9.845822050540015
 20
62.96141843747883
 30
0.0
 41
1.0
 10
-9.789284639158986
 20
62.91290330228534
 30
0.0
 41
1.0
 10
-9.736423212956659
 20
62.88807614269196
 30
0.0
 41
1.0
 10
-9.631071634476491
 20
62.87554960869925
 30
0.0
 41
1.0
 10
-9.57964965115378
 20
62.90571076250551
 30
0.0
 41
1.0
 10
-9.54217825710294
 20
62.98583505325683
 30
0.0
 41
1.0
 10
-9.545663392084073
 20
63.02081059096377
 30
0.0
 41
1.0
 10
-9.551619413993315
 20
63.03595188068012
 30
0.0
 41
1.0
  0
SPLINE
  5
85
330
1F
100
AcDbEntity
  8
Default
100
AcDbSpline
210
0.0
220
0.0
230
1.0
 70
    12
 71
     2
 72
     6
 73
     3
 74
     0
 42
0.0000000001
 43
0.0000000001
 40
-0.7847090864605429
 40
-0.7847090864605429
 40
-0.7847090864605429
 40
0.0
 40
0.0
 40
0.0
 10
-10.05069945578963
 20
76.55796243839123
 30
0.0
 41
1.0
 10
-10.11613944854196
 20
76.1630827857462
 30
0.0
 41
0.9996199172071438
 10
-10.16680715695106
 20
75.69794557233575
 30
0.0
 41
1.0
  0
SPLINE
  5
86
330
1F
100
AcDbEntity
  8
Default
100
AcDbSpline
210
0.0
220
0.0
230
1.0
 70
     8
 71
     3
 72
    12
 73
     8
 74
     0
 42
0.0000000001
 43
0.0000000001
 40
-0.5076009082732449
 40
-0.5076009082732449
 40
-0.5076009082732449
 40
-0.5076009082732449
 40
-0.3814322183297587
 40
-0.2475491133605145
 40
-0.2012912027849215
 40
-0.1527348915727592
 40
0.0
 40
0.0
 40
0.0
 40
0.0
 10
-9.723027117154537
 20
76.87602913563762
 30
0.0
 10
-9.766291862866133
 20
76.87991824358991
 30
0.0
 10
-9.849912495240837
 20
76.85787654972106
 30
0.0
 10
-9.946363327832877
 20
76.81786084393048
 30
0.0
 10
-9.996528660050764
 20
76.75839583667593
 30
0.0
 10
-10.03036037599671
 20
76.68279918698349
 30
0.0
 10
-10.03967872065446
 20
76.6154347490882
 30
0.0
 10
-10.05069945578963
 20
76.55796243839123
 30
0.0
  0
SPLINE
  5
87
330
1F
100
AcDbEntity
  8
Default
100
AcDbSpline
210
0.0
220
0.0
230
1.0
 70
    12
 71
     2
 72
     8
 73
     5
 74
     0
 42
0.0000000001
 43
0.0000000001
 40
-0.1282201628013348
 40
-0.1282201628013348
 40
-0.1282201628013348
 40
0.0
 40
0.0
 40
0.043318742301032
 40
0.043318742301032
 40
0.043318742301032
 10
-9.597175473234735
 20
76.76263829873844
 30
0.0
 41
1.0
 10
-9.659945830424666
 20
76.78454158906976
 30
0.0
 41
0.9473303484341768
 10
-9.704624641106228
 20
76.837080615058
 30
0.0
 41
1.0
 10
-9.716915002967394
 20
76.85509023165123
 30
0.0
 41
0.9641604803062233
 10
-9.723027117154539
 20
76.87602913563762
 30
0.0
 41
0.9576088648151702
  0
SPLINE
  5
88
330
1F
100
AcDbEntity
  8
Default
100
AcDbSpline
210
0.0
220
0.0
230
1.0
 70
     8
 71
     3
 72
    14
 73
    10
 74
     0
 42
0.0000000001
 43
0.0000000001
 40
-10.1118640375627
 40
-10.1118640375627
 40
-10.1118640375627
 40
-10.1118640375627
 40
-7.352656220994111
 40
-6.166555932487759
 40
-3.620449295513177
 40
-2.259118278458852
 40
-1.094312261690871
 40
-0.4769411130260029
 40
0.0
 40
0.0
 40
0.0
 40
0.0
 10
-0.0001961200900453
 20
79.28778370113616
 30
0.0
 10
-0.9203630642124025
 20
79.2898612517098
 30
0.0
 10
-2.231563917914336
 20
79.05652392477123
 30
0.0
 10
-4.233419832663621
 20
78.2289397311472
 30
0.0
 10
-5.700199800389193
 20
77.36248181382513
 30
0.0
 10
-7.293949633739594
 20
76.78172264803442
 30
0.0
 10
-8.331140814995472
 20
76.59951519916478
 30
0.0
 10
-9.08774460295708
 20
76.64920275776046
 30
0.0
 10
-9.445574256080697
 20
76.70973808241729
 30
0.0
 10
-9.597175473234735
 20
76.76263829873844
 30
0.0
  0
SPLINE
  5
89
330
1F
100
AcDbEntity
  8
Default
100
AcDbSpline
210
0.0
220
0.0
230
1.0
 70
     8
 71
     3
 72
    14
 73
    10
 74
     0
 42
0.0000000001
 43
0.0000000001
 40
0.0
 40
0.0
 40
0.0
 40
0.0
 40
0.4769411130260029
 40
1.094312261690871
 40
2.259118278458852
 40
3.620449295513177
 40
6.166555932487759
 40
7.352656220994111
 40
10.1118640375627
 40
10.1118640375627
 40
10.1118640375627
 40
10.1118640375627
 10
9.596783233054644
 20
76.76263829873844
 30
0.0
 10
9.445182015900606
 20
76.70973808241729
 30
0.0
 10
9.08735236277699
 20
76.64920275776046
 30
0.0
 10
8.330748574815381
 20
76.59951519916478
 30
0.0
 10
7.293557393559503
 20
76.78172264803442
 30
0.0
 10
5.699807560209102
 20
77.36248181382513
 30
0.0
 10
4.233027592483531
 20
78.2289397311472
 30
0.0
 10
2.231171677734245
 20
79.05652392477123
 30
0.0
 10
0.9199708240323119
 20
79.2898612517098
 30
0.0
 10
-0.0001961200900453
 20
79.28778370113616
 30
0.0
  0
SPLINE
  5
8A
330
1F
100
AcDbEntity
  8
Default
100
AcDbSpline
210
0.0
220
0.0
230
1.0
 70
    12
 71
     2
 72
     8
 73
     5
 74
     0
 42
0.0000000001
 43
0.0000000001
 40
-0.0433187423010104
 40
-0.0433187423010104
 40
-0.0433187423010104
 40
0.0
 40
0.0
 40
0.1282201628013348
 40
0.1282201628013348
 40
0.1282201628013348
 10
9.722634876974444
 20
76.87602913563761
 30
0.0
 41
0.9576088648151766
 10
9.716522762787289
 20
76.85509023165122
 30
0.0
 41
0.9641604803062411
 10
9.704232400926138
 20
76.837080615058
 30
0.0
 41
1.0
 10
9.659553590244574
 20
76.78454158906976
 30
0.0
 41
0.9473303484341768
 10
9.596783233054644
 20
76.76263829873844
 30
0.0
 41
1.0
  0
SPLINE
  5
8B
330
1F
100
AcDbEntity
  8
Default
100
AcDbSpline
210
0.0
220
0.0
230
1.0
 70
     8
 71
     3
 72
    12
 73
     8
 74
     0
 42
0.0000000001
 43
0.0000000001
 40
0.0
 40
0.0
 40
0.0
 40
0.0
 40
0.1527348915727592
 40
0.2012912027849215
 40
0.2475491133605145
 40
0.3814322183297587
 40
0.5076009082732449
 40
0.5076009082732449
 40
0.5076009082732449
 40
0.5076009082732449
 10
10.05030721560954
 20
76.55796243839123
 30
0.0
 10
10.03928648047437
 20
76.6154347490882
 30
0.0
 10
10.02996813581662
 20
76.68279918698349
 30
0.0
 10
9.996136419870673
 20
76.75839583667593
 30
0.0
 10
9.945971087652786
 20
76.81786084393048
 30
0.0
 10
9.849520255060746
 20
76.85787654972106
 30
0.0
 10
9.765899622686042
 20
76.87991824358991
 30
0.0
 10
9.722634876974446
 20
76.87602913563762
 30
0.0
  0
SPLINE
  5
8C
330
1F
100
AcDbEntity
  8
Default
100
AcDbSpline
210
0.0
220
0.0
230
1.0
 70
    12
 71
     2
 72
     6
 73
     3
 74
     0
 42
0.0000000001
 43
0.0000000001
 40
0.0
 40
0.0
 40
0.0
 40
0.7847090864605429
 40
0.7847090864605429
 40
0.7847090864605429
 10
10.16641491677097
 20
75.69794557233575
 30
0.0
 41
1.0
 10
10.11574720836188
 20
76.1630827857462
 30
0.0
 41
0.9996199172071438
 10
10.05030721560954
 20
76.55796243839123
 30
0.0
 41
1.0
  0
SPLINE
  5
8D
330
1F
100
AcDbEntity
  8
Default
100
AcDbSpline
210
0.0
220
0.0
230
1.0
 70
    12
 71
     3
 72
    27
 73
    23
 74
     0
 42
0.0000000001
 43
0.0000000001
 40
-0.9919158107346908
 40
-0.9919158107346908
 40
-0.9919158107346908
 40
-0.9919158107346908
 40
-0.8216157204351209
 40
-0.8216157204351209
 40
-0.5716157204351209
 40
-0.5716157204351209
 40
-0.3742235676346553
 40
-0.3742235676346553
 40
-0.3742235676346553
 40
-0.3079763156920016
 40
-0.2183975914342078
 40
-0.1161245821545688
 40
0.0
 40
0.0
 40
0.0
 40
0.7088876801336855
 40
1.690111099355139
 40
4.234632274820855
 40
5.715077383816216
 40
7.632928227407522
 40
11.07487045093276
 40
12.34794305444288
 40
12.34794305444288
 40
12.34794305444288
 40
12.34794305444288
 10
9.551227173813224
 20
63.03595188068012
 30
0.0
 41
1.0
 10
9.545271151903982
 20
63.02081059096377
 30
0.0
 41
1.0
 10
9.541786016922849
 20
62.98583505325683
 30
0.0
 41
1.0
 10
9.579257410973689
 20
62.90571076250551
 30
0.0
 41
1.0
 10
9.6306793942964
 20
62.87554960869925
 30
0.0
 41
1.0
 10
9.736030972776568
 20
62.88807614269196
 30
0.0
 41
1.0
 10
9.788892398978895
 20
62.91290330228534
 30
0.0
 41
1.0
 10
9.845429810359924
 20
62.96141843747883
 30
0.0
 41
1.0
 10
9.861486265868301
 20
62.97664974974514
 30
0.0
 41
1.0
 10
9.893239313898242
 20
63.01800771482697
 30
0.0
 41
1.0
 10
9.937438508967226
 20
63.09187375620356
 30
0.0
 41
1.0
 10
9.98202114450546
 20
63.18448804003784
 30
0.0
 41
1.0
 10
10.00919964250505
 20
63.2520149097335
 30
0.0
 41
1.0
 10
10.02879711837419
 20
63.30518505379222
 30
0.0
 41
1.0
 10
10.11337071907766
 20
63.54522643936712
 30
0.0
 41
1.0
 10
10.24191826796731
 20
64.09477550741966
 30
0.0
 41
1.0
 10
10.43015638807034
 20
65.49465053193506
 30
0.0
 41
1.0
 10
10.51110918981285
 20
67.1633844684934
 30
0.0
 41
1.0
 10
10.49174374576426
 20
69.1441910651287
 30
0.0
 41
1.0
 10
10.41958638364084
 20
71.42337283361738
 30
0.0
 41
1.0
 10
10.30187833590528
 20
73.6311896079506
 30
0.0
 41
1.0
 10
10.21926558224634
 20
75.20074851073784
 30
0.0
 41
1.0
 10
10.16641491677097
 20
75.69794557233575
 30
0.0
 41
1.0
  0
SPLINE
  5
8E
330
1F
100
AcDbEntity
  8
Default
100
AcDbSpline
210
0.0
220
0.0
230
1.0
 70
    12
 71
     2
 72
     6
 73
     3
 74
     0
 42
0.0000000001
 43
0.0000000001
 40
0.0
 40
0.0
 40
0.0
 40
4.878290109995292
 40
4.878290109995292
 40
4.878290109995292
 10
-0.0001961200900388
 20
78.44936110569381
 30
0.0
 41
0.9999918043754388
 10
-2.448446924819756
 20
78.43765334956565
 30
0.0
 41
0.9934760685754098
 10
-4.830408096846519
 20
77.87167627479744
 30
0.0
 41
1.0
  0
SPLINE
  5
8F
330
1F
100
AcDbEntity
  8
Default
100
AcDbSpline
210
0.0
220
0.0
230
1.0
 70
    12
 71
     2
 72
     6
 73
     3
 74
     0
 42
0.0000000001
 43
0.0000000001
 40
-4.878290109995292
 40
-4.878290109995292
 40
-4.878290109995292
 40
0.0
 40
0.0
 40
0.0
 10
4.830015856666428
 20
77.87167627479744
 30
0.0
 41
1.0
 10
2.448054684639665
 20
78.43765334956565
 30
0.0
 41
0.9934760685754098
 10
-0.0001961200900388
 20
78.44936110569381
 30
0.0
 41
0.9999918043754388
  0
SPLINE
  5
90
330
1F
100
AcDbEntity
  8
Default
100
AcDbSpline
210
0.0
220
0.0
230
1.0
 70
    12
 71
     3
 72
    46
 73
    42
 74
     0
 42
0.0000000001
 43
0.0000000001
 40
-15.86148237398441
 40
-15.86148237398441
 40
-15.86148237398441
 40
-15.86148237398441
 40
-15.448121183493
 40
-15.448121183493
 40
-14.948121183493
 40
-14.948121183493
 40
-14.948121183493
 40
-14.78954328516126
 40
-14.65980449474063
 40
-14.4915656808773
 40
-14.27824802498169
 40
-13.89564517931405
 40
-13.89564517931405
 40
-13.89564517931405
 40
-12.67736369473384
 40
-12.67736369473384
 40
-12.67736369473384
 40
-10.47859678300101
 40
-8.465949136993554
 40
-4.7034210821857
 40
-3.270804401605309
 40
-2.109921547423667
 40
-1.162859745537729
 40
-0.4241005593510128
 40
-0.4241005593510128
 40
-0.4241005593510128
 40
0.0
 40
0.0
 40
0.0
 40
0.2509462701711973
 40
0.5001275768196121
 40
1.079181098748561
 40
1.397384519522803
 40
1.578338617390344
 40
1.948993809521346
 40
1.948993809521346
 40
1.948993809521346
 40
2.033873203993569
 40
2.116080232193494
 40
2.283280389040947
 40
2.645534879113056
 40
2.645534879113056
 40
2.645534879113056
 40
2.645534879113056
 10
10.2059511123577
 20
77.66153594608582
 30
0.0
 41
1.0
 10
10.33955517703654
 20
77.69718937852684
 30
0.0
 41
1.0
 10
10.52325968858761
 20
77.6174880670182
 30
0.0
 41
1.0
 10
10.81073703882222
 20
77.53246950867612
 30
0.0
 41
1.0
 10
10.96323443195305
 20
77.47820313263733
 30
0.0
 41
1.0
 10
11.10898377683893
 20
77.41310731339604
 30
0.0
 41
1.0
 10
11.15822593564132
 20
77.39342491975131
 30
0.0
 41
1.0
 10
11.24228406186418
 20
77.34683769807432
 30
0.0
 41
1.0
 10
11.37775582822427
 20
77.27722362403114
 30
0.0
 41
1.0
 10
11.50005247285906
 20
77.15110638840636
 30
0.0
 41
1.0
 10
11.57032544731847
 20
76.9014497104998
 30
0.0
 41
1.0
 10
11.59740773064581
 20
76.70697201178041
 30
0.0
 41
1.0
 10
11.61526843940457
 20
76.57597225679243
 30
0.0
 41
1.0
 10
11.66525855514938
 20
76.17031507520886
 30
0.0
 41
0.999988716404561
 10
11.71404064319102
 20
75.75433564695207
 30
0.0
 41
0.999988716404561
 10
11.76161305221749
 20
75.32804805325276
 30
0.0
 41
1.0
 10
11.85288354352848
 20
74.56643064359528
 30
0.0
 41
1.0
 10
12.02176754273554
 20
73.17240869667424
 30
0.0
 41
1.0
 10
12.24356994683526
 20
70.52368471054237
 30
0.0
 41
1.0
 10
12.36379764192778
 20
68.12290474709863
 30
0.0
 41
1.0
 10
12.32901922204911
 20
66.00332253663896
 30
0.0
 41
1.0
 10
12.23206840984965
 20
64.8267856289865
 30
0.0
 41
1.0
 10
12.07415355170081
 20
63.88914579908452
 30
0.0
 41
1.0
 10
11.89430500133849
 20
63.35454103192131
 30
0.0
 41
1.0
 10
11.7865539689199
 20
63.13148957573019
 30
0.0
 41
1.0
 10
11.72667192664745
 20
63.00215264047673
 30
0.0
 41
0.9938480587755496
 10
11.65005117675311
 20
62.88240120927449
 30
0.0
 41
0.9938480587755496
 10
11.4876173657047
 20
62.70327047132172
 30
0.0
 41
1.0
 10
11.35419121343008
 20
62.5761187813461
 30
0.0
 41
1.0
 10
11.22078668539174
 20
62.47775474459399
 30
0.0
 41
1.0
 10
10.89852020011718
 20
62.3097529733701
 30
0.0
 41
1.0
 10
10.52166777161775
 20
62.23397964044761
 30
0.0
 41
1.0
 10
10.16599663568851
 20
62.18463643298423
 30
0.0
 41
1.0
 10
9.874645180155902
 20
62.18276493221207
 30
0.0
 41
1.0
 10
9.70040670117492
 20
62.27215862133885
 30
0.0
 41
1.0
 10
9.608006354100233
 20
62.36490202182551
 30
0.0
 41
1.0
 10
9.582642006137739
 20
62.39216362378792
 30
0.0
 41
1.0
 10
9.548932688606804
 20
62.43648415752818
 30
0.0
 41
1.0
 10
9.495429853387428
 20
62.53493091985154
 30
0.0
 41
1.0
 10
9.447430868901868
 20
62.73580034779109
 30
0.0
 41
1.0
 10
9.487271214558454
 20
62.91560477166211
 30
0.0
 41
1.0
 10
9.543333500226986
 20
63.02223642196281
 30
0.0
 41
1.0
  0
SPLINE
  5
91
330
1F
100
AcDbEntity
  8
Default
100
AcDbSpline
210
0.0
220
0.0
230
1.0
 70
     8
 71
     3
 72
    12
 73
     8
 74
     0
 42
0.0000000001
 43
0.0000000001
 40
0.0
 40
0.0
 40
0.0
 40
0.0
 40
0.052417229037855
 40
0.1074375238630979
 40
0.2185210975122434
 40
0.346423130085688
 40
0.6046057894628148
 40
0.6046057894628148
 40
0.6046057894628148
 40
0.6046057894628148
 10
9.638857224611762
 20
77.50305005371516
 30
0.0
 10
9.650294903796713
 20
77.48947318437828
 30
0.0
 10
9.67612506608085
 20
77.46523598339999
 30
0.0
 10
9.746256752081472
 20
77.43665482294935
 30
0.0
 10
9.845576280794397
 20
77.45099890052705
 30
0.0
 10
9.99407286815812
 20
77.52744104510094
 30
0.0
 10
10.12296403804944
 20
77.63939010752586
 30
0.0
 10
10.2059511123577
 20
77.66153594608579
 30
0.0
  0
LINE
  5
92
330
1F
100
AcDbEntity
  8
Default
100
AcDbLine
 10
9.588664787471636
 20
77.56262998682317
 30
0.0
 11
9.638857224611762
 21
77.50305005371516
 31
0.0
  0
SPLINE
  5
93
330
1F
100
AcDbEntity
  8
Default
100
AcDbSpline
210
0.0
220
0.0
230
1.0
 70
    12
 71
     2
 72
     6
 73
     3
 74
     0
 42
0.0000000001
 43
0.0000000001
 40
-0.7644817079169229
 40
-0.7644817079169229
 40
-0.7644817079169229
 40
-0.6945311587242259
 40
-0.6945311587242259
 40
-0.6945311587242259
 10
9.575599231986827
 20
77.63192194267494
 30
0.0
 41
0.9999992040962243
 10
9.581981644050714
 20
77.59753883917102
 30
0.0
 41
0.9999351352388464
 10
9.58866478747164
 20
77.56262998682318
 30
0.0
 41
0.9998846788112339
  0
SPLINE
  5
94
330
1F
100
AcDbEntity
  8
Default
100
AcDbSpline
210
0.0
220
0.0
230
1.0
 70
     8
 71
     3
 72
    19
 73
    15
 74
     0
 42
0.0000000001
 43
0.0000000001
 40
0.0
 40
0.0
 40
0.0
 40
0.0
 40
2.232247940101095
 40
4.462819732511551
 40
6.899475607671127
 40
8.91937015223986
 40
9.019515739888016
 40
9.090866166954358
 40
9.218595657282524
 40
9.238659435547545
 40
9.470060216773138
 40
9.710123961932329
 40
10.86335533494464
 40
11.51386883183247
 40
11.51386883183247
 40
11.51386883183247
 40
11.51386883183247
 10
-0.0001961200900453
 20
81.73361323447767
 30
0.0
 10
0.7437264804175285
 20
81.7335182408269
 30
0.0
 10
2.230857342580684
 20
81.66400632544799
 30
0.0
 10
4.509798603172193
 20
81.33853016386263
 30
0.0
 10
6.675047764326813
 20
80.7992993033983
 30
0.0
 10
8.112141389010496
 20
80.30604366084577
 30
0.0
 10
8.790789877774408
 20
80.03520060787145
 30
0.0
 10
8.87007461314564
 20
79.97394295606767
 30
0.0
 10
8.924709856921787
 20
79.92209976466151
 30
0.0
 10
8.958045771129285
 20
79.79855279849525
 30
0.0
 10
8.999457584141972
 20
79.64090705225661
 30
0.0
 10
9.153515004076688
 20
79.12137674747413
 30
0.0
 10
9.373908135990412
 20
78.47705390798967
 30
0.0
 10
9.536041781239497
 20
77.8450244358676
 30
0.0
 10
9.575599231986821
 20
77.63192194267495
 30
0.0
  0
SPLINE
  5
95
330
1F
100
AcDbEntity
  8
Default
100
AcDbSpline
210
0.0
220
0.0
230
1.0
 70
     8
 71
     3
 72
    19
 73
    15
 74
     0
 42
0.0000000001
 43
0.0000000001
 40
-11.51386883183247
 40
-11.51386883183247
 40
-11.51386883183247
 40
-11.51386883183247
 40
-10.86335533494464
 40
-9.710123961932329
 40
-9.470060216773138
 40
-9.238659435547545
 40
-9.218595657282524
 40
-9.090866166954358
 40
-9.019515739888016
 40
-8.91937015223986
 40
-6.899475607671127
 40
-4.462819732511551
 40
-2.232247940101095
 40
0.0
 40
0.0
 40
0.0
 40
0.0
 10
-9.575991472166912
 20
77.63192194267495
 30
0.0
 10
-9.536434021419588
 20
77.8450244358676
 30
0.0
 10
-9.374300376170503
 20
78.47705390798967
 30
0.0
 10
-9.153907244256779
 20
79.12137674747413
 30
0.0
 10
-8.999849824322062
 20
79.64090705225661
 30
0.0
 10
-8.958438011309376
 20
79.79855279849525
 30
0.0
 10
-8.925102097101878
 20
79.92209976466151
 30
0.0
 10
-8.87046685332573
 20
79.97394295606767
 30
0.0
 10
-8.791182117954499
 20
80.03520060787145
 30
0.0
 10
-8.112533629190587
 20
80.30604366084577
 30
0.0
 10
-6.675440004506903
 20
80.7992993033983
 30
0.0
 10
-4.510190843352284
 20
81.33853016386263
 30
0.0
 10
-2.231249582760775
 20
81.66400632544799
 30
0.0
 10
-0.7441187205976192
 20
81.7335182408269
 30
0.0
 10
-0.0001961200900453
 20
81.73361323447767
 30
0.0
  0
SPLINE
  5
96
330
1F
100
AcDbEntity
  8
Default
100
AcDbSpline
210
0.0
220
0.0
230
1.0
 70
    12
 71
     2
 72
     6
 73
     3
 74
     0
 42
0.0000000001
 43
0.0000000001
 40
0.6945311587242328
 40
0.6945311587242328
 40
0.6945311587242328
 40
0.7644817079169229
 40
0.7644817079169229
 40
0.7644817079169229
 10
-9.58905702765171
 20
77.56262998682318
 30
0.0
 41
0.9998846788112339
 10
-9.582373884230789
 20
77.59753883917102
 30
0.0
 41
0.9999351352388464
 10
-9.575991472166905
 20
77.63192194267494
 30
0.0
 41
0.9999992040962243
  0
LINE
  5
97
330
1F
100
AcDbEntity
  8
Default
100
AcDbLine
 10
-9.639249464791853
 20
77.50305005371516
 30
0.0
 11
-9.589057027651712
 21
77.56262998682317
 31
0.0
  0
SPLINE
  5
98
330
1F
100
AcDbEntity
  8
Default
100
AcDbSpline
210
0.0
220
0.0
230
1.0
 70
     8
 71
     3
 72
    12
 73
     8
 74
     0
 42
0.0000000001
 43
0.0000000001
 40
-0.6046057894628148
 40
-0.6046057894628148
 40
-0.6046057894628148
 40
-0.6046057894628148
 40
-0.346423130085688
 40
-0.2185210975122434
 40
-0.1074375238630979
 40
-0.052417229037855
 40
0.0
 40
0.0
 40
0.0
 40
0.0
 10
-10.20634335253779
 20
77.66153594608579
 30
0.0
 10
-10.12335627822953
 20
77.63939010752586
 30
0.0
 10
-9.994465108338211
 20
77.52744104510094
 30
0.0
 10
-9.845968520974488
 20
77.45099890052705
 30
0.0
 10
-9.746648992261562
 20
77.43665482294935
 30
0.0
 10
-9.67651730626094
 20
77.46523598339999
 30
0.0
 10
-9.650687143976803
 20
77.48947318437828
 30
0.0
 10
-9.639249464791853
 20
77.50305005371516
 30
0.0
  0
SPLINE
  5
99
330
1F
100
AcDbEntity
  8
Default
100
AcDbSpline
210
0.0
220
0.0
230
1.0
 70
    12
 71
     3
 72
    46
 73
    42
 74
     0
 42
0.0000000001
 43
0.0000000001
 40
-2.645534879113056
 40
-2.645534879113056
 40
-2.645534879113056
 40
-2.645534879113056
 40
-2.283280389040947
 40
-2.116080232193494
 40
-2.033873203993569
 40
-1.948993809521346
 40
-1.948993809521346
 40
-1.948993809521346
 40
-1.578338617390344
 40
-1.397384519522803
 40
-1.079181098748561
 40
-0.5001275768196121
 40
-0.2509462701711973
 40
0.0
 40
0.0
 40
0.0
 40
0.4241005593510128
 40
0.4241005593510128
 40
0.4241005593510128
 40
1.162859745537729
 40
2.109921547423667
 40
3.270804401605309
 40
4.7034210821857
 40
8.465949136993554
 40
10.47859678300101
 40
12.67736369473384
 40
12.67736369473384
 40
12.67736369473384
 40
13.89564517931405
 40
13.89564517931405
 40
13.89564517931405
 40
14.27824802498169
 40
14.4915656808773
 40
14.65980449474063
 40
14.78954328516126
 40
14.948121183493
 40
14.948121183493
 40
14.948121183493
 40
15.448121183493
 40
15.448121183493
 40
15.86148237398441
 40
15.86148237398441
 40
15.86148237398441
 40
15.86148237398441
 10
-9.543725740407076
 20
63.02223642196281
 30
0.0
 41
1.0
 10
-9.487663454738545
 20
62.91560477166211
 30
0.0
 41
1.0
 10
-9.447823109081959
 20
62.73580034779109
 30
0.0
 41
1.0
 10
-9.495822093567519
 20
62.53493091985154
 30
0.0
 41
1.0
 10
-9.549324928786895
 20
62.43648415752818
 30
0.0
 41
1.0
 10
-9.58303424631783
 20
62.39216362378792
 30
0.0
 41
1.0
 10
-9.608398594280324
 20
62.36490202182551
 30
0.0
 41
1.0
 10
-9.70079894135501
 20
62.27215862133885
 30
0.0
 41
1.0
 10
-9.875037420335993
 20
62.18276493221207
 30
0.0
 41
1.0
 10
-10.1663888758686
 20
62.18463643298423
 30
0.0
 41
1.0
 10
-10.52206001179784
 20
62.23397964044761
 30
0.0
 41
1.0
 10
-10.89891244029727
 20
62.3097529733701
 30
0.0
 41
1.0
 10
-11.22117892557183
 20
62.47775474459399
 30
0.0
 41
1.0
 10
-11.35458345361017
 20
62.5761187813461
 30
0.0
 41
1.0
 10
-11.48800960588479
 20
62.70327047132172
 30
0.0
 41
1.0
 10
-11.65044341693321
 20
62.88240120927449
 30
0.0
 41
0.9938480587755496
 10
-11.72706416682754
 20
63.00215264047673
 30
0.0
 41
0.9938480587755496
 10
-11.78694620909999
 20
63.13148957573019
 30
0.0
 41
1.0
 10
-11.89469724151858
 20
63.35454103192131
 30
0.0
 41
1.0
 10
-12.0745457918809
 20
63.88914579908452
 30
0.0
 41
1.0
 10
-12.23246065002974
 20
64.8267856289865
 30
0.0
 41
1.0
 10
-12.3294114622292
 20
66.00332253663896
 30
0.0
 41
1.0
 10
-12.36418988210787
 20
68.12290474709863
 30
0.0
 41
1.0
 10
-12.24396218701535
 20
70.52368471054237
 30
0.0
 41
1.0
 10
-12.02215978291563
 20
73.17240869667424
 30
0.0
 41
1.0
 10
-11.85327578370858
 20
74.56643064359528
 30
0.0
 41
1.0
 10
-11.76200529239758
 20
75.32804805325276
 30
0.0
 41
1.0
 10
-11.71443288337112
 20
75.75433564695207
 30
0.0
 41
0.999988716404561
 10
-11.66565079532946
 20
76.17031507520886
 30
0.0
 41
0.999988716404561
 10
-11.61566067958466
 20
76.57597225679243
 30
0.0
 41
1.0
 10
-11.5977999708259
 20
76.70697201178041
 30
0.0
 41
1.0
 10
-11.57071768749856
 20
76.9014497104998
 30
0.0
 41
1.0
 10
-11.50044471303915
 20
77.15110638840636
 30
0.0
 41
1.0
 10
-11.37814806840436
 20
77.27722362403114
 30
0.0
 41
1.0
 10
-11.24267630204427
 20
77.34683769807432
 30
0.0
 41
1.0
 10
-11.15861817582141
 20
77.39342491975131
 30
0.0
 41
1.0
 10
-11.10937601701902
 20
77.41310731339604
 30
0.0
 41
1.0
 10
-10.96362667213314
 20
77.47820313263733
 30
0.0
 41
1.0
 10
-10.81112927900231
 20
77.53246950867612
 30
0.0
 41
1.0
 10
-10.5236519287677
 20
77.6174880670182
 30
0.0
 41
1.0
 10
-10.33994741721663
 20
77.69718937852684
 30
0.0
 41
1.0
 10
-10.20634335253779
 20
77.66153594608582
 30
0.0
 41
1.0
  0
SPLINE
  5
9A
330
1F
100
AcDbEntity
  8
Default
100
AcDbSpline
210
0.0
220
0.0
230
1.0
 70
    12
 71
     2
 72
     6
 73
     3
 74
     0
 42
0.0000000001
 43
0.0000000001
 40
0.0
 40
0.0
 40
0.0
 40
0.5806136477528836
 40
0.5806136477528836
 40
0.5806136477528836
 10
-9.556034135472096
 20
63.04419174130714
 30
0.0
 41
1.0
 10
-9.717006334856322
 20
63.31896647270074
 30
0.0
 41
0.8725415371224636
 10
-10.03539686706339
 20
63.3253438536621
 30
0.0
 41
1.0
  0
SPLINE
  5
9B
330
1F
100
AcDbEntity
  8
Default
100
AcDbSpline
210
0.0
220
0.0
230
1.0
 70
    12
 71
     2
 72
     6
 73
     3
 74
     0
 42
0.0000000001
 43
0.0000000001
 40
0.0
 40
0.0
 40
0.0
 40
0.5806136477528836
 40
0.5806136477528836
 40
0.5806136477528836
 10
9.555641895292005
 20
63.04419174130714
 30
0.0
 41
1.0
 10
9.71661409467623
 20
63.31896647270074
 30
0.0
 41
0.8725415371224636
 10
10.0350046268833
 20
63.3253438536621
 30
0.0
 41
1.0
  0
SPLINE
  5
9C
330
1F
100
AcDbEntity
  8
MAKE2D VISIBLE LINES
100
AcDbSpline
210
0.0
220
0.0
230
1.0
 70
    12
 71
     2
 72
     6
 73
     3
 74
     0
 42
0.0000000001
 43
0.0000000001
 40
0.0
 40
0.0
 40
0.0
 40
1.403859252261666
 40
1.403859252261666
 40
1.403859252261666
 10
27.77939289877826
 20
12.1000938648358
 30
0.0
 41
1.0
 10
27.07746327264746
 20
12.10009406614341
 30
0.0
 41
0.9999999999999891
 10
26.37553364651662
 20
12.10009406125506
 30
0.0
 41
1.0
  0
SPLINE
  5
9D
330
1F
100
AcDbEntity
  8
MAKE2D VISIBLE LINES
100
AcDbSpline
210
0.0
220
0.0
230
1.0
 70
    24
 71
     2
 72
     6
 73
     3
 74
     0
 42
0.0000000001
 43
0.0000000001
 40
0.0
 40
0.0
 40
0.0
 40
16.83855038983403
 40
16.83855038983403
 40
16.83855038983403
 10
27.80389717611858
 20
11.60008971646736
 30
0.0
 10
36.2231723710356
 20
11.60008971646736
 30
0.0
 10
44.64244756595261
 20
11.60008971646736
 30
0.0
  0
SPLINE
  5
9E
330
1F
100
AcDbEntity
  8
MAKE2D VISIBLE LINES
100
AcDbSpline
210
0.0
220
0.0
230
1.0
 70
    24
 71
     2
 72
     6
 73
     3
 74
     0
 42
0.0000000001
 43
0.0000000001
 40
0.0
 40
0.0
 40
0.0
 40
30.38675865744509
 40
30.38675865744509
 40
30.38675865744509
 10
44.11594608850736
 20
30.52012072473306
 30
0.0
 10
44.53857970814607
 20
15.33262072473291
 30
0.0
 10
44.96121332778477
 20
0.1451207247327524
 30
0.0
  0
SPLINE
  5
9F
330
1F
100
AcDbEntity
  8
MAKE2D VISIBLE LINES
100
AcDbSpline
210
0.0
220
0.0
230
1.0
 70
     8
 71
     3
 72
    14
 73
    10
 74
     0
 42
0.0000000001
 43
0.0000000001
 40
0.0
 40
0.0
 40
0.0
 40
0.0
 40
3.371644092444406
 40
7.417604482609237
 40
14.39108908695447
 40
21.17696221667364
 40
24.22812600268949
 40
25.46929908936274
 40
29.62963016469143
 40
29.62963016469143
 40
29.62963016469143
 40
29.62963016469143
 10
25.67453278690717
 20
0.1607677600808604
 30
0.0
 10
25.67469284029235
 20
1.284631059088214
 30
0.0
 10
25.71537044321523
 20
3.757224827708234
 30
0.0
 10
25.96979318822611
 20
8.548393001895572
 30
0.0
 10
26.60176122667971
 20
14.45326864425793
 30
0.0
 10
27.57338881085931
 20
19.97506570326149
 30
0.0
 10
28.39039182944397
 20
23.57673864373481
 30
0.0
 10
29.0607562890117
 20
26.31334321204817
 30
0.0
 10
29.49976494256125
 20
28.05954995484163
 30
0.0
 10
29.82985202889868
 20
29.40646149682977
 30
0.0
  0
SPLINE
  5
A0
330
1F
100
AcDbEntity
  8
MAKE2D VISIBLE LINES
100
AcDbSpline
210
0.0
220
0.0
230
1.0
 70
    12
 71
     2
 72
     6
 73
     3
 74
     0
 42
0.0000000001
 43
0.0000000001
 40
0.0
 40
0.0
 40
0.0
 40
0.090404810843309
 40
0.090404810843309
 40
0.090404810843309
 10
24.54876064706033
 20
0.0791277098247809
 30
0.0
 41
1.0
 10
24.54839935845868
 20
0.0228522163179636
 30
0.0
 41
0.7293564259668089
 10
24.60453667015366
 20
0.0188944474323378
 30
0.0
 41
1.0
  0
SPLINE
  5
A1
330
1F
100
AcDbEntity
  8
MAKE2D VISIBLE LINES
100
AcDbSpline
210
0.0
220
0.0
230
1.0
 70
    24
 71
     2
 72
     6
 73
     3
 74
     0
 42
0.0000000001
 43
0.0000000001
 40
0.0
 40
0.0
 40
0.0
 40
0.0839130223841449
 40
0.0839130223841449
 40
0.0839130223841449
 10
24.54965849648583
 20
0.1620821984907345
 30
0.0
 10
24.54920957177308
 20
0.1206049541577577
 30
0.0
 10
24.54876064706033
 20
0.0791277098247809
 30
0.0
  0
SPLINE
  5
A2
330
1F
100
AcDbEntity
  8
MAKE2D VISIBLE LINES
100
AcDbSpline
210
0.0
220
0.0
230
1.0
 70
    12
 71
     2
 72
    10
 73
     7
 74
     0
 42
0.0000000001
 43
0.0000000001
 40
0.0
 40
0.0
 40
0.0
 40
0.0012059624370117
 40
0.0012059624370117
 40
0.5639777512017126
 40
0.5639777512017126
 40
1.126246626254595
 40
1.126246626254595
 40
1.126246626254595
 10
25.67377363564177
 20
0.1579775759021756
 30
0.0
 41
0.973127657251115
 10
25.674126931423
 20
0.1602787797448552
 30
0.0
 41
0.9172118817925589
 10
25.67453278690724
 20
0.1607677645335316
 30
0.0
 41
1.0
 10
25.39341573808696
 20
0.1737390049884192
 30
0.0
 41
0.9995277311970963
 10
25.11203278691031
 20
0.1694166209848902
 30
0.0
 41
1.0
 10
24.83090820672822
 20
0.1730769907285003
 30
0.0
 41
0.9996144054426909
 10
24.54965849648583
 20
0.1620821984907345
 30
0.0
 41
1.0
  0
SPLINE
  5
A3
330
1F
100
AcDbEntity
  8
MAKE2D VISIBLE LINES
100
AcDbSpline
210
0.0
220
0.0
230
1.0
 70
    24
 71
     2
 72
     6
 73
     3
 74
     0
 42
0.0000000001
 43
0.0000000001
 40
0.0
 40
0.0
 40
0.0
 40
0.0839130223841467
 40
0.0839130223841467
 40
0.0839130223841467
 10
25.67373714459095
 20
0.0718558459839276
 30
0.0
 10
25.67375539011636
 20
0.1149167109430516
 30
0.0
 10
25.67377363564177
 20
0.1579775759021756
 30
0.0
  0
SPLINE
  5
A4
330
1F
100
AcDbEntity
  8
MAKE2D VISIBLE LINES
100
AcDbSpline
210
0.0
220
0.0
230
1.0
 70
    12
 71
     2
 72
     6
 73
     3
 74
     0
 42
0.0000000001
 43
0.0000000001
 40
0.0
 40
0.0
 40
0.0
 40
0.0904048108432994
 40
0.0904048108432994
 40
0.0904048108432994
 10
25.61718711756664
 20
0.0123486607531262
 30
0.0
 41
1.0
 10
25.67337090224268
 20
0.0155803844982103
 30
0.0
 41
0.7293564259669071
 10
25.67373714459095
 20
0.0718558459839276
 30
0.0
 41
1.0
  0
SPLINE
  5
A5
330
1F
100
AcDbEntity
  8
MAKE2D VISIBLE LINES
100
AcDbSpline
210
0.0
220
0.0
230
1.0
 70
    12
 71
     2
 72
     8
 73
     5
 74
     0
 42
0.0000000001
 43
0.0000000001
 40
0.0
 40
0.0
 40
0.0
 40
0.5605711386892491
 40
0.5605711386892491
 40
1.125284724561671
 40
1.125284724561671
 40
1.125284724561671
 10
28.933139979588
 20
30.46708352521952
 30
0.0
 41
1.0
 10
29.20809369208706
 20
30.41223737084151
 30
0.0
 41
0.9995454162833318
 10
29.47924195281471
 20
30.34091931301997
 30
0.0
 41
1.0
 10
29.75441193102321
 20
30.27725441873254
 30
0.0
 41
0.9995639637041823
 10
30.02534396667694
 20
30.19745737788248
 30
0.0
 41
1.0
  0
SPLINE
  5
A6
330
1F
100
AcDbEntity
  8
MAKE2D VISIBLE LINES
100
AcDbSpline
210
0.0
220
0.0
230
1.0
 70
    24
 71
     2
 72
     6
 73
     3
 74
     0
 42
0.0000000001
 43
0.0000000001
 40
0.0
 40
0.0
 40
0.0
 40
16.79529747821434
 40
16.79529747821434
 40
16.79529747821434
 10
44.62853358617499
 20
12.10009387622478
 30
0.0
 10
36.23088484706781
 20
12.10009387622478
 30
0.0
 10
27.83323610796064
 20
12.10009387622478
 30
0.0
  0
SPLINE
  5
A7
330
1F
100
AcDbEntity
  8
MAKE2D VISIBLE LINES
100
AcDbSpline
210
0.0
220
0.0
230
1.0
 70
    24
 71
     2
 72
     6
 73
     3
 74
     0
 42
0.0000000001
 43
0.0000000001
 40
0.0
 40
0.0
 40
0.0
 40
30.3867586574451
 40
30.3867586574451
 40
30.3867586574451
 10
46.08577799047794
 20
0.1764148043318752
 30
0.0
 10
45.66314437083923
 20
15.36391480433203
 30
0.0
 10
45.24051075120052
 20
30.55141480433219
 30
0.0
  0
SPLINE
  5
A8
330
1F
100
AcDbEntity
  8
MAKE2D VISIBLE LINES
100
AcDbSpline
210
0.0
220
0.0
230
1.0
 70
    15
 71
     2
 72
    23
 73
    20
 74
     0
 42
0.0000000001
 43
0.0000000001
 40
-2.0
 40
-2.0
 40
-2.0
 40
-1.0
 40
0.0
 40
0.0
 40
0.0904048108433009
 40
0.0904048108433009
 40
0.1743178332274487
 40
0.1743178332274487
 40
0.1743809051839245
 40
0.1743809051839245
 40
0.7349776064963942
 40
0.7349776064963942
 40
1.297659929825808
 40
1.297659929825808
 40
1.299882009107804
 40
1.299882009107804
 40
1.38379503149195
 40
1.38379503149195
 40
1.474199842335256
 40
1.474199842335256
 40
1.474199842335256
 10
46.03163758482705
 20
0.0298295808841267
 30
0.0
 41
1.0
 10
45.7986570560775
 20
0.0083953745780407
 30
0.0
 41
1.0
 10
45.25316983493506
 20
-0.0067842954626387
 30
0.0
 41
1.0
 10
45.01935785158597
 20
0.001660135764519
 30
0.0
 41
1.0
 10
44.96311786582345
 20
0.0036913177646259
 30
0.0
 41
0.7293564259669929
 10
44.96154994446652
 20
0.0599461248614972
 30
0.0
 41
1.0
 10
44.96088713838093
 20
0.1021944569722936
 30
0.0
 41
1.0
 10
44.96022433229535
 20
0.14444278908309
 30
0.0
 41
1.0
 10
44.96121472165601
 20
0.1450885116585103
 30
0.0
 41
0.9692569440210425
 10
44.96121332778477
 20
0.1451207247327287
 30
0.0
 41
1.002580492774072
 10
45.24090361640257
 20
0.1646255846830727
 30
0.0
 41
1.002191700306361
 10
45.52226205267381
 20
0.1685576879745016
 30
0.0
 41
1.002580492774072
 10
45.80441920880947
 20
0.1803201324535391
 30
0.0
 41
1.002193202240502
 10
46.08577799047794
 20
0.1764148043318817
 30
0.0
 41
1.002580492774072
 10
46.08489053047353
 20
0.1756672292314039
 30
0.0
 41
0.9389615055942542
 10
46.0837280075538
 20
0.1753990284311766
 30
0.0
 41
0.999467572685641
 10
46.0849213073576
 20
0.1333196164462002
 30
0.0
 41
0.999467572685641
 10
46.08611460716138
 20
0.0912402044612239
 30
0.0
 41
0.999467572685641
 10
46.08767757658512
 20
0.0349852595632893
 30
0.0
 41
0.7289680966837175
 10
46.03163758482705
 20
0.0298295808841267
 30
0.0
 41
0.999467572685641
  0
SPLINE
  5
A9
330
1F
100
AcDbEntity
  8
MAKE2D VISIBLE LINES
100
AcDbSpline
210
0.0
220
0.0
230
1.0
 70
    12
 71
     2
 72
     7
 73
     4
 74
     0
 42
0.0000000001
 43
0.0000000001
 40
-2.0
 40
-2.0
 40
-2.0
 40
-1.0
 40
0.0
 40
0.0
 40
0.0
 10
25.61718711756664
 20
0.0123486607531262
 30
0.0
 41
1.0
 10
25.38360878448118
 20
-0.0010868998756549
 30
0.0
 41
1.0
 10
24.83792179657782
 20
0.0024404284592082
 30
0.0
 41
1.0
 10
24.60453667015366
 20
0.0188944474323378
 30
0.0
 41
1.0
  0
SPLINE
  5
AA
330
1F
100
AcDbEntity
  8
MAKE2D VISIBLE LINES
100
AcDbSpline
210
0.0
220
0.0
230
1.0
 70
     8
 71
     3
 72
    12
 73
     8
 74
     0
 42
0.0000000001
 43
0.0000000001
 40
0.0
 40
0.0
 40
0.0
 40
0.0
 40
1.81468345805254
 40
2.84281519483517
 40
3.650614397867031
 40
3.926096151799798
 40
4.103225021664301
 40
4.103225021664301
 40
4.103225021664301
 40
4.103225021664301
 10
-9.813574271008346
 20
77.95953059703308
 30
0.0
 10
-9.8522083262623
 20
78.56317497839096
 30
0.0
 10
-9.906133450343066
 20
79.5093127343436
 30
0.0
 10
-9.996737847343786
 20
80.72278975487339
 30
0.0
 10
-10.06686866850418
 20
81.42328412071528
 30
0.0
 10
-10.12827534265643
 20
81.83896574311132
 30
0.0
 10
-10.15873469021198
 20
81.98689519420343
 30
0.0
 10
-10.176113966027
 20
82.04335338534172
 30
0.0
  0
ARC
  5
AB
330
1F
100
AcDbEntity
  8
MAKE2D VISIBLE LINES
100
AcDbCircle
 10
-51.98784796648452
 20
75.26032015034438
 30
0.0
 40
42.26056197894731
100
AcDbArc
 50
2.964118124343898
 51
3.66201260239671
  0
SPLINE
  5
AC
330
1F
100
AcDbEntity
  8
MAKE2D VISIBLE LINES
100
AcDbSpline
210
0.0
220
0.0
230
1.0
 70
    12
 71
     2
 72
     6
 73
     3
 74
     0
 42
0.0000000001
 43
0.0000000001
 40
0.0
 40
0.0
 40
0.0
 40
2.639642129036065
 40
2.639642129036065
 40
2.639642129036065
 10
8.972240281637518
 20
81.69135386650935
 30
0.0
 41
1.0
 10
7.75135542759881
 20
81.18628595585987
 30
0.0
 41
0.9983991760168243
 10
6.481239720299111
 20
80.82233608120745
 30
0.0
 41
1.0
  0
SPLINE
  5
AD
330
1F
100
AcDbEntity
  8
MAKE2D VISIBLE LINES
100
AcDbSpline
210
0.0
220
0.0
230
1.0
 70
    12
 71
     2
 72
     6
 73
     3
 74
     0
 42
0.0000000001
 43
0.0000000001
 40
0.0
 40
0.0
 40
0.0
 40
1.670982898197756
 40
1.670982898197756
 40
1.670982898197756
 10
7.335837607012095
 20
80.5615182014676
 30
0.0
 41
1.0
 10
8.13171764866866
 20
80.81685251915539
 30
0.0
 41
0.9993830291017615
 10
8.907709473455341
 20
81.1274283430062
 30
0.0
 41
1.0
  0
SPLINE
  5
AE
330
1F
100
AcDbEntity
  8
MAKE2D VISIBLE LINES
100
AcDbSpline
210
0.0
220
0.0
230
1.0
 70
     8
 71
     3
 72
    13
 73
     9
 74
     0
 42
0.0000000001
 43
0.0000000001
 40
0.0
 40
0.0
 40
0.0
 40
0.0
 40
0.2067584192540229
 40
0.4192453923000553
 40
0.865275026023163
 40
1.203943889511355
 40
1.700608404510375
 40
3.242332451750137
 40
3.242332451750137
 40
3.242332451750137
 40
3.242332451750137
 10
9.713856636724174
 20
82.88959781294542
 30
0.0
 10
9.642464765711004
 20
82.88909905237065
 30
0.0
 10
9.507390241392272
 20
82.86467011032744
 30
0.0
 10
9.24676270542249
 20
82.71532265523766
 30
0.0
 10
9.09205183625025
 20
82.40863396869736
 30
0.0
 10
9.011087989075673
 20
81.98999045571311
 30
0.0
 10
8.90324443490114
 20
81.2042023169921
 30
0.0
 10
8.8543231058635
 20
80.52649293158528
 30
0.0
 10
8.816551398298365
 20
80.01393933035439
 30
0.0
  0
SPLINE
  5
AF
330
1F
100
AcDbEntity
  8
MAKE2D VISIBLE LINES
100
AcDbSpline
210
0.0
220
0.0
230
1.0
 70
    12
 71
     2
 72
     6
 73
     3
 74
     0
 42
0.0000000001
 43
0.0000000001
 40
-0.5568638308178262
 40
-0.5568638308178262
 40
-0.5568638308178262
 40
0.0
 40
0.0
 40
0.0
 10
10.18428889678718
 20
82.63483503802618
 30
0.0
 41
1.0
 10
10.01822396413707
 20
82.88904744810436
 30
0.0
 41
0.8799702168589444
 10
9.713856636724174
 20
82.88959781294542
 30
0.0
 41
1.0
  0
SPLINE
  5
B0
330
1F
100
AcDbEntity
  8
MAKE2D VISIBLE LINES
100
AcDbSpline
210
0.0
220
0.0
230
1.0
 70
    12
 71
     2
 72
     8
 73
     5
 74
     0
 42
0.0000000001
 43
0.0000000001
 40
0.0
 40
0.0
 40
0.0
 40
0.3672811599961145
 40
0.3672811599961145
 40
0.6930431580149942
 40
0.6930431580149942
 40
0.6930431580149942
 10
10.16031740672946
 20
81.98524485244027
 30
0.0
 41
1.0
 10
10.2760153216112
 20
82.13652912865227
 30
0.0
 41
0.9471877602395404
 10
10.27601427296769
 20
82.32698368946892
 30
0.0
 41
1.0
 10
10.27601492677218
 20
82.49457435015843
 30
0.0
 41
0.9583749231959333
 10
10.18428889678718
 20
82.63483503802618
 30
0.0
 41
1.0
  0
SPLINE
  5
B1
330
1F
100
AcDbEntity
  8
MAKE2D VISIBLE LINES
100
AcDbSpline
210
0.0
220
0.0
230
1.0
 70
     8
 71
     3
 72
    12
 73
     8
 74
     0
 42
0.0000000001
 43
0.0000000001
 40
0.0
 40
0.0
 40
0.0
 40
0.0
 40
1.81468345805254
 40
2.84281519483517
 40
3.650614397867031
 40
3.926096151799798
 40
4.103225021664301
 40
4.103225021664301
 40
4.103225021664301
 40
4.103225021664301
 10
9.813182030828251
 20
77.95953059703308
 30
0.0
 10
9.851816086082206
 20
78.56317497839096
 30
0.0
 10
9.905741210162972
 20
79.5093127343436
 30
0.0
 10
9.996345607163693
 20
80.72278975487339
 30
0.0
 10
10.06647642832409
 20
81.42328412071528
 30
0.0
 10
10.12788310247633
 20
81.83896574311132
 30
0.0
 10
10.15834245003188
 20
81.98689519420343
 30
0.0
 10
10.17572172584691
 20
82.04335338534172
 30
0.0
  0
ARC
  5
B2
330
1F
100
AcDbEntity
  8
MAKE2D VISIBLE LINES
100
AcDbCircle
 10
51.98745572630443
 20
75.26032015034438
 30
0.0
 40
42.26056197894731
100
AcDbArc
 50
176.3379873976033
 51
177.0358818756561
  0
SPLINE
  5
B3
330
1F
100
AcDbEntity
  8
MAKE2D VISIBLE LINES
100
AcDbSpline
210
0.0
220
0.0
230
1.0
 70
    12
 71
     2
 72
     6
 73
     3
 74
     0
 42
0.0000000001
 43
0.0000000001
 40
-0.3672258767561161
 40
-0.3672258767561161
 40
-0.3672258767561161
 40
0.0
 40
0.0
 40
0.0
 10
-9.797785100411947
 20
62.00157151647734
 30
0.0
 41
1.0
 10
-9.883797369341684
 20
61.83510178321417
 30
0.0
 41
0.9584482883815529
 10
-10.04573051560007
 20
61.74085157670529
 30
0.0
 41
0.9993250524671926
  0
SPLINE
  5
B4
330
1F
100
AcDbEntity
  8
MAKE2D VISIBLE LINES
100
AcDbSpline
210
0.0
220
0.0
230
1.0
 70
    24
 71
     2
 72
     6
 73
     3
 74
     0
 42
0.0000000001
 43
0.0000000001
 40
0.0
 40
0.0
 40
0.0
 40
0.2690779374468692
 40
0.2690779374468692
 40
0.2690779374468692
 10
-9.677364433518152
 20
62.24222165312448
 30
0.0
 10
-9.73757476696505
 20
62.12189658480091
 30
0.0
 10
-9.797785100411947
 20
62.00157151647734
 30
0.0
  0
SPLINE
  5
B5
330
1F
100
AcDbEntity
  8
MAKE2D VISIBLE LINES
100
AcDbSpline
210
0.0
220
0.0
230
1.0
 70
    12
 71
     2
 72
     6
 73
     3
 74
     0
 42
0.0000000001
 43
0.0000000001
 40
0.0
 40
0.0
 40
0.0
 40
0.0410210326054763
 40
0.0410210326054763
 40
0.0410210326054763
 10
27.86046752579681
 20
12.08618197603082
 30
0.0
 41
1.0
 10
27.84105804034164
 20
12.0929540569829
 30
0.0
 41
0.996613476569072
 10
27.82080108363023
 20
12.09645332988575
 30
0.0
 41
1.0
  0
SPLINE
  5
B6
330
1F
100
AcDbEntity
  8
MAKE2D VISIBLE LINES
100
AcDbSpline
210
0.0
220
0.0
230
1.0
 70
    12
 71
     2
 72
     6
 73
     3
 74
     0
 42
0.0000000001
 43
0.0000000001
 40
0.0
 40
0.0
 40
0.0
 40
1.460206311535255
 40
1.460206311535255
 40
1.460206311535255
 10
26.31816971612564
 20
11.60212737787515
 30
0.0
 41
1.0
 10
27.04827287189326
 20
11.60212737904927
 30
0.0
 41
0.999999999999991
 10
27.77837602766088
 20
11.60212718281218
 30
0.0
 41
1.0
  0
SPLINE
  5
B7
330
1F
100
AcDbEntity
  8
Default
100
AcDbSpline
210
0.0
220
0.0
230
1.0
 70
    12
 71
     3
 72
    64
 73
    60
 74
     0
 42
0.0000000001
 43
0.0000000001
 40
20.58321454143402
 40
20.58321454143402
 40
20.58321454143402
 40
20.58321454143402
 40
21.04477563910197
 40
21.04477563910197
 40
21.04477563910197
 40
21.33224931328581
 40
21.6455463514965
 40
22.33998758671066
 40
23.72700964529565
 40
23.72700964529565
 40
23.72700964529565
 40
24.37746194380612
 40
24.37746194380612
 40
24.37746194380612
 40
24.74265011140462
 40
24.74668065082338
 40
24.74668065082338
 40
24.74668065082338
 40
25.19656049775939
 40
25.19656049775939
 40
25.19656049775939
 40
26.01455642883183
 40
26.52146598053523
 40
26.85888861301138
 40
27.12887765991923
 40
27.12887765991923
 40
27.12887765991923
 40
27.23050408460464
 40
27.23050408460464
 40
27.23050408460464
 40
27.24732666958307
 40
27.24732666958307
 40
27.24732666958307
 40
28.24610456343342
 40
29.28690688742732
 40
31.43723910691027
 40
34.23402256053924
 40
38.51713998049595
 40
38.51713998049595
 40
38.51713998049595
 40
38.55153888363557
 40
38.55153888363557
 40
38.55153888363557
 40
39.11519683661427
 40
39.65997179865398
 40
40.37807341609253
 40
40.40791645231965
 40
40.44494759743145
 40
40.49521486840248
 40
40.55577371068683
 40
40.59867256146609
 40
40.66951705543971
 40
41.01152068415396
 40
41.66841301028297
 40
43.18740074826716
 40
46.73349159357683
 40
46.73349159357683
 40
46.73349159357683
 40
47.01966925118212
 40
47.01966925118212
 40
47.01966925118212
 40
47.01966925118212
 10
30.4227939080646
 20
35.51413124488796
 30
0.0
 41
0.9999995100144816
 10
30.42517790374851
 20
35.13886389349909
 30
0.0
 41
0.9992390160393029
 10
30.41844204472457
 20
34.9850990922799
 30
0.0
 41
0.9992391793678088
 10
30.40437062524015
 20
34.83183142715635
 30
0.0
 41
1.0
 10
30.39584834043594
 20
34.73637909224225
 30
0.0
 41
1.0
 10
30.37282774420188
 20
34.53737688908079
 30
0.0
 41
1.0
 10
30.29670241479051
 20
34.11220129926036
 30
0.0
 41
1.0
 10
30.09357125609534
 20
33.33910264574641
 30
0.0
 41
1.0
 10
29.82010613168678
 20
32.69819608940927
 30
0.0
 41
1.0
 10
29.60535625605994
 20
32.28728246039429
 30
0.0
 41
1.0
 10
29.50342287193222
 20
32.09472509825896
 30
0.0
 41
0.9994188715402256
 10
29.393423749298
 20
31.9064064071812
 30
0.0
 41
0.9994188715402256
 10
29.27555065901942
 20
31.72265469921367
 30
0.0
 41
1.0
 10
29.20714991000599
 20
31.62010569522924
 30
0.0
 41
1.0
 10
29.14635051154345
 20
31.51089417610305
 30
0.0
 41
1.0
 10
29.08447014281993
 20
31.40654413922192
 30
0.0
 41
1.0
 10
29.08534197644877
 20
31.41269704325532
 30
0.0
 41
1.0
 10
29.14858146914396
 20
31.55099386979493
 30
0.0
 41
0.9725563879326877
 10
29.16994619330154
 20
31.70155546592401
 30
0.0
 41
0.9725563879326877
 10
29.1476771733164
 20
31.8519859695334
 30
0.0
 41
1.0
 10
29.1076606228352
 20
32.12230365058163
 30
0.0
 41
1.0
 10
28.87618083870274
 20
32.53023020009582
 30
0.0
 41
1.0
 10
28.3837868370105
 20
32.80407016187803
 30
0.0
 41
1.0
 10
28.05080417726388
 20
32.96087850429457
 30
0.0
 41
1.0
 10
27.85866523290776
 20
33.03098265006247
 30
0.0
 41
1.0
 10
27.7724257902102
 20
33.05499395209335
 30
0.0
 41
1.0
 10
27.73834513804945
 20
33.06527513973367
 30
0.0
 41
0.9069105048036632
 10
27.71425927068252
 20
33.09148975936011
 30
0.0
 41
0.9069105048036632
 10
27.70689461181308
 20
33.12631689384932
 30
0.0
 41
1.0
 10
27.7050980068167
 20
33.13170766513917
 30
0.0
 41
0.9739675635769868
 10
27.70486327696945
 20
33.13738508590139
 30
0.0
 41
0.9739675635769868
 10
27.70620875404075
 20
33.14290576485087
 30
0.0
 41
1.0
 10
27.78789230244674
 20
33.46679774102124
 30
0.0
 41
1.0
 10
27.90329332642991
 20
34.13547783399741
 30
0.0
 41
1.0
 10
28.00968064394207
 20
35.53256310712291
 30
0.0
 41
1.0
 10
27.80328379284412
 20
37.52747484358422
 30
0.0
 41
1.0
 10
26.96003729733267
 20
40.49303557696805
 30
0.0
 41
1.0
 10
26.18892160979616
 20
42.72106330410037
 30
0.0
 41
1.0
 10
25.69818430619623
 20
44.06269252763209
 30
0.0
 41
1.0
 10
25.69402466196352
 20
44.07410059271196
 30
0.0
 41
0.8934048983870025
 10
25.69671807891941
 20
44.08594086695337
 30
0.0
 41
0.8934048983870025
 10
25.70540324190161
 20
44.09442700464859
 30
0.0
 41
1.0
 10
25.87458843426052
 20
44.17608578802094
 30
0.0
 41
1.0
 10
26.2087756698583
 20
44.33388882615546
 30
0.0
 41
1.0
 10
26.76311088165827
 20
44.58534872228088
 30
0.0
 41
1.0
 10
27.15315315160428
 20
44.76915105574403
 30
0.0
 41
1.0
 10
27.39317310823514
 20
44.87267233050497
 30
0.0
 41
1.0
 10
27.43346107199148
 20
44.85426974766827
 30
0.0
 41
1.0
 10
27.47150544916756
 20
44.82729680399061
 30
0.0
 41
1.0
 10
27.50686501237207
 20
44.7878190736501
 30
0.0
 41
1.0
 10
27.54139981661417
 20
44.74170423405002
 30
0.0
 41
1.0
 10
27.61622231845411
 20
44.60924214443529
 30
0.0
 41
1.0
 10
27.78707796733219
 20
44.2962561271666
 30
0.0
 41
1.0
 10
28.15418608678156
 20
43.54123228818804
 30
0.0
 41
1.0
 10
28.8869562103655
 20
41.77917712302713
 30
0.0
 41
1.0
 10
29.41937275056885
 20
40.17549366499573
 30
0.0
 41
1.0
 10
29.7696809585837
 20
39.00161983116536
 30
0.0
 41
1.0
 10
29.90302513214233
 20
38.55259163479144
 30
0.0
 41
1.0
 10
30.01420147193117
 20
38.14539566857513
 30
0.0
 41
1.0
 10
30.10347953430509
 20
37.77194065265245
 30
0.0
 41
1.0
  0
SPLINE
  5
B8
330
1F
100
AcDbEntity
  8
Default
100
AcDbSpline
210
0.0
220
0.0
230
1.0
 70
     8
 71
     3
 72
    18
 73
    14
 74
     0
 42
0.0000000001
 43
0.0000000001
 40
0.0
 40
0.0
 40
0.0
 40
0.0
 40
0.0593836568210491
 40
0.1135642017618635
 40
0.2352849768150596
 40
0.6154804948049609
 40
0.7612091161103206
 40
0.7612091161103206
 40
0.7612091161103206
 40
0.8523739615905102
 40
0.9344918554712651
 40
1.11979452643305
 40
1.68470910305339
 40
1.68470910305339
 40
1.68470910305339
 40
1.68470910305339
 10
29.78153514063889
 20
37.2543201158485
 30
0.0
 10
29.78382838530309
 20
37.23461713828677
 30
0.0
 10
29.79098657292122
 20
37.19746487742016
 30
0.0
 10
29.81412958852949
 20
37.12227658753214
 30
0.0
 10
29.90524489155863
 20
36.95905136748755
 30
0.0
 10
30.06652288194019
 20
36.81123134265876
 30
0.0
 10
30.1666592771386
 20
36.66721819113245
 30
0.0
 10
30.1930642145789
 20
36.62477522414797
 30
0.0
 10
30.20969406833252
 20
36.59762237326703
 30
0.0
 10
30.23651153093866
 20
36.5466187023477
 30
0.0
 10
30.28541329094541
 20
36.43720551525082
 30
0.0
 10
30.36453509193692
 20
36.17088710894875
 30
0.0
 10
30.40191205111703
 20
35.92267158227969
 30
0.0
 10
30.4227939080646
 20
35.51413124488798
 30
0.0
  0
SPLINE
  5
B9
330
1F
100
AcDbEntity
  8
Default
100
AcDbSpline
210
0.0
220
0.0
230
1.0
 70
     8
 71
     5
 72
    12
 73
     6
 74
     0
 42
0.0000000001
 43
0.0000000001
 40
0.0
 40
0.0
 40
0.0
 40
0.0
 40
0.0
 40
0.0
 40
1.0
 40
1.0
 40
1.0
 40
1.0
 40
1.0
 40
1.0
 10
29.82278001534142
 20
37.5148354607294
 30
0.0
 10
29.7976054441639
 20
37.46847797643254
 30
0.0
 10
29.77766186458619
 20
37.41927978642536
 30
0.0
 10
29.77795510113294
 20
37.36011968558714
 30
0.0
 10
29.77543646269726
 20
37.3067184126879
 30
0.0
 10
29.78153514063889
 20
37.2543201158485
 30
0.0
  0
SPLINE
  5
BA
330
1F
100
AcDbEntity
  8
Default
100
AcDbSpline
210
0.0
220
0.0
230
1.0
 70
    12
 71
     2
 72
     8
 73
     5
 74
     0
 42
0.0000000001
 43
0.0000000001
 40
-0.6177731832905559
 40
-0.6177731832905559
 40
-0.6177731832905559
 40
-0.4600410774079766
 40
-0.4600410774079766
 40
0.0
 40
0.0
 40
0.0
 10
30.32288679946195
 20
37.84588467680361
 30
0.0
 41
1.0
 10
30.24530663134434
 20
37.82430465362112
 30
0.0
 41
0.9990427713074699
 10
30.17141997964516
 20
37.79658164281544
 30
0.0
 41
1.0
 10
29.93859572485285
 20
37.72810324182273
 30
0.0
 41
0.9235251450677496
 10
29.82278001534142
 20
37.5148354607294
 30
0.0
 41
1.0
  0
SPLINE
  5
BB
330
1F
100
AcDbEntity
  8
Default
100
AcDbSpline
210
0.0
220
0.0
230
1.0
 70
    12
 71
     3
 72
    25
 73
    21
 74
     0
 42
0.0000000001
 43
0.0000000001
 40
0.0
 40
0.0
 40
0.0
 40
0.0
 40
1.473337225222238
 40
2.180778529516569
 40
3.691154581659405
 40
4.86162751763762
 40
5.929158539635224
 40
5.929158539635224
 40
5.929158539635224
 40
7.08447714822221
 40
8.255675214010646
 40
9.53711295372142
 40
11.01938668735557
 40
12.83465240124909
 40
14.97084977560966
 40
17.30949843945334
 40
19.62645110586711
 40
19.62645110586711
 40
19.62645110586711
 40
20.9293810752833
 40
20.9293810752833
 40
20.9293810752833
 40
20.9293810752833
 10
45.24009728867058
 20
30.56675741874846
 30
0.0
 41
1.0
 10
45.22811928108988
 20
31.05757358725537
 30
0.0
 41
1.0
 10
45.26514071390776
 20
31.78497806409676
 30
0.0
 41
1.0
 10
45.2410690960204
 20
33.01439952630875
 30
0.0
 41
1.0
 10
45.19729740480501
 20
34.14525001954986
 30
0.0
 41
1.0
 10
44.94419913426228
 20
35.37392957566057
 30
0.0
 41
1.0
 10
44.65447067340853
 20
36.06584500200698
 30
0.0
 41
1.0
 10
44.47992642686578
 20
36.37589869725991
 30
0.0
 41
1.0
 10
44.28877995292581
 20
36.71025464531597
 30
0.0
 41
1.0
 10
43.8145132317805
 20
37.33250630039942
 30
0.0
 41
1.0
 10
42.84548687742356
 20
38.06421531281957
 30
0.0
 41
1.0
 10
41.6240750747104
 20
38.5634152717866
 30
0.0
 41
1.0
 10
40.12584947618834
 20
38.87922781466511
 30
0.0
 41
1.0
 10
38.31526124839073
 20
38.9914980569916
 30
0.0
 41
1.0
 10
36.21722202228535
 20
38.93413422923362
 30
0.0
 41
1.0
 10
33.96861768964056
 20
38.65263651726455
 30
0.0
 41
1.0
 10
32.44132371259034
 20
38.37748471988128
 30
0.0
 41
1.0
 10
31.63678850060479
 20
38.18933208172791
 30
0.0
 41
1.0
 10
31.18140069707287
 20
38.07308068362498
 30
0.0
 41
0.9999903277390821
 10
30.74394695731682
 20
37.95873748412616
 30
0.0
 41
0.9999903277390821
 10
30.32288679946195
 20
37.84588467680361
 30
0.0
 41
1.0
  0
SPLINE
  5
BC
330
1F
100
AcDbEntity
  8
Default
100
AcDbSpline
210
0.0
220
0.0
230
1.0
 70
    12
 71
     2
 72
     6
 73
     3
 74
     0
 42
0.0000000001
 43
0.0000000001
 40
0.0
 40
0.0
 40
0.0
 40
0.7816405396757449
 40
0.7816405396757449
 40
0.7816405396757449
 10
29.06825439621435
 20
31.25141938806957
 30
0.0
 41
1.0
 10
29.03484438869698
 20
30.86104821233731
 30
0.0
 41
0.996260045340734
 10
28.93472507499181
 20
30.48225805503679
 30
0.0
 41
1.0
  0
SPLINE
  5
BD
330
1F
100
AcDbEntity
  8
Default
100
AcDbSpline
210
0.0
220
0.0
230
1.0
 70
    12
 71
     2
 72
     6
 73
     3
 74
     0
 42
0.0000000001
 43
0.0000000001
 40
0.0
 40
0.0
 40
0.0
 40
0.1598633113070148
 40
0.1598633113070148
 40
0.1598633113070148
 10
29.08488670563749
 20
31.41036341642826
 30
0.0
 41
1.0
 10
29.07307558420032
 20
31.33125713939731
 30
0.0
 41
0.9990343967449803
 10
29.06825439621435
 20
31.25141938806957
 30
0.0
 41
1.0
  0
SPLINE
  5
BE
330
1F
100
AcDbEntity
  8
Default
100
AcDbSpline
210
0.0
220
0.0
230
1.0
 70
     8
 71
     3
 72
     8
 73
     4
 74
     0
 42
0.0000000001
 43
0.0000000001
 40
0.0
 40
0.0
 40
0.0
 40
0.0
 40
1.443706964781046
 40
1.443706964781046
 40
1.443706964781046
 40
1.443706964781046
 10
31.3688567066505
 20
29.44332978062954
 30
0.0
 10
30.91904671945029
 20
29.61438161776665
 30
0.0
 10
30.41835435991104
 20
29.80694677008395
 30
0.0
 10
29.96975353151553
 20
29.98114508332462
 30
0.0
  0
SPLINE
  5
BF
330
1F
100
AcDbEntity
  8
Default
100
AcDbSpline
210
0.0
220
0.0
230
1.0
 70
     8
 71
     3
 72
    14
 73
    10
 74
     0
 42
0.0000000001
 43
0.0000000001
 40
0.0
 40
0.0
 40
0.0
 40
0.0
 40
0.2518026097524419
 40
0.3993978094503035
 40
0.6408038471311446
 40
0.8299381435286958
 40
1.34429103653412
 40
1.503771313972345
 40
2.081296446122036
 40
2.081296446122036
 40
2.081296446122036
 40
2.081296446122036
 10
31.04199662271157
 20
37.07941629725026
 30
0.0
 10
30.96145088534437
 20
37.05288367882501
 30
0.0
 10
30.84018741686598
 20
37.00351270704648
 30
0.0
 10
30.64179760268167
 20
36.91506171005339
 30
0.0
 10
30.52616384622247
 20
36.74498735582971
 30
0.0
 10
30.54692068687223
 20
36.42320628527247
 30
0.0
 10
30.60689866761255
 20
36.14538769156215
 30
0.0
 10
30.65977109682388
 20
35.72924911367562
 30
0.0
 10
30.67850432543262
 20
35.48568537868779
 30
0.0
 10
30.68511387906782
 20
35.29269186729643
 30
0.0
  0
SPLINE
  5
C0
330
1F
100
AcDbEntity
  8
Default
100
AcDbSpline
210
0.0
220
0.0
230
1.0
 70
    12
 71
     2
 72
     6
 73
     3
 74
     0
 42
0.0000000001
 43
0.0000000001
 40
-0.3818374946388466
 40
-0.3818374946388466
 40
-0.3818374946388466
 40
0.0
 40
0.0
 40
0.0
 10
31.40334013046061
 20
37.20280117841801
 30
0.0
 41
1.0
 10
31.22199415868787
 20
37.14308179787906
 30
0.0
 41
0.9999497799871767
 10
31.04199662271157
 20
37.07941629725026
 30
0.0
 41
1.0
  0
SPLINE
  5
C1
330
1F
100
AcDbEntity
  8
Default
100
AcDbSpline
210
0.0
220
0.0
230
1.0
 70
    12
 71
     3
 72
    27
 73
    23
 74
     0
 42
0.0000000001
 43
0.0000000001
 40
-17.84751507560201
 40
-17.84751507560201
 40
-17.84751507560201
 40
-17.84751507560201
 40
-16.95129587884805
 40
-15.65269240854135
 40
-15.21017777281098
 40
-14.39303538772804
 40
-13.19416178627385
 40
-12.67283013748999
 40
-12.17771109150672
 40
-12.17771109150672
 40
-12.17771109150672
 40
-11.17017766051491
 40
-10.10746988013587
 40
-8.93276930188814
 40
-7.617032957020962
 40
-5.997738481901326
 40
-3.794423638278215
 40
-2.023441253887982
 40
0.0
 40
0.0
 40
0.0
 40
1.343161462371087
 40
1.343161462371087
 40
1.343161462371087
 40
1.343161462371087
 10
44.11553274910009
 20
30.53587432218729
 30
0.0
 41
1.0
 10
44.10818831771039
 20
30.83436835631226
 30
0.0
 41
1.0
 10
44.14333220258946
 20
31.56741811787576
 30
0.0
 41
1.0
 10
44.31267876045843
 20
32.43122681853866
 30
0.0
 41
1.0
 10
44.41628966257375
 20
33.2782777984053
 30
0.0
 41
1.0
 10
44.4403861838278
 20
34.09820248800065
 30
0.0
 41
1.0
 10
44.3559003491063
 20
34.94309646009778
 30
0.0
 41
1.0
 10
44.17651627070317
 20
35.66061382219047
 30
0.0
 41
1.0
 10
44.05231150642445
 20
35.97677994319535
 30
0.0
 41
1.0
 10
43.98282630788183
 20
36.12640033839855
 30
0.0
 41
1.0
 10
43.84235354678248
 20
36.43145771862609
 30
0.0
 41
1.0
 10
43.45750614315433
 20
37.01455623658224
 30
0.0
 41
1.0
 10
42.59990834843885
 20
37.69405975170116
 30
0.0
 41
1.0
 10
41.50971114495702
 20
38.17198874516099
 30
0.0
 41
1.0
 10
40.1628847956595
 20
38.46266725854137
 30
0.0
 41
1.0
 10
38.44683276278543
 20
38.50176613559422
 30
0.0
 41
1.0
 10
36.58568322201052
 20
38.37430317680091
 30
0.0
 41
1.0
 10
34.60525203983614
 20
38.08573491795767
 30
0.0
 41
1.0
 10
33.3823062146515
 20
37.75147205014265
 30
0.0
 41
1.0
 10
32.7131037799473
 20
37.5746862676812
 30
0.0
 41
1.0
 10
32.26828233039291
 20
37.4573249660165
 30
0.0
 41
0.9998764356020825
 10
31.83167668649279
 20
37.33323937190549
 30
0.0
 41
0.9998764356020825
 10
31.40334013046061
 20
37.20280117841801
 30
0.0
 41
1.0
  0
SPLINE
  5
C2
330
1F
100
AcDbEntity
  8
Default
100
AcDbSpline
210
0.0
220
0.0
230
1.0
 70
     8
 71
     2
 72
     8
 73
     5
 74
     0
 42
0.0000000001
 43
0.0000000001
 40
0.0
 40
0.0
 40
0.0
 40
1.0
 40
2.0
 40
2.082380386027239
 40
2.082380386027239
 40
2.082380386027239
 10
30.48315929226519
 20
32.24241913148568
 30
0.0
 10
30.72291709708214
 20
33.3342961807902
 30
0.0
 10
30.84676473618882
 20
35.56657539492814
 30
0.0
 10
30.62275423621092
 20
36.75742757016994
 30
0.0
 10
30.60492557846627
 20
36.84784858153046
 30
0.0
  0
SPLINE
  5
C3
330
1F
100
AcDbEntity
  8
Default
100
AcDbSpline
210
0.0
220
0.0
230
1.0
 70
    12
 71
     2
 72
     6
 73
     3
 74
     0
 42
0.0000000001
 43
0.0000000001
 40
0.0
 40
0.0
 40
0.0
 40
2.061631574185771
 40
2.061631574185771
 40
2.061631574185771
 10
30.02688179373786
 20
30.21245676976238
 30
0.0
 41
1.0
 10
30.27063631956758
 20
31.21414521530145
 30
0.0
 41
0.9998484010904932
 10
30.47936570191005
 20
32.22371346744485
 30
0.0
 41
1.0
  0
ARC
  5
C4
330
1F
100
AcDbEntity
  8
Default
100
AcDbCircle
 10
25.8266768222239
 20
43.97676183781178
 30
0.0
 40
0.1689744737258318
100
AcDbArc
 50
116.5741649610433
 51
135.8652056261011
  0
ARC
  5
C5
330
1F
100
AcDbEntity
  8
Default
100
AcDbCircle
 10
48.3850033063402
 20
-1.121955574488727
 30
0.0
 40
50.59488453986661
100
AcDbArc
 50
114.7800881090393
 51
116.5741649610439
  0
SPLINE
  5
C6
330
1F
100
AcDbEntity
  8
Default
100
AcDbSpline
210
0.0
220
0.0
230
1.0
 70
     8
 71
     5
 72
    12
 73
     6
 74
     0
 42
0.0000000001
 43
0.0000000001
 40
0.0
 40
0.0
 40
0.0
 40
0.0
 40
0.0
 40
0.0
 40
1.0
 40
1.0
 40
1.0
 40
1.0
 40
1.0
 40
1.0
 10
27.49030027159579
 20
44.93696625877422
 30
0.0
 10
27.48343031004482
 20
44.94718140424507
 30
0.0
 10
27.45648475243733
 20
44.98124244573589
 30
0.0
 10
27.30045153146106
 20
44.87033444534205
 30
0.0
 10
27.23962080224198
 20
44.84237431828649
 30
0.0
 10
27.17883648646848
 20
44.81431365158366
 30
0.0
  0
SPLINE
  5
C7
330
1F
100
AcDbEntity
  8
Default
100
AcDbSpline
210
0.0
220
0.0
230
1.0
 70
     8
 71
     2
 72
     9
 73
     6
 74
     0
 42
0.0000000001
 43
0.0000000001
 40
2.546990271718815
 40
2.546990271718815
 40
2.546990271718815
 40
3.0
 40
4.0
 40
5.0
 40
6.0
 40
6.0
 40
6.0
 10
30.37904277644382
 20
37.86091848218433
 30
0.0
 10
30.25683949398955
 20
38.35146941251867
 30
0.0
 10
29.78930924876986
 20
39.90401825699877
 30
0.0
 10
28.9826660990969
 20
41.98047959123784
 30
0.0
 10
28.13401692190903
 20
44.06511207194458
 30
0.0
 10
27.49030027159579
 20
44.93696625877422
 30
0.0
  0
SPLINE
  5
C8
330
1F
100
AcDbEntity
  8
MAKE2D VISIBLE LINES
100
AcDbSpline
210
0.0
220
0.0
230
1.0
 70
    12
 71
     2
 72
     6
 73
     3
 74
     0
 42
0.0000000001
 43
0.0000000001
 40
0.0
 40
0.0
 40
0.0
 40
0.5626267840414358
 40
0.5626267840414358
 40
0.5626267840414358
 10
44.67801089311543
 20
30.54358598871319
 30
0.0
 41
1.0
 10
44.95915198786752
 20
30.55532013272696
 30
0.0
 41
0.9996137062676226
 10
45.24051075120052
 20
30.5514148043322
 30
0.0
 41
1.0
  0
SPLINE
  5
C9
330
1F
100
AcDbEntity
  8
MAKE2D VISIBLE LINES
100
AcDbSpline
210
0.0
220
0.0
230
1.0
 70
    12
 71
     2
 72
     6
 73
     3
 74
     0
 42
0.0000000001
 43
0.0000000001
 40
0.0
 40
0.0
 40
0.0
 40
0.5626268207002947
 40
0.5626268207002947
 40
0.5626268207002947
 10
44.11594608850736
 20
30.52012072473305
 30
0.0
 41
1.0
 10
44.39665226411972
 20
30.53966704362794
 30
0.0
 41
0.9996137062945394
 10
44.67801085646523
 20
30.5435859876933
 30
0.0
 41
1.0
  0
SPLINE
  5
CA
330
1F
100
AcDbEntity
  8
MAKE2D VISIBLE LINES
100
AcDbSpline
210
0.0
220
0.0
230
1.0
 70
    12
 71
     2
 72
     6
 73
     3
 74
     0
 42
0.0000000001
 43
0.0000000001
 40
0.0
 40
0.0
 40
0.0
 40
0.5069875979584554
 40
0.5069875979584554
 40
0.5069875979584554
 10
9.965056668789103
 20
0.0087072649176561
 30
0.0
 41
1.0
 10
10.21761324771142
 20
0.033334745614019
 30
0.0
 41
0.9984597417000958
 10
10.47134352218141
 20
0.0298295808841275
 30
0.0
 41
1.0
  0
SPLINE
  5
CB
330
1F
100
AcDbEntity
  8
MAKE2D VISIBLE LINES
100
AcDbSpline
210
0.0
220
0.0
230
1.0
 70
     8
 71
     3
 72
    12
 73
     8
 74
     0
 42
0.0000000001
 43
0.0000000001
 40
0.0
 40
0.0
 40
0.0
 40
0.0
 40
4.976244894835307
 40
6.109599806388855
 40
9.051852072085678
 40
15.83661619885674
 40
30.71445147324415
 40
30.71445147324415
 40
30.71445147324415
 40
30.71445147324415
 10
28.93313624830858
 20
30.46708444961039
 30
0.0
 10
28.53888500264044
 20
28.85587969171762
 30
0.0
 10
28.04272134909812
 20
26.88065871024295
 30
0.0
 10
27.32317622381078
 20
23.9504795953316
 30
0.0
 10
26.51663857912746
 20
20.4209225716764
 30
0.0
 10
25.071016289452
 20
12.34323320489877
 30
0.0
 10
24.5503599516578
 20
5.12224451122905
 30
0.0
 10
24.5495328396586
 20
0.1630389712993132
 30
0.0
  0
SPLINE
  5
CC
330
1F
100
AcDbEntity
  8
MAKE2D VISIBLE LINES
100
AcDbSpline
210
0.0
220
0.0
230
1.0
 70
    12
 71
     2
 72
     6
 73
     3
 74
     0
 42
0.0000000001
 43
0.0000000001
 40
0.0
 40
0.0
 40
0.0
 40
0.3646706623648148
 40
0.3646706623648148
 40
0.3646706623648148
 10
27.80389852317197
 20
11.60356330988697
 30
0.0
 41
1.0
 10
28.02711829585851
 20
11.62669860712935
 30
0.0
 41
0.7410732163700272
 10
28.02605537091502
 20
11.85111157263556
 30
0.0
 41
1.0
  0
SPLINE
  5
CD
330
1F
100
AcDbEntity
  8
MAKE2D VISIBLE LINES
100
AcDbSpline
210
0.0
220
0.0
230
1.0
 70
    12
 71
     2
 72
     6
 73
     3
 74
     0
 42
0.0000000001
 43
0.0000000001
 40
0.0
 40
0.0
 40
0.0
 40
0.3834636067290947
 40
0.3834636067290947
 40
0.3834636067290947
 10
28.02599028083994
 20
11.85694694236989
 30
0.0
 41
1.0
 10
28.02151660466897
 20
12.09903164549062
 30
0.0
 41
0.7151443091043486
 10
27.77939289877825
 20
12.10009386452556
 30
0.0
 41
1.0
  0
SPLINE
  5
CE
330
1F
100
AcDbEntity
  8
MAKE2D VISIBLE LINES
100
AcDbSpline
210
0.0
220
0.0
230
1.0
 70
     8
 71
     3
 72
    13
 73
     9
 74
     0
 42
0.0000000001
 43
0.0000000001
 40
0.0
 40
0.0
 40
0.0
 40
0.0
 40
0.2067584192540229
 40
0.4192453923000553
 40
0.865275026023163
 40
1.203943889511355
 40
1.700608404510375
 40
3.242332451750137
 40
3.242332451750137
 40
3.242332451750137
 40
3.242332451750137
 10
-9.714248876904266
 20
82.88959781294542
 30
0.0
 10
-9.642857005891097
 20
82.88909905237065
 30
0.0
 10
-9.507782481572367
 20
82.86467011032744
 30
0.0
 10
-9.247154945602583
 20
82.71532265523766
 30
0.0
 10
-9.092444076430343
 20
82.40863396869736
 30
0.0
 10
-9.011480229255765
 20
81.98999045571311
 30
0.0
 10
-8.903636675081232
 20
81.2042023169921
 30
0.0
 10
-8.854715346043594
 20
80.52649293158528
 30
0.0
 10
-8.81694363847846
 20
80.01393933035439
 30
0.0
  0
SPLINE
  5
CF
330
1F
100
AcDbEntity
  8
MAKE2D VISIBLE LINES
100
AcDbSpline
210
0.0
220
0.0
230
1.0
 70
    12
 71
     2
 72
     6
 73
     3
 74
     0
 42
0.0000000001
 43
0.0000000001
 40
-0.5568638308178262
 40
-0.5568638308178262
 40
-0.5568638308178262
 40
0.0
 40
0.0
 40
0.0
 10
-10.18468113696728
 20
82.63483503802618
 30
0.0
 41
1.0
 10
-10.01861620431716
 20
82.88904744810436
 30
0.0
 41
0.8799702168589444
 10
-9.714248876904266
 20
82.88959781294542
 30
0.0
 41
1.0
  0
SPLINE
  5
D0
330
1F
100
AcDbEntity
  8
MAKE2D VISIBLE LINES
100
AcDbSpline
210
0.0
220
0.0
230
1.0
 70
    12
 71
     2
 72
     8
 73
     5
 74
     0
 42
0.0000000001
 43
0.0000000001
 40
0.0
 40
0.0
 40
0.0
 40
0.3672811599961145
 40
0.3672811599961145
 40
0.6930431580149942
 40
0.6930431580149942
 40
0.6930431580149942
 10
-10.16070964690956
 20
81.98524485244027
 30
0.0
 41
1.0
 10
-10.2764075617913
 20
82.13652912865227
 30
0.0
 41
0.9471877602395404
 10
-10.27640651314779
 20
82.32698368946892
 30
0.0
 41
1.0
 10
-10.27640716695227
 20
82.49457435015843
 30
0.0
 41
0.9583749231959333
 10
-10.18468113696728
 20
82.63483503802618
 30
0.0
 41
1.0
  0
SPLINE
  5
D1
330
1F
100
AcDbEntity
  8
MAKE2D VISIBLE LINES
100
AcDbSpline
210
0.0
220
0.0
230
1.0
 70
    24
 71
     2
 72
     6
 73
     3
 74
     0
 42
0.0000000001
 43
0.0000000001
 40
0.0
 40
0.0
 40
0.0
 40
0.1814477848557449
 40
0.1814477848557449
 40
0.1814477848557449
 10
-10.97302338292157
 20
62.16653519323338
 30
0.0
 10
-10.9324567168366
 20
62.24771876191846
 30
0.0
 10
-10.89189005075163
 20
62.32890233060355
 30
0.0
  0
SPLINE
  5
D2
330
1F
100
AcDbEntity
  8
MAKE2D VISIBLE LINES
100
AcDbSpline
210
0.0
220
0.0
230
1.0
 70
    12
 71
     2
 72
     6
 73
     3
 74
     0
 42
0.0000000001
 43
0.0000000001
 40
0.0
 40
0.0
 40
0.0
 40
0.2597805990734936
 40
0.2597805990734936
 40
0.2597805990734936
 10
-11.0319985916098
 20
61.91557035843606
 30
0.0
 41
1.0
 10
-11.03200044358307
 20
62.04799192197107
 30
0.0
 41
0.9734107320151563
 10
-10.97302338292157
 20
62.16653519323338
 30
0.0
 41
1.0
  0
SPLINE
  5
D3
330
1F
100
AcDbEntity
  8
MAKE2D VISIBLE LINES
100
AcDbSpline
210
0.0
220
0.0
230
1.0
 70
    12
 71
     2
 72
     8
 73
     5
 74
     0
 42
0.0000000001
 43
0.0000000001
 40
0.0
 40
0.0
 40
0.0
 40
0.6246232306185296
 40
0.6246232306185296
 40
1.507753510239254
 40
1.507753510239254
 40
1.507753510239254
 10
-9.965568579164414
 20
61.66570541153285
 30
0.0
 41
0.9999981995463307
 10
-10.12058463145265
 20
61.35305705902368
 30
0.0
 41
0.8496292357551062
 10
-10.46955301952733
 20
61.35323848590131
 30
0.0
 41
1.0
 10
-11.03153611971492
 20
61.35341939717818
 30
0.0
 41
0.7075113973505034
 10
-11.0319985916098
 20
61.91557035843606
 30
0.0
 41
1.0
  0
SPLINE
  5
D4
330
1F
100
AcDbEntity
  8
MAKE2D VISIBLE LINES
100
AcDbSpline
210
0.0
220
0.0
230
1.0
 70
    24
 71
     2
 72
     6
 73
     3
 74
     0
 42
0.0000000001
 43
0.0000000001
 40
0.0
 40
0.0
 40
0.0
 40
0.0840107446098523
 40
0.0840107446098523
 40
0.0840107446098523
 10
-9.92800378683124
 20
61.74084591992964
 30
0.0
 10
-9.946786182997826
 20
61.70327566573125
 30
0.0
 10
-9.965568579164414
 20
61.66570541153285
 30
0.0
  0
SPLINE
  5
D5
330
1F
100
AcDbEntity
  8
MAKE2D VISIBLE LINES
100
AcDbSpline
210
0.0
220
0.0
230
1.0
 70
    24
 71
     2
 72
     6
 73
     3
 74
     0
 42
0.0000000001
 43
0.0000000001
 40
0.0
 40
0.0
 40
0.0
 40
0.1814477848557449
 40
0.1814477848557449
 40
0.1814477848557449
 10
10.97263114274148
 20
62.16653519323338
 30
0.0
 10
10.93206447665651
 20
62.24771876191846
 30
0.0
 10
10.89149781057154
 20
62.32890233060355
 30
0.0
  0
SPLINE
  5
D6
330
1F
100
AcDbEntity
  8
MAKE2D VISIBLE LINES
100
AcDbSpline
210
0.0
220
0.0
230
1.0
 70
    12
 71
     2
 72
     6
 73
     3
 74
     0
 42
0.0000000001
 43
0.0000000001
 40
0.0
 40
0.0
 40
0.0
 40
0.2597805990734936
 40
0.2597805990734936
 40
0.2597805990734936
 10
11.03160635142971
 20
61.91557035843606
 30
0.0
 41
1.0
 10
11.03160820340297
 20
62.04799192197107
 30
0.0
 41
0.9734107320151563
 10
10.97263114274148
 20
62.16653519323338
 30
0.0
 41
1.0
  0
SPLINE
  5
D7
330
1F
100
AcDbEntity
  8
MAKE2D VISIBLE LINES
100
AcDbSpline
210
0.0
220
0.0
230
1.0
 70
    12
 71
     2
 72
     8
 73
     5
 74
     0
 42
0.0000000001
 43
0.0000000001
 40
0.0
 40
0.0
 40
0.0
 40
0.6246232306185296
 40
0.6246232306185296
 40
1.507753510239254
 40
1.507753510239254
 40
1.507753510239254
 10
9.965176338984318
 20
61.66570541153285
 30
0.0
 41
0.9999981995463307
 10
10.12019239127255
 20
61.35305705902368
 30
0.0
 41
0.8496292357551062
 10
10.46916077934724
 20
61.35323848590131
 30
0.0
 41
1.0
 10
11.03114387953483
 20
61.35341939717818
 30
0.0
 41
0.7075113973505034
 10
11.03160635142971
 20
61.91557035843606
 30
0.0
 41
1.0
  0
SPLINE
  5
D8
330
1F
100
AcDbEntity
  8
MAKE2D VISIBLE LINES
100
AcDbSpline
210
0.0
220
0.0
230
1.0
 70
    24
 71
     2
 72
     6
 73
     3
 74
     0
 42
0.0000000001
 43
0.0000000001
 40
0.0
 40
0.0
 40
0.0
 40
0.0840107446098523
 40
0.0840107446098523
 40
0.0840107446098523
 10
9.927611546651146
 20
61.74084591992964
 30
0.0
 10
9.946393942817732
 20
61.70327566573125
 30
0.0
 10
9.965176338984318
 20
61.66570541153285
 30
0.0
  0
SPLINE
  5
D9
330
1F
100
AcDbEntity
  8
MAKE2D VISIBLE LINES
100
AcDbSpline
210
0.0
220
0.0
230
1.0
 70
    12
 71
     2
 72
     6
 73
     3
 74
     0
 42
0.0000000001
 43
0.0000000001
 40
-0.3672258767561161
 40
-0.3672258767561161
 40
-0.3672258767561161
 40
0.0
 40
0.0
 40
0.0
 10
9.797392860231852
 20
62.00157151647734
 30
0.0
 41
1.0
 10
9.883405129161591
 20
61.83510178321417
 30
0.0
 41
0.9584482883815529
 10
10.04533827541998
 20
61.74085157670529
 30
0.0
 41
0.9993250524671926
  0
SPLINE
  5
DA
330
1F
100
AcDbEntity
  8
MAKE2D VISIBLE LINES
100
AcDbSpline
210
0.0
220
0.0
230
1.0
 70
    24
 71
     2
 72
     6
 73
     3
 74
     0
 42
0.0000000001
 43
0.0000000001
 40
0.0
 40
0.0
 40
0.0
 40
0.2690779374468692
 40
0.2690779374468692
 40
0.2690779374468692
 10
9.67697219333806
 20
62.24222165312448
 30
0.0
 10
9.737182526784956
 20
62.12189658480091
 30
0.0
 10
9.797392860231852
 20
62.00157151647734
 30
0.0
  0
SPLINE
  5
DB
330
1F
100
AcDbEntity
  8
Default
100
AcDbSpline
210
0.0
220
0.0
230
1.0
 70
    12
 71
     3
 72
    38
 73
    34
 74
     0
 42
0.0000000001
 43
0.0000000001
 40
0.0
 40
0.0
 40
0.0
 40
0.0
 40
0.1109898140483419
 40
0.1109898140483419
 40
0.1109898140483419
 40
0.2175483925551074
 40
0.617048848387215
 40
0.7890373634091792
 40
0.9327735793276459
 40
1.030679174350167
 40
1.030679174350167
 40
1.030679174350167
 40
1.184372815048584
 40
1.41138727799838
 40
1.901106448483389
 40
2.357737372802939
 40
2.733863559036053
 40
2.733863559036053
 40
2.733863559036053
 40
2.825356720675527
 40
2.934935236086079
 40
3.122128236811944
 40
3.403015736046659
 40
3.736307219618227
 40
4.27205496857778
 40
5.400384133660618
 40
5.400384133660618
 40
5.400384133660618
 40
6.425446975909134
 40
8.049530532595302
 40
8.82618390544533
 40
9.96909391054309
 40
11.25916574905244
 40
11.25916574905244
 40
11.25916574905244
 40
11.25916574905244
 10
10.09659351172285
 20
37.84664981259665
 30
0.0
 41
1.0
 10
10.12387284233272
 20
37.87947389278144
 30
0.0
 41
0.9968343937410573
 10
10.14685425298612
 20
37.91608546566896
 30
0.0
 41
0.9968343937410573
 10
10.16951321650628
 20
37.95997553828857
 30
0.0
 41
1.0
 10
10.19370242188051
 20
38.00840421174409
 30
0.0
 41
1.0
 10
10.25185962501015
 20
38.16679497277575
 30
0.0
 41
1.0
 10
10.30948458644635
 20
38.38585034802388
 30
0.0
 41
1.0
 10
10.39042632388287
 20
38.60996477974727
 30
0.0
 41
1.0
 10
10.45094567863367
 20
38.73477186766654
 30
0.0
 41
1.0
 10
10.50868918758436
 20
38.79319597474573
 30
0.0
 41
1.0
 10
10.54520402824415
 20
38.81102019977902
 30
0.0
 41
1.0
 10
10.59807850313711
 20
38.83725756447366
 30
0.0
 41
1.0
 10
10.71910219267374
 20
38.87680751676278
 30
0.0
 41
1.0
 10
11.00394825002845
 20
38.93208649983758
 30
0.0
 41
1.0
 10
11.39360414986239
 20
38.97734187211914
 30
0.0
 41
1.0
 10
11.83512037944558
 20
38.95217004153189
 30
0.0
 41
1.0
 10
12.10878337299899
 20
38.90150488402362
 30
0.0
 41
1.0
 10
12.24246585847825
 20
38.84767668570326
 30
0.0
 41
1.0
 10
12.28469730180014
 20
38.82353457269552
 30
0.0
 41
1.0
 10
12.33035535054855
 20
38.76969372722284
 30
0.0
 41
1.0
 10
12.34825374123289
 20
38.6391468964248
 30
0.0
 41
1.0
 10
12.33203276824928
 20
38.44751340899613
 30
0.0
 41
1.0
 10
12.29351303669204
 20
38.1827011797814
 30
0.0
 41
1.0
 10
12.21019895773579
 20
37.80861588351313
 30
0.0
 41
1.0
 10
12.05428080737291
 20
37.16115562255341
 30
0.0
 41
1.0
 10
11.89870151639911
 20
36.62861071031283
 30
0.0
 41
1.0
 10
11.79653858787672
 20
36.26365805727825
 30
0.0
 41
1.0
 10
11.70432852139603
 20
35.93176799666962
 30
0.0
 41
1.0
 10
11.46566532280078
 20
35.08100151722458
 30
0.0
 41
1.0
 10
11.0726152385564
 20
34.00792256114993
 30
0.0
 41
1.0
 10
10.76786081980051
 20
32.86530488796525
 30
0.0
 41
1.0
 10
10.63198301967073
 20
31.80131952739588
 30
0.0
 41
1.0
 10
10.60322146566426
 20
30.99100020775534
 30
0.0
 41
1.0
 10
10.60921906961629
 20
30.56062438200378
 30
0.0
 41
1.0
  0
SPLINE
  5
DC
330
1F
100
AcDbEntity
  8
Default
100
AcDbSpline
210
0.0
220
0.0
230
1.0
 70
    12
 71
     3
 72
    38
 73
    34
 74
     0
 42
0.0000000001
 43
0.0000000001
 40
23.41494717145738
 40
23.41494717145738
 40
23.41494717145738
 40
23.41494717145738
 40
27.37803245094922
 40
29.52192102962876
 40
32.12581771233646
 40
32.13717225020227
 40
32.21096023540328
 40
32.23657260112281
 40
32.29248016334427
 40
32.29248016334427
 40
32.29248016334427
 40
32.41054708756631
 40
32.45247724771205
 40
35.10794052270614
 40
36.64802846712851
 40
37.38290703700773
 40
38.1559650523142
 40
38.1559650523142
 40
38.1559650523142
 40
38.15615167230342
 40
38.15615167230342
 40
38.15615167230342
 40
39.15615167230342
 40
39.15615167230342
 40
40.15615167230342
 40
40.15615167230342
 40
41.15615167230342
 40
41.15615167230342
 40
42.15615167230342
 40
42.15615167230342
 40
43.15615167230342
 40
43.15615167230342
 40
44.15615167230342
 40
44.15615167230342
 40
44.15615167230342
 40
44.15615167230342
 10
-0.0000785880991216
 20
44.14943104087691
 30
0.0
 41
1.0
 10
1.321087151990746
 20
44.14944883532921
 30
0.0
 41
1.0
 10
3.356190089722169
 20
44.24024716000669
 30
0.0
 41
1.0
 10
6.244534380153517
 20
44.54631842550658
 30
0.0
 41
1.0
 10
7.810774509621773
 20
44.80177621739789
 30
0.0
 41
1.0
 10
8.696237155506715
 20
44.94012086431202
 30
0.0
 41
1.0
 10
8.733902776919273
 20
44.93482781281351
 30
0.0
 41
1.0
 10
8.783541340328775
 20
44.92265578772536
 30
0.0
 41
1.0
 10
8.836215600003264
 20
44.88864886369542
 30
0.0
 41
1.0
 10
8.849919493725473
 20
44.87647613734946
 30
0.0
 41
1.0
 10
8.87869925694887
 20
44.85091200286901
 30
0.0
 41
1.0
 10
8.930119068794447
 20
44.77591327562929
 30
0.0
 41
1.0
 10
9.06508094677232
 20
43.84719219192756
 30
0.0
 41
1.0
 10
9.265894276675759
 20
42.44887830281071
 30
0.0
 41
1.0
 10
9.440253233456097
 20
40.8144030637453
 30
0.0
 41
1.0
 10
9.524172619114388
 20
39.80187595222561
 30
0.0
 41
1.0
 10
9.557442494764281
 20
39.30028800616567
 30
0.0
 41
1.0
 10
9.572420385126257
 20
39.04295791354311
 30
0.0
 41
1.0
 10
9.57242361954976
 20
39.04289578631288
 30
0.0
 41
1.0
 10
9.572426854074912
 20
39.042833659088
 30
0.0
 41
1.0
 10
9.572430088701672
 20
39.04277153186851
 30
0.0
 41
1.0
 10
9.575833269654872
 20
38.96371857686347
 30
0.0
 41
1.0
 10
9.580786101370627
 20
38.88476507184672
 30
0.0
 41
1.0
 10
9.593791066327292
 20
38.72705696178977
 30
0.0
 41
1.0
 10
9.601980110503767
 20
38.64836145069899
 30
0.0
 41
1.0
 10
9.621731322252991
 20
38.49128751639279
 30
0.0
 41
1.0
 10
9.634325294652918
 20
38.41324279111051
 30
0.0
 41
1.0
 10
9.664949972503443
 20
38.25813782428762
 30
0.0
 41
1.0
 10
9.685210357572423
 20
38.18139180613886
 30
0.0
 41
1.0
 10
9.735627219997802
 20
38.02951270036674
 30
0.0
 41
1.0
 10
9.784599095688911
 20
37.96444233791314
 30
0.0
 41
1.0
 10
9.930069736027924
 20
37.85603999387082
 30
0.0
 41
1.0
 10
10.00842486027759
 20
37.83356330927163
 30
0.0
 41
1.0
 10
10.09659351172285
 20
37.84664981259665
 30
0.0
 41
1.0
  0
SPLINE
  5
DD
330
1F
100
AcDbEntity
  8
Default
100
AcDbSpline
210
0.0
220
0.0
230
1.0
 70
    12
 71
     3
 72
    38
 73
    34
 74
     0
 42
0.0000000001
 43
0.0000000001
 40
-44.15615167230342
 40
-44.15615167230342
 40
-44.15615167230342
 40
-44.15615167230342
 40
-43.15615167230342
 40
-43.15615167230342
 40
-42.15615167230342
 40
-42.15615167230342
 40
-41.15615167230342
 40
-41.15615167230342
 40
-40.15615167230342
 40
-40.15615167230342
 40
-39.15615167230342
 40
-39.15615167230342
 40
-38.15615167230342
 40
-38.15615167230342
 40
-38.15615167230342
 40
-38.1559650523142
 40
-38.1559650523142
 40
-38.1559650523142
 40
-37.38290703700773
 40
-36.64802846712851
 40
-35.10794052270614
 40
-32.45247724771205
 40
-32.41054708756631
 40
-32.29248016334427
 40
-32.29248016334427
 40
-32.29248016334427
 40
-32.23657260112281
 40
-32.21096023540328
 40
-32.13717225020227
 40
-32.12581771233646
 40
-29.52192102962876
 40
-27.37803245094922
 40
-23.41494717145738
 40
-23.41494717145738
 40
-23.41494717145738
 40
-23.41494717145738
 10
-10.09675068792109
 20
37.84664981259665
 30
0.0
 41
1.0
 10
-10.00858203647584
 20
37.83356330927163
 30
0.0
 41
1.0
 10
-9.930226912226168
 20
37.85603999387082
 30
0.0
 41
1.0
 10
-9.784756271887154
 20
37.96444233791314
 30
0.0
 41
1.0
 10
-9.735784396196046
 20
38.02951270036674
 30
0.0
 41
1.0
 10
-9.685367533770666
 20
38.18139180613886
 30
0.0
 41
1.0
 10
-9.665107148701686
 20
38.25813782428762
 30
0.0
 41
1.0
 10
-9.634482470851161
 20
38.41324279111051
 30
0.0
 41
1.0
 10
-9.621888498451234
 20
38.49128751639279
 30
0.0
 41
1.0
 10
-9.60213728670201
 20
38.64836145069899
 30
0.0
 41
1.0
 10
-9.593948242525535
 20
38.72705696178977
 30
0.0
 41
1.0
 10
-9.58094327756887
 20
38.88476507184672
 30
0.0
 41
1.0
 10
-9.575990445853115
 20
38.96371857686347
 30
0.0
 41
1.0
 10
-9.572587264899916
 20
39.04277153186851
 30
0.0
 41
1.0
 10
-9.572584030273156
 20
39.042833659088
 30
0.0
 41
1.0
 10
-9.572580795748003
 20
39.04289578631288
 30
0.0
 41
1.0
 10
-9.5725775613245
 20
39.04295791354311
 30
0.0
 41
1.0
 10
-9.557599670962524
 20
39.30028800616567
 30
0.0
 41
1.0
 10
-9.524329795312632
 20
39.80187595222561
 30
0.0
 41
1.0
 10
-9.44041040965434
 20
40.8144030637453
 30
0.0
 41
1.0
 10
-9.266051452874002
 20
42.44887830281071
 30
0.0
 41
1.0
 10
-9.065238122970563
 20
43.84719219192756
 30
0.0
 41
1.0
 10
-8.93027624499269
 20
44.77591327562929
 30
0.0
 41
1.0
 10
-8.878856433147114
 20
44.85091200286901
 30
0.0
 41
1.0
 10
-8.850076669923716
 20
44.87647613734946
 30
0.0
 41
1.0
 10
-8.836372776201507
 20
44.88864886369542
 30
0.0
 41
1.0
 10
-8.783698516527018
 20
44.92265578772536
 30
0.0
 41
1.0
 10
-8.734059953117516
 20
44.93482781281351
 30
0.0
 41
1.0
 10
-8.696394331704958
 20
44.94012086431202
 30
0.0
 41
1.0
 10
-7.810931685820016
 20
44.80177621739789
 30
0.0
 41
1.0
 10
-6.244691556351761
 20
44.54631842550658
 30
0.0
 41
1.0
 10
-3.356347265920412
 20
44.24024716000669
 30
0.0
 41
1.0
 10
-1.321244328188989
 20
44.14944883532921
 30
0.0
 41
1.0
 10
-0.0000785880991216
 20
44.14943104087691
 30
0.0
 41
1.0
  0
SPLINE
  5
DE
330
1F
100
AcDbEntity
  8
Default
100
AcDbSpline
210
0.0
220
0.0
230
1.0
 70
    12
 71
     3
 72
    38
 73
    34
 74
     0
 42
0.0000000001
 43
0.0000000001
 40
-11.25916574905244
 40
-11.25916574905244
 40
-11.25916574905244
 40
-11.25916574905244
 40
-9.96909391054309
 40
-8.82618390544533
 40
-8.049530532595302
 40
-6.425446975909134
 40
-5.400384133660618
 40
-5.400384133660618
 40
-5.400384133660618
 40
-4.27205496857778
 40
-3.736307219618227
 40
-3.403015736046659
 40
-3.122128236811944
 40
-2.934935236086079
 40
-2.825356720675527
 40
-2.733863559036053
 40
-2.733863559036053
 40
-2.733863559036053
 40
-2.357737372802939
 40
-1.901106448483389
 40
-1.41138727799838
 40
-1.184372815048584
 40
-1.030679174350167
 40
-1.030679174350167
 40
-1.030679174350167
 40
-0.9327735793276459
 40
-0.7890373634091792
 40
-0.617048848387215
 40
-0.2175483925551074
 40
-0.1109898140483419
 40
-0.1109898140483419
 40
-0.1109898140483419
 40
0.0
 40
0.0
 40
0.0
 40
0.0
 10
-10.60937624581454
 20
30.56062438200378
 30
0.0
 41
1.0
 10
-10.6033786418625
 20
30.99100020775534
 30
0.0
 41
1.0
 10
-10.63214019586898
 20
31.80131952739588
 30
0.0
 41
1.0
 10
-10.76801799599875
 20
32.86530488796525
 30
0.0
 41
1.0
 10
-11.07277241475465
 20
34.00792256114993
 30
0.0
 41
1.0
 10
-11.46582249899902
 20
35.08100151722458
 30
0.0
 41
1.0
 10
-11.70448569759427
 20
35.93176799666962
 30
0.0
 41
1.0
 10
-11.79669576407496
 20
36.26365805727825
 30
0.0
 41
1.0
 10
-11.89885869259735
 20
36.62861071031283
 30
0.0
 41
1.0
 10
-12.05443798357116
 20
37.16115562255341
 30
0.0
 41
1.0
 10
-12.21035613393403
 20
37.80861588351313
 30
0.0
 41
1.0
 10
-12.29367021289028
 20
38.1827011797814
 30
0.0
 41
1.0
 10
-12.33218994444753
 20
38.44751340899613
 30
0.0
 41
1.0
 10
-12.34841091743113
 20
38.6391468964248
 30
0.0
 41
1.0
 10
-12.33051252674679
 20
38.76969372722284
 30
0.0
 41
1.0
 10
-12.28485447799839
 20
38.82353457269552
 30
0.0
 41
1.0
 10
-12.24262303467649
 20
38.84767668570326
 30
0.0
 41
1.0
 10
-12.10894054919724
 20
38.90150488402362
 30
0.0
 41
1.0
 10
-11.83527755564382
 20
38.95217004153189
 30
0.0
 41
1.0
 10
-11.39376132606063
 20
38.97734187211914
 30
0.0
 41
1.0
 10
-11.00410542622669
 20
38.93208649983758
 30
0.0
 41
1.0
 10
-10.71925936887198
 20
38.87680751676278
 30
0.0
 41
1.0
 10
-10.59823567933535
 20
38.83725756447366
 30
0.0
 41
1.0
 10
-10.54536120444239
 20
38.81102019977902
 30
0.0
 41
1.0
 10
-10.5088463637826
 20
38.79319597474573
 30
0.0
 41
1.0
 10
-10.45110285483191
 20
38.73477186766654
 30
0.0
 41
1.0
 10
-10.39058350008111
 20
38.60996477974727
 30
0.0
 41
1.0
 10
-10.3096417626446
 20
38.38585034802388
 30
0.0
 41
1.0
 10
-10.25201680120839
 20
38.16679497277575
 30
0.0
 41
1.0
 10
-10.19385959807875
 20
38.00840421174409
 30
0.0
 41
1.0
 10
-10.16967039270452
 20
37.95997553828857
 30
0.0
 41
1.0
 10
-10.14701142918436
 20
37.91608546566896
 30
0.0
 41
0.9968343937410573
 10
-10.12403001853096
 20
37.87947389278144
 30
0.0
 41
0.9968343937410573
 10
-10.09675068792109
 20
37.84664981259665
 30
0.0
 41
1.0
  0
SPLINE
  5
DF
330
1F
100
AcDbEntity
  8
Default
100
AcDbSpline
210
0.0
220
0.0
230
1.0
 70
    12
 71
     2
 72
     6
 73
     3
 74
     0
 42
0.0000000001
 43
0.0000000001
 40
0.0
 40
0.0
 40
0.0
 40
1.102793144367181
 40
1.102793144367181
 40
1.102793144367181
 10
-9.683555673393535
 20
35.29273522329181
 30
0.0
 41
1.0
 10
-9.684309120406768
 20
34.7412394207829
 30
0.0
 41
0.9997455309739954
 10
-9.70993731347594
 20
34.19034508662729
 30
0.0
 41
1.0
  0
SPLINE
  5
E0
330
1F
100
AcDbEntity
  8
Default
100
AcDbSpline
210
0.0
220
0.0
230
1.0
 70
     8
 71
     3
 72
    11
 73
     7
 74
     0
 42
0.0000000001
 43
0.0000000001
 40
0.0
 40
0.0
 40
0.0
 40
0.0
 40
0.13566170168807
 40
0.2744464145988897
 40
0.5613280325995922
 40
1.564089556579592
 40
1.564089556579592
 40
1.564089556579592
 40
1.564089556579592
 10
-10.11878661738474
 20
36.74176754274016
 30
0.0
 10
-10.08135209741872
 20
36.71515594450609
 30
0.0
 10
-10.01545124492083
 20
36.6543681947639
 30
0.0
 10
-9.891414803218801
 20
36.50907524694166
 30
0.0
 10
-9.725153602579134
 20
36.05980519020007
 30
0.0
 10
-9.686248114194548
 20
35.6261342161642
 30
0.0
 10
-9.683555673393535
 20
35.29273522329181
 30
0.0
  0
SPLINE
  5
E1
330
1F
100
AcDbEntity
  8
Default
100
AcDbSpline
210
0.0
220
0.0
230
1.0
 70
     8
 71
     3
 72
    12
 73
     8
 74
     0
 42
0.0000000001
 43
0.0000000001
 40
0.0
 40
0.0
 40
0.0
 40
0.0
 40
1.287016841321923
 40
1.769127044398118
 40
2.327701460882205
 40
2.420853988570939
 40
2.474227538685975
 40
2.474227538685975
 40
2.474227538685975
 40
2.474227538685975
 10
-10.02923507488595
 20
36.24483981497885
 30
0.0
 10
-10.10478660605154
 20
36.66715160424174
 30
0.0
 10
-10.20941081777142
 20
37.24748219611347
 30
0.0
 10
-10.35926949288768
 20
38.00884917698492
 30
0.0
 10
-10.44661148089936
 20
38.37665173301242
 30
0.0
 10
-10.49475402467611
 20
38.60667593155993
 30
0.0
 10
-10.49951885466601
 20
38.65550230484921
 30
0.0
 10
-10.49952428460816
 20
38.67323020448625
 30
0.0
  0
SPLINE
  5
E2
330
1F
100
AcDbEntity
  8
Default
100
AcDbSpline
210
0.0
220
0.0
230
1.0
 70
     8
 71
     3
 72
    12
 73
     8
 74
     0
 42
0.0000000001
 43
0.0000000001
 40
0.0
 40
0.0
 40
0.0
 40
0.0
 40
0.7878562625600279
 40
1.184000317423179
 40
2.191858947532162
 40
3.962869177404546
 40
5.720430333429824
 40
5.720430333429824
 40
5.720430333429824
 40
5.720430333429824
 10
-9.484506186390497
 20
30.54292143555917
 30
0.0
 10
-9.481136246140274
 20
30.80557770460929
 30
0.0
 10
-9.46799222919936
 20
31.1998665584167
 30
0.0
 10
-9.468475393600308
 20
31.93094045177491
 30
0.0
 10
-9.548928336387782
 20
32.9868092979881
 30
0.0
 10
-9.744747677699259
 20
34.48647638404437
 30
0.0
 10
-9.92116351416022
 20
35.64938102563623
 30
0.0
 10
-10.02586564735621
 20
36.22589791627631
 30
0.0
  0
SPLINE
  5
E3
330
1F
100
AcDbEntity
  8
Default
100
AcDbSpline
210
0.0
220
0.0
230
1.0
 70
     8
 71
     3
 72
    12
 73
     8
 74
     0
 42
0.0000000001
 43
0.0000000001
 40
0.0
 40
0.0
 40
0.0
 40
0.0
 40
1.287016841321923
 40
1.769127044398118
 40
2.327701460882205
 40
2.420853988570939
 40
2.474227538685975
 40
2.474227538685975
 40
2.474227538685975
 40
2.474227538685975
 10
10.02907789868771
 20
36.24483981497885
 30
0.0
 10
10.1046294298533
 20
36.66715160424174
 30
0.0
 10
10.20925364157318
 20
37.24748219611347
 30
0.0
 10
10.35911231668944
 20
38.00884917698492
 30
0.0
 10
10.44645430470111
 20
38.37665173301242
 30
0.0
 10
10.49459684847786
 20
38.60667593155993
 30
0.0
 10
10.49936167846777
 20
38.65550230484921
 30
0.0
 10
10.49936710840992
 20
38.67323020448625
 30
0.0
  0
ARC
  5
E4
330
1F
100
AcDbEntity
  8
Default
100
AcDbCircle
 10
0.8339870018296196
 20
59.70635119491185
 30
0.0
 40
31.6487029838954
100
AcDbArc
 50
282.9925821655286
 51
284.7828399908277
  0
SPLINE
  5
E5
330
1F
100
AcDbEntity
  8
Default
100
AcDbSpline
210
0.0
220
0.0
230
1.0
 70
    12
 71
     2
 72
     6
 73
     3
 74
     0
 42
0.0000000001
 43
0.0000000001
 40
-0.3687350703256946
 40
-0.3687350703256946
 40
-0.3687350703256946
 40
0.0
 40
0.0
 40
0.0
 10
9.208679587560162
 20
29.3117812347423
 30
0.0
 41
1.0
 10
9.089536905394045
 20
29.16427158281444
 30
0.0
 41
0.958996314771429
 10
8.909349289268413
 20
29.10522499848829
 30
0.0
 41
1.0
  0
ARC
  5
E6
330
1F
100
AcDbEntity
  8
Default
100
AcDbCircle
 10
-0.8341441780278629
 20
59.70635119491185
 30
0.0
 40
31.6487029838954
100
AcDbArc
 50
255.2171600091723
 51
257.0074178344714
  0
SPLINE
  5
E7
330
1F
100
AcDbEntity
  8
Default
100
AcDbSpline
210
0.0
220
0.0
230
1.0
 70
    12
 71
     2
 72
     6
 73
     3
 74
     0
 42
0.0000000001
 43
0.0000000001
 40
-0.3687350703256946
 40
-0.3687350703256946
 40
-0.3687350703256946
 40
0.0
 40
0.0
 40
0.0
 10
-9.208836763758406
 20
29.3117812347423
 30
0.0
 41
1.0
 10
-9.089694081592294
 20
29.16427158281444
 30
0.0
 41
0.958996314771429
 10
-8.909506465466656
 20
29.10522499848829
 30
0.0
 41
1.0
  0
SPLINE
  5
E8
330
1F
100
AcDbEntity
  8
Default
100
AcDbSpline
210
0.0
220
0.0
230
1.0
 70
     8
 71
     3
 72
    12
 73
     8
 74
     0
 42
0.0000000001
 43
0.0000000001
 40
0.0
 40
0.0
 40
0.0
 40
0.0
 40
1.409468345024047
 40
2.584983022344898
 40
3.607507320650333
 40
4.89328680666405
 40
7.894681883043148
 40
7.894681883043148
 40
7.894681883043148
 40
7.894681883043148
 10
-0.0000785880991216
 20
33.05343843774607
 30
0.0
 10
0.4697072260712289
 20
33.05417927604944
 30
0.0
 10
1.331503171472669
 20
33.04351941071897
 30
0.0
 10
2.532813621426577
 20
32.99055902548098
 30
0.0
 10
3.689466192189052
 20
32.8745635162348
 30
0.0
 10
5.443093047446858
 20
32.6547942379263
 30
0.0
 10
6.830351569597774
 20
32.23298401170582
 30
0.0
 10
7.687213881174038
 20
31.70710594600488
 30
0.0
  0
SPLINE
  5
E9
330
1F
100
AcDbEntity
  8
Default
100
AcDbSpline
210
0.0
220
0.0
230
1.0
 70
     8
 71
     3
 72
    12
 73
     8
 74
     0
 42
0.0000000001
 43
0.0000000001
 40
-7.894681883043148
 40
-7.894681883043148
 40
-7.894681883043148
 40
-7.894681883043148
 40
-4.89328680666405
 40
-3.607507320650333
 40
-2.584983022344898
 40
-1.409468345024047
 40
0.0
 40
0.0
 40
0.0
 40
0.0
 10
-7.687371057372282
 20
31.70710594600488
 30
0.0
 10
-6.830508745796017
 20
32.23298401170582
 30
0.0
 10
-5.443250223645101
 20
32.6547942379263
 30
0.0
 10
-3.689623368387295
 20
32.8745635162348
 30
0.0
 10
-2.53297079762482
 20
32.99055902548098
 30
0.0
 10
-1.331660347670912
 20
33.04351941071897
 30
0.0
 10
-0.4698644022694722
 20
33.05417927604944
 30
0.0
 10
-0.0000785880991216
 20
33.05343843774607
 30
0.0
  0
SPLINE
  5
EA
330
1F
100
AcDbEntity
  8
Default
100
AcDbSpline
210
0.0
220
0.0
230
1.0
 70
    12
 71
     2
 72
     6
 73
     3
 74
     0
 42
0.0000000001
 43
0.0000000001
 40
0.0
 40
0.0
 40
0.0
 40
1.102793144367181
 40
1.102793144367181
 40
1.102793144367181
 10
9.683398497195292
 20
35.29273522329181
 30
0.0
 41
1.0
 10
9.684151944208525
 20
34.7412394207829
 30
0.0
 41
0.9997455309739954
 10
9.709780137277697
 20
34.19034508662729
 30
0.0
 41
1.0
  0
SPLINE
  5
EB
330
1F
100
AcDbEntity
  8
Default
100
AcDbSpline
210
0.0
220
0.0
230
1.0
 70
     8
 71
     3
 72
    11
 73
     7
 74
     0
 42
0.0000000001
 43
0.0000000001
 40
0.0
 40
0.0
 40
0.0
 40
0.0
 40
0.13566170168807
 40
0.2744464145988897
 40
0.5613280325995922
 40
1.564089556579592
 40
1.564089556579592
 40
1.564089556579592
 40
1.564089556579592
 10
10.11862944118649
 20
36.74176754274016
 30
0.0
 10
10.08119492122048
 20
36.71515594450609
 30
0.0
 10
10.01529406872259
 20
36.6543681947639
 30
0.0
 10
9.891257627020558
 20
36.50907524694166
 30
0.0
 10
9.72499642638089
 20
36.05980519020007
 30
0.0
 10
9.686090937996305
 20
35.6261342161642
 30
0.0
 10
9.683398497195292
 20
35.29273522329181
 30
0.0
  0
SPLINE
  5
EC
330
1F
100
AcDbEntity
  8
Default
100
AcDbSpline
210
0.0
220
0.0
230
1.0
 70
     8
 71
     3
 72
    12
 73
     8
 74
     0
 42
0.0000000001
 43
0.0000000001
 40
0.0
 40
0.0
 40
0.0
 40
0.0
 40
0.7878562625600279
 40
1.184000317423179
 40
2.191858947532162
 40
3.962869177404546
 40
5.720430333429824
 40
5.720430333429824
 40
5.720430333429824
 40
5.720430333429824
 10
9.484349010192254
 20
30.54292143555917
 30
0.0
 10
9.48097906994203
 20
30.80557770460929
 30
0.0
 10
9.467835053001117
 20
31.1998665584167
 30
0.0
 10
9.468318217402064
 20
31.93094045177491
 30
0.0
 10
9.548771160189538
 20
32.9868092979881
 30
0.0
 10
9.744590501501015
 20
34.48647638404437
 30
0.0
 10
9.921006337961977
 20
35.64938102563623
 30
0.0
 10
10.02570847115796
 20
36.22589791627631
 30
0.0
  0
SPLINE
  5
ED
330
1F
100
AcDbEntity
  8
MAKE2D VISIBLE LINES
100
AcDbSpline
210
0.0
220
0.0
230
1.0
 70
    12
 71
     2
 72
     6
 73
     3
 74
     0
 42
0.0000000001
 43
0.0000000001
 40
0.0
 40
0.0
 40
0.0
 40
0.090426325265799
 40
0.090426325265799
 40
0.090426325265799
 10
-9.152524560451845
 20
0.067670365195541
 30
0.0
 41
1.0
 10
-9.153465085876029
 20
0.0115513771489751
 30
0.0
 41
0.7322982125951476
 10
-9.209504512972003
 20
0.0084196015824615
 30
0.0
 41
1.0
  0
SPLINE
  5
EE
330
1F
100
AcDbEntity
  8
MAKE2D VISIBLE LINES
100
AcDbSpline
210
0.0
220
0.0
230
1.0
 70
    12
 71
     2
 72
     6
 73
     3
 74
     0
 42
0.0000000001
 43
0.0000000001
 40
0.0
 40
0.0
 40
0.0
 40
0.0149504543859779
 40
0.0149504543859779
 40
0.0149504543859779
 10
-10.93919491218148
 20
0.0168607480813918
 30
0.0
 41
1.0
 10
-10.94664681632441
 20
0.0174535511679699
 30
0.0
 41
0.9999561228672328
 10
-10.95408630680023
 20
0.0181858573301097
 30
0.0
 41
1.0
  0
SPLINE
  5
EF
330
1F
100
AcDbEntity
  8
MAKE2D VISIBLE LINES
100
AcDbSpline
210
0.0
220
0.0
230
1.0
 70
    12
 71
     2
 72
     6
 73
     3
 74
     0
 42
0.0000000001
 43
0.0000000001
 40
0.0
 40
0.0
 40
0.0
 40
0.0905095362183185
 40
0.0905095362183185
 40
0.0905095362183185
 10
-9.908065381929749
 20
0.067768887791555
 30
0.0
 41
1.0
 10
-9.91010822236573
 20
0.0128113604480137
 30
0.0
 41
0.7543192092764522
 10
-9.964821869061142
 20
0.0072507962632454
 30
0.0
 41
1.0
  0
SPLINE
  5
F0
330
1F
100
AcDbEntity
  8
MAKE2D VISIBLE LINES
100
AcDbSpline
210
0.0
220
0.0
230
1.0
 70
    12
 71
     2
 72
     6
 73
     3
 74
     0
 42
0.0000000001
 43
0.0000000001
 40
0.0
 40
0.0
 40
0.0
 40
0.0287637614207988
 40
0.0287637614207988
 40
0.0287637614207988
 10
-9.97483600041073
 20
0.0059451846791682
 30
0.0
 41
1.0
 10
-9.989151159253447
 20
0.0045285128533121
 30
0.0
 41
0.9996656851759236
 10
-10.00352041184513
 20
0.0038537449593565
 30
0.0
 41
1.0
  0
SPLINE
  5
F1
330
1F
100
AcDbEntity
  8
MAKE2D VISIBLE LINES
100
AcDbSpline
210
0.0
220
0.0
230
1.0
 70
    24
 71
     2
 72
     6
 73
     3
 74
     0
 42
0.0000000001
 43
0.0000000001
 40
0.0
 40
0.0
 40
0.0
 40
0.0839190555371551
 40
0.0839190555371551
 40
0.0839190555371551
 10
-9.151357683736993
 20
0.1515816341660088
 30
0.0
 10
-9.151941119825302
 20
0.1096261628554289
 30
0.0
 10
-9.152524555913613
 20
0.0676706915448491
 30
0.0
  0
SPLINE
  5
F2
330
1F
100
AcDbEntity
  8
MAKE2D VISIBLE LINES
100
AcDbSpline
210
0.0
220
0.0
230
1.0
 70
    12
 71
     2
 72
     6
 73
     3
 74
     0
 42
0.0000000001
 43
0.0000000001
 40
0.0
 40
0.0
 40
0.0
 40
0.0905125898446626
 40
0.0905125898446626
 40
0.0905125898446626
 10
-10.97789435410504
 20
0.0212888437325262
 30
0.0
 41
1.0
 10
-11.03234917296741
 20
0.0284863294657382
 30
0.0
 41
0.755641962010691
 10
-11.03295662622966
 20
0.0834113883983233
 30
0.0
 41
1.0
  0
SPLINE
  5
F3
330
1F
100
AcDbEntity
  8
MAKE2D VISIBLE LINES
100
AcDbSpline
210
0.0
220
0.0
230
1.0
 70
    24
 71
     2
 72
     6
 73
     3
 74
     0
 42
0.0000000001
 43
0.0000000001
 40
0.0
 40
0.0
 40
0.0
 40
0.0838826130654576
 40
0.0838826130654576
 40
0.0838826130654576
 10
-11.03295654233856
 20
0.0834174415311644
 30
0.0
 10
-11.03237314608151
 20
0.1253546903975311
 30
0.0
 10
-11.03178974982445
 20
0.1672919392638977
 30
0.0
  0
SPLINE
  5
F4
330
1F
100
AcDbEntity
  8
MAKE2D VISIBLE LINES
100
AcDbSpline
210
0.0
220
0.0
230
1.0
 70
    24
 71
     2
 72
     6
 73
     3
 74
     0
 42
0.0000000001
 43
0.0000000001
 40
0.0
 40
0.0
 40
0.0
 40
0.0838826130654571
 40
0.0838826130654571
 40
0.0838826130654571
 10
-9.906898505209623
 20
0.1516494386476737
 30
0.0
 10
-9.907481901466674
 20
0.1097121897813072
 30
0.0
 10
-9.908065297723724
 20
0.0677749409149407
 30
0.0
  0
SPLINE
  5
F5
330
1F
100
AcDbEntity
  8
MAKE2D VISIBLE LINES
100
AcDbSpline
210
0.0
220
0.0
230
1.0
 70
    12
 71
     2
 72
     6
 73
     3
 74
     0
 42
0.0000000001
 43
0.0000000001
 40
0.0
 40
0.0
 40
0.0
 40
0.4559930431768735
 40
0.4559930431768735
 40
0.4559930431768735
 10
10.47134352218141
 20
0.0016601357645172
 30
0.0
 41
1.0
 10
10.24334992730437
 20
-0.002786160968556
 30
0.0
 41
0.9997341125134014
 10
10.01539378552039
 20
0.0032839529150978
 30
0.0
 41
1.0
  0
SPLINE
  5
F6
330
1F
100
AcDbEntity
  8
MAKE2D VISIBLE LINES
100
AcDbSpline
210
0.0
220
0.0
230
1.0
 70
    12
 71
     2
 72
     6
 73
     3
 74
     0
 42
0.0000000001
 43
0.0000000001
 40
0.0
 40
0.0
 40
0.0
 40
0.4681485405974217
 40
0.4681485405974217
 40
0.4681485405974217
 10
10.93919459623093
 20
0.0168646750117922
 30
0.0
 41
1.0
 10
10.70546245012916
 20
0.0033116725472247
 30
0.0
 41
0.9996765963466815
 10
10.47134352218141
 20
0.0016601357645174
 30
0.0
 41
1.0
  0
SPLINE
  5
F8
330
1F
100
AcDbEntity
  8
MAKE2D VISIBLE LINES - TANGENT
100
AcDbSpline
210
0.0
220
0.0
230
1.0
 70
    24
 71
     2
 72
     6
 73
     3
 74
     0
 42
0.0000000001
 43
0.0000000001
 40
0.0
 40
0.0
 40
0.0
 40
0.0838886667745171
 40
0.0838886667745171
 40
0.0838886667745171
 10
10.46934408541377
 20
0.1751207553173408
 30
0.0
 10
10.46992752377385
 20
0.1331804798892815
 30
0.0
 10
10.47051096213393
 20
0.0912402044612222
 30
0.0
  0
SPLINE
  5
F9
330
1F
100
AcDbEntity
  8
MAKE2D VISIBLE LINES - TANGENT
100
AcDbSpline
210
0.0
220
0.0
230
1.0
 70
    12
 71
     2
 72
     6
 73
     3
 74
     0
 42
0.0000000001
 43
0.0000000001
 40
0.0
 40
0.0
 40
0.0
 40
0.5632236617918318
 40
0.5632236617918318
 40
0.5632236617918318
 10
9.908065339826493
 20
0.0677749415006428
 30
0.0
 41
1.0
 10
10.18863669819249
 20
0.0951224318130832
 30
0.0
 41
0.9984620498676391
 10
10.47051096213392
 20
0.0912402044612247
 30
0.0
 41
1.0
  0
SPLINE
  5
FA
330
1F
100
AcDbEntity
  8
MAKE2D VISIBLE LINES
100
AcDbSpline
210
0.0
220
0.0
230
1.0
 70
    12
 71
     2
 72
     6
 73
     3
 74
     0
 42
0.0000000001
 43
0.0000000001
 40
0.0
 40
0.0
 40
0.0
 40
0.0244668459291516
 40
0.0244668459291516
 40
0.0244668459291516
 10
10.96869697464185
 20
0.020023369394385
 30
0.0
 41
1.0
 10
10.95658723901706
 20
0.018256486780659
 30
0.0
 41
0.9994444606778478
 10
10.94438669699015
 20
0.0173002727238757
 30
0.0
 41
1.0
  0
SPLINE
  5
FB
330
1F
100
AcDbEntity
  8
MAKE2D VISIBLE LINES
100
AcDbSpline
210
0.0
220
0.0
230
1.0
 70
    12
 71
     2
 72
     6
 73
     3
 74
     0
 42
0.0000000001
 43
0.0000000001
 40
0.0
 40
0.0
 40
0.0
 40
0.0189857792823102
 40
0.0189857792823102
 40
0.0189857792823102
 10
9.993761984711938
 20
0.0044305809940167
 30
0.0
 41
1.0
 10
9.984283045942934
 20
0.0049900201061587
 30
0.0
 41
0.9995982353082127
 10
9.974851037785072
 20
0.0060856817403648
 30
0.0
 41
1.0
  0
SPLINE
  5
FC
330
1F
100
AcDbEntity
  8
MAKE2D VISIBLE LINES
100
AcDbSpline
210
0.0
220
0.0
230
1.0
 70
    12
 71
     2
 72
     6
 73
     3
 74
     0
 42
0.0000000001
 43
0.0000000001
 40
0.0
 40
0.0
 40
0.0
 40
0.5065890987312436
 40
0.5065890987312436
 40
0.5065890987312436
 10
10.47135158274995
 20
0.029829692927529
 30
0.0
 41
1.0
 10
10.7246872047995
 20
0.0404030609503318
 30
0.0
 41
0.9984529850107052
 10
10.97763037557372
 20
0.0227824517309864
 30
0.0
 41
1.0
  0
SPLINE
  5
FD
330
1F
100
AcDbEntity
  8
MAKE2D VISIBLE LINES - TANGENT
100
AcDbSpline
210
0.0
220
0.0
230
1.0
 70
    12
 71
     2
 72
     6
 73
     3
 74
     0
 42
0.0000000001
 43
0.0000000001
 40
0.0
 40
0.0
 40
0.0
 40
0.5627899102701721
 40
0.5627899102701721
 40
0.5627899102701721
 10
10.47051096213392
 20
0.0912402044612222
 30
0.0
 41
1.0
 10
10.75195159579745
 20
0.1029748172822486
 30
0.0
 41
0.9984553286292264
 10
11.03295658444133
 20
0.0834113878220775
 30
0.0
 41
1.0
  0
SPLINE
  5
FE
330
1F
100
AcDbEntity
  8
MAKE2D VISIBLE LINES
100
AcDbSpline
210
0.0
220
0.0
230
1.0
 70
    12
 71
     2
 72
     6
 73
     3
 74
     0
 42
0.0000000001
 43
0.0000000001
 40
0.0
 40
0.0
 40
0.0
 40
0.5063149953375323
 40
0.5063149953375323
 40
0.5063149953375323
 10
9.715802740540042
 20
0.0123486607531262
 30
0.0
 41
1.0
 10
9.462683686250358
 20
0.0071895985214661
 30
0.0
 41
0.9999163016101362
 10
9.209515887147731
 20
0.0085813833988548
 30
0.0
 41
1.0
  0
SPLINE
  5
FF
330
1F
100
AcDbEntity
  8
MAKE2D VISIBLE LINES - TANGENT
100
AcDbSpline
210
0.0
220
0.0
230
1.0
 70
    12
 71
     2
 72
     6
 73
     3
 74
     0
 42
0.0000000001
 43
0.0000000001
 40
0.0
 40
0.0
 40
0.0
 40
0.0555738419511214
 40
0.0555738419511214
 40
0.0555738419511214
 10
10.47051096213391
 20
0.0912402044612222
 30
0.0
 41
1.0
 10
10.47089949421572
 20
0.0634559990195458
 30
0.0
 41
0.9999999495846364
 10
10.47127038110798
 20
0.0356715524330647
 30
0.0
 41
1.0
  0
SPLINE
  5
100
330
1F
100
AcDbEntity
  8
MAKE2D VISIBLE LINES
100
AcDbSpline
210
0.0
220
0.0
230
1.0
 70
    12
 71
     2
 72
     6
 73
     3
 74
     0
 42
0.0000000001
 43
0.0000000001
 40
0.0
 40
0.0
 40
0.0
 40
0.2232770628088317
 40
0.2232770628088317
 40
0.2232770628088317
 10
9.939053213395244
 20
0.0157885027485918
 30
0.0
 41
1.0
 10
9.827430666443377
 20
0.0138940310797234
 30
0.0
 41
0.9999987773913326
 10
9.715802740540042
 20
0.0123486607531187
 30
0.0
 41
1.0
  0
SPLINE
  5
101
330
1F
100
AcDbEntity
  8
MAKE2D VISIBLE LINES - TANGENT
100
AcDbSpline
210
0.0
220
0.0
230
1.0
 70
    24
 71
     2
 72
     6
 73
     3
 74
     0
 42
0.0000000001
 43
0.0000000001
 40
0.0
 40
0.0
 40
0.0
 40
0.083919382297742
 40
0.083919382297742
 40
0.083919382297742
 10
9.714970180492529
 20
0.0718558459839258
 30
0.0
 10
9.714386742132461
 20
0.1138114806590043
 30
0.0
 10
9.713803303772394
 20
0.1557671153340827
 30
0.0
  0
SPLINE
  5
102
330
1F
100
AcDbEntity
  8
MAKE2D VISIBLE LINES
100
AcDbSpline
210
0.0
220
0.0
230
1.0
 70
    24
 71
     2
 72
     6
 73
     3
 74
     0
 42
0.0000000001
 43
0.0000000001
 40
0.0
 40
0.0
 40
0.0
 40
0.0838826130654571
 40
0.0838826130654571
 40
0.0838826130654571
 10
9.908065297723486
 20
0.0677749409149407
 30
0.0
 10
9.907481901466435
 20
0.1097121897813072
 30
0.0
 10
9.906898505209384
 20
0.1516494386476737
 30
0.0
  0
SPLINE
  5
103
330
1F
100
AcDbEntity
  8
MAKE2D VISIBLE LINES
100
AcDbSpline
210
0.0
220
0.0
230
1.0
 70
    12
 71
     2
 72
     6
 73
     3
 74
     0
 42
0.0000000001
 43
0.0000000001
 40
0.0
 40
0.0
 40
0.0
 40
0.0052093450909025
 40
0.0052093450909025
 40
0.0052093450909025
 10
10.94438631740938
 20
0.0172926811891851
 30
0.0
 41
1.0
 10
10.94179110486207
 20
0.0170708270980656
 30
0.0
 41
0.9999968676729302
 10
10.93919481426516
 20
0.0168619670018274
 30
0.0
 41
1.0
  0
SPLINE
  5
104
330
1F
100
AcDbEntity
  8
MAKE2D VISIBLE LINES
100
AcDbSpline
210
0.0
220
0.0
230
1.0
 70
    12
 71
     2
 72
     6
 73
     3
 74
     0
 42
0.0000000001
 43
0.0000000001
 40
0.0
 40
0.0
 40
0.0
 40
0.090505320952119
 40
0.090505320952119
 40
0.090505320952119
 10
11.0329566262165
 20
0.0834113883974209
 30
0.0
 41
1.0
 10
11.03243748025363
 20
0.0284224218270881
 30
0.0
 41
0.7543480160103304
 10
10.97790357826216
 20
0.0213436160952565
 30
0.0
 41
1.0
  0
SPLINE
  5
105
330
1F
100
AcDbEntity
  8
MAKE2D VISIBLE LINES
100
AcDbSpline
210
0.0
220
0.0
230
1.0
 70
    24
 71
     2
 72
     6
 73
     3
 74
     0
 42
0.0000000001
 43
0.0000000001
 40
0.0
 40
0.0
 40
0.0
 40
0.0838886667745187
 40
0.0838886667745187
 40
0.0838886667745187
 10
11.03178966561818
 20
0.1672979923872848
 30
0.0
 10
11.03237310397825
 20
0.1253577169592246
 30
0.0
 10
11.03295654233833
 20
0.0834174415311644
 30
0.0
  0
SPLINE
  5
106
330
1F
100
AcDbEntity
  8
MAKE2D VISIBLE LINES
100
AcDbSpline
210
0.0
220
0.0
230
1.0
 70
    12
 71
     2
 72
     6
 73
     3
 74
     0
 42
0.0000000001
 43
0.0000000001
 40
0.0
 40
0.0
 40
0.0
 40
0.0904127322649259
 40
0.0904127322649259
 40
0.0904127322649259
 10
9.209505564850545
 20
0.0084347375736737
 30
0.0
 41
1.0
 10
9.15347828508237
 20
0.011563877139587
 30
0.0
 41
0.7323677015908213
 10
9.152524560451603
 20
0.067670365195541
 30
0.0
 41
1.0
  0
SPLINE
  5
107
330
1F
100
AcDbEntity
  8
MAKE2D VISIBLE LINES
100
AcDbSpline
210
0.0
220
0.0
230
1.0
 70
    24
 71
     2
 72
     6
 73
     3
 74
     0
 42
0.0000000001
 43
0.0000000001
 40
0.0
 40
0.0
 40
0.0
 40
0.0839190555371551
 40
0.0839190555371551
 40
0.0839190555371551
 10
9.152524555913374
 20
0.0676706915448491
 30
0.0
 10
9.151941119825064
 20
0.1096261628554289
 30
0.0
 10
9.151357683736755
 20
0.1515816341660088
 30
0.0
  0
SPLINE
  5
108
330
1F
100
AcDbEntity
  8
MAKE2D VISIBLE LINES
100
AcDbSpline
210
0.0
220
0.0
230
1.0
 70
    24
 71
     2
 72
     6
 73
     3
 74
     0
 42
0.0000000001
 43
0.0000000001
 40
0.0
 40
0.0
 40
0.0
 40
11.19944391085841
 40
11.19944391085841
 40
11.19944391085841
 10
-9.751323940080109
 20
11.35130389372369
 30
0.0
 10
-9.829215095587962
 20
5.752123690693108
 30
0.0
 10
-9.907106251095817
 20
0.1529434876625295
 30
0.0
  0
SPLINE
  5
109
330
1F
100
AcDbEntity
  8
MAKE2D VISIBLE LINES
100
AcDbSpline
210
0.0
220
0.0
230
1.0
 70
    24
 71
     2
 72
     6
 73
     3
 74
     0
 42
0.0000000001
 43
0.0000000001
 40
0.0
 40
0.0
 40
0.0
 40
0.1783140376297247
 40
0.1783140376297247
 40
0.1783140376297247
 10
-9.484554419799064
 20
30.52794348766284
 30
0.0
 10
-9.485794578377007
 20
30.43879509445996
 30
0.0
 10
-9.487034736954952
 20
30.34964670125708
 30
0.0
  0
SPLINE
  5
10A
330
1F
100
AcDbEntity
  8
MAKE2D VISIBLE LINES
100
AcDbSpline
210
0.0
220
0.0
230
1.0
 70
    24
 71
     2
 72
     6
 73
     3
 74
     0
 42
0.0000000001
 43
0.0000000001
 40
0.0
 40
0.0
 40
0.0
 40
11.19943785714917
 40
11.19943785714917
 40
11.19943785714917
 10
9.907106166889424
 20
0.1529495407859292
 30
0.0
 10
9.829215053484592
 20
5.752126717254721
 30
0.0
 10
9.75132394007976
 20
11.35130389372351
 30
0.0
  0
SPLINE
  5
10B
330
1F
100
AcDbEntity
  8
MAKE2D VISIBLE LINES
100
AcDbSpline
210
0.0
220
0.0
230
1.0
 70
    24
 71
     2
 72
     6
 73
     3
 74
     0
 42
0.0000000001
 43
0.0000000001
 40
0.0
 40
0.0
 40
0.0
 40
19.50298970104444
 40
19.50298970104444
 40
19.50298970104444
 10
9.75149485052222
 20
11.35112096710088
 30
0.0
 10
-0.0000000000000009
 20
11.35112096710088
 30
0.0
 10
-9.751494850522223
 20
11.35112096710088
 30
0.0
  0
SPLINE
  5
10C
330
1F
100
AcDbEntity
  8
MAKE2D VISIBLE LINES
100
AcDbSpline
210
0.0
220
0.0
230
1.0
 70
    24
 71
     2
 72
     6
 73
     3
 74
     0
 42
0.0000000001
 43
0.0000000001
 40
0.0
 40
0.0
 40
0.0
 40
16.99555332354042
 40
16.99555332354042
 40
16.99555332354042
 10
-9.501010430632668
 20
29.34500853850699
 30
0.0
 10
-9.619213021529385
 20
20.84805400521497
 30
0.0
 10
-9.737415612426101
 20
12.35109947192295
 30
0.0
  0
SPLINE
  5
10D
330
1F
100
AcDbEntity
  8
MAKE2D VISIBLE LINES
100
AcDbSpline
210
0.0
220
0.0
230
1.0
 70
    24
 71
     2
 72
     6
 73
     3
 74
     0
 42
0.0000000001
 43
0.0000000001
 40
0.0
 40
0.0
 40
0.0
 40
0.1783140376297779
 40
0.1783140376297779
 40
0.1783140376297779
 10
9.487034736954598
 20
30.34964670125703
 30
0.0
 10
9.485794578376655
 20
30.43879509445993
 30
0.0
 10
9.484554419798712
 20
30.52794348766284
 30
0.0
  0
SPLINE
  5
10E
330
1F
100
AcDbEntity
  8
MAKE2D VISIBLE LINES
100
AcDbSpline
210
0.0
220
0.0
230
1.0
 70
    24
 71
     2
 72
     6
 73
     3
 74
     0
 42
0.0000000001
 43
0.0000000001
 40
0.0
 40
0.0
 40
0.0
 40
16.99555332354043
 40
16.99555332354043
 40
16.99555332354043
 10
9.73741561242575
 20
12.35109947192295
 30
0.0
 10
9.619213021529033
 20
20.84805400521498
 30
0.0
 10
9.501010430632316
 20
29.345008538507
 30
0.0
  0
SPLINE
  5
10F
330
1F
100
AcDbEntity
  8
MAKE2D VISIBLE LINES - TANGENT
100
AcDbSpline
210
0.0
220
0.0
230
1.0
 70
    12
 71
     2
 72
     6
 73
     3
 74
     0
 42
0.0000000001
 43
0.0000000001
 40
0.0
 40
0.0
 40
0.0
 40
0.5624768622018264
 40
0.5624768622018264
 40
0.5624768622018264
 10
9.714970180492536
 20
0.0718558459839258
 30
0.0
 41
1.0
 10
9.433774424802607
 20
0.0661272674095801
 30
0.0
 41
0.999916427663306
 10
9.152524558185124
 20
0.0676706915764388
 30
0.0
 41
1.0
  0
SPLINE
  5
110
330
1F
100
AcDbEntity
  8
MAKE2D VISIBLE LINES
100
AcDbSpline
210
0.0
220
0.0
230
1.0
 70
    12
 71
     2
 72
     6
 73
     3
 74
     0
 42
0.0000000001
 43
0.0000000001
 40
0.0
 40
0.0
 40
0.0
 40
0.0905147717559405
 40
0.0905147717559405
 40
0.0905147717559405
 10
9.96483272995211
 20
0.00719369353881
 30
0.0
 41
1.0
 10
9.910203626941913
 20
0.0128856881192576
 30
0.0
 41
0.7557362780880932
 10
9.908065381929514
 20
0.0677688877915551
 30
0.0
 41
1.0
  0
SPLINE
  5
111
330
1F
100
AcDbEntity
  8
MAKE2D VISIBLE LINES
100
AcDbSpline
210
0.0
220
0.0
230
1.0
 70
    12
 71
     2
 72
     6
 73
     3
 74
     0
 42
0.0000000001
 43
0.0000000001
 40
0.0
 40
0.0
 40
0.0
 40
0.0216616498728633
 40
0.0216616498728633
 40
0.0216616498728633
 10
10.01539380327647
 20
0.0032843584233708
 30
0.0
 41
1.0
 10
10.00457238121453
 20
0.0037439607913488
 30
0.0
 41
0.9999511505793891
 10
9.993762158696985
 20
0.0044173840610374
 30
0.0
 41
1.0
  0
SPLINE
  5
112
330
1F
100
AcDbEntity
  8
MAKE2D VISIBLE LINES
100
AcDbSpline
210
0.0
220
0.0
230
1.0
 70
    12
 71
     2
 72
    10
 73
     7
 74
     0
 42
0.0000000001
 43
0.0000000001
 40
0.0
 40
0.0
 40
0.0
 40
0.0006836465066937
 40
0.0006836465066937
 40
0.5639073082984655
 40
0.5639073082984655
 40
1.126697218566951
 40
1.126697218566951
 40
1.126697218566951
 10
-9.907464762181652
 20
0.1523959079753013
 30
0.0
 41
1.0
 10
-9.907147693513663
 20
0.1525834854987681
 30
0.0
 41
0.8952229819110618
 10
-9.907106208992797
 20
0.1529495413716315
 30
0.0
 41
1.0
 10
-10.18767756735881
 20
0.1802970316835667
 30
0.0
 41
0.9984620498677053
 10
-10.46955183130019
 20
0.1764148043318801
 30
0.0
 41
1.0
 10
-10.75099246496288
 20
0.18814941715277
 30
0.0
 41
0.9984553286292679
 10
-11.03199745360593
 20
0.1685859876929756
 30
0.0
 41
1.0
  0
SPLINE
  5
113
330
1F
100
AcDbEntity
  8
MAKE2D VISIBLE LINES
100
AcDbSpline
210
0.0
220
0.0
230
1.0
 70
    24
 71
     2
 72
     6
 73
     3
 74
     0
 42
0.0000000001
 43
0.0000000001
 40
0.0
 40
0.0
 40
0.0
 40
30.37793895329555
 40
30.37793895329555
 40
30.37793895329555
 10
-11.03199745360593
 20
0.1685859876929765
 30
0.0
 10
-10.82072153795755
 20
15.35608598769313
 30
0.0
 10
-10.60944562230918
 20
30.54358598769329
 30
0.0
  0
SPLINE
  5
114
330
1F
100
AcDbEntity
  8
MAKE2D VISIBLE LINES
100
AcDbSpline
210
0.0
220
0.0
230
1.0
 70
    12
 71
     2
 72
     8
 73
     5
 74
     0
 42
0.0000000001
 43
0.0000000001
 40
0.0
 40
0.0
 40
0.0
 40
0.5627899102684855
 40
0.5627899102684855
 40
1.126013572060257
 40
1.126013572060257
 40
1.126013572060257
 10
-10.60944562230918
 20
30.54358598769329
 30
0.0
 41
1.0
 10
-10.32844063366612
 20
30.56314941715309
 30
0.0
 41
0.9984553286292662
 10
-10.04700000000344
 20
30.5514148043322
 30
0.0
 41
1.0
 10
-9.765125736062053
 20
30.55529703168389
 30
0.0
 41
0.9984620498677059
 10
-9.484554377696044
 20
30.52794954137195
 30
0.0
 41
1.0
  0
SPLINE
  5
115
330
1F
100
AcDbEntity
  8
MAKE2D VISIBLE LINES
100
AcDbSpline
210
0.0
220
0.0
230
1.0
 70
     8
 71
     3
 72
    18
 73
    14
 74
     0
 42
0.0000000001
 43
0.0000000001
 40
0.0
 40
0.0
 40
0.0
 40
0.0
 40
0.0053910331741847
 40
0.0187216616001934
 40
0.2603069242523469
 40
0.4188385366264322
 40
0.6341938926946245
 40
0.8542207113193827
 40
1.006017324548733
 40
1.136790470840922
 40
1.181567022359473
 40
1.193677353783258
 40
1.19916158609479
 40
1.19916158609479
 40
1.19916158609479
 40
1.19916158609479
 10
-9.501011749401417
 20
29.3450085568526
 30
0.0
 10
-9.50163591111269
 20
29.34646158873711
 30
0.0
 10
-9.505038792512527
 20
29.35237647169306
 30
0.0
 10
-9.55582768098895
 20
29.42092103708608
 30
0.0
 10
-9.638780395280772
 20
29.53449521245702
 30
0.0
 10
-9.74908945353078
 20
29.70256499831666
 30
0.0
 10
-9.82817607655619
 20
29.89702096670775
 30
0.0
 10
-9.740516984255017
 20
30.08757450944626
 30
0.0
 10
-9.631006222927407
 20
30.20954051215493
 30
0.0
 10
-9.5542705176763
 20
30.29021501059488
 30
0.0
 10
-9.509450876225234
 20
30.3320010140764
 30
0.0
 10
-9.493389792365297
 20
30.34609441924349
 30
0.0
 10
-9.488740871842591
 20
30.34949300040931
 30
0.0
 10
-9.48703472564586
 20
30.34964670109973
 30
0.0
  0
SPLINE
  5
116
330
1F
100
AcDbEntity
  8
MAKE2D VISIBLE LINES
100
AcDbSpline
210
0.0
220
0.0
230
1.0
 70
    24
 71
     2
 72
     6
 73
     3
 74
     0
 42
0.0000000001
 43
0.0000000001
 40
0.0
 40
0.0
 40
0.0
 40
30.37793895329555
 40
30.37793895329555
 40
30.37793895329555
 10
11.03199745360558
 20
0.1685859876929765
 30
0.0
 10
10.8207215379572
 20
15.35608598769313
 30
0.0
 10
10.60944562230883
 20
30.54358598769329
 30
0.0
  0
SPLINE
  5
117
330
1F
100
AcDbEntity
  8
MAKE2D VISIBLE LINES
100
AcDbSpline
210
0.0
220
0.0
230
1.0
 70
    12
 71
     2
 72
     8
 73
     5
 74
     0
 42
0.0000000001
 43
0.0000000001
 40
0.0
 40
0.0
 40
0.0
 40
0.5627899102684871
 40
0.5627899102684871
 40
1.126013572060257
 40
1.126013572060257
 40
1.126013572060257
 10
10.60944562230883
 20
30.54358598769329
 30
0.0
 41
1.0
 10
10.32844063366577
 20
30.56314941715309
 30
0.0
 41
0.9984553286292662
 10
10.04700000000309
 20
30.5514148043322
 30
0.0
 41
1.0
 10
9.7651257360617
 20
30.55529703168388
 30
0.0
 41
0.998462049867706
 10
9.484554377695694
 20
30.52794954137195
 30
0.0
 41
1.0
  0
SPLINE
  5
118
330
1F
100
AcDbEntity
  8
MAKE2D VISIBLE LINES
100
AcDbSpline
210
0.0
220
0.0
230
1.0
 70
    12
 71
     2
 72
     8
 73
     5
 74
     0
 42
0.0000000001
 43
0.0000000001
 40
0.0
 40
0.0
 40
0.0
 40
0.56322366179177
 40
0.56322366179177
 40
1.126013572060257
 40
1.126013572060257
 40
1.126013572060257
 10
9.907106208992445
 20
0.1529495413716315
 30
0.0
 41
1.0
 10
10.18767756735845
 20
0.1802970316835678
 30
0.0
 41
0.9984620498677054
 10
10.46955183129984
 20
0.1764148043318816
 30
0.0
 41
1.0
 10
10.75099246496252
 20
0.1881494171527693
 30
0.0
 41
0.998455328629268
 10
11.03199745360558
 20
0.1685859876929758
 30
0.0
 41
1.0
  0
SPLINE
  5
119
330
1F
100
AcDbEntity
  8
MAKE2D VISIBLE LINES
100
AcDbSpline
210
0.0
220
0.0
230
1.0
 70
    24
 71
     2
 72
     6
 73
     3
 74
     0
 42
0.0000000001
 43
0.0000000001
 40
0.0
 40
0.0
 40
0.0
 40
0.7555071161106159
 40
0.7555071161106159
 40
0.7555071161106159
 10
9.151538315388798
 20
0.1521189080799115
 30
0.0
 10
9.529247217778899
 20
0.1579271503880825
 30
0.0
 10
9.906956120169
 20
0.1637353926962535
 30
0.0
  0
SPLINE
  5
11A
330
1F
100
AcDbEntity
  8
MAKE2D VISIBLE LINES
100
AcDbSpline
210
0.0
220
0.0
230
1.0
 70
    12
 71
     2
 72
     6
 73
     3
 74
     0
 42
0.0000000001
 43
0.0000000001
 40
0.0
 40
0.0
 40
0.0
 40
16.7061507502362
 40
16.7061507502362
 40
16.7061507502362
 10
8.963946762998866
 20
12.35110170510598
 30
0.0
 41
1.0
 10
8.835509943654936
 20
20.70318960018548
 30
0.0
 41
0.9999999999999972
 10
8.707074372766918
 20
29.05527751415244
 30
0.0
 41
1.0
  0
SPLINE
  5
11B
330
1F
100
AcDbEntity
  8
MAKE2D VISIBLE LINES
100
AcDbSpline
210
0.0
220
0.0
230
1.0
 70
    12
 71
     2
 72
     6
 73
     3
 74
     0
 42
0.0000000001
 43
0.0000000001
 40
0.0
 40
0.0
 40
0.0
 40
11.20032609016065
 40
11.20032609016065
 40
11.20032609016065
 10
9.15153831573324
 20
0.1521189080085605
 30
0.0
 41
1.0
 10
9.065431636934976
 20
5.751619936744335
 30
0.0
 41
0.9999999999999976
 10
8.979324167009196
 20
11.35112095344772
 30
0.0
 41
1.0
  0
SPLINE
  5
11C
330
1F
100
AcDbEntity
  8
MAKE2D VISIBLE LINES
100
AcDbSpline
210
0.0
220
0.0
230
1.0
 70
     8
 71
     3
 72
    15
 73
    11
 74
     0
 42
0.0000000001
 43
0.0000000001
 40
0.0
 40
0.0
 40
0.0
 40
0.0
 40
0.0054786828375919
 40
0.0175767435205413
 40
0.0623087979894061
 40
0.1930360759864183
 40
0.3449455011135125
 40
0.5647021585283581
 40
0.7801322953344204
 40
1.199167188926121
 40
1.199167188926121
 40
1.199167188926121
 40
1.199167188926121
 10
9.487034725645504
 20
30.34964670109973
 30
0.0
 10
9.488739433392215
 20
30.34945672630906
 30
0.0
 10
9.4933829745295
 20
30.34617981667481
 30
0.0
 10
9.509431036263212
 20
30.33186590962044
 30
0.0
 10
9.554223422123986
 20
30.29057974022909
 30
0.0
 10
9.630973876392282
 20
30.20913515527104
 30
0.0
 10
9.740434953164996
 20
30.08842453919741
 30
0.0
 10
9.828161000868903
 20
29.8958923113228
 30
0.0
 10
9.714531478440186
 20
29.62058988370419
 30
0.0
 10
9.580698302976302
 20
29.46142830518477
 30
0.0
 10
9.501011749401059
 20
29.34500855685261
 30
0.0
  0
SPLINE
  5
11D
330
1F
100
AcDbEntity
  8
MAKE2D VISIBLE LINES - TANGENT
100
AcDbSpline
210
0.0
220
0.0
230
1.0
 70
    12
 71
     2
 72
     6
 73
     3
 74
     0
 42
0.0000000001
 43
0.0000000001
 40
0.0
 40
0.0
 40
0.0
 40
0.1929693408432931
 40
0.1929693408432931
 40
0.1929693408432931
 10
9.907968119801385
 20
0.0747603374748422
 30
0.0
 41
1.0
 10
9.81149609368112
 20
0.0731956368645405
 30
0.0
 41
0.9999993163791163
 10
9.715020672183936
 20
0.071856548110679
 30
0.0
 41
1.0
  0
SPLINE
  5
11E
330
1F
100
AcDbEntity
  8
MAKE2D VISIBLE LINES
100
AcDbSpline
210
0.0
220
0.0
230
1.0
 70
     8
 71
     3
 72
    16
 73
    12
 74
     0
 42
0.0000000001
 43
0.0000000001
 40
0.0
 40
0.0
 40
0.0
 40
0.0
 40
0.0049105222910403
 40
0.4001780457543606
 40
0.6096186468120313
 40
0.8272979596032723
 40
1.010328741311096
 40
1.125752921806857
 40
1.174326713365867
 40
1.191629396650892
 40
1.198504039124935
 40
1.198504039124935
 40
1.198504039124935
 40
1.198504039124935
 10
9.755406172683237
 20
11.35400919775529
 30
0.0
 10
9.750523203138414
 20
11.34939796756023
 30
0.0
 10
9.827994023123114
 20
11.45632001033893
 30
0.0
 10
9.967787909722489
 20
11.60262414819399
 30
0.0
 10
10.07968358475599
 20
11.86726716212537
 30
0.0
 10
9.98719502377423
 20
12.06659581786035
 30
0.0
 10
9.881207778165088
 20
12.1939780767375
 30
0.0
 10
9.804259112951645
 20
12.28549649195391
 30
0.0
 10
9.763092071917065
 20
12.32679002634271
 30
0.0
 10
9.745595878417127
 20
12.34518185572232
 30
0.0
 10
9.739665231145192
 20
12.34985445159081
 30
0.0
 10
9.737576140847924
 20
12.35110170506135
 30
0.0
  0
SPLINE
  5
11F
330
1F
100
AcDbEntity
  8
MAKE2D VISIBLE LINES
100
AcDbSpline
210
0.0
220
0.0
230
1.0
 70
    12
 71
     2
 72
     6
 73
     3
 74
     0
 42
0.0000000001
 43
0.0000000001
 40
0.0
 40
0.0
 40
0.0
 40
0.5069875979584554
 40
0.5069875979584554
 40
0.5069875979584554
 10
-9.96505666878934
 20
0.0087072649176561
 30
0.0
 41
1.0
 10
-10.21761324771166
 20
0.0333347456140189
 30
0.0
 41
0.9984597417000957
 10
-10.47134352218165
 20
0.0298295808841269
 30
0.0
 41
1.0
  0
SPLINE
  5
120
330
1F
100
AcDbEntity
  8
MAKE2D VISIBLE LINES
100
AcDbSpline
210
0.0
220
0.0
230
1.0
 70
    12
 71
     2
 72
     6
 73
     3
 74
     0
 42
0.0000000001
 43
0.0000000001
 40
0.0
 40
0.0
 40
0.0
 40
0.4678786518234967
 40
0.4678786518234967
 40
0.4678786518234967
 10
-10.47134352218165
 20
0.0016601357645172
 30
0.0
 41
1.0
 10
-10.23740407797402
 20
-0.0031975554030883
 30
0.0
 41
0.9996759969501298
 10
-10.00352055875833
 20
0.0038565326980933
 30
0.0
 41
1.0
  0
SPLINE
  5
121
330
1F
100
AcDbEntity
  8
MAKE2D VISIBLE LINES - TANGENT
100
AcDbSpline
210
0.0
220
0.0
230
1.0
 70
    12
 71
     2
 72
     6
 73
     3
 74
     0
 42
0.0000000001
 43
0.0000000001
 40
0.0
 40
0.0
 40
0.0
 40
0.5632236617918318
 40
0.5632236617918318
 40
0.5632236617918318
 10
-9.90806533982673
 20
0.0677749415006437
 30
0.0
 41
1.0
 10
-10.18863669819273
 20
0.0951224318130832
 30
0.0
 41
0.9984620498676391
 10
-10.47051096213416
 20
0.0912402044612238
 30
0.0
 41
1.0
  0
SPLINE
  5
122
330
1F
100
AcDbEntity
  8
MAKE2D VISIBLE LINES
100
AcDbSpline
210
0.0
220
0.0
230
1.0
 70
    12
 71
     2
 72
     6
 73
     3
 74
     0
 42
0.0000000001
 43
0.0000000001
 40
0.0
 40
0.0
 40
0.0
 40
0.4681485405974191
 40
0.4681485405974191
 40
0.4681485405974191
 10
-10.93919459623116
 20
0.0168646750117922
 30
0.0
 41
1.0
 10
-10.70546245012939
 20
0.0033116725472264
 30
0.0
 41
0.9996765963466815
 10
-10.47134352218165
 20
0.001660135764517
 30
0.0
 41
1.0
  0
SPLINE
  5
123
330
1F
100
AcDbEntity
  8
MAKE2D VISIBLE LINES
100
AcDbSpline
210
0.0
220
0.0
230
1.0
 70
    12
 71
     2
 72
     6
 73
     3
 74
     0
 42
0.0000000001
 43
0.0000000001
 40
0.0
 40
0.0
 40
0.0
 40
0.0147217657248665
 40
0.0147217657248665
 40
0.0147217657248665
 10
-10.96869697464209
 20
0.0200233693943849
 30
0.0
 41
1.0
 10
-10.96141791743812
 20
0.0189165706255673
 30
0.0
 41
0.9996253281867569
 10
-10.95408920026571
 20
0.0182097595473553
 30
0.0
 41
1.0
  0
SPLINE
  5
124
330
1F
100
AcDbEntity
  8
MAKE2D VISIBLE LINES
100
AcDbSpline
210
0.0
220
0.0
230
1.0
 70
    12
 71
     2
 72
     6
 73
     3
 74
     0
 42
0.0000000001
 43
0.0000000001
 40
0.0
 40
0.0
 40
0.0
 40
0.5065890987312384
 40
0.5065890987312384
 40
0.5065890987312384
 10
-10.47135158275019
 20
0.029829692927529
 30
0.0
 41
1.0
 10
-10.72468720479974
 20
0.0404030609503315
 30
0.0
 41
0.9984529850107052
 10
-10.97763037557396
 20
0.0227824517309866
 30
0.0
 41
1.0
  0
SPLINE
  5
125
330
1F
100
AcDbEntity
  8
MAKE2D VISIBLE LINES - TANGENT
100
AcDbSpline
210
0.0
220
0.0
230
1.0
 70
    24
 71
     2
 72
     6
 73
     3
 74
     0
 42
0.0000000001
 43
0.0000000001
 40
0.0
 40
0.0
 40
0.0
 40
0.0838886667745171
 40
0.0838886667745171
 40
0.0838886667745171
 10
-10.469344085414
 20
0.1751207553173408
 30
0.0
 10
-10.46992752377408
 20
0.1331804798892815
 30
0.0
 10
-10.47051096213417
 20
0.0912402044612222
 30
0.0
  0
SPLINE
  5
126
330
1F
100
AcDbEntity
  8
MAKE2D VISIBLE LINES - TANGENT
100
AcDbSpline
210
0.0
220
0.0
230
1.0
 70
    12
 71
     2
 72
     6
 73
     3
 74
     0
 42
0.0000000001
 43
0.0000000001
 40
0.0
 40
0.0
 40
0.0
 40
0.5627899102701737
 40
0.5627899102701737
 40
0.5627899102701737
 10
-10.47051096213416
 20
0.0912402044612213
 30
0.0
 41
1.0
 10
-10.75195159579769
 20
0.102974817282247
 30
0.0
 41
0.9984553286292265
 10
-11.03295658444157
 20
0.083411387822076
 30
0.0
 41
1.0
  0
SPLINE
  5
127
330
1F
100
AcDbEntity
  8
MAKE2D VISIBLE LINES
100
AcDbSpline
210
0.0
220
0.0
230
1.0
 70
    12
 71
     2
 72
     6
 73
     3
 74
     0
 42
0.0000000001
 43
0.0000000001
 40
0.0
 40
0.0
 40
0.0
 40
0.5063149953375325
 40
0.5063149953375325
 40
0.5063149953375325
 10
-9.715802740540282
 20
0.0123486607531262
 30
0.0
 41
1.0
 10
-9.462683686250598
 20
0.0071895985214661
 30
0.0
 41
0.9999163016101362
 10
-9.20951588714797
 20
0.0085813833988549
 30
0.0
 41
1.0
  0
SPLINE
  5
128
330
1F
100
AcDbEntity
  8
MAKE2D VISIBLE LINES - TANGENT
100
AcDbSpline
210
0.0
220
0.0
230
1.0
 70
    12
 71
     2
 72
     6
 73
     3
 74
     0
 42
0.0000000001
 43
0.0000000001
 40
0.0
 40
0.0
 40
0.0
 40
0.0555738419511213
 40
0.0555738419511213
 40
0.0555738419511213
 10
-10.47051096213418
 20
0.0912402044612222
 30
0.0
 41
1.0
 10
-10.47089949421598
 20
0.0634559990195459
 30
0.0
 41
0.9999999495846364
 10
-10.47127038110824
 20
0.0356715524330651
 30
0.0
 41
1.0
  0
SPLINE
  5
129
330
1F
100
AcDbEntity
  8
MAKE2D VISIBLE LINES
100
AcDbSpline
210
0.0
220
0.0
230
1.0
 70
    12
 71
     2
 72
     6
 73
     3
 74
     0
 42
0.0000000001
 43
0.0000000001
 40
0.0
 40
0.0
 40
0.0
 40
0.2070499363740242
 40
0.2070499363740242
 40
0.2070499363740242
 10
-9.713803303772634
 20
0.1557671153340863
 30
0.0
 41
1.0
 10
-9.610288334723505
 20
0.1543243189527896
 30
0.0
 41
0.9999991993986703
 10
-9.506770045785037
 20
0.153143499791107
 30
0.0
 41
1.0
  0
SPLINE
  5
12A
330
1F
100
AcDbEntity
  8
MAKE2D VISIBLE LINES - TANGENT
100
AcDbSpline
210
0.0
220
0.0
230
1.0
 70
    12
 71
     2
 72
     6
 73
     3
 74
     0
 42
0.0000000001
 43
0.0000000001
 40
0.0
 40
0.0
 40
0.0
 40
0.5624768622018282
 40
0.5624768622018282
 40
0.5624768622018282
 10
-9.714970180492775
 20
0.0718558459839258
 30
0.0
 41
1.0
 10
-9.433774424802847
 20
0.0661272674095801
 30
0.0
 41
0.999916427663306
 10
-9.152524558185362
 20
0.0676706915764388
 30
0.0
 41
1.0
  0
SPLINE
  5
12B
330
1F
100
AcDbEntity
  8
MAKE2D VISIBLE LINES - TANGENT
100
AcDbSpline
210
0.0
220
0.0
230
1.0
 70
    24
 71
     2
 72
     6
 73
     3
 74
     0
 42
0.0000000001
 43
0.0000000001
 40
0.0
 40
0.0
 40
0.0
 40
0.083919382297742
 40
0.083919382297742
 40
0.083919382297742
 10
-9.714970180492768
 20
0.0718558459839258
 30
0.0
 10
-9.714386742132701
 20
0.1138114806590043
 30
0.0
 10
-9.713803303772634
 20
0.1557671153340827
 30
0.0
  0
SPLINE
  5
12C
330
1F
100
AcDbEntity
  8
MAKE2D VISIBLE LINES - TANGENT
100
AcDbSpline
210
0.0
220
0.0
230
1.0
 70
    24
 71
     2
 72
     6
 73
     3
 74
     0
 42
0.0000000001
 43
0.0000000001
 40
0.0
 40
0.0
 40
0.0
 40
0.0072711608298357
 40
0.0072711608298357
 40
0.0072711608298357
 10
-9.713803303772634
 20
0.1630389791749352
 30
0.0
 10
-9.713853855552621
 20
0.1594037502315432
 30
0.0
 10
-9.713904407332606
 20
0.1557685212881513
 30
0.0
  0
SPLINE
  5
12D
330
1F
100
AcDbEntity
  8
MAKE2D VISIBLE LINES
100
AcDbSpline
210
0.0
220
0.0
230
1.0
 70
    12
 71
     2
 72
     6
 73
     3
 74
     0
 42
0.0000000001
 43
0.0000000001
 40
0.0
 40
0.0
 40
0.0
 40
0.1931945837292487
 40
0.1931945837292487
 40
0.1931945837292487
 10
-9.907026516030669
 20
0.1586752717190194
 30
0.0
 41
1.0
 10
-9.810441887716637
 20
0.1571084608484773
 30
0.0
 41
0.9999993146036918
 10
-9.713853855329573
 20
0.155767818293313
 30
0.0
 41
1.0
  0
SPLINE
  5
12E
330
1F
100
AcDbEntity
  8
MAKE2D VISIBLE LINES
100
AcDbSpline
210
0.0
220
0.0
230
1.0
 70
    12
 71
     2
 72
     6
 73
     3
 74
     0
 42
0.0000000001
 43
0.0000000001
 40
0.0
 40
0.0
 40
0.0
 40
0.2232234698451876
 40
0.2232234698451876
 40
0.2232234698451876
 10
-9.93899962824737
 20
0.0157875874763675
 30
0.0
 41
1.0
 10
-9.827403872378499
 20
0.0138936656684212
 30
0.0
 41
0.9999987780964357
 10
-9.715802740540282
 20
0.012348660753128
 30
0.0
 41
1.0
  0
SPLINE
  5
12F
330
1F
100
AcDbEntity
  8
MAKE2D VISIBLE LINES - TANGENT
100
AcDbSpline
210
0.0
220
0.0
230
1.0
 70
    12
 71
     2
 72
     6
 73
     3
 74
     0
 42
0.0000000001
 43
0.0000000001
 40
0.0
 40
0.0
 40
0.0
 40
0.0595130093310908
 40
0.0595130093310908
 40
0.0595130093310908
 10
-9.715802740540276
 20
0.0123486607531245
 30
0.0
 41
1.0
 10
-9.715381771875983
 20
0.0421021877701479
 30
0.0
 41
0.9999999875839045
 10
-9.71497018049276
 20
0.0718558459839258
 30
0.0
 41
1.0
  0
SPLINE
  5
130
330
1F
100
AcDbEntity
  8
MAKE2D VISIBLE LINES - TANGENT
100
AcDbSpline
210
0.0
220
0.0
230
1.0
 70
    12
 71
     2
 72
     6
 73
     3
 74
     0
 42
0.0000000001
 43
0.0000000001
 40
0.0
 40
0.0
 40
0.0
 40
0.1929693438165284
 40
0.1929693438165284
 40
0.1929693438165284
 10
-9.907968122774463
 20
0.0747603375232018
 30
0.0
 41
1.0
 10
-9.811496095167833
 20
0.0731956368850618
 30
0.0
 41
0.9999993163790929
 10
-9.715020672184172
 20
0.0718565481106718
 30
0.0
 41
1.0
  0
SPLINE
  5
131
330
1F
100
AcDbEntity
  8
MAKE2D VISIBLE LINES - TANGENT
100
AcDbSpline
210
0.0
220
0.0
230
1.0
 70
    12
 71
     2
 72
     6
 73
     3
 74
     0
 42
0.0000000001
 43
0.0000000001
 40
0.0
 40
0.0
 40
0.0
 40
0.0595130093310902
 40
0.0595130093310902
 40
0.0595130093310902
 10
9.715802740540035
 20
0.0123486607531245
 30
0.0
 41
1.0
 10
9.715381771875741
 20
0.0421021877701476
 30
0.0
 41
0.9999999875839045
 10
9.714970180492514
 20
0.0718558459839252
 30
0.0
 41
1.0
  0
SPLINE
  5
132
330
1F
100
AcDbEntity
  8
MAKE2D VISIBLE LINES
100
AcDbSpline
210
0.0
220
0.0
230
1.0
 70
    24
 71
     2
 72
     6
 73
     3
 74
     0
 42
0.0000000001
 43
0.0000000001
 40
0.0
 40
0.0
 40
0.0
 40
19.4751522816962
 40
19.4751522816962
 40
19.4751522816962
 10
-9.737576140848278
 20
12.35110170506135
 30
0.0
 10
-0.000000000000175
 20
12.35110170506135
 30
0.0
 10
9.737576140847928
 20
12.35110170506135
 30
0.0
  0
SPLINE
  5
133
330
1F
100
AcDbEntity
  8
MAKE2D VISIBLE LINES
100
AcDbSpline
210
0.0
220
0.0
230
1.0
 70
     8
 71
     3
 72
    16
 73
    12
 74
     0
 42
0.0000000001
 43
0.0000000001
 40
0.0
 40
0.0
 40
0.0
 40
0.0
 40
0.0049105222933619
 40
0.4001780457564439
 40
0.6096186468141214
 40
0.8272979596053677
 40
1.010328741303814
 40
1.1257529217811
 40
1.174326713355417
 40
1.191629396649333
 40
1.198504039126675
 40
1.198504039126675
 40
1.198504039126675
 40
1.198504039126675
 10
-9.755406172684793
 20
11.3540091977576
 30
0.0
 10
-9.75052320313835
 20
11.34939796755967
 30
0.0
 10
-9.827994023122798
 20
11.45632001033798
 30
0.0
 10
-9.967787909722986
 20
11.60262414819435
 30
0.0
 10
-10.07968358475634
 20
11.8672671621252
 30
0.0
 10
-9.987195023775907
 20
12.06659581785741
 30
0.0
 10
-9.881207778173557
 20
12.19397807672841
 30
0.0
 10
-9.804259112961825
 20
12.28549649194049
 30
0.0
 10
-9.763092071925813
 20
12.32679002633031
 30
0.0
 10
-9.745595878420483
 20
12.34518185571784
 30
0.0
 10
-9.7396652311461
 20
12.34985445158948
 30
0.0
 10
-9.737576140848276
 20
12.35110170506135
 30
0.0
  0
SPLINE
  5
134
330
1F
100
AcDbEntity
  8
MAKE2D VISIBLE LINES
100
AcDbSpline
210
0.0
220
0.0
230
1.0
 70
    24
 71
     2
 72
     6
 73
     3
 74
     0
 42
0.0000000001
 43
0.0000000001
 40
0.0
 40
0.0
 40
0.0
 40
0.7555071189957907
 40
0.7555071189957907
 40
0.7555071189957907
 10
-9.151538315389152
 20
0.1521189080799115
 30
0.0
 10
-9.52924721922167
 20
0.1579271504102633
 30
0.0
 10
-9.906956123054186
 20
0.1637353927406152
 30
0.0
  0
SPLINE
  5
135
330
1F
100
AcDbEntity
  8
MAKE2D VISIBLE LINES
100
AcDbSpline
210
0.0
220
0.0
230
1.0
 70
    12
 71
     2
 72
     6
 73
     3
 74
     0
 42
0.0000000001
 43
0.0000000001
 40
0.0
 40
0.0
 40
0.0
 40
16.70615075018083
 40
16.70615075018083
 40
16.70615075018083
 10
-8.963946756402684
 20
12.35110170510598
 30
0.0
 41
1.0
 10
-8.835509937059186
 20
20.7031896001578
 30
0.0
 41
0.9999999999999972
 10
-8.70707436617161
 20
29.05527751432992
 30
0.0
 41
1.0
  0
SPLINE
  5
136
330
1F
100
AcDbEntity
  8
MAKE2D VISIBLE LINES
100
AcDbSpline
210
0.0
220
0.0
230
1.0
 70
    12
 71
     2
 72
     6
 73
     3
 74
     0
 42
0.0000000001
 43
0.0000000001
 40
0.0
 40
0.0
 40
0.0
 40
11.20032608995715
 40
11.20032608995715
 40
11.20032608995715
 10
-9.15153830913706
 20
0.1521189080085605
 30
0.0
 41
1.0
 10
-9.065431630340358
 20
5.751619936642597
 30
0.0
 41
0.9999999999999976
 10
-8.979324160416136
 20
11.35112095324424
 30
0.0
 41
1.0
  0
SPLINE
  5
137
330
1F
100
AcDbEntity
  8
MAKE2D VISIBLE LINES
100
AcDbSpline
210
0.0
220
0.0
230
1.0
 70
    12
 71
     2
 72
     6
 73
     3
 74
     0
 42
0.0000000001
 43
0.0000000001
 40
0.0
 40
0.0
 40
0.0
 40
1.670982898197756
 40
1.670982898197756
 40
1.670982898197756
 10
-7.33622984719219
 20
80.5615182014676
 30
0.0
 41
1.0
 10
-8.132109888848756
 20
80.81685251915539
 30
0.0
 41
0.9993830291017615
 10
-8.908101713635435
 20
81.1274283430062
 30
0.0
 41
1.0
  0
SPLINE
  5
138
330
1F
100
AcDbEntity
  8
MAKE2D VISIBLE LINES
100
AcDbSpline
210
0.0
220
0.0
230
1.0
 70
    12
 71
     2
 72
     6
 73
     3
 74
     0
 42
0.0000000001
 43
0.0000000001
 40
0.0
 40
0.0
 40
0.0
 40
2.639642129036065
 40
2.639642129036065
 40
2.639642129036065
 10
-8.972632521817614
 20
81.69135386650935
 30
0.0
 41
1.0
 10
-7.751747667778903
 20
81.18628595585987
 30
0.0
 41
0.9983991760168243
 10
-6.481631960479207
 20
80.82233608120745
 30
0.0
 41
1.0
  0
ENDSEC
  0
SECTION
  2
OBJECTS
  0
DICTIONARY
  5
C
330
0
100
AcDbDictionary
281
     1
  3
ACAD_GROUP
350
D
  3
ACAD_LAYOUT
350
1A
  3
ACAD_MLEADERSTYLE
350
13A
  3
ACAD_MLINESTYLE
350
17
  3
ACAD_PLOTSETTINGS
350
19
  3
ACAD_PLOTSTYLENAME
350
E
  3
ACAD_TABLESTYLE
350
139
  3
ACAD_VISUALSTYLE
350
2A
  0
DICTIONARY
  5
D
102
{ACAD_REACTORS
330
C
102
}
330
C
100
AcDbDictionary
281
     1
  0
DICTIONARY
  5
1A
102
{ACAD_REACTORS
330
C
102
}
330
C
100
AcDbDictionary
281
     1
  3
Layout1
350
1E
  3
Layout2
350
26
  3
Model
350
22
  0
DICTIONARY
  5
13A
102
{ACAD_REACTORS
330
C
102
}
330
C
100
AcDbDictionary
281
     1
  0
DICTIONARY
  5
17
102
{ACAD_REACTORS
330
C
102
}
330
C
100
AcDbDictionary
281
     1
  3
Standard
350
18
  0
DICTIONARY
  5
19
102
{ACAD_REACTORS
330
C
102
}
330
C
100
AcDbDictionary
281
     1
  0
ACDBDICTIONARYWDFLT
  5
E
102
{ACAD_REACTORS
330
C
102
}
330
C
100
AcDbDictionary
281
     1
  3
Normal
350
F
100
AcDbDictionaryWithDefault
340
F
  0
DICTIONARY
  5
139
102
{ACAD_REACTORS
330
C
102
}
330
C
100
AcDbDictionary
281
     1
  0
DICTIONARY
  5
2A
102
{ACAD_REACTORS
330
C
102
}
330
C
100
AcDbDictionary
281
     1
  3
2dWireframe
350
2F
  3
3D Hidden
350
31
  3
3dWireframe
350
30
  3
Basic
350
32
  3
Brighten
350
36
  3
ColorChange
350
3A
  3
Conceptual
350
34
  3
Dim
350
35
  3
Facepattern
350
39
  3
Flat
350
2B
  3
FlatWithEdges
350
2C
  3
Gouraud
350
2D
  3
GouraudWithEdges
350
2E
  3
Linepattern
350
38
  3
Realistic
350
33
  3
Thicken
350
37
  0
LAYOUT
  5
1E
102
{ACAD_REACTORS
330
1A
102
}
330
1A
100
AcDbPlotSettings
  1

  2
none_device
  4

  6

 40
0.0
 41
0.0
 42
0.0
 43
0.0
 44
0.0
 45
0.0
 46
0.0
 47
0.0
 48
0.0
 49
0.0
140
0.0
141
0.0
142
1.0
143
1.0
 70
   688
 72
     0
 73
     0
 74
     5
  7

 75
    16
 76
     0
 77
     2
 78
   300
147
1.0
148
0.0
149
0.0
100
AcDbLayout
  1
Layout1
 70
     1
 71
     1
 10
0.0
 20
0.0
 11
12.0
 21
9.0
 12
0.0
 22
0.0
 32
0.0
 14
1.000000000000000E+20
 24
1.000000000000000E+20
 34
1.000000000000000E+20
 15
-1.000000000000000E+20
 25
-1.000000000000000E+20
 35
-1.000000000000000E+20
146
0.0
 13
0.0
 23
0.0
 33
0.0
 16
1.0
 26
0.0
 36
0.0
 17
0.0
 27
1.0
 37
0.0
 76
     0
330
1B
  0
LAYOUT
  5
26
102
{ACAD_REACTORS
330
1A
102
}
330
1A
100
AcDbPlotSettings
  1

  2
none_device
  4

  6

 40
0.0
 41
0.0
 42
0.0
 43
0.0
 44
0.0
 45
0.0
 46
0.0
 47
0.0
 48
0.0
 49
0.0
140
0.0
141
0.0
142
1.0
143
1.0
 70
   688
 72
     0
 73
     0
 74
     5
  7

 75
    16
 76
     0
 77
     2
 78
   300
147
1.0
148
0.0
149
0.0
100
AcDbLayout
  1
Layout2
 70
     1
 71
     2
 10
0.0
 20
0.0
 11
0.0
 21
0.0
 12
0.0
 22
0.0
 32
0.0
 14
0.0
 24
0.0
 34
0.0
 15
0.0
 25
0.0
 35
0.0
146
0.0
 13
0.0
 23
0.0
 33
0.0
 16
1.0
 26
0.0
 36
0.0
 17
0.0
 27
1.0
 37
0.0
 76
     0
330
23
  0
LAYOUT
  5
22
102
{ACAD_REACTORS
330
1A
102
}
330
1A
100
AcDbPlotSettings
  1

  2
none_device
  4

  6

 40
0.0
 41
0.0
 42
0.0
 43
0.0
 44
0.0
 45
0.0
 46
0.0
 47
0.0
 48
0.0
 49
0.0
140
0.0
141
0.0
142
1.0
143
1.0
 70
  1712
 72
     0
 73
     0
 74
     0
  7

 75
     0
 76
     0
 77
     2
 78
   300
147
1.0
148
0.0
149
0.0
100
AcDbLayout
  1
Model
 70
     1
 71
     0
 10
0.0
 20
0.0
 11
12.0
 21
9.0
 12
0.0
 22
0.0
 32
0.0
 14
-12.34268991383237
 24
-0.0027757289007644
 34
0.0
 15
47.39007406605671
 25
82.88959781294542
 35
0.0
146
0.0
 13
0.0
 23
0.0
 33
0.0
 16
1.0
 26
0.0
 36
0.0
 17
0.0
 27
1.0
 37
0.0
 76
     0
330
1F
331
29
  0
MLINESTYLE
  5
18
102
{ACAD_REACTORS
330
17
102
}
330
17
100
AcDbMlineStyle
  2
Standard
 70
     0
  3

 62
   256
 51
90.0
 52
90.0
 71
     2
 49
0.5
 62
   256
  6
BYLAYER
 49
-0.5
 62
   256
  6
BYLAYER
  0
ACDBPLACEHOLDER
  5
F
102
{ACAD_REACTORS
330
E
102
}
330
E
  0
VISUALSTYLE
  5
2F
102
{ACAD_REACTORS
330
2A
102
}
330
2A
100
AcDbVisualStyle
  2
2dWireframe
 70
     4
 71
     0
 72
     2
 73
     0
 90
        0
 40
-0.6
 41
-30.0
 62
     5
 63
     7
421
 16777215
 74
     1
 91
        4
 64
     7
 65
   257
 75
     1
175
     1
 42
1.0
 92
        0
 66
   257
 43
1.0
 76
     1
 77
     6
 78
     2
 67
     7
 79
     5
170
     0
171
     0
290
     0
174
     0
 93
        1
 44
0.0
173
     0
291
     0
 45
0.0
1001
ACAD
1000
AcDbSavedByObjectVersion
1070
     0
  0
VISUALSTYLE
  5
31
102
{ACAD_REACTORS
330
2A
102
}
330
2A
100
AcDbVisualStyle
  2
3D Hidden
 70
     6
 71
     1
 72
     2
 73
     2
 90
        0
 40
-0.6
 41
-30.0
 62
     5
 63
     7
421
 16777215
 74
     2
 91
        2
 64
     7
 65
   257
 75
     2
175
     1
 42
40.0
 92
        0
 66
   257
 43
1.0
 76
     1
 77
     6
 78
     2
 67
     7
 79
     3
170
     0
171
     0
290
     0
174
     0
 93
        1
 44
0.0
173
     0
291
     0
 45
0.0
1001
ACAD
1000
AcDbSavedByObjectVersion
1070
     0
  0
VISUALSTYLE
  5
30
102
{ACAD_REACTORS
330
2A
102
}
330
2A
100
AcDbVisualStyle
  2
3dWireframe
 70
     5
 71
     0
 72
     2
 73
     0
 90
        0
 40
-0.6
 41
-30.0
 62
     5
 63
     7
421
 16777215
 74
     1
 91
        4
 64
     7
 65
   257
 75
     1
175
     1
 42
1.0
 92
        0
 66
   257
 43
1.0
 76
     1
 77
     6
 78
     2
 67
     7
 79
     5
170
     0
171
     0
290
     0
174
     0
 93
        1
 44
0.0
173
     0
291
     0
 45
0.0
1001
ACAD
1000
AcDbSavedByObjectVersion
1070
     0
  0
VISUALSTYLE
  5
32
102
{ACAD_REACTORS
330
2A
102
}
330
2A
100
AcDbVisualStyle
  2
Basic
 70
     7
 71
     1
 72
     0
 73
     1
 90
        0
 40
-0.6
 41
-30.0
 62
     5
 63
     7
421
 16777215
 74
     0
 91
        4
 64
     7
 65
   257
 75
     1
175
     1
 42
1.0
 92
        8
 66
     7
 43
1.0
 76
     1
 77
     6
 78
     2
 67
     7
 79
     5
170
     0
171
     0
290
     0
174
     0
 93
        1
 44
0.0
173
     0
291
     1
 45
0.0
1001
ACAD
1000
AcDbSavedByObjectVersion
1070
     0
  0
VISUALSTYLE
  5
36
102
{ACAD_REACTORS
330
2A
102
}
330
2A
100
AcDbVisualStyle
  2
Brighten
 70
    12
 71
     2
 72
     2
 73
     0
 90
        0
 40
-0.6
 41
-30.0
 62
     5
 63
     7
421
 16777215
 74
     1
 91
        4
 64
     7
 65
   257
 75
     1
175
     1
 42
1.0
 92
        8
 66
     7
 43
1.0
 76
     1
 77
     6
 78
     2
 67
     7
 79
     5
170
     0
171
     0
290
     0
174
     0
 93
        1
 44
50.0
173
     0
291
     1
 45
0.0
1001
ACAD
1000
AcDbSavedByObjectVersion
1070
     0
  0
VISUALSTYLE
  5
3A
102
{ACAD_REACTORS
330
2A
102
}
330
2A
100
AcDbVisualStyle
  2
ColorChange
 70
    16
 71
     2
 72
     2
 73
     3
 90
        0
 40
-0.6
 41
-30.0
 62
     5
 63
     8
421
  8421504
 74
     1
 91
        4
 64
     7
 65
   257
 75
     1
175
     1
 42
1.0
 92
        8
 66
     8
424
  8421504
 43
1.0
 76
     1
 77
     6
 78
     2
 67
     7
 79
     5
170
     0
171
     0
290
     0
174
     0
 93
        1
 44
0.0
173
     0
291
     1
 45
0.0
1001
ACAD
1000
AcDbSavedByObjectVersion
1070
     0
  0
VISUALSTYLE
  5
34
102
{ACAD_REACTORS
330
2A
102
}
330
2A
100
AcDbVisualStyle
  2
Conceptual
 70
     9
 71
     3
 72
     2
 73
     0
 90
        0
 40
-0.6
 41
-30.0
 62
     5
 63
     7
421
 16777215
 74
     2
 91
        2
 64
     7
 65
   257
 75
     1
175
     1
 42
40.0
 92
        8
 66
     7
 43
1.0
 76
     1
 77
     6
 78
     2
 67
     7
 79
     3
170
     0
171
     0
290
     0
174
     0
 93
        1
 44
0.0
173
     0
291
     0
 45
0.0
1001
ACAD
1000
AcDbSavedByObjectVersion
1070
     0
  0
VISUALSTYLE
  5
35
102
{ACAD_REACTORS
330
2A
102
}
330
2A
100
AcDbVisualStyle
  2
Dim
 70
    11
 71
     2
 72
     2
 73
     0
 90
        0
 40
-0.6
 41
-30.0
 62
     5
 63
     7
421
 16777215
 74
     1
 91
        4
 64
     7
 65
   257
 75
     1
175
     1
 42
1.0
 92
        8
 66
     7
 43
1.0
 76
     1
 77
     6
 78
     2
 67
     7
 79
     5
170
     0
171
     0
290
     0
174
     0
 93
        1
 44
-50.0
173
     0
291
     1
 45
0.0
1001
ACAD
1000
AcDbSavedByObjectVersion
1070
     0
  0
VISUALSTYLE
  5
39
102
{ACAD_REACTORS
330
2A
102
}
330
2A
100
AcDbVisualStyle
  2
Facepattern
 70
    15
 71
     2
 72
     2
 73
     0
 90
        0
 40
-0.6
 41
-30.0
 62
     5
 63
     7
421
 16777215
 74
     1
 91
        4
 64
     7
 65
   257
 75
     1
175
     1
 42
1.0
 92
        8
 66
     7
 43
1.0
 76
     1
 77
     6
 78
     2
 67
     7
 79
     5
170
     0
171
     0
290
     0
174
     0
 93
        1
 44
0.0
173
     0
291
     1
 45
0.0
1001
ACAD
1000
AcDbSavedByObjectVersion
1070
     0
  0
VISUALSTYLE
  5
2B
102
{ACAD_REACTORS
330
2A
102
}
330
2A
100
AcDbVisualStyle
  2
Flat
 70
     0
 71
     2
 72
     1
 73
     1
 90
        2
 40
-0.6
 41
30.0
 62
     5
 63
     7
421
 16777215
 74
     0
 91
        4
 64
     7
 65
   257
 75
     1
175
     1
 42
1.0
 92
        8
 66
     7
 43
1.0
 76
     1
 77
     6
 78
     2
 67
     7
 79
     5
170
     0
171
     0
290
     0
174
     0
 93
       13
 44
0.0
173
     0
291
     1
 45
0.0
1001
ACAD
1000
AcDbSavedByObjectVersion
1070
     0
  0
VISUALSTYLE
  5
2C
102
{ACAD_REACTORS
330
2A
102
}
330
2A
100
AcDbVisualStyle
  2
FlatWithEdges
 70
     1
 71
     2
 72
     1
 73
     1
 90
        2
 40
-0.6
 41
30.0
 62
     5
 63
     7
421
 16777215
 74
     1
 91
        4
 64
     7
 65
   257
 75
     1
175
     1
 42
1.0
 92
        0
 66
   257
 43
1.0
 76
     1
 77
     6
 78
     2
 67
     7
 79
     5
170
     0
171
     0
290
     0
174
     0
 93
       13
 44
0.0
173
     0
291
     1
 45
0.0
1001
ACAD
1000
AcDbSavedByObjectVersion
1070
     0
  0
VISUALSTYLE
  5
2D
102
{ACAD_REACTORS
330
2A
102
}
330
2A
100
AcDbVisualStyle
  2
Gouraud
 70
     2
 71
     2
 72
     2
 73
     1
 90
        2
 40
-0.6
 41
30.0
 62
     5
 63
     7
421
 16777215
 74
     0
 91
        4
 64
     7
 65
   257
 75
     1
175
     1
 42
1.0
 92
        0
 66
     7
 43
1.0
 76
     1
 77
     6
 78
     2
 67
     7
 79
     5
170
     0
171
     0
290
     0
174
     0
 93
       13
 44
0.0
173
     0
291
     1
 45
0.0
1001
ACAD
1000
AcDbSavedByObjectVersion
1070
     0
  0
VISUALSTYLE
  5
2E
102
{ACAD_REACTORS
330
2A
102
}
330
2A
100
AcDbVisualStyle
  2
GouraudWithEdges
 70
     3
 71
     2
 72
     2
 73
     1
 90
        2
 40
-0.6
 41
30.0
 62
     5
 63
     7
421
 16777215
 74
     1
 91
        4
 64
     7
 65
   257
 75
     1
175
     1
 42
1.0
 92
        0
 66
   257
 43
1.0
 76
     1
 77
     6
 78
     2
 67
     7
 79
     5
170
     0
171
     0
290
     0
174
     0
 93
       13
 44
0.0
173
     0
291
     1
 45
0.0
1001
ACAD
1000
AcDbSavedByObjectVersion
1070
     0
  0
VISUALSTYLE
  5
38
102
{ACAD_REACTORS
330
2A
102
}
330
2A
100
AcDbVisualStyle
  2
Linepattern
 70
    14
 71
     2
 72
     2
 73
     0
 90
        0
 40
-0.6
 41
-30.0
 62
     5
 63
     7
421
 16777215
 74
     1
 91
        4
 64
     7
 65
   257
 75
     7
175
     7
 42
1.0
 92
        8
 66
     7
 43
1.0
 76
     1
 77
     6
 78
     2
 67
     7
 79
     5
170
     0
171
     0
290
     0
174
     0
 93
        1
 44
0.0
173
     0
291
     1
 45
0.0
1001
ACAD
1000
AcDbSavedByObjectVersion
1070
     0
  0
VISUALSTYLE
  5
33
102
{ACAD_REACTORS
330
2A
102
}
330
2A
100
AcDbVisualStyle
  2
Realistic
 70
     8
 71
     2
 72
     2
 73
     0
 90
        0
 40
-0.6
 41
-30.0
 62
     5
 63
     7
421
 16777215
 74
     1
 91
        0
 64
     7
 65
   257
 75
     1
175
     1
 42
1.0
 92
        8
 66
     8
424
  7895160
 43
1.0
 76
     1
 77
     6
 78
     2
 67
     7
 79
     5
170
     0
171
     0
290
     0
174
     0
 93
       13
 44
0.0
173
     0
291
     0
 45
0.0
1001
ACAD
1000
AcDbSavedByObjectVersion
1070
     0
  0
VISUALSTYLE
  5
37
102
{ACAD_REACTORS
330
2A
102
}
330
2A
100
AcDbVisualStyle
  2
Thicken
 70
    13
 71
     2
 72
     2
 73
     0
 90
        0
 40
-0.6
 41
-30.0
 62
     5
 63
     7
421
 16777215
 74
     1
 91
        4
 64
     7
 65
   257
 75
     1
175
     1
 42
1.0
 92
       12
 66
     7
 43
1.0
 76
     1
 77
     6
 78
     2
 67
     7
 79
     5
170
     0
171
     0
290
     0
174
     0
 93
        1
 44
0.0
173
     0
291
     1
 45
0.0
1001
ACAD
1000
AcDbSavedByObjectVersion
1070
     0
  0
ENDSEC
  0
EOF
