  0
SECTION
  2
HEADER
  9
$ACADVER
  1
AC1018
  9
$ACADMAINTVER
 70
     0
  9
$DWGCODEPAGE
  3
ANSI_1252
  9
$INSBASE
 10
0.0
 20
0.0
 30
0.0
  9
$EXTMIN
 10
-12.34261132210612
 20
0.0005801726551601
 30
0.0
  9
$EXTMAX
 10
54.11794218689364
 20
77.8364689636519
 30
0.0
  9
$LIMMIN
 10
0.0
 20
0.0
  9
$LIMMAX
 10
12.0
 20
9.0
  9
$ORTHOMODE
 70
     0
  9
$REGENMODE
 70
     1
  9
$FILLMODE
 70
     1
  9
$QTEXTMODE
 70
     0
  9
$MIRRTEXT
 70
     1
  9
$LTSCALE
 40
0.0393700787401575
  9
$ATTMODE
 70
     1
  9
$TEXTSIZE
 40
0.2
  9
$TRACEWID
 40
0.05
  9
$TEXTSTYLE
  7
Standard
  9
$CLAYER
  8
Default
  9
$CELTYPE
  6
ByLayer
  9
$CECOLOR
 62
   256
  9
$CELTSCALE
 40
1.0
  9
$DISPSILH
 70
     0
  9
$DIMSCALE
 40
1.0
  9
$DIMASZ
 40
0.18
  9
$DIMEXO
 40
0.0625
  9
$DIMDLI
 40
0.38
  9
$DIMRND
 40
0.0
  9
$DIMDLE
 40
0.0
  9
$DIMEXE
 40
0.18
  9
$DIMTP
 40
0.0
  9
$DIMTM
 40
0.0
  9
$DIMTXT
 40
0.18
  9
$DIMCEN
 40
0.09
  9
$DIMTSZ
 40
0.0
  9
$DIMTOL
 70
     0
  9
$DIMLIM
 70
     0
  9
$DIMTIH
 70
     1
  9
$DIMTOH
 70
     1
  9
$DIMSE1
 70
     0
  9
$DIMSE2
 70
     0
  9
$DIMTAD
 70
     0
  9
$DIMZIN
 70
     0
  9
$DIMBLK
  1

  9
$DIMASO
 70
     1
  9
$DIMSHO
 70
     1
  9
$DIMPOST
  1

  9
$DIMAPOST
  1

  9
$DIMALT
 70
     0
  9
$DIMALTD
 70
     2
  9
$DIMALTF
 40
25.4
  9
$DIMLFAC
 40
1.0
  9
$DIMTOFL
 70
     0
  9
$DIMTVP
 40
0.0
  9
$DIMTIX
 70
     0
  9
$DIMSOXD
 70
     0
  9
$DIMSAH
 70
     0
  9
$DIMBLK1
  1

  9
$DIMBLK2
  1

  9
$DIMSTYLE
  2
Standard
  9
$DIMCLRD
 70
     0
  9
$DIMCLRE
 70
     0
  9
$DIMCLRT
 70
     0
  9
$DIMTFAC
 40
1.0
  9
$DIMGAP
 40
0.09
  9
$DIMJUST
 70
     0
  9
$DIMSD1
 70
     0
  9
$DIMSD2
 70
     0
  9
$DIMTOLJ
 70
     1
  9
$DIMTZIN
 70
     0
  9
$DIMALTZ
 70
     0
  9
$DIMALTTZ
 70
     0
  9
$DIMUPT
 70
     0
  9
$DIMDEC
 70
     4
  9
$DIMTDEC
 70
     4
  9
$DIMALTU
 70
     2
  9
$DIMALTTD
 70
     2
  9
$DIMTXSTY
  7
Standard
  9
$DIMAUNIT
 70
     0
  9
$DIMADEC
 70
     0
  9
$DIMALTRND
 40
0.0
  9
$DIMAZIN
 70
     0
  9
$DIMDSEP
 70
    46
  9
$DIMATFIT
 70
     3
  9
$DIMFRAC
 70
     0
  9
$DIMLDRBLK
  1

  9
$DIMLUNIT
 70
     2
  9
$DIMLWD
 70
    -2
  9
$DIMLWE
 70
    -2
  9
$DIMTMOVE
 70
     2
  9
$LUNITS
 70
     2
  9
$LUPREC
 70
     3
  9
$SKETCHINC
 40
0.1
  9
$FILLETRAD
 40
0.5
  9
$AUNITS
 70
     0
  9
$AUPREC
 70
     0
  9
$MENU
  1
.
  9
$ELEVATION
 40
0.0
  9
$PELEVATION
 40
0.0
  9
$THICKNESS
 40
0.0
  9
$LIMCHECK
 70
     0
  9
$CHAMFERA
 40
0.5
  9
$CHAMFERB
 40
0.5
  9
$CHAMFERC
 40
1.0
  9
$CHAMFERD
 40
0.0
  9
$SKPOLY
 70
     0
  9
$TDCREATE
 40
2456462.509681157
  9
$TDUCREATE
 40
2456462.676347824
  9
$TDUPDATE
 40
2456462.509681169
  9
$TDUUPDATE
 40
2456462.676347835
  9
$TDINDWG
 40
0.0000000116
  9
$TDUSRTIMER
 40
0.0000000116
  9
$USRTIMER
 70
     1
  9
$ANGBASE
 50
0.0
  9
$ANGDIR
 70
     0
  9
$PDMODE
 70
     0
  9
$PDSIZE
 40
0.0
  9
$PLINEWID
 40
0.0
  9
$SPLFRAME
 70
     0
  9
$SPLINETYPE
 70
     6
  9
$SPLINESEGS
 70
     8
  9
$HANDSEED
  5
12A
  9
$SURFTAB1
 70
     6
  9
$SURFTAB2
 70
     6
  9
$SURFTYPE
 70
     6
  9
$SURFU
 70
     6
  9
$SURFV
 70
     6
  9
$UCSBASE
  2

  9
$UCSNAME
  2

  9
$UCSORG
 10
0.0
 20
0.0
 30
0.0
  9
$UCSXDIR
 10
1.0
 20
0.0
 30
0.0
  9
$UCSYDIR
 10
0.0
 20
1.0
 30
0.0
  9
$UCSORTHOREF
  2

  9
$UCSORTHOVIEW
 70
     0
  9
$UCSORGTOP
 10
0.0
 20
0.0
 30
0.0
  9
$UCSORGBOTTOM
 10
0.0
 20
0.0
 30
0.0
  9
$UCSORGLEFT
 10
0.0
 20
0.0
 30
0.0
  9
$UCSORGRIGHT
 10
0.0
 20
0.0
 30
0.0
  9
$UCSORGFRONT
 10
0.0
 20
0.0
 30
0.0
  9
$UCSORGBACK
 10
0.0
 20
0.0
 30
0.0
  9
$PUCSBASE
  2

  9
$PUCSNAME
  2

  9
$PUCSORG
 10
0.0
 20
0.0
 30
0.0
  9
$PUCSXDIR
 10
1.0
 20
0.0
 30
0.0
  9
$PUCSYDIR
 10
0.0
 20
1.0
 30
0.0
  9
$PUCSORTHOREF
  2

  9
$PUCSORTHOVIEW
 70
     0
  9
$PUCSORGTOP
 10
0.0
 20
0.0
 30
0.0
  9
$PUCSORGBOTTOM
 10
0.0
 20
0.0
 30
0.0
  9
$PUCSORGLEFT
 10
0.0
 20
0.0
 30
0.0
  9
$PUCSORGRIGHT
 10
0.0
 20
0.0
 30
0.0
  9
$PUCSORGFRONT
 10
0.0
 20
0.0
 30
0.0
  9
$PUCSORGBACK
 10
0.0
 20
0.0
 30
0.0
  9
$USERI1
 70
     0
  9
$USERI2
 70
     0
  9
$USERI3
 70
     0
  9
$USERI4
 70
     0
  9
$USERI5
 70
     0
  9
$USERR1
 40
0.0
  9
$USERR2
 40
0.0
  9
$USERR3
 40
0.0
  9
$USERR4
 40
0.0
  9
$USERR5
 40
0.0
  9
$WORLDVIEW
 70
     1
  9
$SHADEDGE
 70
     3
  9
$SHADEDIF
 70
    70
  9
$TILEMODE
 70
     1
  9
$MAXACTVP
 70
    64
  9
$PINSBASE
 10
0.0
 20
0.0
 30
0.0
  9
$PLIMCHECK
 70
     0
  9
$PEXTMIN
 10
1.000000000000000E+20
 20
1.000000000000000E+20
 30
1.000000000000000E+20
  9
$PEXTMAX
 10
-1.000000000000000E+20
 20
-1.000000000000000E+20
 30
-1.000000000000000E+20
  9
$PLIMMIN
 10
0.0
 20
0.0
  9
$PLIMMAX
 10
12.0
 20
9.0
  9
$UNITMODE
 70
     0
  9
$VISRETAIN
 70
     1
  9
$PLINEGEN
 70
     0
  9
$PSLTSCALE
 70
     1
  9
$TREEDEPTH
 70
  3020
  9
$CMLSTYLE
  2
Standard
  9
$CMLJUST
 70
     0
  9
$CMLSCALE
 40
1.0
  9
$PROXYGRAPHICS
 70
     1
  9
$MEASUREMENT
 70
     0
  9
$CELWEIGHT
370
    -1
  9
$ENDCAPS
280
     0
  9
$JOINSTYLE
280
     0
  9
$LWDISPLAY
290
     0
  9
$INSUNITS
 70
     1
  9
$HYPERLINKBASE
  1

  9
$STYLESHEET
  1

  9
$XEDIT
290
     1
  9
$CEPSNTYPE
380
     0
  9
$PSTYLEMODE
290
     1
  9
$FINGERPRINTGUID
  2
{5A6BAF03-4B06-42A7-B755-50E00A32FA55}
  9
$VERSIONGUID
  2
{FAEB1C32-E019-11D5-929B-00C0DF256EC4}
  9
$EXTNAMES
290
     1
  9
$PSVPSCALE
 40
0.0
  9
$OLESTARTUP
290
     0
  9
$SORTENTS
280
   127
  9
$INDEXCTL
280
     0
  9
$HIDETEXT
280
     1
  9
$XCLIPFRAME
290
     0
  9
$HALOGAP
280
     0
  9
$OBSCOLOR
 70
   257
  9
$OBSLTYPE
280
     0
  9
$INTERSECTIONDISPLAY
280
     0
  9
$INTERSECTIONCOLOR
 70
   257
  9
$DIMASSOC
280
     2
  9
$PROJECTNAME
  1

  0
ENDSEC
  0
SECTION
  2
CLASSES
  0
CLASS
  1
ACDBDICTIONARYWDFLT
  2
AcDbDictionaryWithDefault
  3
ObjectDBX Classes
 90
        0
 91
        4
280
     0
281
     0
  0
CLASS
  1
VISUALSTYLE
  2
AcDbVisualStyle
  3
ObjectDBX Classes
 90
     4095
 91
        4
280
     0
281
     0
  0
ENDSEC
  0
SECTION
  2
TABLES
  0
TABLE
  2
VPORT
  5
8
330
0
100
AcDbSymbolTable
 70
     1
  0
VPORT
  5
29
330
8
100
AcDbSymbolTableRecord
100
AcDbViewportTableRecord
  2
*Active
 70
     0
 10
0.0
 20
0.0
 11
1.0
 21
1.0
 12
20.88766543239376
 22
38.91852456815353
 13
0.0
 23
0.0
 14
0.5
 24
0.5
 15
0.5
 25
0.5
 16
0.0
 26
0.0
 36
1.0
 17
0.0
 27
0.0
 37
0.0
 40
79.39260656681667
 41
0.8538548803297952
 42
50.0
 43
0.0
 44
0.0
 50
0.0
 51
0.0
 71
     0
 72
   100
 73
     1
 74
     3
 75
     0
 76
     0
 77
     0
 78
     0
281
     0
 65
     1
110
0.0
120
0.0
130
0.0
111
1.0
121
0.0
131
0.0
112
0.0
122
1.0
132
0.0
 79
     0
146
0.0
  0
ENDTAB
  0
TABLE
  2
LTYPE
  5
5
330
0
100
AcDbSymbolTable
 70
     1
  0
LTYPE
  5
14
330
5
100
AcDbSymbolTableRecord
100
AcDbLinetypeTableRecord
  2
ByBlock
 70
     0
  3

 72
    65
 73
     0
 40
0.0
  0
LTYPE
  5
15
330
5
100
AcDbSymbolTableRecord
100
AcDbLinetypeTableRecord
  2
ByLayer
 70
     0
  3

 72
    65
 73
     0
 40
0.0
  0
LTYPE
  5
16
330
5
100
AcDbSymbolTableRecord
100
AcDbLinetypeTableRecord
  2
Continuous
 70
     0
  3
Solid line
 72
    65
 73
     0
 40
0.0
  0
ENDTAB
  0
TABLE
  2
LAYER
  5
2
330
0
100
AcDbSymbolTable
 70
     3
  0
LAYER
  5
10
330
2
100
AcDbSymbolTableRecord
100
AcDbLayerTableRecord
  2
0
 70
     0
 62
     7
  6
Continuous
370
    -3
390
F
  0
LAYER
  5
3B
330
2
100
AcDbSymbolTableRecord
100
AcDbLayerTableRecord
  2
Default
 70
     0
 62
     7
  6
Continuous
370
    -3
390
F
  0
LAYER
  5
58
330
2
100
AcDbSymbolTableRecord
100
AcDbLayerTableRecord
  2
MAKE2D VISIBLE LINES
 70
     0
 62
     7
  6
Continuous
370
    -3
390
F
  0
ENDTAB
  0
TABLE
  2
STYLE
  5
3
330
0
100
AcDbSymbolTable
 70
     1
  0
STYLE
  5
11
330
3
100
AcDbSymbolTableRecord
100
AcDbTextStyleTableRecord
  2
Standard
 70
     0
 40
0.0
 41
1.0
 50
0.0
 71
     0
 42
0.2
  3
txt
  4

  0
ENDTAB
  0
TABLE
  2
VIEW
  5
6
330
0
100
AcDbSymbolTable
 70
     0
  0
ENDTAB
  0
TABLE
  2
UCS
  5
7
330
0
100
AcDbSymbolTable
 70
     0
  0
ENDTAB
  0
TABLE
  2
APPID
  5
9
330
0
100
AcDbSymbolTable
 70
     1
  0
APPID
  5
12
330
9
100
AcDbSymbolTableRecord
100
AcDbRegAppTableRecord
  2
ACAD
 70
     0
  0
ENDTAB
  0
TABLE
  2
DIMSTYLE
  5
A
330
0
100
AcDbSymbolTable
 70
     1
100
AcDbDimStyleTable
  0
DIMSTYLE
105
27
330
A
100
AcDbSymbolTableRecord
100
AcDbDimStyleTableRecord
  2
Standard
 70
     0
340
11
  0
ENDTAB
  0
TABLE
  2
BLOCK_RECORD
  5
1
330
0
100
AcDbSymbolTable
 70
     1
  0
BLOCK_RECORD
  5
1F
330
1
100
AcDbSymbolTableRecord
100
AcDbBlockTableRecord
  2
*Model_Space
340
22
  0
BLOCK_RECORD
  5
1B
330
1
100
AcDbSymbolTableRecord
100
AcDbBlockTableRecord
  2
*Paper_Space
340
1E
  0
BLOCK_RECORD
  5
23
330
1
100
AcDbSymbolTableRecord
100
AcDbBlockTableRecord
  2
*Paper_Space0
340
26
  0
ENDTAB
  0
ENDSEC
  0
SECTION
  2
BLOCKS
  0
BLOCK
  5
20
330
1F
100
AcDbEntity
  8
0
100
AcDbBlockBegin
  2
*Model_Space
 70
     0
 10
0.0
 20
0.0
 30
0.0
  3
*Model_Space
  1

  0
ENDBLK
  5
21
330
1F
100
AcDbEntity
  8
0
100
AcDbBlockEnd
  0
BLOCK
  5
1C
330
1B
100
AcDbEntity
 67
     1
  8
0
100
AcDbBlockBegin
  2
*Paper_Space
 70
     0
 10
0.0
 20
0.0
 30
0.0
  3
*Paper_Space
  1

  0
ENDBLK
  5
1D
330
1B
100
AcDbEntity
 67
     1
  8
0
100
AcDbBlockEnd
  0
BLOCK
  5
24
330
23
100
AcDbEntity
  8
0
100
AcDbBlockBegin
  2
*Paper_Space0
 70
     0
 10
0.0
 20
0.0
 30
0.0
  3
*Paper_Space0
  1

  0
ENDBLK
  5
25
330
23
100
AcDbEntity
  8
0
100
AcDbBlockEnd
  0
ENDSEC
  0
SECTION
  2
ENTITIES
  0
ARC
  5
3C
330
1F
100
AcDbEntity
  8
Default
100
AcDbCircle
 10
-58.07565945175881
 20
57.68208174746224
 30
0.0
 40
67.0467991864584
100
AcDbArc
 50
11.76267804767301
 51
11.76339390728753
  0
SPLINE
  5
3D
330
1F
100
AcDbEntity
  8
Default
100
AcDbSpline
210
0.0
220
0.0
230
1.0
 70
     8
 71
     3
 72
    23
 73
    19
 74
     0
 42
0.0000000001
 43
0.0000000001
 40
-0.0000000000000001
 40
-0.0000000000000001
 40
-0.0000000000000001
 40
-0.0000000000000001
 40
4.24895968232277
 40
6.486393074541591
 40
9.045091794831706
 40
11.60422115196901
 40
13.22896781163744
 40
14.51231705906568
 40
15.25797935780193
 40
15.51969434203911
 40
15.80552651594489
 40
15.9921433540386
 40
16.10658203171558
 40
16.24561988875408
 40
16.537984963297
 40
17.86615571467284
 40
21.19407775777829
 40
24.46596690678671
 40
24.46596690678671
 40
24.46596690678671
 40
24.46596690678671
 10
7.563182963148861
 20
71.35013382448466
 30
0.0
 10
7.851898636914527
 20
69.96361857664819
 30
0.0
 10
8.2256744576447
 20
67.83257591838469
 30
0.0
 10
8.574767891626024
 20
64.83728999873384
 30
0.0
 10
8.798919617963335
 20
62.3957530438128
 30
0.0
 10
8.949006267043629
 20
60.15301301340661
 30
0.0
 10
9.023249368318858
 20
58.3318568329791
 30
0.0
 10
8.977821047249819
 20
57.11312580739443
 30
0.0
 10
8.877317620397903
 20
56.35581278579168
 30
0.0
 10
8.798023774234466
 20
55.93091815286998
 30
0.0
 10
8.62978636291966
 20
55.73389179471017
 30
0.0
 10
8.46444717871556
 20
55.63583720580593
 30
0.0
 10
8.322221686758738
 20
55.5886702396607
 30
0.0
 10
8.144948417834485
 20
55.55464737041795
 30
0.0
 10
7.562805938217323
 20
55.47681626703998
 30
0.0
 10
5.925291691937502
 20
55.28045716795411
 30
0.0
 10
3.290152926852997
 20
55.0686307973972
 30
0.0
 10
1.090651873061461
 20
54.99858078026477
 30
0.0
 10
-0.0000215897538141
 20
54.99675549012928
 30
0.0
  0
SPLINE
  5
3E
330
1F
100
AcDbEntity
  8
Default
100
AcDbSpline
210
0.0
220
0.0
230
1.0
 70
     8
 71
     3
 72
    21
 73
    17
 74
     0
 42
0.0000000001
 43
0.0000000001
 40
24.46596690678671
 40
24.46596690678671
 40
24.46596690678671
 40
24.46596690678671
 40
27.72223632071433
 40
31.06625574070116
 40
32.42547696658934
 40
32.82735322848757
 40
33.12657573285964
 40
33.4100113728441
 40
33.66796334267045
 40
34.39342643974651
 40
35.68712283049939
 40
37.32776181063267
 40
39.88695385814246
 40
42.54145534509678
 40
44.77891088678392
 40
48.93209882734814
 40
48.93209882734814
 40
48.93209882734814
 40
48.93209882734814
 10
-0.0000215897538141
 20
54.99675549012928
 30
0.0
 10
-1.085488860828278
 20
54.99836528790202
 30
0.0
 10
-3.285158329699499
 20
55.06842239942611
 30
0.0
 10
-5.930650773021455
 20
55.28079428041931
 30
0.0
 10
-7.620084770117941
 20
55.48455432640721
 30
0.0
 10
-8.30200248817873
 20
55.57274450532421
 30
0.0
 10
-8.609707450683842
 20
55.69871421705845
 30
0.0
 10
-8.791162690614115
 20
55.93033637872566
 30
0.0
 10
-8.881162177843564
 20
56.34288187480628
 30
0.0
 10
-8.971456381655528
 20
57.09810836487387
 30
0.0
 10
-9.026999087212303
 20
58.31687590127146
 30
0.0
 10
-8.947849054843331
 20
60.14823391878809
 30
0.0
 10
-8.797693470814366
 20
62.4271758381369
 30
0.0
 10
-8.568972922067175
 20
64.90103235492782
 30
0.0
 10
-8.215645718722712
 20
67.89565366983156
 30
0.0
 10
-7.845567071530794
 20
69.9948482385825
 30
0.0
 10
-7.563419274586479
 20
71.35012769647946
 30
0.0
  0
ARC
  5
3F
330
1F
100
AcDbEntity
  8
Default
100
AcDbCircle
 10
58.51336836780325
 20
57.59398319519164
 30
0.0
 40
67.49350618154149
100
AcDbArc
 50
168.2391569460688
 51
168.2398994819787
  0
SPLINE
  5
40
330
1F
100
AcDbEntity
  8
Default
100
AcDbSpline
210
0.0
220
0.0
230
1.0
 70
    12
 71
     3
 72
    34
 73
    30
 74
     0
 42
0.0000000001
 43
0.0000000001
 40
-44.15615167230342
 40
-44.15615167230342
 40
-44.15615167230342
 40
-44.15615167230342
 40
-43.15615167230342
 40
-43.15615167230342
 40
-42.15615167230342
 40
-42.15615167230342
 40
-41.15615167230342
 40
-41.15615167230342
 40
-40.15615167230342
 40
-40.15615167230342
 40
-39.15615167230342
 40
-39.15615167230342
 40
-38.15615167230342
 40
-38.15615167230342
 40
-38.15615167230342
 40
-38.1559650523142
 40
-38.1559650523142
 40
-38.1559650523142
 40
-37.38290703700773
 40
-36.64802846712851
 40
-35.10794052270614
 40
-32.45247724771205
 40
-32.41054708756631
 40
-32.29248016334427
 40
-32.29248016334427
 40
-32.29248016334427
 40
-32.23657260112281
 40
-32.21096023540328
 40
-32.13822267323567
 40
-32.13822267323567
 40
-32.13822267323567
 40
-32.13822267323567
 10
-10.09667209619485
 20
32.79349940761935
 30
0.0
 41
1.0
 10
-10.00850344474961
 20
32.78041290429432
 30
0.0
 41
1.0
 10
-9.93014832049994
 20
32.80288958889352
 30
0.0
 41
1.0
 10
-9.784677680160913
 20
32.91129193293584
 30
0.0
 41
1.0
 10
-9.735705804469804
 20
32.97636229538944
 30
0.0
 41
1.0
 10
-9.685288942044425
 20
33.12824140116156
 30
0.0
 41
1.0
 10
-9.665028556975445
 20
33.20498741931031
 30
0.0
 41
1.0
 10
-9.634403879124934
 20
33.3600923861332
 30
0.0
 41
1.0
 10
-9.621809906724993
 20
33.43813711141549
 30
0.0
 41
1.0
 10
-9.602058694975769
 20
33.59521104572168
 30
0.0
 41
1.0
 10
-9.593869650799293
 20
33.67390655681247
 30
0.0
 41
1.0
 10
-9.580864685842643
 20
33.83161466686941
 30
0.0
 41
1.0
 10
-9.575911854126874
 20
33.91056817188617
 30
0.0
 41
1.0
 10
-9.572508673173674
 20
33.98962112689121
 30
0.0
 41
1.0
 10
-9.572505438546928
 20
33.9896832541107
 30
0.0
 41
1.0
 10
-9.572502204021761
 20
33.98974538133558
 30
0.0
 41
1.0
 10
-9.572498969598259
 20
33.9898075085658
 30
0.0
 41
1.0
 10
-9.557521079236297
 20
34.24713760118837
 30
0.0
 41
1.0
 10
-9.524251203586404
 20
34.74872554724831
 30
0.0
 41
1.0
 10
-9.440331817928099
 20
35.761252658768
 30
0.0
 41
1.0
 10
-9.26597286114776
 20
37.39572789783341
 30
0.0
 41
1.0
 10
-9.065159531244321
 20
38.79404178695026
 30
0.0
 41
1.0
 10
-8.930197653266449
 20
39.72276287065199
 30
0.0
 41
1.0
 10
-8.878777841420886
 20
39.79776159789171
 30
0.0
 41
1.0
 10
-8.849998078197475
 20
39.82332573237215
 30
0.0
 41
1.0
 10
-8.836294184475266
 20
39.83549845871812
 30
0.0
 41
1.0
 10
-8.783619924800776
 20
39.86950538274806
 30
0.0
 41
1.0
 10
-8.734317091163797
 20
39.88159508250418
 30
0.0
 41
1.0
 10
-8.700891431760555
 20
39.88632707789777
 30
0.0
 41
1.0
 10
-8.676816252870495
 20
39.88372471334215
 30
0.0
 41
1.0
  0
SPLINE
  5
41
330
1F
100
AcDbEntity
  8
Default
100
AcDbSpline
210
0.0
220
0.0
230
1.0
 70
    12
 71
     3
 72
    34
 73
    30
 74
     0
 42
0.0000000001
 43
0.0000000001
 40
32.13822267323571
 40
32.13822267323571
 40
32.13822267323571
 40
32.13822267323571
 40
32.21096023540328
 40
32.23657260112281
 40
32.29248016334427
 40
32.29248016334427
 40
32.29248016334427
 40
32.41054708756631
 40
32.45247724771205
 40
35.10794052270614
 40
36.64802846712851
 40
37.38290703700773
 40
38.1559650523142
 40
38.1559650523142
 40
38.1559650523142
 40
38.15615167230342
 40
38.15615167230342
 40
38.15615167230342
 40
39.15615167230342
 40
39.15615167230342
 40
40.15615167230342
 40
40.15615167230342
 40
41.15615167230342
 40
41.15615167230342
 40
42.15615167230342
 40
42.15615167230342
 40
43.15615167230342
 40
43.15615167230342
 40
44.15615167230342
 40
44.15615167230342
 40
44.15615167230342
 40
44.15615167230342
 10
8.67681626012475
 20
39.88372471334216
 30
0.0
 41
1.0
 10
8.700891439014798
 20
39.88632707789777
 30
0.0
 41
1.0
 10
8.73431709841805
 20
39.88159508250418
 30
0.0
 41
1.0
 10
8.783619932055016
 20
39.86950538274806
 30
0.0
 41
1.0
 10
8.836294191729506
 20
39.83549845871812
 30
0.0
 41
1.0
 10
8.849998085451714
 20
39.82332573237215
 30
0.0
 41
1.0
 10
8.878777848675098
 20
39.79776159789171
 30
0.0
 41
1.0
 10
8.930197660520689
 20
39.72276287065199
 30
0.0
 41
1.0
 10
9.06515953849856
 20
38.79404178695026
 30
0.0
 41
1.0
 10
9.265972868402
 20
37.39572789783341
 30
0.0
 41
1.0
 10
9.440331825182339
 20
35.761252658768
 30
0.0
 41
1.0
 10
9.524251210840616
 20
34.74872554724831
 30
0.0
 41
1.0
 10
9.557521086490508
 20
34.24713760118837
 30
0.0
 41
1.0
 10
9.572498976852499
 20
33.9898075085658
 30
0.0
 41
1.0
 10
9.572502211276001
 20
33.98974538133558
 30
0.0
 41
1.0
 10
9.57250544580114
 20
33.9896832541107
 30
0.0
 41
1.0
 10
9.572508680427914
 20
33.98962112689121
 30
0.0
 41
1.0
 10
9.575911861381114
 20
33.91056817188617
 30
0.0
 41
1.0
 10
9.580864693096855
 20
33.83161466686941
 30
0.0
 41
1.0
 10
9.593869658053533
 20
33.67390655681247
 30
0.0
 41
1.0
 10
9.602058702230009
 20
33.59521104572168
 30
0.0
 41
1.0
 10
9.621809913979233
 20
33.43813711141549
 30
0.0
 41
1.0
 10
9.634403886379145
 20
33.3600923861332
 30
0.0
 41
1.0
 10
9.665028564229685
 20
33.20498741931031
 30
0.0
 41
1.0
 10
9.685288949298664
 20
33.12824140116156
 30
0.0
 41
1.0
 10
9.735705811724044
 20
32.97636229538944
 30
0.0
 41
1.0
 10
9.784677687415153
 20
32.91129193293584
 30
0.0
 41
1.0
 10
9.930148327754152
 20
32.80288958889352
 30
0.0
 41
1.0
 10
10.00850345200382
 20
32.78041290429432
 30
0.0
 41
1.0
 10
10.09667210344909
 20
32.79349940761935
 30
0.0
 41
1.0
  0
SPLINE
  5
42
330
1F
100
AcDbEntity
  8
Default
100
AcDbSpline
210
0.0
220
0.0
230
1.0
 70
     8
 71
     3
 72
     8
 73
     4
 74
     0
 42
0.0000000001
 43
0.0000000001
 40
-7.894681883043148
 40
-7.894681883043148
 40
-7.894681883043148
 40
-7.894681883043148
 40
-6.635867243272677
 40
-6.635867243272677
 40
-6.635867243272677
 40
-6.635867243272677
 10
-7.68729246564604
 20
26.65395554102757
 30
0.0
 10
-7.327915977502721
 20
26.87451397835171
 30
0.0
 10
-6.948426676375425
 20
27.05451334585242
 30
0.0
 10
-6.556223725144378
 20
27.20212851075036
 30
0.0
  0
SPLINE
  5
43
330
1F
100
AcDbEntity
  8
Default
100
AcDbSpline
210
0.0
220
0.0
230
1.0
 70
     8
 71
     3
 72
     8
 73
     4
 74
     0
 42
0.0000000001
 43
0.0000000001
 40
6.629849317812792
 40
6.629849317812792
 40
6.629849317812792
 40
6.629849317812792
 40
7.894681883043148
 40
7.894681883043148
 40
7.894681883043148
 40
7.894681883043148
 10
6.550597931402663
 20
27.20424337118234
 30
0.0
 10
6.94479782903534
 20
27.05623343920186
 30
0.0
 10
7.326197939185076
 20
26.8755683863586
 30
0.0
 10
7.68729247290028
 20
26.65395554102757
 30
0.0
  0
SPLINE
  5
44
330
1F
100
AcDbEntity
  8
Default
100
AcDbSpline
210
0.0
220
0.0
230
1.0
 70
     8
 71
     3
 72
     9
 73
     5
 74
     0
 42
0.0000000001
 43
0.0000000001
 40
5.504362907214284
 40
5.504362907214284
 40
5.504362907214284
 40
5.504362907214284
 40
7.118708082551536
 40
10.22287743636055
 40
10.22287743636055
 40
10.22287743636055
 40
10.22287743636055
 10
37.36928930397869
 20
32.87693247328845
 30
0.0
 10
37.23888280555524
 20
33.39880466002026
 30
0.0
 10
36.79482107239406
 20
34.90970295497769
 30
0.0
 10
36.29114174754939
 20
36.39882411522893
 30
0.0
 10
35.89814029935241
 20
37.35716708657839
 30
0.0
  0
SPLINE
  5
45
330
1F
100
AcDbEntity
  8
Default
100
AcDbSpline
210
0.0
220
0.0
230
1.0
 70
    12
 71
     2
 72
     6
 73
     3
 74
     0
 42
0.0000000001
 43
0.0000000001
 40
0.0
 40
0.0
 40
0.0
 40
2.661442820591546
 40
2.661442820591546
 40
2.661442820591546
 10
35.89814029935241
 20
37.35716708657839
 30
0.0
 41
1.0
 10
35.40259243155516
 20
38.59438593167202
 30
0.0
 41
0.9976990570145574
 10
34.74423547846006
 20
39.75319334899517
 30
0.0
 41
1.0
  0
ARC
  5
46
330
1F
100
AcDbEntity
  8
Default
100
AcDbCircle
 10
34.49118757836845
 20
39.60258406475501
 30
0.0
 40
0.2944764782458939
100
AcDbArc
 50
30.76030097836264
 51
125.4480430442274
  0
ARC
  5
47
330
1F
100
AcDbEntity
  8
Default
100
AcDbCircle
 10
34.64572300900967
 20
39.20753518700393
 30
0.0
 40
0.7134318114876995
100
AcDbArc
 50
117.1289711007348
 51
121.8628955269178
  0
SPLINE
  5
48
330
1F
100
AcDbEntity
  8
Default
100
AcDbSpline
210
0.0
220
0.0
230
1.0
 70
     8
 71
     3
 72
    13
 73
     9
 74
     0
 42
0.0000000001
 43
0.0000000001
 40
0.0
 40
0.0
 40
0.0
 40
0.0
 40
1.0
 40
2.0
 40
3.0
 40
4.0
 40
5.0
 40
6.0
 40
6.0
 40
6.0
 40
6.0
 10
37.14635815653534
 20
26.86937673221871
 30
0.0
 10
37.18944011417317
 20
26.87094836276797
 30
0.0
 10
37.274394882392
 20
26.89070813810772
 30
0.0
 10
37.38713605925882
 20
26.95656227972647
 30
0.0
 10
37.47471541690891
 20
27.05332263886663
 30
0.0
 10
37.53632450761924
 20
27.16757101416848
 30
0.0
 10
37.57703905783832
 20
27.29047871861871
 30
0.0
 10
37.59517374499076
 20
27.37471792199607
 30
0.0
 10
37.60336318938326
 20
27.41698182957619
 30
0.0
  0
SPLINE
  5
49
330
1F
100
AcDbEntity
  8
Default
100
AcDbSpline
210
0.0
220
0.0
230
1.0
 70
     8
 71
     3
 72
    12
 73
     8
 74
     0
 42
0.0000000001
 43
0.0000000001
 40
0.0
 40
0.0
 40
0.0
 40
0.0
 40
0.4651339589941351
 40
1.34920933911786
 40
2.49222809529865
 40
4.39453263727257
 40
4.555418320022297
 40
4.555418320022297
 40
4.555418320022297
 40
4.555418320022297
 10
37.60336318938326
 20
27.41698182957619
 30
0.0
 10
37.63034354682199
 20
27.56964118169822
 30
0.0
 10
37.67881458764707
 20
28.01726070192962
 30
0.0
 10
37.74368125312341
 20
28.84462942773697
 30
0.0
 10
37.82086447411541
 20
30.15438128357055
 30
0.0
 10
37.7080466954075
 20
31.22206616762117
 30
0.0
 10
37.58396860106221
 20
31.89834222218132
 30
0.0
 10
37.57399446248572
 20
31.95101444958645
 30
0.0
  0
SPLINE
  5
4A
330
1F
100
AcDbEntity
  8
Default
100
AcDbSpline
210
0.0
220
0.0
230
1.0
 70
     8
 71
     3
 72
    24
 73
    20
 74
     0
 42
0.0000000001
 43
0.0000000001
 40
0.0
 40
0.0
 40
0.0
 40
0.0
 40
1.0
 40
2.0
 40
3.0
 40
4.0
 40
5.0
 40
6.0
 40
7.0
 40
8.0
 40
9.0
 40
10.0
 40
11.0
 40
12.0
 40
13.0
 40
14.0
 40
15.0
 40
16.0
 40
16.13599113825579
 40
16.13599113825579
 40
16.13599113825579
 40
16.13599113825579
 10
38.55056460962885
 20
23.20489755669688
 30
0.0
 10
38.59881023197092
 20
23.16606935872544
 30
0.0
 10
38.69796287798744
 20
23.09133889955977
 30
0.0
 10
38.85613899124463
 20
22.99410966020085
 30
0.0
 10
39.02182653604336
 20
22.90705204119611
 30
0.0
 10
39.20595307442345
 20
22.87085814329961
 30
0.0
 10
39.38777366106616
 20
22.85593295671588
 30
0.0
 10
39.58873520616346
 20
22.93019319193181
 30
0.0
 10
39.50501823989865
 20
23.14182868521877
 30
0.0
 10
39.40007731497676
 20
23.28340573329916
 30
0.0
 10
39.27972515484198
 20
23.42853370711155
 30
0.0
 10
39.15467740203214
 20
23.56514577274769
 30
0.0
 10
39.03036819914124
 20
23.70358137043844
 30
0.0
 10
38.9070585583099
 20
23.84260062488215
 30
0.0
 10
38.78468514323789
 20
23.98252680070221
 30
0.0
 10
38.66327487134193
 20
24.12326770811389
 30
0.0
 10
38.5428170775001
 20
24.26483034954749
 30
0.0
 10
38.45778037848559
 20
24.36623739297873
 30
0.0
 10
38.41277699722797
 20
24.42035386731018
 30
0.0
 10
38.4073927606171
 20
24.42683487373412
 30
0.0
  0
ARC
  5
4B
330
1F
100
AcDbEntity
  8
Default
100
AcDbCircle
 10
38.59969012214709
 20
24.58659007630544
 30
0.0
 40
0.25
100
AcDbArc
 50
92.60936929485611
 51
219.7188424820523
  0
SPLINE
  5
4C
330
1F
100
AcDbEntity
  8
Default
100
AcDbSpline
210
0.0
220
0.0
230
1.0
 70
     8
 71
     3
 72
    12
 73
     8
 74
     0
 42
0.0000000001
 43
0.0000000001
 40
0.1004929713206162
 40
0.1004929713206162
 40
0.1004929713206162
 40
0.1004929713206162
 40
3.645618499081671
 40
6.068168658872678
 40
9.511558966442593
 40
11.17798759891832
 40
12.37720053515104
 40
12.37720053515104
 40
12.37720053515104
 40
12.37720053515104
 10
38.58830853609003
 20
24.83633086091786
 30
0.0
 10
39.76876177879417
 20
24.89012836215074
 30
0.0
 10
41.75160558581472
 20
25.05694387873203
 30
0.0
 10
44.88142073616542
 20
25.26543483631395
 30
0.0
 10
47.38865246763069
 20
25.40462224762977
 30
0.0
 10
49.48768082931893
 20
25.5282268663764
 30
0.0
 10
50.44219525406823
 20
25.57648614576259
 30
0.0
 10
50.84182056435625
 20
25.57515343461115
 30
0.0
  0
SPLINE
  5
4D
330
1F
100
AcDbEntity
  8
Default
100
AcDbSpline
210
0.0
220
0.0
230
1.0
 70
     8
 71
     3
 72
    14
 73
    10
 74
     0
 42
0.0000000001
 43
0.0000000001
 40
-13.46246721806172
 40
-13.46246721806172
 40
-13.46246721806172
 40
-13.46246721806172
 40
-12.76915707112372
 40
-11.57409979907015
 40
-10.91174483143177
 40
-8.853644510865058
 40
-5.160327740573998
 40
-2.520433580507965
 40
0.0
 40
0.0
 40
0.0
 40
0.0
 10
50.84204156481126
 20
25.71744851702668
 30
0.0
 10
50.61135923520222
 20
25.73048013159598
 30
0.0
 10
49.98166939293291
 20
25.74078955992604
 30
0.0
 10
49.1316447418332
 20
25.72447055737849
 30
0.0
 10
47.82700406989301
 20
25.68512741235465
 30
0.0
 10
45.69017772326353
 20
25.61916405222303
 30
0.0
 10
42.89454068237528
 20
25.52319148491641
 30
0.0
 10
39.94853309312025
 20
25.34355871870182
 30
0.0
 10
38.2349344944797
 20
25.19209230383862
 30
0.0
 10
37.39929220810767
 20
25.10520901492669
 30
0.0
  0
SPLINE
  5
4E
330
1F
100
AcDbEntity
  8
Default
100
AcDbSpline
210
0.0
220
0.0
230
1.0
 70
    12
 71
     2
 72
     6
 73
     3
 74
     0
 42
0.0000000001
 43
0.0000000001
 40
-0.1603149038788934
 40
-0.1603149038788934
 40
-0.1603149038788934
 40
0.0
 40
0.0
 40
0.0
 10
37.39929220810767
 20
25.10520901492669
 30
0.0
 41
1.0
 10
37.31810548072875
 20
25.10059918890982
 30
0.0
 41
0.978738299541518
 10
37.24560088541068
 20
25.06378045921737
 30
0.0
 41
1.0
  0
SPLINE
  5
4F
330
1F
100
AcDbEntity
  8
Default
100
AcDbSpline
210
0.0
220
0.0
230
1.0
 70
    12
 71
     2
 72
     6
 73
     3
 74
     0
 42
0.0000000001
 43
0.0000000001
 40
-0.4001929047078155
 40
-0.4001929047078155
 40
-0.4001929047078155
 40
0.0
 40
0.0
 40
0.0
 10
37.24560088541068
 20
25.06378045921737
 30
0.0
 41
1.0
 10
37.07240063168742
 20
24.963192908485
 30
0.0
 41
0.998549274239925
 10
36.9110213892004
 20
24.84456355568202
 30
0.0
 41
1.0
  0
SPLINE
  5
50
330
1F
100
AcDbEntity
  8
Default
100
AcDbSpline
210
0.0
220
0.0
230
1.0
 70
     8
 71
     3
 72
    11
 73
     7
 74
     0
 42
0.0000000001
 43
0.0000000001
 40
-2.552903144898705
 40
-2.552903144898705
 40
-2.552903144898705
 40
-2.552903144898705
 40
-1.888480730619187
 40
-0.9523693663536067
 40
-0.723128482373148
 40
0.0
 40
0.0
 40
0.0
 40
0.0
 10
51.96536142891549
 20
25.93398573356729
 30
0.0
 10
52.1776606359362
 20
25.87279116807494
 30
0.0
 10
52.6751371504167
 20
25.6760178869654
 30
0.0
 10
53.18439769121825
 20
25.32804221446474
 30
0.0
 10
53.62875149958982
 20
24.8812136891462
 30
0.0
 10
53.78099657425425
 20
24.5950292688498
 30
0.0
 10
53.95882197390044
 20
24.42903903789425
 30
0.0
  0
SPLINE
  5
51
330
1F
100
AcDbEntity
  8
Default
100
AcDbSpline
210
0.0
220
0.0
230
1.0
 70
     8
 71
     3
 72
    14
 73
    10
 74
     0
 42
0.0000000001
 43
0.0000000001
 40
-7.0
 40
-7.0
 40
-7.0
 40
-7.0
 40
-6.0
 40
-5.0
 40
-4.0
 40
-3.0
 40
-2.0
 40
-1.0
 40
0.0
 40
0.0
 40
0.0
 40
0.0
 10
53.95882197390044
 20
24.42903903789425
 30
0.0
 10
53.98630128832571
 20
24.39815422912507
 30
0.0
 10
54.05302092694835
 20
24.35499135475962
 30
0.0
 10
54.14179800144706
 20
24.2661800327878
 30
0.0
 10
54.08744018862529
 20
24.13935322649883
 30
0.0
 10
54.01313856097953
 20
24.05198840690529
 30
0.0
 10
53.89772748887287
 20
23.98159739462402
 30
0.0
 10
53.78786881353797
 20
24.05363544659054
 30
0.0
 10
53.73186819499928
 20
24.10738408423314
 30
0.0
 10
53.70357022848926
 20
24.13649947138124
 30
0.0
  0
SPLINE
  5
52
330
1F
100
AcDbEntity
  8
Default
100
AcDbSpline
210
0.0
220
0.0
230
1.0
 70
    12
 71
     2
 72
     8
 73
     5
 74
     0
 42
0.0000000001
 43
0.0000000001
 40
-1.131082174975068
 40
-1.131082174975068
 40
-1.131082174975068
 40
-0.5311319982797426
 40
-0.5311319982797426
 40
0.0
 40
0.0
 40
0.0
 10
53.70357022848926
 20
24.13649947138124
 30
0.0
 41
1.0
 10
53.49429490299506
 20
24.35181996517549
 30
0.0
 41
0.9985522946097442
 10
53.27279216513632
 20
24.68118289146171
 30
0.0
 41
1.0
 10
53.10394128173365
 20
24.8882175655217
 30
0.0
 41
0.9910793595359968
 10
52.88639655532059
 20
25.04329260896473
 30
0.0
 41
1.0
  0
SPLINE
  5
53
330
1F
100
AcDbEntity
  8
Default
100
AcDbSpline
210
0.0
220
0.0
230
1.0
 70
     8
 71
     3
 72
     9
 73
     5
 74
     0
 42
0.0000000001
 43
0.0000000001
 40
-15.65411752985806
 40
-15.65411752985806
 40
-15.65411752985806
 40
-15.65411752985806
 40
-15.02730075433966
 40
-14.60535793390836
 40
-14.60535793390836
 40
-14.60535793390836
 40
-14.60535793390836
 10
52.88639655532059
 20
25.04329260896473
 30
0.0
 10
52.72155170010645
 20
25.17152287044348
 30
0.0
 10
52.42754373297372
 20
25.36444863026404
 30
0.0
 10
52.10154649071421
 20
25.49399004608908
 30
0.0
 10
51.9674258212877
 20
25.53670326403651
 30
0.0
  0
SPLINE
  5
54
330
1F
100
AcDbEntity
  8
Default
100
AcDbSpline
210
0.0
220
0.0
230
1.0
 70
     8
 71
     3
 72
    19
 73
    15
 74
     0
 42
0.0000000001
 43
0.0000000001
 40
-17.9686236409989
 40
-17.9686236409989
 40
-17.9686236409989
 40
-17.9686236409989
 40
-17.45341459592076
 40
-17.35126446118563
 40
-17.31388856261465
 40
-17.22998332040851
 40
-17.09577373227868
 40
-15.4228300371513
 40
-10.16604820698678
 40
-8.509741002941979
 40
-6.085128693056221
 40
-5.382701377325557
 40
-3.792327664688375
 40
-3.674276732601967
 40
-3.674276732601967
 40
-3.674276732601967
 40
-3.674276732601967
 10
36.7222642264192
 20
25.01844966714885
 30
0.0
 10
36.85367145532175
 20
25.12897413660026
 30
0.0
 10
37.01413915512107
 20
25.25813438984456
 30
0.0
 10
37.19382135088779
 20
25.3820057930153
 30
0.0
 10
37.25582703775613
 20
25.42365597981698
 30
0.0
 10
37.33728912496669
 20
25.45203905120538
 30
0.0
 10
37.96579133674497
 20
25.5014745460358
 30
0.0
 10
40.31296100929988
 20
25.69442812033576
 30
0.0
 10
43.16903713289879
 20
25.86952474813162
 30
0.0
 10
46.28088300798568
 20
25.98432784011063
 30
0.0
 10
47.87195659776432
 20
26.04228275936035
 30
0.0
 10
49.44731547196034
 20
26.09412006271739
 30
0.0
 10
50.24668037882697
 20
26.11301208498487
 30
0.0
 10
50.81774317486532
 20
26.09219483247424
 30
0.0
 10
50.85720534941105
 20
26.09053501698925
 30
0.0
  0
SPLINE
  5
55
330
1F
100
AcDbEntity
  8
Default
100
AcDbSpline
210
0.0
220
0.0
230
1.0
 70
    12
 71
     2
 72
     6
 73
     3
 74
     0
 42
0.0000000001
 43
0.0000000001
 40
0.9405340330044497
 40
0.9405340330044497
 40
0.9405340330044497
 40
1.933919215033354
 40
1.933919215033354
 40
1.933919215033354
 10
38.57327073522911
 20
23.18681369430442
 30
0.0
 41
0.9904238679549897
 10
39.05457317308969
 20
23.05643717414873
 30
0.0
 41
0.9868722971604992
 10
39.54753974513024
 20
22.98165658693137
 30
0.0
 41
0.9865010273612517
  0
SPLINE
  5
56
330
1F
100
AcDbEntity
  8
Default
100
AcDbSpline
210
0.0
220
0.0
230
1.0
 70
    12
 71
     2
 72
     6
 73
     3
 74
     0
 42
0.0000000001
 43
0.0000000001
 40
0.0
 40
0.0
 40
0.0
 40
0.9405340330044497
 40
0.9405340330044497
 40
0.9405340330044497
 10
37.68383837563172
 20
23.47970447912226
 30
0.0
 41
1.0
 10
38.12074553319759
 20
23.30939495814733
 30
0.0
 41
0.9937864842525477
 10
38.57327073522911
 20
23.18681369430442
 30
0.0
 41
0.9904238679549897
  0
SPLINE
  5
57
330
1F
100
AcDbEntity
  8
Default
100
AcDbSpline
210
0.0
220
0.0
230
1.0
 70
    12
 71
     2
 72
     6
 73
     3
 74
     0
 42
0.0000000001
 43
0.0000000001
 40
3.066984303758646
 40
3.066984303758646
 40
3.066984303758646
 40
3.577868569146716
 40
3.577868569146716
 40
3.577868569146716
 10
38.57724123214976
 20
24.22450818875945
 30
0.0
 41
0.9935671052689171
 10
38.33429322300009
 20
24.29921239553118
 30
0.0
 41
0.9962477714935214
 10
38.09673568186875
 20
24.3895497712956
 30
0.0
 41
1.0
  0
SPLINE
  5
59
330
1F
100
AcDbEntity
  8
MAKE2D VISIBLE LINES
100
AcDbSpline
210
0.0
220
0.0
230
1.0
 70
    24
 71
     2
 72
     6
 73
     3
 74
     0
 42
0.0000000001
 43
0.0000000001
 40
-1.164270822023603
 40
-1.164270822023603
 40
-1.164270822023603
 40
-0.0552594418753939
 40
-0.0552594418753939
 40
-0.0552594418753939
 10
10.03366140506104
 20
56.7119604449319
 30
0.0
 10
9.477498419362927
 20
56.71189332725314
 30
0.0
 10
8.921335433664812
 20
56.71182620957435
 30
0.0
  0
SPLINE
  5
5A
330
1F
100
AcDbEntity
  8
MAKE2D VISIBLE LINES
100
AcDbSpline
210
0.0
220
0.0
230
1.0
 70
    24
 71
     2
 72
     6
 73
     3
 74
     0
 42
0.0000000001
 43
0.0000000001
 40
-1.164270822023603
 40
-1.164270822023603
 40
-1.164270822023603
 40
-0.056384693942329
 40
-0.056384693942329
 40
-0.056384693942329
 10
-10.03366140506104
 20
56.7119604449319
 30
0.0
 10
-9.47806272696194
 20
56.71189339535371
 30
0.0
 10
-8.922464048862839
 20
56.71182634577549
 30
0.0
  0
SPLINE
  5
5B
330
1F
100
AcDbEntity
  8
Default
100
AcDbSpline
210
0.0
220
0.0
230
1.0
 70
    12
 71
     2
 72
     6
 73
     3
 74
     0
 42
0.0000000001
 43
0.0000000001
 40
0.0592236376901287
 40
0.0592236376901287
 40
0.0592236376901287
 40
0.8053367947165757
 40
0.8053367947165757
 40
0.8053367947165757
 10
-9.004759938741742
 20
58.18695059340008
 30
0.0
 41
0.9999999987000893
 10
-9.377814790968097
 20
58.18808618897183
 30
0.0
 41
0.9999999911617559
 10
-9.750869340329134
 20
58.18931726491343
 30
0.0
 41
1.0
  0
SPLINE
  5
5C
330
1F
100
AcDbEntity
  8
Default
100
AcDbSpline
210
0.0
220
0.0
230
1.0
 70
    12
 71
     2
 72
     6
 73
     3
 74
     0
 42
0.0000000001
 43
0.0000000001
 40
0.0588574880627845
 40
0.0588574880627845
 40
0.0588574880627845
 40
0.8053367947165757
 40
0.8053367947165757
 40
0.8053367947165757
 10
9.004158734083804
 20
58.18694947885248
 30
0.0
 41
0.999999998707492
 10
9.377396660420978
 20
58.18808558483023
 30
0.0
 41
0.9999999911574186
 10
9.750634283601526
 20
58.18931726491343
 30
0.0
 41
1.0
  0
SPLINE
  5
5D
330
1F
100
AcDbEntity
  8
Default
100
AcDbSpline
210
0.0
220
0.0
230
1.0
 70
    12
 71
     2
 72
     6
 73
     3
 74
     0
 42
0.0000000001
 43
0.0000000001
 40
0.0
 40
0.0
 40
0.0
 40
0.8140578786361594
 40
0.8140578786361594
 40
0.8140578786361594
 10
-9.779533602984204
 20
57.18940652648687
 30
0.0
 41
1.0
 10
-9.37250688887157
 20
57.18805980565907
 30
0.0
 41
0.999999989632986
 10
-8.9654798147506
 20
57.18682668327253
 30
0.0
 41
0.9999999987392264
  0
SPLINE
  5
5E
330
1F
100
AcDbEntity
  8
Default
100
AcDbSpline
210
0.0
220
0.0
230
1.0
 70
    12
 71
     2
 72
     6
 73
     3
 74
     0
 42
0.0000000001
 43
0.0000000001
 40
0.0
 40
0.0
 40
0.0
 40
0.8121512644604406
 40
0.8121512644604406
 40
0.8121512644604406
 10
9.779298546256596
 20
57.18940652648687
 30
0.0
 41
1.0
 10
9.373225134029994
 20
57.1880629598292
 30
0.0
 41
0.9999999896572668
 10
8.9671513634425
 20
57.18683246011543
 30
0.0
 41
0.9999999986966776
  0
SPLINE
  5
5F
330
1F
100
AcDbEntity
  8
MAKE2D VISIBLE LINES
100
AcDbSpline
210
0.0
220
0.0
230
1.0
 70
    12
 71
     2
 72
     6
 73
     3
 74
     0
 42
0.0000000001
 43
0.0000000001
 40
0.038460936974841
 40
0.038460936974841
 40
0.038460936974841
 40
0.6746262644501938
 40
0.6746262644501938
 40
0.6746262644501938
 10
-8.854809406307183
 20
25.22594379069977
 30
0.0
 41
0.9999990983308298
 10
-9.17104794652182
 20
25.26016076320101
 30
0.0
 41
0.9999920921101788
 10
-9.48701277271566
 20
25.29681924288219
 30
0.0
 41
1.0
  0
SPLINE
  5
60
330
1F
100
AcDbEntity
  8
MAKE2D VISIBLE LINES
100
AcDbSpline
210
0.0
220
0.0
230
1.0
 70
    12
 71
     2
 72
     6
 73
     3
 74
     0
 42
0.0000000001
 43
0.0000000001
 40
0.0386124483227624
 40
0.0386124483227624
 40
0.0386124483227624
 40
0.6746262644501938
 40
0.6746262644501938
 40
0.6746262644501938
 10
8.854960038179247
 20
25.22596008919061
 30
0.0
 41
0.999999094994424
 10
9.171123198399163
 20
25.26016949398111
 30
0.0
 41
0.9999920939935494
 10
9.48701277271566
 20
25.29681924288219
 30
0.0
 41
1.0
  0
ARC
  5
61
330
1F
100
AcDbEntity
  8
Default
100
AcDbCircle
 10
-17.31739562971913
 20
-16.78614120548057
 30
0.0
 40
41.66759639119658
100
AcDbArc
 50
74.48125488379408
 51
77.00741783447151
  0
SPLINE
  5
62
330
1F
100
AcDbEntity
  8
Default
100
AcDbSpline
210
0.0
220
0.0
230
1.0
 70
    12
 71
     2
 72
     6
 73
     3
 74
     0
 42
0.0000000001
 43
0.0000000001
 40
-0.9461446270349397
 40
-0.9461446270349397
 40
-0.9461446270349397
 40
0.0
 40
0.0
 40
0.0
 10
-8.385374212387203
 20
26.0234149063814
 30
0.0
 41
0.9901859380548396
 10
-8.103472449020746
 20
26.4128760431745
 30
0.0
 41
0.9732955154720477
 10
-7.68729246564604
 20
26.65395554102757
 30
0.0
 41
1.0
  0
SPLINE
  5
63
330
1F
100
AcDbEntity
  8
Default
100
AcDbSpline
210
0.0
220
0.0
230
1.0
 70
    12
 71
     2
 72
     6
 73
     3
 74
     0
 42
0.0000000001
 43
0.0000000001
 40
0.0
 40
0.0
 40
0.0
 40
0.9461792513233571
 40
0.9461792513233571
 40
0.9461792513233571
 10
7.68729247290028
 20
26.65395554102757
 30
0.0
 41
1.0
 10
8.103488104325212
 20
26.41286697876909
 30
0.0
 41
0.973294538217886
 10
8.385394499934108
 20
26.02338688770907
 30
0.0
 41
0.9901871743277421
  0
SPLINE
  5
64
330
1F
100
AcDbEntity
  8
Default
100
AcDbSpline
210
0.0
220
0.0
230
1.0
 70
    12
 71
     2
 72
     6
 73
     3
 74
     0
 42
0.0000000001
 43
0.0000000001
 40
15.684469240627
 40
15.684469240627
 40
15.684469240627
 40
19.04348847755149
 40
19.04348847755149
 40
19.04348847755149
 10
-6.160917320818567
 20
23.97626364586423
 30
0.0
 41
0.9981045999326592
 10
-7.834110205505561
 20
24.10033249138285
 30
0.0
 41
0.9988493385147755
 10
-9.500951649733766
 20
24.29166233118506
 30
0.0
 41
1.0
  0
SPLINE
  5
65
330
1F
100
AcDbEntity
  8
Default
100
AcDbSpline
210
0.0
220
0.0
230
1.0
 70
    12
 71
     2
 72
     6
 73
     3
 74
     0
 42
0.0000000001
 43
0.0000000001
 40
0.0
 40
0.0
 40
0.0
 40
3.359192758773792
 40
3.359192758773792
 40
3.359192758773792
 10
9.501108636445364
 20
24.29166404136933
 30
0.0
 41
1.0
 10
7.834181020953654
 20
24.10032400632383
 30
0.0
 41
0.998849279073345
 10
6.160901366073865
 20
23.97625192700919
 30
0.0
 41
0.9981045229896068
  0
ARC
  5
66
330
1F
100
AcDbEntity
  8
Default
100
AcDbCircle
 10
17.31739563697337
 20
-16.78614120548057
 30
0.0
 40
41.66759639119658
100
AcDbArc
 50
102.9925821655302
 51
105.5187451162059
  0
SPLINE
  5
67
330
1F
100
AcDbEntity
  8
Default
100
AcDbSpline
210
0.0
220
0.0
230
1.0
 70
    12
 71
     2
 72
     6
 73
     3
 74
     0
 42
0.0000000001
 43
0.0000000001
 40
0.0
 40
0.0
 40
0.0
 40
0.136497131246725
 40
0.136497131246725
 40
0.136497131246725
 10
52.01188433337902
 20
24.00546094554746
 30
0.0
 41
1.0
 10
52.05878773149092
 20
24.05551205987151
 30
0.0
 41
0.9924780464036579
 10
52.09212260722281
 20
24.1154606116427
 30
0.0
 41
1.0
  0
SPLINE
  5
68
330
1F
100
AcDbEntity
  8
Default
100
AcDbSpline
210
0.0
220
0.0
230
1.0
 70
    12
 71
     2
 72
     6
 73
     3
 74
     0
 42
0.0000000001
 43
0.0000000001
 40
0.0
 40
0.0
 40
0.0
 40
0.8264390978013532
 40
0.8264390978013532
 40
0.8264390978013532
 10
52.09212260722281
 20
24.1154606116427
 30
0.0
 41
1.0
 10
52.2867208840627
 20
24.4803473212617
 30
0.0
 41
0.9986048383852346
 10
52.44754153785821
 20
24.86132962730549
 30
0.0
 41
0.9992567506520554
  0
ARC
  5
69
330
1F
100
AcDbEntity
  8
Default
100
AcDbCircle
 10
52.67786227683715
 20
24.76410639347636
 30
0.0
 40
0.25
100
AcDbArc
 50
56.90320801781194
 51
157.1143678715038
  0
LINE
  5
6A
330
1F
100
AcDbEntity
  8
Default
100
AcDbLine
 10
52.8143760408099
 20
24.97354371643001
 30
0.0
 11
52.95883560982013
 21
24.87938323333488
 31
0.0
  0
ARC
  5
6B
330
1F
100
AcDbEntity
  8
Default
100
AcDbCircle
 10
52.28818044040597
 20
23.87869092349689
 30
0.0
 40
1.20464245950026
100
AcDbArc
 50
25.22628804628217
 51
56.1703549918263
  0
SPLINE
  5
6C
330
1F
100
AcDbEntity
  8
Default
100
AcDbSpline
210
0.0
220
0.0
230
1.0
 70
    12
 71
     2
 72
     6
 73
     3
 74
     0
 42
0.0000000001
 43
0.0000000001
 40
-1.357066206308517
 40
-1.357066206308517
 40
-1.357066206308517
 40
0.0
 40
0.0
 40
0.0
 10
53.37793808100447
 20
24.39210278544401
 30
0.0
 41
1.0
 10
52.90717817407408
 20
23.89787310461131
 30
0.0
 41
0.991190278644199
 10
52.323170519087
 20
23.54458437523322
 30
0.0
 41
1.0
  0
SPLINE
  5
6D
330
1F
100
AcDbEntity
  8
Default
100
AcDbSpline
210
0.0
220
0.0
230
1.0
 70
    12
 71
     2
 72
     6
 73
     3
 74
     0
 42
0.0000000001
 43
0.0000000001
 40
-0.2347042026955195
 40
-0.2347042026955195
 40
-0.2347042026955195
 40
0.0
 40
0.0
 40
0.0
 10
52.323170519087
 20
23.54458437523322
 30
0.0
 41
1.0
 10
52.22079530183196
 20
23.48224935582142
 30
0.0
 41
0.9689121470040515
 10
52.10106758365743
 20
23.47662678934304
 30
0.0
 41
1.0
  0
SPLINE
  5
6E
330
1F
100
AcDbEntity
  8
Default
100
AcDbSpline
210
0.0
220
0.0
230
1.0
 70
    12
 71
     2
 72
     6
 73
     3
 74
     0
 42
0.0000000001
 43
0.0000000001
 40
-0.0744622706341129
 40
-0.0744622706341129
 40
-0.0744622706341129
 40
0.0
 40
0.0
 40
0.0
 10
52.10106758365743
 20
23.47662678934304
 30
0.0
 41
1.0
 10
52.06388869074844
 20
23.47465513301878
 30
0.0
 41
0.9999999623414183
 10
52.02671088564149
 20
23.47266307026204
 30
0.0
 41
1.0
  0
SPLINE
  5
6F
330
1F
100
AcDbEntity
  8
Default
100
AcDbSpline
210
0.0
220
0.0
230
1.0
 70
    12
 71
     2
 72
     6
 73
     3
 74
     0
 42
0.0000000001
 43
0.0000000001
 40
-0.3487157040704518
 40
-0.3487157040704518
 40
-0.3487157040704518
 40
-0.0287461451405254
 40
-0.0287461451405254
 40
-0.0287461451405254
 10
53.70357022848926
 20
24.13649947138124
 30
0.0
 41
1.0
 10
53.59172068151105
 20
24.25157992641883
 30
0.0
 41
0.9951609814664577
 10
53.37886457954947
 20
24.39361722883993
 30
0.0
 41
0.9992021975065695
  0
SPLINE
  5
70
330
1F
100
AcDbEntity
  8
Default
100
AcDbSpline
210
0.0
220
0.0
230
1.0
 70
     8
 71
     3
 72
    20
 73
    16
 74
     0
 42
0.0000000001
 43
0.0000000001
 40
0.0
 40
0.0
 40
0.0
 40
0.0
 40
1.0
 40
2.0
 40
3.0
 40
4.0
 40
5.0
 40
6.0
 40
7.0
 40
8.0
 40
9.0
 40
10.0
 40
11.0
 40
12.0
 40
13.0
 40
13.0
 40
13.0
 40
13.0
 10
50.89459869779938
 20
23.71259225562805
 30
0.0
 10
50.58438837984018
 20
23.70601248838253
 30
0.0
 10
49.9640854036049
 20
23.68734529892583
 30
0.0
 10
49.03423833905138
 20
23.64370638267601
 30
0.0
 10
48.10524099378932
 20
23.58453090847608
 30
0.0
 10
47.17753760207778
 20
23.5077198030231
 30
0.0
 10
46.25121650496928
 20
23.41587348237061
 30
0.0
 10
45.3260122612953
 20
23.31351869025998
 30
0.0
 10
44.401549924726
 20
23.20469800633801
 30
0.0
 10
43.4774478708181
 20
23.09294706126674
 30
0.0
 10
42.55284773460066
 20
22.9851025525421
 30
0.0
 10
41.62731709216361
 20
22.88647833873271
 30
0.0
 10
40.6978501814382
 20
22.82273592231411
 30
0.0
 10
39.7711070404014
 20
22.77400280385568
 30
0.0
 10
39.14030286219243
 20
22.85822619265612
 30
0.0
 10
38.8498406076898
 20
22.74356538053663
 30
0.0
  0
SPLINE
  5
71
330
1F
100
AcDbEntity
  8
Default
100
AcDbSpline
210
0.0
220
0.0
230
1.0
 70
    12
 71
     2
 72
     6
 73
     3
 74
     0
 42
0.0000000001
 43
0.0000000001
 40
-0.687820922641539
 40
-0.687820922641539
 40
-0.687820922641539
 40
0.0
 40
0.0
 40
0.0
 10
38.8498406076898
 20
22.74356538053663
 30
0.0
 41
1.0
 10
38.59904741859379
 20
22.50823143375564
 30
0.0
 41
0.9999690258309426
 10
38.35198965636683
 20
22.26897894718997
 30
0.0
 41
1.0
  0
SPLINE
  5
72
330
1F
100
AcDbEntity
  8
Default
100
AcDbSpline
210
0.0
220
0.0
230
1.0
 70
    12
 71
     2
 72
     6
 73
     3
 74
     0
 42
0.0000000001
 43
0.0000000001
 40
0.0
 40
0.0
 40
0.0
 40
0.108394787279406
 40
0.108394787279406
 40
0.108394787279406
 10
36.51542481282813
 20
23.73476553255126
 30
0.0
 41
1.0
 10
36.46153218231522
 20
23.74050503905791
 30
0.0
 41
0.999999979266735
 10
36.40764189378133
 20
23.74626649375879
 30
0.0
 41
1.0
  0
SPLINE
  5
73
330
1F
100
AcDbEntity
  8
Default
100
AcDbSpline
210
0.0
220
0.0
230
1.0
 70
    24
 71
     2
 72
     6
 73
     3
 74
     0
 42
0.0000000001
 43
0.0000000001
 40
-0.2325307321403076
 40
-0.2325307321403076
 40
-0.2325307321403076
 40
-0.0181596897530964
 40
-0.0181596897530964
 40
-0.0181596897530964
 10
36.67985308616063
 20
23.8723090650395
 30
0.0
 10
36.59763895003751
 20
23.8035372984573
 30
0.0
 10
36.51542481391438
 20
23.7347655318751
 30
0.0
  0
SPLINE
  5
74
330
1F
100
AcDbEntity
  8
Default
100
AcDbSpline
210
0.0
220
0.0
230
1.0
 70
    12
 71
     2
 72
     6
 73
     3
 74
     0
 42
0.0000000001
 43
0.0000000001
 40
0.0
 40
0.0
 40
0.0
 40
0.0457929944082863
 40
0.0457929944082863
 40
0.0457929944082863
 10
36.51542481391438
 20
23.7347655318751
 30
0.0
 41
1.0
 10
36.50946617368204
 20
23.71037869911689
 30
0.0
 41
0.8731582744741458
 10
36.52709754797208
 20
23.69250811966745
 30
0.0
 41
1.0
  0
SPLINE
  5
75
330
1F
100
AcDbEntity
  8
Default
100
AcDbSpline
210
0.0
220
0.0
230
1.0
 70
    12
 71
     2
 72
     6
 73
     3
 74
     0
 42
0.0000000001
 43
0.0000000001
 40
0.0
 40
0.0
 40
0.0
 40
2.137039182577097
 40
2.137039182577097
 40
2.137039182577097
 10
36.52709754797208
 20
23.69250811966745
 30
0.0
 41
1.0
 10
37.27990997688149
 20
22.92857430188099
 30
0.0
 41
0.9944000822514505
 10
38.17646926920291
 20
22.33992936099521
 30
0.0
 41
1.0
  0
SPLINE
  5
76
330
1F
100
AcDbEntity
  8
Default
100
AcDbSpline
210
0.0
220
0.0
230
1.0
 70
    12
 71
     2
 72
     6
 73
     3
 74
     0
 42
0.0000000001
 43
0.0000000001
 40
-0.1906435954869634
 40
-0.1906435954869634
 40
-0.1906435954869634
 40
0.0
 40
0.0
 40
0.0
 10
38.17646926920291
 20
22.33992936099521
 30
0.0
 41
1.0
 10
38.25687361083906
 20
22.28625691024011
 30
0.0
 41
0.9791718629292984
 10
38.35198965636683
 20
22.26897894718996
 30
0.0
 41
1.0
  0
SPLINE
  5
77
330
1F
100
AcDbEntity
  8
Default
100
AcDbSpline
210
0.0
220
0.0
230
1.0
 70
     8
 71
     3
 72
    14
 73
    10
 74
     0
 42
0.0000000001
 43
0.0000000001
 40
0.0
 40
0.0
 40
0.0
 40
0.0
 40
0.6990240910473118
 40
1.427452671610304
 40
2.963428520767245
 40
4.341267153930231
 40
7.279531458324128
 40
8.656584164251418
 40
12.64851224199838
 40
12.64851224199838
 40
12.64851224199838
 40
12.64851224199838
 10
38.35198965636683
 20
22.26897894718996
 30
0.0
 10
38.5811419319561
 20
22.22645933898767
 30
0.0
 10
39.0521863463624
 20
22.15789481200001
 30
0.0
 10
40.03873779070798
 20
22.09078519286293
 30
0.0
 10
41.25402715223942
 20
22.14142135062247
 30
0.0
 10
43.18800451453286
 20
22.40297778393177
 30
0.0
 10
45.05018206466423
 20
22.77227044069609
 30
0.0
 10
47.79000858492343
 20
23.17780805020149
 30
0.0
 10
49.57577042437529
 20
23.31888563036151
 30
0.0
 10
50.90310700129498
 20
23.40684307276438
 30
0.0
  0
SPLINE
  5
78
330
1F
100
AcDbEntity
  8
Default
100
AcDbSpline
210
0.0
220
0.0
230
1.0
 70
    12
 71
     2
 72
     6
 73
     3
 74
     0
 42
0.0000000001
 43
0.0000000001
 40
0.0
 40
0.0
 40
0.0
 40
0.8358662744886645
 40
0.8358662744886645
 40
0.8358662744886645
 10
-6.747463790062298
 20
23.96837123157977
 30
0.0
 41
1.0
 10
-6.462913271230093
 20
23.66223494770004
 30
0.0
 41
0.9999127732357861
 10
-6.170367964148101
 20
23.36372922664078
 30
0.0
 41
0.9999999999991276
  0
SPLINE
  5
79
330
1F
100
AcDbEntity
  8
Default
100
AcDbSpline
210
0.0
220
0.0
230
1.0
 70
    12
 71
     2
 72
     6
 73
     3
 74
     0
 42
0.0000000001
 43
0.0000000001
 40
0.0
 40
0.0
 40
0.0
 40
0.9933248670959279
 40
0.9933248670959279
 40
0.9933248670959279
 10
-6.1703679641481
 20
23.36372922664077
 30
0.0
 41
0.9999999899372237
 10
-5.82036148701685
 20
22.99655635073762
 30
0.0
 41
0.968932994225803
 10
-5.336440187006176
 20
22.84182663372678
 30
0.0
 41
1.0
  0
SPLINE
  5
7A
330
1F
100
AcDbEntity
  8
Default
100
AcDbSpline
210
0.0
220
0.0
230
1.0
 70
    12
 71
     2
 72
     6
 73
     3
 74
     0
 42
0.0000000001
 43
0.0000000001
 40
0.0
 40
0.0
 40
0.0
 40
5.401120923603427
 40
5.401120923603427
 40
5.401120923603427
 10
-5.336440187006176
 20
22.84182663372678
 30
0.0
 41
1.0
 10
-2.717873747837099
 20
22.1108195045914
 30
0.0
 41
0.9904585897569746
 10
0.0000000036271217
 20
22.1224259390418
 30
0.0
 41
1.0
  0
SPLINE
  5
7B
330
1F
100
AcDbEntity
  8
Default
100
AcDbSpline
210
0.0
220
0.0
230
1.0
 70
    12
 71
     2
 72
     6
 73
     3
 74
     0
 42
0.0000000001
 43
0.0000000001
 40
-5.401120923603427
 40
-5.401120923603427
 40
-5.401120923603427
 40
0.0
 40
0.0
 40
0.0
 10
0.0000000036271217
 20
22.1224259390418
 30
0.0
 41
1.0
 10
2.717873755091354
 20
22.1108195045914
 30
0.0
 41
0.9904585897569746
 10
5.336440194260419
 20
22.84182663372678
 30
0.0
 41
1.0
  0
SPLINE
  5
7C
330
1F
100
AcDbEntity
  8
Default
100
AcDbSpline
210
0.0
220
0.0
230
1.0
 70
    12
 71
     2
 72
     6
 73
     3
 74
     0
 42
0.0000000001
 43
0.0000000001
 40
-0.9933248670959279
 40
-0.9933248670959279
 40
-0.9933248670959279
 40
0.0
 40
0.0
 40
0.0
 10
5.336440194260419
 20
22.84182663372678
 30
0.0
 41
1.0
 10
5.820361494271105
 20
22.99655635073762
 30
0.0
 41
0.968932994225803
 10
6.170367971402334
 20
23.36372922664077
 30
0.0
 41
0.9999999899372237
  0
SPLINE
  5
7D
330
1F
100
AcDbEntity
  8
Default
100
AcDbSpline
210
0.0
220
0.0
230
1.0
 70
    12
 71
     2
 72
     6
 73
     3
 74
     0
 42
0.0000000001
 43
0.0000000001
 40
-0.8358662744886645
 40
-0.8358662744886645
 40
-0.8358662744886645
 40
0.0
 40
0.0
 40
0.0
 10
6.170367971402349
 20
23.36372922664078
 30
0.0
 41
0.9999999999991276
 10
6.462913278484323
 20
23.66223494770004
 30
0.0
 41
0.9999127732357861
 10
6.747463797316541
 20
23.96837123157977
 30
0.0
 41
1.0
  0
LINE
  5
7E
330
1F
100
AcDbEntity
  8
Default
100
AcDbLine
 10
6.338650927473665
 20
23.93619052330509
 30
0.0
 11
6.225055485698505
 21
23.85457147392981
 31
0.0
  0
ARC
  5
7F
330
1F
100
AcDbEntity
  8
Default
100
AcDbCircle
 10
5.978917145613551
 20
24.20901610613751
 30
0.0
 40
0.4315264531412024
100
AcDbArc
 50
262.2924095126972
 51
304.7774206992515
  0
ARC
  5
80
330
1F
100
AcDbEntity
  8
Default
100
AcDbCircle
 10
8.029263110465237
 20
21.43141354239988
 30
0.0
 40
3.157052107850949
100
AcDbArc
 50
121.4061072758457
 51
131.8960750393577
  0
LINE
  5
81
330
1F
100
AcDbEntity
  8
Default
100
AcDbLine
 10
6.384121329278202
 20
24.12594254233268
 30
0.0
 11
6.856845869264347
 21
24.42942696290046
 31
0.0
  0
LINE
  5
82
330
1F
100
AcDbEntity
  8
Default
100
AcDbLine
 10
-6.338650920219422
 20
23.93619052330509
 30
0.0
 11
-6.225055478444261
 21
23.85457147392981
 31
0.0
  0
ARC
  5
83
330
1F
100
AcDbEntity
  8
Default
100
AcDbCircle
 10
-5.978917138359307
 20
24.20901610613751
 30
0.0
 40
0.4315264531412024
100
AcDbArc
 50
235.2225793007484
 51
277.7075904873028
  0
ARC
  5
84
330
1F
100
AcDbEntity
  8
Default
100
AcDbCircle
 10
-8.029263103210994
 20
21.43141354239988
 30
0.0
 40
3.157052107850949
100
AcDbArc
 50
48.10392496064229
 51
58.59389272415433
  0
LINE
  5
85
330
1F
100
AcDbEntity
  8
Default
100
AcDbLine
 10
-6.384121322023958
 20
24.12594254233268
 30
0.0
 11
-6.856845862010104
 21
24.42942696290046
 31
0.0
  0
SPLINE
  5
86
330
1F
100
AcDbEntity
  8
Default
100
AcDbSpline
210
0.0
220
0.0
230
1.0
 70
     8
 71
     3
 72
    11
 73
     7
 74
     0
 42
0.0000000001
 43
0.0000000001
 40
0.0
 40
0.0
 40
0.0
 40
0.0
 40
1.214188025933714
 40
2.439691263724169
 40
4.761297182648494
 40
8.828385860723529
 40
8.828385860723529
 40
8.828385860723529
 40
8.828385860723529
 10
0.0000733281140839
 20
25.17334364009919
 30
0.0
 10
-0.4044267566953579
 20
25.1745063970612
 30
0.0
 10
-1.218402991981534
 20
25.17978977817108
 30
0.0
 10
-2.803261323413778
 20
25.24430124020014
 30
0.0
 10
-5.338638910211543
 20
25.41020650499746
 30
0.0
 10
-7.436451383647849
 20
25.80351813128838
 30
0.0
 10
-8.757098117034516
 20
26.10741193691694
 30
0.0
  0
SPLINE
  5
87
330
1F
100
AcDbEntity
  8
Default
100
AcDbSpline
210
0.0
220
0.0
230
1.0
 70
     8
 71
     3
 72
    22
 73
    18
 74
     0
 42
0.0000000001
 43
0.0000000001
 40
0.0
 40
0.0
 40
0.0
 40
0.0
 40
0.0935397529848038
 40
0.191976763197454
 40
0.4452020639371633
 40
0.5048266649697931
 40
0.8680746548169804
 40
1.12150162456058
 40
1.258995085087951
 40
1.563620246163732
 40
1.911576306404881
 40
2.16113677711151
 40
2.914244478031624
 40
3.915317125896441
 40
5.747699567943772
 40
7.792372056652619
 40
10.22417760634461
 40
10.22417760634461
 40
10.22417760634461
 40
10.22417760634461
 10
-8.757098117034516
 20
26.10741193691694
 30
0.0
 10
-8.786629934393218
 20
26.11590444261668
 30
0.0
 10
-8.855123027674253
 20
26.11493782419636
 30
0.0
 10
-8.975341981373859
 20
26.02104310046555
 30
0.0
 10
-9.018698763775959
 20
25.87803723843481
 30
0.0
 10
-8.965385097912886
 20
25.65791774076729
 30
0.0
 10
-8.902448139888051
 20
25.44242692405689
 30
0.0
 10
-8.850116223144383
 20
25.19579023267319
 30
0.0
 10
-8.783363367179064
 20
24.97227069422107
 30
0.0
 10
-8.58980358520445
 20
24.7763857149781
 30
0.0
 10
-8.305982731280338
 20
24.67140408551521
 30
0.0
 10
-7.859816816552254
 20
24.59912249739218
 30
0.0
 10
-7.203990213113016
 20
24.48030360239833
 30
0.0
 10
-6.021095554208742
 20
24.29973735095344
 30
0.0
 10
-4.4039094966828
 20
24.12895069455955
 30
0.0
 10
-2.302972119121279
 20
24.01947814147137
 30
0.0
 10
-0.8104685202760038
 20
24.01520791486809
 30
0.0
 10
0.0000733281140839
 20
24.01566907512978
 30
0.0
  0
SPLINE
  5
88
330
1F
100
AcDbEntity
  8
Default
100
AcDbSpline
210
0.0
220
0.0
230
1.0
 70
     8
 71
     3
 72
    22
 73
    18
 74
     0
 42
0.0000000001
 43
0.0000000001
 40
-10.22417760634461
 40
-10.22417760634461
 40
-10.22417760634461
 40
-10.22417760634461
 40
-7.792372056652619
 40
-5.747699567943772
 40
-3.915317125896441
 40
-2.914244478031624
 40
-2.16113677711151
 40
-1.911576306404881
 40
-1.563620246163732
 40
-1.258995085087951
 40
-1.12150162456058
 40
-0.8680746548169804
 40
-0.5048266649697931
 40
-0.4452020639371633
 40
-0.191976763197454
 40
-0.0935397529848038
 40
0.0
 40
0.0
 40
0.0
 40
0.0
 10
0.0000733281140839
 20
24.01566907512978
 30
0.0
 10
0.8106151765041716
 20
24.01520791486809
 30
0.0
 10
2.303118775349446
 20
24.01947814147137
 30
0.0
 10
4.404056152910968
 20
24.12895069455955
 30
0.0
 10
6.02124221043691
 20
24.29973735095344
 30
0.0
 10
7.204136869341198
 20
24.48030360239833
 30
0.0
 10
7.859963472780422
 20
24.59912249739218
 30
0.0
 10
8.30612938750852
 20
24.67140408551521
 30
0.0
 10
8.589950241432604
 20
24.7763857149781
 30
0.0
 10
8.783510023407217
 20
24.97227069422107
 30
0.0
 10
8.850262879372565
 20
25.19579023267319
 30
0.0
 10
8.902594796116219
 20
25.44242692405689
 30
0.0
 10
8.96553175414104
 20
25.65791774076729
 30
0.0
 10
9.018845420004112
 20
25.87803723843481
 30
0.0
 10
8.975488637602027
 20
26.02104310046555
 30
0.0
 10
8.85526968390242
 20
26.11493782419636
 30
0.0
 10
8.786776590621386
 20
26.11590444261668
 30
0.0
 10
8.757244773262684
 20
26.10741193691694
 30
0.0
  0
SPLINE
  5
89
330
1F
100
AcDbEntity
  8
Default
100
AcDbSpline
210
0.0
220
0.0
230
1.0
 70
     8
 71
     3
 72
    11
 73
     7
 74
     0
 42
0.0000000001
 43
0.0000000001
 40
-8.828385860723529
 40
-8.828385860723529
 40
-8.828385860723529
 40
-8.828385860723529
 40
-4.761297182648503
 40
-2.439691263724185
 40
-1.214188025933733
 40
0.0
 40
0.0
 40
0.0
 40
0.0
 10
8.757244773262684
 20
26.10741193691694
 30
0.0
 10
7.436598039876017
 20
25.80351813128838
 30
0.0
 10
5.338785566439711
 20
25.41020650499746
 30
0.0
 10
2.803407979641946
 20
25.24430124020014
 30
0.0
 10
1.218549648209702
 20
25.17978977817108
 30
0.0
 10
0.4045734129235115
 20
25.1745063970612
 30
0.0
 10
0.0000733281140839
 20
25.17334364009919
 30
0.0
  0
SPLINE
  5
8A
330
1F
100
AcDbEntity
  8
Default
100
AcDbSpline
210
0.0
220
0.0
230
1.0
 70
     8
 71
     3
 72
     9
 73
     5
 74
     0
 42
0.0000000001
 43
0.0000000001
 40
-2.0
 40
-2.0
 40
-2.0
 40
-2.0
 40
-1.0
 40
0.0
 40
0.0
 40
0.0
 40
0.0
 10
-8.852335066495968
 20
39.67916479149165
 30
0.0
 10
-8.839641957324673
 20
39.78180063191144
 30
0.0
 10
-8.635702222902822
 20
39.95461078798913
 30
0.0
 10
-8.424498042664638
 20
39.90923730268219
 30
0.0
 10
-8.327068156955548
 20
39.89272034156419
 30
0.0
  0
SPLINE
  5
8B
330
1F
100
AcDbEntity
  8
Default
100
AcDbSpline
210
0.0
220
0.0
230
1.0
 70
     8
 71
     3
 72
    13
 73
     9
 74
     0
 42
0.0000000001
 43
0.0000000001
 40
0.0
 40
0.0
 40
0.0
 40
0.0
 40
0.1912706357487035
 40
0.7766714975538425
 40
1.968832649647922
 40
2.616768810483919
 40
4.44392589048225
 40
8.375058875311588
 40
8.375058875311588
 40
8.375058875311588
 40
8.375058875311588
 10
-8.327068156955548
 20
39.89272034156419
 30
0.0
 10
-8.264194662359571
 20
39.88206104151194
 30
0.0
 10
-8.007906455179167
 20
39.84547421387447
 30
0.0
 10
-7.358318343717244
 20
39.75195086555993
 30
0.0
 10
-6.560611415191715
 20
39.6198660382079
 30
0.0
 10
-5.350648086454541
 20
39.44566959918559
 30
0.0
 10
-3.230006640092
 20
39.19132359509639
 30
0.0
 10
-1.310536573295849
 20
39.09754496155394
 30
0.0
 10
0.0000000036271217
 20
39.0962806358996
 30
0.0
  0
SPLINE
  5
8C
330
1F
100
AcDbEntity
  8
Default
100
AcDbSpline
210
0.0
220
0.0
230
1.0
 70
     8
 71
     3
 72
    15
 73
    11
 74
     0
 42
0.0000000001
 43
0.0000000001
 40
0.0
 40
0.0
 40
0.0
 40
0.0
 40
0.8317524103438192
 40
1.869614384959134
 40
3.931119468114117
 40
5.758312928984045
 40
6.406231648355663
 40
7.674393082349756
 40
8.176239249469356
 40
8.375065424752611
 40
8.375065424752611
 40
8.375065424752611
 40
8.375065424752611
 10
0.0000000036271217
 20
39.0962806358996
 30
0.0
 10
0.2774398029356888
 20
39.0965274809387
 30
0.0
 10
0.900691600054202
 20
39.10308683756965
 30
0.0
 10
2.2103268928321
 20
39.14819843374764
 30
0.0
 10
3.848942540238184
 20
39.26523223698445
 30
0.0
 10
5.350620061314501
 20
39.44589459107023
 30
0.0
 10
6.585705491224147
 20
39.62338178288726
 30
0.0
 10
7.380817582915199
 20
39.75578609626834
 30
0.0
 10
8.030483063955828
 20
39.84876199065747
 30
0.0
 10
8.261710471699217
 20
39.88164047158278
 30
0.0
 10
8.327068164209791
 20
39.89272034156419
 30
0.0
  0
SPLINE
  5
8D
330
1F
100
AcDbEntity
  8
Default
100
AcDbSpline
210
0.0
220
0.0
230
1.0
 70
     8
 71
     3
 72
     9
 73
     5
 74
     0
 42
0.0000000001
 43
0.0000000001
 40
0.0
 40
0.0
 40
0.0
 40
0.0
 40
1.0
 40
2.0
 40
2.0
 40
2.0
 40
2.0
 10
8.327068164209791
 20
39.89272034156419
 30
0.0
 10
8.424498049918881
 20
39.90923730268219
 30
0.0
 10
8.635702230157065
 20
39.95461078798913
 30
0.0
 10
8.839641964578917
 20
39.78180063191144
 30
0.0
 10
8.852335073750211
 20
39.67916479149165
 30
0.0
  0
SPLINE
  5
8E
330
1F
100
AcDbEntity
  8
Default
100
AcDbSpline
210
0.0
220
0.0
230
1.0
 70
     8
 71
     3
 72
    27
 73
    23
 74
     0
 42
0.0000000001
 43
0.0000000001
 40
0.0
 40
0.0
 40
0.0
 40
0.0
 40
0.1585185625933421
 40
0.4655353111170346
 40
1.162233039835535
 40
1.799375291579627
 40
3.636004013738165
 40
7.265127158026213
 40
9.464634970471486
 40
10.50792771554964
 40
11.04608721692744
 40
11.90263488065174
 40
12.51359099807393
 40
13.07184061358761
 40
13.34358482319183
 40
13.66468127983847
 40
13.87023725417877
 40
14.1392501449203
 40
14.60355914869473
 40
16.89489022454978
 40
18.31961139357607
 40
21.90305721666807
 40
21.90305721666807
 40
21.90305721666807
 40
21.90305721666807
 10
8.852335073750211
 20
39.67916479149165
 30
0.0
 10
8.858824032263541
 20
39.62669540030637
 30
0.0
 10
8.885069716032447
 20
39.47375108049484
 30
0.0
 10
8.954074960589722
 20
39.09254489477304
 30
0.0
 10
9.047286221442775
 20
38.5535566949258
 30
0.0
 10
9.206432889847648
 20
37.5088143859433
 30
0.0
 10
9.46024351498545
 20
35.48979976187897
 30
0.0
 10
9.61345405858934
 20
32.93732415550053
 30
0.0
 10
9.620787297042796
 20
30.6463917330336
 30
0.0
 10
9.603712350428353
 20
29.3861800278472
 30
0.0
 10
9.570739433299593
 20
28.57413100360635
 30
0.0
 10
9.47012152542328
 20
27.91087205623123
 30
0.0
 10
9.21024684519142
 20
27.27713434011691
 30
0.0
 10
8.821580931297518
 20
26.96049700406832
 30
0.0
 10
8.443853295530971
 20
26.8721408443012
 30
0.0
 10
8.176802420706892
 20
26.87520665421554
 30
0.0
 10
7.91328227951125
 20
26.90668046994037
 30
0.0
 10
7.605759846721725
 20
26.96492143057753
 30
0.0
 10
6.622320968185392
 20
27.18748403911946
 30
0.0
 10
5.26456606587179
 20
27.50050551011538
 30
0.0
 10
2.865995318698523
 20
27.92002039881197
 30
0.0
 10
1.193843730190494
 20
28.00634906785608
 30
0.0
 10
0.0000000035777958
 20
28.00989878567005
 30
0.0
  0
SPLINE
  5
8F
330
1F
100
AcDbEntity
  8
Default
100
AcDbSpline
210
0.0
220
0.0
230
1.0
 70
     8
 71
     3
 72
    26
 73
    22
 74
     0
 42
0.0000000001
 43
0.0000000001
 40
0.0
 40
0.0
 40
0.0
 40
0.0
 40
3.568027598264818
 40
4.977684209065928
 40
7.136081633899624
 40
7.767117340841343
 40
8.054470297226516
 40
8.238314726573943
 40
8.562234147002684
 40
8.834034938032582
 40
9.39351872756103
 40
10.02128542580329
 40
10.87701439899562
 40
11.43118504617113
 40
12.51846683612477
 40
14.66893305996588
 40
18.28241650892279
 40
20.11836050717015
 40
20.7553909135477
 40
21.74450896833999
 40
21.90307117797069
 40
21.90307117797069
 40
21.90307117797069
 40
21.90307117797069
 10
0.0000000035777958
 20
28.00989878567005
 30
0.0
 10
-1.188728926656722
 20
28.00621945433384
 30
0.0
 10
-2.85061106423214
 20
27.92131502532451
 30
0.0
 10
-5.19605896671716
 20
27.5137562955427
 30
0.0
 10
-6.559992540635278
 20
27.19988948577695
 30
0.0
 10
-7.561081867433884
 20
26.97658156655654
 30
0.0
 10
-7.921066090393779
 20
26.90336155408065
 30
0.0
 10
-8.185095464513623
 20
26.8762869653751
 30
0.0
 10
-8.445762293395731
 20
26.87124348011625
 30
0.0
 10
-8.82497756175023
 20
26.96307323742467
 30
0.0
 10
-9.21619145906378
 20
27.28261383327742
 30
0.0
 10
-9.47507942594028
 20
27.92779719840014
 30
0.0
 10
-9.571695110838064
 20
28.59847430440362
 30
0.0
 10
-9.605793409306685
 20
29.43212532882793
 30
0.0
 10
-9.62009605947533
 20
30.69499098052865
 30
0.0
 10
-9.61164877084805
 20
32.97966709637411
 30
0.0
 10
-9.458751747389542
 20
35.50994381109712
 30
0.0
 10
-9.20397501717143
 20
37.52356564439532
 30
0.0
 10
-9.030758444997943
 20
38.66437540159761
 30
0.0
 10
-8.925310183322452
 20
39.24995822030316
 30
0.0
 10
-8.858562432876724
 20
39.62663054748135
 30
0.0
 10
-8.852335066495968
 20
39.67916479149165
 30
0.0
  0
SPLINE
  5
90
330
1F
100
AcDbEntity
  8
Default
100
AcDbSpline
210
0.0
220
0.0
230
1.0
 70
     8
 71
     3
 72
    15
 73
    11
 74
     0
 42
0.0000000001
 43
0.0000000001
 40
0.0
 40
0.0
 40
0.0
 40
0.0
 40
0.1220341290769487
 40
0.7012799491189056
 40
0.9091822791459138
 40
1.505423750858351
 40
2.321039946104391
 40
3.147607425795319
 40
3.297388182423827
 40
3.402481612547525
 40
3.402481612547525
 40
3.402481612547525
 40
3.402481612547525
 10
8.851055418315397
 20
74.5892446320108
 30
0.0
 10
8.861279027672524
 20
74.54989298286552
 30
0.0
 10
8.930570765475622
 20
74.3265068097983
 30
0.0
 10
9.029927306477546
 20
74.04036187706268
 30
0.0
 10
9.169108433864082
 20
73.60038581363476
 30
0.0
 10
9.332173214579456
 20
73.08628050209529
 30
0.0
 10
9.525120390186146
 20
72.36399668247415
 30
0.0
 10
9.615546670507413
 20
71.77364161162828
 30
0.0
 10
9.618031082680176
 20
71.40978745212615
 30
0.0
 10
9.557485205676485
 20
71.33759726100584
 30
0.0
 10
9.520776396912964
 20
71.33255044016028
 30
0.0
  0
SPLINE
  5
91
330
1F
100
AcDbEntity
  8
Default
100
AcDbSpline
210
0.0
220
0.0
230
1.0
 70
     8
 71
     3
 72
    14
 73
    10
 74
     0
 42
0.0000000001
 43
0.0000000001
 40
0.0
 40
0.0
 40
0.0
 40
0.0
 40
0.5485293057153133
 40
1.122191362111251
 40
2.298707115529747
 40
3.679654543524498
 40
6.218247102406465
 40
7.367666347785125
 40
10.02678799207949
 40
10.02678799207949
 40
10.02678799207949
 40
10.02678799207949
 10
9.520776396912964
 20
71.33255044016028
 30
0.0
 10
9.342258042564723
 20
71.28986192271091
 30
0.0
 10
8.972123237261982
 20
71.24161921048287
 30
0.0
 10
8.202430735088086
 20
71.21841606810099
 30
0.0
 10
7.171864016707488
 20
71.41173076810672
 30
0.0
 10
5.570072246837626
 20
71.99467842038152
 30
0.0
 10
4.109687512175455
 20
72.85698178019437
 30
0.0
 10
2.15338345682791
 20
73.66981906679067
 30
0.0
 10
0.8871390912687644
 20
73.896126730261
 30
0.0
 10
-0.0001175261791246
 20
73.89379704372428
 30
0.0
  0
SPLINE
  5
92
330
1F
100
AcDbEntity
  8
Default
100
AcDbSpline
210
0.0
220
0.0
230
1.0
 70
     8
 71
     3
 72
    15
 73
    11
 74
     0
 42
0.0000000001
 43
0.0000000001
 40
0.0
 40
0.0
 40
0.0
 40
0.0
 40
1.314709772837731
 40
2.659119438540279
 40
3.808448377660886
 40
6.347133480134831
 40
7.72791577638924
 40
8.904519311535873
 40
9.481233311193762
 40
10.02678478062106
 40
10.02678478062106
 40
10.02678478062106
 40
10.02678478062106
 10
-0.0001175261791246
 20
73.89379704372428
 30
0.0
 10
-0.4387139478710793
 20
73.8941025718127
 30
0.0
 10
-1.32471511952383
 20
73.81908947380845
 30
0.0
 10
-2.558647322481832
 20
73.50069316357272
 30
0.0
 10
-4.110045955034551
 20
72.8576322182482
 30
0.0
 10
-5.570136044747315
 20
71.99438639614948
 30
0.0
 10
-7.172084339143495
 20
71.41192325455074
 30
0.0
 10
-8.203523666604426
 20
71.21812467847907
 30
0.0
 10
-8.973365717173252
 20
71.24174718227167
 30
0.0
 10
-9.343503991628708
 20
71.2900364651246
 30
0.0
 10
-9.521011453030937
 20
71.33255044016028
 30
0.0
  0
SPLINE
  5
93
330
1F
100
AcDbEntity
  8
Default
100
AcDbSpline
210
0.0
220
0.0
230
1.0
 70
     8
 71
     3
 72
    15
 73
    11
 74
     0
 42
0.0000000001
 43
0.0000000001
 40
0.0
 40
0.0
 40
0.0
 40
0.0
 40
0.1038700451879346
 40
0.2536967137418691
 40
1.081505531300089
 40
1.890896238074622
 40
2.49333253998626
 40
2.704686778490014
 40
3.282458989887037
 40
3.402468643220947
 40
3.402468643220947
 40
3.402468643220947
 40
3.402468643220947
 10
-9.521011453030937
 20
71.33255044016028
 30
0.0
 10
-9.557119787665997
 20
71.33736802165859
 30
0.0
 10
-9.61813515822
 20
71.40920168039996
 30
0.0
 10
-9.615735987723596
 20
71.77261026668518
 30
0.0
 10
-9.525671767785141
 20
72.36170577016033
 30
0.0
 10
-9.332996630099714
 20
73.08426435373866
 30
0.0
 10
-9.16979331463078
 20
73.59967607870773
 30
0.0
 10
-9.029400064555617
 20
74.04202231219708
 30
0.0
 10
-8.93022739092514
 20
74.32827634777706
 30
0.0
 10
-8.861410864211777
 20
74.55056301823873
 30
0.0
 10
-8.851290226265334
 20
74.58924448304884
 30
0.0
  0
SPLINE
  5
94
330
1F
100
AcDbEntity
  8
Default
100
AcDbSpline
210
0.0
220
0.0
230
1.0
 70
     8
 71
     3
 72
    13
 73
     9
 74
     0
 42
0.0000000001
 43
0.0000000001
 40
0.0
 40
0.0
 40
0.0
 40
0.0
 40
0.1170984786042145
 40
0.2819551517566728
 40
0.5034619837781984
 40
1.601602857956874
 40
4.472820908616272
 40
9.14943154654721
 40
9.14943154654721
 40
9.14943154654721
 40
9.14943154654721
 10
-8.851290226265334
 20
74.58924448304884
 30
0.0
 10
-8.846349701512324
 20
74.62824508706379
 30
0.0
 10
-8.79202179177328
 20
74.71114065110162
 30
0.0
 10
-8.6421242973599
 20
74.79010375726293
 30
0.0
 10
-8.175353760918071
 20
74.95420433592045
 30
0.0
 10
-6.857025680278298
 20
75.41564685182311
 30
0.0
 10
-4.075440825806126
 20
76.18943211949093
 30
0.0
 10
-1.558864565846775
 20
76.44923518826702
 30
0.0
 10
-0.0001175280589933
 20
76.44998022546108
 30
0.0
  0
SPLINE
  5
95
330
1F
100
AcDbEntity
  8
Default
100
AcDbSpline
210
0.0
220
0.0
230
1.0
 70
     8
 71
     3
 72
    15
 73
    11
 74
     0
 42
0.0000000001
 43
0.0000000001
 40
0.0
 40
0.0
 40
0.0
 40
0.0
 40
1.063193596312254
 40
2.338140042614481
 40
4.676579162964244
 40
7.547782514372099
 40
8.646169475634588
 40
8.868182441407617
 40
9.03257768401602
 40
9.149386341412088
 40
9.149386341412088
 40
9.149386341412088
 40
9.149386341412088
 10
-0.0001175280589933
 20
76.44998022546108
 30
0.0
 10
0.3543683899674335
 20
76.45019670598323
 30
0.0
 10
1.133694231033004
 20
76.43069571979667
 30
0.0
 10
2.688750522004412
 20
76.31424442222313
 30
0.0
 10
4.827464579531892
 20
75.97992177929474
 30
0.0
 10
6.856769403012052
 20
75.41550333294694
 30
0.0
 10
8.175448209752702
 20
74.9541865502758
 30
0.0
 10
8.642270051247621
 20
74.7899101614114
 30
0.0
 10
8.79202092359013
 20
74.71103830998585
 30
0.0
 10
8.846189345376885
 20
74.62820077755137
 30
0.0
 10
8.851055418315397
 20
74.5892446320108
 30
0.0
  0
SPLINE
  5
96
330
1F
100
AcDbEntity
  8
Default
100
AcDbSpline
210
0.0
220
0.0
230
1.0
 70
    12
 71
     2
 72
     6
 73
     3
 74
     0
 42
0.0000000001
 43
0.0000000001
 40
0.0
 40
0.0
 40
0.0
 40
3.377422632873466
 40
3.377422632873466
 40
3.377422632873466
 10
-3.362089806311189
 20
73.1610934026551
 30
0.0
 41
1.0
 10
-1.692492371163077
 20
73.43760892897467
 30
0.0
 41
0.9967863713672152
 10
-0.0001175280589933
 20
73.44394662127365
 30
0.0
 41
1.0
  0
SPLINE
  5
97
330
1F
100
AcDbEntity
  8
Default
100
AcDbSpline
210
0.0
220
0.0
230
1.0
 70
    12
 71
     2
 72
     6
 73
     3
 74
     0
 42
0.0000000001
 43
0.0000000001
 40
0.0
 40
0.0
 40
0.0
 40
3.377520999685091
 40
3.377520999685091
 40
3.377520999685091
 10
-0.0001175280589933
 20
73.44394662127365
 30
0.0
 41
1.0
 10
1.692304894487284
 20
73.43756326136479
 30
0.0
 41
0.9967877293055154
 10
3.361951382186177
 20
73.16105166816459
 30
0.0
 41
1.0
  0
SPLINE
  5
98
330
1F
100
AcDbEntity
  8
MAKE2D VISIBLE LINES
100
AcDbSpline
210
0.0
220
0.0
230
1.0
 70
     8
 71
     3
 72
    16
 73
    12
 74
     0
 42
0.0000000001
 43
0.0000000001
 40
0.0
 40
0.0
 40
0.0
 40
0.0
 40
0.005183267177895
 40
0.0098320706086387
 40
0.0246448365430721
 40
0.0691414380529544
 40
0.1951472500521692
 40
0.3717638767096709
 40
0.5918656245743231
 40
0.7939966695182354
 40
1.198783296435723
 40
1.198783296435723
 40
1.198783296435723
 40
1.198783296435723
 10
-9.728099559442093
 20
8.15551733582381
 30
0.0
 10
-9.727190451958478
 20
8.156420755641058
 30
0.0
 10
-9.724124399495654
 20
8.161400142316031
 30
0.0
 10
-9.732202054284201
 20
8.155574246063214
 30
0.0
 10
-9.74725983504496
 20
8.139907143367584
 30
0.0
 10
-9.789319226331987
 20
8.097374455191469
 30
0.0
 10
-9.86706348703586
 20
8.00646283472631
 30
0.0
 10
-9.973270653250943
 20
7.876594538110067
 30
0.0
 10
-10.06737050979732
 20
7.682536295916951
 30
0.0
 10
-9.959040964301337
 20
7.414098584501519
 30
0.0
 10
-9.819881608799964
 20
7.270042397207622
 30
0.0
 10
-9.73933213023145
 20
7.160319727278926
 30
0.0
  0
SPLINE
  5
99
330
1F
100
AcDbEntity
  8
MAKE2D VISIBLE LINES
100
AcDbSpline
210
0.0
220
0.0
230
1.0
 70
    24
 71
     2
 72
     6
 73
     3
 74
     0
 42
0.0000000001
 43
0.0000000001
 40
0.0
 40
0.0
 40
0.0
 40
19.4786642604629
 40
19.4786642604629
 40
19.4786642604629
 10
9.739332130231452
 20
7.160126109370794
 30
0.0
 10
0.0000000000000009
 20
7.160126109370793
 30
0.0
 10
-9.73933213023145
 20
7.160126109370793
 30
0.0
  0
SPLINE
  5
9A
330
1F
100
AcDbEntity
  8
MAKE2D VISIBLE LINES
100
AcDbSpline
210
0.0
220
0.0
230
1.0
 70
    12
 71
     2
 72
     6
 73
     3
 74
     0
 42
0.0000000001
 43
0.0000000001
 40
0.0
 40
0.0
 40
0.0
 40
7.005849918077261
 40
7.005849918077261
 40
7.005849918077261
 10
9.073789357712455
 20
0.1551043915678747
 30
0.0
 41
1.0
 10
9.01992927746499
 20
3.657615256710891
 30
0.0
 41
0.9999999999999923
 10
8.966068331155062
 20
7.160126108545361
 30
0.0
 41
1.0
  0
SPLINE
  5
9B
330
1F
100
AcDbEntity
  8
MAKE2D VISIBLE LINES
100
AcDbSpline
210
0.0
220
0.0
230
1.0
 70
    12
 71
     2
 72
     6
 73
     3
 74
     0
 42
0.0000000001
 43
0.0000000001
 40
0.0
 40
0.0
 40
0.0
 40
0.0905053209521186
 40
0.0905053209521186
 40
0.0905053209521186
 10
10.96282944756152
 20
0.0876939475212968
 30
0.0
 41
1.0
 10
10.96231034353775
 20
0.0327019543840851
 30
0.0
 41
0.7543480160101732
 10
10.90777644154627
 20
0.0256231486522689
 30
0.0
 41
1.0
  0
SPLINE
  5
9C
330
1F
100
AcDbEntity
  8
MAKE2D VISIBLE LINES
100
AcDbSpline
210
0.0
220
0.0
230
1.0
 70
    24
 71
     2
 72
     6
 73
     3
 74
     0
 42
0.0000000001
 43
0.0000000001
 40
0.0
 40
0.0
 40
0.0
 40
0.0838826130615135
 40
0.0838826130615135
 40
0.0838826130615135
 10
10.96166259205291
 20
0.1715714715240511
 30
0.0
 10
10.96224601980722
 20
0.1296327095226739
 30
0.0
 10
10.96282944756152
 20
0.0876939475212968
 30
0.0
  0
SPLINE
  5
9D
330
1F
100
AcDbEntity
  8
MAKE2D VISIBLE LINES
100
AcDbSpline
210
0.0
220
0.0
230
1.0
 70
    12
 71
     2
 72
     6
 73
     3
 74
     0
 42
0.0000000001
 43
0.0000000001
 40
0.0
 40
0.0
 40
0.0
 40
0.5627899102701827
 40
0.5627899102701827
 40
0.5627899102701827
 10
10.39921694869002
 20
0.1794002878702985
 30
0.0
 41
1.0
 10
10.68065758235356
 20
0.1911349006913162
 30
0.0
 41
0.9984553286292273
 10
10.96166259205291
 20
0.1715714715240511
 30
0.0
 41
1.0
  0
SPLINE
  5
9E
330
1F
100
AcDbEntity
  8
MAKE2D VISIBLE LINES
100
AcDbSpline
210
0.0
220
0.0
230
1.0
 70
    12
 71
     2
 72
     6
 73
     3
 74
     0
 42
0.0000000001
 43
0.0000000001
 40
0.0
 40
0.0
 40
0.0
 40
0.563223661791824
 40
0.563223661791824
 40
0.563223661791824
 10
9.836771347438043
 20
0.1559319980572171
 30
0.0
 41
1.0
 10
10.1173426847486
 20
0.1832825152221636
 30
0.0
 41
0.9984620498676394
 10
10.39921694869002
 20
0.1794002878702985
 30
0.0
 41
1.0
  0
SPLINE
  5
9F
330
1F
100
AcDbEntity
  8
MAKE2D VISIBLE LINES
100
AcDbSpline
210
0.0
220
0.0
230
1.0
 70
    12
 71
     2
 72
    13
 73
    10
 74
     0
 42
0.0000000001
 43
0.0000000001
 40
0.0
 40
0.0
 40
0.0
 40
0.4565641976747914
 40
0.4565641976747914
 40
1.456564197674791
 40
2.456564197674791
 40
2.456564197674791
 40
2.547078969430735
 40
2.547078969430735
 40
2.630961582496194
 40
2.630961582496194
 40
2.630961582496194
 10
10.90777644154627
 20
0.0256231486522689
 30
0.0
 41
1.0
 10
10.68077266635304
 20
0.0009074523701936
 30
0.0
 41
0.9995848321267342
 10
10.40134365519492
 20
0.0007647233229592
 30
0.0
 41
1.0
 10
10.28726935130926
 20
-0.000819024752404
 30
0.0
 41
1.0
 10
10.00833958212595
 20
0.0019793700627243
 30
0.0
 41
1.0
 10
9.894705593236212
 20
0.0114732260957606
 30
0.0
 41
1.0
 10
9.840076490226101
 20
0.0171652206763537
 30
0.0
 41
0.7557362780894494
 10
9.837938203110609
 20
0.0720514469102733
 30
0.0
 41
1.0
 10
9.837354785802047
 20
0.1139902090574876
 30
0.0
 41
1.0
 10
9.836771347438043
 20
0.1559319980572171
 30
0.0
 41
1.0
  0
SPLINE
  5
A0
330
1F
100
AcDbEntity
  8
MAKE2D VISIBLE LINES
100
AcDbSpline
210
0.0
220
0.0
230
1.0
 70
    12
 71
     2
 72
     6
 73
     3
 74
     0
 42
0.0000000001
 43
0.0000000001
 40
0.0
 40
0.0
 40
0.0
 40
0.0919770041939953
 40
0.0919770041939953
 40
0.0919770041939953
 10
-10.15916814449958
 20
77.06691568952196
 30
0.0
 41
1.0
 10
-10.14220396510478
 20
77.0240599034867
 30
0.0
 41
0.9966600539524888
 10
-10.11849001559047
 20
76.98453712046636
 30
0.0
 41
1.0
  0
SPLINE
  5
A1
330
1F
100
AcDbEntity
  8
MAKE2D VISIBLE LINES
100
AcDbSpline
210
0.0
220
0.0
230
1.0
 70
    24
 71
     2
 72
     6
 73
     3
 74
     0
 42
0.0000000001
 43
0.0000000001
 40
-0.7629204835404938
 40
-0.7629204835404938
 40
-0.7629204835404938
 40
0.0
 40
0.0
 40
0.0
 10
9.07378935865116
 20
0.1551043916176589
 30
0.0
 10
9.455204506575239
 20
0.1609696269479194
 30
0.0
 10
9.836619654499318
 20
0.16683486227818
 30
0.0
  0
SPLINE
  5
A2
330
1F
100
AcDbEntity
  8
MAKE2D VISIBLE LINES
100
AcDbSpline
210
0.0
220
0.0
230
1.0
 70
    24
 71
     2
 72
     6
 73
     3
 74
     0
 42
0.0000000001
 43
0.0000000001
 40
0.0
 40
0.0
 40
0.0
 40
0.0839211351627523
 40
0.0839211351627523
 40
0.0839211351627523
 10
9.07507970860925
 20
0.0711931770866254
 30
0.0
 10
9.074434533630205
 20
0.1131487843521422
 30
0.0
 10
9.07378935865116
 20
0.1551043916176589
 30
0.0
  0
SPLINE
  5
A3
330
1F
100
AcDbEntity
  8
MAKE2D VISIBLE LINES
100
AcDbSpline
210
0.0
220
0.0
230
1.0
 70
    12
 71
     2
 72
     6
 73
     3
 74
     0
 42
0.0000000001
 43
0.0000000001
 40
0.0
 40
0.0
 40
0.0
 40
0.0904093603291975
 40
0.0904093603291975
 40
0.0904093603291975
 10
9.132157925134285
 20
0.0121865587705603
 30
0.0
 41
1.0
 10
9.07594504513759
 20
0.0149205057759113
 30
0.0
 41
0.7293593170847356
 10
9.07507970860925
 20
0.0711931770866254
 30
0.0
 41
1.0
  0
SPLINE
  5
A4
330
1F
100
AcDbEntity
  8
MAKE2D VISIBLE LINES
100
AcDbSpline
210
0.0
220
0.0
230
1.0
 70
    12
 71
     2
 72
     8
 73
     5
 74
     0
 42
0.0000000001
 43
0.0000000001
 40
0.0
 40
0.0
 40
0.0
 40
0.2359187626737215
 40
0.2359187626737215
 40
0.6574881257065701
 40
0.6574881257065701
 40
0.6574881257065701
 10
9.874484953351507
 20
0.010912049444574
 30
0.0
 41
1.0
 10
9.756637141095519
 20
0.0055860097324779
 30
0.0
 41
0.9998890928744075
 10
9.638682982585001
 20
0.0037721622706273
 30
0.0
 41
1.0
 10
9.34292717659012
 20
0.0069432166091717
 30
0.0
 41
0.9996458763244572
 10
9.132157925134285
 20
0.0121865587705603
 30
0.0
 41
1.0
  0
SPLINE
  5
A5
330
1F
100
AcDbEntity
  8
MAKE2D VISIBLE LINES
100
AcDbSpline
210
0.0
220
0.0
230
1.0
 70
    24
 71
     2
 72
     6
 73
     3
 74
     0
 42
0.0000000001
 43
0.0000000001
 40
0.0
 40
0.0
 40
0.0
 40
19.45121094198236
 40
19.45121094198236
 40
19.45121094198236
 10
-9.725605450151255
 20
8.160116841954558
 30
0.0
 10
0.0000000208399253
 20
8.160116841954558
 30
0.0
 10
9.725605491831105
 20
8.16011684195456
 30
0.0
  0
SPLINE
  5
A6
330
1F
100
AcDbEntity
  8
MAKE2D VISIBLE LINES
100
AcDbSpline
210
0.0
220
0.0
230
1.0
 70
    24
 71
     2
 72
     6
 73
     3
 74
     0
 42
0.0000000001
 43
0.0000000001
 40
0.0
 40
0.0
 40
0.0
 40
7.005056406815396
 40
7.005056406815396
 40
7.005056406815396
 10
9.836771284279584
 20
0.1559350243240302
 30
0.0
 10
9.788051727999186
 20
3.658124371075887
 30
0.0
 10
9.739332171718788
 20
7.160313717827743
 30
0.0
  0
SPLINE
  5
A7
330
1F
100
AcDbEntity
  8
MAKE2D VISIBLE LINES
100
AcDbSpline
210
0.0
220
0.0
230
1.0
 70
    12
 71
     2
 72
     6
 73
     3
 74
     0
 42
0.0000000001
 43
0.0000000001
 40
0.0
 40
0.0
 40
0.0
 40
15.84401917667006
 40
15.84401917667006
 40
15.84401917667006
 10
8.950690645297952
 20
8.16011684195837
 30
0.0
 41
1.0
 10
8.828879711338214
 20
16.08118987621181
 30
0.0
 41
0.9999999999999379
 10
8.70707435528566
 20
24.00226299623035
 30
0.0
 41
1.0
  0
SPLINE
  5
A8
330
1F
100
AcDbEntity
  8
MAKE2D VISIBLE LINES
100
AcDbSpline
210
0.0
220
0.0
230
1.0
 70
    12
 71
     2
 72
     6
 73
     3
 74
     0
 42
0.0000000001
 43
0.0000000001
 40
0.0
 40
0.0
 40
0.0
 40
0.2120382941238334
 40
0.2120382941238334
 40
0.2120382941238334
 10
-10.19865755640982
 20
77.27396896365198
 30
0.0
 41
1.0
 10
-10.19865767638298
 20
77.1666765732209
 30
0.0
 41
0.9822941245776783
 10
-10.15916814450118
 20
77.06691568952303
 30
0.0
 41
1.0
  0
SPLINE
  5
A9
330
1F
100
AcDbEntity
  8
MAKE2D VISIBLE LINES
100
AcDbSpline
210
0.0
220
0.0
230
1.0
 70
    12
 71
     2
 72
     6
 73
     3
 74
     0
 42
0.0000000001
 43
0.0000000001
 40
0.0
 40
0.0
 40
0.0
 40
3.018113195819076
 40
3.018113195819076
 40
3.018113195819076
 10
-8.959401387720712
 20
76.8449478936366
 30
0.0
 41
1.0
 10
-7.56306802662559
 20
76.26714574497773
 30
0.0
 41
0.997914214244386
 10
-6.103929023743406
 20
75.8740610867043
 30
0.0
 41
1.0
  0
SPLINE
  5
AA
330
1F
100
AcDbEntity
  8
MAKE2D VISIBLE LINES
100
AcDbSpline
210
0.0
220
0.0
230
1.0
 70
    12
 71
     2
 72
     6
 73
     3
 74
     0
 42
0.0000000001
 43
0.0000000001
 40
0.0
 40
0.0
 40
0.0
 40
0.8835207092880102
 40
0.8835207092880102
 40
0.8835207092880102
 10
-9.636224051643065
 20
77.8364689636519
 30
0.0
 41
1.0
 10
-10.198690802061
 20
77.83643571407015
 30
0.0
 41
0.7071067836572035
 10
-10.19865755640981
 20
77.27396896365198
 30
0.0
 41
1.0
  0
SPLINE
  5
AB
330
1F
100
AcDbEntity
  8
MAKE2D VISIBLE LINES
100
AcDbSpline
210
0.0
220
0.0
230
1.0
 70
     8
 71
     3
 72
    13
 73
     9
 74
     0
 42
0.0000000001
 43
0.0000000001
 40
0.0
 40
0.0
 40
0.0
 40
0.0
 40
0.2666859109081383
 40
0.4044536713965517
 40
0.6067652543442037
 40
0.8269043838867118
 40
0.9949054522310983
 40
1.19045149297543
 40
1.19045149297543
 40
1.19045149297543
 40
1.19045149297543
 10
9.739332130231448
 20
7.160319727278926
 30
0.0
 10
9.792972832574419
 20
7.230005699841323
 30
0.0
 10
9.880337551953792
 20
7.336026974072233
 30
0.0
 10
9.994305220621202
 20
7.498714022764971
 30
0.0
 10
10.06701632804608
 20
7.683705315202697
 30
0.0
 10
9.975060189262058
 20
7.872842833954217
 30
0.0
 10
9.856177138270775
 20
8.020438242450668
 30
0.0
 10
9.774733180749491
 20
8.114357147143108
 30
0.0
 10
9.728083608428486
 20
8.15855499614532
 30
0.0
  0
SPLINE
  5
AC
330
1F
100
AcDbEntity
  8
MAKE2D VISIBLE LINES
100
AcDbSpline
210
0.0
220
0.0
230
1.0
 70
    12
 71
     2
 72
     6
 73
     3
 74
     0
 42
0.0000000001
 43
0.0000000001
 40
0.0
 40
0.0
 40
0.0
 40
2.012098823798285
 40
2.012098823798285
 40
2.012098823798285
 10
-7.006142513313124
 20
75.61331928587371
 30
0.0
 41
1.0
 10
-7.968801292981505
 20
75.90764583892822
 30
0.0
 41
0.9991083970682088
 10
-8.903198408791969
 20
76.28213492537887
 30
0.0
 41
1.0
  0
SPLINE
  5
AD
330
1F
100
AcDbEntity
  8
MAKE2D VISIBLE LINES
100
AcDbSpline
210
0.0
220
0.0
230
1.0
 70
     8
 71
     3
 72
    13
 73
     9
 74
     0
 42
0.0000000001
 43
0.0000000001
 40
0.0
 40
0.0
 40
0.0
 40
0.0
 40
0.2006690731851897
 40
0.4053393048978313
 40
0.8321297490445262
 40
1.137367279774166
 40
1.608780363835198
 40
3.220294342364643
 40
3.220294342364643
 40
3.220294342364643
 40
3.220294342364643
 10
-9.632200355624102
 20
77.83645456883826
 30
0.0
 10
-9.563828798060385
 20
77.83604904691853
 30
0.0
 10
-9.433453485120223
 20
77.8111442136144
 30
0.0
 10
-9.182050004599777
 20
77.66880437581054
 30
0.0
 10
-9.036185936202022
 20
77.37971140852862
 30
0.0
 10
-8.973861041389267
 20
76.98367564559624
 30
0.0
 10
-8.883760217616814
 20
76.19233778646459
 30
0.0
 10
-8.849524628805348
 20
75.4985586086994
 30
0.0
 10
-8.814382429562183
 20
74.96260103547999
 30
0.0
  0
SPLINE
  5
AE
330
1F
100
AcDbEntity
  8
Default
100
AcDbSpline
210
0.0
220
0.0
230
1.0
 70
    12
 71
     3
 72
    46
 73
    42
 74
     0
 42
0.0000000001
 43
0.0000000001
 40
-15.86148237398441
 40
-15.86148237398441
 40
-15.86148237398441
 40
-15.86148237398441
 40
-15.448121183493
 40
-15.448121183493
 40
-14.948121183493
 40
-14.948121183493
 40
-14.948121183493
 40
-14.78954328516126
 40
-14.65980449474063
 40
-14.4915656808773
 40
-14.27824802498169
 40
-13.89564517931405
 40
-13.89564517931405
 40
-13.89564517931405
 40
-12.67736369473384
 40
-12.67736369473384
 40
-12.67736369473384
 40
-10.47859678300101
 40
-8.465949136993554
 40
-4.7034210821857
 40
-3.270804401605309
 40
-2.109921547423667
 40
-1.162859745537729
 40
-0.4241005593510128
 40
-0.4241005593510128
 40
-0.4241005593510128
 40
0.0
 40
0.0
 40
0.0
 40
0.2509462701711973
 40
0.5001275768196121
 40
1.079181098748561
 40
1.397384519522803
 40
1.578338617390344
 40
1.948993809521346
 40
1.948993809521346
 40
1.948993809521346
 40
2.033873203993569
 40
2.116080232193494
 40
2.283280389040947
 40
2.645534879113056
 40
2.645534879113056
 40
2.645534879113056
 40
2.645534879113056
 10
10.20602970408393
 20
72.60838554110852
 30
0.0
 41
1.0
 10
10.33963376876278
 20
72.64403897354954
 30
0.0
 41
1.0
 10
10.52333828031385
 20
72.5643376620409
 30
0.0
 41
1.0
 10
10.81081563054846
 20
72.47931910369881
 30
0.0
 41
1.0
 10
10.96331302367929
 20
72.42505272766003
 30
0.0
 41
1.0
 10
11.10906236856516
 20
72.35995690841874
 30
0.0
 41
1.0
 10
11.15830452736756
 20
72.34027451477401
 30
0.0
 41
1.0
 10
11.24236265359042
 20
72.29368729309702
 30
0.0
 41
1.0
 10
11.37783441995052
 20
72.22407321905384
 30
0.0
 41
1.0
 10
11.5001310645853
 20
72.09795598342906
 30
0.0
 41
1.0
 10
11.57040403904472
 20
71.8482993055225
 30
0.0
 41
1.0
 10
11.59748632237205
 20
71.6538216068031
 30
0.0
 41
1.0
 10
11.61534703113079
 20
71.52282185181512
 30
0.0
 41
1.0
 10
11.66533714687562
 20
71.11716467023156
 30
0.0
 41
0.999988716404561
 10
11.71411923491726
 20
70.70118524197477
 30
0.0
 41
0.999988716404561
 10
11.76169164394372
 20
70.27489764827546
 30
0.0
 41
1.0
 10
11.85296213525473
 20
69.51328023861798
 30
0.0
 41
1.0
 10
12.02184613446178
 20
68.11925829169694
 30
0.0
 41
1.0
 10
12.2436485385615
 20
65.47053430556507
 30
0.0
 41
1.0
 10
12.36387623365402
 20
63.06975434212133
 30
0.0
 41
1.0
 10
12.32909781377535
 20
60.95017213166166
 30
0.0
 41
1.0
 10
12.23214700157589
 20
59.7736352240092
 30
0.0
 41
1.0
 10
12.07423214342705
 20
58.83599539410722
 30
0.0
 41
1.0
 10
11.89438359306473
 20
58.30139062694401
 30
0.0
 41
1.0
 10
11.78663256064612
 20
58.07833917075289
 30
0.0
 41
1.0
 10
11.72675051837368
 20
57.94900223549943
 30
0.0
 41
0.9938480587755496
 10
11.65012976847934
 20
57.82925080429719
 30
0.0
 41
0.9938480587755496
 10
11.48769595743093
 20
57.65012006634442
 30
0.0
 41
1.0
 10
11.35426980515632
 20
57.5229683763688
 30
0.0
 41
1.0
 10
11.22086527711798
 20
57.42460433961669
 30
0.0
 41
1.0
 10
10.89859879184342
 20
57.2566025683928
 30
0.0
 41
1.0
 10
10.52174636334399
 20
57.18082923547031
 30
0.0
 41
1.0
 10
10.16607522741475
 20
57.13148602800693
 30
0.0
 41
1.0
 10
9.874723771882143
 20
57.12961452723477
 30
0.0
 41
1.0
 10
9.700485292901162
 20
57.21900821636155
 30
0.0
 41
1.0
 10
9.608084945826475
 20
57.31175161684821
 30
0.0
 41
1.0
 10
9.58272059786398
 20
57.33901321881061
 30
0.0
 41
1.0
 10
9.549011280333046
 20
57.38333375255088
 30
0.0
 41
1.0
 10
9.49550844511367
 20
57.48178051487424
 30
0.0
 41
1.0
 10
9.44750946062811
 20
57.68264994281379
 30
0.0
 41
1.0
 10
9.487349806284696
 20
57.86245436668481
 30
0.0
 41
1.0
 10
9.543412091953227
 20
57.96908601698551
 30
0.0
 41
1.0
  0
SPLINE
  5
AF
330
1F
100
AcDbEntity
  8
Default
100
AcDbSpline
210
0.0
220
0.0
230
1.0
 70
     8
 71
     3
 72
    12
 73
     8
 74
     0
 42
0.0000000001
 43
0.0000000001
 40
0.0
 40
0.0
 40
0.0
 40
0.0
 40
0.052417229037855
 40
0.1074375238630979
 40
0.2185210975122434
 40
0.346423130085688
 40
0.6046057894628148
 40
0.6046057894628148
 40
0.6046057894628148
 40
0.6046057894628148
 10
9.638935816338003
 20
72.44989964873785
 30
0.0
 10
9.650373495522954
 20
72.43632277940098
 30
0.0
 10
9.676203657807092
 20
72.41208557842269
 30
0.0
 10
9.746335343807713
 20
72.38350441797205
 30
0.0
 10
9.845654872520639
 20
72.39784849554975
 30
0.0
 10
9.994151459884362
 20
72.47429064012364
 30
0.0
 10
10.12304262977568
 20
72.58623970254855
 30
0.0
 10
10.20602970408393
 20
72.60838554110849
 30
0.0
  0
LINE
  5
B0
330
1F
100
AcDbEntity
  8
Default
100
AcDbLine
 10
9.588743379197863
 20
72.50947958184587
 30
0.0
 11
9.638935816338003
 21
72.44989964873785
 31
0.0
  0
SPLINE
  5
B1
330
1F
100
AcDbEntity
  8
Default
100
AcDbSpline
210
0.0
220
0.0
230
1.0
 70
    12
 71
     2
 72
     6
 73
     3
 74
     0
 42
0.0000000001
 43
0.0000000001
 40
-0.7644817079169229
 40
-0.7644817079169229
 40
-0.7644817079169229
 40
-0.6945311587242259
 40
-0.6945311587242259
 40
-0.6945311587242259
 10
9.57567782371305
 20
72.57877153769765
 30
0.0
 41
0.9999992040962243
 10
9.582060235776943
 20
72.54438843419373
 30
0.0
 41
0.9999351352388464
 10
9.58874337919788
 20
72.50947958184585
 30
0.0
 41
0.9998846788112339
  0
SPLINE
  5
B2
330
1F
100
AcDbEntity
  8
Default
100
AcDbSpline
210
0.0
220
0.0
230
1.0
 70
     8
 71
     3
 72
    19
 73
    15
 74
     0
 42
0.0000000001
 43
0.0000000001
 40
0.0
 40
0.0
 40
0.0
 40
0.0
 40
2.232247940101095
 40
4.462819732511551
 40
6.899475607671127
 40
8.91937015223986
 40
9.019515739888016
 40
9.090866166954358
 40
9.218595657282524
 40
9.238659435547545
 40
9.470060216773138
 40
9.710123961932329
 40
10.86335533494464
 40
11.51386883183247
 40
11.51386883183247
 40
11.51386883183247
 40
11.51386883183247
 10
-0.0001175283638037
 20
76.68046282950037
 30
0.0
 10
0.7438050721437701
 20
76.6803678358496
 30
0.0
 10
2.230935934306926
 20
76.61085592047068
 30
0.0
 10
4.50987719489842
 20
76.28537975888533
 30
0.0
 10
6.675126356053054
 20
75.746148898421
 30
0.0
 10
8.112219980736738
 20
75.25289325586847
 30
0.0
 10
8.79086846950065
 20
74.98205020289414
 30
0.0
 10
8.870153204871881
 20
74.92079255109037
 30
0.0
 10
8.924788448648028
 20
74.86894935968421
 30
0.0
 10
8.958124362855527
 20
74.74540239351795
 30
0.0
 10
8.999536175868199
 20
74.5877566472793
 30
0.0
 10
9.15359359580293
 20
74.06822634249683
 30
0.0
 10
9.37398672771664
 20
73.42390350301237
 30
0.0
 10
9.536120372965739
 20
72.7918740308903
 30
0.0
 10
9.575677823713049
 20
72.57877153769765
 30
0.0
  0
SPLINE
  5
B3
330
1F
100
AcDbEntity
  8
Default
100
AcDbSpline
210
0.0
220
0.0
230
1.0
 70
     8
 71
     3
 72
    19
 73
    15
 74
     0
 42
0.0000000001
 43
0.0000000001
 40
-11.51386883183247
 40
-11.51386883183247
 40
-11.51386883183247
 40
-11.51386883183247
 40
-10.86335533494464
 40
-9.710123961932329
 40
-9.470060216773138
 40
-9.238659435547545
 40
-9.218595657282524
 40
-9.090866166954358
 40
-9.019515739888016
 40
-8.91937015223986
 40
-6.899475607671127
 40
-4.462819732511551
 40
-2.232247940101095
 40
0.0
 40
0.0
 40
0.0
 40
0.0
 10
-9.575912880440685
 20
72.57877153769765
 30
0.0
 10
-9.536355429693346
 20
72.7918740308903
 30
0.0
 10
-9.374221784444275
 20
73.42390350301237
 30
0.0
 10
-9.153828652530537
 20
74.06822634249683
 30
0.0
 10
-8.999771232595835
 20
74.5877566472793
 30
0.0
 10
-8.958359419583134
 20
74.74540239351795
 30
0.0
 10
-8.925023505375636
 20
74.86894935968421
 30
0.0
 10
-8.870388261599489
 20
74.92079255109037
 30
0.0
 10
-8.791103526228257
 20
74.98205020289414
 30
0.0
 10
-8.112455037464345
 20
75.25289325586847
 30
0.0
 10
-6.675361412780662
 20
75.746148898421
 30
0.0
 10
-4.510112251626056
 20
76.28537975888533
 30
0.0
 10
-2.231170991034533
 20
76.61085592047068
 30
0.0
 10
-0.7440401288713776
 20
76.6803678358496
 30
0.0
 10
-0.0001175283638037
 20
76.68046282950037
 30
0.0
  0
SPLINE
  5
B4
330
1F
100
AcDbEntity
  8
Default
100
AcDbSpline
210
0.0
220
0.0
230
1.0
 70
    12
 71
     2
 72
     6
 73
     3
 74
     0
 42
0.0000000001
 43
0.0000000001
 40
0.6945311587242328
 40
0.6945311587242328
 40
0.6945311587242328
 40
0.7644817079169229
 40
0.7644817079169229
 40
0.7644817079169229
 10
-9.588978435925476
 20
72.50947958184585
 30
0.0
 41
0.9998846788112339
 10
-9.582295292504558
 20
72.54438843419373
 30
0.0
 41
0.9999351352388464
 10
-9.575912880440672
 20
72.57877153769765
 30
0.0
 41
0.9999992040962243
  0
LINE
  5
B5
330
1F
100
AcDbEntity
  8
Default
100
AcDbLine
 10
-9.639170873065611
 20
72.44989964873785
 30
0.0
 11
-9.58897843592547
 21
72.50947958184587
 31
0.0
  0
SPLINE
  5
B6
330
1F
100
AcDbEntity
  8
Default
100
AcDbSpline
210
0.0
220
0.0
230
1.0
 70
     8
 71
     3
 72
    12
 73
     8
 74
     0
 42
0.0000000001
 43
0.0000000001
 40
-0.6046057894628148
 40
-0.6046057894628148
 40
-0.6046057894628148
 40
-0.6046057894628148
 40
-0.346423130085688
 40
-0.2185210975122434
 40
-0.1074375238630979
 40
-0.052417229037855
 40
0.0
 40
0.0
 40
0.0
 40
0.0
 10
-10.20626476081157
 20
72.60838554110849
 30
0.0
 10
-10.12327768650329
 20
72.58623970254855
 30
0.0
 10
-9.99438651661197
 20
72.47429064012364
 30
0.0
 10
-9.845889929248246
 20
72.39784849554975
 30
0.0
 10
-9.74657040053532
 20
72.38350441797205
 30
0.0
 10
-9.676438714534699
 20
72.41208557842269
 30
0.0
 10
-9.650608552250562
 20
72.43632277940098
 30
0.0
 10
-9.639170873065611
 20
72.44989964873785
 30
0.0
  0
SPLINE
  5
B7
330
1F
100
AcDbEntity
  8
Default
100
AcDbSpline
210
0.0
220
0.0
230
1.0
 70
    12
 71
     3
 72
    46
 73
    42
 74
     0
 42
0.0000000001
 43
0.0000000001
 40
-2.645534879113056
 40
-2.645534879113056
 40
-2.645534879113056
 40
-2.645534879113056
 40
-2.283280389040947
 40
-2.116080232193494
 40
-2.033873203993569
 40
-1.948993809521346
 40
-1.948993809521346
 40
-1.948993809521346
 40
-1.578338617390344
 40
-1.397384519522803
 40
-1.079181098748561
 40
-0.5001275768196121
 40
-0.2509462701711973
 40
0.0
 40
0.0
 40
0.0
 40
0.4241005593510128
 40
0.4241005593510128
 40
0.4241005593510128
 40
1.162859745537729
 40
2.109921547423667
 40
3.270804401605309
 40
4.7034210821857
 40
8.465949136993554
 40
10.47859678300101
 40
12.67736369473384
 40
12.67736369473384
 40
12.67736369473384
 40
13.89564517931405
 40
13.89564517931405
 40
13.89564517931405
 40
14.27824802498169
 40
14.4915656808773
 40
14.65980449474063
 40
14.78954328516126
 40
14.948121183493
 40
14.948121183493
 40
14.948121183493
 40
15.448121183493
 40
15.448121183493
 40
15.86148237398441
 40
15.86148237398441
 40
15.86148237398441
 40
15.86148237398441
 10
-9.543647148680835
 20
57.96908601698551
 30
0.0
 41
1.0
 10
-9.487584863012303
 20
57.86245436668481
 30
0.0
 41
1.0
 10
-9.447744517355718
 20
57.68264994281379
 30
0.0
 41
1.0
 10
-9.495743501841277
 20
57.48178051487424
 30
0.0
 41
1.0
 10
-9.549246337060653
 20
57.38333375255088
 30
0.0
 41
1.0
 10
-9.582955654591588
 20
57.33901321881061
 30
0.0
 41
1.0
 10
-9.608320002554082
 20
57.31175161684821
 30
0.0
 41
1.0
 10
-9.700720349628769
 20
57.21900821636155
 30
0.0
 41
1.0
 10
-9.874958828609751
 20
57.12961452723477
 30
0.0
 41
1.0
 10
-10.16631028414236
 20
57.13148602800693
 30
0.0
 41
1.0
 10
-10.5219814200716
 20
57.18082923547031
 30
0.0
 41
1.0
 10
-10.89883384857103
 20
57.2566025683928
 30
0.0
 41
1.0
 10
-11.22110033384559
 20
57.42460433961669
 30
0.0
 41
1.0
 10
-11.35450486188393
 20
57.5229683763688
 30
0.0
 41
1.0
 10
-11.48793101415856
 20
57.65012006634442
 30
0.0
 41
1.0
 10
-11.65036482520698
 20
57.82925080429719
 30
0.0
 41
0.9938480587755496
 10
-11.72698557510131
 20
57.94900223549943
 30
0.0
 41
0.9938480587755496
 10
-11.78686761737376
 20
58.07833917075289
 30
0.0
 41
1.0
 10
-11.89461864979234
 20
58.30139062694401
 30
0.0
 41
1.0
 10
-12.07446720015466
 20
58.83599539410722
 30
0.0
 41
1.0
 10
-12.2323820583035
 20
59.7736352240092
 30
0.0
 41
1.0
 10
-12.32933287050295
 20
60.95017213166166
 30
0.0
 41
1.0
 10
-12.36411129038163
 20
63.06975434212133
 30
0.0
 41
1.0
 10
-12.24388359528911
 20
65.47053430556507
 30
0.0
 41
1.0
 10
-12.02208119118939
 20
68.11925829169694
 30
0.0
 41
1.0
 10
-11.85319719198233
 20
69.51328023861798
 30
0.0
 41
1.0
 10
-11.76192670067135
 20
70.27489764827546
 30
0.0
 41
1.0
 10
-11.71435429164488
 20
70.70118524197477
 30
0.0
 41
0.999988716404561
 10
-11.66557220360322
 20
71.11716467023156
 30
0.0
 41
0.999988716404561
 10
-11.61558208785843
 20
71.52282185181512
 30
0.0
 41
1.0
 10
-11.59772137909965
 20
71.6538216068031
 30
0.0
 41
1.0
 10
-11.57063909577232
 20
71.8482993055225
 30
0.0
 41
1.0
 10
-11.50036612131291
 20
72.09795598342906
 30
0.0
 41
1.0
 10
-11.37806947667812
 20
72.22407321905384
 30
0.0
 41
1.0
 10
-11.24259771031802
 20
72.29368729309702
 30
0.0
 41
1.0
 10
-11.15853958409517
 20
72.34027451477401
 30
0.0
 41
1.0
 10
-11.1092974252928
 20
72.35995690841874
 30
0.0
 41
1.0
 10
-10.9635480804069
 20
72.42505272766003
 30
0.0
 41
1.0
 10
-10.81105068727607
 20
72.47931910369881
 30
0.0
 41
1.0
 10
-10.52357333704146
 20
72.5643376620409
 30
0.0
 41
1.0
 10
-10.33986882549039
 20
72.64403897354954
 30
0.0
 41
1.0
 10
-10.20626476081157
 20
72.60838554110852
 30
0.0
 41
1.0
  0
SPLINE
  5
B8
330
1F
100
AcDbEntity
  8
Default
100
AcDbSpline
210
0.0
220
0.0
230
1.0
 70
    12
 71
     2
 72
     6
 73
     3
 74
     0
 42
0.0000000001
 43
0.0000000001
 40
0.0
 40
0.0
 40
0.0
 40
0.5806136477528836
 40
0.5806136477528836
 40
0.5806136477528836
 10
-9.555955543745855
 20
57.99104133632984
 30
0.0
 41
1.0
 10
-9.716927743130086
 20
58.26581606772343
 30
0.0
 41
0.8725415371224636
 10
-10.03531827533715
 20
58.2721934486848
 30
0.0
 41
1.0
  0
SPLINE
  5
B9
330
1F
100
AcDbEntity
  8
Default
100
AcDbSpline
210
0.0
220
0.0
230
1.0
 70
    12
 71
     3
 72
    27
 73
    23
 74
     0
 42
0.0000000001
 43
0.0000000001
 40
-12.34794305444288
 40
-12.34794305444288
 40
-12.34794305444288
 40
-12.34794305444288
 40
-11.07487045093276
 40
-7.632928227407522
 40
-5.715077383816216
 40
-4.234632274820855
 40
-1.690111099355139
 40
-0.7088876801336855
 40
0.0
 40
0.0
 40
0.0
 40
0.1161245821545688
 40
0.2183975914342078
 40
0.3079763156920016
 40
0.3742235676346553
 40
0.3742235676346553
 40
0.3742235676346553
 40
0.5716157204351209
 40
0.5716157204351209
 40
0.8216157204351209
 40
0.8216157204351209
 40
0.9919158107346908
 40
0.9919158107346908
 40
0.9919158107346908
 40
0.9919158107346908
 10
-10.16672856522482
 20
70.64479516735845
 30
0.0
 41
1.0
 10
-10.21957923070019
 20
70.14759810576054
 30
0.0
 41
1.0
 10
-10.30219198435913
 20
68.5780392029733
 30
0.0
 41
1.0
 10
-10.41990003209469
 20
66.37022242864008
 30
0.0
 41
1.0
 10
-10.49205739421811
 20
64.09104066015139
 30
0.0
 41
1.0
 10
-10.5114228382667
 20
62.1102340635161
 30
0.0
 41
1.0
 10
-10.43047003652419
 20
60.44150012695776
 30
0.0
 41
1.0
 10
-10.24223191642116
 20
59.04162510244235
 30
0.0
 41
1.0
 10
-10.11368436753151
 20
58.49207603438982
 30
0.0
 41
1.0
 10
-10.02911076682804
 20
58.25203464881492
 30
0.0
 41
1.0
 10
-10.00951329095889
 20
58.19886450475619
 30
0.0
 41
1.0
 10
-9.982334792959309
 20
58.13133763506054
 30
0.0
 41
1.0
 10
-9.937752157421075
 20
58.03872335122626
 30
0.0
 41
1.0
 10
-9.893552962352091
 20
57.96485730984967
 30
0.0
 41
1.0
 10
-9.86179991432215
 20
57.92349934476784
 30
0.0
 41
1.0
 10
-9.845743458813788
 20
57.90826803250153
 30
0.0
 41
1.0
 10
-9.789206047432744
 20
57.85975289730803
 30
0.0
 41
1.0
 10
-9.736344621230417
 20
57.83492573771466
 30
0.0
 41
1.0
 10
-9.63099304275025
 20
57.82239920372195
 30
0.0
 41
1.0
 10
-9.579571059427538
 20
57.85256035752821
 30
0.0
 41
1.0
 10
-9.542099665376698
 20
57.93268464827953
 30
0.0
 41
1.0
 10
-9.545584800357831
 20
57.96766018598647
 30
0.0
 41
1.0
 10
-9.551540822267073
 20
57.98280147570282
 30
0.0
 41
1.0
  0
SPLINE
  5
BA
330
1F
100
AcDbEntity
  8
Default
100
AcDbSpline
210
0.0
220
0.0
230
1.0
 70
    12
 71
     2
 72
     6
 73
     3
 74
     0
 42
0.0000000001
 43
0.0000000001
 40
-0.7847090864605429
 40
-0.7847090864605429
 40
-0.7847090864605429
 40
0.0
 40
0.0
 40
0.0
 10
-10.05062086406341
 20
71.50481203341393
 30
0.0
 41
1.0
 10
-10.11606085681573
 20
71.1099323807689
 30
0.0
 41
0.9996199172071438
 10
-10.16672856522482
 20
70.64479516735845
 30
0.0
 41
1.0
  0
SPLINE
  5
BB
330
1F
100
AcDbEntity
  8
Default
100
AcDbSpline
210
0.0
220
0.0
230
1.0
 70
     8
 71
     3
 72
    12
 73
     8
 74
     0
 42
0.0000000001
 43
0.0000000001
 40
-0.5076009082732449
 40
-0.5076009082732449
 40
-0.5076009082732449
 40
-0.5076009082732449
 40
-0.3814322183297587
 40
-0.2475491133605145
 40
-0.2012912027849215
 40
-0.1527348915727592
 40
0.0
 40
0.0
 40
0.0
 40
0.0
 10
-9.72294852542831
 20
71.82287873066032
 30
0.0
 10
-9.766213271139891
 20
71.82676783861261
 30
0.0
 10
-9.849833903514595
 20
71.80472614474375
 30
0.0
 10
-9.946284736106636
 20
71.76471043895317
 30
0.0
 10
-9.996450068324522
 20
71.70524543169863
 30
0.0
 10
-10.03028178427047
 20
71.62964878200619
 30
0.0
 10
-10.03960012892822
 20
71.56228434411089
 30
0.0
 10
-10.05062086406341
 20
71.50481203341393
 30
0.0
  0
SPLINE
  5
BC
330
1F
100
AcDbEntity
  8
Default
100
AcDbSpline
210
0.0
220
0.0
230
1.0
 70
    12
 71
     2
 72
     8
 73
     5
 74
     0
 42
0.0000000001
 43
0.0000000001
 40
-0.1282201628013348
 40
-0.1282201628013348
 40
-0.1282201628013348
 40
0.0
 40
0.0
 40
0.043318742301032
 40
0.043318742301032
 40
0.043318742301032
 10
-9.597096881508493
 20
71.70948789376114
 30
0.0
 41
1.0
 10
-9.659867238698437
 20
71.73139118409243
 30
0.0
 41
0.9473303484341768
 10
-9.704546049379987
 20
71.7839302100807
 30
0.0
 41
1.0
 10
-9.716836411241163
 20
71.80193982667393
 30
0.0
 41
0.9641604803062233
 10
-9.7229485254283
 20
71.82287873066035
 30
0.0
 41
0.9576088648151702
  0
SPLINE
  5
BD
330
1F
100
AcDbEntity
  8
Default
100
AcDbSpline
210
0.0
220
0.0
230
1.0
 70
    12
 71
     2
 72
     8
 73
     5
 74
     0
 42
0.0000000001
 43
0.0000000001
 40
-0.0433187423010104
 40
-0.0433187423010104
 40
-0.0433187423010104
 40
0.0
 40
0.0
 40
0.1282201628013348
 40
0.1282201628013348
 40
0.1282201628013348
 10
9.72271346870068
 20
71.82287873066032
 30
0.0
 41
0.9576088648151766
 10
9.716601354513529
 20
71.80193982667393
 30
0.0
 41
0.9641604803062411
 10
9.70431099265238
 20
71.7839302100807
 30
0.0
 41
1.0
 10
9.659632181970808
 20
71.73139118409243
 30
0.0
 41
0.9473303484341768
 10
9.596861824780886
 20
71.70948789376114
 30
0.0
 41
1.0
  0
SPLINE
  5
BE
330
1F
100
AcDbEntity
  8
Default
100
AcDbSpline
210
0.0
220
0.0
230
1.0
 70
     8
 71
     3
 72
    12
 73
     8
 74
     0
 42
0.0000000001
 43
0.0000000001
 40
0.0
 40
0.0
 40
0.0
 40
0.0
 40
0.1527348915727592
 40
0.2012912027849215
 40
0.2475491133605145
 40
0.3814322183297587
 40
0.5076009082732449
 40
0.5076009082732449
 40
0.5076009082732449
 40
0.5076009082732449
 10
10.05038580733577
 20
71.50481203341393
 30
0.0
 10
10.03936507220061
 20
71.56228434411089
 30
0.0
 10
10.03004672754287
 20
71.62964878200619
 30
0.0
 10
9.996215011596915
 20
71.70524543169863
 30
0.0
 10
9.946049679379028
 20
71.76471043895317
 30
0.0
 10
9.849598846786987
 20
71.80472614474375
 30
0.0
 10
9.765978214412284
 20
71.82676783861261
 30
0.0
 10
9.722713468700674
 20
71.82287873066032
 30
0.0
  0
SPLINE
  5
BF
330
1F
100
AcDbEntity
  8
Default
100
AcDbSpline
210
0.0
220
0.0
230
1.0
 70
    12
 71
     2
 72
     6
 73
     3
 74
     0
 42
0.0000000001
 43
0.0000000001
 40
0.0
 40
0.0
 40
0.0
 40
0.7847090864605429
 40
0.7847090864605429
 40
0.7847090864605429
 10
10.16649350849721
 20
70.64479516735845
 30
0.0
 41
1.0
 10
10.11582580008812
 20
71.1099323807689
 30
0.0
 41
0.9996199172071438
 10
10.05038580733577
 20
71.50481203341393
 30
0.0
 41
1.0
  0
SPLINE
  5
C0
330
1F
100
AcDbEntity
  8
Default
100
AcDbSpline
210
0.0
220
0.0
230
1.0
 70
    12
 71
     3
 72
    27
 73
    23
 74
     0
 42
0.0000000001
 43
0.0000000001
 40
-0.9919158107346908
 40
-0.9919158107346908
 40
-0.9919158107346908
 40
-0.9919158107346908
 40
-0.8216157204351209
 40
-0.8216157204351209
 40
-0.5716157204351209
 40
-0.5716157204351209
 40
-0.3742235676346553
 40
-0.3742235676346553
 40
-0.3742235676346553
 40
-0.3079763156920016
 40
-0.2183975914342078
 40
-0.1161245821545688
 40
0.0
 40
0.0
 40
0.0
 40
0.7088876801336855
 40
1.690111099355139
 40
4.234632274820855
 40
5.715077383816216
 40
7.632928227407522
 40
11.07487045093276
 40
12.34794305444288
 40
12.34794305444288
 40
12.34794305444288
 40
12.34794305444288
 10
9.551305765539466
 20
57.98280147570282
 30
0.0
 41
1.0
 10
9.545349743630224
 20
57.96766018598647
 30
0.0
 41
1.0
 10
9.54186460864909
 20
57.93268464827953
 30
0.0
 41
1.0
 10
9.57933600269993
 20
57.85256035752821
 30
0.0
 41
1.0
 10
9.630757986022642
 20
57.82239920372195
 30
0.0
 41
1.0
 10
9.73610956450281
 20
57.83492573771466
 30
0.0
 41
1.0
 10
9.788970990705137
 20
57.85975289730803
 30
0.0
 41
1.0
 10
9.845508402086152
 20
57.90826803250153
 30
0.0
 41
1.0
 10
9.861564857594542
 20
57.92349934476784
 30
0.0
 41
1.0
 10
9.893317905624484
 20
57.96485730984967
 30
0.0
 41
1.0
 10
9.937517100693467
 20
58.03872335122626
 30
0.0
 41
1.0
 10
9.982099736231701
 20
58.13133763506054
 30
0.0
 41
1.0
 10
10.00927823423129
 20
58.19886450475619
 30
0.0
 41
1.0
 10
10.02887571010043
 20
58.25203464881492
 30
0.0
 41
1.0
 10
10.1134493108039
 20
58.49207603438982
 30
0.0
 41
1.0
 10
10.24199685969356
 20
59.04162510244235
 30
0.0
 41
1.0
 10
10.43023497979658
 20
60.44150012695776
 30
0.0
 41
1.0
 10
10.51118778153909
 20
62.1102340635161
 30
0.0
 41
1.0
 10
10.4918223374905
 20
64.09104066015139
 30
0.0
 41
1.0
 10
10.41966497536708
 20
66.37022242864008
 30
0.0
 41
1.0
 10
10.30195692763152
 20
68.5780392029733
 30
0.0
 41
1.0
 10
10.21934417397259
 20
70.14759810576054
 30
0.0
 41
1.0
 10
10.16649350849721
 20
70.64479516735845
 30
0.0
 41
1.0
  0
ARC
  5
C1
330
1F
100
AcDbEntity
  8
Default
100
AcDbCircle
 10
0.8340655935558612
 20
54.65320078993454
 30
0.0
 40
31.6487029838954
100
AcDbArc
 50
282.9925821655285
 51
284.7828399908276
  0
SPLINE
  5
C2
330
1F
100
AcDbEntity
  8
Default
100
AcDbSpline
210
0.0
220
0.0
230
1.0
 70
    12
 71
     2
 72
     6
 73
     3
 74
     0
 42
0.0000000001
 43
0.0000000001
 40
-0.3687350703256946
 40
-0.3687350703256946
 40
-0.3687350703256946
 40
0.0
 40
0.0
 40
0.0
 10
9.208758179286404
 20
24.258630829765
 30
0.0
 41
1.0
 10
9.089615497120286
 20
24.11112117783714
 30
0.0
 41
0.958996314771429
 10
8.909427880994654
 20
24.05207459351098
 30
0.0
 41
1.0
  0
SPLINE
  5
C3
330
1F
100
AcDbEntity
  8
Default
100
AcDbSpline
210
0.0
220
0.0
230
1.0
 70
     8
 71
     3
 72
    12
 73
     8
 74
     0
 42
0.0000000001
 43
0.0000000001
 40
0.0
 40
0.0
 40
0.0
 40
0.0
 40
1.287016841321923
 40
1.769127044398118
 40
2.327701460882205
 40
2.420853988570939
 40
2.474227538685975
 40
2.474227538685975
 40
2.474227538685975
 40
2.474227538685975
 10
10.02915649041395
 20
31.19168941000154
 30
0.0
 10
10.10470802157954
 20
31.61400119926444
 30
0.0
 10
10.20933223329942
 20
32.19433179113616
 30
0.0
 10
10.35919090841568
 20
32.95569877200762
 30
0.0
 10
10.44653289642735
 20
33.32350132803512
 30
0.0
 10
10.4946754402041
 20
33.55352552658263
 30
0.0
 10
10.49944027019401
 20
33.60235189987191
 30
0.0
 10
10.49944570013616
 20
33.62007979950894
 30
0.0
  0
SPLINE
  5
C4
330
1F
100
AcDbEntity
  8
Default
100
AcDbSpline
210
0.0
220
0.0
230
1.0
 70
    12
 71
     2
 72
     6
 73
     3
 74
     0
 42
0.0000000001
 43
0.0000000001
 40
0.0
 40
0.0
 40
0.0
 40
1.102793144367181
 40
1.102793144367181
 40
1.102793144367181
 10
9.683477088921533
 20
30.23958481831451
 30
0.0
 41
1.0
 10
9.684230535934754
 20
29.6880890158056
 30
0.0
 41
0.9997455309739954
 10
9.709858729003939
 20
29.13719468164999
 30
0.0
 41
1.0
  0
SPLINE
  5
C5
330
1F
100
AcDbEntity
  8
Default
100
AcDbSpline
210
0.0
220
0.0
230
1.0
 70
     8
 71
     3
 72
    11
 73
     7
 74
     0
 42
0.0000000001
 43
0.0000000001
 40
0.0
 40
0.0
 40
0.0
 40
0.0
 40
0.13566170168807
 40
0.2744464145988897
 40
0.5613280325995922
 40
1.564089556579592
 40
1.564089556579592
 40
1.564089556579592
 40
1.564089556579592
 10
10.11870803291273
 20
31.68861713776286
 30
0.0
 10
10.08127351294672
 20
31.66200553952879
 30
0.0
 10
10.01537266044883
 20
31.6012177897866
 30
0.0
 10
9.8913362187468
 20
31.45592484196436
 30
0.0
 10
9.725075018107132
 20
31.00665478522276
 30
0.0
 10
9.686169529722546
 20
30.5729838111869
 30
0.0
 10
9.683477088921533
 20
30.23958481831451
 30
0.0
  0
ARC
  5
C6
330
1F
100
AcDbEntity
  8
Default
100
AcDbCircle
 10
-0.8340655863016213
 20
54.65320078993454
 30
0.0
 40
31.6487029838954
100
AcDbArc
 50
255.2171600091715
 51
257.0074178344707
  0
SPLINE
  5
C7
330
1F
100
AcDbEntity
  8
Default
100
AcDbSpline
210
0.0
220
0.0
230
1.0
 70
    12
 71
     2
 72
     6
 73
     3
 74
     0
 42
0.0000000001
 43
0.0000000001
 40
-0.3687350703256946
 40
-0.3687350703256946
 40
-0.3687350703256946
 40
0.0
 40
0.0
 40
0.0
 10
-9.208758172032164
 20
24.258630829765
 30
0.0
 41
1.0
 10
-9.089615489866054
 20
24.11112117783714
 30
0.0
 41
0.958996314771429
 10
-8.909427873740414
 20
24.05207459351098
 30
0.0
 41
1.0
  0
SPLINE
  5
C8
330
1F
100
AcDbEntity
  8
Default
100
AcDbSpline
210
0.0
220
0.0
230
1.0
 70
     8
 71
     3
 72
    12
 73
     8
 74
     0
 42
0.0000000001
 43
0.0000000001
 40
0.0
 40
0.0
 40
0.0
 40
0.0
 40
0.7878562625600279
 40
1.184000317423179
 40
2.191858947532162
 40
3.962869177404546
 40
5.720430333429824
 40
5.720430333429824
 40
5.720430333429824
 40
5.720430333429824
 10
9.484427601918496
 20
25.48977103058187
 30
0.0
 10
9.481057661668272
 20
25.75242729963199
 30
0.0
 10
9.467913644727359
 20
26.1467161534394
 30
0.0
 10
9.468396809128306
 20
26.8777900467976
 30
0.0
 10
9.54884975191578
 20
27.9336588930108
 30
0.0
 10
9.744669093227257
 20
29.43332597906706
 30
0.0
 10
9.921084929688218
 20
30.59623062065893
 30
0.0
 10
10.0257870628842
 20
31.17274751129901
 30
0.0
  0
SPLINE
  5
C9
330
1F
100
AcDbEntity
  8
Default
100
AcDbSpline
210
0.0
220
0.0
230
1.0
 70
     8
 71
     3
 72
    12
 73
     8
 74
     0
 42
0.0000000001
 43
0.0000000001
 40
0.0
 40
0.0
 40
0.0
 40
0.0
 40
0.7878562625600279
 40
1.184000317423179
 40
2.191858947532162
 40
3.962869177404546
 40
5.720430333429824
 40
5.720430333429824
 40
5.720430333429824
 40
5.720430333429824
 10
-9.484427594664256
 20
25.48977103058187
 30
0.0
 10
-9.481057654414032
 20
25.75242729963199
 30
0.0
 10
-9.467913637473119
 20
26.1467161534394
 30
0.0
 10
-9.468396801874066
 20
26.8777900467976
 30
0.0
 10
-9.54884974466154
 20
27.9336588930108
 30
0.0
 10
-9.744669085973017
 20
29.43332597906706
 30
0.0
 10
-9.921084922433979
 20
30.59623062065893
 30
0.0
 10
-10.02578705562996
 20
31.17274751129901
 30
0.0
  0
SPLINE
  5
CA
330
1F
100
AcDbEntity
  8
Default
100
AcDbSpline
210
0.0
220
0.0
230
1.0
 70
     8
 71
     3
 72
    12
 73
     8
 74
     0
 42
0.0000000001
 43
0.0000000001
 40
0.0
 40
0.0
 40
0.0
 40
0.0
 40
1.287016841321923
 40
1.769127044398118
 40
2.327701460882205
 40
2.420853988570939
 40
2.474227538685975
 40
2.474227538685975
 40
2.474227538685975
 40
2.474227538685975
 10
-10.02915648315971
 20
31.19168941000154
 30
0.0
 10
-10.1047080143253
 20
31.61400119926444
 30
0.0
 10
-10.20933222604518
 20
32.19433179113616
 30
0.0
 10
-10.35919090116144
 20
32.95569877200762
 30
0.0
 10
-10.44653288917312
 20
33.32350132803512
 30
0.0
 10
-10.49467543294986
 20
33.55352552658263
 30
0.0
 10
-10.49944026293977
 20
33.60235189987191
 30
0.0
 10
-10.49944569288192
 20
33.62007979950894
 30
0.0
  0
SPLINE
  5
CB
330
1F
100
AcDbEntity
  8
Default
100
AcDbSpline
210
0.0
220
0.0
230
1.0
 70
    12
 71
     2
 72
     6
 73
     3
 74
     0
 42
0.0000000001
 43
0.0000000001
 40
0.0
 40
0.0
 40
0.0
 40
1.102793144367181
 40
1.102793144367181
 40
1.102793144367181
 10
-9.683477081667293
 20
30.23958481831451
 30
0.0
 41
1.0
 10
-9.684230528680539
 20
29.6880890158056
 30
0.0
 41
0.9997455309739954
 10
-9.709858721749699
 20
29.13719468164999
 30
0.0
 41
1.0
  0
SPLINE
  5
CC
330
1F
100
AcDbEntity
  8
Default
100
AcDbSpline
210
0.0
220
0.0
230
1.0
 70
     8
 71
     3
 72
    11
 73
     7
 74
     0
 42
0.0000000001
 43
0.0000000001
 40
0.0
 40
0.0
 40
0.0
 40
0.0
 40
0.13566170168807
 40
0.2744464145988897
 40
0.5613280325995922
 40
1.564089556579592
 40
1.564089556579592
 40
1.564089556579592
 40
1.564089556579592
 10
-10.11870802565849
 20
31.68861713776286
 30
0.0
 10
-10.08127350569248
 20
31.66200553952879
 30
0.0
 10
-10.01537265319459
 20
31.6012177897866
 30
0.0
 10
-9.89133621149256
 20
31.45592484196436
 30
0.0
 10
-9.725075010852892
 20
31.00665478522276
 30
0.0
 10
-9.686169522468306
 20
30.5729838111869
 30
0.0
 10
-9.683477081667293
 20
30.23958481831451
 30
0.0
  0
SPLINE
  5
CD
330
1F
100
AcDbEntity
  8
Default
100
AcDbSpline
210
0.0
220
0.0
230
1.0
 70
    12
 71
     3
 72
    38
 73
    34
 74
     0
 42
0.0000000001
 43
0.0000000001
 40
0.0
 40
0.0
 40
0.0
 40
0.0
 40
0.1109898140483419
 40
0.1109898140483419
 40
0.1109898140483419
 40
0.2175483925551074
 40
0.617048848387215
 40
0.7890373634091792
 40
0.9327735793276459
 40
1.030679174350167
 40
1.030679174350167
 40
1.030679174350167
 40
1.184372815048584
 40
1.41138727799838
 40
1.901106448483389
 40
2.357737372802939
 40
2.733863559036053
 40
2.733863559036053
 40
2.733863559036053
 40
2.825356720675527
 40
2.934935236086079
 40
3.122128236811944
 40
3.403015736046659
 40
3.736307219618227
 40
4.27205496857778
 40
5.400384133660618
 40
5.400384133660618
 40
5.400384133660618
 40
6.425446975909134
 40
8.049530532595302
 40
8.82618390544533
 40
9.96909391054309
 40
11.25916574905244
 40
11.25916574905244
 40
11.25916574905244
 40
11.25916574905244
 10
10.09667210344909
 20
32.79349940761935
 30
0.0
 41
1.0
 10
10.12395143405896
 20
32.82632348780414
 30
0.0
 41
0.9968343937410573
 10
10.14693284471236
 20
32.86293506069165
 30
0.0
 41
0.9968343937410573
 10
10.16959180823252
 20
32.90682513331127
 30
0.0
 41
1.0
 10
10.19378101360675
 20
32.95525380676679
 30
0.0
 41
1.0
 10
10.25193821673639
 20
33.11364456779845
 30
0.0
 41
1.0
 10
10.30956317817259
 20
33.33269994304658
 30
0.0
 41
1.0
 10
10.39050491560911
 20
33.55681437476997
 30
0.0
 41
1.0
 10
10.45102427035991
 20
33.68162146268924
 30
0.0
 41
1.0
 10
10.5087677793106
 20
33.74004556976843
 30
0.0
 41
1.0
 10
10.54528261997038
 20
33.75786979480172
 30
0.0
 41
1.0
 10
10.59815709486335
 20
33.78410715949636
 30
0.0
 41
1.0
 10
10.71918078439998
 20
33.82365711178548
 30
0.0
 41
1.0
 10
11.00402684175469
 20
33.87893609486028
 30
0.0
 41
1.0
 10
11.39368274158863
 20
33.92419146714184
 30
0.0
 41
1.0
 10
11.83519897117182
 20
33.89901963655458
 30
0.0
 41
1.0
 10
12.10886196472523
 20
33.84835447904632
 30
0.0
 41
1.0
 10
12.24254445020449
 20
33.79452628072596
 30
0.0
 41
1.0
 10
12.28477589352639
 20
33.77038416771822
 30
0.0
 41
1.0
 10
12.33043394227479
 20
33.71654332224554
 30
0.0
 41
1.0
 10
12.34833233295913
 20
33.5859964914475
 30
0.0
 41
1.0
 10
12.33211135997553
 20
33.39436300401883
 30
0.0
 41
1.0
 10
12.29359162841828
 20
33.1295507748041
 30
0.0
 41
1.0
 10
12.21027754946203
 20
32.75546547853583
 30
0.0
 41
1.0
 10
12.05435939909915
 20
32.10800521757611
 30
0.0
 41
1.0
 10
11.89878010812535
 20
31.57546030533553
 30
0.0
 41
1.0
 10
11.79661717960295
 20
31.21050765230095
 30
0.0
 41
1.0
 10
11.70440711312227
 20
30.87861759169232
 30
0.0
 41
1.0
 10
11.46574391452702
 20
30.02785111224728
 30
0.0
 41
1.0
 10
11.07269383028264
 20
28.95477215617262
 30
0.0
 41
1.0
 10
10.76793941152675
 20
27.81215448298795
 30
0.0
 41
1.0
 10
10.63206161139698
 20
26.74816912241858
 30
0.0
 41
1.0
 10
10.6033000573905
 20
25.93784980277804
 30
0.0
 41
1.0
 10
10.60929766134254
 20
25.50747397702648
 30
0.0
 41
1.0
  0
SPLINE
  5
CE
330
1F
100
AcDbEntity
  8
Default
100
AcDbSpline
210
0.0
220
0.0
230
1.0
 70
    12
 71
     3
 72
    38
 73
    34
 74
     0
 42
0.0000000001
 43
0.0000000001
 40
-11.25916574905244
 40
-11.25916574905244
 40
-11.25916574905244
 40
-11.25916574905244
 40
-9.96909391054309
 40
-8.82618390544533
 40
-8.049530532595302
 40
-6.425446975909134
 40
-5.400384133660618
 40
-5.400384133660618
 40
-5.400384133660618
 40
-4.27205496857778
 40
-3.736307219618227
 40
-3.403015736046659
 40
-3.122128236811944
 40
-2.934935236086079
 40
-2.825356720675527
 40
-2.733863559036053
 40
-2.733863559036053
 40
-2.733863559036053
 40
-2.357737372802939
 40
-1.901106448483389
 40
-1.41138727799838
 40
-1.184372815048584
 40
-1.030679174350167
 40
-1.030679174350167
 40
-1.030679174350167
 40
-0.9327735793276459
 40
-0.7890373634091792
 40
-0.617048848387215
 40
-0.2175483925551074
 40
-0.1109898140483419
 40
-0.1109898140483419
 40
-0.1109898140483419
 40
0.0
 40
0.0
 40
0.0
 40
0.0
 10
-10.6092976540883
 20
25.50747397702648
 30
0.0
 41
1.0
 10
-10.60330005013626
 20
25.93784980277804
 30
0.0
 41
1.0
 10
-10.63206160414274
 20
26.74816912241858
 30
0.0
 41
1.0
 10
-10.76793940427251
 20
27.81215448298795
 30
0.0
 41
1.0
 10
-11.0726938230284
 20
28.95477215617262
 30
0.0
 41
1.0
 10
-11.46574390727278
 20
30.02785111224728
 30
0.0
 41
1.0
 10
-11.70440710586803
 20
30.87861759169232
 30
0.0
 41
1.0
 10
-11.79661717234873
 20
31.21050765230095
 30
0.0
 41
1.0
 10
-11.89878010087111
 20
31.57546030533553
 30
0.0
 41
1.0
 10
-12.05435939184491
 20
32.10800521757611
 30
0.0
 41
1.0
 10
-12.21027754220779
 20
32.75546547853583
 30
0.0
 41
1.0
 10
-12.29359162116404
 20
33.1295507748041
 30
0.0
 41
1.0
 10
-12.33211135272129
 20
33.39436300401883
 30
0.0
 41
1.0
 10
-12.34833232570489
 20
33.5859964914475
 30
0.0
 41
1.0
 10
-12.33043393502055
 20
33.71654332224554
 30
0.0
 41
1.0
 10
-12.28477588627215
 20
33.77038416771822
 30
0.0
 41
1.0
 10
-12.24254444295025
 20
33.79452628072596
 30
0.0
 41
1.0
 10
-12.10886195747099
 20
33.84835447904632
 30
0.0
 41
1.0
 10
-11.83519896391758
 20
33.89901963655458
 30
0.0
 41
1.0
 10
-11.39368273433439
 20
33.92419146714184
 30
0.0
 41
1.0
 10
-11.00402683450045
 20
33.87893609486028
 30
0.0
 41
1.0
 10
-10.71918077714574
 20
33.82365711178548
 30
0.0
 41
1.0
 10
-10.59815708760911
 20
33.78410715949636
 30
0.0
 41
1.0
 10
-10.54528261271617
 20
33.75786979480172
 30
0.0
 41
1.0
 10
-10.50876777205636
 20
33.74004556976843
 30
0.0
 41
1.0
 10
-10.45102426310567
 20
33.68162146268924
 30
0.0
 41
1.0
 10
-10.39050490835487
 20
33.55681437476997
 30
0.0
 41
1.0
 10
-10.30956317091835
 20
33.33269994304658
 30
0.0
 41
1.0
 10
-10.25193820948215
 20
33.11364456779845
 30
0.0
 41
1.0
 10
-10.19378100635251
 20
32.95525380676679
 30
0.0
 41
1.0
 10
-10.16959180097828
 20
32.90682513331127
 30
0.0
 41
1.0
 10
-10.14693283745812
 20
32.86293506069165
 30
0.0
 41
0.9968343937410573
 10
-10.12395142680472
 20
32.82632348780414
 30
0.0
 41
0.9968343937410573
 10
-10.09667209619485
 20
32.79349940761935
 30
0.0
 41
1.0
  0
SPLINE
  5
CF
330
1F
100
AcDbEntity
  8
Default
100
AcDbSpline
210
0.0
220
0.0
230
1.0
 70
    12
 71
     2
 72
     6
 73
     3
 74
     0
 42
0.0000000001
 43
0.0000000001
 40
0.0
 40
0.0
 40
0.0
 40
0.5806136477528836
 40
0.5806136477528836
 40
0.5806136477528836
 10
9.555720487018247
 20
57.99104133632984
 30
0.0
 41
1.0
 10
9.716692686402467
 20
58.26581606772343
 30
0.0
 41
0.8725415371224636
 10
10.03508321860954
 20
58.2721934486848
 30
0.0
 41
1.0
  0
SPLINE
  5
D0
330
1F
100
AcDbEntity
  8
Default
100
AcDbSpline
210
0.0
220
0.0
230
1.0
 70
     8
 71
     3
 72
     8
 73
     4
 74
     0
 42
0.0000000001
 43
0.0000000001
 40
0.0
 40
0.0
 40
0.0
 40
0.0
 40
1.443706964781046
 40
1.443706964781046
 40
1.443706964781046
 40
1.443706964781046
 10
38.09673568186875
 20
24.3895497712956
 30
0.0
 10
37.64692569466854
 20
24.56060160843272
 30
0.0
 10
37.1462333351293
 20
24.75316676075002
 30
0.0
 10
36.69763250673378
 20
24.92736507399068
 30
0.0
  0
SPLINE
  5
D1
330
1F
100
AcDbEntity
  8
Default
100
AcDbSpline
210
0.0
220
0.0
230
1.0
 70
     8
 71
     3
 72
    14
 73
    10
 74
     0
 42
0.0000000001
 43
0.0000000001
 40
0.0
 40
0.0
 40
0.0
 40
0.0
 40
0.2518026097524419
 40
0.3993978094503035
 40
0.6408038471311446
 40
0.8299381435286958
 40
1.34429103653412
 40
1.503771313972345
 40
2.081296446122036
 40
2.081296446122036
 40
2.081296446122036
 40
2.081296446122036
 10
37.76987559792983
 20
32.02563628791633
 30
0.0
 10
37.68932986056262
 20
31.99910366949108
 30
0.0
 10
37.56806639208423
 20
31.94973269771255
 30
0.0
 10
37.36967657789992
 20
31.86128170071946
 30
0.0
 10
37.25404282144072
 20
31.69120734649577
 30
0.0
 10
37.27479966209049
 20
31.36942627593854
 30
0.0
 10
37.3347776428308
 20
31.09160768222822
 30
0.0
 10
37.38765007204213
 20
30.67546910434169
 30
0.0
 10
37.40638330065087
 20
30.43190536935386
 30
0.0
 10
37.41299285428607
 20
30.23891185796249
 30
0.0
  0
SPLINE
  5
D2
330
1F
100
AcDbEntity
  8
Default
100
AcDbSpline
210
0.0
220
0.0
230
1.0
 70
    12
 71
     2
 72
     6
 73
     3
 74
     0
 42
0.0000000001
 43
0.0000000001
 40
-0.3818374946388466
 40
-0.3818374946388466
 40
-0.3818374946388466
 40
0.0
 40
0.0
 40
0.0
 10
38.13121910567887
 20
32.14902116908408
 30
0.0
 41
1.0
 10
37.94987313390616
 20
32.08930178854511
 30
0.0
 41
0.9999497799871767
 10
37.76987559792983
 20
32.02563628791633
 30
0.0
 41
1.0
  0
SPLINE
  5
D3
330
1F
100
AcDbEntity
  8
Default
100
AcDbSpline
210
0.0
220
0.0
230
1.0
 70
    12
 71
     3
 72
    27
 73
    23
 74
     0
 42
0.0000000001
 43
0.0000000001
 40
-17.84751507560201
 40
-17.84751507560201
 40
-17.84751507560201
 40
-17.84751507560201
 40
-16.95129587884805
 40
-15.65269240854135
 40
-15.21017777281098
 40
-14.39303538772804
 40
-13.19416178627385
 40
-12.67283013748999
 40
-12.17771109150672
 40
-12.17771109150672
 40
-12.17771109150672
 40
-11.17017766051491
 40
-10.10746988013587
 40
-8.93276930188814
 40
-7.617032957020962
 40
-5.997738481901326
 40
-3.794423638278215
 40
-2.023441253887982
 40
0.0
 40
0.0
 40
0.0
 40
1.343161462371087
 40
1.343161462371087
 40
1.343161462371087
 40
1.343161462371087
 10
50.84341172431835
 20
25.48209431285336
 30
0.0
 41
1.0
 10
50.83606729292865
 20
25.78058834697833
 30
0.0
 41
1.0
 10
50.87121117780772
 20
26.51363810854182
 30
0.0
 41
1.0
 10
51.04055773567669
 20
27.37744680920473
 30
0.0
 41
1.0
 10
51.14416863779201
 20
28.22449778907136
 30
0.0
 41
1.0
 10
51.16826515904607
 20
29.04442247866672
 30
0.0
 41
1.0
 10
51.08377932432456
 20
29.88931645076384
 30
0.0
 41
1.0
 10
50.90439524592143
 20
30.60683381285654
 30
0.0
 41
1.0
 10
50.78019048164271
 20
30.92299993386142
 30
0.0
 41
1.0
 10
50.71070528310009
 20
31.07262032906462
 30
0.0
 41
1.0
 10
50.57023252200074
 20
31.37767770929216
 30
0.0
 41
1.0
 10
50.18538511837259
 20
31.9607762272483
 30
0.0
 41
1.0
 10
49.32778732365711
 20
32.64027974236723
 30
0.0
 41
1.0
 10
48.23759012017528
 20
33.11820873582705
 30
0.0
 41
1.0
 10
46.89076377087776
 20
33.40888724920744
 30
0.0
 41
1.0
 10
45.17471173800369
 20
33.44798612626029
 30
0.0
 41
1.0
 10
43.31356219722878
 20
33.32052316746697
 30
0.0
 41
1.0
 10
41.33313101505439
 20
33.03195490862373
 30
0.0
 41
1.0
 10
40.11018518986975
 20
32.69769204080872
 30
0.0
 41
1.0
 10
39.44098275516555
 20
32.52090625834727
 30
0.0
 41
1.0
 10
38.99616130561117
 20
32.40354495668256
 30
0.0
 41
0.9998764356020825
 10
38.55955566171105
 20
32.27945936257156
 30
0.0
 41
0.9998764356020825
 10
38.13121910567887
 20
32.14902116908408
 30
0.0
 41
1.0
  0
SPLINE
  5
D4
330
1F
100
AcDbEntity
  8
Default
100
AcDbSpline
210
0.0
220
0.0
230
1.0
 70
    12
 71
     2
 72
     6
 73
     3
 74
     0
 42
0.0000000001
 43
0.0000000001
 40
0.0
 40
0.0
 40
0.0
 40
0.7816405396757449
 40
0.7816405396757449
 40
0.7816405396757449
 10
35.7961333714326
 20
26.19763937873564
 30
0.0
 41
1.0
 10
35.76272336391525
 20
25.80726820300337
 30
0.0
 41
0.996260045340734
 10
35.66260405021006
 20
25.42847804570286
 30
0.0
 41
1.0
  0
SPLINE
  5
D5
330
1F
100
AcDbEntity
  8
Default
100
AcDbSpline
210
0.0
220
0.0
230
1.0
 70
    12
 71
     2
 72
     6
 73
     3
 74
     0
 42
0.0000000001
 43
0.0000000001
 40
0.0
 40
0.0
 40
0.0
 40
0.1598633113070148
 40
0.1598633113070148
 40
0.1598633113070148
 10
35.81276568085576
 20
26.35658340709433
 30
0.0
 41
1.0
 10
35.80095455941858
 20
26.27747713006337
 30
0.0
 41
0.9990343967449803
 10
35.7961333714326
 20
26.19763937873564
 30
0.0
 41
1.0
  0
SPLINE
  5
D6
330
1F
100
AcDbEntity
  8
Default
100
AcDbSpline
210
0.0
220
0.0
230
1.0
 70
    12
 71
     3
 72
    64
 73
    60
 74
     0
 42
0.0000000001
 43
0.0000000001
 40
20.58321454143402
 40
20.58321454143402
 40
20.58321454143402
 40
20.58321454143402
 40
21.04477563910197
 40
21.04477563910197
 40
21.04477563910197
 40
21.33224931328581
 40
21.6455463514965
 40
22.33998758671066
 40
23.72700964529565
 40
23.72700964529565
 40
23.72700964529565
 40
24.37746194380612
 40
24.37746194380612
 40
24.37746194380612
 40
24.74265011140462
 40
24.74668065082338
 40
24.74668065082338
 40
24.74668065082338
 40
25.19656049775939
 40
25.19656049775939
 40
25.19656049775939
 40
26.01455642883183
 40
26.52146598053523
 40
26.85888861301138
 40
27.12887765991923
 40
27.12887765991923
 40
27.12887765991923
 40
27.23050408460464
 40
27.23050408460464
 40
27.23050408460464
 40
27.24732666958307
 40
27.24732666958307
 40
27.24732666958307
 40
28.24610456343342
 40
29.28690688742732
 40
31.43723910691027
 40
34.23402256053924
 40
38.51713998049595
 40
38.51713998049595
 40
38.51713998049595
 40
38.55153888363557
 40
38.55153888363557
 40
38.55153888363557
 40
39.11519683661427
 40
39.65997179865398
 40
40.37807341609253
 40
40.40791645231965
 40
40.44494759743145
 40
40.49521486840248
 40
40.55577371068683
 40
40.59867256146609
 40
40.66951705543971
 40
41.01152068415396
 40
41.66841301028297
 40
43.18740074826716
 40
46.73349159357683
 40
46.73349159357683
 40
46.73349159357683
 40
47.01966925118212
 40
47.01966925118212
 40
47.01966925118212
 40
47.01966925118212
 10
37.15067288328286
 20
30.46035123555403
 30
0.0
 41
0.9999995100144816
 10
37.15305687896678
 20
30.08508388416515
 30
0.0
 41
0.9992390160393029
 10
37.14632101994282
 20
29.93131908294596
 30
0.0
 41
0.9992391793678088
 10
37.13224960045841
 20
29.77805141782241
 30
0.0
 41
1.0
 10
37.12372731565421
 20
29.68259908290831
 30
0.0
 41
1.0
 10
37.10070671942015
 20
29.48359687974686
 30
0.0
 41
1.0
 10
37.02458139000876
 20
29.05842128992643
 30
0.0
 41
1.0
 10
36.82145023131361
 20
28.28532263641247
 30
0.0
 41
1.0
 10
36.54798510690503
 20
27.64441608007533
 30
0.0
 41
1.0
 10
36.33323523127819
 20
27.23350245106036
 30
0.0
 41
1.0
 10
36.23130184715048
 20
27.04094508892503
 30
0.0
 41
0.9994188715402256
 10
36.12130272451626
 20
26.85262639784727
 30
0.0
 41
0.9994188715402256
 10
36.00342963423768
 20
26.66887468987974
 30
0.0
 41
1.0
 10
35.93502888522426
 20
26.5663256858953
 30
0.0
 41
1.0
 10
35.87422948676172
 20
26.45711416676911
 30
0.0
 41
1.0
 10
35.81234911803818
 20
26.35276412988798
 30
0.0
 41
1.0
 10
35.81322095166703
 20
26.35891703392138
 30
0.0
 41
1.0
 10
35.87646044436222
 20
26.49721386046099
 30
0.0
 41
0.9725563879326877
 10
35.89782516851981
 20
26.64777545659008
 30
0.0
 41
0.9725563879326877
 10
35.87555614853466
 20
26.79820596019946
 30
0.0
 41
1.0
 10
35.83553959805346
 20
27.06852364124769
 30
0.0
 41
1.0
 10
35.604059813921
 20
27.47645019076188
 30
0.0
 41
1.0
 10
35.11166581222875
 20
27.7502901525441
 30
0.0
 41
1.0
 10
34.77868315248213
 20
27.90709849496064
 30
0.0
 41
1.0
 10
34.58654420812601
 20
27.97720264072854
 30
0.0
 41
1.0
 10
34.50030476542847
 20
28.00121394275942
 30
0.0
 41
1.0
 10
34.46622411326771
 20
28.01149513039973
 30
0.0
 41
0.9069105048036632
 10
34.44213824590078
 20
28.03770975002617
 30
0.0
 41
0.9069105048036632
 10
34.43477358703134
 20
28.07253688451539
 30
0.0
 41
1.0
 10
34.43297698203498
 20
28.07792765580524
 30
0.0
 41
0.9739675635769868
 10
34.43274225218772
 20
28.08360507656746
 30
0.0
 41
0.9739675635769868
 10
34.43408772925901
 20
28.08912575551693
 30
0.0
 41
1.0
 10
34.51577127766501
 20
28.4130177316873
 30
0.0
 41
1.0
 10
34.63117230164818
 20
29.08169782466348
 30
0.0
 41
1.0
 10
34.73755961916032
 20
30.47878309778898
 30
0.0
 41
1.0
 10
34.53116276806239
 20
32.47369483425028
 30
0.0
 41
1.0
 10
33.68791627255092
 20
35.43925556763412
 30
0.0
 41
1.0
 10
32.91680058501441
 20
37.66728329476643
 30
0.0
 41
1.0
 10
32.42606328141449
 20
39.00891251829816
 30
0.0
 41
1.0
 10
32.42190363718179
 20
39.02032058337803
 30
0.0
 41
0.8934048983870025
 10
32.42459705413768
 20
39.03216085761942
 30
0.0
 41
0.8934048983870025
 10
32.43328221711988
 20
39.04064699531466
 30
0.0
 41
1.0
 10
32.60246740947878
 20
39.12230577868701
 30
0.0
 41
1.0
 10
32.93665464507657
 20
39.28010881682152
 30
0.0
 41
1.0
 10
33.49098985687652
 20
39.53156871294695
 30
0.0
 41
1.0
 10
33.88103212682253
 20
39.7153710464101
 30
0.0
 41
1.0
 10
34.12105208345341
 20
39.81889232117103
 30
0.0
 41
1.0
 10
34.16134004720973
 20
39.80048973833433
 30
0.0
 41
1.0
 10
34.19938442438581
 20
39.77351679465667
 30
0.0
 41
1.0
 10
34.23474398759032
 20
39.73403906431616
 30
0.0
 41
1.0
 10
34.26927879183242
 20
39.68792422471608
 30
0.0
 41
1.0
 10
34.34410129367237
 20
39.55546213510135
 30
0.0
 41
1.0
 10
34.51495694255044
 20
39.24247611783267
 30
0.0
 41
1.0
 10
34.88206506199981
 20
38.48745227885411
 30
0.0
 41
1.0
 10
35.61483518558376
 20
36.72539711369319
 30
0.0
 41
1.0
 10
36.1472517257871
 20
35.12171365566179
 30
0.0
 41
1.0
 10
36.49755993380197
 20
33.94783982183142
 30
0.0
 41
1.0
 10
36.63090410736058
 20
33.49881162545751
 30
0.0
 41
1.0
 10
36.74208044714942
 20
33.0916156592412
 30
0.0
 41
1.0
 10
36.83135850952334
 20
32.71816064331851
 30
0.0
 41
1.0
  0
SPLINE
  5
D7
330
1F
100
AcDbEntity
  8
Default
100
AcDbSpline
210
0.0
220
0.0
230
1.0
 70
     8
 71
     3
 72
    18
 73
    14
 74
     0
 42
0.0000000001
 43
0.0000000001
 40
0.0
 40
0.0
 40
0.0
 40
0.0
 40
0.0593836568210491
 40
0.1135642017618635
 40
0.2352849768150596
 40
0.6154804948049609
 40
0.7612091161103206
 40
0.7612091161103206
 40
0.7612091161103206
 40
0.8523739615905102
 40
0.9344918554712651
 40
1.11979452643305
 40
1.68470910305339
 40
1.68470910305339
 40
1.68470910305339
 40
1.68470910305339
 10
36.50941411585714
 20
32.20054010651457
 30
0.0
 10
36.51170736052134
 20
32.18083712895283
 30
0.0
 10
36.51886554813947
 20
32.14368486808623
 30
0.0
 10
36.54200856374774
 20
32.06849657819821
 30
0.0
 10
36.63312386677688
 20
31.90527135815361
 30
0.0
 10
36.79440185715845
 20
31.75745133332482
 30
0.0
 10
36.89453825235685
 20
31.61343818179851
 30
0.0
 10
36.92094318979716
 20
31.57099521481403
 30
0.0
 10
36.93757304355077
 20
31.54384236393309
 30
0.0
 10
36.96439050615692
 20
31.49283869301377
 30
0.0
 10
37.01329226616366
 20
31.38342550591689
 30
0.0
 10
37.09241406715518
 20
31.11710709961481
 30
0.0
 10
37.12979102633528
 20
30.86889157294576
 30
0.0
 10
37.15067288328285
 20
30.46035123555404
 30
0.0
  0
SPLINE
  5
D8
330
1F
100
AcDbEntity
  8
Default
100
AcDbSpline
210
0.0
220
0.0
230
1.0
 70
     8
 71
     5
 72
    12
 73
     6
 74
     0
 42
0.0000000001
 43
0.0000000001
 40
0.0
 40
0.0
 40
0.0
 40
0.0
 40
0.0
 40
0.0
 40
1.0
 40
1.0
 40
1.0
 40
1.0
 40
1.0
 40
1.0
 10
36.55065899055967
 20
32.46105545139547
 30
0.0
 10
36.52548441938217
 20
32.4146979670986
 30
0.0
 10
36.50554083980444
 20
32.36549977709143
 30
0.0
 10
36.50583407635119
 20
32.3063396762532
 30
0.0
 10
36.50331543791552
 20
32.25293840335397
 30
0.0
 10
36.50941411585714
 20
32.20054010651457
 30
0.0
  0
SPLINE
  5
D9
330
1F
100
AcDbEntity
  8
Default
100
AcDbSpline
210
0.0
220
0.0
230
1.0
 70
    12
 71
     2
 72
     8
 73
     5
 74
     0
 42
0.0000000001
 43
0.0000000001
 40
-0.6177731832905559
 40
-0.6177731832905559
 40
-0.6177731832905559
 40
-0.4600410774079766
 40
-0.4600410774079766
 40
0.0
 40
0.0
 40
0.0
 10
37.0507657746802
 20
32.79210466746967
 30
0.0
 41
1.0
 10
36.97318560656259
 20
32.77052464428719
 30
0.0
 41
0.9990427713074699
 10
36.89929895486341
 20
32.74280163348151
 30
0.0
 41
1.0
 10
36.66647470007111
 20
32.6743232324888
 30
0.0
 41
0.9235251450677496
 10
36.55065899055967
 20
32.46105545139547
 30
0.0
 41
1.0
  0
SPLINE
  5
DA
330
1F
100
AcDbEntity
  8
Default
100
AcDbSpline
210
0.0
220
0.0
230
1.0
 70
    12
 71
     3
 72
    25
 73
    21
 74
     0
 42
0.0000000001
 43
0.0000000001
 40
0.0
 40
0.0
 40
0.0
 40
0.0
 40
1.473337225222238
 40
2.180778529516569
 40
3.691154581659405
 40
4.86162751763762
 40
5.929158539635224
 40
5.929158539635224
 40
5.929158539635224
 40
7.08447714822221
 40
8.255675214010646
 40
9.53711295372142
 40
11.01938668735557
 40
12.83465240124909
 40
14.97084977560966
 40
17.30949843945334
 40
19.62645110586711
 40
19.62645110586711
 40
19.62645110586711
 40
20.9293810752833
 40
20.9293810752833
 40
20.9293810752833
 40
20.9293810752833
 10
51.96797626388883
 20
25.51297740941453
 30
0.0
 41
1.0
 10
51.95599825630813
 20
26.00379357792144
 30
0.0
 41
1.0
 10
51.99301968912602
 20
26.73119805476282
 30
0.0
 41
1.0
 10
51.96894807123866
 20
27.96061951697482
 30
0.0
 41
1.0
 10
51.92517638002326
 20
29.09147001021593
 30
0.0
 41
1.0
 10
51.67207810948054
 20
30.32014956632663
 30
0.0
 41
1.0
 10
51.38234964862679
 20
31.01206499267305
 30
0.0
 41
1.0
 10
51.20780540208404
 20
31.32211868792598
 30
0.0
 41
1.0
 10
51.01665892814407
 20
31.65647463598204
 30
0.0
 41
1.0
 10
50.54239220699876
 20
32.27872629106548
 30
0.0
 41
1.0
 10
49.57336585264182
 20
33.01043530348564
 30
0.0
 41
1.0
 10
48.35195404992866
 20
33.50963526245266
 30
0.0
 41
1.0
 10
46.8537284514066
 20
33.82544780533118
 30
0.0
 41
1.0
 10
45.04314022360899
 20
33.93771804765767
 30
0.0
 41
1.0
 10
42.94510099750361
 20
33.88035421989969
 30
0.0
 41
1.0
 10
40.69649666485881
 20
33.59885650793062
 30
0.0
 41
1.0
 10
39.16920268780859
 20
33.32370471054735
 30
0.0
 41
1.0
 10
38.36466747582304
 20
33.13555207239398
 30
0.0
 41
1.0
 10
37.90927967229111
 20
33.01930067429106
 30
0.0
 41
0.9999903277390821
 10
37.47182593253508
 20
32.90495747479225
 30
0.0
 41
0.9999903277390821
 10
37.0507657746802
 20
32.79210466746967
 30
0.0
 41
1.0
  0
SPLINE
  5
DB
330
1F
100
AcDbEntity
  8
Default
100
AcDbSpline
210
0.0
220
0.0
230
1.0
 70
     8
 71
     2
 72
     8
 73
     5
 74
     0
 42
0.0000000001
 43
0.0000000001
 40
0.0
 40
0.0
 40
0.0
 40
1.0
 40
2.0
 40
2.082380386027239
 40
2.082380386027239
 40
2.082380386027239
 10
37.21103826748345
 20
27.18863912215174
 30
0.0
 10
37.45079607230039
 20
28.28051617145627
 30
0.0
 10
37.57464371140708
 20
30.5127953855942
 30
0.0
 10
37.35063321142917
 20
31.703647560836
 30
0.0
 10
37.33280455368453
 20
31.79406857219652
 30
0.0
  0
SPLINE
  5
DC
330
1F
100
AcDbEntity
  8
Default
100
AcDbSpline
210
0.0
220
0.0
230
1.0
 70
    12
 71
     2
 72
     6
 73
     3
 74
     0
 42
0.0000000001
 43
0.0000000001
 40
0.0
 40
0.0
 40
0.0
 40
2.061631574185771
 40
2.061631574185771
 40
2.061631574185771
 10
36.75476076895612
 20
25.15867676042845
 30
0.0
 41
1.0
 10
36.99851529478585
 20
26.16036520596752
 30
0.0
 41
0.9998484010904932
 10
37.2072446771283
 20
27.16993345811092
 30
0.0
 41
1.0
  0
SPLINE
  5
DD
330
1F
100
AcDbEntity
  8
Default
100
AcDbSpline
210
0.0
220
0.0
230
1.0
 70
    24
 71
     2
 72
     6
 73
     3
 74
     0
 42
0.0000000001
 43
0.0000000001
 40
0.0
 40
0.0
 40
0.0
 40
1.315706620815528
 40
1.315706620815528
 40
1.315706620815528
 10
36.45826085610568
 20
23.95829606411936
 30
0.0
 10
37.0710496158687
 20
23.71900027162081
 30
0.0
 10
37.68383837563172
 20
23.47970447912226
 30
0.0
  0
ARC
  5
DE
330
1F
100
AcDbEntity
  8
Default
100
AcDbCircle
 10
32.55455579744216
 20
38.92298182847784
 30
0.0
 40
0.1689744737258318
100
AcDbArc
 50
116.5741649610433
 51
135.8652056261011
  0
ARC
  5
DF
330
1F
100
AcDbEntity
  8
Default
100
AcDbCircle
 10
55.11288228155846
 20
-6.175735583822661
 30
0.0
 40
50.59488453986661
100
AcDbArc
 50
114.7800881090393
 51
116.5741649610439
  0
SPLINE
  5
E0
330
1F
100
AcDbEntity
  8
Default
100
AcDbSpline
210
0.0
220
0.0
230
1.0
 70
     8
 71
     5
 72
    12
 73
     6
 74
     0
 42
0.0000000001
 43
0.0000000001
 40
0.0
 40
0.0
 40
0.0
 40
0.0
 40
0.0
 40
0.0
 40
1.0
 40
1.0
 40
1.0
 40
1.0
 40
1.0
 40
1.0
 10
34.21817924681406
 20
39.88318624944029
 30
0.0
 10
34.21130928526307
 20
39.89340139491114
 30
0.0
 10
34.18436372765558
 20
39.92746243640195
 30
0.0
 10
34.02833050667931
 20
39.81655443600812
 30
0.0
 10
33.96749977746023
 20
39.78859430895255
 30
0.0
 10
33.90671546168673
 20
39.76053364224973
 30
0.0
  0
SPLINE
  5
E1
330
1F
100
AcDbEntity
  8
Default
100
AcDbSpline
210
0.0
220
0.0
230
1.0
 70
     8
 71
     2
 72
     9
 73
     6
 74
     0
 42
0.0000000001
 43
0.0000000001
 40
2.546990271718815
 40
2.546990271718815
 40
2.546990271718815
 40
3.0
 40
4.0
 40
5.0
 40
6.0
 40
6.0
 40
6.0
 10
37.10692175166207
 20
32.8071384728504
 30
0.0
 10
36.98471846920782
 20
33.29768940318473
 30
0.0
 10
36.51718822398811
 20
34.85023824766483
 30
0.0
 10
35.71054507431515
 20
36.9266995819039
 30
0.0
 10
34.86189589712728
 20
39.01133206261065
 30
0.0
 10
34.21817924681406
 20
39.88318624944029
 30
0.0
  0
SPLINE
  5
E2
330
1F
100
AcDbEntity
  8
MAKE2D VISIBLE LINES
100
AcDbSpline
210
0.0
220
0.0
230
1.0
 70
    24
 71
     2
 72
     6
 73
     3
 74
     0
 42
0.0000000001
 43
0.0000000001
 40
0.0
 40
0.0
 40
0.0
 40
25.32144370294892
 40
25.32144370294892
 40
25.32144370294892
 10
10.60944564335441
 20
25.49057147152412
 30
0.0
 10
10.78555408612442
 20
12.83107449823218
 30
0.0
 10
10.96166252889442
 20
0.1715775249402327
 30
0.0
  0
SPLINE
  5
E3
330
1F
100
AcDbEntity
  8
MAKE2D VISIBLE LINES
100
AcDbSpline
210
0.0
220
0.0
230
1.0
 70
    12
 71
     2
 72
     6
 73
     3
 74
     0
 42
0.0000000001
 43
0.0000000001
 40
-0.5627899102701793
 40
-0.5627899102701793
 40
-0.5627899102701793
 40
0.0
 40
0.0
 40
0.0
 10
10.04699999999548
 20
25.49840028787042
 30
0.0
 41
1.0
 10
10.32844063365902
 20
25.51013490069145
 30
0.0
 41
0.9984553286292266
 10
10.60944564335441
 20
25.49057147152412
 30
0.0
 41
1.0
  0
SPLINE
  5
E4
330
1F
100
AcDbEntity
  8
MAKE2D VISIBLE LINES
100
AcDbSpline
210
0.0
220
0.0
230
1.0
 70
    12
 71
     2
 72
     6
 73
     3
 74
     0
 42
0.0000000001
 43
0.0000000001
 40
-0.5632236617918245
 40
-0.5632236617918245
 40
-0.5632236617918245
 40
0.0
 40
0.0
 40
0.0
 10
9.48455439873957
 20
25.47493199805531
 30
0.0
 41
1.0
 10
9.76512573605406
 20
25.5022825152223
 30
0.0
 41
0.9984620498676375
 10
10.04699999999548
 20
25.49840028787042
 30
0.0
 41
1.0
  0
SPLINE
  5
E5
330
1F
100
AcDbEntity
  8
MAKE2D VISIBLE LINES
100
AcDbSpline
210
0.0
220
0.0
230
1.0
 70
    24
 71
     2
 72
     6
 73
     3
 74
     0
 42
0.0000000001
 43
0.0000000001
 40
0.0
 40
0.0
 40
0.0
 40
0.1783127021105754
 40
0.1783127021105754
 40
0.1783127021105754
 10
9.48703452039866
 20
25.29663351743094
 30
0.0
 10
9.485794459569115
 20
25.38578275774313
 30
0.0
 10
9.48455439873957
 20
25.47493199805531
 30
0.0
  0
SPLINE
  5
E6
330
1F
100
AcDbEntity
  8
MAKE2D VISIBLE LINES
100
AcDbSpline
210
0.0
220
0.0
230
1.0
 70
    12
 71
     3
 72
    12
 73
     8
 74
     0
 42
0.0000000001
 43
0.0000000001
 40
-1.60449839359277
 40
-1.60449839359277
 40
-1.60449839359277
 40
-1.60449839359277
 40
-1.403410291555001
 40
-1.403410291555001
 40
-1.195194284696522
 40
-1.195194284696522
 40
-0.8023314995337228
 40
-0.8023314995337228
 40
-0.8023314995337228
 40
-0.8023314995337228
 10
9.796480760541497
 20
24.87093476764092
 30
0.0
 41
1.0
 10
9.785508760679447
 20
24.94765073454352
 30
0.0
 41
1.0
 10
9.754729791783232
 20
24.99703224385081
 30
0.0
 41
1.0
 10
9.681337487679729
 20
25.10040772901237
 30
0.0
 41
1.0
 10
9.643330008373843
 20
25.14259091952776
 30
0.0
 41
1.0
 10
9.539109068389735
 20
25.25351273912535
 30
0.0
 41
1.0
 10
9.487050660983225
 20
25.30048381342997
 30
0.0
 41
1.0
 10
9.48703452039866
 20
25.29663351743094
 30
0.0
 41
1.0
  0
SPLINE
  5
E7
330
1F
100
AcDbEntity
  8
MAKE2D VISIBLE LINES
100
AcDbSpline
210
0.0
220
0.0
230
1.0
 70
    12
 71
     3
 72
    12
 73
     8
 74
     0
 42
0.0000000001
 43
0.0000000001
 40
-0.8984844348025581
 40
-0.8984844348025581
 40
-0.8984844348025581
 40
-0.8984844348025581
 40
-0.4515053823391683
 40
-0.4515053823391683
 40
-0.2122442665351418
 40
-0.2122442665351418
 40
0.0
 40
0.0
 40
0.0
 40
0.0
 10
9.501011745319511
 20
24.29195287816496
 30
0.0
 41
1.0
 10
9.500592456757756
 20
24.2958576287629
 30
0.0
 41
1.0
 10
9.566046844468543
 20
24.38011559251553
 30
0.0
 41
1.0
 10
9.674162979132314
 20
24.53583746130823
 30
0.0
 41
1.0
 10
9.712604114132693
 20
24.59267488868414
 30
0.0
 41
1.0
 10
9.777265070057878
 20
24.72036142113598
 30
0.0
 41
1.0
 10
9.804194830192431
 20
24.79041113874981
 30
0.0
 41
1.0
 10
9.796480760541497
 20
24.87093476764092
 30
0.0
 41
1.0
  0
SPLINE
  5
E8
330
1F
100
AcDbEntity
  8
MAKE2D VISIBLE LINES
100
AcDbSpline
210
0.0
220
0.0
230
1.0
 70
    24
 71
     2
 72
     6
 73
     3
 74
     0
 42
0.0000000001
 43
0.0000000001
 40
0.0
 40
0.0
 40
0.0
 40
16.13359640422427
 40
16.13359640422427
 40
16.13359640422427
 10
9.725426514545065
 20
8.159917329426776
 30
0.0
 10
9.613219129932288
 20
16.22593510379587
 30
0.0
 10
9.501011745319511
 20
24.29195287816496
 30
0.0
  0
SPLINE
  5
E9
330
1F
100
AcDbEntity
  8
MAKE2D VISIBLE LINES
100
AcDbSpline
210
0.0
220
0.0
230
1.0
 70
    12
 71
     2
 72
     6
 73
     3
 74
     0
 42
0.0000000001
 43
0.0000000001
 40
0.0
 40
0.0
 40
0.0
 40
15.84401917667006
 40
15.84401917667006
 40
15.84401917667006
 10
-8.950690645297952
 20
8.16011684195837
 30
0.0
 41
1.0
 10
-8.828879711338214
 20
16.08118987621181
 30
0.0
 41
0.9999999999999379
 10
-8.70707435528566
 20
24.00226299623035
 30
0.0
 41
1.0
  0
SPLINE
  5
EA
330
1F
100
AcDbEntity
  8
MAKE2D VISIBLE LINES
100
AcDbSpline
210
0.0
220
0.0
230
1.0
 70
     8
 71
     3
 72
    13
 73
     9
 74
     0
 42
0.0000000001
 43
0.0000000001
 40
0.0
 40
0.0
 40
0.0
 40
0.0
 40
0.2666859109081383
 40
0.4044536713965517
 40
0.6067652543442037
 40
0.8269043838867118
 40
0.9949054522310983
 40
1.19045149297543
 40
1.19045149297543
 40
1.19045149297543
 40
1.19045149297543
 10
-9.739332130231448
 20
7.160319727278926
 30
0.0
 10
-9.792972832574419
 20
7.230005699841323
 30
0.0
 10
-9.880337551953792
 20
7.336026974072233
 30
0.0
 10
-9.994305220621202
 20
7.498714022764971
 30
0.0
 10
-10.06701632804608
 20
7.683705315202697
 30
0.0
 10
-9.975060189262058
 20
7.872842833954217
 30
0.0
 10
-9.856177138270775
 20
8.020438242450668
 30
0.0
 10
-9.774733180749491
 20
8.114357147143108
 30
0.0
 10
-9.728083608428486
 20
8.15855499614532
 30
0.0
  0
SPLINE
  5
EB
330
1F
100
AcDbEntity
  8
MAKE2D VISIBLE LINES
100
AcDbSpline
210
0.0
220
0.0
230
1.0
 70
    24
 71
     2
 72
     6
 73
     3
 74
     0
 42
0.0000000001
 43
0.0000000001
 40
0.0
 40
0.0
 40
0.0
 40
7.005056406815396
 40
7.005056406815396
 40
7.005056406815396
 10
-9.836771284279584
 20
0.1559350243240302
 30
0.0
 10
-9.788051727999186
 20
3.658124371075887
 30
0.0
 10
-9.739332171718788
 20
7.160313717827743
 30
0.0
  0
SPLINE
  5
EC
330
1F
100
AcDbEntity
  8
MAKE2D VISIBLE LINES
100
AcDbSpline
210
0.0
220
0.0
230
1.0
 70
    24
 71
     2
 72
     6
 73
     3
 74
     0
 42
0.0000000001
 43
0.0000000001
 40
0.0
 40
0.0
 40
0.0
 40
25.32144370294892
 40
25.32144370294892
 40
25.32144370294892
 10
-10.60944564335441
 20
25.49057147152412
 30
0.0
 10
-10.78555408612442
 20
12.83107449823218
 30
0.0
 10
-10.96166252889442
 20
0.1715775249402327
 30
0.0
  0
SPLINE
  5
ED
330
1F
100
AcDbEntity
  8
MAKE2D VISIBLE LINES
100
AcDbSpline
210
0.0
220
0.0
230
1.0
 70
    12
 71
     2
 72
     6
 73
     3
 74
     0
 42
0.0000000001
 43
0.0000000001
 40
-0.5627899102701793
 40
-0.5627899102701793
 40
-0.5627899102701793
 40
0.0
 40
0.0
 40
0.0
 10
-10.04699999999548
 20
25.49840028787042
 30
0.0
 41
1.0
 10
-10.32844063365902
 20
25.51013490069145
 30
0.0
 41
0.9984553286292266
 10
-10.60944564335441
 20
25.49057147152412
 30
0.0
 41
1.0
  0
SPLINE
  5
EE
330
1F
100
AcDbEntity
  8
MAKE2D VISIBLE LINES
100
AcDbSpline
210
0.0
220
0.0
230
1.0
 70
    12
 71
     2
 72
     6
 73
     3
 74
     0
 42
0.0000000001
 43
0.0000000001
 40
-0.5632236617918245
 40
-0.5632236617918245
 40
-0.5632236617918245
 40
0.0
 40
0.0
 40
0.0
 10
-9.48455439873957
 20
25.47493199805531
 30
0.0
 41
1.0
 10
-9.76512573605406
 20
25.5022825152223
 30
0.0
 41
0.9984620498676375
 10
-10.04699999999548
 20
25.49840028787042
 30
0.0
 41
1.0
  0
SPLINE
  5
EF
330
1F
100
AcDbEntity
  8
MAKE2D VISIBLE LINES
100
AcDbSpline
210
0.0
220
0.0
230
1.0
 70
    24
 71
     2
 72
     6
 73
     3
 74
     0
 42
0.0000000001
 43
0.0000000001
 40
0.0
 40
0.0
 40
0.0
 40
0.1783127021105754
 40
0.1783127021105754
 40
0.1783127021105754
 10
-9.48703452039866
 20
25.29663351743094
 30
0.0
 10
-9.485794459569115
 20
25.38578275774313
 30
0.0
 10
-9.48455439873957
 20
25.47493199805531
 30
0.0
  0
SPLINE
  5
F0
330
1F
100
AcDbEntity
  8
MAKE2D VISIBLE LINES
100
AcDbSpline
210
0.0
220
0.0
230
1.0
 70
    12
 71
     3
 72
    12
 73
     8
 74
     0
 42
0.0000000001
 43
0.0000000001
 40
-1.60449839359277
 40
-1.60449839359277
 40
-1.60449839359277
 40
-1.60449839359277
 40
-1.403410291555001
 40
-1.403410291555001
 40
-1.195194284696522
 40
-1.195194284696522
 40
-0.8023314995337228
 40
-0.8023314995337228
 40
-0.8023314995337228
 40
-0.8023314995337228
 10
-9.796480760541497
 20
24.87093476764092
 30
0.0
 41
1.0
 10
-9.785508760679447
 20
24.94765073454352
 30
0.0
 41
1.0
 10
-9.754729791783232
 20
24.99703224385081
 30
0.0
 41
1.0
 10
-9.681337487679729
 20
25.10040772901237
 30
0.0
 41
1.0
 10
-9.643330008373843
 20
25.14259091952776
 30
0.0
 41
1.0
 10
-9.539109068389735
 20
25.25351273912535
 30
0.0
 41
1.0
 10
-9.487050660983225
 20
25.30048381342997
 30
0.0
 41
1.0
 10
-9.48703452039866
 20
25.29663351743094
 30
0.0
 41
1.0
  0
SPLINE
  5
F1
330
1F
100
AcDbEntity
  8
MAKE2D VISIBLE LINES
100
AcDbSpline
210
0.0
220
0.0
230
1.0
 70
    12
 71
     3
 72
    12
 73
     8
 74
     0
 42
0.0000000001
 43
0.0000000001
 40
-0.8984844348025581
 40
-0.8984844348025581
 40
-0.8984844348025581
 40
-0.8984844348025581
 40
-0.4515053823391683
 40
-0.4515053823391683
 40
-0.2122442665351418
 40
-0.2122442665351418
 40
0.0
 40
0.0
 40
0.0
 40
0.0
 10
-9.501011745319511
 20
24.29195287816496
 30
0.0
 41
1.0
 10
-9.500592456757756
 20
24.2958576287629
 30
0.0
 41
1.0
 10
-9.566046844468543
 20
24.38011559251553
 30
0.0
 41
1.0
 10
-9.674162979132314
 20
24.53583746130823
 30
0.0
 41
1.0
 10
-9.712604114132693
 20
24.59267488868414
 30
0.0
 41
1.0
 10
-9.777265070057878
 20
24.72036142113598
 30
0.0
 41
1.0
 10
-9.804194830192431
 20
24.79041113874981
 30
0.0
 41
1.0
 10
-9.796480760541497
 20
24.87093476764092
 30
0.0
 41
1.0
  0
SPLINE
  5
F2
330
1F
100
AcDbEntity
  8
MAKE2D VISIBLE LINES
100
AcDbSpline
210
0.0
220
0.0
230
1.0
 70
    24
 71
     2
 72
     6
 73
     3
 74
     0
 42
0.0000000001
 43
0.0000000001
 40
0.0
 40
0.0
 40
0.0
 40
16.13359640422427
 40
16.13359640422427
 40
16.13359640422427
 10
-9.725426514545065
 20
8.159917329426776
 30
0.0
 10
-9.613219129932288
 20
16.22593510379587
 30
0.0
 10
-9.501011745319511
 20
24.29195287816496
 30
0.0
  0
SPLINE
  5
F3
330
1F
100
AcDbEntity
  8
MAKE2D VISIBLE LINES
100
AcDbSpline
210
0.0
220
0.0
230
1.0
 70
    12
 71
     2
 72
     6
 73
     3
 74
     0
 42
0.0000000001
 43
0.0000000001
 40
0.0
 40
0.0
 40
0.0
 40
7.005849918077261
 40
7.005849918077261
 40
7.005849918077261
 10
-9.073789357712455
 20
0.1551043915678747
 30
0.0
 41
1.0
 10
-9.01992927746499
 20
3.657615256710891
 30
0.0
 41
0.9999999999999923
 10
-8.966068331155062
 20
7.160126108545361
 30
0.0
 41
1.0
  0
SPLINE
  5
F4
330
1F
100
AcDbEntity
  8
MAKE2D VISIBLE LINES
100
AcDbSpline
210
0.0
220
0.0
230
1.0
 70
    12
 71
     2
 72
     6
 73
     3
 74
     0
 42
0.0000000001
 43
0.0000000001
 40
0.0
 40
0.0
 40
0.0
 40
0.0905053209521186
 40
0.0905053209521186
 40
0.0905053209521186
 10
-10.96282944756152
 20
0.0876939475212968
 30
0.0
 41
1.0
 10
-10.96231034353775
 20
0.0327019543840851
 30
0.0
 41
0.7543480160101732
 10
-10.90777644154627
 20
0.0256231486522689
 30
0.0
 41
1.0
  0
SPLINE
  5
F5
330
1F
100
AcDbEntity
  8
MAKE2D VISIBLE LINES
100
AcDbSpline
210
0.0
220
0.0
230
1.0
 70
    24
 71
     2
 72
     6
 73
     3
 74
     0
 42
0.0000000001
 43
0.0000000001
 40
0.0
 40
0.0
 40
0.0
 40
0.0838826130615135
 40
0.0838826130615135
 40
0.0838826130615135
 10
-10.96166259205291
 20
0.1715714715240511
 30
0.0
 10
-10.96224601980722
 20
0.1296327095226739
 30
0.0
 10
-10.96282944756152
 20
0.0876939475212968
 30
0.0
  0
SPLINE
  5
F6
330
1F
100
AcDbEntity
  8
MAKE2D VISIBLE LINES
100
AcDbSpline
210
0.0
220
0.0
230
1.0
 70
    12
 71
     2
 72
     6
 73
     3
 74
     0
 42
0.0000000001
 43
0.0000000001
 40
0.0
 40
0.0
 40
0.0
 40
0.5627899102701827
 40
0.5627899102701827
 40
0.5627899102701827
 10
-10.39921694869002
 20
0.1794002878702985
 30
0.0
 41
1.0
 10
-10.68065758235356
 20
0.1911349006913162
 30
0.0
 41
0.9984553286292273
 10
-10.96166259205291
 20
0.1715714715240511
 30
0.0
 41
1.0
  0
SPLINE
  5
F7
330
1F
100
AcDbEntity
  8
MAKE2D VISIBLE LINES
100
AcDbSpline
210
0.0
220
0.0
230
1.0
 70
    12
 71
     2
 72
     6
 73
     3
 74
     0
 42
0.0000000001
 43
0.0000000001
 40
0.0
 40
0.0
 40
0.0
 40
0.563223661791824
 40
0.563223661791824
 40
0.563223661791824
 10
-9.836771347438043
 20
0.1559319980572171
 30
0.0
 41
1.0
 10
-10.1173426847486
 20
0.1832825152221636
 30
0.0
 41
0.9984620498676394
 10
-10.39921694869002
 20
0.1794002878702985
 30
0.0
 41
1.0
  0
SPLINE
  5
F8
330
1F
100
AcDbEntity
  8
MAKE2D VISIBLE LINES
100
AcDbSpline
210
0.0
220
0.0
230
1.0
 70
    12
 71
     2
 72
    13
 73
    10
 74
     0
 42
0.0000000001
 43
0.0000000001
 40
0.0
 40
0.0
 40
0.0
 40
0.4565641976747914
 40
0.4565641976747914
 40
1.456564197674791
 40
2.456564197674791
 40
2.456564197674791
 40
2.547078969430735
 40
2.547078969430735
 40
2.630961582496194
 40
2.630961582496194
 40
2.630961582496194
 10
-10.90777644154627
 20
0.0256231486522689
 30
0.0
 41
1.0
 10
-10.68077266635304
 20
0.0009074523701936
 30
0.0
 41
0.9995848321267342
 10
-10.40134365519492
 20
0.0007647233229592
 30
0.0
 41
1.0
 10
-10.28726935130926
 20
-0.000819024752404
 30
0.0
 41
1.0
 10
-10.00833958212595
 20
0.0019793700627243
 30
0.0
 41
1.0
 10
-9.894705593236212
 20
0.0114732260957606
 30
0.0
 41
1.0
 10
-9.840076490226101
 20
0.0171652206763537
 30
0.0
 41
0.7557362780894494
 10
-9.837938203110609
 20
0.0720514469102733
 30
0.0
 41
1.0
 10
-9.837354785802047
 20
0.1139902090574876
 30
0.0
 41
1.0
 10
-9.836771347438043
 20
0.1559319980572171
 30
0.0
 41
1.0
  0
SPLINE
  5
F9
330
1F
100
AcDbEntity
  8
MAKE2D VISIBLE LINES
100
AcDbSpline
210
0.0
220
0.0
230
1.0
 70
    24
 71
     2
 72
     6
 73
     3
 74
     0
 42
0.0000000001
 43
0.0000000001
 40
-0.7629204835404938
 40
-0.7629204835404938
 40
-0.7629204835404938
 40
0.0
 40
0.0
 40
0.0
 10
-9.07378935865116
 20
0.1551043916176589
 30
0.0
 10
-9.455204506575239
 20
0.1609696269479194
 30
0.0
 10
-9.836619654499318
 20
0.16683486227818
 30
0.0
  0
SPLINE
  5
FA
330
1F
100
AcDbEntity
  8
MAKE2D VISIBLE LINES
100
AcDbSpline
210
0.0
220
0.0
230
1.0
 70
    24
 71
     2
 72
     6
 73
     3
 74
     0
 42
0.0000000001
 43
0.0000000001
 40
0.0
 40
0.0
 40
0.0
 40
0.0839211351627523
 40
0.0839211351627523
 40
0.0839211351627523
 10
-9.07507970860925
 20
0.0711931770866254
 30
0.0
 10
-9.074434533630205
 20
0.1131487843521422
 30
0.0
 10
-9.07378935865116
 20
0.1551043916176589
 30
0.0
  0
SPLINE
  5
FB
330
1F
100
AcDbEntity
  8
MAKE2D VISIBLE LINES
100
AcDbSpline
210
0.0
220
0.0
230
1.0
 70
    12
 71
     2
 72
     6
 73
     3
 74
     0
 42
0.0000000001
 43
0.0000000001
 40
0.0
 40
0.0
 40
0.0
 40
0.0904093603291975
 40
0.0904093603291975
 40
0.0904093603291975
 10
-9.132157925134285
 20
0.0121865587705603
 30
0.0
 41
1.0
 10
-9.07594504513759
 20
0.0149205057759113
 30
0.0
 41
0.7293593170847356
 10
-9.07507970860925
 20
0.0711931770866254
 30
0.0
 41
1.0
  0
SPLINE
  5
FC
330
1F
100
AcDbEntity
  8
MAKE2D VISIBLE LINES
100
AcDbSpline
210
0.0
220
0.0
230
1.0
 70
    12
 71
     2
 72
     8
 73
     5
 74
     0
 42
0.0000000001
 43
0.0000000001
 40
0.0
 40
0.0
 40
0.0
 40
0.2359187626737215
 40
0.2359187626737215
 40
0.6574881257065701
 40
0.6574881257065701
 40
0.6574881257065701
 10
-9.874484953351507
 20
0.010912049444574
 30
0.0
 41
1.0
 10
-9.756637141095519
 20
0.0055860097324779
 30
0.0
 41
0.9998890928744075
 10
-9.638682982585001
 20
0.0037721622706273
 30
0.0
 41
1.0
 10
-9.34292717659012
 20
0.0069432166091717
 30
0.0
 41
0.9996458763244572
 10
-9.132157925134285
 20
0.0121865587705603
 30
0.0
 41
1.0
  0
ARC
  5
FD
330
1F
100
AcDbEntity
  8
MAKE2D VISIBLE LINES
100
AcDbCircle
 10
-45.8528772890793
 20
70.66391132412274
 30
0.0
 40
36.11015918298484
100
AcDbArc
 50
2.745625280115143
 51
3.561006751404317
  0
SPLINE
  5
FE
330
1F
100
AcDbEntity
  8
MAKE2D VISIBLE LINES
100
AcDbSpline
210
0.0
220
0.0
230
1.0
 70
     8
 71
     3
 72
    13
 73
     9
 74
     0
 42
0.0000000001
 43
0.0000000001
 40
0.0
 40
0.0
 40
0.0
 40
0.0
 40
8.643112293667128
 40
12.96459165181825
 40
14.04495275024958
 40
14.58513194373151
 40
16.16168011784191
 40
25.57698171378
 40
25.57698171378
 40
25.57698171378
 40
25.57698171378
 10
-10.19865755640982
 20
77.27396896365198
 30
0.0
 10
-10.15435914324887
 20
77.27365053494411
 30
0.0
 10
-10.08791313271384
 20
76.96727282054837
 30
0.0
 10
-10.0170050842889
 20
76.14353656250837
 30
0.0
 10
-9.987286130018134
 20
75.71011982645354
 30
0.0
 10
-9.971355204438824
 20
75.46069167478308
 30
0.0
 10
-9.91398164756816
 20
74.53704521784265
 30
0.0
 10
-9.85928645440662
 20
73.65956154472465
 30
0.0
 10
-9.812438516239972
 20
72.90675979910378
 30
0.0
  0
SPLINE
  5
FF
330
1F
100
AcDbEntity
  8
MAKE2D VISIBLE LINES
100
AcDbSpline
210
0.0
220
0.0
230
1.0
 70
    12
 71
     2
 72
     6
 73
     3
 74
     0
 42
0.0000000001
 43
0.0000000001
 40
0.0
 40
0.0
 40
0.0
 40
0.3671457867038843
 40
0.3671457867038843
 40
0.3671457867038843
 10
-9.78578394893534
 20
56.97254358324243
 30
0.0
 41
1.0
 10
-9.871484790473628
 20
56.80587836942453
 30
0.0
 41
0.9577404827526731
 10
-10.03366140506104
 20
56.71196044493192
 30
0.0
 41
0.9993092840063166
  0
SPLINE
  5
100
330
1F
100
AcDbEntity
  8
MAKE2D VISIBLE LINES
100
AcDbSpline
210
0.0
220
0.0
230
1.0
 70
    24
 71
     2
 72
     6
 73
     3
 74
     0
 42
0.0000000001
 43
0.0000000001
 40
0.0
 40
0.0
 40
0.0
 40
0.242267549437075
 40
0.242267549437075
 40
0.242267549437075
 10
-9.677364431296084
 20
57.18920693174382
 30
0.0
 10
-9.731574190115712
 20
57.08087525749312
 30
0.0
 10
-9.78578394893534
 20
56.97254358324243
 30
0.0
  0
SPLINE
  5
101
330
1F
100
AcDbEntity
  8
MAKE2D VISIBLE LINES
100
AcDbSpline
210
0.0
220
0.0
230
1.0
 70
    12
 71
     2
 72
     8
 73
     5
 74
     0
 42
0.0000000001
 43
0.0000000001
 40
0.0
 40
0.0
 40
0.0
 40
0.8834641308517398
 40
0.8834641308517398
 40
1.143975570833155
 40
1.143975570833155
 40
1.143975570833155
 10
-10.39921813692503
 20
56.44092075306423
 30
0.0
 41
1.0
 10
-10.96153709130628
 20
56.4411016785786
 30
0.0
 41
0.7073001515604022
 10
-10.96166375923246
 20
57.00342064779955
 30
0.0
 41
1.0
 10
-10.96166557357238
 20
57.13605990634327
 30
0.0
 41
0.9732615671001021
 10
-10.90236210787604
 20
57.25470337167837
 30
0.0
 41
1.0
  0
SPLINE
  5
102
330
1F
100
AcDbEntity
  8
MAKE2D VISIBLE LINES
100
AcDbSpline
210
0.0
220
0.0
230
1.0
 70
    12
 71
     2
 72
     6
 73
     3
 74
     0
 42
0.0000000001
 43
0.0000000001
 40
0.0
 40
0.0
 40
0.0
 40
0.5771779949827336
 40
0.5771779949827336
 40
0.5771779949827336
 10
-9.918073807254244
 20
56.71181952094069
 30
0.0
 41
1.0
 10
-10.08229426262238
 20
56.44076157606726
 30
0.0
 41
0.8711315448379081
 10
-10.39921813692503
 20
56.44092075306423
 30
0.0
 41
1.0
  0
ARC
  5
103
330
1F
100
AcDbEntity
  8
MAKE2D VISIBLE LINES
100
AcDbCircle
 10
45.8528772890793
 20
70.66391132412274
 30
0.0
 40
36.11015918298484
100
AcDbArc
 50
176.4389932485954
 51
177.2543747198845
  0
SPLINE
  5
104
330
1F
100
AcDbEntity
  8
MAKE2D VISIBLE LINES
100
AcDbSpline
210
0.0
220
0.0
230
1.0
 70
     8
 71
     3
 72
    13
 73
     9
 74
     0
 42
0.0000000001
 43
0.0000000001
 40
0.0
 40
0.0
 40
0.0
 40
0.0
 40
8.643112293667128
 40
12.96459165181825
 40
14.04495275024958
 40
14.58513194373151
 40
16.16168011784191
 40
25.57698171378
 40
25.57698171378
 40
25.57698171378
 40
25.57698171378
 10
10.19865755640982
 20
77.27396896365198
 30
0.0
 10
10.15435914324887
 20
77.27365053494411
 30
0.0
 10
10.08791313271384
 20
76.96727282054837
 30
0.0
 10
10.0170050842889
 20
76.14353656250837
 30
0.0
 10
9.987286130018134
 20
75.71011982645354
 30
0.0
 10
9.971355204438824
 20
75.46069167478308
 30
0.0
 10
9.91398164756816
 20
74.53704521784265
 30
0.0
 10
9.85928645440662
 20
73.65956154472465
 30
0.0
 10
9.812438516239972
 20
72.90675979910378
 30
0.0
  0
SPLINE
  5
105
330
1F
100
AcDbEntity
  8
MAKE2D VISIBLE LINES
100
AcDbSpline
210
0.0
220
0.0
230
1.0
 70
    12
 71
     2
 72
     6
 73
     3
 74
     0
 42
0.0000000001
 43
0.0000000001
 40
0.0
 40
0.0
 40
0.0
 40
0.3671457867038843
 40
0.3671457867038843
 40
0.3671457867038843
 10
9.78578394893534
 20
56.97254358324243
 30
0.0
 41
1.0
 10
9.871484790473628
 20
56.80587836942453
 30
0.0
 41
0.9577404827526731
 10
10.03366140506104
 20
56.71196044493192
 30
0.0
 41
0.9993092840063166
  0
SPLINE
  5
106
330
1F
100
AcDbEntity
  8
MAKE2D VISIBLE LINES
100
AcDbSpline
210
0.0
220
0.0
230
1.0
 70
    24
 71
     2
 72
     6
 73
     3
 74
     0
 42
0.0000000001
 43
0.0000000001
 40
0.0
 40
0.0
 40
0.0
 40
0.242267549437075
 40
0.242267549437075
 40
0.242267549437075
 10
9.677364431296084
 20
57.18920693174382
 30
0.0
 10
9.731574190115712
 20
57.08087525749312
 30
0.0
 10
9.78578394893534
 20
56.97254358324243
 30
0.0
  0
SPLINE
  5
107
330
1F
100
AcDbEntity
  8
MAKE2D VISIBLE LINES
100
AcDbSpline
210
0.0
220
0.0
230
1.0
 70
    12
 71
     2
 72
     8
 73
     5
 74
     0
 42
0.0000000001
 43
0.0000000001
 40
0.0
 40
0.0
 40
0.0
 40
0.8834641308517398
 40
0.8834641308517398
 40
1.143975570833155
 40
1.143975570833155
 40
1.143975570833155
 10
10.39921813692503
 20
56.44092075306423
 30
0.0
 41
1.0
 10
10.96153709130628
 20
56.4411016785786
 30
0.0
 41
0.7073001515604022
 10
10.96166375923246
 20
57.00342064779955
 30
0.0
 41
1.0
 10
10.96166557357238
 20
57.13605990634327
 30
0.0
 41
0.9732615671001021
 10
10.90236210787604
 20
57.25470337167837
 30
0.0
 41
1.0
  0
SPLINE
  5
108
330
1F
100
AcDbEntity
  8
MAKE2D VISIBLE LINES
100
AcDbSpline
210
0.0
220
0.0
230
1.0
 70
    12
 71
     2
 72
     6
 73
     3
 74
     0
 42
0.0000000001
 43
0.0000000001
 40
0.0
 40
0.0
 40
0.0
 40
0.5771779949827336
 40
0.5771779949827336
 40
0.5771779949827336
 10
9.918073807254244
 20
56.71181952094069
 30
0.0
 41
1.0
 10
10.08229426262238
 20
56.44076157606726
 30
0.0
 41
0.8711315448379081
 10
10.39921813692503
 20
56.44092075306423
 30
0.0
 41
1.0
  0
SPLINE
  5
109
330
1F
100
AcDbEntity
  8
MAKE2D VISIBLE LINES
100
AcDbSpline
210
0.0
220
0.0
230
1.0
 70
    12
 71
     2
 72
     6
 73
     3
 74
     0
 42
0.0000000001
 43
0.0000000001
 40
0.0
 40
0.0
 40
0.0
 40
0.2120382941238334
 40
0.2120382941238334
 40
0.2120382941238334
 10
10.19865755640982
 20
77.27396896365198
 30
0.0
 41
1.0
 10
10.19865767638298
 20
77.1666765732209
 30
0.0
 41
0.9822941245776783
 10
10.15916814450118
 20
77.06691568952303
 30
0.0
 41
1.0
  0
SPLINE
  5
10A
330
1F
100
AcDbEntity
  8
MAKE2D VISIBLE LINES
100
AcDbSpline
210
0.0
220
0.0
230
1.0
 70
    12
 71
     2
 72
     6
 73
     3
 74
     0
 42
0.0000000001
 43
0.0000000001
 40
0.0
 40
0.0
 40
0.0
 40
0.8835207092880102
 40
0.8835207092880102
 40
0.8835207092880102
 10
9.636224051643065
 20
77.8364689636519
 30
0.0
 41
1.0
 10
10.198690802061
 20
77.83643571407015
 30
0.0
 41
0.7071067836572035
 10
10.19865755640981
 20
77.27396896365198
 30
0.0
 41
1.0
  0
SPLINE
  5
10B
330
1F
100
AcDbEntity
  8
MAKE2D VISIBLE LINES
100
AcDbSpline
210
0.0
220
0.0
230
1.0
 70
    12
 71
     2
 72
     6
 73
     3
 74
     0
 42
0.0000000001
 43
0.0000000001
 40
0.0
 40
0.0
 40
0.0
 40
3.018113195819076
 40
3.018113195819076
 40
3.018113195819076
 10
8.959401387720712
 20
76.8449478936366
 30
0.0
 41
1.0
 10
7.56306802662559
 20
76.26714574497773
 30
0.0
 41
0.997914214244386
 10
6.103929023743406
 20
75.8740610867043
 30
0.0
 41
1.0
  0
SPLINE
  5
10C
330
1F
100
AcDbEntity
  8
MAKE2D VISIBLE LINES
100
AcDbSpline
210
0.0
220
0.0
230
1.0
 70
     8
 71
     3
 72
    13
 73
     9
 74
     0
 42
0.0000000001
 43
0.0000000001
 40
0.0
 40
0.0
 40
0.0
 40
0.0
 40
0.2006690731851897
 40
0.4053393048978313
 40
0.8321297490445262
 40
1.137367279774166
 40
1.608780363835198
 40
3.220294342364643
 40
3.220294342364643
 40
3.220294342364643
 40
3.220294342364643
 10
9.632200355624102
 20
77.83645456883826
 30
0.0
 10
9.563828798060385
 20
77.83604904691853
 30
0.0
 10
9.433453485120223
 20
77.8111442136144
 30
0.0
 10
9.182050004599777
 20
77.66880437581054
 30
0.0
 10
9.036185936202022
 20
77.37971140852862
 30
0.0
 10
8.973861041389267
 20
76.98367564559624
 30
0.0
 10
8.883760217616814
 20
76.19233778646459
 30
0.0
 10
8.849524628805348
 20
75.4985586086994
 30
0.0
 10
8.814382429562183
 20
74.96260103547999
 30
0.0
  0
SPLINE
  5
10D
330
1F
100
AcDbEntity
  8
MAKE2D VISIBLE LINES
100
AcDbSpline
210
0.0
220
0.0
230
1.0
 70
    12
 71
     2
 72
     6
 73
     3
 74
     0
 42
0.0000000001
 43
0.0000000001
 40
0.0
 40
0.0
 40
0.0
 40
2.012098823798285
 40
2.012098823798285
 40
2.012098823798285
 10
7.006142513313124
 20
75.61331928587371
 30
0.0
 41
1.0
 10
7.968801292981505
 20
75.90764583892822
 30
0.0
 41
0.9991083970682088
 10
8.903198408791969
 20
76.28213492537887
 30
0.0
 41
1.0
  0
SPLINE
  5
10E
330
1F
100
AcDbEntity
  8
MAKE2D VISIBLE LINES
100
AcDbSpline
210
0.0
220
0.0
230
1.0
 70
    12
 71
     2
 72
     6
 73
     3
 74
     0
 42
0.0000000001
 43
0.0000000001
 40
0.0
 40
0.0
 40
0.0
 40
0.0919770041939953
 40
0.0919770041939953
 40
0.0919770041939953
 10
10.15916814449958
 20
77.06691568952196
 30
0.0
 41
1.0
 10
10.14220396510478
 20
77.0240599034867
 30
0.0
 41
0.9966600539524888
 10
10.11849001559047
 20
76.98453712046636
 30
0.0
 41
1.0
  0
SPLINE
  5
10F
330
1F
100
AcDbEntity
  8
MAKE2D VISIBLE LINES
100
AcDbSpline
210
0.0
220
0.0
230
1.0
 70
    24
 71
     2
 72
     6
 73
     3
 74
     0
 42
0.0000000001
 43
0.0000000001
 40
0.0
 40
0.0
 40
0.0
 40
0.0839112145300476
 40
0.0839112145300476
 40
0.0839112145300476
 10
31.27741046077909
 20
0.1629877551973351
 30
0.0
 10
31.27741046077909
 20
0.1210321479323118
 30
0.0
 10
31.27741046077909
 20
0.0790765406672884
 30
0.0
  0
SPLINE
  5
110
330
1F
100
AcDbEntity
  8
MAKE2D VISIBLE LINES
100
AcDbSpline
210
0.0
220
0.0
230
1.0
 70
    12
 71
     2
 72
     6
 73
     3
 74
     0
 42
0.0000000001
 43
0.0000000001
 40
-0.5626550649757152
 40
-0.5626550649757152
 40
-0.5626550649757152
 40
0.0
 40
0.0
 40
0.0
 10
31.83991046077765
 20
0.1716366116500729
 30
0.0
 41
1.0
 10
31.55852750959949
 20
0.1759589956534567
 30
0.0
 41
0.9995277311971095
 10
31.27741046077773
 20
0.162987755198575
 30
0.0
 41
1.0
  0
SPLINE
  5
111
330
1F
100
AcDbEntity
  8
MAKE2D VISIBLE LINES
100
AcDbSpline
210
0.0
220
0.0
230
1.0
 70
    12
 71
     2
 72
     6
 73
     3
 74
     0
 42
0.0000000001
 43
0.0000000001
 40
-0.5626550649777194
 40
-0.5626550649777194
 40
-0.5626550649777194
 40
0.0
 40
0.0
 40
0.0
 10
32.40241046077931
 20
0.1629877551969601
 30
0.0
 41
1.0
 10
32.12129341195681
 20
0.1759589956524059
 30
0.0
 41
0.9995277311971191
 10
31.83991046077765
 20
0.1716366116500729
 30
0.0
 41
1.0
  0
SPLINE
  5
112
330
1F
100
AcDbEntity
  8
MAKE2D VISIBLE LINES
100
AcDbSpline
210
0.0
220
0.0
230
1.0
 70
    24
 71
     2
 72
     6
 73
     3
 74
     0
 42
0.0000000001
 43
0.0000000001
 40
0.0
 40
0.0
 40
0.0
 40
0.0839112145300476
 40
0.0839112145300476
 40
0.0839112145300476
 10
32.40241046077909
 20
0.0790765406672866
 30
0.0
 10
32.40241046077921
 20
0.1210321479321234
 30
0.0
 10
32.40241046077931
 20
0.1629877551969601
 30
0.0
  0
SPLINE
  5
113
330
1F
100
AcDbEntity
  8
MAKE2D VISIBLE LINES
100
AcDbSpline
210
0.0
220
0.0
230
1.0
 70
    12
 71
     2
 72
     6
 73
     3
 74
     0
 42
0.0000000001
 43
0.0000000001
 40
0.0
 40
0.0
 40
0.0
 40
0.0904493524148415
 40
0.0904493524148415
 40
0.0904493524148415
 10
32.34631901191638
 20
0.0186147476951154
 30
0.0
 41
1.0
 10
32.40182116131474
 20
0.0233738448632551
 30
0.0
 41
0.7402594161853687
 10
32.40241046077909
 20
0.0790765406672866
 30
0.0
 41
1.0
  0
SPLINE
  5
114
330
1F
100
AcDbEntity
  8
MAKE2D VISIBLE LINES
100
AcDbSpline
210
0.0
220
0.0
230
1.0
 70
    12
 71
     2
 72
    10
 73
     7
 74
     0
 42
0.0000000001
 43
0.0000000001
 40
-0.0903237802529511
 40
-0.0903237802529511
 40
-0.0903237802529511
 40
0.0
 40
0.0
 40
0.4217351829039652
 40
0.4217351829039652
 40
0.8898952949257181
 40
0.8898952949257181
 40
0.8898952949257181
 10
31.27741046077909
 20
0.0790765406672884
 30
0.0
 41
1.0
 10
31.27829532160037
 20
0.0236482293952625
 30
0.0
 41
0.7438500827945287
 10
31.3335019967916
 20
0.018617952715726
 30
0.0
 41
1.0
 10
31.54391826048351
 20
0.0040871278365964
 30
0.0
 41
0.9996458219849661
 10
31.83991046077909
 20
0.0020703980153823
 30
0.0
 41
1.0
 10
32.11263788409288
 20
0.0038323931547854
 30
0.0
 41
0.9995634045967899
 10
32.34631901191638
 20
0.0186147476951154
 30
0.0
 41
1.0
  0
SPLINE
  5
115
330
1F
100
AcDbEntity
  8
MAKE2D VISIBLE LINES
100
AcDbSpline
210
0.0
220
0.0
230
1.0
 70
    24
 71
     2
 72
     6
 73
     3
 74
     0
 42
0.0000000001
 43
0.0000000001
 40
-0.0839130223841461
 40
-0.0839130223841461
 40
-0.0839130223841461
 40
0.0
 40
0.0
 40
0.0
 10
51.54839400867054
 20
0.1473407154015867
 30
0.0
 10
51.54956111124918
 20
0.1054004399735274
 30
0.0
 10
51.55072821382782
 20
0.0634601645454681
 30
0.0
  0
SPLINE
  5
116
330
1F
100
AcDbEntity
  8
MAKE2D VISIBLE LINES
100
AcDbSpline
210
0.0
220
0.0
230
1.0
 70
    12
 71
     2
 72
     8
 73
     5
 74
     0
 42
0.0000000001
 43
0.0000000001
 40
0.0
 40
0.0
 40
0.0
 40
0.5626268207019829
 40
0.5626268207019829
 40
1.125253641403965
 40
1.125253641403965
 40
1.125253641403965
 10
52.67295867136541
 20
0.1786347950012832
 30
0.0
 41
1.0
 10
52.39159988969691
 20
0.1825401231228551
 30
0.0
 41
0.9996137062945424
 10
52.11045877663008
 20
0.1708059783621396
 30
0.0
 41
1.0
 10
51.82910018428371
 20
0.1668870342966174
 30
0.0
 41
0.9996137062945427
 10
51.54839400867054
 20
0.1473407154015867
 30
0.0
 41
1.0
  0
SPLINE
  5
117
330
1F
100
AcDbEntity
  8
MAKE2D VISIBLE LINES
100
AcDbSpline
210
0.0
220
0.0
230
1.0
 70
    24
 71
     2
 72
     6
 73
     3
 74
     0
 42
0.0000000001
 43
0.0000000001
 40
-0.0839130223841494
 40
-0.0839130223841494
 40
-0.0839130223841494
 40
0.0
 40
0.0
 40
0.0
 10
52.67529287652269
 20
0.094754244145161
 30
0.0
 10
52.67412577394405
 20
0.1366945195732221
 30
0.0
 10
52.67295867136541
 20
0.1786347950012832
 30
0.0
  0
SPLINE
  5
118
330
1F
100
AcDbEntity
  8
MAKE2D VISIBLE LINES
100
AcDbSpline
210
0.0
220
0.0
230
1.0
 70
    12
 71
     2
 72
     6
 73
     3
 74
     0
 42
0.0000000001
 43
0.0000000001
 40
-0.0904048108433053
 40
-0.0904048108433053
 40
-0.0904048108433053
 40
0.0
 40
0.0
 40
0.0
 10
52.62081585418835
 20
0.0333436205680677
 30
0.0
 41
1.0
 10
52.67685584594643
 20
0.038499299247224
 30
0.0
 41
0.7293564259667507
 10
52.67529287652269
 20
0.094754244145161
 30
0.0
 41
1.0
  0
SPLINE
  5
119
330
1F
100
AcDbEntity
  8
MAKE2D VISIBLE LINES
100
AcDbSpline
210
0.0
220
0.0
230
1.0
 70
    12
 71
     2
 72
    10
 73
     7
 74
     0
 42
0.0000000001
 43
0.0000000001
 40
-1.027003972179257
 40
-1.027003972179257
 40
-1.027003972179257
 40
-0.9365991613359481
 40
-0.9365991613359481
 40
-0.4683147364633831
 40
-0.4683147364633831
 40
0.0
 40
0.0
 40
0.0
 10
51.55072821382782
 20
0.0634601645454681
 30
0.0
 41
1.0
 10
51.5522961351847
 20
0.00720535744857
 30
0.0
 41
0.7293564259666274
 10
51.60853612094726
 20
0.0051741754484809
 30
0.0
 41
1.0
 10
51.84272862108022
 20
0.0022758926702478
 30
0.0
 41
0.999563135654027
 10
52.11512662330409
 20
0.0030651312875625
 30
0.0
 41
1.0
 10
52.38713182898179
 20
0.0174247872850495
 30
0.0
 41
0.9995630791006823
 10
52.62081585418835
 20
0.0333436205680677
 30
0.0
 41
1.0
  0
SPLINE
  5
11A
330
1F
100
AcDbEntity
  8
MAKE2D VISIBLE LINES
100
AcDbSpline
210
0.0
220
0.0
230
1.0
 70
    24
 71
     2
 72
     6
 73
     3
 74
     0
 42
0.0000000001
 43
0.0000000001
 40
0.0
 40
0.0
 40
0.0
 40
25.32880139746036
 40
25.32880139746036
 40
25.32880139746036
 10
51.96838842505646
 20
25.49763479499736
 30
0.0
 10
52.32067354821099
 20
12.8381347949973
 30
0.0
 10
52.67295867136552
 20
0.1786347949972367
 30
0.0
  0
SPLINE
  5
11B
330
1F
100
AcDbEntity
  8
MAKE2D VISIBLE LINES
100
AcDbSpline
210
0.0
220
0.0
230
1.0
 70
    12
 71
     2
 72
     8
 73
     5
 74
     0
 42
0.0000000001
 43
0.0000000001
 40
0.0
 40
0.0
 40
0.0
 40
0.562626820701976
 40
0.562626820701976
 40
1.125253641403959
 40
1.125253641403959
 40
1.125253641403959
 10
50.84382376236159
 20
25.46634071539764
 30
0.0
 41
1.0
 10
51.12452993797476
 20
25.48588703429268
 30
0.0
 41
0.9996137062945422
 10
51.40588853032114
 20
25.48980597835821
 30
0.0
 41
1.0
 10
51.68702964338795
 20
25.50154012311893
 30
0.0
 41
0.9996137062945424
 10
51.96838842505646
 20
25.49763479499736
 30
0.0
 41
1.0
  0
SPLINE
  5
11C
330
1F
100
AcDbEntity
  8
MAKE2D VISIBLE LINES
100
AcDbSpline
210
0.0
220
0.0
230
1.0
 70
    24
 71
     2
 72
     6
 73
     3
 74
     0
 42
0.0000000001
 43
0.0000000001
 40
-25.32880139746036
 40
-25.32880139746036
 40
-25.32880139746036
 40
0.0
 40
0.0
 40
0.0
 10
51.54839400867066
 20
0.1473407153975153
 30
0.0
 10
51.19610888551613
 20
12.80684071539758
 30
0.0
 10
50.84382376236159
 20
25.46634071539764
 30
0.0
  0
SPLINE
  5
11D
330
1F
100
AcDbEntity
  8
MAKE2D VISIBLE LINES
100
AcDbSpline
210
0.0
220
0.0
230
1.0
 70
    12
 71
     2
 72
     6
 73
     3
 74
     0
 42
0.0000000001
 43
0.0000000001
 40
0.0
 40
0.0
 40
0.0
 40
1.400318486567876
 40
1.400318486567876
 40
1.400318486567876
 10
34.30093501970047
 20
7.909360739492969
 30
0.0
 41
1.0
 10
33.60074406537736
 20
7.909360718377804
 30
0.0
 41
0.9999999999999999
 10
32.90058482209343
 20
7.90936070387179
 30
0.0
 41
1.0
  0
SPLINE
  5
11E
330
1F
100
AcDbEntity
  8
MAKE2D VISIBLE LINES
100
AcDbSpline
210
0.0
220
0.0
230
1.0
 70
    12
 71
     2
 72
     8
 73
     5
 74
     0
 42
0.0000000001
 43
0.0000000001
 40
0.0
 40
0.0
 40
0.0
 40
0.1959327582377502
 40
0.1959327582377502
 40
0.3918655164755005
 40
0.3918655164755005
 40
0.3918655164755005
 10
34.54961676249748
 20
7.659360775036635
 30
0.0
 41
1.0
 10
34.55011381979757
 20
7.762723829532922
 30
0.0
 41
0.9234768886635187
 10
34.47722239060732
 20
7.836010988376513
 30
0.0
 41
1.0
 10
34.40433096141707
 20
7.909298147220104
 30
0.0
 41
0.9234768886635187
 10
34.30093501970047
 20
7.909360739492969
 30
0.0
 41
1.0
  0
SPLINE
  5
11F
330
1F
100
AcDbEntity
  8
MAKE2D VISIBLE LINES
100
AcDbSpline
210
0.0
220
0.0
230
1.0
 70
    12
 71
     2
 72
     8
 73
     5
 74
     0
 42
0.0000000001
 43
0.0000000001
 40
0.0
 40
0.0
 40
0.0
 40
0.1959663969465162
 40
0.1959663969465162
 40
0.3919327938930323
 40
0.3919327938930323
 40
0.3919327938930323
 10
34.30090311017504
 20
7.409360762846288
 30
0.0
 41
1.0
 10
34.40428746578158
 20
7.409393428677961
 30
0.0
 41
0.9234458563622631
 10
34.47720244561
 20
7.48268552762213
 30
0.0
 41
1.0
 10
34.55011742543841
 20
7.5559776265663
 30
0.0
 41
0.9234458563622631
 10
34.54961676249748
 20
7.659360775036635
 30
0.0
 41
1.0
  0
SPLINE
  5
120
330
1F
100
AcDbEntity
  8
MAKE2D VISIBLE LINES
100
AcDbSpline
210
0.0
220
0.0
230
1.0
 70
    12
 71
     2
 72
     6
 73
     3
 74
     0
 42
0.0000000001
 43
0.0000000001
 40
0.0
 40
0.0
 40
0.0
 40
1.462716062453432
 40
1.462716062453432
 40
1.462716062453432
 10
32.83818704772157
 20
7.409360721707344
 30
0.0
 41
1.0
 10
33.56954507894827
 20
7.409360731275978
 30
0.0
 41
0.9999999999999999
 10
34.30090311017504
 20
7.409360762846288
 30
0.0
 41
1.0
  0
SPLINE
  5
121
330
1F
100
AcDbEntity
  8
MAKE2D VISIBLE LINES
100
AcDbSpline
210
0.0
220
0.0
230
1.0
 70
    24
 71
     2
 72
     6
 73
     3
 74
     0
 42
0.0000000001
 43
0.0000000001
 40
0.0
 40
0.0
 40
0.0
 40
17.00374757384001
 40
17.00374757384001
 40
17.00374757384001
 10
34.34256091558413
 20
7.409360774584096
 30
0.0
 10
42.84443470250413
 20
7.409360774584096
 30
0.0
 10
51.34630848942414
 20
7.409360774584096
 30
0.0
  0
SPLINE
  5
122
330
1F
100
AcDbEntity
  8
MAKE2D VISIBLE LINES
100
AcDbSpline
210
0.0
220
0.0
230
1.0
 70
    24
 71
     2
 72
     6
 73
     3
 74
     0
 42
0.0000000001
 43
0.0000000001
 40
0.0
 40
0.0
 40
0.0
 40
16.98996259219701
 40
16.98996259219701
 40
16.98996259219701
 10
51.3323946253777
 20
7.909360775488755
 30
0.0
 10
42.8374133292792
 20
7.909360775488755
 30
0.0
 10
34.34243203318069
 20
7.909360775488755
 30
0.0
  0
SPLINE
  5
123
330
1F
100
AcDbEntity
  8
MAKE2D VISIBLE LINES
100
AcDbSpline
210
0.0
220
0.0
230
1.0
 70
    12
 71
     2
 72
     6
 73
     3
 74
     0
 42
0.0000000001
 43
0.0000000001
 40
0.0
 40
0.0
 40
0.0
 40
0.5647131262011991
 40
0.5647131262011991
 40
0.5647131262011991
 10
36.75322750369899
 20
25.14369309397583
 30
0.0
 41
1.0
 10
36.48229303820251
 20
25.22349026495116
 30
0.0
 41
0.9995639493881753
 10
36.20711962532586
 20
25.28713930402087
 30
0.0
 41
1.0
  0
SPLINE
  5
124
330
1F
100
AcDbEntity
  8
MAKE2D VISIBLE LINES
100
AcDbSpline
210
0.0
220
0.0
230
1.0
 70
    12
 71
     2
 72
     6
 73
     3
 74
     0
 42
0.0000000001
 43
0.0000000001
 40
0.0
 40
0.0
 40
0.0
 40
0.5605716100236254
 40
0.5605716100236254
 40
0.5605716100236254
 10
36.20711962532586
 20
25.28713930402087
 30
0.0
 41
1.0
 10
35.93596706888384
 20
25.35844196252148
 30
0.0
 41
0.9995454056147066
 10
35.66100810042494
 20
25.41327275102458
 30
0.0
 41
1.0
  0
SPLINE
  5
125
330
1F
100
AcDbEntity
  8
MAKE2D VISIBLE LINES
100
AcDbSpline
210
0.0
220
0.0
230
1.0
 70
     8
 71
     3
 72
    11
 73
     7
 74
     0
 42
0.0000000001
 43
0.0000000001
 40
0.0
 40
0.0
 40
0.0
 40
0.0
 40
10.18141145748612
 40
11.42881579600435
 40
14.99093573564482
 40
25.71014457820392
 40
25.71014457820392
 40
25.71014457820392
 40
25.71014457820392
 10
35.66100810042494
 20
25.41327275102458
 30
0.0
 10
34.84784825074193
 20
22.11829168703904
 30
0.0
 10
33.93274080001143
 20
18.42031915278179
 30
0.0
 10
32.73494225117602
 20
13.56891697954624
 30
0.0
 10
31.69320422301782
 20
8.496288299776891
 30
0.0
 10
31.27750173884139
 20
3.736134022896662
 30
0.0
 10
31.27741046077855
 20
0.1629877699235305
 30
0.0
  0
ARC
  5
126
330
1F
100
AcDbEntity
  8
MAKE2D VISIBLE LINES
100
AcDbCircle
 10
1089.553493395228
 20
-235.3876202881569
 30
0.0
 40
1084.557497375724
100
AcDbArc
 50
166.1005339465592
 51
166.14340090319
  0
SPLINE
  5
127
330
1F
100
AcDbEntity
  8
MAKE2D VISIBLE LINES
100
AcDbSpline
210
0.0
220
0.0
230
1.0
 70
     8
 71
     3
 72
    13
 73
     9
 74
     0
 42
0.0000000001
 43
0.0000000001
 40
0.0
 40
0.0
 40
0.0
 40
0.0
 40
2.573181444042085
 40
5.146363825740235
 40
10.17902719536351
 40
13.91086206765705
 40
15.26441761507036
 40
24.62648717336029
 40
24.62648717336029
 40
24.62648717336029
 40
24.62648717336029
 10
32.40241046077873
 20
0.1629877404278002
 30
0.0
 10
32.40237697400945
 20
1.020753315463512
 30
0.0
 10
32.43942223749406
 20
2.736101735788921
 30
0.0
 10
32.65529068062747
 20
6.123141521317153
 30
0.0
 10
33.1337302107416
 20
9.875092747081164
 30
0.0
 10
33.79879325361775
 20
13.18330738836862
 30
0.0
 10
34.95255473777071
 20
17.85901503297022
 30
0.0
 10
35.81120851176478
 20
21.32603560389509
 30
0.0
 10
36.55860058717212
 20
24.35594716644687
 30
0.0
  0
ENDSEC
  0
SECTION
  2
OBJECTS
  0
DICTIONARY
  5
C
330
0
100
AcDbDictionary
281
     1
  3
ACAD_GROUP
350
D
  3
ACAD_LAYOUT
350
1A
  3
ACAD_MLEADERSTYLE
350
129
  3
ACAD_MLINESTYLE
350
17
  3
ACAD_PLOTSETTINGS
350
19
  3
ACAD_PLOTSTYLENAME
350
E
  3
ACAD_TABLESTYLE
350
128
  3
ACAD_VISUALSTYLE
350
2A
  0
DICTIONARY
  5
D
102
{ACAD_REACTORS
330
C
102
}
330
C
100
AcDbDictionary
281
     1
  0
DICTIONARY
  5
1A
102
{ACAD_REACTORS
330
C
102
}
330
C
100
AcDbDictionary
281
     1
  3
Layout1
350
1E
  3
Layout2
350
26
  3
Model
350
22
  0
DICTIONARY
  5
129
102
{ACAD_REACTORS
330
C
102
}
330
C
100
AcDbDictionary
281
     1
  0
DICTIONARY
  5
17
102
{ACAD_REACTORS
330
C
102
}
330
C
100
AcDbDictionary
281
     1
  3
Standard
350
18
  0
DICTIONARY
  5
19
102
{ACAD_REACTORS
330
C
102
}
330
C
100
AcDbDictionary
281
     1
  0
ACDBDICTIONARYWDFLT
  5
E
102
{ACAD_REACTORS
330
C
102
}
330
C
100
AcDbDictionary
281
     1
  3
Normal
350
F
100
AcDbDictionaryWithDefault
340
F
  0
DICTIONARY
  5
128
102
{ACAD_REACTORS
330
C
102
}
330
C
100
AcDbDictionary
281
     1
  0
DICTIONARY
  5
2A
102
{ACAD_REACTORS
330
C
102
}
330
C
100
AcDbDictionary
281
     1
  3
2dWireframe
350
2F
  3
3D Hidden
350
31
  3
3dWireframe
350
30
  3
Basic
350
32
  3
Brighten
350
36
  3
ColorChange
350
3A
  3
Conceptual
350
34
  3
Dim
350
35
  3
Facepattern
350
39
  3
Flat
350
2B
  3
FlatWithEdges
350
2C
  3
Gouraud
350
2D
  3
GouraudWithEdges
350
2E
  3
Linepattern
350
38
  3
Realistic
350
33
  3
Thicken
350
37
  0
LAYOUT
  5
1E
102
{ACAD_REACTORS
330
1A
102
}
330
1A
100
AcDbPlotSettings
  1

  2
none_device
  4

  6

 40
0.0
 41
0.0
 42
0.0
 43
0.0
 44
0.0
 45
0.0
 46
0.0
 47
0.0
 48
0.0
 49
0.0
140
0.0
141
0.0
142
1.0
143
1.0
 70
   688
 72
     0
 73
     0
 74
     5
  7

 75
    16
 76
     0
 77
     2
 78
   300
147
1.0
148
0.0
149
0.0
100
AcDbLayout
  1
Layout1
 70
     1
 71
     1
 10
0.0
 20
0.0
 11
12.0
 21
9.0
 12
0.0
 22
0.0
 32
0.0
 14
1.000000000000000E+20
 24
1.000000000000000E+20
 34
1.000000000000000E+20
 15
-1.000000000000000E+20
 25
-1.000000000000000E+20
 35
-1.000000000000000E+20
146
0.0
 13
0.0
 23
0.0
 33
0.0
 16
1.0
 26
0.0
 36
0.0
 17
0.0
 27
1.0
 37
0.0
 76
     0
330
1B
  0
LAYOUT
  5
26
102
{ACAD_REACTORS
330
1A
102
}
330
1A
100
AcDbPlotSettings
  1

  2
none_device
  4

  6

 40
0.0
 41
0.0
 42
0.0
 43
0.0
 44
0.0
 45
0.0
 46
0.0
 47
0.0
 48
0.0
 49
0.0
140
0.0
141
0.0
142
1.0
143
1.0
 70
   688
 72
     0
 73
     0
 74
     5
  7

 75
    16
 76
     0
 77
     2
 78
   300
147
1.0
148
0.0
149
0.0
100
AcDbLayout
  1
Layout2
 70
     1
 71
     2
 10
0.0
 20
0.0
 11
0.0
 21
0.0
 12
0.0
 22
0.0
 32
0.0
 14
0.0
 24
0.0
 34
0.0
 15
0.0
 25
0.0
 35
0.0
146
0.0
 13
0.0
 23
0.0
 33
0.0
 16
1.0
 26
0.0
 36
0.0
 17
0.0
 27
1.0
 37
0.0
 76
     0
330
23
  0
LAYOUT
  5
22
102
{ACAD_REACTORS
330
1A
102
}
330
1A
100
AcDbPlotSettings
  1

  2
none_device
  4

  6

 40
0.0
 41
0.0
 42
0.0
 43
0.0
 44
0.0
 45
0.0
 46
0.0
 47
0.0
 48
0.0
 49
0.0
140
0.0
141
0.0
142
1.0
143
1.0
 70
  1712
 72
     0
 73
     0
 74
     0
  7

 75
     0
 76
     0
 77
     2
 78
   300
147
1.0
148
0.0
149
0.0
100
AcDbLayout
  1
Model
 70
     1
 71
     0
 10
0.0
 20
0.0
 11
12.0
 21
9.0
 12
0.0
 22
0.0
 32
0.0
 14
-12.34261132210612
 24
0.0005801726551601
 34
0.0
 15
54.11794218689364
 25
77.8364689636519
 35
0.0
146
0.0
 13
0.0
 23
0.0
 33
0.0
 16
1.0
 26
0.0
 36
0.0
 17
0.0
 27
1.0
 37
0.0
 76
     0
330
1F
331
29
  0
MLINESTYLE
  5
18
102
{ACAD_REACTORS
330
17
102
}
330
17
100
AcDbMlineStyle
  2
Standard
 70
     0
  3

 62
   256
 51
90.0
 52
90.0
 71
     2
 49
0.5
 62
   256
  6
BYLAYER
 49
-0.5
 62
   256
  6
BYLAYER
  0
ACDBPLACEHOLDER
  5
F
102
{ACAD_REACTORS
330
E
102
}
330
E
  0
VISUALSTYLE
  5
2F
102
{ACAD_REACTORS
330
2A
102
}
330
2A
100
AcDbVisualStyle
  2
2dWireframe
 70
     4
 71
     0
 72
     2
 73
     0
 90
        0
 40
-0.6
 41
-30.0
 62
     5
 63
     7
421
 16777215
 74
     1
 91
        4
 64
     7
 65
   257
 75
     1
175
     1
 42
1.0
 92
        0
 66
   257
 43
1.0
 76
     1
 77
     6
 78
     2
 67
     7
 79
     5
170
     0
171
     0
290
     0
174
     0
 93
        1
 44
0.0
173
     0
291
     0
 45
0.0
1001
ACAD
1000
AcDbSavedByObjectVersion
1070
     0
  0
VISUALSTYLE
  5
31
102
{ACAD_REACTORS
330
2A
102
}
330
2A
100
AcDbVisualStyle
  2
3D Hidden
 70
     6
 71
     1
 72
     2
 73
     2
 90
        0
 40
-0.6
 41
-30.0
 62
     5
 63
     7
421
 16777215
 74
     2
 91
        2
 64
     7
 65
   257
 75
     2
175
     1
 42
40.0
 92
        0
 66
   257
 43
1.0
 76
     1
 77
     6
 78
     2
 67
     7
 79
     3
170
     0
171
     0
290
     0
174
     0
 93
        1
 44
0.0
173
     0
291
     0
 45
0.0
1001
ACAD
1000
AcDbSavedByObjectVersion
1070
     0
  0
VISUALSTYLE
  5
30
102
{ACAD_REACTORS
330
2A
102
}
330
2A
100
AcDbVisualStyle
  2
3dWireframe
 70
     5
 71
     0
 72
     2
 73
     0
 90
        0
 40
-0.6
 41
-30.0
 62
     5
 63
     7
421
 16777215
 74
     1
 91
        4
 64
     7
 65
   257
 75
     1
175
     1
 42
1.0
 92
        0
 66
   257
 43
1.0
 76
     1
 77
     6
 78
     2
 67
     7
 79
     5
170
     0
171
     0
290
     0
174
     0
 93
        1
 44
0.0
173
     0
291
     0
 45
0.0
1001
ACAD
1000
AcDbSavedByObjectVersion
1070
     0
  0
VISUALSTYLE
  5
32
102
{ACAD_REACTORS
330
2A
102
}
330
2A
100
AcDbVisualStyle
  2
Basic
 70
     7
 71
     1
 72
     0
 73
     1
 90
        0
 40
-0.6
 41
-30.0
 62
     5
 63
     7
421
 16777215
 74
     0
 91
        4
 64
     7
 65
   257
 75
     1
175
     1
 42
1.0
 92
        8
 66
     7
 43
1.0
 76
     1
 77
     6
 78
     2
 67
     7
 79
     5
170
     0
171
     0
290
     0
174
     0
 93
        1
 44
0.0
173
     0
291
     1
 45
0.0
1001
ACAD
1000
AcDbSavedByObjectVersion
1070
     0
  0
VISUALSTYLE
  5
36
102
{ACAD_REACTORS
330
2A
102
}
330
2A
100
AcDbVisualStyle
  2
Brighten
 70
    12
 71
     2
 72
     2
 73
     0
 90
        0
 40
-0.6
 41
-30.0
 62
     5
 63
     7
421
 16777215
 74
     1
 91
        4
 64
     7
 65
   257
 75
     1
175
     1
 42
1.0
 92
        8
 66
     7
 43
1.0
 76
     1
 77
     6
 78
     2
 67
     7
 79
     5
170
     0
171
     0
290
     0
174
     0
 93
        1
 44
50.0
173
     0
291
     1
 45
0.0
1001
ACAD
1000
AcDbSavedByObjectVersion
1070
     0
  0
VISUALSTYLE
  5
3A
102
{ACAD_REACTORS
330
2A
102
}
330
2A
100
AcDbVisualStyle
  2
ColorChange
 70
    16
 71
     2
 72
     2
 73
     3
 90
        0
 40
-0.6
 41
-30.0
 62
     5
 63
     8
421
  8421504
 74
     1
 91
        4
 64
     7
 65
   257
 75
     1
175
     1
 42
1.0
 92
        8
 66
     8
424
  8421504
 43
1.0
 76
     1
 77
     6
 78
     2
 67
     7
 79
     5
170
     0
171
     0
290
     0
174
     0
 93
        1
 44
0.0
173
     0
291
     1
 45
0.0
1001
ACAD
1000
AcDbSavedByObjectVersion
1070
     0
  0
VISUALSTYLE
  5
34
102
{ACAD_REACTORS
330
2A
102
}
330
2A
100
AcDbVisualStyle
  2
Conceptual
 70
     9
 71
     3
 72
     2
 73
     0
 90
        0
 40
-0.6
 41
-30.0
 62
     5
 63
     7
421
 16777215
 74
     2
 91
        2
 64
     7
 65
   257
 75
     1
175
     1
 42
40.0
 92
        8
 66
     7
 43
1.0
 76
     1
 77
     6
 78
     2
 67
     7
 79
     3
170
     0
171
     0
290
     0
174
     0
 93
        1
 44
0.0
173
     0
291
     0
 45
0.0
1001
ACAD
1000
AcDbSavedByObjectVersion
1070
     0
  0
VISUALSTYLE
  5
35
102
{ACAD_REACTORS
330
2A
102
}
330
2A
100
AcDbVisualStyle
  2
Dim
 70
    11
 71
     2
 72
     2
 73
     0
 90
        0
 40
-0.6
 41
-30.0
 62
     5
 63
     7
421
 16777215
 74
     1
 91
        4
 64
     7
 65
   257
 75
     1
175
     1
 42
1.0
 92
        8
 66
     7
 43
1.0
 76
     1
 77
     6
 78
     2
 67
     7
 79
     5
170
     0
171
     0
290
     0
174
     0
 93
        1
 44
-50.0
173
     0
291
     1
 45
0.0
1001
ACAD
1000
AcDbSavedByObjectVersion
1070
     0
  0
VISUALSTYLE
  5
39
102
{ACAD_REACTORS
330
2A
102
}
330
2A
100
AcDbVisualStyle
  2
Facepattern
 70
    15
 71
     2
 72
     2
 73
     0
 90
        0
 40
-0.6
 41
-30.0
 62
     5
 63
     7
421
 16777215
 74
     1
 91
        4
 64
     7
 65
   257
 75
     1
175
     1
 42
1.0
 92
        8
 66
     7
 43
1.0
 76
     1
 77
     6
 78
     2
 67
     7
 79
     5
170
     0
171
     0
290
     0
174
     0
 93
        1
 44
0.0
173
     0
291
     1
 45
0.0
1001
ACAD
1000
AcDbSavedByObjectVersion
1070
     0
  0
VISUALSTYLE
  5
2B
102
{ACAD_REACTORS
330
2A
102
}
330
2A
100
AcDbVisualStyle
  2
Flat
 70
     0
 71
     2
 72
     1
 73
     1
 90
        2
 40
-0.6
 41
30.0
 62
     5
 63
     7
421
 16777215
 74
     0
 91
        4
 64
     7
 65
   257
 75
     1
175
     1
 42
1.0
 92
        8
 66
     7
 43
1.0
 76
     1
 77
     6
 78
     2
 67
     7
 79
     5
170
     0
171
     0
290
     0
174
     0
 93
       13
 44
0.0
173
     0
291
     1
 45
0.0
1001
ACAD
1000
AcDbSavedByObjectVersion
1070
     0
  0
VISUALSTYLE
  5
2C
102
{ACAD_REACTORS
330
2A
102
}
330
2A
100
AcDbVisualStyle
  2
FlatWithEdges
 70
     1
 71
     2
 72
     1
 73
     1
 90
        2
 40
-0.6
 41
30.0
 62
     5
 63
     7
421
 16777215
 74
     1
 91
        4
 64
     7
 65
   257
 75
     1
175
     1
 42
1.0
 92
        0
 66
   257
 43
1.0
 76
     1
 77
     6
 78
     2
 67
     7
 79
     5
170
     0
171
     0
290
     0
174
     0
 93
       13
 44
0.0
173
     0
291
     1
 45
0.0
1001
ACAD
1000
AcDbSavedByObjectVersion
1070
     0
  0
VISUALSTYLE
  5
2D
102
{ACAD_REACTORS
330
2A
102
}
330
2A
100
AcDbVisualStyle
  2
Gouraud
 70
     2
 71
     2
 72
     2
 73
     1
 90
        2
 40
-0.6
 41
30.0
 62
     5
 63
     7
421
 16777215
 74
     0
 91
        4
 64
     7
 65
   257
 75
     1
175
     1
 42
1.0
 92
        0
 66
     7
 43
1.0
 76
     1
 77
     6
 78
     2
 67
     7
 79
     5
170
     0
171
     0
290
     0
174
     0
 93
       13
 44
0.0
173
     0
291
     1
 45
0.0
1001
ACAD
1000
AcDbSavedByObjectVersion
1070
     0
  0
VISUALSTYLE
  5
2E
102
{ACAD_REACTORS
330
2A
102
}
330
2A
100
AcDbVisualStyle
  2
GouraudWithEdges
 70
     3
 71
     2
 72
     2
 73
     1
 90
        2
 40
-0.6
 41
30.0
 62
     5
 63
     7
421
 16777215
 74
     1
 91
        4
 64
     7
 65
   257
 75
     1
175
     1
 42
1.0
 92
        0
 66
   257
 43
1.0
 76
     1
 77
     6
 78
     2
 67
     7
 79
     5
170
     0
171
     0
290
     0
174
     0
 93
       13
 44
0.0
173
     0
291
     1
 45
0.0
1001
ACAD
1000
AcDbSavedByObjectVersion
1070
     0
  0
VISUALSTYLE
  5
38
102
{ACAD_REACTORS
330
2A
102
}
330
2A
100
AcDbVisualStyle
  2
Linepattern
 70
    14
 71
     2
 72
     2
 73
     0
 90
        0
 40
-0.6
 41
-30.0
 62
     5
 63
     7
421
 16777215
 74
     1
 91
        4
 64
     7
 65
   257
 75
     7
175
     7
 42
1.0
 92
        8
 66
     7
 43
1.0
 76
     1
 77
     6
 78
     2
 67
     7
 79
     5
170
     0
171
     0
290
     0
174
     0
 93
        1
 44
0.0
173
     0
291
     1
 45
0.0
1001
ACAD
1000
AcDbSavedByObjectVersion
1070
     0
  0
VISUALSTYLE
  5
33
102
{ACAD_REACTORS
330
2A
102
}
330
2A
100
AcDbVisualStyle
  2
Realistic
 70
     8
 71
     2
 72
     2
 73
     0
 90
        0
 40
-0.6
 41
-30.0
 62
     5
 63
     7
421
 16777215
 74
     1
 91
        0
 64
     7
 65
   257
 75
     1
175
     1
 42
1.0
 92
        8
 66
     8
424
  7895160
 43
1.0
 76
     1
 77
     6
 78
     2
 67
     7
 79
     5
170
     0
171
     0
290
     0
174
     0
 93
       13
 44
0.0
173
     0
291
     0
 45
0.0
1001
ACAD
1000
AcDbSavedByObjectVersion
1070
     0
  0
VISUALSTYLE
  5
37
102
{ACAD_REACTORS
330
2A
102
}
330
2A
100
AcDbVisualStyle
  2
Thicken
 70
    13
 71
     2
 72
     2
 73
     0
 90
        0
 40
-0.6
 41
-30.0
 62
     5
 63
     7
421
 16777215
 74
     1
 91
        4
 64
     7
 65
   257
 75
     1
175
     1
 42
1.0
 92
       12
 66
     7
 43
1.0
 76
     1
 77
     6
 78
     2
 67
     7
 79
     5
170
     0
171
     0
290
     0
174
     0
 93
        1
 44
0.0
173
     0
291
     1
 45
0.0
1001
ACAD
1000
AcDbSavedByObjectVersion
1070
     0
  0
ENDSEC
  0
EOF
