  0
SECTION
  2
HEADER
  9
$ACADVER
  1
AC1018
  9
$ACADMAINTVER
 70
     0
  9
$DWGCODEPAGE
  3
ANSI_1252
  9
$INSBASE
 10
0.0
 20
0.0
 30
0.0
  9
$EXTMIN
 10
-10.08750908809881
 20
-0.0113540416246758
 30
0.0
  9
$EXTMAX
 10
49.65849416984513
 20
66.47486563784624
 30
0.0
  9
$LIMMIN
 10
0.0
 20
0.0
  9
$LIMMAX
 10
12.0
 20
9.0
  9
$ORTHOMODE
 70
     0
  9
$REGENMODE
 70
     1
  9
$FILLMODE
 70
     1
  9
$QTEXTMODE
 70
     0
  9
$MIRRTEXT
 70
     1
  9
$LTSCALE
 40
0.0393700787401575
  9
$ATTMODE
 70
     1
  9
$TEXTSIZE
 40
0.2
  9
$TRACEWID
 40
0.05
  9
$TEXTSTYLE
  7
Standard
  9
$CLAYER
  8
Default
  9
$CELTYPE
  6
ByLayer
  9
$CECOLOR
 62
   256
  9
$CELTSCALE
 40
1.0
  9
$DISPSILH
 70
     0
  9
$DIMSCALE
 40
1.0
  9
$DIMASZ
 40
0.18
  9
$DIMEXO
 40
0.0625
  9
$DIMDLI
 40
0.38
  9
$DIMRND
 40
0.0
  9
$DIMDLE
 40
0.0
  9
$DIMEXE
 40
0.18
  9
$DIMTP
 40
0.0
  9
$DIMTM
 40
0.0
  9
$DIMTXT
 40
0.18
  9
$DIMCEN
 40
0.09
  9
$DIMTSZ
 40
0.0
  9
$DIMTOL
 70
     0
  9
$DIMLIM
 70
     0
  9
$DIMTIH
 70
     1
  9
$DIMTOH
 70
     1
  9
$DIMSE1
 70
     0
  9
$DIMSE2
 70
     0
  9
$DIMTAD
 70
     0
  9
$DIMZIN
 70
     0
  9
$DIMBLK
  1

  9
$DIMASO
 70
     1
  9
$DIMSHO
 70
     1
  9
$DIMPOST
  1

  9
$DIMAPOST
  1

  9
$DIMALT
 70
     0
  9
$DIMALTD
 70
     2
  9
$DIMALTF
 40
25.4
  9
$DIMLFAC
 40
1.0
  9
$DIMTOFL
 70
     0
  9
$DIMTVP
 40
0.0
  9
$DIMTIX
 70
     0
  9
$DIMSOXD
 70
     0
  9
$DIMSAH
 70
     0
  9
$DIMBLK1
  1

  9
$DIMBLK2
  1

  9
$DIMSTYLE
  2
Standard
  9
$DIMCLRD
 70
     0
  9
$DIMCLRE
 70
     0
  9
$DIMCLRT
 70
     0
  9
$DIMTFAC
 40
1.0
  9
$DIMGAP
 40
0.09
  9
$DIMJUST
 70
     0
  9
$DIMSD1
 70
     0
  9
$DIMSD2
 70
     0
  9
$DIMTOLJ
 70
     1
  9
$DIMTZIN
 70
     0
  9
$DIMALTZ
 70
     0
  9
$DIMALTTZ
 70
     0
  9
$DIMUPT
 70
     0
  9
$DIMDEC
 70
     4
  9
$DIMTDEC
 70
     4
  9
$DIMALTU
 70
     2
  9
$DIMALTTD
 70
     2
  9
$DIMTXSTY
  7
Standard
  9
$DIMAUNIT
 70
     0
  9
$DIMADEC
 70
     0
  9
$DIMALTRND
 40
0.0
  9
$DIMAZIN
 70
     0
  9
$DIMDSEP
 70
    46
  9
$DIMATFIT
 70
     3
  9
$DIMFRAC
 70
     0
  9
$DIMLDRBLK
  1

  9
$DIMLUNIT
 70
     2
  9
$DIMLWD
 70
    -2
  9
$DIMLWE
 70
    -2
  9
$DIMTMOVE
 70
     2
  9
$LUNITS
 70
     2
  9
$LUPREC
 70
     3
  9
$SKETCHINC
 40
0.1
  9
$FILLETRAD
 40
0.5
  9
$AUNITS
 70
     0
  9
$AUPREC
 70
     0
  9
$MENU
  1
.
  9
$ELEVATION
 40
0.0
  9
$PELEVATION
 40
0.0
  9
$THICKNESS
 40
0.0
  9
$LIMCHECK
 70
     0
  9
$CHAMFERA
 40
0.5
  9
$CHAMFERB
 40
0.5
  9
$CHAMFERC
 40
1.0
  9
$CHAMFERD
 40
0.0
  9
$SKPOLY
 70
     0
  9
$TDCREATE
 40
2456462.516802789
  9
$TDUCREATE
 40
2456462.683469456
  9
$TDUPDATE
 40
2456462.516802801
  9
$TDUUPDATE
 40
2456462.683469468
  9
$TDINDWG
 40
0.0000000116
  9
$TDUSRTIMER
 40
0.0000000116
  9
$USRTIMER
 70
     1
  9
$ANGBASE
 50
0.0
  9
$ANGDIR
 70
     0
  9
$PDMODE
 70
     0
  9
$PDSIZE
 40
0.0
  9
$PLINEWID
 40
0.0
  9
$SPLFRAME
 70
     0
  9
$SPLINETYPE
 70
     6
  9
$SPLINESEGS
 70
     8
  9
$HANDSEED
  5
14E
  9
$SURFTAB1
 70
     6
  9
$SURFTAB2
 70
     6
  9
$SURFTYPE
 70
     6
  9
$SURFU
 70
     6
  9
$SURFV
 70
     6
  9
$UCSBASE
  2

  9
$UCSNAME
  2

  9
$UCSORG
 10
0.0
 20
0.0
 30
0.0
  9
$UCSXDIR
 10
1.0
 20
0.0
 30
0.0
  9
$UCSYDIR
 10
0.0
 20
1.0
 30
0.0
  9
$UCSORTHOREF
  2

  9
$UCSORTHOVIEW
 70
     0
  9
$UCSORGTOP
 10
0.0
 20
0.0
 30
0.0
  9
$UCSORGBOTTOM
 10
0.0
 20
0.0
 30
0.0
  9
$UCSORGLEFT
 10
0.0
 20
0.0
 30
0.0
  9
$UCSORGRIGHT
 10
0.0
 20
0.0
 30
0.0
  9
$UCSORGFRONT
 10
0.0
 20
0.0
 30
0.0
  9
$UCSORGBACK
 10
0.0
 20
0.0
 30
0.0
  9
$PUCSBASE
  2

  9
$PUCSNAME
  2

  9
$PUCSORG
 10
0.0
 20
0.0
 30
0.0
  9
$PUCSXDIR
 10
1.0
 20
0.0
 30
0.0
  9
$PUCSYDIR
 10
0.0
 20
1.0
 30
0.0
  9
$PUCSORTHOREF
  2

  9
$PUCSORTHOVIEW
 70
     0
  9
$PUCSORGTOP
 10
0.0
 20
0.0
 30
0.0
  9
$PUCSORGBOTTOM
 10
0.0
 20
0.0
 30
0.0
  9
$PUCSORGLEFT
 10
0.0
 20
0.0
 30
0.0
  9
$PUCSORGRIGHT
 10
0.0
 20
0.0
 30
0.0
  9
$PUCSORGFRONT
 10
0.0
 20
0.0
 30
0.0
  9
$PUCSORGBACK
 10
0.0
 20
0.0
 30
0.0
  9
$USERI1
 70
     0
  9
$USERI2
 70
     0
  9
$USERI3
 70
     0
  9
$USERI4
 70
     0
  9
$USERI5
 70
     0
  9
$USERR1
 40
0.0
  9
$USERR2
 40
0.0
  9
$USERR3
 40
0.0
  9
$USERR4
 40
0.0
  9
$USERR5
 40
0.0
  9
$WORLDVIEW
 70
     1
  9
$SHADEDGE
 70
     3
  9
$SHADEDIF
 70
    70
  9
$TILEMODE
 70
     1
  9
$MAXACTVP
 70
    64
  9
$PINSBASE
 10
0.0
 20
0.0
 30
0.0
  9
$PLIMCHECK
 70
     0
  9
$PEXTMIN
 10
1.000000000000000E+20
 20
1.000000000000000E+20
 30
1.000000000000000E+20
  9
$PEXTMAX
 10
-1.000000000000000E+20
 20
-1.000000000000000E+20
 30
-1.000000000000000E+20
  9
$PLIMMIN
 10
0.0
 20
0.0
  9
$PLIMMAX
 10
12.0
 20
9.0
  9
$UNITMODE
 70
     0
  9
$VISRETAIN
 70
     1
  9
$PLINEGEN
 70
     0
  9
$PSLTSCALE
 70
     1
  9
$TREEDEPTH
 70
  3020
  9
$CMLSTYLE
  2
Standard
  9
$CMLJUST
 70
     0
  9
$CMLSCALE
 40
1.0
  9
$PROXYGRAPHICS
 70
     1
  9
$MEASUREMENT
 70
     0
  9
$CELWEIGHT
370
    -1
  9
$ENDCAPS
280
     0
  9
$JOINSTYLE
280
     0
  9
$LWDISPLAY
290
     0
  9
$INSUNITS
 70
     1
  9
$HYPERLINKBASE
  1

  9
$STYLESHEET
  1

  9
$XEDIT
290
     1
  9
$CEPSNTYPE
380
     0
  9
$PSTYLEMODE
290
     1
  9
$FINGERPRINTGUID
  2
{149F0FD9-5209-4FB4-A934-A731928D425F}
  9
$VERSIONGUID
  2
{FAEB1C32-E019-11D5-929B-00C0DF256EC4}
  9
$EXTNAMES
290
     1
  9
$PSVPSCALE
 40
0.0
  9
$OLESTARTUP
290
     0
  9
$SORTENTS
280
   127
  9
$INDEXCTL
280
     0
  9
$HIDETEXT
280
     1
  9
$XCLIPFRAME
290
     0
  9
$HALOGAP
280
     0
  9
$OBSCOLOR
 70
   257
  9
$OBSLTYPE
280
     0
  9
$INTERSECTIONDISPLAY
280
     0
  9
$INTERSECTIONCOLOR
 70
   257
  9
$DIMASSOC
280
     2
  9
$PROJECTNAME
  1

  0
ENDSEC
  0
SECTION
  2
CLASSES
  0
CLASS
  1
ACDBDICTIONARYWDFLT
  2
AcDbDictionaryWithDefault
  3
ObjectDBX Classes
 90
        0
 91
        4
280
     0
281
     0
  0
CLASS
  1
VISUALSTYLE
  2
AcDbVisualStyle
  3
ObjectDBX Classes
 90
     4095
 91
        4
280
     0
281
     0
  0
ENDSEC
  0
SECTION
  2
TABLES
  0
TABLE
  2
VPORT
  5
8
330
0
100
AcDbSymbolTable
 70
     1
  0
VPORT
  5
29
330
8
100
AcDbSymbolTableRecord
100
AcDbViewportTableRecord
  2
*Active
 70
     0
 10
0.0
 20
0.0
 11
1.0
 21
1.0
 12
19.78549254087316
 22
33.23175579811078
 13
0.0
 23
0.0
 14
0.5
 24
0.5
 15
0.5
 25
0.5
 16
0.0
 26
0.0
 36
1.0
 17
0.0
 27
0.0
 37
0.0
 40
67.81594407306032
 41
0.8986223543161057
 42
50.0
 43
0.0
 44
0.0
 50
0.0
 51
0.0
 71
     0
 72
   100
 73
     1
 74
     3
 75
     0
 76
     0
 77
     0
 78
     0
281
     0
 65
     1
110
0.0
120
0.0
130
0.0
111
1.0
121
0.0
131
0.0
112
0.0
122
1.0
132
0.0
 79
     0
146
0.0
  0
ENDTAB
  0
TABLE
  2
LTYPE
  5
5
330
0
100
AcDbSymbolTable
 70
     1
  0
LTYPE
  5
14
330
5
100
AcDbSymbolTableRecord
100
AcDbLinetypeTableRecord
  2
ByBlock
 70
     0
  3

 72
    65
 73
     0
 40
0.0
  0
LTYPE
  5
15
330
5
100
AcDbSymbolTableRecord
100
AcDbLinetypeTableRecord
  2
ByLayer
 70
     0
  3

 72
    65
 73
     0
 40
0.0
  0
LTYPE
  5
16
330
5
100
AcDbSymbolTableRecord
100
AcDbLinetypeTableRecord
  2
Continuous
 70
     0
  3
Solid line
 72
    65
 73
     0
 40
0.0
  0
ENDTAB
  0
TABLE
  2
LAYER
  5
2
330
0
100
AcDbSymbolTable
 70
     2
  0
LAYER
  5
10
330
2
100
AcDbSymbolTableRecord
100
AcDbLayerTableRecord
  2
0
 70
     0
 62
     7
  6
Continuous
370
    -3
390
F
  0
LAYER
  5
3B
330
2
100
AcDbSymbolTableRecord
100
AcDbLayerTableRecord
  2
Default
 70
     0
 62
     7
  6
Continuous
370
    -3
390
F
  0
ENDTAB
  0
TABLE
  2
STYLE
  5
3
330
0
100
AcDbSymbolTable
 70
     1
  0
STYLE
  5
11
330
3
100
AcDbSymbolTableRecord
100
AcDbTextStyleTableRecord
  2
Standard
 70
     0
 40
0.0
 41
1.0
 50
0.0
 71
     0
 42
0.2
  3
txt
  4

  0
ENDTAB
  0
TABLE
  2
VIEW
  5
6
330
0
100
AcDbSymbolTable
 70
     0
  0
ENDTAB
  0
TABLE
  2
UCS
  5
7
330
0
100
AcDbSymbolTable
 70
     0
  0
ENDTAB
  0
TABLE
  2
APPID
  5
9
330
0
100
AcDbSymbolTable
 70
     1
  0
APPID
  5
12
330
9
100
AcDbSymbolTableRecord
100
AcDbRegAppTableRecord
  2
ACAD
 70
     0
  0
ENDTAB
  0
TABLE
  2
DIMSTYLE
  5
A
330
0
100
AcDbSymbolTable
 70
     1
100
AcDbDimStyleTable
  0
DIMSTYLE
105
27
330
A
100
AcDbSymbolTableRecord
100
AcDbDimStyleTableRecord
  2
Standard
 70
     0
340
11
  0
ENDTAB
  0
TABLE
  2
BLOCK_RECORD
  5
1
330
0
100
AcDbSymbolTable
 70
     1
  0
BLOCK_RECORD
  5
1F
330
1
100
AcDbSymbolTableRecord
100
AcDbBlockTableRecord
  2
*Model_Space
340
22
  0
BLOCK_RECORD
  5
1B
330
1
100
AcDbSymbolTableRecord
100
AcDbBlockTableRecord
  2
*Paper_Space
340
1E
  0
BLOCK_RECORD
  5
23
330
1
100
AcDbSymbolTableRecord
100
AcDbBlockTableRecord
  2
*Paper_Space0
340
26
  0
ENDTAB
  0
ENDSEC
  0
SECTION
  2
BLOCKS
  0
BLOCK
  5
20
330
1F
100
AcDbEntity
  8
0
100
AcDbBlockBegin
  2
*Model_Space
 70
     0
 10
0.0
 20
0.0
 30
0.0
  3
*Model_Space
  1

  0
ENDBLK
  5
21
330
1F
100
AcDbEntity
  8
0
100
AcDbBlockEnd
  0
BLOCK
  5
1C
330
1B
100
AcDbEntity
 67
     1
  8
0
100
AcDbBlockBegin
  2
*Paper_Space
 70
     0
 10
0.0
 20
0.0
 30
0.0
  3
*Paper_Space
  1

  0
ENDBLK
  5
1D
330
1B
100
AcDbEntity
 67
     1
  8
0
100
AcDbBlockEnd
  0
BLOCK
  5
24
330
23
100
AcDbEntity
  8
0
100
AcDbBlockBegin
  2
*Paper_Space0
 70
     0
 10
0.0
 20
0.0
 30
0.0
  3
*Paper_Space0
  1

  0
ENDBLK
  5
25
330
23
100
AcDbEntity
  8
0
100
AcDbBlockEnd
  0
ENDSEC
  0
SECTION
  2
ENTITIES
  0
ARC
  5
3C
330
1F
100
AcDbEntity
  8
Default
100
AcDbCircle
 10
-58.07554192356182
 20
46.28826511050657
 30
0.0
 40
67.04679918662893
100
AcDbArc
 50
11.76267804767357
 51
11.76339390728809
  0
SPLINE
  5
3D
330
1F
100
AcDbEntity
  8
Default
100
AcDbSpline
210
0.0
220
0.0
230
1.0
 70
     8
 71
     3
 72
    10
 73
     6
 74
     0
 42
0.0000000001
 43
0.0000000001
 40
0.0
 40
0.0
 40
0.0
 40
0.0
 40
4.24895968232277
 40
6.486393074541591
 40
6.886715423552491
 40
6.886715423552491
 40
6.886715423552491
 40
6.886715423552491
 10
7.563300491512663
 20
59.95631718756439
 30
0.0
 10
7.852016165278329
 20
58.56980193972792
 30
0.0
 10
8.225791986008502
 20
56.43875928146443
 30
0.0
 10
8.49158333346987
 20
54.15822059720302
 30
0.0
 10
8.581607600318316
 20
53.28357502894011
 30
0.0
 10
8.595001132695803
 20
53.15080762936117
 30
0.0
  0
SPLINE
  5
3E
330
1F
100
AcDbEntity
  8
Default
100
AcDbSpline
210
0.0
220
0.0
230
1.0
 70
     8
 71
     3
 72
     8
 73
     4
 74
     0
 42
0.0000000001
 43
0.0000000001
 40
21.52488291523951
 40
21.52488291523951
 40
21.52488291523951
 40
21.52488291523951
 40
24.46596690678671
 40
24.46596690678671
 40
24.46596690678671
 40
24.46596690678671
 10
2.939816714987985
 20
43.68269359664337
 30
0.0
 10
1.960687243757645
 20
43.63280582981346
 30
0.0
 10
0.9804965926063213
 20
43.60457959693624
 30
0.0
 10
0.0000959386099879
 20
43.60293885320902
 30
0.0
  0
SPLINE
  5
3F
330
1F
100
AcDbEntity
  8
Default
100
AcDbSpline
210
0.0
220
0.0
230
1.0
 70
     8
 71
     3
 72
    21
 73
    17
 74
     0
 42
0.0000000001
 43
0.0000000001
 40
24.46596690678671
 40
24.46596690678671
 40
24.46596690678671
 40
24.46596690678671
 40
27.72223632071433
 40
31.06625574070116
 40
32.42547696658934
 40
32.82735322848757
 40
33.12657573285964
 40
33.4100113728441
 40
33.66796334267045
 40
34.39342643974651
 40
35.68712283049939
 40
37.32776181063267
 40
39.88695385814246
 40
42.54145534509678
 40
44.77891088678392
 40
48.93209882734814
 40
48.93209882734814
 40
48.93209882734814
 40
48.93209882734814
 10
0.0000959386099879
 20
43.60293885320902
 30
0.0
 10
-1.085371332464476
 20
43.60454865098176
 30
0.0
 10
-3.285040801335697
 20
43.67460576250585
 30
0.0
 10
-5.930533244657653
 20
43.88697764349905
 30
0.0
 10
-7.619967241754139
 20
44.09073768948694
 30
0.0
 10
-8.301884959814927
 20
44.17892786840395
 30
0.0
 10
-8.60958992232004
 20
44.30489758013819
 30
0.0
 10
-8.791045162250313
 20
44.53651974180539
 30
0.0
 10
-8.881044649479762
 20
44.94906523788602
 30
0.0
 10
-8.971338853291726
 20
45.7042917279536
 30
0.0
 10
-9.026881558848501
 20
46.9230592643512
 30
0.0
 10
-8.94773152647953
 20
48.75441728186783
 30
0.0
 10
-8.797575942450564
 20
51.03335920121664
 30
0.0
 10
-8.568855393703373
 20
53.50721571800756
 30
0.0
 10
-8.21552819035891
 20
56.5018370329113
 30
0.0
 10
-7.845449543166993
 20
58.60103160166224
 30
0.0
 10
-7.563301746222677
 20
59.9563110595592
 30
0.0
  0
ARC
  5
40
330
1F
100
AcDbEntity
  8
Default
100
AcDbCircle
 10
58.51348589616747
 20
46.20016655827123
 30
0.0
 40
67.49350618154193
100
AcDbArc
 50
168.2391569460687
 51
168.2398994819786
  0
SPLINE
  5
41
330
1F
100
AcDbEntity
  8
Default
100
AcDbSpline
210
0.0
220
0.0
230
1.0
 70
     8
 71
     3
 72
    22
 73
    18
 74
     0
 42
0.0000000001
 43
0.0000000001
 40
5.110122462020541
 40
5.110122462020541
 40
5.110122462020541
 40
5.110122462020541
 40
7.265127158026213
 40
9.464634970471486
 40
10.50792771554964
 40
11.04608721692744
 40
11.90263488065174
 40
12.51359099807393
 40
13.07184061358761
 40
13.34358482319183
 40
13.66468127983847
 40
13.87023725417877
 40
14.1392501449203
 40
14.60355914869473
 40
16.89489022454978
 40
18.31961139357607
 40
21.90305721666807
 40
21.90305721666807
 40
21.90305721666807
 40
21.90305721666807
 10
9.499044548240633
 20
27.26353951767176
 30
0.0
 10
9.54882780792237
 20
26.54694552218102
 30
0.0
 10
9.615027131521122
 20
25.09650280140628
 30
0.0
 10
9.620787293415674
 20
23.29700565882125
 30
0.0
 10
9.603712346801231
 20
22.03679395363485
 30
0.0
 10
9.570739429672471
 20
21.224744929394
 30
0.0
 10
9.470121521796159
 20
20.56148598201888
 30
0.0
 10
9.210246841564299
 20
19.92774826590455
 30
0.0
 10
8.821580927670396
 20
19.61111092985596
 30
0.0
 10
8.44385329190385
 20
19.52275477008885
 30
0.0
 10
8.17680241707977
 20
19.52582058000318
 30
0.0
 10
7.913282275884129
 20
19.55729439572802
 30
0.0
 10
7.605759843094603
 20
19.61553535636517
 30
0.0
 10
6.62232096455827
 20
19.8380979649071
 30
0.0
 10
5.264566062244668
 20
20.15111943590303
 30
0.0
 10
2.865995315071402
 20
20.57063432459961
 30
0.0
 10
1.193843726563372
 20
20.65696299364373
 30
0.0
 10
-0.0000000000493259
 20
20.66051271145769
 30
0.0
  0
SPLINE
  5
42
330
1F
100
AcDbEntity
  8
Default
100
AcDbSpline
210
0.0
220
0.0
230
1.0
 70
     8
 71
     3
 72
    26
 73
    22
 74
     0
 42
0.0000000001
 43
0.0000000001
 40
0.0
 40
0.0
 40
0.0
 40
0.0
 40
3.568027598264818
 40
4.977684209065928
 40
7.136081633899624
 40
7.767117340841343
 40
8.054470297226516
 40
8.238314726573943
 40
8.562234147002684
 40
8.834034938032582
 40
9.39351872756103
 40
10.02128542580329
 40
10.87701439899562
 40
11.43118504617113
 40
12.51846683612477
 40
14.66893305996588
 40
18.28241650892279
 40
20.11836050717015
 40
20.7553909135477
 40
21.74450896833999
 40
21.90307117797069
 40
21.90307117797069
 40
21.90307117797069
 40
21.90307117797069
 10
-0.0000000000493259
 20
20.66051271145769
 30
0.0
 10
-1.188728930283844
 20
20.65683338012148
 30
0.0
 10
-2.850611067859262
 20
20.57192895111216
 30
0.0
 10
-5.196058970344282
 20
20.16437022133035
 30
0.0
 10
-6.5599925442624
 20
19.85050341156459
 30
0.0
 10
-7.561081871061006
 20
19.62719549234419
 30
0.0
 10
-7.921066094020901
 20
19.5539754798683
 30
0.0
 10
-8.185095468140744
 20
19.52690089116275
 30
0.0
 10
-8.445762297022853
 20
19.5218574059039
 30
0.0
 10
-8.824977565377353
 20
19.61368716321232
 30
0.0
 10
-9.216191462690901
 20
19.93322775906507
 30
0.0
 10
-9.475079429567401
 20
20.57841112418779
 30
0.0
 10
-9.571695114465186
 20
21.24908823019127
 30
0.0
 10
-9.605793412933807
 20
22.08273925461557
 30
0.0
 10
-9.620096063102451
 20
23.3456049063163
 30
0.0
 10
-9.61164877447517
 20
25.63028102216176
 30
0.0
 10
-9.458751751016663
 20
28.16055773688477
 30
0.0
 10
-9.203975020798552
 20
30.17417957018296
 30
0.0
 10
-9.030758448625065
 20
31.31498932738526
 30
0.0
 10
-8.925310186949574
 20
31.9005721460908
 30
0.0
 10
-8.858562436503846
 20
32.27724447326899
 30
0.0
 10
-8.85233507012309
 20
32.3297787172793
 30
0.0
  0
SPLINE
  5
43
330
1F
100
AcDbEntity
  8
Default
100
AcDbSpline
210
0.0
220
0.0
230
1.0
 70
     8
 71
     3
 72
     9
 73
     5
 74
     0
 42
0.0000000001
 43
0.0000000001
 40
-2.0
 40
-2.0
 40
-2.0
 40
-2.0
 40
-1.0
 40
0.0
 40
0.0
 40
0.0
 40
0.0
 10
-8.85233507012309
 20
32.3297787172793
 30
0.0
 10
-8.839641960951795
 20
32.43241455769909
 30
0.0
 10
-8.635702226529943
 20
32.60522471377677
 30
0.0
 10
-8.42449804629176
 20
32.55985122846983
 30
0.0
 10
-8.32706816058267
 20
32.54333426735183
 30
0.0
  0
SPLINE
  5
44
330
1F
100
AcDbEntity
  8
Default
100
AcDbSpline
210
0.0
220
0.0
230
1.0
 70
     8
 71
     3
 72
    13
 73
     9
 74
     0
 42
0.0000000001
 43
0.0000000001
 40
0.0
 40
0.0
 40
0.0
 40
0.0
 40
0.1912706357487035
 40
0.7766714975538425
 40
1.968832649647922
 40
2.616768810483919
 40
4.44392589048225
 40
8.375058875311588
 40
8.375058875311588
 40
8.375058875311588
 40
8.375058875311588
 10
-8.32706816058267
 20
32.54333426735183
 30
0.0
 10
-8.264194665986693
 20
32.53267496729958
 30
0.0
 10
-8.00790645880629
 20
32.49608813966212
 30
0.0
 10
-7.358318347344365
 20
32.40256479134758
 30
0.0
 10
-6.560611418818837
 20
32.27047996399555
 30
0.0
 10
-5.350648090081663
 20
32.09628352497323
 30
0.0
 10
-3.230006643719122
 20
31.84193752088404
 30
0.0
 10
-1.310536576922971
 20
31.74815888734159
 30
0.0
 10
0.0
 20
31.74689456168725
 30
0.0
  0
SPLINE
  5
45
330
1F
100
AcDbEntity
  8
Default
100
AcDbSpline
210
0.0
220
0.0
230
1.0
 70
     8
 71
     3
 72
    15
 73
    11
 74
     0
 42
0.0000000001
 43
0.0000000001
 40
0.0
 40
0.0
 40
0.0
 40
0.0
 40
0.8317524103438192
 40
1.869614384959134
 40
3.931119468114117
 40
5.758312928984045
 40
6.406231648355663
 40
7.674393082349756
 40
8.176239249469356
 40
8.375065424752611
 40
8.375065424752611
 40
8.375065424752611
 40
8.375065424752611
 10
0.0
 20
31.74689456168725
 30
0.0
 10
0.2774397993085671
 20
31.74714140672635
 30
0.0
 10
0.9006915964270803
 20
31.7537007633573
 30
0.0
 10
2.210326889204978
 20
31.79881235953528
 30
0.0
 10
3.848942536611062
 20
31.91584616277209
 30
0.0
 10
5.350620057687379
 20
32.09650851685787
 30
0.0
 10
6.585705487597025
 20
32.27399570867491
 30
0.0
 10
7.380817579288077
 20
32.40640002205599
 30
0.0
 10
8.030483060328706
 20
32.49937591644511
 30
0.0
 10
8.261710468072096
 20
32.53225439737043
 30
0.0
 10
8.32706816058267
 20
32.54333426735183
 30
0.0
  0
SPLINE
  5
46
330
1F
100
AcDbEntity
  8
Default
100
AcDbSpline
210
0.0
220
0.0
230
1.0
 70
     8
 71
     3
 72
     9
 73
     5
 74
     0
 42
0.0000000001
 43
0.0000000001
 40
0.0
 40
0.0
 40
0.0
 40
0.0
 40
1.0
 40
2.0
 40
2.0
 40
2.0
 40
2.0
 10
8.32706816058267
 20
32.54333426735183
 30
0.0
 10
8.42449804629176
 20
32.55985122846983
 30
0.0
 10
8.635702226529943
 20
32.60522471377677
 30
0.0
 10
8.839641960951795
 20
32.43241455769909
 30
0.0
 10
8.85233507012309
 20
32.3297787172793
 30
0.0
  0
SPLINE
  5
47
330
1F
100
AcDbEntity
  8
Default
100
AcDbSpline
210
0.0
220
0.0
230
1.0
 70
     8
 71
     3
 72
    13
 73
     9
 74
     0
 42
0.0000000001
 43
0.0000000001
 40
0.0
 40
0.0
 40
0.0
 40
0.0
 40
0.1585185625933421
 40
0.4655353111170346
 40
1.162233039835535
 40
1.799375291579627
 40
3.636004013738165
 40
4.357816061184138
 40
4.357816061184138
 40
4.357816061184138
 40
4.357816061184138
 10
8.85233507012309
 20
32.3297787172793
 30
0.0
 10
8.85882402863642
 20
32.27730932609401
 30
0.0
 10
8.885069712405326
 20
32.12436500628248
 30
0.0
 10
8.9540749569626
 20
31.74315882056069
 30
0.0
 10
9.047286217815653
 20
31.20417062071344
 30
0.0
 10
9.206432886220526
 20
30.15942831173095
 30
0.0
 10
9.339332607012125
 20
29.10223663716404
 30
0.0
 10
9.41986589074102
 20
28.25323898080553
 30
0.0
 10
9.440600803638242
 20
28.01353951767176
 30
0.0
  0
SPLINE
  5
48
330
1F
100
AcDbEntity
  8
Default
100
AcDbSpline
210
0.0
220
0.0
230
1.0
 70
     8
 71
     3
 72
    10
 73
     6
 74
     0
 42
0.0000000001
 43
0.0000000001
 40
-0.1542574901085702
 40
-0.1542574901085702
 40
-0.1542574901085702
 40
-0.1542574901085702
 40
-0.0815199279409795
 40
-0.0559075622214563
 40
0.0
 40
0.0
 40
0.0
 40
0.0
 10
8.676816256497624
 20
32.53433863912979
 30
0.0
 10
8.70089143538768
 20
32.53694100368541
 30
0.0
 10
8.734317094790931
 20
32.53220900829181
 30
0.0
 10
8.783619928427889
 20
32.52011930853569
 30
0.0
 10
8.836294188102382
 20
32.48611238450574
 30
0.0
 10
8.849998081824591
 20
32.47393965815978
 30
0.0
  0
SPLINE
  5
49
330
1F
100
AcDbEntity
  8
Default
100
AcDbSpline
210
0.0
220
0.0
230
1.0
 70
     8
 71
     3
 72
    10
 73
     6
 74
     0
 42
0.0000000001
 43
0.0000000001
 40
0.0
 40
0.0
 40
0.0
 40
0.0
 40
0.0559075622214563
 40
0.0815199279409795
 40
0.1542574901085697
 40
0.1542574901085697
 40
0.1542574901085697
 40
0.1542574901085697
 10
-8.849998081824591
 20
32.47393965815978
 30
0.0
 10
-8.836294188102382
 20
32.48611238450574
 30
0.0
 10
-8.783619928427889
 20
32.52011930853569
 30
0.0
 10
-8.734317094790931
 20
32.53220900829181
 30
0.0
 10
-8.70089143538768
 20
32.53694100368541
 30
0.0
 10
-8.676816256497625
 20
32.53433863912979
 30
0.0
  0
SPLINE
  5
4A
330
1F
100
AcDbEntity
  8
Default
100
AcDbSpline
210
0.0
220
0.0
230
1.0
 70
     8
 71
     3
 72
     8
 73
     4
 74
     0
 42
0.0000000001
 43
0.0000000001
 40
6.629849317812834
 40
6.629849317812834
 40
6.629849317812834
 40
6.629849317812834
 40
7.894681883043148
 40
7.894681883043148
 40
7.894681883043148
 40
7.894681883043148
 10
6.550597927775581
 20
19.85485729696997
 30
0.0
 10
6.944797825408243
 20
19.70684736498949
 30
0.0
 10
7.326197935557963
 20
19.52618231214624
 30
0.0
 10
7.687292469273153
 20
19.30456946681521
 30
0.0
  0
SPLINE
  5
4B
330
1F
100
AcDbEntity
  8
Default
100
AcDbSpline
210
0.0
220
0.0
230
1.0
 70
     8
 71
     3
 72
     8
 73
     4
 74
     0
 42
0.0000000001
 43
0.0000000001
 40
-7.894681883043148
 40
-7.894681883043148
 40
-7.894681883043148
 40
-7.894681883043148
 40
-6.635867243272672
 40
-6.635867243272672
 40
-6.635867243272672
 40
-6.635867243272672
 10
-7.687292469273153
 20
19.30456946681521
 30
0.0
 10
-7.327915981129835
 20
19.52512790413935
 30
0.0
 10
-6.94842668000254
 20
19.70512727164007
 30
0.0
 10
-6.556223728771492
 20
19.852742436538
 30
0.0
  0
LINE
  5
4C
330
1F
100
AcDbEntity
  8
Default
100
AcDbLine
 10
32.81583066984513
 20
25.18750212871959
 30
0.0
 11
30.41662207635022
 21
18.29791217845079
 31
0.0
  0
SPLINE
  5
4D
330
1F
100
AcDbEntity
  8
Default
100
AcDbSpline
210
0.0
220
0.0
230
1.0
 70
    24
 71
     2
 72
     6
 73
     3
 74
     0
 42
0.0000000001
 43
0.0000000001
 40
0.027186610417374
 40
0.027186610417374
 40
0.027186610417374
 40
1.0
 40
1.0
 40
1.0
 10
31.48045415858056
 20
18.37323319193719
 30
0.0
 10
32.61093141421283
 20
21.61952266032839
 30
0.0
 10
33.74140866984511
 20
24.86581212871959
 30
0.0
  0
SPLINE
  5
4E
330
1F
100
AcDbEntity
  8
Default
100
AcDbSpline
210
0.0
220
0.0
230
1.0
 70
    12
 71
     2
 72
     6
 73
     3
 74
     0
 42
0.0000000001
 43
0.0000000001
 40
3.046448101564074
 40
3.046448101564074
 40
3.046448101564074
 40
3.577868569146716
 40
3.577868569146716
 40
3.577868569146716
 10
29.39021085024169
 20
16.86974926029415
 30
0.0
 41
0.9933533252827176
 10
29.13725499079823
 20
16.94680489682587
 30
0.0
 41
0.9960969417880289
 10
28.89011084498009
 20
17.04078782602451
 30
0.0
 41
1.0
  0
SPLINE
  5
4F
330
1F
100
AcDbEntity
  8
Default
100
AcDbSpline
210
0.0
220
0.0
230
1.0
 70
    12
 71
     2
 72
     6
 73
     3
 74
     0
 42
0.0000000001
 43
0.0000000001
 40
0.9740564369475303
 40
0.9740564369475303
 40
0.9740564369475303
 40
1.933459869706155
 40
1.933459869706155
 40
1.933459869706155
 10
29.39903365715632
 20
15.82934512415066
 30
0.0
 41
0.9901877896243254
 10
29.86435421551232
 20
15.70521226159635
 30
0.0
 41
0.9868613610639652
 10
30.34045883909307
 20
15.63296383740559
 30
0.0
 41
0.9865013713945701
  0
SPLINE
  5
50
330
1F
100
AcDbEntity
  8
Default
100
AcDbSpline
210
0.0
220
0.0
230
1.0
 70
    12
 71
     2
 72
     6
 73
     3
 74
     0
 42
0.0000000001
 43
0.0000000001
 40
0.0
 40
0.0
 40
0.0
 40
0.9740564369475303
 40
0.9740564369475303
 40
0.9740564369475303
 10
28.47721353874307
 20
16.13094253385117
 30
0.0
 41
1.0
 10
28.92979374580739
 20
15.95452354658327
 30
0.0
 41
0.9935650228513825
 10
29.39903365715632
 20
15.82934512415066
 30
0.0
 41
0.9901877896243254
  0
SPLINE
  5
51
330
1F
100
AcDbEntity
  8
Default
100
AcDbSpline
210
0.0
220
0.0
230
1.0
 70
    12
 71
     2
 72
     6
 73
     3
 74
     0
 42
0.0000000001
 43
0.0000000001
 40
14.70264792579018
 40
14.70264792579018
 40
14.70264792579018
 40
15.71812401979336
 40
15.71812401979336
 40
15.71812401979336
 10
-6.738279403476125
 20
16.60910827332563
 30
0.0
 41
0.9993586463165366
 10
-7.243788310888585
 20
16.65009626284126
 30
0.0
 41
0.9996047552475773
 10
-7.74876118491261
 20
16.69723082826613
 30
0.0
 41
0.9998879199356859
  0
SPLINE
  5
52
330
1F
100
AcDbEntity
  8
Default
100
AcDbSpline
210
0.0
220
0.0
230
1.0
 70
    12
 71
     2
 72
     6
 73
     3
 74
     0
 42
0.0000000001
 43
0.0000000001
 40
14.28720293229444
 40
14.28720293229444
 40
14.28720293229444
 40
14.70264792579018
 40
14.70264792579018
 40
14.70264792579018
 10
-6.324433850475056
 20
16.57658939120532
 30
0.0
 41
0.9991634755025603
 10
-6.531397103656825
 20
16.59233371325039
 30
0.0
 41
0.9992579598268603
 10
-6.738279403476125
 20
16.60910827332563
 30
0.0
 41
0.9993586463165366
  0
SPLINE
  5
53
330
1F
100
AcDbEntity
  8
Default
100
AcDbSpline
210
0.0
220
0.0
230
1.0
 70
    12
 71
     2
 72
     6
 73
     3
 74
     0
 42
0.0000000001
 43
0.0000000001
 40
14.03199368678247
 40
14.03199368678247
 40
14.03199368678247
 40
14.28720293229444
 40
14.28720293229444
 40
14.28720293229444
 10
-6.070089602641301
 20
16.55763187764784
 30
0.0
 41
0.9990497319336842
 10
-6.197276224282379
 20
16.56691612512312
 30
0.0
 41
0.9991054334669243
 10
-6.324433850475056
 20
16.57658939120532
 30
0.0
 41
0.9991634755025603
  0
SPLINE
  5
54
330
1F
100
AcDbEntity
  8
Default
100
AcDbSpline
210
0.0
220
0.0
230
1.0
 70
    12
 71
     2
 72
     6
 73
     3
 74
     0
 42
0.0000000001
 43
0.0000000001
 40
1.62971711881409
 40
1.62971711881409
 40
1.62971711881409
 40
1.884924814905288
 40
1.884924814905288
 40
1.884924814905288
 10
6.324423416166437
 20
16.57658189408803
 30
0.0
 41
0.9991633098555854
 10
6.197266529891508
 20
16.5669088359005
 30
0.0
 41
0.999105271512205
 10
6.070080648968481
 20
16.55762479175653
 30
0.0
 41
0.9990495736428013
  0
SPLINE
  5
55
330
1F
100
AcDbEntity
  8
Default
100
AcDbSpline
210
0.0
220
0.0
230
1.0
 70
    12
 71
     2
 72
     6
 73
     3
 74
     0
 42
0.0000000001
 43
0.0000000001
 40
1.214268976302052
 40
1.214268976302052
 40
1.214268976302052
 40
1.62971711881409
 40
1.62971711881409
 40
1.62971711881409
 10
6.73827221452041
 20
16.60910054563905
 30
0.0
 41
0.9993584713221033
 10
6.531388292051372
 20
16.59232609281653
 30
0.0
 41
0.9992577894591445
 10
6.324423416166437
 20
16.57658189408803
 30
0.0
 41
0.9991633098555854
  0
SPLINE
  5
56
330
1F
100
AcDbEntity
  8
Default
100
AcDbSpline
210
0.0
220
0.0
230
1.0
 70
    12
 71
     2
 72
     6
 73
     3
 74
     0
 42
0.0000000001
 43
0.0000000001
 40
0.1987934913537411
 40
0.1987934913537411
 40
0.1987934913537411
 40
1.214268976302052
 40
1.214268976302052
 40
1.214268976302052
 10
7.748753681560222
 20
16.69722190294551
 30
0.0
 41
0.9998877182525975
 10
7.243780960981786
 20
16.65008793855816
 30
0.0
 41
0.9996045669310414
 10
6.73827221452041
 20
16.60910054563905
 30
0.0
 41
0.9993584713221033
  0
ARC
  5
57
330
1F
100
AcDbEntity
  8
Default
100
AcDbCircle
 10
-17.31739563334625
 20
-24.13552727969294
 30
0.0
 40
41.66759639119658
100
AcDbArc
 50
74.48125488379405
 51
76.72575160867488
  0
SPLINE
  5
58
330
1F
100
AcDbEntity
  8
Default
100
AcDbSpline
210
0.0
220
0.0
230
1.0
 70
    24
 71
     2
 72
     6
 73
     3
 74
     0
 42
0.0000000001
 43
0.0000000001
 40
0.0
 40
0.0
 40
0.0
 40
17.71124494625232
 40
17.71124494625232
 40
17.71124494625232
 10
-9.101343461012714
 20
0.1561573737594877
 30
0.0
 10
-8.976716566676085
 20
9.01081642127916
 30
0.0
 10
-8.852089672339455
 20
17.86547546879883
 30
0.0
  0
LINE
  5
59
330
1F
100
AcDbEntity
  8
Default
100
AcDbLine
 10
6.088706566945222
 20
15.93349840495751
 30
0.0
 11
7.751243588098816
 21
16.32957051767175
 31
0.0
  0
SPLINE
  5
5A
330
1F
100
AcDbEntity
  8
Default
100
AcDbSpline
210
0.0
220
0.0
230
1.0
 70
    24
 71
     2
 72
     6
 73
     3
 74
     0
 42
0.0000000001
 43
0.0000000001
 40
0.0
 40
0.0
 40
0.0
 40
17.71068325908286
 40
17.71068325908286
 40
17.71068325908286
 10
9.101343461012714
 20
0.1561573737594877
 30
0.0
 10
8.976720519042377
 20
9.01053560824811
 30
0.0
 10
8.852097577072039
 20
17.86491384273674
 30
0.0
  0
SPLINE
  5
5B
330
1F
100
AcDbEntity
  8
Default
100
AcDbSpline
210
0.0
220
0.0
230
1.0
 70
    12
 71
     2
 72
     6
 73
     3
 74
     0
 42
0.0000000001
 43
0.0000000001
 40
0.0
 40
0.0
 40
0.0
 40
0.9461792513233426
 40
0.9461792513233426
 40
0.9461792513233426
 10
7.687292469273153
 20
19.30456946681521
 30
0.0
 41
1.0
 10
8.103488100698081
 20
19.06348090455673
 30
0.0
 41
0.9732945382178865
 10
8.385394496306976
 20
18.67400081349671
 30
0.0
 41
0.9901871743277415
  0
SPLINE
  5
5C
330
1F
100
AcDbEntity
  8
Default
100
AcDbSpline
210
0.0
220
0.0
230
1.0
 70
    12
 71
     2
 72
     6
 73
     3
 74
     0
 42
0.0000000001
 43
0.0000000001
 40
-0.9461446270349231
 40
-0.9461446270349231
 40
-0.9461446270349231
 40
0.0
 40
0.0
 40
0.0
 10
-8.38537421601431
 20
18.67402883216905
 30
0.0
 41
0.990185938054839
 10
-8.103472452647852
 20
19.06348996896214
 30
0.0
 41
0.9732955154720482
 10
-7.687292469273153
 20
19.30456946681521
 30
0.0
 41
1.0
  0
SPLINE
  5
5D
330
1F
100
AcDbEntity
  8
Default
100
AcDbSpline
210
0.0
220
0.0
230
1.0
 70
     8
 71
     2
 72
    36
 73
    33
 74
     0
 42
0.0000000001
 43
0.0000000001
 40
4.089651358466328
 40
4.089651358466328
 40
4.089651358466328
 40
5.0
 40
5.0
 40
6.0
 40
6.0
 40
7.0
 40
7.0
 40
8.0
 40
8.0
 40
9.0
 40
9.0
 40
10.0
 40
10.0
 40
11.0
 40
11.0
 40
12.0
 40
12.0
 40
13.0
 40
13.0
 40
14.0
 40
14.0
 40
15.0
 40
15.0
 40
16.0
 40
16.0
 40
17.0
 40
17.0
 40
18.0
 40
18.0
 40
19.0
 40
19.0
 40
20.0
 40
20.0
 40
20.0
 10
-8.93202142838123
 20
45.40910654789969
 30
0.0
 10
-8.940157214190618
 20
45.41733655479347
 30
0.0
 10
-8.948293000000007
 20
45.42556656168725
 30
0.0
 10
-8.956812000000006
 20
45.43500156168725
 30
0.0
 10
-8.965331000000006
 20
45.44443656168725
 30
0.0
 10
-8.973415500000002
 20
45.45424606168725
 30
0.0
 10
-8.981499999999997
 20
45.46405556168725
 30
0.0
 10
-8.989132499999997
 20
45.47422056168725
 30
0.0
 10
-8.996764999999996
 20
45.48438556168725
 30
0.0
 10
-9.003930500000003
 20
45.49488456168726
 30
0.0
 10
-9.011096000000009
 20
45.50538356168726
 30
0.0
 10
-9.017779500000003
 20
45.51619556168725
 30
0.0
 10
-9.024462999999997
 20
45.52700756168725
 30
0.0
 10
-9.030650999999999
 20
45.53811006168725
 30
0.0
 10
-9.036839
 20
45.54921256168725
 30
0.0
 10
-9.042519500000004
 20
45.56058306168725
 30
0.0
 10
-9.048200000000008
 20
45.57195356168726
 30
0.0
 10
-9.053360500000004
 20
45.58356856168726
 30
0.0
 10
-9.058520999999999
 20
45.59518356168726
 30
0.0
 10
-9.063151000000005
 20
45.60702006168726
 30
0.0
 10
-9.06778100000001
 20
45.61885656168726
 30
0.0
 10
-9.071871500000007
 20
45.63089006168725
 30
0.0
 10
-9.075962000000004
 20
45.64292356168725
 30
0.0
 10
-9.079505000000005
 20
45.65512906168725
 30
0.0
 10
-9.083048000000005
 20
45.66733456168725
 30
0.0
 10
-9.086035000000003
 20
45.67968756168725
 30
0.0
 10
-9.089022
 20
45.69204056168726
 30
0.0
 10
-9.091448
 20
45.70451556168725
 30
0.0
 10
-9.093874
 20
45.71699056168725
 30
0.0
 10
-9.095734
 20
45.72956206168725
 30
0.0
 10
-9.097594
 20
45.74213356168725
 30
0.0
 10
-9.0988835
 20
45.75477606168725
 30
0.0
 10
-9.100172999999998
 20
45.76741856168726
 30
0.0
  0
POLYLINE
  5
5E
330
1F
100
AcDbEntity
  8
Default
100
AcDb2dPolyline
 66
     1
 10
0.0
 20
0.0
 30
0.0
  0
VERTEX
  5
5F
330
5E
100
AcDbEntity
  8
Default
100
AcDbVertex
100
AcDb2dVertex
 10
-9.042612000000005
 20
46.06313556168725
 30
0.0
  0
VERTEX
  5
60
330
5E
100
AcDbEntity
  8
Default
100
AcDbVertex
100
AcDb2dVertex
 10
-8.988032998326256
 20
46.17231405718444
 30
0.0
  0
SEQEND
  5
61
330
5E
100
AcDbEntity
  8
Default
  0
SPLINE
  5
62
330
1F
100
AcDbEntity
  8
Default
100
AcDbSpline
210
0.0
220
0.0
230
1.0
 70
     8
 71
     3
 72
    15
 73
    11
 74
     0
 42
0.0000000001
 43
0.0000000001
 40
0.0
 40
0.0
 40
0.0
 40
0.0
 40
0.1220341290769487
 40
0.7012799491189056
 40
0.9091822791459138
 40
1.505423750858351
 40
2.321039946104391
 40
3.147607425795319
 40
3.297388182423827
 40
3.402481612547525
 40
3.402481612547525
 40
3.402481612547525
 40
3.402481612547525
 10
8.851172946679199
 20
63.19542799509053
 30
0.0
 10
8.861396556036325
 20
63.15607634594524
 30
0.0
 10
8.930688293839424
 20
62.93269017287804
 30
0.0
 10
9.030044834841348
 20
62.64654524014242
 30
0.0
 10
9.169225962227884
 20
62.2065691767145
 30
0.0
 10
9.332290742943258
 20
61.69246386517503
 30
0.0
 10
9.525237918549948
 20
60.97018004555389
 30
0.0
 10
9.615664198871215
 20
60.37982497470801
 30
0.0
 10
9.618148611043978
 20
60.01597081520588
 30
0.0
 10
9.557602734040287
 20
59.94378062408558
 30
0.0
 10
9.520893925276766
 20
59.93873380324001
 30
0.0
  0
SPLINE
  5
63
330
1F
100
AcDbEntity
  8
Default
100
AcDbSpline
210
0.0
220
0.0
230
1.0
 70
     8
 71
     3
 72
    14
 73
    10
 74
     0
 42
0.0000000001
 43
0.0000000001
 40
0.0
 40
0.0
 40
0.0
 40
0.0
 40
0.5485293057153133
 40
1.122191362111251
 40
2.298707115529747
 40
3.679654543524498
 40
6.218247102406465
 40
7.367666347785125
 40
10.02678799207949
 40
10.02678799207949
 40
10.02678799207949
 40
10.02678799207949
 10
9.520893925276766
 20
59.93873380324001
 30
0.0
 10
9.342375570928525
 20
59.89604528579065
 30
0.0
 10
8.972240765625784
 20
59.84780257356261
 30
0.0
 10
8.202548263451888
 20
59.82459943118073
 30
0.0
 10
7.17198154507129
 20
60.01791413118646
 30
0.0
 10
5.570189775201428
 20
60.60086178346126
 30
0.0
 10
4.109805040539257
 20
61.46316514327411
 30
0.0
 10
2.153500985191712
 20
62.2760024298704
 30
0.0
 10
0.8872566196325664
 20
62.50231009334074
 30
0.0
 10
0.0000000021846773
 20
62.49998040680401
 30
0.0
  0
SPLINE
  5
64
330
1F
100
AcDbEntity
  8
Default
100
AcDbSpline
210
0.0
220
0.0
230
1.0
 70
     8
 71
     3
 72
    15
 73
    11
 74
     0
 42
0.0000000001
 43
0.0000000001
 40
0.0
 40
0.0
 40
0.0
 40
0.0
 40
1.314709772837731
 40
2.659119438540279
 40
3.808448377660886
 40
6.347133480134831
 40
7.72791577638924
 40
8.904519311535873
 40
9.481233311193762
 40
10.02678478062106
 40
10.02678478062106
 40
10.02678478062106
 40
10.02678478062106
 10
0.0000000021846773
 20
62.49998040680401
 30
0.0
 10
-0.4385964195072773
 20
62.50028593489243
 30
0.0
 10
-1.324597591160028
 20
62.42527283688818
 30
0.0
 10
-2.55852979411803
 20
62.10687652665246
 30
0.0
 10
-4.109928426670749
 20
61.46381558132794
 30
0.0
 10
-5.570018516383513
 20
60.60056975922922
 30
0.0
 10
-7.171966810779693
 20
60.01810661763048
 30
0.0
 10
-8.203406138240624
 20
59.82430804155881
 30
0.0
 10
-8.97324818880945
 20
59.8479305453514
 30
0.0
 10
-9.343386463264906
 20
59.89621982820434
 30
0.0
 10
-9.520893924667135
 20
59.93873380324001
 30
0.0
  0
SPLINE
  5
65
330
1F
100
AcDbEntity
  8
Default
100
AcDbSpline
210
0.0
220
0.0
230
1.0
 70
     8
 71
     3
 72
    15
 73
    11
 74
     0
 42
0.0000000001
 43
0.0000000001
 40
0.0
 40
0.0
 40
0.0
 40
0.0
 40
0.1038700451879346
 40
0.2536967137418691
 40
1.081505531300089
 40
1.890896238074622
 40
2.49333253998626
 40
2.704686778490014
 40
3.282458989887037
 40
3.402468643220947
 40
3.402468643220947
 40
3.402468643220947
 40
3.402468643220947
 10
-9.520893924667135
 20
59.93873380324001
 30
0.0
 10
-9.557002259302195
 20
59.94355138473833
 30
0.0
 10
-9.618017629856197
 20
60.0153850434797
 30
0.0
 10
-9.615618459359794
 20
60.37879362976491
 30
0.0
 10
-9.52555423942134
 20
60.96788913324006
 30
0.0
 10
-9.332879101735912
 20
61.6904477168184
 30
0.0
 10
-9.169675786266978
 20
62.20585944178747
 30
0.0
 10
-9.029282536191815
 20
62.64820567527681
 30
0.0
 10
-8.930109862561338
 20
62.93445971085681
 30
0.0
 10
-8.861293335847975
 20
63.15674638131848
 30
0.0
 10
-8.851172697901532
 20
63.19542784612859
 30
0.0
  0
SPLINE
  5
66
330
1F
100
AcDbEntity
  8
Default
100
AcDbSpline
210
0.0
220
0.0
230
1.0
 70
     8
 71
     3
 72
    13
 73
     9
 74
     0
 42
0.0000000001
 43
0.0000000001
 40
0.0
 40
0.0
 40
0.0
 40
0.0
 40
0.1170984786042145
 40
0.2819551517566728
 40
0.5034619837781984
 40
1.601602857956874
 40
4.472820908616272
 40
9.14943154654721
 40
9.14943154654721
 40
9.14943154654721
 40
9.14943154654721
 10
-8.851172697901532
 20
63.19542784612859
 30
0.0
 10
-8.846232173148522
 20
63.23442845014353
 30
0.0
 10
-8.791904263409478
 20
63.31732401418135
 30
0.0
 10
-8.642006768996097
 20
63.39628712034266
 30
0.0
 10
-8.17523623255427
 20
63.56038769900019
 30
0.0
 10
-6.856908151914496
 20
64.02183021490285
 30
0.0
 10
-4.075323297442324
 20
64.79561548257067
 30
0.0
 10
-1.558747037482973
 20
65.05541855134676
 30
0.0
 10
0.0000000003048086
 20
65.05616358854081
 30
0.0
  0
SPLINE
  5
67
330
1F
100
AcDbEntity
  8
Default
100
AcDbSpline
210
0.0
220
0.0
230
1.0
 70
     8
 71
     3
 72
    15
 73
    11
 74
     0
 42
0.0000000001
 43
0.0000000001
 40
0.0
 40
0.0
 40
0.0
 40
0.0
 40
1.063193596312254
 40
2.338140042614481
 40
4.676579162964244
 40
7.547782514372099
 40
8.646169475634588
 40
8.868182441407617
 40
9.03257768401602
 40
9.149386341412088
 40
9.149386341412088
 40
9.149386341412088
 40
9.149386341412088
 10
0.0000000003048086
 20
65.05616358854081
 30
0.0
 10
0.3544859183312354
 20
65.05638006906297
 30
0.0
 10
1.133811759396806
 20
65.03687908287641
 30
0.0
 10
2.688868050368214
 20
64.92042778530286
 30
0.0
 10
4.827582107895694
 20
64.58610514237448
 30
0.0
 10
6.856886931375854
 20
64.02168669602668
 30
0.0
 10
8.175565738116504
 20
63.56036991335553
 30
0.0
 10
8.642387579611423
 20
63.39609352449114
 30
0.0
 10
8.792138451953932
 20
63.31722167306559
 30
0.0
 10
8.846306873740687
 20
63.2343841406311
 30
0.0
 10
8.851172946679199
 20
63.19542799509053
 30
0.0
  0
SPLINE
  5
68
330
1F
100
AcDbEntity
  8
Default
100
AcDbSpline
210
0.0
220
0.0
230
1.0
 70
    12
 71
     2
 72
     6
 73
     3
 74
     0
 42
0.0000000001
 43
0.0000000001
 40
0.0
 40
0.0
 40
0.0
 40
3.377422632873466
 40
3.377422632873466
 40
3.377422632873466
 10
-3.361972277947388
 20
61.76727676573483
 30
0.0
 41
1.0
 10
-1.692374842799276
 20
62.0437922920544
 30
0.0
 41
0.9967863713672152
 10
0.0000000003048086
 20
62.05012998435339
 30
0.0
 41
1.0
  0
SPLINE
  5
69
330
1F
100
AcDbEntity
  8
Default
100
AcDbSpline
210
0.0
220
0.0
230
1.0
 70
    12
 71
     2
 72
     6
 73
     3
 74
     0
 42
0.0000000001
 43
0.0000000001
 40
0.0
 40
0.0
 40
0.0
 40
3.377520999685091
 40
3.377520999685091
 40
3.377520999685091
 10
0.0000000003048086
 20
62.05012998435339
 30
0.0
 41
1.0
 10
1.692422422851086
 20
62.04374662444452
 30
0.0
 41
0.9967877293055154
 10
3.362068910549979
 20
61.76723503124433
 30
0.0
 41
1.0
  0
SPLINE
  5
6A
330
1F
100
AcDbEntity
  8
Default
100
AcDbSpline
210
0.0
220
0.0
230
1.0
 70
    12
 71
     2
 72
     6
 73
     3
 74
     0
 42
0.0000000001
 43
0.0000000001
 40
0.0
 40
0.0
 40
0.0
 40
0.8358662744886645
 40
0.8358662744886645
 40
0.8358662744886645
 10
-6.74746379368942
 20
16.61898515736742
 30
0.0
 41
1.0
 10
-6.462913274857215
 20
16.31284887348768
 30
0.0
 41
0.9999127732357861
 10
-6.170367967775222
 20
16.01434315242842
 30
0.0
 41
0.9999999999991276
  0
SPLINE
  5
6B
330
1F
100
AcDbEntity
  8
Default
100
AcDbSpline
210
0.0
220
0.0
230
1.0
 70
    12
 71
     2
 72
     6
 73
     3
 74
     0
 42
0.0000000001
 43
0.0000000001
 40
0.0
 40
0.0
 40
0.0
 40
0.9933248670959279
 40
0.9933248670959279
 40
0.9933248670959279
 10
-6.170367967775221
 20
16.01434315242842
 30
0.0
 41
0.9999999899372237
 10
-5.820361490643972
 20
15.64717027652527
 30
0.0
 41
0.968932994225803
 10
-5.336440190633297
 20
15.49244055951442
 30
0.0
 41
1.0
  0
SPLINE
  5
6C
330
1F
100
AcDbEntity
  8
Default
100
AcDbSpline
210
0.0
220
0.0
230
1.0
 70
    12
 71
     2
 72
     6
 73
     3
 74
     0
 42
0.0000000001
 43
0.0000000001
 40
0.0
 40
0.0
 40
0.0
 40
5.401120923603427
 40
5.401120923603427
 40
5.401120923603427
 10
-5.336440190633297
 20
15.49244055951442
 30
0.0
 41
1.0
 10
-2.717873751464221
 20
14.76143343037904
 30
0.0
 41
0.9904585897569746
 10
0.0
 20
14.77303986482944
 30
0.0
 41
1.0
  0
SPLINE
  5
6D
330
1F
100
AcDbEntity
  8
Default
100
AcDbSpline
210
0.0
220
0.0
230
1.0
 70
    12
 71
     2
 72
     6
 73
     3
 74
     0
 42
0.0000000001
 43
0.0000000001
 40
-5.401120923603427
 40
-5.401120923603427
 40
-5.401120923603427
 40
0.0
 40
0.0
 40
0.0
 10
0.0
 20
14.77303986482944
 30
0.0
 41
1.0
 10
2.717873751464232
 20
14.76143343037904
 30
0.0
 41
0.9904585897569746
 10
5.336440190633297
 20
15.49244055951442
 30
0.0
 41
1.0
  0
SPLINE
  5
6E
330
1F
100
AcDbEntity
  8
Default
100
AcDbSpline
210
0.0
220
0.0
230
1.0
 70
    12
 71
     2
 72
     6
 73
     3
 74
     0
 42
0.0000000001
 43
0.0000000001
 40
-0.9933248670959279
 40
-0.9933248670959279
 40
-0.9933248670959279
 40
0.0
 40
0.0
 40
0.0
 10
5.336440190633297
 20
15.49244055951442
 30
0.0
 41
1.0
 10
5.820361490643983
 20
15.64717027652527
 30
0.0
 41
0.968932994225803
 10
6.170367967775213
 20
16.01434315242842
 30
0.0
 41
0.9999999899372237
  0
SPLINE
  5
6F
330
1F
100
AcDbEntity
  8
Default
100
AcDbSpline
210
0.0
220
0.0
230
1.0
 70
    12
 71
     2
 72
     6
 73
     3
 74
     0
 42
0.0000000001
 43
0.0000000001
 40
-0.8358662744886645
 40
-0.8358662744886645
 40
-0.8358662744886645
 40
0.0
 40
0.0
 40
0.0
 10
6.170367967775228
 20
16.01434315242842
 30
0.0
 41
0.9999999999991276
 10
6.4629132748572
 20
16.31284887348768
 30
0.0
 41
0.9999127732357861
 10
6.74746379368942
 20
16.61898515736742
 30
0.0
 41
1.0
  0
LINE
  5
70
330
1F
100
AcDbEntity
  8
Default
100
AcDbLine
 10
6.338650923846544
 20
16.58680444909273
 30
0.0
 11
6.225055482071383
 21
16.50518539971745
 31
0.0
  0
ARC
  5
71
330
1F
100
AcDbEntity
  8
Default
100
AcDbCircle
 10
5.978917141986429
 20
16.85963003192515
 30
0.0
 40
0.4315264531412024
100
AcDbArc
 50
262.2924095126972
 51
304.7774206992515
  0
ARC
  5
72
330
1F
100
AcDbEntity
  8
Default
100
AcDbCircle
 10
8.029263106838116
 20
14.08202746818752
 30
0.0
 40
3.157052107850949
100
AcDbArc
 50
121.4061072758457
 51
131.8960750393577
  0
LINE
  5
73
330
1F
100
AcDbEntity
  8
Default
100
AcDbLine
 10
6.38412132565108
 20
16.77655646812033
 30
0.0
 11
6.856845865637226
 21
17.08004088868811
 31
0.0
  0
LINE
  5
74
330
1F
100
AcDbEntity
  8
Default
100
AcDbLine
 10
-6.338650923846544
 20
16.58680444909273
 30
0.0
 11
-6.225055482071383
 21
16.50518539971745
 31
0.0
  0
ARC
  5
75
330
1F
100
AcDbEntity
  8
Default
100
AcDbCircle
 10
-5.978917141986429
 20
16.85963003192515
 30
0.0
 40
0.4315264531412024
100
AcDbArc
 50
235.2225793007484
 51
277.7075904873028
  0
ARC
  5
76
330
1F
100
AcDbEntity
  8
Default
100
AcDbCircle
 10
-8.029263106838116
 20
14.08202746818752
 30
0.0
 40
3.157052107850949
100
AcDbArc
 50
48.10392496064229
 51
58.59389272415433
  0
LINE
  5
77
330
1F
100
AcDbEntity
  8
Default
100
AcDbLine
 10
-6.38412132565108
 20
16.77655646812033
 30
0.0
 11
-6.856845865637226
 21
17.08004088868811
 31
0.0
  0
SPLINE
  5
78
330
1F
100
AcDbEntity
  8
Default
100
AcDbSpline
210
0.0
220
0.0
230
1.0
 70
     8
 71
     3
 72
    11
 73
     7
 74
     0
 42
0.0000000001
 43
0.0000000001
 40
0.0
 40
0.0
 40
0.0
 40
0.0
 40
1.214188025933714
 40
2.439691263724169
 40
4.761297182648494
 40
8.828385860723529
 40
8.828385860723529
 40
8.828385860723529
 40
8.828385860723529
 10
0.0000733244869622
 20
17.82395756588684
 30
0.0
 10
-0.4044267603224796
 20
17.82512032284885
 30
0.0
 10
-1.218402995608656
 20
17.83040370395873
 30
0.0
 10
-2.8032613270409
 20
17.89491516598779
 30
0.0
 10
-5.338638913838665
 20
18.06082043078511
 30
0.0
 10
-7.436451387274971
 20
18.45413205707602
 30
0.0
 10
-8.757098120661638
 20
18.75802586270458
 30
0.0
  0
SPLINE
  5
79
330
1F
100
AcDbEntity
  8
Default
100
AcDbSpline
210
0.0
220
0.0
230
1.0
 70
     8
 71
     3
 72
    22
 73
    18
 74
     0
 42
0.0000000001
 43
0.0000000001
 40
0.0
 40
0.0
 40
0.0
 40
0.0
 40
0.0935397529848038
 40
0.191976763197454
 40
0.4452020639371633
 40
0.5048266649697931
 40
0.8680746548169804
 40
1.12150162456058
 40
1.258995085087951
 40
1.563620246163732
 40
1.911576306404881
 40
2.16113677711151
 40
2.914244478031624
 40
3.915317125896441
 40
5.747699567943772
 40
7.792372056652619
 40
10.22417760634461
 40
10.22417760634461
 40
10.22417760634461
 40
10.22417760634461
 10
-8.757098120661638
 20
18.75802586270458
 30
0.0
 10
-8.78662993802034
 20
18.76651836840432
 30
0.0
 10
-8.855123031301375
 20
18.76555174998401
 30
0.0
 10
-8.97534198500098
 20
18.67165702625319
 30
0.0
 10
-9.01869876740308
 20
18.52865116422246
 30
0.0
 10
-8.965385101540008
 20
18.30853166655493
 30
0.0
 10
-8.902448143515173
 20
18.09304084984453
 30
0.0
 10
-8.850116226771505
 20
17.84640415846083
 30
0.0
 10
-8.783363370806185
 20
17.62288462000872
 30
0.0
 10
-8.589803588831572
 20
17.42699964076575
 30
0.0
 10
-8.30598273490746
 20
17.32201801130285
 30
0.0
 10
-7.859816820179375
 20
17.24973642317982
 30
0.0
 10
-7.203990216740138
 20
17.13091752818598
 30
0.0
 10
-6.021095557835864
 20
16.95035127674108
 30
0.0
 10
-4.403909500309922
 20
16.7795646203472
 30
0.0
 10
-2.3029721227484
 20
16.67009206725902
 30
0.0
 10
-0.8104685239031255
 20
16.66582184065574
 30
0.0
 10
0.0000733244869622
 20
16.66628300091742
 30
0.0
  0
SPLINE
  5
7A
330
1F
100
AcDbEntity
  8
Default
100
AcDbSpline
210
0.0
220
0.0
230
1.0
 70
     8
 71
     3
 72
    22
 73
    18
 74
     0
 42
0.0000000001
 43
0.0000000001
 40
-10.22417760634461
 40
-10.22417760634461
 40
-10.22417760634461
 40
-10.22417760634461
 40
-7.792372056652619
 40
-5.747699567943772
 40
-3.915317125896441
 40
-2.914244478031624
 40
-2.16113677711151
 40
-1.911576306404881
 40
-1.563620246163732
 40
-1.258995085087951
 40
-1.12150162456058
 40
-0.8680746548169804
 40
-0.5048266649697931
 40
-0.4452020639371633
 40
-0.191976763197454
 40
-0.0935397529848038
 40
0.0
 40
0.0
 40
0.0
 40
0.0
 10
0.0000733244869622
 20
16.66628300091742
 30
0.0
 10
0.8106151728770499
 20
16.66582184065574
 30
0.0
 10
2.303118771722325
 20
16.67009206725902
 30
0.0
 10
4.404056149283846
 20
16.7795646203472
 30
0.0
 10
6.021242206809788
 20
16.95035127674108
 30
0.0
 10
7.204136865714077
 20
17.13091752818598
 30
0.0
 10
7.8599634691533
 20
17.24973642317982
 30
0.0
 10
8.306129383881398
 20
17.32201801130285
 30
0.0
 10
8.589950237805482
 20
17.42699964076575
 30
0.0
 10
8.783510019780095
 20
17.62288462000872
 30
0.0
 10
8.850262875745443
 20
17.84640415846083
 30
0.0
 10
8.902594792489097
 20
18.09304084984453
 30
0.0
 10
8.965531750513918
 20
18.30853166655493
 30
0.0
 10
9.01884541637699
 20
18.52865116422246
 30
0.0
 10
8.975488633974905
 20
18.67165702625319
 30
0.0
 10
8.855269680275299
 20
18.76555174998401
 30
0.0
 10
8.786776586994264
 20
18.76651836840432
 30
0.0
 10
8.757244769635562
 20
18.75802586270458
 30
0.0
  0
SPLINE
  5
7B
330
1F
100
AcDbEntity
  8
Default
100
AcDbSpline
210
0.0
220
0.0
230
1.0
 70
     8
 71
     3
 72
    11
 73
     7
 74
     0
 42
0.0000000001
 43
0.0000000001
 40
-8.828385860723529
 40
-8.828385860723529
 40
-8.828385860723529
 40
-8.828385860723529
 40
-4.761297182648503
 40
-2.439691263724185
 40
-1.214188025933733
 40
0.0
 40
0.0
 40
0.0
 40
0.0
 10
8.757244769635562
 20
18.75802586270458
 30
0.0
 10
7.436598036248895
 20
18.45413205707602
 30
0.0
 10
5.338785562812589
 20
18.06082043078511
 30
0.0
 10
2.803407976014824
 20
17.89491516598779
 30
0.0
 10
1.218549644582581
 20
17.83040370395872
 30
0.0
 10
0.4045734092963897
 20
17.82512032284885
 30
0.0
 10
0.0000733244869622
 20
17.82395756588684
 30
0.0
  0
SPLINE
  5
7C
330
1F
100
AcDbEntity
  8
Default
100
AcDbSpline
210
0.0
220
0.0
230
1.0
 70
    12
 71
     2
 72
     6
 73
     3
 74
     0
 42
0.0000000001
 43
0.0000000001
 40
0.0
 40
0.0
 40
0.0
 40
0.136497131246725
 40
0.136497131246725
 40
0.136497131246725
 10
42.80688316510764
 20
16.67186585752321
 30
0.0
 41
1.0
 10
42.85378656321954
 20
16.72191697184726
 30
0.0
 41
0.9924780464036579
 10
42.88712143895143
 20
16.78186552361845
 30
0.0
 41
1.0
  0
SPLINE
  5
7D
330
1F
100
AcDbEntity
  8
Default
100
AcDbSpline
210
0.0
220
0.0
230
1.0
 70
    12
 71
     2
 72
     6
 73
     3
 74
     0
 42
0.0000000001
 43
0.0000000001
 40
0.0
 40
0.0
 40
0.0
 40
0.8264390978013532
 40
0.8264390978013532
 40
0.8264390978013532
 10
42.88712143895143
 20
16.78186552361845
 30
0.0
 41
1.0
 10
43.08171971579132
 20
17.14675223323746
 30
0.0
 41
0.9986048383852346
 10
43.24254036958683
 20
17.52773453928124
 30
0.0
 41
0.9992567506520554
  0
ARC
  5
7E
330
1F
100
AcDbEntity
  8
Default
100
AcDbCircle
 10
43.47286110856577
 20
17.43051130545211
 30
0.0
 40
0.25
100
AcDbArc
 50
56.90320801781194
 51
157.1143678715038
  0
LINE
  5
7F
330
1F
100
AcDbEntity
  8
Default
100
AcDbLine
 10
43.60937487253852
 20
17.63994862840576
 30
0.0
 11
43.75383444154875
 21
17.54578814531063
 31
0.0
  0
ARC
  5
80
330
1F
100
AcDbEntity
  8
Default
100
AcDbCircle
 10
43.08317927213459
 20
16.54509583547264
 30
0.0
 40
1.20464245950026
100
AcDbArc
 50
25.22628804628217
 51
56.1703549918263
  0
SPLINE
  5
81
330
1F
100
AcDbEntity
  8
Default
100
AcDbSpline
210
0.0
220
0.0
230
1.0
 70
    12
 71
     2
 72
     6
 73
     3
 74
     0
 42
0.0000000001
 43
0.0000000001
 40
-1.357066206308517
 40
-1.357066206308517
 40
-1.357066206308517
 40
0.0
 40
0.0
 40
0.0
 10
44.17293691273309
 20
17.05850769741976
 30
0.0
 41
1.0
 10
43.7021770058027
 20
16.56427801658706
 30
0.0
 41
0.991190278644199
 10
43.11816935081562
 20
16.21098928720897
 30
0.0
 41
1.0
  0
SPLINE
  5
82
330
1F
100
AcDbEntity
  8
Default
100
AcDbSpline
210
0.0
220
0.0
230
1.0
 70
    12
 71
     2
 72
     6
 73
     3
 74
     0
 42
0.0000000001
 43
0.0000000001
 40
-0.2347042026955195
 40
-0.2347042026955195
 40
-0.2347042026955195
 40
0.0
 40
0.0
 40
0.0
 10
43.11816935081562
 20
16.21098928720897
 30
0.0
 41
1.0
 10
43.01579413356058
 20
16.14865426779717
 30
0.0
 41
0.9689121470040515
 10
42.89606641538604
 20
16.14303170131879
 30
0.0
 41
1.0
  0
SPLINE
  5
83
330
1F
100
AcDbEntity
  8
Default
100
AcDbSpline
210
0.0
220
0.0
230
1.0
 70
    12
 71
     2
 72
     6
 73
     3
 74
     0
 42
0.0000000001
 43
0.0000000001
 40
-0.0744622706341129
 40
-0.0744622706341129
 40
-0.0744622706341129
 40
0.0
 40
0.0
 40
0.0
 10
42.89606641538604
 20
16.14303170131879
 30
0.0
 41
1.0
 10
42.85888752247706
 20
16.14106004499453
 30
0.0
 41
0.9999999623414183
 10
42.82170971737011
 20
16.13906798223779
 30
0.0
 41
1.0
  0
SPLINE
  5
84
330
1F
100
AcDbEntity
  8
Default
100
AcDbSpline
210
0.0
220
0.0
230
1.0
 70
    12
 71
     2
 72
     6
 73
     3
 74
     0
 42
0.0000000001
 43
0.0000000001
 40
-0.3487157040704518
 40
-0.3487157040704518
 40
-0.3487157040704518
 40
-0.0287461451405254
 40
-0.0287461451405254
 40
-0.0287461451405254
 10
44.49856906021787
 20
16.80290438335699
 30
0.0
 41
1.0
 10
44.38671951323967
 20
16.91798483839458
 30
0.0
 41
0.9951609814664577
 10
44.17386341127809
 20
17.06002214081568
 30
0.0
 41
0.9992021975065695
  0
SPLINE
  5
85
330
1F
100
AcDbEntity
  8
Default
100
AcDbSpline
210
0.0
220
0.0
230
1.0
 70
     8
 71
     3
 72
    13
 73
     9
 74
     0
 42
0.0000000001
 43
0.0000000001
 40
0.0
 40
0.0
 40
0.0
 40
0.0
 40
1.0
 40
2.0
 40
3.0
 40
4.0
 40
5.0
 40
6.0
 40
6.0
 40
6.0
 40
6.0
 10
27.94135698826396
 20
19.53578164419446
 30
0.0
 10
27.98443894590179
 20
19.53735327474372
 30
0.0
 10
28.06939371412062
 20
19.55711305008347
 30
0.0
 10
28.18213489098744
 20
19.62296719170222
 30
0.0
 10
28.26971424863753
 20
19.71972755084238
 30
0.0
 10
28.33132333934786
 20
19.83397592614423
 30
0.0
 10
28.37203788956694
 20
19.95688363059446
 30
0.0
 10
28.39017257671938
 20
20.04112283397182
 30
0.0
 10
28.39836202111188
 20
20.08338674155194
 30
0.0
  0
SPLINE
  5
86
330
1F
100
AcDbEntity
  8
Default
100
AcDbSpline
210
0.0
220
0.0
230
1.0
 70
     8
 71
     3
 72
    13
 73
     9
 74
     0
 42
0.0000000001
 43
0.0000000001
 40
0.0
 40
0.0
 40
0.0
 40
0.0
 40
0.4651339589941351
 40
1.34920933911786
 40
2.49222809529865
 40
4.39453263727257
 40
7.118708082551536
 40
10.22287743636055
 40
10.22287743636055
 40
10.22287743636055
 40
10.22287743636055
 10
28.39836202111188
 20
20.08338674155194
 30
0.0
 10
28.42534237855061
 20
20.23604609367397
 30
0.0
 10
28.47381341937569
 20
20.68366561390537
 30
0.0
 10
28.53868008485203
 20
21.51103433971272
 30
0.0
 10
28.61586330584403
 20
22.8207861955463
 30
0.0
 10
28.41285032809712
 20
24.74206039619916
 30
0.0
 10
27.70828908708344
 20
27.22585531839202
 30
0.0
 10
27.08614057927801
 20
29.06522902720468
 30
0.0
 10
26.69313913108103
 20
30.02357199855413
 30
0.0
  0
SPLINE
  5
87
330
1F
100
AcDbEntity
  8
Default
100
AcDbSpline
210
0.0
220
0.0
230
1.0
 70
    12
 71
     2
 72
     6
 73
     3
 74
     0
 42
0.0000000001
 43
0.0000000001
 40
0.0
 40
0.0
 40
0.0
 40
2.661442820591546
 40
2.661442820591546
 40
2.661442820591546
 10
26.69313913108103
 20
30.02357199855413
 30
0.0
 41
1.0
 10
26.19759126328378
 20
31.26079084364777
 30
0.0
 41
0.9976990570145574
 10
25.53923431018868
 20
32.41959826097091
 30
0.0
 41
1.0
  0
SPLINE
  5
88
330
1F
100
AcDbEntity
  8
Default
100
AcDbSpline
210
0.0
220
0.0
230
1.0
 70
    12
 71
     2
 72
     8
 73
     5
 74
     0
 42
0.0000000001
 43
0.0000000001
 40
0.0
 40
0.0
 40
0.0
 40
0.3432748034083866
 40
0.3432748034083866
 40
0.4646673239406499
 40
0.4646673239406499
 40
0.4646673239406499
 10
25.53923431018868
 20
32.41959826097091
 30
0.0
 41
1.0
 10
25.40820036579455
 20
32.65023774304998
 30
0.0
 41
0.8026894050991148
 10
25.15871610422187
 20
32.52927033192675
 30
0.0
 41
1.0
 10
25.13671608084636
 20
32.51980314655443
 30
0.0
 41
0.9994369733123368
 10
25.11540051815584
 20
32.50888181812863
 30
0.0
 41
1.0
  0
SPLINE
  5
89
330
1F
100
AcDbEntity
  8
Default
100
AcDbSpline
210
0.0
220
0.0
230
1.0
 70
     8
 71
     3
 72
    20
 73
    16
 74
     0
 42
0.0000000001
 43
0.0000000001
 40
0.0
 40
0.0
 40
0.0
 40
0.0
 40
1.0
 40
2.0
 40
3.0
 40
4.0
 40
5.0
 40
6.0
 40
7.0
 40
8.0
 40
9.0
 40
10.0
 40
11.0
 40
12.0
 40
13.0
 40
13.0
 40
13.0
 40
13.0
 10
41.689597529528
 20
16.3789971676038
 30
0.0
 10
41.3793872115688
 20
16.37241740035828
 30
0.0
 10
40.75908423533352
 20
16.35375021090158
 30
0.0
 10
39.82923717078
 20
16.31011129465176
 30
0.0
 10
38.90023982551794
 20
16.25093582045183
 30
0.0
 10
37.9725364338064
 20
16.17412471499885
 30
0.0
 10
37.0462153366979
 20
16.08227839434636
 30
0.0
 10
36.12101109302392
 20
15.97992360223572
 30
0.0
 10
35.19654875645462
 20
15.87110291831377
 30
0.0
 10
34.27244670254672
 20
15.75935197324249
 30
0.0
 10
33.34784656632928
 20
15.65150746451785
 30
0.0
 10
32.42231592389223
 20
15.55288325070846
 30
0.0
 10
31.49284901316682
 20
15.48914083428986
 30
0.0
 10
30.56610587213002
 20
15.44040771583143
 30
0.0
 10
29.93530169392105
 20
15.52463110463187
 30
0.0
 10
29.64483943941842
 20
15.40997029251238
 30
0.0
  0
SPLINE
  5
8A
330
1F
100
AcDbEntity
  8
Default
100
AcDbSpline
210
0.0
220
0.0
230
1.0
 70
    12
 71
     2
 72
     6
 73
     3
 74
     0
 42
0.0000000001
 43
0.0000000001
 40
-0.687820922641539
 40
-0.687820922641539
 40
-0.687820922641539
 40
0.0
 40
0.0
 40
0.0
 10
29.64483943941842
 20
15.40997029251238
 30
0.0
 41
1.0
 10
29.39404625032241
 20
15.17463634573139
 30
0.0
 41
0.9999690258309426
 10
29.14698848809545
 20
14.93538385916572
 30
0.0
 41
1.0
  0
SPLINE
  5
8B
330
1F
100
AcDbEntity
  8
Default
100
AcDbSpline
210
0.0
220
0.0
230
1.0
 70
    12
 71
     2
 72
     6
 73
     3
 74
     0
 42
0.0000000001
 43
0.0000000001
 40
0.0
 40
0.0
 40
0.0
 40
0.108394787279406
 40
0.108394787279406
 40
0.108394787279406
 10
27.31042364455675
 20
16.40117044452701
 30
0.0
 41
1.0
 10
27.25653101404385
 20
16.40690995103366
 30
0.0
 41
0.999999979266735
 10
27.20264072550995
 20
16.41267140573454
 30
0.0
 41
1.0
  0
SPLINE
  5
8C
330
1F
100
AcDbEntity
  8
Default
100
AcDbSpline
210
0.0
220
0.0
230
1.0
 70
    24
 71
     2
 72
     6
 73
     3
 74
     0
 42
0.0000000001
 43
0.0000000001
 40
-0.2325307321403076
 40
-0.2325307321403076
 40
-0.2325307321403076
 40
-0.0181596897530964
 40
-0.0181596897530964
 40
-0.0181596897530964
 10
27.47485191788925
 20
16.53871397701525
 30
0.0
 10
27.39263778176613
 20
16.46994221043305
 30
0.0
 10
27.310423645643
 20
16.40117044385085
 30
0.0
  0
SPLINE
  5
8D
330
1F
100
AcDbEntity
  8
Default
100
AcDbSpline
210
0.0
220
0.0
230
1.0
 70
    12
 71
     2
 72
     6
 73
     3
 74
     0
 42
0.0000000001
 43
0.0000000001
 40
0.0
 40
0.0
 40
0.0
 40
0.0457929944082863
 40
0.0457929944082863
 40
0.0457929944082863
 10
27.310423645643
 20
16.40117044385085
 30
0.0
 41
1.0
 10
27.30446500541065
 20
16.37678361109264
 30
0.0
 41
0.8731582744741458
 10
27.3220963797007
 20
16.3589130316432
 30
0.0
 41
1.0
  0
SPLINE
  5
8E
330
1F
100
AcDbEntity
  8
Default
100
AcDbSpline
210
0.0
220
0.0
230
1.0
 70
    12
 71
     2
 72
     6
 73
     3
 74
     0
 42
0.0000000001
 43
0.0000000001
 40
0.0
 40
0.0
 40
0.0
 40
2.137039182577097
 40
2.137039182577097
 40
2.137039182577097
 10
27.3220963797007
 20
16.3589130316432
 30
0.0
 41
1.0
 10
28.07490880861011
 20
15.59497921385674
 30
0.0
 41
0.9944000822514505
 10
28.97146810093153
 20
15.00633427297096
 30
0.0
 41
1.0
  0
SPLINE
  5
8F
330
1F
100
AcDbEntity
  8
Default
100
AcDbSpline
210
0.0
220
0.0
230
1.0
 70
    12
 71
     2
 72
     6
 73
     3
 74
     0
 42
0.0000000001
 43
0.0000000001
 40
-0.1906435954869634
 40
-0.1906435954869634
 40
-0.1906435954869634
 40
0.0
 40
0.0
 40
0.0
 10
28.97146810093153
 20
15.00633427297096
 30
0.0
 41
1.0
 10
29.05187244256768
 20
14.95266182221586
 30
0.0
 41
0.9791718629292984
 10
29.14698848809545
 20
14.93538385916572
 30
0.0
 41
1.0
  0
SPLINE
  5
90
330
1F
100
AcDbEntity
  8
Default
100
AcDbSpline
210
0.0
220
0.0
230
1.0
 70
     8
 71
     3
 72
    14
 73
    10
 74
     0
 42
0.0000000001
 43
0.0000000001
 40
0.0
 40
0.0
 40
0.0
 40
0.0
 40
0.6990240910473118
 40
1.427452671610304
 40
2.963428520767245
 40
4.341267153930231
 40
7.279531458324128
 40
8.656584164251418
 40
12.64851224199838
 40
12.64851224199838
 40
12.64851224199838
 40
12.64851224199838
 10
29.14698848809545
 20
14.93538385916572
 30
0.0
 10
29.37614076368472
 20
14.89286425096342
 30
0.0
 10
29.84718517809102
 20
14.82429972397576
 30
0.0
 10
30.8337366224366
 20
14.75719010483868
 30
0.0
 10
32.04902598396804
 20
14.80782626259822
 30
0.0
 10
33.98300334626148
 20
15.06938269590752
 30
0.0
 10
35.84518089639285
 20
15.43867535267184
 30
0.0
 10
38.58500741665205
 20
15.84421296217724
 30
0.0
 10
40.37076925610391
 20
15.98529054233726
 30
0.0
 10
41.6981058330236
 20
16.07324798474013
 30
0.0
  0
SPLINE
  5
91
330
1F
100
AcDbEntity
  8
Default
100
AcDbSpline
210
0.0
220
0.0
230
1.0
 70
     8
 71
     3
 72
    23
 73
    19
 74
     0
 42
0.0000000001
 43
0.0000000001
 40
-17.9686236409989
 40
-17.9686236409989
 40
-17.9686236409989
 40
-17.9686236409989
 40
-17.45341459592076
 40
-17.35126446118563
 40
-17.31388856261465
 40
-17.22998332040851
 40
-17.09577373227868
 40
-15.4228300371513
 40
-10.16604820698678
 40
-8.509741002941979
 40
-6.085128693056221
 40
-5.382701377325557
 40
-3.792327664688375
 40
-2.768276421601119
 40
-1.888480730619187
 40
-0.9523693663536067
 40
-0.723128482373148
 40
0.0
 40
0.0
 40
0.0
 40
0.0
 10
27.51726305814782
 20
17.6848545791246
 30
0.0
 10
27.64867028705036
 20
17.79537904857601
 30
0.0
 10
27.80913798684969
 20
17.92453930182031
 30
0.0
 10
27.98882018261641
 20
18.04841070499105
 30
0.0
 10
28.05082586948475
 20
18.09006089179273
 30
0.0
 10
28.13228795669531
 20
18.11844396318113
 30
0.0
 10
28.76079016847359
 20
18.16787945801155
 30
0.0
 10
31.1079598410285
 20
18.36083303231151
 30
0.0
 10
33.96403596462741
 20
18.53592966010737
 30
0.0
 10
37.0758818397143
 20
18.65073275208638
 30
0.0
 10
38.66695542949294
 20
18.7086876713361
 30
0.0
 10
40.24231430368896
 20
18.76052497469314
 30
0.0
 10
41.34208125352794
 20
18.7865166357317
 30
0.0
 10
42.51506002736814
 20
18.70683925179859
 30
0.0
 10
43.41019356758795
 20
18.3833812089214
 30
0.0
 10
43.97939652294687
 20
17.99444712644049
 30
0.0
 10
44.42375033131844
 20
17.54761860112195
 30
0.0
 10
44.57599540598287
 20
17.26143418082555
 30
0.0
 10
44.75382080562906
 20
17.09544394987
 30
0.0
  0
SPLINE
  5
92
330
1F
100
AcDbEntity
  8
Default
100
AcDbSpline
210
0.0
220
0.0
230
1.0
 70
     8
 71
     3
 72
    14
 73
    10
 74
     0
 42
0.0000000001
 43
0.0000000001
 40
-7.0
 40
-7.0
 40
-7.0
 40
-7.0
 40
-6.0
 40
-5.0
 40
-4.0
 40
-3.0
 40
-2.0
 40
-1.0
 40
0.0
 40
0.0
 40
0.0
 40
0.0
 10
44.75382080562906
 20
17.09544394987
 30
0.0
 10
44.78130012005433
 20
17.06455914110082
 30
0.0
 10
44.84801975867697
 20
17.02139626673537
 30
0.0
 10
44.93679683317568
 20
16.93258494476355
 30
0.0
 10
44.88243902035391
 20
16.80575813847458
 30
0.0
 10
44.80813739270815
 20
16.71839331888104
 30
0.0
 10
44.69272632060149
 20
16.64800230659977
 30
0.0
 10
44.58286764526659
 20
16.72004035856629
 30
0.0
 10
44.5268670267279
 20
16.77378899620889
 30
0.0
 10
44.49856906021787
 20
16.80290438335699
 30
0.0
  0
SPLINE
  5
93
330
1F
100
AcDbEntity
  8
Default
100
AcDbSpline
210
0.0
220
0.0
230
1.0
 70
    12
 71
     2
 72
     8
 73
     5
 74
     0
 42
0.0000000001
 43
0.0000000001
 40
-1.131082174975068
 40
-1.131082174975068
 40
-1.131082174975068
 40
-0.5311319982797426
 40
-0.5311319982797426
 40
0.0
 40
0.0
 40
0.0
 10
44.49856906021787
 20
16.80290438335699
 30
0.0
 41
1.0
 10
44.28929373472368
 20
17.01822487715124
 30
0.0
 41
0.9985522946097442
 10
44.06779099686494
 20
17.34758780343746
 30
0.0
 41
1.0
 10
43.89894011346227
 20
17.55462247749745
 30
0.0
 41
0.9910793595359968
 10
43.68139538704921
 20
17.70969752094048
 30
0.0
 41
1.0
  0
SPLINE
  5
94
330
1F
100
AcDbEntity
  8
Default
100
AcDbSpline
210
0.0
220
0.0
230
1.0
 70
     8
 71
     3
 72
    17
 73
    13
 74
     0
 42
0.0000000001
 43
0.0000000001
 40
-15.65411752985806
 40
-15.65411752985806
 40
-15.65411752985806
 40
-15.65411752985806
 40
-15.02730075433966
 40
-14.43451220324734
 40
-13.71768333908225
 40
-12.76915707112372
 40
-11.57409979907015
 40
-10.91174483143177
 40
-8.853644510865058
 40
-5.160327740573998
 40
-2.520433580507965
 40
0.0
 40
0.0
 40
0.0
 40
0.0
 10
43.68139538704921
 20
17.70969752094048
 30
0.0
 10
43.51655053183507
 20
17.83792778241923
 30
0.0
 10
43.1746478840158
 20
18.06228166220854
 30
0.0
 10
42.56310331797248
 20
18.28240247749616
 30
0.0
 10
41.81562461792927
 20
18.38862715804714
 30
0.0
 10
40.86171863836496
 20
18.40882729268658
 30
0.0
 10
39.92664357356182
 20
18.39087546935424
 30
0.0
 10
38.62200290162163
 20
18.3515323243304
 30
0.0
 10
36.48517655499215
 20
18.28556896419878
 30
0.0
 10
33.6895395141039
 20
18.18959639689216
 30
0.0
 10
30.74353192484887
 20
18.00996363067757
 30
0.0
 10
29.02993332620832
 20
17.85849721581437
 30
0.0
 10
28.19429103983629
 20
17.77161392690244
 30
0.0
  0
SPLINE
  5
95
330
1F
100
AcDbEntity
  8
Default
100
AcDbSpline
210
0.0
220
0.0
230
1.0
 70
    12
 71
     2
 72
     6
 73
     3
 74
     0
 42
0.0000000001
 43
0.0000000001
 40
-0.1603149038788934
 40
-0.1603149038788934
 40
-0.1603149038788934
 40
0.0
 40
0.0
 40
0.0
 10
28.19429103983629
 20
17.77161392690244
 30
0.0
 41
1.0
 10
28.11310431245737
 20
17.76700410088558
 30
0.0
 41
0.978738299541518
 10
28.0405997171393
 20
17.73018537119312
 30
0.0
 41
1.0
  0
SPLINE
  5
96
330
1F
100
AcDbEntity
  8
Default
100
AcDbSpline
210
0.0
220
0.0
230
1.0
 70
    12
 71
     2
 72
     6
 73
     3
 74
     0
 42
0.0000000001
 43
0.0000000001
 40
-0.4001929047078155
 40
-0.4001929047078155
 40
-0.4001929047078155
 40
0.0
 40
0.0
 40
0.0
 10
28.0405997171393
 20
17.73018537119312
 30
0.0
 41
1.0
 10
27.86739946341604
 20
17.62959782046075
 30
0.0
 41
0.998549274239925
 10
27.70602022092902
 20
17.51096846765777
 30
0.0
 41
1.0
  0
SPLINE
  5
97
330
1F
100
AcDbEntity
  8
Default
100
AcDbSpline
210
0.0
220
0.0
230
1.0
 70
     8
 71
     3
 72
    24
 73
    20
 74
     0
 42
0.0000000001
 43
0.0000000001
 40
0.0
 40
0.0
 40
0.0
 40
0.0
 40
1.0
 40
2.0
 40
3.0
 40
4.0
 40
5.0
 40
6.0
 40
7.0
 40
8.0
 40
9.0
 40
10.0
 40
11.0
 40
12.0
 40
13.0
 40
14.0
 40
15.0
 40
16.0
 40
16.13599113825579
 40
16.13599113825579
 40
16.13599113825579
 40
16.13599113825579
 10
29.34556344135747
 20
15.87130246867263
 30
0.0
 10
29.39380906369954
 20
15.83247427070119
 30
0.0
 10
29.49296170971606
 20
15.75774381153552
 30
0.0
 10
29.65113782297325
 20
15.6605145721766
 30
0.0
 10
29.81682536777198
 20
15.57345695317186
 30
0.0
 10
30.00095190615207
 20
15.53726305527536
 30
0.0
 10
30.18277249279478
 20
15.52233786869163
 30
0.0
 10
30.38373403789208
 20
15.59659810390756
 30
0.0
 10
30.30001707162727
 20
15.80823359719452
 30
0.0
 10
30.19507614670538
 20
15.94981064527491
 30
0.0
 10
30.0747239865706
 20
16.0949386190873
 30
0.0
 10
29.94967623376075
 20
16.23155068472344
 30
0.0
 10
29.82536703086986
 20
16.36998628241419
 30
0.0
 10
29.70205739003852
 20
16.5090055368579
 30
0.0
 10
29.57968397496651
 20
16.64893171267796
 30
0.0
 10
29.45827370307055
 20
16.78967262008964
 30
0.0
 10
29.33781590922872
 20
16.93123526152324
 30
0.0
 10
29.25277921021421
 20
17.03264230495448
 30
0.0
 10
29.20777582895658
 20
17.08675877928593
 30
0.0
 10
29.20239159234572
 20
17.09323978570987
 30
0.0
  0
ARC
  5
98
330
1F
100
AcDbEntity
  8
Default
100
AcDbCircle
 10
29.39468895387571
 20
17.25299498828119
 30
0.0
 40
0.25
100
AcDbArc
 50
92.60936929485611
 51
219.7188424820518
  0
SPLINE
  5
99
330
1F
100
AcDbEntity
  8
Default
100
AcDbSpline
210
0.0
220
0.0
230
1.0
 70
     8
 71
     3
 72
    12
 73
     8
 74
     0
 42
0.0000000001
 43
0.0000000001
 40
0.1004929713206162
 40
0.1004929713206162
 40
0.1004929713206162
 40
0.1004929713206162
 40
3.645618499081671
 40
6.068168658872678
 40
9.511558966442593
 40
11.17798759891832
 40
12.53266205303574
 40
12.53266205303574
 40
12.53266205303574
 40
12.53266205303574
 10
29.38330736781865
 20
17.50273577289361
 30
0.0
 10
30.56376061052279
 20
17.55653327412649
 30
0.0
 10
32.54660441754334
 20
17.72334879070778
 30
0.0
 10
35.67641956789404
 20
17.9318397482897
 30
0.0
 10
38.18365129935931
 20
18.07102715960552
 30
0.0
 10
40.33440203962959
 20
18.19767753276023
 30
0.0
 10
41.34076247412111
 20
18.24810400339139
 30
0.0
 10
41.79224628882574
 20
18.23991076650446
 30
0.0
  0
SPLINE
  5
9A
330
1F
100
AcDbEntity
  8
Default
100
AcDbSpline
210
0.0
220
0.0
230
1.0
 70
     8
 71
     3
 72
     9
 73
     5
 74
     0
 42
0.0000000001
 43
0.0000000001
 40
-2.0
 40
-2.0
 40
-2.0
 40
-2.0
 40
-1.0
 40
0.0
 40
0.0
 40
0.0
 40
0.0
 10
41.79224628882574
 20
18.23991076650446
 30
0.0
 10
41.87173271231978
 20
18.23846829819049
 30
0.0
 10
42.08046394258099
 20
18.18172114935945
 30
0.0
 10
42.04639257177222
 20
17.97882189399596
 30
0.0
 10
42.01054235198939
 20
17.90581706918403
 30
0.0
  0
SPLINE
  5
9B
330
1F
100
AcDbEntity
  8
Default
100
AcDbSpline
210
0.0
220
0.0
230
1.0
 70
    12
 71
     2
 72
     8
 73
     5
 74
     0
 42
0.0000000001
 43
0.0000000001
 40
0.0
 40
0.0
 40
0.0
 40
1.570796326794897
 40
1.570796326794897
 40
3.141592653589793
 40
3.141592653589793
 40
3.141592653589793
 10
-10.08007788435724
 20
65.84508627010612
 30
0.0
 41
1.0
 10
-10.11708377637188
 20
66.43994101946241
 30
0.0
 41
0.7071067811865475
 10
-9.555684658986452
 20
66.47486563784624
 30
0.0
 41
1.0
 10
-8.994285541601029
 20
66.50979025623006
 30
0.0
 41
0.7071067811865475
 10
-8.957279649586397
 20
65.91493550687377
 30
0.0
 41
1.0
  0
SPLINE
  5
9C
330
1F
100
AcDbEntity
  8
Default
100
AcDbSpline
210
0.0
220
0.0
230
1.0
 70
    24
 71
     2
 72
     6
 73
     3
 74
     0
 42
0.0000000001
 43
0.0000000001
 40
0.0
 40
0.0
 40
0.0
 40
2.34975482514205
 40
2.34975482514205
 40
2.34975482514205
 10
8.811279904834919
 20
63.56972084445781
 30
0.0
 10
8.884279777210658
 20
64.74232817566579
 30
0.0
 10
8.957279649586397
 20
65.91493550687377
 30
0.0
  0
SPLINE
  5
9D
330
1F
100
AcDbEntity
  8
Default
100
AcDbSpline
210
0.0
220
0.0
230
1.0
 70
    12
 71
     2
 72
     8
 73
     5
 74
     0
 42
0.0000000001
 43
0.0000000001
 40
-3.141592653589793
 40
-3.141592653589793
 40
-3.141592653589793
 40
-1.570796326794897
 40
-1.570796326794897
 40
0.0
 40
0.0
 40
0.0
 10
8.957279649586397
 20
65.91493550687377
 30
0.0
 41
1.0
 10
8.99106639024708
 20
66.45765672688385
 30
0.0
 41
0.7071067811865475
 10
9.553639161221142
 20
66.42385621572359
 30
0.0
 41
1.0
 10
10.11494709068074
 20
66.38775710465293
 30
0.0
 41
0.7071067811865475
 10
10.08007788435724
 20
65.84508627010612
 30
0.0
 41
1.0
  0
SPLINE
  5
9E
330
1F
100
AcDbEntity
  8
Default
100
AcDbSpline
210
0.0
220
0.0
230
1.0
 70
    24
 71
     2
 72
     6
 73
     3
 74
     0
 42
0.0000000001
 43
0.0000000001
 40
0.0
 40
0.0
 40
0.0
 40
4.328712305731482
 40
4.328712305731482
 40
4.328712305731482
 10
10.08007788435724
 20
65.84508627010612
 30
0.0
 10
9.945612716624801
 20
63.68490204714418
 30
0.0
 10
9.811147548892357
 20
61.52471782418223
 30
0.0
  0
SPLINE
  5
9F
330
1F
100
AcDbEntity
  8
Default
100
AcDbSpline
210
0.0
220
0.0
230
1.0
 70
    12
 71
     2
 72
     6
 73
     3
 74
     0
 42
0.0000000001
 43
0.0000000001
 40
0.0
 40
0.0
 40
0.0
 40
0.0742368075508645
 40
0.0742368075508645
 40
0.0742368075508645
 10
9.335955625871321
 20
62.11656697078459
 30
0.0
 41
1.0
 10
9.346903559562929
 20
62.08109977472404
 30
0.0
 41
0.9999981765885326
 10
9.357715952740225
 20
62.04559102365766
 30
0.0
 41
1.0
  0
SPLINE
  5
A0
330
1F
100
AcDbEntity
  8
Default
100
AcDbSpline
210
0.0
220
0.0
230
1.0
 70
    12
 71
     2
 72
     8
 73
     5
 74
     0
 42
0.0000000001
 43
0.0000000001
 40
-3.0
 40
-3.0
 40
-3.0
 40
-2.0
 40
-1.0
 40
0.0
 40
0.0
 40
0.0
 10
9.808061667404179
 20
61.47615068487386
 30
0.0
 41
1.0
 10
9.805392058688057
 20
61.43608123939931
 30
0.0
 41
1.0
 10
9.800444412906478
 20
61.35591626016576
 30
0.0
 41
1.0
 10
9.78651454053432
 20
61.0680690609728
 30
0.0
 41
1.0
 10
9.783972834294474
 20
61.02799129905018
 30
0.0
 41
1.0
  0
SPLINE
  5
A1
330
1F
100
AcDbEntity
  8
Default
100
AcDbSpline
210
0.0
220
0.0
230
1.0
 70
     8
 71
     3
 72
    11
 73
     7
 74
     0
 42
0.0000000001
 43
0.0000000001
 40
0.0000000000000001
 40
0.0000000000000001
 40
0.0000000000000001
 40
0.0000000000000001
 40
0.3781335773925084
 40
0.5640830755754028
 40
0.63666157123833
 40
0.705388731348004
 40
0.705388731348004
 40
0.705388731348004
 40
0.705388731348004
 10
9.783972834294474
 20
61.02799129905018
 30
0.0
 10
9.776006659832628
 20
60.90238022782928
 30
0.0
 10
9.764112973279246
 20
60.71419733332774
 30
0.0
 10
9.746129529904515
 20
60.5034139113605
 30
0.0
 10
9.723210800532229
 20
60.39547834103625
 30
0.0
 10
9.68592717374109
 20
60.3609373272925
 30
0.0
 10
9.667730153039852
 20
60.34864705002573
 30
0.0
  0
ARC
  5
A2
330
1F
100
AcDbEntity
  8
Default
100
AcDbCircle
 10
9.528788439215226
 20
60.55436456053054
 30
0.0
 40
0.2482428125219768
100
AcDbArc
 50
285.9438040692613
 51
304.0351122329449
  0
SPLINE
  5
A3
330
1F
100
AcDbEntity
  8
Default
100
AcDbSpline
210
0.0
220
0.0
230
1.0
 70
     8
 71
     2
 72
    11
 73
     8
 74
     0
 42
0.0000000001
 43
0.0000000001
 40
0.0
 40
0.0
 40
0.0
 40
1.0
 40
2.0
 40
3.0
 40
4.0
 40
5.0
 40
6.0
 40
6.0
 40
6.0
 10
9.687953095134208
 20
60.6416039982254
 30
0.0
 10
9.687672850839316
 20
60.73744527607585
 30
0.0
 10
9.676163764993248
 20
60.92877742399269
 30
0.0
 10
9.660350413980714
 20
61.11977844938504
 30
0.0
 10
9.633003343408213
 20
61.30959612831992
 30
0.0
 10
9.583189056844478
 20
61.49495774354649
 30
0.0
 10
9.502300219732794
 20
61.66950774381552
 30
0.0
 10
9.444444315482212
 20
61.74613979210507
 30
0.0
  0
SPLINE
  5
A4
330
1F
100
AcDbEntity
  8
Default
100
AcDbSpline
210
0.0
220
0.0
230
1.0
 70
    12
 71
     2
 72
    10
 73
     7
 74
     0
 42
0.0000000001
 43
0.0000000001
 40
-0.7644817079169229
 40
-0.7644817079169229
 40
-0.7644817079169229
 40
-0.1060175460643373
 40
-0.1060175460643373
 40
0.0
 40
0.0
 40
0.1282201628013348
 40
0.1282201628013348
 40
0.1282201628013348
 10
9.575795352076861
 20
61.1849549007774
 30
0.0
 41
0.9999992040962243
 10
9.635907193177394
 20
60.86112252616997
 30
0.0
 41
0.9993961059510184
 10
9.722534167137058
 20
60.49140701255917
 30
0.0
 41
0.9999992032399301
 10
9.73621807469342
 20
60.4366962271022
 30
0.0
 41
0.912286974915978
 10
9.704428521016187
 20
60.39011357316044
 30
0.0
 41
1.0
 10
9.659749710334621
 20
60.33757454717221
 30
0.0
 41
0.9473303484341768
 10
9.596979353144686
 20
60.31567125684088
 30
0.0
 41
1.0
  0
SPLINE
  5
A5
330
1F
100
AcDbEntity
  8
Default
100
AcDbSpline
210
0.0
220
0.0
230
1.0
 70
    12
 71
     2
 72
    10
 73
     7
 74
     0
 42
0.0000000001
 43
0.0000000001
 40
-0.1282201628013348
 40
-0.1282201628013348
 40
-0.1282201628013348
 40
0.0
 40
0.0
 40
0.1060175460643373
 40
0.1060175460643373
 40
0.7644817079169229
 40
0.7644817079169229
 40
0.7644817079169229
 10
-9.596979353144686
 20
60.31567125684088
 30
0.0
 41
1.0
 10
-9.659749710334621
 20
60.33757454717221
 30
0.0
 41
0.9473303484341768
 10
-9.704428521016187
 20
60.39011357316044
 30
0.0
 41
1.0
 10
-9.73621807469342
 20
60.4366962271022
 30
0.0
 41
0.912286974915978
 10
-9.722534167137058
 20
60.49140701255917
 30
0.0
 41
0.9999992032399301
 10
-9.635907193177394
 20
60.86112252616997
 30
0.0
 41
0.9993961059510184
 10
-9.575795352076861
 20
61.1849549007774
 30
0.0
 41
0.9999992040962243
  0
SPLINE
  5
A6
330
1F
100
AcDbEntity
  8
Default
100
AcDbSpline
210
0.0
220
0.0
230
1.0
 70
     8
 71
     3
 72
    19
 73
    15
 74
     0
 42
0.0000000001
 43
0.0000000001
 40
-11.51386883183247
 40
-11.51386883183247
 40
-11.51386883183247
 40
-11.51386883183247
 40
-10.86335533494464
 40
-9.710123961932329
 40
-9.470060216773138
 40
-9.238659435547545
 40
-9.218595657282524
 40
-9.090866166954358
 40
-9.019515739888016
 40
-8.91937015223986
 40
-6.899475607671127
 40
-4.462819732511551
 40
-2.232247940101095
 40
0.0
 40
0.0
 40
0.0
 40
0.0
 10
-9.575795352076867
 20
61.1849549007774
 30
0.0
 10
-9.53623790132954
 20
61.39805739397005
 30
0.0
 10
-9.374104256080454
 20
62.03008686609212
 30
0.0
 10
-9.15371112416673
 20
62.67440970557656
 30
0.0
 10
-8.999653704232013
 20
63.19394001035906
 30
0.0
 10
-8.958241891219327
 20
63.3515857565977
 30
0.0
 10
-8.924905977011832
 20
63.47513272276396
 30
0.0
 10
-8.870270733235689
 20
63.52697591417011
 30
0.0
 10
-8.790985997864453
 20
63.58823356597388
 30
0.0
 10
-8.112337509100534
 20
63.85907661894821
 30
0.0
 10
-6.675243884416862
 20
64.35233226150076
 30
0.0
 10
-4.509994723262233
 20
64.89156312196508
 30
0.0
 10
-2.23105346267073
 20
65.21703928355045
 30
0.0
 10
-0.7439226005075675
 20
65.28655119892935
 30
0.0
 10
0.0
 20
65.28664619258011
 30
0.0
  0
SPLINE
  5
A7
330
1F
100
AcDbEntity
  8
Default
100
AcDbSpline
210
0.0
220
0.0
230
1.0
 70
     8
 71
     3
 72
    19
 73
    15
 74
     0
 42
0.0000000001
 43
0.0000000001
 40
0.0
 40
0.0
 40
0.0
 40
0.0
 40
2.232247940101095
 40
4.462819732511551
 40
6.899475607671127
 40
8.91937015223986
 40
9.019515739888016
 40
9.090866166954358
 40
9.218595657282524
 40
9.238659435547545
 40
9.470060216773138
 40
9.710123961932329
 40
10.86335533494464
 40
11.51386883183247
 40
11.51386883183247
 40
11.51386883183247
 40
11.51386883183247
 10
0.0
 20
65.28664619258011
 30
0.0
 10
0.7439226005075675
 20
65.28655119892935
 30
0.0
 10
2.23105346267073
 20
65.21703928355045
 30
0.0
 10
4.509994723262233
 20
64.89156312196508
 30
0.0
 10
6.675243884416862
 20
64.35233226150076
 30
0.0
 10
8.112337509100534
 20
63.85907661894821
 30
0.0
 10
8.790985997864453
 20
63.58823356597388
 30
0.0
 10
8.870270733235689
 20
63.52697591417011
 30
0.0
 10
8.924905977011832
 20
63.47513272276396
 30
0.0
 10
8.958241891219327
 20
63.3515857565977
 30
0.0
 10
8.999653704232013
 20
63.19394001035906
 30
0.0
 10
9.15371112416673
 20
62.67440970557656
 30
0.0
 10
9.374104256080454
 20
62.03008686609212
 30
0.0
 10
9.53623790132954
 20
61.39805739397005
 30
0.0
 10
9.575795352076867
 20
61.1849549007774
 30
0.0
  0
SPLINE
  5
A8
330
1F
100
AcDbEntity
  8
Default
100
AcDbSpline
210
0.0
220
0.0
230
1.0
 70
     8
 71
     2
 72
    11
 73
     8
 74
     0
 42
0.0000000001
 43
0.0000000001
 40
0.0
 40
0.0
 40
0.0
 40
1.0
 40
2.0
 40
3.0
 40
4.0
 40
5.0
 40
6.0
 40
6.0
 40
6.0
 10
-9.356630980129527
 20
62.04605054382793
 30
0.0
 10
-9.421919879349215
 20
62.03360923254479
 30
0.0
 10
-9.543078044368498
 20
61.97892810859325
 30
0.0
 10
-9.648088631134078
 20
61.89742554496718
 30
0.0
 10
-9.73114170892758
 20
61.7936426389284
 30
0.0
 10
-9.787576848395611
 20
61.67324875943548
 30
0.0
 10
-9.812162408258384
 20
61.5425209613641
 30
0.0
 10
-9.808078907190648
 20
61.47615743314853
 30
0.0
  0
SPLINE
  5
A9
330
1F
100
AcDbEntity
  8
Default
100
AcDbSpline
210
0.0
220
0.0
230
1.0
 70
     8
 71
     2
 72
    11
 73
     8
 74
     0
 42
0.0000000001
 43
0.0000000001
 40
0.0
 40
0.0
 40
0.0
 40
1.0
 40
2.0
 40
3.0
 40
4.0
 40
5.0
 40
6.0
 40
6.0
 40
6.0
 10
-9.687953095134208
 20
60.6416039982254
 30
0.0
 10
-9.687672850839316
 20
60.73744527607585
 30
0.0
 10
-9.676163764993248
 20
60.92877742399269
 30
0.0
 10
-9.660350413980714
 20
61.11977844938504
 30
0.0
 10
-9.633003343408213
 20
61.30959612831992
 30
0.0
 10
-9.583189056844478
 20
61.49495774354649
 30
0.0
 10
-9.502300219732794
 20
61.66950774381552
 30
0.0
 10
-9.444444315482212
 20
61.74613979210507
 30
0.0
  0
SPLINE
  5
AA
330
1F
100
AcDbEntity
  8
Default
100
AcDbSpline
210
0.0
220
0.0
230
1.0
 70
    12
 71
     2
 72
     8
 73
     5
 74
     0
 42
0.0000000001
 43
0.0000000001
 40
-3.0
 40
-3.0
 40
-3.0
 40
-2.0
 40
-1.0
 40
0.0
 40
0.0
 40
0.0
 10
-9.808061667404179
 20
61.47615068487386
 30
0.0
 41
1.0
 10
-9.805392058688057
 20
61.43608123939931
 30
0.0
 41
1.0
 10
-9.800444412906478
 20
61.35591626016576
 30
0.0
 41
1.0
 10
-9.78651454053432
 20
61.0680690609728
 30
0.0
 41
1.0
 10
-9.783972834294474
 20
61.02799129905018
 30
0.0
 41
1.0
  0
SPLINE
  5
AB
330
1F
100
AcDbEntity
  8
Default
100
AcDbSpline
210
0.0
220
0.0
230
1.0
 70
     8
 71
     3
 72
    11
 73
     7
 74
     0
 42
0.0000000001
 43
0.0000000001
 40
0.0000000000000001
 40
0.0000000000000001
 40
0.0000000000000001
 40
0.0000000000000001
 40
0.3781335773925084
 40
0.5640830755754028
 40
0.63666157123833
 40
0.705388731348004
 40
0.705388731348004
 40
0.705388731348004
 40
0.705388731348004
 10
-9.783972834294474
 20
61.02799129905018
 30
0.0
 10
-9.776006659832628
 20
60.90238022782928
 30
0.0
 10
-9.764112973279246
 20
60.71419733332774
 30
0.0
 10
-9.746129529904515
 20
60.5034139113605
 30
0.0
 10
-9.723210800532229
 20
60.39547834103625
 30
0.0
 10
-9.68592717374109
 20
60.3609373272925
 30
0.0
 10
-9.667730153039852
 20
60.34864705002573
 30
0.0
  0
ARC
  5
AC
330
1F
100
AcDbEntity
  8
Default
100
AcDbCircle
 10
-9.528788439215226
 20
60.55436456053054
 30
0.0
 40
0.2482428125219768
100
AcDbArc
 50
235.9648877670555
 51
254.0561959307387
  0
SPLINE
  5
AD
330
1F
100
AcDbEntity
  8
Default
100
AcDbSpline
210
0.0
220
0.0
230
1.0
 70
    12
 71
     2
 72
     6
 73
     3
 74
     0
 42
0.0000000001
 43
0.0000000001
 40
0.0
 40
0.0
 40
0.0
 40
0.0742368075508645
 40
0.0742368075508645
 40
0.0742368075508645
 10
-9.335955625871321
 20
62.11656697078459
 30
0.0
 41
1.0
 10
-9.346903559562929
 20
62.08109977472404
 30
0.0
 41
0.9999981765885326
 10
-9.357715952740225
 20
62.04559102365766
 30
0.0
 41
1.0
  0
SPLINE
  5
AE
330
1F
100
AcDbEntity
  8
Default
100
AcDbSpline
210
0.0
220
0.0
230
1.0
 70
    24
 71
     2
 72
     6
 73
     3
 74
     0
 42
0.0000000001
 43
0.0000000001
 40
0.0
 40
0.0
 40
0.0
 40
2.34975482514205
 40
2.34975482514205
 40
2.34975482514205
 10
-8.811279904834919
 20
63.56972084445781
 30
0.0
 10
-8.884279777210658
 20
64.74232817566579
 30
0.0
 10
-8.957279649586397
 20
65.91493550687377
 30
0.0
  0
SPLINE
  5
AF
330
1F
100
AcDbEntity
  8
Default
100
AcDbSpline
210
0.0
220
0.0
230
1.0
 70
    12
 71
     2
 72
     8
 73
     5
 74
     0
 42
0.0000000001
 43
0.0000000001
 40
-3.141592653589793
 40
-3.141592653589793
 40
-3.141592653589793
 40
-1.570796326794897
 40
-1.570796326794897
 40
0.0
 40
0.0
 40
0.0
 10
-8.957279649586397
 20
65.91493550687377
 30
0.0
 41
1.0
 10
-8.99106639024708
 20
66.45765672688385
 30
0.0
 41
0.7071067811865475
 10
-9.553639161221142
 20
66.42385621572359
 30
0.0
 41
1.0
 10
-10.11494709068074
 20
66.38775710465293
 30
0.0
 41
0.7071067811865475
 10
-10.08007788435724
 20
65.84508627010612
 30
0.0
 41
1.0
  0
SPLINE
  5
B0
330
1F
100
AcDbEntity
  8
Default
100
AcDbSpline
210
0.0
220
0.0
230
1.0
 70
    24
 71
     2
 72
     6
 73
     3
 74
     0
 42
0.0000000001
 43
0.0000000001
 40
0.0
 40
0.0
 40
0.0
 40
4.328712305731482
 40
4.328712305731482
 40
4.328712305731482
 10
-10.08007788435724
 20
65.84508627010612
 30
0.0
 10
-9.945612716624801
 20
63.68490204714418
 30
0.0
 10
-9.811147548892357
 20
61.52471782418223
 30
0.0
  0
SPLINE
  5
B1
330
1F
100
AcDbEntity
  8
Default
100
AcDbSpline
210
0.0
220
0.0
230
1.0
 70
    12
 71
     2
 72
     8
 73
     5
 74
     0
 42
0.0000000001
 43
0.0000000001
 40
0.0
 40
0.0
 40
0.0
 40
1.570796326794897
 40
1.570796326794897
 40
3.141592653589793
 40
3.141592653589793
 40
3.141592653589793
 10
10.08007788435724
 20
65.84508627010612
 30
0.0
 41
1.0
 10
10.11708377637188
 20
66.43994101946241
 30
0.0
 41
0.7071067811865475
 10
9.555684658986452
 20
66.47486563784624
 30
0.0
 41
1.0
 10
8.994285541601029
 20
66.50979025623006
 30
0.0
 41
0.7071067811865475
 10
8.957279649586397
 20
65.91493550687377
 30
0.0
 41
1.0
  0
SPLINE
  5
B2
330
1F
100
AcDbEntity
  8
Default
100
AcDbSpline
210
0.0
220
0.0
230
1.0
 70
     8
 71
     2
 72
    11
 73
     8
 74
     0
 42
0.0000000001
 43
0.0000000001
 40
0.0
 40
0.0
 40
0.0
 40
1.0
 40
2.0
 40
3.0
 40
4.0
 40
5.0
 40
6.0
 40
6.0
 40
6.0
 10
9.356630980129527
 20
62.04605054382793
 30
0.0
 10
9.421919879349215
 20
62.03360923254479
 30
0.0
 10
9.543078044368498
 20
61.97892810859325
 30
0.0
 10
9.648088631134078
 20
61.89742554496718
 30
0.0
 10
9.73114170892758
 20
61.7936426389284
 30
0.0
 10
9.787576848395611
 20
61.67324875943548
 30
0.0
 10
9.812162408258384
 20
61.5425209613641
 30
0.0
 10
9.808078907190648
 20
61.47615743314853
 30
0.0
  0
SPLINE
  5
B3
330
1F
100
AcDbEntity
  8
Default
100
AcDbSpline
210
0.0
220
0.0
230
1.0
 70
    24
 71
     2
 72
     6
 73
     3
 74
     0
 42
0.0000000001
 43
0.0000000001
 40
0.0
 40
0.0
 40
0.0
 40
1.315706620815528
 40
1.315706620815528
 40
1.315706620815528
 10
27.25163601921702
 20
16.60953411884827
 30
0.0
 10
27.86442477898004
 20
16.37023832634972
 30
0.0
 10
28.47721353874307
 20
16.13094253385117
 30
0.0
  0
SPLINE
  5
B4
330
1F
100
AcDbEntity
  8
Default
100
AcDbSpline
210
0.0
220
0.0
230
1.0
 70
     8
 71
     3
 72
     8
 73
     4
 74
     0
 42
0.0000000001
 43
0.0000000001
 40
0.0
 40
0.0
 40
0.0
 40
0.0
 40
1.443706964781046
 40
1.443706964781046
 40
1.443706964781046
 40
1.443706964781046
 10
28.89011084498009
 20
17.04078782602451
 30
0.0
 10
28.44030085777989
 20
17.21183966316163
 30
0.0
 10
27.93960849824064
 20
17.40440481547893
 30
0.0
 10
27.49100766984512
 20
17.57860312871959
 30
0.0
  0
SPLINE
  5
B5
330
1F
100
AcDbEntity
  8
Default
100
AcDbSpline
210
0.0
220
0.0
230
1.0
 70
    24
 71
     2
 72
     6
 73
     3
 74
     0
 42
0.0000000001
 43
0.0000000001
 40
-0.3592519704053348
 40
-0.3592519704053348
 40
-0.3592519704053348
 40
0.0
 40
0.0
 40
0.0
 10
27.65700802677364
 20
16.86501441753719
 30
0.0
 10
27.705919157579
 20
17.03785305859691
 30
0.0
 10
27.75483028838437
 20
17.21069169965662
 30
0.0
  0
SPLINE
  5
B6
330
1F
100
AcDbEntity
  8
Default
100
AcDbSpline
210
0.0
220
0.0
230
1.0
 70
    12
 71
     2
 72
     8
 73
     5
 74
     0
 42
0.0000000001
 43
0.0000000001
 40
-0.0851434026212989
 40
-0.0851434026212989
 40
-0.0851434026212989
 40
-0.0349273505781476
 40
-0.0349273505781476
 40
0.0
 40
0.0
 40
0.0
 10
27.75483028838437
 20
17.21069169965662
 30
0.0
 41
1.0
 10
27.76120107450918
 20
17.23557491090508
 30
0.0
 41
0.9665972973670869
 10
27.77906394678782
 20
17.25403240022082
 30
0.0
 41
1.0
 10
27.79175337120549
 20
17.26909511267556
 30
0.0
 41
0.8383882943599786
 10
27.81066942414109
 20
17.26360970112464
 30
0.0
 41
1.0
  0
SPLINE
  5
B7
330
1F
100
AcDbEntity
  8
Default
100
AcDbSpline
210
0.0
220
0.0
230
1.0
 70
    24
 71
     2
 72
     6
 73
     3
 74
     0
 42
0.0000000001
 43
0.0000000001
 40
-0.2398007059438697
 40
-0.2398007059438697
 40
-0.2398007059438697
 40
0.0
 40
0.0
 40
0.0
 10
27.81066942414109
 20
17.26360970112464
 30
0.0
 10
27.92243877688425
 20
17.22020801417391
 30
0.0
 10
28.03420812962742
 20
17.17680632722319
 30
0.0
  0
SPLINE
  5
B8
330
1F
100
AcDbEntity
  8
Default
100
AcDbSpline
210
0.0
220
0.0
230
1.0
 70
    12
 71
     2
 72
     6
 73
     3
 74
     0
 42
0.0000000001
 43
0.0000000001
 40
0.0
 40
0.0
 40
0.0
 40
0.08967655564239
 40
0.08967655564239
 40
0.08967655564239
 10
28.03420812962742
 20
17.17680632722319
 30
0.0
 41
1.0
 10
28.07430228226213
 20
17.14286146750576
 30
0.0
 41
0.7940831638840014
 10
28.05180802355478
 20
17.09459724239993
 30
0.0
 41
1.0
  0
SPLINE
  5
B9
330
1F
100
AcDbEntity
  8
Default
100
AcDbSpline
210
0.0
220
0.0
230
1.0
 70
    24
 71
     2
 72
     6
 73
     3
 74
     0
 42
0.0000000001
 43
0.0000000001
 40
0.0
 40
0.0
 40
0.0
 40
0.3578031650550604
 40
0.3578031650550604
 40
0.3578031650550604
 10
28.05180802355478
 20
17.09459724239993
 30
0.0
 10
28.00299551810687
 20
16.92210711654477
 30
0.0
 10
27.95418301265897
 20
16.7496169906896
 30
0.0
  0
SPLINE
  5
BA
330
1F
100
AcDbEntity
  8
Default
100
AcDbSpline
210
0.0
220
0.0
230
1.0
 70
    12
 71
     2
 72
     6
 73
     3
 74
     0
 42
0.0000000001
 43
0.0000000001
 40
0.0
 40
0.0
 40
0.0
 40
0.0850192936796374
 40
0.0850192936796374
 40
0.0850192936796374
 10
27.95418301265897
 20
16.7496169906896
 30
0.0
 41
1.0
 10
27.95175252158793
 20
16.69626188691553
 30
0.0
 41
0.7201836708809143
 10
27.89834387690225
 20
16.69669898922158
 30
0.0
 41
1.0
  0
SPLINE
  5
BB
330
1F
100
AcDbEntity
  8
Default
100
AcDbSpline
210
0.0
220
0.0
230
1.0
 70
    24
 71
     2
 72
     6
 73
     3
 74
     0
 42
0.0000000001
 43
0.0000000001
 40
0.0
 40
0.0
 40
0.0
 40
0.2398007059438631
 40
0.2398007059438631
 40
0.2398007059438631
 10
27.89834387690225
 20
16.69669898922158
 30
0.0
 10
27.78657452415909
 20
16.74010067617231
 30
0.0
 10
27.67480517141593
 20
16.78350236312304
 30
0.0
  0
SPLINE
  5
BC
330
1F
100
AcDbEntity
  8
Default
100
AcDbSpline
210
0.0
220
0.0
230
1.0
 70
    12
 71
     2
 72
     8
 73
     5
 74
     0
 42
0.0000000001
 43
0.0000000001
 40
-0.0898917853188032
 40
-0.0898917853188032
 40
-0.0898917853188032
 40
-0.0522765087782868
 40
-0.0522765087782868
 40
0.0
 40
0.0
 40
0.0
 10
27.67480517141593
 20
16.78350236312304
 30
0.0
 41
1.0
 10
27.65668600288976
 20
16.79298360585488
 30
0.0
 41
0.8837810173697971
 10
27.65434193500433
 20
16.81329871298156
 30
0.0
 41
1.0
 10
27.64940192986791
 20
16.83947995889463
 30
0.0
 41
0.9718115344464822
 10
27.65700802677364
 20
16.86501441753719
 30
0.0
 41
1.0
  0
SPLINE
  5
BD
330
1F
100
AcDbEntity
  8
Default
100
AcDbSpline
210
0.0
220
0.0
230
1.0
 70
    24
 71
     2
 72
     6
 73
     3
 74
     0
 42
0.0000000001
 43
0.0000000001
 40
-17.17255256346714
 40
-17.17255256346714
 40
-17.17255256346714
 40
0.0
 40
0.0
 40
0.0
 10
42.1370697036715
 20
0.1546850528959354
 30
0.0
 10
41.89822560309564
 20
8.737638733391178
 30
0.0
 10
41.65938150251979
 20
17.32059241388642
 30
0.0
  0
SPLINE
  5
BE
330
1F
100
AcDbEntity
  8
Default
100
AcDbSpline
210
0.0
220
0.0
230
1.0
 70
    12
 71
     3
 72
    10
 73
     6
 74
     0
 42
0.0000000001
 43
0.0000000001
 40
-1.13253298991588
 40
-1.13253298991588
 40
-1.13253298991588
 40
-1.13253298991588
 40
-0.5570862629503451
 40
-0.5570862629503451
 40
0.0
 40
0.0
 40
0.0
 40
0.0
 10
41.65938150251979
 20
17.32059241388642
 30
0.0
 41
1.0
 10
41.65563251577506
 20
17.45531370292463
 30
0.0
 41
1.0
 10
41.69158120659753
 20
17.59949775945306
 30
0.0
 41
1.0
 10
41.86012360126957
 20
17.83995798135899
 30
0.0
 41
1.0
 10
42.00667278047911
 20
17.95547248640129
 30
0.0
 41
1.0
 10
42.20427896693592
 20
17.96097145985103
 30
0.0
 41
1.0
  0
SPLINE
  5
BF
330
1F
100
AcDbEntity
  8
Default
100
AcDbSpline
210
0.0
220
0.0
230
1.0
 70
    12
 71
     3
 72
    10
 73
     6
 74
     0
 42
0.0000000001
 43
0.0000000001
 40
0.0
 40
0.0
 40
0.0
 40
0.0
 40
0.5574927714314596
 40
0.5574927714314596
 40
1.13250510453735
 40
1.13250510453735
 40
1.13250510453735
 40
1.13250510453735
 10
42.20427896693592
 20
17.96097145985103
 30
0.0
 41
1.0
 10
42.40204896998509
 20
17.96647348757736
 30
0.0
 41
1.0
 10
42.55488507709315
 20
17.85909951196185
 30
0.0
 41
1.0
 10
42.73635645934131
 20
17.62832555478597
 30
0.0
 41
1.0
 10
42.78020035402166
 20
17.48649365743945
 30
0.0
 41
1.0
 10
42.78394652624997
 20
17.3518735135982
 30
0.0
 41
1.0
  0
SPLINE
  5
C0
330
1F
100
AcDbEntity
  8
Default
100
AcDbSpline
210
0.0
220
0.0
230
1.0
 70
    24
 71
     2
 72
     6
 73
     3
 74
     0
 42
0.0000000001
 43
0.0000000001
 40
-17.1725395786827
 40
-17.1725395786827
 40
-17.1725395786827
 40
0.0
 40
0.0
 40
0.0
 10
42.78394652624997
 20
17.3518735135982
 30
0.0
 10
43.02279044631046
 20
8.768926322964553
 30
0.0
 10
43.26163436637095
 20
0.1859791323309068
 30
0.0
  0
LINE
  5
C1
330
1F
100
AcDbEntity
  8
Default
100
AcDbLine
 10
22.08719999549354
 20
0.3932221040366883
 30
0.0
 11
26.45600693215356
 21
18.07967766300033
 31
0.0
  0
SPLINE
  5
C2
330
1F
100
AcDbEntity
  8
Default
100
AcDbSpline
210
0.0
220
0.0
230
1.0
 70
     8
 71
     2
 72
    11
 73
     8
 74
     0
 42
0.0000000001
 43
0.0000000001
 40
0.0
 40
0.0
 40
0.0
 40
1.0
 40
2.0
 40
3.0
 40
4.0
 40
5.0
 40
6.0
 40
6.0
 40
6.0
 10
26.45600693215356
 20
18.07967766300033
 30
0.0
 10
26.54803224218391
 20
18.0631036346349
 30
0.0
 10
26.73040480289305
 20
18.01946650612292
 30
0.0
 10
26.91259140597297
 20
17.97567439570509
 30
0.0
 10
27.09452413146725
 20
17.93072544508391
 30
0.0
 10
27.27618154590615
 20
17.88473422393082
 30
0.0
 10
27.45779240961258
 20
17.83834209008075
 30
0.0
 10
27.54813593206912
 20
17.80991481515813
 30
0.0
  0
ARC
  5
C3
330
1F
100
AcDbEntity
  8
Default
100
AcDbCircle
 10
-42652.81477724839
 20
10559.49356419321
 30
0.0
 40
43962.94431182191
100
AcDbArc
 50
346.1249999996745
 51
346.1261097646095
  0
LINE
  5
C4
330
1F
100
AcDbEntity
  8
Default
100
AcDbLine
 10
27.34394550690206
 20
16.98323862227607
 30
0.0
 11
23.17937385497806
 21
0.123442081298764
 31
0.0
  0
SPLINE
  5
C5
330
1F
100
AcDbEntity
  8
Default
100
AcDbSpline
210
0.0
220
0.0
230
1.0
 70
    12
 71
     2
 72
     6
 73
     3
 74
     0
 42
0.0000000001
 43
0.0000000001
 40
0.0
 40
0.0
 40
0.0
 40
2.061631574185771
 40
2.061631574185771
 40
2.061631574185771
 10
27.54813593206745
 20
17.80991481515736
 30
0.0
 41
1.0
 10
27.79189045789716
 20
18.81160326069643
 30
0.0
 41
0.9998484010904932
 10
28.00061984023964
 20
19.82117151283983
 30
0.0
 41
1.0
  0
SPLINE
  5
C6
330
1F
100
AcDbEntity
  8
Default
100
AcDbSpline
210
0.0
220
0.0
230
1.0
 70
    12
 71
     2
 72
     6
 73
     3
 74
     0
 42
0.0000000001
 43
0.0000000001
 40
0.0
 40
0.0
 40
0.0
 40
0.1598633113070148
 40
0.1598633113070148
 40
0.1598633113070148
 10
26.60614084396708
 20
19.00782146182324
 30
0.0
 41
1.0
 10
26.59432972252992
 20
18.92871518479228
 30
0.0
 41
0.9990343967449803
 10
26.58950853454393
 20
18.84887743346455
 30
0.0
 41
1.0
  0
SPLINE
  5
C7
330
1F
100
AcDbEntity
  8
Default
100
AcDbSpline
210
0.0
220
0.0
230
1.0
 70
    12
 71
     2
 72
     6
 73
     3
 74
     0
 42
0.0000000001
 43
0.0000000001
 40
0.0
 40
0.0
 40
0.0
 40
0.7816405396757449
 40
0.7816405396757449
 40
0.7816405396757449
 10
26.58950853454393
 20
18.84887743346455
 30
0.0
 41
1.0
 10
26.55609852702656
 20
18.45850625773229
 30
0.0
 41
0.996260045340734
 10
26.4559792133214
 20
18.07971610043176
 30
0.0
 41
1.0
  0
SPLINE
  5
C8
330
1F
100
AcDbEntity
  8
Default
100
AcDbSpline
210
0.0
220
0.0
230
1.0
 70
     8
 71
     2
 72
    11
 73
     8
 74
     0
 42
0.0000000001
 43
0.0000000001
 40
0.0
 40
0.0
 40
0.0
 40
1.0
 40
2.0
 40
3.0
 40
4.0
 40
5.0
 40
6.0
 40
6.0
 40
6.0
 10
28.00441343059479
 20
19.83987717688064
 30
0.0
 10
28.24417123541173
 20
20.93175422618518
 30
0.0
 10
28.3680188745184
 20
23.16403344032311
 30
0.0
 10
27.95409692458339
 20
25.36446535984945
 30
0.0
 10
27.31056338709945
 20
27.50147630239373
 30
0.0
 10
26.50392023742648
 20
29.57793763663282
 30
0.0
 10
25.65527106023861
 20
31.66257011733954
 30
0.0
 10
25.01155440992538
 20
32.53442430416921
 30
0.0
  0
SPLINE
  5
C9
330
1F
100
AcDbEntity
  8
Default
100
AcDbSpline
210
0.0
220
0.0
230
1.0
 70
     8
 71
     5
 72
    12
 73
     6
 74
     0
 42
0.0000000001
 43
0.0000000001
 40
0.0
 40
0.0
 40
0.0
 40
0.0
 40
0.0
 40
0.0
 40
1.0
 40
1.0
 40
1.0
 40
1.0
 40
1.0
 40
1.0
 10
25.01155440992538
 20
32.53442430416921
 30
0.0
 10
25.00468444837441
 20
32.54463944964004
 30
0.0
 10
24.97773889076692
 20
32.57870049113087
 30
0.0
 10
24.82170566979064
 20
32.46779249073703
 30
0.0
 10
24.76087494057156
 20
32.43983236368147
 30
0.0
 10
24.70009062479807
 20
32.41177169697863
 30
0.0
  0
ARC
  5
CA
330
1F
100
AcDbEntity
  8
Default
100
AcDbCircle
 10
45.90625744466979
 20
-13.52449752909375
 30
0.0
 40
50.59488453986661
100
AcDbArc
 50
114.7800881090393
 51
116.5741649610439
  0
ARC
  5
CB
330
1F
100
AcDbEntity
  8
Default
100
AcDbCircle
 10
23.34793096055348
 20
31.57421988320674
 30
0.0
 40
0.1689744737258318
100
AcDbArc
 50
116.5741649610433
 51
135.8652056261011
  0
ARC
  5
CC
330
1F
100
AcDbEntity
  8
Default
100
AcDbCircle
 10
25.89611405242085
 20
19.33503980449489
 30
0.0
 40
0.7812392972202519
100
AcDbArc
 50
335.4266311420732
 51
8.420640287721612
  0
SPLINE
  5
CD
330
1F
100
AcDbEntity
  8
Default
100
AcDbSpline
210
0.0
220
0.0
230
1.0
 70
     8
 71
     3
 72
    11
 73
     7
 74
     0
 42
0.0000000001
 43
0.0000000001
 40
-1.932317162159845
 40
-1.932317162159845
 40
-1.932317162159845
 40
-1.932317162159845
 40
-1.114321231087402
 40
-0.6074116793840068
 40
-0.2699890469078568
 40
0.0000000000000001
 40
0.0000000000000001
 40
0.0000000000000001
 40
0.0000000000000001
 10
26.66893131164601
 20
19.44944401492837
 30
0.0
 10
26.62891476116479
 20
19.7197616959766
 30
0.0
 10
26.39743497703234
 20
20.12768824549079
 30
0.0
 10
25.90504097534009
 20
20.401528207273
 30
0.0
 10
25.57205831559347
 20
20.55833654968955
 30
0.0
 10
25.37991937123735
 20
20.62844069545744
 30
0.0
 10
25.29367992853978
 20
20.65245199748832
 30
0.0
  0
SPLINE
  5
CE
330
1F
100
AcDbEntity
  8
Default
100
AcDbSpline
210
0.0
220
0.0
230
1.0
 70
    12
 71
     2
 72
     6
 73
     3
 74
     0
 42
0.0000000001
 43
0.0000000001
 40
-0.1016264246854027
 40
-0.1016264246854027
 40
-0.1016264246854027
 40
0.0
 40
0.0
 40
0.0
 10
25.29367992853978
 20
20.65245199748832
 30
0.0
 41
1.0
 10
25.23979336716233
 20
20.66870807868654
 30
0.0
 41
0.8603657572054948
 10
25.22814875014267
 20
20.7237749392443
 30
0.0
 41
1.0
  0
SPLINE
  5
CF
330
1F
100
AcDbEntity
  8
Default
100
AcDbSpline
210
0.0
220
0.0
230
1.0
 70
    12
 71
     2
 72
     6
 73
     3
 74
     0
 42
0.0000000001
 43
0.0000000001
 40
0.0
 40
0.0
 40
0.0
 40
0.0168225849784347
 40
0.0168225849784347
 40
0.0168225849784347
 10
25.22814875014267
 20
20.7237749392443
 30
0.0
 41
1.0
 10
25.22541733975525
 20
20.73197062428751
 30
0.0
 41
0.9609513453654801
 10
25.22746289237034
 20
20.74036381024584
 30
0.0
 41
1.0
  0
SPLINE
  5
D0
330
1F
100
AcDbEntity
  8
Default
100
AcDbSpline
210
0.0
220
0.0
230
1.0
 70
    12
 71
     3
 72
    30
 73
    26
 74
     0
 42
0.0000000001
 43
0.0000000001
 40
0.0
 40
0.0
 40
0.0
 40
0.0
 40
0.998777893850345
 40
2.039580217844248
 40
4.189912437327197
 40
6.986695890956174
 40
11.26981331091288
 40
11.26981331091288
 40
11.26981331091288
 40
11.3042122140525
 40
11.3042122140525
 40
11.3042122140525
 40
11.8678701670312
 40
12.41264512907092
 40
13.13074674650946
 40
13.16058978273658
 40
13.19762092784838
 40
13.24788819881942
 40
13.30844704110376
 40
13.35134589188302
 40
13.42219038585663
 40
13.76419401457089
 40
14.4210863406999
 40
15.94007407868409
 40
19.48616492399376
 40
19.48616492399376
 40
19.48616492399376
 40
19.48616492399376
 10
25.22746289237034
 20
20.74036381024584
 30
0.0
 41
1.0
 10
25.30914644077633
 20
21.06425578641621
 30
0.0
 41
1.0
 10
25.4245474647595
 20
21.73293587939238
 30
0.0
 41
1.0
 10
25.53093478227166
 20
23.13002115251788
 30
0.0
 41
1.0
 10
25.32453793117371
 20
25.12493288897919
 30
0.0
 41
1.0
 10
24.48129143566226
 20
28.09049362236302
 30
0.0
 41
1.0
 10
23.71017574812575
 20
30.31852134949535
 30
0.0
 41
1.0
 10
23.21943844452582
 20
31.66015057302705
 30
0.0
 41
1.0
 10
23.21527880029312
 20
31.67155863810694
 30
0.0
 41
0.8934048983870025
 10
23.21797221724901
 20
31.68339891234833
 30
0.0
 41
0.8934048983870025
 10
23.2266573802312
 20
31.69188505004356
 30
0.0
 41
1.0
 10
23.39584257259012
 20
31.77354383341592
 30
0.0
 41
1.0
 10
23.73002980818789
 20
31.93134687155042
 30
0.0
 41
1.0
 10
24.28436501998786
 20
32.18280676767586
 30
0.0
 41
1.0
 10
24.67440728993386
 20
32.36660910113901
 30
0.0
 41
1.0
 10
24.91442724656473
 20
32.47013037589994
 30
0.0
 41
1.0
 10
24.95471521032108
 20
32.45172779306326
 30
0.0
 41
1.0
 10
24.99275958749715
 20
32.42475484938559
 30
0.0
 41
1.0
 10
25.02811915070166
 20
32.38527711904508
 30
0.0
 41
1.0
 10
25.06265395494376
 20
32.33916227944499
 30
0.0
 41
1.0
 10
25.13747645678369
 20
32.20670018983024
 30
0.0
 41
1.0
 10
25.30833210566177
 20
31.89371417256157
 30
0.0
 41
1.0
 10
25.67544022511115
 20
31.13869033358302
 30
0.0
 41
1.0
 10
26.40821034869509
 20
29.3766351684221
 30
0.0
 41
1.0
 10
26.94062688889844
 20
27.7729517103907
 30
0.0
 41
1.0
 10
27.29093509691328
 20
26.59907787656033
 30
0.0
 41
1.0
  0
SPLINE
  5
D1
330
1F
100
AcDbEntity
  8
Default
100
AcDbSpline
210
0.0
220
0.0
230
1.0
 70
    12
 71
     3
 72
    12
 73
     8
 74
     0
 42
0.0000000001
 43
0.0000000001
 40
-0.9785015012744535
 40
-0.9785015012744535
 40
-0.9785015012744535
 40
-0.9785015012744535
 40
-0.4942537595695717
 40
-0.4942537595695717
 40
-0.2506663683008745
 40
-0.2506663683008745
 40
0.0
 40
0.0
 40
0.0
 40
0.0
 10
27.29093509691328
 20
26.59907787656033
 30
0.0
 41
1.0
 10
27.51656981436677
 20
25.83926702383544
 30
0.0
 41
1.0
 10
27.67873182563537
 20
25.19923354229742
 30
0.0
 41
1.0
 10
27.82902700382876
 20
24.35835492229318
 30
0.0
 41
1.0
 10
27.8678346192513
 20
24.10022918194149
 30
0.0
 41
1.0
 10
27.93744928613626
 20
23.37454884832054
 30
0.0
 41
1.0
 10
27.94470386598007
 20
23.08915884939383
 30
0.0
 41
1.0
 10
27.94581656907632
 20
22.89033205734224
 30
0.0
 41
1.0
  0
SPLINE
  5
D2
330
1F
100
AcDbEntity
  8
Default
100
AcDbSpline
210
0.0
220
0.0
230
1.0
 70
    12
 71
     2
 72
     6
 73
     3
 74
     0
 42
0.0000000001
 43
0.0000000001
 40
0.0
 40
0.0
 40
0.0
 40
0.4616602041699219
 40
0.4616602041699219
 40
0.4616602041699219
 10
27.94581656907632
 20
22.89033205734224
 30
0.0
 41
1.0
 10
27.94674447037464
 20
22.65932796679603
 30
0.0
 41
0.9988585240063492
 10
27.92562476356974
 20
22.42928947255131
 30
0.0
 41
1.0
  0
SPLINE
  5
D3
330
1F
100
AcDbEntity
  8
Default
100
AcDbSpline
210
0.0
220
0.0
230
1.0
 70
     8
 71
     3
 72
    11
 73
     7
 74
     0
 42
0.0000000001
 43
0.0000000001
 40
0.0
 40
0.0
 40
0.0
 40
0.0
 40
0.2874736741838422
 40
0.6007707123945327
 40
1.295211947608686
 40
2.682234006193673
 40
2.682234006193673
 40
2.682234006193673
 40
2.682234006193673
 10
27.92562476356974
 20
22.42928947255131
 30
0.0
 10
27.91710247876553
 20
22.33383713763722
 30
0.0
 10
27.89408188253147
 20
22.13483493447577
 30
0.0
 10
27.81795655312009
 20
21.70965934465534
 30
0.0
 10
27.61482539442493
 20
20.93656069114137
 30
0.0
 10
27.34136027001636
 20
20.29565413480423
 30
0.0
 10
27.12661039438953
 20
19.88474050578927
 30
0.0
  0
SPLINE
  5
D4
330
1F
100
AcDbEntity
  8
Default
100
AcDbSpline
210
0.0
220
0.0
230
1.0
 70
    12
 71
     2
 72
     6
 73
     3
 74
     0
 42
0.0000000001
 43
0.0000000001
 40
0.0
 40
0.0
 40
0.0
 40
0.6504522985104759
 40
0.6504522985104759
 40
0.6504522985104759
 10
27.12661039438953
 20
19.88474050578927
 30
0.0
 41
1.0
 10
26.97366585214432
 20
19.59582046394283
 30
0.0
 41
0.9991283073103383
 10
26.79680479734902
 20
19.32011274460865
 30
0.0
 41
1.0
  0
SPLINE
  5
D5
330
1F
100
AcDbEntity
  8
Default
100
AcDbSpline
210
0.0
220
0.0
230
1.0
 70
     8
 71
     3
 72
     9
 73
     5
 74
     0
 42
0.0000000001
 43
0.0000000001
 40
0.0
 40
0.0
 40
0.0
 40
0.0
 40
0.3651881675984961
 40
0.369218707017257
 40
0.369218707017257
 40
0.369218707017257
 40
0.369218707017257
 10
26.79680479734902
 20
19.32011274460865
 30
0.0
 10
26.72840404833558
 20
19.21756374062421
 30
0.0
 10
26.66760464987304
 20
19.10835222149802
 30
0.0
 10
26.60572428114951
 20
19.00400218461689
 30
0.0
 10
26.60659611477836
 20
19.0101550886503
 30
0.0
  0
SPLINE
  5
D6
330
1F
100
AcDbEntity
  8
Default
100
AcDbSpline
210
0.0
220
0.0
230
1.0
 70
    12
 71
     2
 72
    12
 73
     9
 74
     0
 42
0.0000000001
 43
0.0000000001
 40
-0.4171709231871386
 40
-0.4171709231871386
 40
-0.4171709231871386
 40
-0.0801336414061238
 40
-0.0801336414061238
 40
-0.0400668207030619
 40
-0.0400668207030619
 40
0.0
 40
0.0
 40
0.9002440585113858
 40
0.9002440585113858
 40
0.9002440585113858
 10
22.08719946622776
 20
0.3931930026811459
 30
0.0
 41
1.0
 10
22.04666039886895
 20
0.2289542388617509
 30
0.0
 41
0.994502632275188
 10
22.04121108638005
 20
0.0599024973427458
 30
0.0
 41
1.0
 10
22.0405279678872
 20
0.0387337480959867
 30
0.0
 41
0.9207550203895514
 10
22.05526147180838
 20
0.0235184118278704
 30
0.0
 41
1.0
 10
22.06999497572957
 20
0.0083030755597541
 30
0.0
 41
0.9207550203895514
 10
22.0911747441969
 20
0.0083048693151531
 30
0.0
 41
1.0
 10
22.62899452853109
 20
-0.0047046777954313
 30
0.0
 41
0.9997936884095617
 10
23.11772666773445
 20
0.0083630491118285
 30
0.0
 41
1.0
  0
SPLINE
  5
D7
330
1F
100
AcDbEntity
  8
Default
100
AcDbSpline
210
0.0
220
0.0
230
1.0
 70
    12
 71
     2
 72
     8
 73
     5
 74
     0
 42
0.0000000001
 43
0.0000000001
 40
0.0
 40
0.0
 40
0.0
 40
0.0400487643131459
 40
0.0400487643131459
 40
0.0737985633247636
 40
0.0737985633247636
 40
0.0737985633247636
 10
23.11772666773445
 20
0.0083630491118285
 30
0.0
 41
1.0
 10
23.13889353212216
 20
0.0083771491827248
 30
0.0
 41
0.9209692297744823
 10
23.15362335338257
 20
0.023578093642058
 30
0.0
 41
1.0
 10
23.16583392429818
 20
0.0361784597201908
 30
0.0
 41
0.9435914231870833
 10
23.16749349858825
 20
0.0536459461038596
 30
0.0
 41
1.0
  0
SPLINE
  5
D8
330
1F
100
AcDbEntity
  8
Default
100
AcDbSpline
210
0.0
220
0.0
230
1.0
 70
    12
 71
     2
 72
     6
 73
     3
 74
     0
 42
0.0000000001
 43
0.0000000001
 40
-0.0708654497355923
 40
-0.0708654497355923
 40
-0.0708654497355923
 40
0.0
 40
0.0
 40
0.0
 10
23.16749349858825
 20
0.0536459461038596
 30
0.0
 41
1.0
 10
23.17084615637852
 20
0.08898444707195
 30
0.0
 41
0.9972784465641281
 10
23.17845525855553
 20
0.1240308316735862
 30
0.0
 41
1.0
  0
SPLINE
  5
D9
330
1F
100
AcDbEntity
  8
Default
100
AcDbSpline
210
0.0
220
0.0
230
1.0
 70
     8
 71
     2
 72
    11
 73
     8
 74
     0
 42
0.0000000001
 43
0.0000000001
 40
0.0
 40
0.0
 40
0.0
 40
1.000004143264599
 40
2.000008286529197
 40
3.000012429793797
 40
4.000016573058396
 40
5.000020716322994
 40
6.0
 40
6.0
 40
6.0
 10
23.17845525855553
 20
0.1240308316735862
 30
0.0
 10
23.08803957626789
 20
0.1519624094332632
 30
0.0
 10
22.9066172515974
 20
0.1983654390863449
 30
0.0
 10
22.72512030104438
 20
0.2443067606907554
 30
0.0
 10
22.54338847259302
 20
0.2893592950152835
 30
0.0
 10
22.36132468942825
 20
0.332951489963928
 30
0.0
 10
22.17915928155465
 20
0.3766320443486372
 30
0.0
 10
22.08719946622776
 20
0.3931930026811459
 30
0.0
  0
SPLINE
  5
DA
330
1F
100
AcDbEntity
  8
Default
100
AcDbSpline
210
0.0
220
0.0
230
1.0
 70
    12
 71
     2
 72
     7
 73
     4
 74
     0
 42
0.0000000001
 43
0.0000000001
 40
-2.0
 40
-2.0
 40
-2.0
 40
-1.0
 40
0.0
 40
0.0
 40
0.0
 10
43.20949155116636
 20
0.0406879580384168
 30
0.0
 41
1.0
 10
42.97606810001727
 20
0.0247868753695916
 30
0.0
 41
1.0
 10
42.43115832798786
 20
0.0096232744259
 30
0.0
 41
1.0
 10
42.19721181792529
 20
0.0125185129188097
 30
0.0
 41
1.0
  0
SPLINE
  5
DB
330
1F
100
AcDbEntity
  8
Default
100
AcDbSpline
210
0.0
220
0.0
230
1.0
 70
    12
 71
     2
 72
     6
 73
     3
 74
     0
 42
0.0000000001
 43
0.0000000001
 40
0.0
 40
0.0
 40
0.0
 40
0.0904048108433135
 40
0.0904048108433135
 40
0.0904048108433135
 10
42.19721181792529
 20
0.0125185129188097
 30
0.0
 41
1.0
 10
42.14097183216272
 20
0.0145496949188919
 30
0.0
 41
0.729356425966674
 10
42.13940391080583
 20
0.0708045020157896
 30
0.0
 41
1.0
  0
SPLINE
  5
DC
330
1F
100
AcDbEntity
  8
Default
100
AcDbSpline
210
0.0
220
0.0
230
1.0
 70
    24
 71
     2
 72
     6
 73
     3
 74
     0
 42
0.0000000001
 43
0.0000000001
 40
0.0
 40
0.0
 40
0.0
 40
0.0839130223841461
 40
0.0839130223841461
 40
0.0839130223841461
 10
42.13940391080583
 20
0.0708045020157896
 30
0.0
 10
42.13823680822719
 20
0.112744777443849
 30
0.0
 10
42.13706970564856
 20
0.1546850528719084
 30
0.0
  0
SPLINE
  5
DD
330
1F
100
AcDbEntity
  8
Default
100
AcDbSpline
210
0.0
220
0.0
230
1.0
 70
    12
 71
     2
 72
     6
 73
     3
 74
     0
 42
0.0000000001
 43
0.0000000001
 40
-0.8835729338221291
 40
-0.8835729338221291
 40
-0.8835729338221291
 40
0.0
 40
0.0
 40
0.0
 10
42.1370697036715
 20
0.1546850528959354
 30
0.0
 41
1.0
 10
42.13685214620813
 20
0.1625032762212801
 30
0.0
 41
0.7071067811865476
 10
42.69913447755781
 20
0.1781503159405826
 30
0.0
 41
1.0
  0
SPLINE
  5
DE
330
1F
100
AcDbEntity
  8
Default
100
AcDbSpline
210
0.0
220
0.0
230
1.0
 70
    12
 71
     2
 72
     6
 73
     3
 74
     0
 42
0.0000000001
 43
0.0000000001
 40
-0.5626268167511917
 40
-0.5626268167511917
 40
-0.5626268167511917
 40
0.0
 40
0.0
 40
0.0
 10
42.69913447755781
 20
0.1781503159405826
 30
0.0
 41
1.0
 10
42.98027558865088
 20
0.1898844606226482
 30
0.0
 41
0.9996137062916401
 10
43.26163436834342
 20
0.1859791324716351
 30
0.0
 41
1.0
  0
SPLINE
  5
DF
330
1F
100
AcDbEntity
  8
Default
100
AcDbSpline
210
0.0
220
0.0
230
1.0
 70
    24
 71
     2
 72
     6
 73
     3
 74
     0
 42
0.0000000001
 43
0.0000000001
 40
0.0
 40
0.0
 40
0.0
 40
0.0839130223841461
 40
0.0839130223841461
 40
0.0839130223841461
 10
43.26163436834342
 20
0.1859791324716351
 30
0.0
 10
43.26280147092206
 20
0.1440388570435758
 30
0.0
 10
43.2639685735007
 20
0.1020985816155164
 30
0.0
  0
SPLINE
  5
E0
330
1F
100
AcDbEntity
  8
Default
100
AcDbSpline
210
0.0
220
0.0
230
1.0
 70
    12
 71
     2
 72
     6
 73
     3
 74
     0
 42
0.0000000001
 43
0.0000000001
 40
0.0
 40
0.0
 40
0.0
 40
0.0904048108433086
 40
0.0904048108433086
 40
0.0904048108433086
 10
43.2639685735007
 20
0.1020985816155164
 30
0.0
 41
1.0
 10
43.26553154292445
 20
0.0458436367175797
 30
0.0
 41
0.7293564259667926
 10
43.20949155116636
 20
0.0406879580384168
 30
0.0
 41
1.0
  0
SPLINE
  5
E1
330
1F
100
AcDbEntity
  8
Default
100
AcDbSpline
210
0.0
220
0.0
230
1.0
 70
    12
 71
     3
 72
    36
 73
    32
 74
     0
 42
0.0000000001
 43
0.0000000001
 40
-0.0889457941897172
 40
-0.0889457941897172
 40
-0.0889457941897172
 40
-0.0889457941897172
 40
0.0
 40
0.0
 40
0.0
 40
0.2215729701957649
 40
0.2215729701957649
 40
0.2215729701957649
 40
0.3158714000432518
 40
0.3158714000432518
 40
0.3158714000432518
 40
0.7215575836071267
 40
0.7215575836071267
 40
0.9710263337659925
 40
0.9710263337659925
 40
1.222332614297898
 40
1.222332614297898
 40
1.222332614297898
 40
1.587029359019114
 40
1.587029359019114
 40
1.587029359019114
 40
1.628812051493471
 40
1.664042597137328
 40
1.68787289307827
 40
1.707876599877494
 40
1.707876599877494
 40
1.707876599877494
 40
1.947677305818644
 40
1.947677305818644
 40
1.947677305818644
 40
2.062852807233988
 40
2.062852807233988
 40
2.062852807233988
 40
2.062852807233988
 10
28.06182677797319
 20
17.1205499286931
 30
0.0
 41
1.0
 10
28.06696691327529
 20
17.15097237652878
 30
0.0
 41
0.924278334233492
 10
28.05744107543353
 20
17.18031866652686
 30
0.0
 41
0.924278334233492
 10
28.03541320137552
 20
17.20192234879917
 30
0.0
 41
1.0
 10
27.94940423494357
 20
17.23824439023696
 30
0.0
 41
1.0
 10
27.84627367066235
 20
17.28624017264634
 30
0.0
 41
1.0
 10
27.77439577565571
 20
17.30322609821267
 30
0.0
 41
1.0
 10
27.74380552525703
 20
17.31045507613807
 30
0.0
 41
1.0
 10
27.71321527485835
 20
17.31768405406348
 30
0.0
 41
1.0
 10
27.67445219411541
 20
17.32651012480429
 30
0.0
 41
1.0
 10
27.66335990528734
 20
17.32724738570355
 30
0.0
 41
1.0
 10
27.65496195897792
 20
17.31956702419183
 30
0.0
 41
1.0
 10
27.64564843587038
 20
17.29879181958419
 30
0.0
 41
1.0
 10
27.64305411189569
 20
17.28894305121616
 30
0.0
 41
1.0
 10
27.63955810864049
 20
17.26667488656028
 30
0.0
 41
1.0
 10
27.63863436584092
 20
17.25413381344913
 30
0.0
 41
1.0
 10
27.63865941067345
 20
17.24054067899784
 30
0.0
 41
1.0
 10
27.64165757386683
 20
17.11715083761452
 30
0.0
 41
0.9702102744834417
 10
27.60804916753257
 20
16.99838839842263
 30
0.0
 41
0.9702102744834417
 10
27.5408377472699
 20
16.89486706281778
 30
0.0
 41
1.0
 10
27.53357554090037
 20
16.88301263027817
 30
0.0
 41
1.0
 10
27.52185256424347
 20
16.85998605896417
 30
0.0
 41
1.0
 10
27.51204768911213
 20
16.82777982670915
 30
0.0
 41
1.0
 10
27.51304254998482
 20
16.8005470267607
 30
0.0
 41
1.0
 10
27.52400552873845
 20
16.78901485932554
 30
0.0
 41
1.0
 10
27.53038734742184
 20
16.78689780951874
 30
0.0
 41
1.0
 10
27.60490024925108
 20
16.75796335155532
 30
0.0
 41
1.0
 10
27.67941315108034
 20
16.7290288935919
 30
0.0
 41
1.0
 10
27.75392605290959
 20
16.70009443562848
 30
0.0
 41
1.0
 10
27.79128878968965
 20
16.69126500737839
 30
0.0
 41
1.0
 10
27.82865152646972
 20
16.68243557912831
 30
0.0
 41
1.0
 10
27.88743932415934
 20
16.67119256041643
 30
0.0
 41
1.0
  0
SPLINE
  5
E2
330
1F
100
AcDbEntity
  8
Default
100
AcDbSpline
210
0.0
220
0.0
230
1.0
 70
    12
 71
     2
 72
     6
 73
     3
 74
     0
 42
0.0000000001
 43
0.0000000001
 40
0.0
 40
0.0
 40
0.0
 40
0.0849799967781024
 40
0.0849799967781024
 40
0.0849799967781024
 10
27.88743932415934
 20
16.67119256041643
 30
0.0
 41
1.0
 10
27.93322635013573
 20
16.67981936839157
 30
0.0
 41
0.8730054950337861
 10
27.94988530518841
 20
16.72333204217927
 30
0.0
 41
1.0
  0
SPLINE
  5
E3
330
1F
100
AcDbEntity
  8
Default
100
AcDbSpline
210
0.0
220
0.0
230
1.0
 70
    12
 71
     3
 72
    27
 73
    23
 74
     0
 42
0.0000000001
 43
0.0000000001
 40
0.0
 40
0.0
 40
0.0
 40
0.0
 40
1.244728433228314
 40
1.244728433228314
 40
1.244728433228314
 40
1.870401398594343
 40
1.870401398594343
 40
1.870401398594343
 40
4.920229152264927
 40
4.920229152264927
 40
4.920229152264927
 40
5.772800495400565
 40
6.586620086222773
 40
8.673929290600562
 40
8.673929290600562
 40
8.673929290600562
 40
9.446987305907031
 40
10.18186587578625
 40
11.72195382020863
 40
14.37741709520271
 40
14.41934725534845
 40
14.5374141795705
 40
14.5374141795705
 40
14.5374141795705
 40
14.5374141795705
 10
-9.812024206979089
 20
17.95691271814449
 30
0.0
 41
1.0
 10
-9.805078233260312
 20
18.37176505723176
 30
0.0
 41
0.9999951491592268
 10
-9.799715950733711
 20
18.78723809191682
 30
0.0
 41
0.9999951491592268
 10
-9.79593743743402
 20
19.20332577601907
 30
0.0
 41
1.0
 10
-9.794564521912566
 20
19.41307461779935
 30
0.0
 41
0.9999875412613548
 10
-9.791884196796374
 20
19.62393715285677
 30
0.0
 41
0.9999875412613548
 10
-9.787896562265871
 20
19.83590549994768
 30
0.0
 41
1.0
 10
-9.76828095390067
 20
20.85577304864138
 30
0.0
 41
0.9999999998608998
 10
-9.748677668334182
 20
21.87392689826542
 30
0.0
 41
0.9999999998608998
 10
-9.72908670557459
 20
22.89036704839491
 30
0.0
 41
1.0
 10
-9.725643444996125
 20
23.17458115165922
 30
0.0
 41
1.0
 10
-9.716479212786098
 20
23.72994020667396
 30
0.0
 41
1.0
 10
-9.676628460264677
 20
24.98066585107565
 30
0.0
 41
1.0
 10
-9.608675387058055
 20
25.94554014077119
 30
0.0
 41
1.0
 10
-9.572498973225377
 20
26.64042143435345
 30
0.0
 41
1.0
 10
-9.557521082863406
 20
26.89775152697602
 30
0.0
 41
1.0
 10
-9.524251207213506
 20
27.39933947303594
 30
0.0
 41
1.0
 10
-9.440331821555226
 20
28.41186658455564
 30
0.0
 41
1.0
 10
-9.26597286477488
 20
30.04634182362106
 30
0.0
 41
1.0
 10
-9.065159534871437
 20
31.4446557127379
 30
0.0
 41
1.0
 10
-8.930197656893572
 20
32.37337679643962
 30
0.0
 41
1.0
 10
-8.878777845047987
 20
32.44837552367935
 30
0.0
 41
1.0
 10
-8.849998081824591
 20
32.47393965815978
 30
0.0
 41
1.0
  0
SPLINE
  5
E4
330
1F
100
AcDbEntity
  8
Default
100
AcDbSpline
210
0.0
220
0.0
230
1.0
 70
    12
 71
     2
 72
     6
 73
     3
 74
     0
 42
0.0000000001
 43
0.0000000001
 40
0.0
 40
0.0
 40
0.0
 40
0.0437713866611207
 40
0.0437713866611207
 40
0.0437713866611207
 10
8.974646552743373
 20
0.0173695236833032
 30
0.0
 41
1.0
 10
8.98989690606149
 20
-0.0003926996203261
 30
0.0
 41
0.9050810086732575
 10
9.017077161882934
 20
0.0000693463675743
 30
0.0
 41
1.0
  0
SPLINE
  5
E5
330
1F
100
AcDbEntity
  8
Default
100
AcDbSpline
210
0.0
220
0.0
230
1.0
 70
     8
 71
     3
 72
    10
 73
     6
 74
     0
 42
0.0000000001
 43
0.0000000001
 40
0.0
 40
0.0
 40
0.0
 40
0.0
 40
0.0051614376977276
 40
0.0076964859399531
 40
0.5184066067045295
 40
0.5184066067045295
 40
0.5184066067045295
 40
0.5184066067045295
 10
9.017077161882934
 20
0.0000693463675743
 30
0.0
 10
9.02396858734003
 20
0.0001816331211356
 30
0.0
 10
9.010504651860918
 20
-0.0000376096013241
 30
0.0
 10
9.18138027403392
 20
0.0027402190062556
 30
0.0
 10
9.35417496077946
 20
0.0055504775875407
 30
0.0
 10
9.525635883920387
 20
0.0083386225390382
 30
0.0
  0
SPLINE
  5
E6
330
1F
100
AcDbEntity
  8
Default
100
AcDbSpline
210
0.0
220
0.0
230
1.0
 70
    24
 71
     2
 72
     6
 73
     3
 74
     0
 42
0.0000000001
 43
0.0000000001
 40
0.0
 40
0.0
 40
0.0
 40
17.66778947039487
 40
17.66778947039487
 40
17.66778947039487
 10
-10.08410720374532
 20
0.2669864245367606
 30
0.0
 10
-9.94827949264976
 20
9.099836871897875
 30
0.0
 10
-9.8124517815542
 20
17.93268731925899
 30
0.0
  0
SPLINE
  5
E7
330
1F
100
AcDbEntity
  8
Default
100
AcDbSpline
210
0.0
220
0.0
230
1.0
 70
    24
 71
     2
 72
     6
 73
     3
 74
     0
 42
0.0000000001
 43
0.0000000001
 40
0.0
 40
0.0
 40
0.0
 40
1.0
 40
1.0
 40
1.0
 10
9.832808
 20
57.91441556168726
 30
0.0
 10
9.832866
 20
57.91432356168725
 30
0.0
 10
9.832923999999998
 20
57.91423156168725
 30
0.0
  0
SPLINE
  5
E8
330
1F
100
AcDbEntity
  8
Default
100
AcDbSpline
210
0.0
220
0.0
230
1.0
 70
    24
 71
     2
 72
     6
 73
     3
 74
     0
 42
0.0000000001
 43
0.0000000001
 40
0.0
 40
0.0
 40
0.0
 40
1.0
 40
1.0
 40
1.0
 10
11.358544
 20
55.49784456168725
 30
0.0
 10
10.5955885
 20
56.70626906168725
 30
0.0
 10
9.832633000000001
 20
57.91469356168725
 30
0.0
  0
SPLINE
  5
E9
330
1F
100
AcDbEntity
  8
Default
100
AcDbSpline
210
0.0
220
0.0
230
1.0
 70
     8
 71
     2
 72
    16
 73
    13
 74
     0
 42
0.0000000001
 43
0.0000000001
 40
0.0
 40
0.0
 40
0.0
 40
1.0
 40
1.0
 40
2.0
 40
2.0
 40
3.0
 40
3.0
 40
4.0
 40
4.0
 40
5.0
 40
5.0
 40
6.0
 40
6.0
 40
6.0
 10
9.832749
 20
57.91450856168725
 30
0.0
 10
9.827399
 20
57.92275256168725
 30
0.0
 10
9.822049
 20
57.93099656168726
 30
0.0
 10
9.800433
 20
57.96034206168726
 30
0.0
 10
9.778817
 20
57.98968756168725
 30
0.0
 10
9.754124000000001
 20
58.01752506168725
 30
0.0
 10
9.729431000000002
 20
58.04536256168725
 30
0.0
 10
9.701707500000001
 20
58.07167856168725
 30
0.0
 10
9.673984
 20
58.09799456168725
 30
0.0
 10
9.6431915
 20
58.12291056168725
 30
0.0
 10
9.612399
 20
58.14782656168725
 30
0.0
 10
9.5782795
 20
58.17153806168725
 30
0.0
 10
9.544160000000002
 20
58.19524956168726
 30
0.0
  0
SPLINE
  5
EA
330
1F
100
AcDbEntity
  8
Default
100
AcDbSpline
210
0.0
220
0.0
230
1.0
 70
     8
 71
     2
 72
    40
 73
    37
 74
     0
 42
0.0000000001
 43
0.0000000001
 40
0.0
 40
0.0
 40
0.0
 40
1.0
 40
1.0
 40
2.0
 40
2.0
 40
3.0
 40
3.0
 40
4.0
 40
4.0
 40
5.0
 40
5.0
 40
6.0
 40
6.0
 40
7.0
 40
7.0
 40
8.0
 40
8.0
 40
9.0
 40
9.0
 40
10.0
 40
10.0
 40
11.0
 40
11.0
 40
12.0
 40
12.0
 40
13.0
 40
13.0
 40
14.0
 40
14.0
 40
15.0
 40
15.0
 40
16.0
 40
16.0
 40
17.0
 40
17.0
 40
18.0
 40
18.0
 40
18.0
 10
10.555042
 20
54.92061656168725
 30
0.0
 10
10.560126
 20
54.90633756168725
 30
0.0
 10
10.56521
 20
54.89205856168726
 30
0.0
 10
10.570704
 20
54.87488106168725
 30
0.0
 10
10.576198
 20
54.85770356168725
 30
0.0
 10
10.5820065
 20
54.83753256168725
 30
0.0
 10
10.587815
 20
54.81736156168726
 30
0.0
 10
10.593742
 20
54.79452806168725
 30
0.0
 10
10.599669
 20
54.77169456168725
 30
0.0
 10
10.605613
 20
54.74629306168725
 30
0.0
 10
10.611557
 20
54.72089156168726
 30
0.0
 10
10.6174645
 20
54.69287606168726
 30
0.0
 10
10.623372
 20
54.66486056168726
 30
0.0
 10
10.6291635
 20
54.63431806168725
 30
0.0
 10
10.634955
 20
54.60377556168725
 30
0.0
 10
10.640567
 20
54.57075556168725
 30
0.0
 10
10.646179
 20
54.53773556168725
 30
0.0
 10
10.651551
 20
54.50227506168725
 30
0.0
 10
10.656923
 20
54.46681456168725
 30
0.0
 10
10.662001
 20
54.42895356168725
 30
0.0
 10
10.667079
 20
54.39109256168725
 30
0.0
 10
10.671806
 20
54.35091156168725
 30
0.0
 10
10.676533
 20
54.31073056168726
 30
0.0
 10
10.680852
 20
54.26831606168726
 30
0.0
 10
10.685171
 20
54.22590156168726
 30
0.0
 10
10.689031
 20
54.18129306168726
 30
0.0
 10
10.692891
 20
54.13668456168725
 30
0.0
 10
10.696238
 20
54.09001056168725
 30
0.0
 10
10.699585
 20
54.04333656168725
 30
0.0
 10
10.7023635
 20
53.99474656168725
 30
0.0
 10
10.705142
 20
53.94615656168725
 30
0.0
 10
10.7072995
 20
53.89574056168725
 30
0.0
 10
10.709457
 20
53.84532456168726
 30
0.0
 10
10.710941
 20
53.79325156168726
 30
0.0
 10
10.712425
 20
53.74117856168726
 30
0.0
 10
10.7125795
 20
53.73029156168725
 30
0.0
 10
10.712734
 20
53.71940456168725
 30
0.0
  0
SPLINE
  5
EB
330
1F
100
AcDbEntity
  8
Default
100
AcDbSpline
210
0.0
220
0.0
230
1.0
 70
     8
 71
     2
 72
    14
 73
    11
 74
     0
 42
0.0000000001
 43
0.0000000001
 40
0.0
 40
0.0
 40
0.0
 40
1.0
 40
1.0
 40
2.0
 40
2.0
 40
3.0
 40
3.0
 40
4.0
 40
4.0
 40
5.0
 40
5.0
 40
5.0
 10
10.533045
 20
54.97073256168725
 30
0.0
 10
10.533014
 20
54.97077356168725
 30
0.0
 10
10.532983
 20
54.97081456168726
 30
0.0
 10
10.5337265
 20
54.96943856168726
 30
0.0
 10
10.53447
 20
54.96806256168725
 30
0.0
 10
10.536698
 20
54.96360856168725
 30
0.0
 10
10.538926
 20
54.95915456168725
 30
0.0
 10
10.5424665
 20
54.95123056168725
 30
0.0
 10
10.546007
 20
54.94330656168726
 30
0.0
 10
10.5505245
 20
54.93196156168725
 30
0.0
 10
10.555042
 20
54.92061656168725
 30
0.0
  0
SPLINE
  5
EC
330
1F
100
AcDbEntity
  8
Default
100
AcDbSpline
210
0.0
220
0.0
230
1.0
 70
     8
 71
     2
 72
    28
 73
    25
 74
     0
 42
0.0000000001
 43
0.0000000001
 40
0.0
 40
0.0
 40
0.0
 40
1.0
 40
1.0
 40
2.0
 40
2.0
 40
3.0
 40
3.0
 40
4.0
 40
4.0
 40
5.0
 40
5.0
 40
6.0
 40
6.0
 40
7.0
 40
7.0
 40
8.0
 40
8.0
 40
9.0
 40
9.0
 40
10.0
 40
10.0
 40
11.0
 40
11.0
 40
12.0
 40
12.0
 40
12.0
 10
9.544160000000002
 20
58.19524956168726
 30
0.0
 10
9.5062335
 20
58.21797356168725
 30
0.0
 10
9.468307
 20
58.24069756168725
 30
0.0
 10
9.426585
 20
58.26227406168725
 30
0.0
 10
9.384863
 20
58.28385056168725
 30
0.0
 10
9.339819
 20
58.30395506168725
 30
0.0
 10
9.294775000000001
 20
58.32405956168726
 30
0.0
 10
9.2459985
 20
58.34282156168725
 30
0.0
 10
9.197222
 20
58.36158356168725
 30
0.0
 10
9.144732
 20
58.37891856168725
 30
0.0
 10
9.092241999999999
 20
58.39625356168725
 30
0.0
 10
9.0376125
 20
58.41166106168725
 30
0.0
 10
8.982983
 20
58.42706856168726
 30
0.0
 10
8.926405
 20
58.44061456168725
 30
0.0
 10
8.869827
 20
58.45416056168725
 30
0.0
 10
8.811459000000001
 20
58.46590456168725
 30
0.0
 10
8.753091000000001
 20
58.47764856168725
 30
0.0
 10
8.695156500000001
 20
58.48730706168725
 30
0.0
 10
8.637222000000001
 20
58.49696556168725
 30
0.0
 10
8.5808885
 20
58.50462756168725
 30
0.0
 10
8.524555
 20
58.51228956168725
 30
0.0
 10
8.469514
 20
58.51825556168725
 30
0.0
 10
8.414473000000001
 20
58.52422156168725
 30
0.0
 10
8.3878625
 20
58.52659256168725
 30
0.0
 10
8.361252
 20
58.52896356168726
 30
0.0
  0
SPLINE
  5
ED
330
1F
100
AcDbEntity
  8
Default
100
AcDbSpline
210
0.0
220
0.0
230
1.0
 70
     8
 71
     2
 72
    52
 73
    49
 74
     0
 42
0.0000000001
 43
0.0000000001
 40
0.0
 40
0.0
 40
0.0
 40
1.0
 40
1.0
 40
2.0
 40
2.0
 40
3.0
 40
3.0
 40
4.0
 40
4.0
 40
5.0
 40
5.0
 40
6.0
 40
6.0
 40
7.0
 40
7.0
 40
8.0
 40
8.0
 40
9.0
 40
9.0
 40
10.0
 40
10.0
 40
11.0
 40
11.0
 40
12.0
 40
12.0
 40
13.0
 40
13.0
 40
14.0
 40
14.0
 40
15.0
 40
15.0
 40
16.0
 40
16.0
 40
17.0
 40
17.0
 40
18.0
 40
18.0
 40
19.0
 40
19.0
 40
20.0
 40
20.0
 40
21.0
 40
21.0
 40
22.0
 40
22.0
 40
23.0
 40
23.0
 40
24.0
 40
24.0
 40
24.0
 10
3.017771
 20
40.39031856168726
 30
0.0
 10
3.003512499999999
 20
40.49873156168726
 30
0.0
 10
2.989253999999999
 20
40.60714456168726
 30
0.0
 10
2.9768255
 20
40.72352256168725
 30
0.0
 10
2.964397000000002
 20
40.83990056168725
 30
0.0
 10
2.9537975
 20
40.96424356168725
 30
0.0
 10
2.943197999999999
 20
41.08858656168726
 30
0.0
 10
2.934199999999999
 20
41.22034956168726
 30
0.0
 10
2.925201999999999
 20
41.35211256168726
 30
0.0
 10
2.918033999999999
 20
41.49184006168726
 30
0.0
 10
2.910865999999999
 20
41.63156756168726
 30
0.0
 10
2.906212
 20
41.78089706168726
 30
0.0
 10
2.901558000000001
 20
41.93022656168726
 30
0.0
 10
2.8993325
 20
42.08992556168725
 30
0.0
 10
2.897106999999998
 20
42.24962456168725
 30
0.0
 10
2.8973955
 20
42.41892506168725
 30
0.0
 10
2.897684000000002
 20
42.58822556168726
 30
0.0
 10
2.901430000000001
 20
42.76646256168726
 30
0.0
 10
2.905176000000001
 20
42.94469956168725
 30
0.0
 10
2.912625500000001
 20
43.13414906168725
 30
0.0
 10
2.920075000000001
 20
43.32359856168726
 30
0.0
 10
2.9309815
 20
43.52198406168726
 30
0.0
 10
2.941887999999999
 20
43.72036956168726
 30
0.0
 10
2.956453
 20
43.92019756168725
 30
0.0
 10
2.971018000000001
 20
44.12002556168725
 30
0.0
 10
2.989732
 20
44.32186856168725
 30
0.0
 10
3.008445999999999
 20
44.52371156168726
 30
0.0
 10
3.030818999999999
 20
44.72699656168726
 30
0.0
 10
3.053191999999999
 20
44.93028156168726
 30
0.0
 10
3.077954
 20
45.12579206168726
 30
0.0
 10
3.102716000000001
 20
45.32130256168725
 30
0.0
 10
3.129860000000001
 20
45.50674206168726
 30
0.0
 10
3.157004000000001
 20
45.69218156168726
 30
0.0
 10
3.186538000000001
 20
45.86984656168725
 30
0.0
 10
3.216072
 20
46.04751156168725
 30
0.0
 10
3.2467495
 20
46.21507956168725
 30
0.0
 10
3.277426999999999
 20
46.38264756168726
 30
0.0
 10
3.309037500000001
 20
46.53896406168725
 30
0.0
 10
3.340648000000002
 20
46.69528056168725
 30
0.0
 10
3.373403000000001
 20
46.84149956168725
 30
0.0
 10
3.406158000000001
 20
46.98771856168725
 30
0.0
 10
3.4394475
 20
47.12498106168725
 30
0.0
 10
3.472736999999999
 20
47.26224356168725
 30
0.0
 10
3.506357999999999
 20
47.39092956168725
 30
0.0
 10
3.539978999999999
 20
47.51961556168725
 30
0.0
 10
3.5741345
 20
47.63934456168725
 30
0.0
 10
3.60829
 20
47.75907356168725
 30
0.0
 10
3.6429805
 20
47.86984606168726
 30
0.0
 10
3.677671
 20
47.98061856168726
 30
0.0
  0
SPLINE
  5
EE
330
1F
100
AcDbEntity
  8
Default
100
AcDbSpline
210
0.0
220
0.0
230
1.0
 70
    24
 71
     2
 72
     6
 73
     3
 74
     0
 42
0.0000000001
 43
0.0000000001
 40
0.0
 40
0.0
 40
0.0
 40
1.0
 40
1.0
 40
1.0
 10
9.006810000000002
 20
57.38809156168725
 30
0.0
 10
9.769927500000001
 20
56.17941206168725
 30
0.0
 10
10.533045
 20
54.97073256168725
 30
0.0
  0
SPLINE
  5
EF
330
1F
100
AcDbEntity
  8
Default
100
AcDbSpline
210
0.0
220
0.0
230
1.0
 70
     8
 71
     2
 72
    64
 73
    61
 74
     0
 42
0.0000000001
 43
0.0000000001
 40
0.0
 40
0.0
 40
0.0
 40
1.0
 40
1.0
 40
2.0
 40
2.0
 40
3.0
 40
3.0
 40
4.0
 40
4.0
 40
5.0
 40
5.0
 40
6.0
 40
6.0
 40
7.0
 40
7.0
 40
8.0
 40
8.0
 40
9.0
 40
9.0
 40
10.0
 40
10.0
 40
11.0
 40
11.0
 40
12.0
 40
12.0
 40
13.0
 40
13.0
 40
14.0
 40
14.0
 40
15.0
 40
15.0
 40
16.0
 40
16.0
 40
17.0
 40
17.0
 40
18.0
 40
18.0
 40
19.0
 40
19.0
 40
20.0
 40
20.0
 40
21.0
 40
21.0
 40
22.0
 40
22.0
 40
23.0
 40
23.0
 40
24.0
 40
24.0
 40
25.0
 40
25.0
 40
26.0
 40
26.0
 40
27.0
 40
27.0
 40
28.0
 40
28.0
 40
29.0
 40
29.0
 40
30.0
 40
30.0
 40
30.0
 10
3.677671
 20
47.98061856168726
 30
0.0
 10
3.731175
 20
48.13593656168725
 30
0.0
 10
3.784679000000001
 20
48.29125456168725
 30
0.0
 10
3.844927
 20
48.44432206168725
 30
0.0
 10
3.905175
 20
48.59738956168726
 30
0.0
 10
3.972167499999999
 20
48.74820656168725
 30
0.0
 10
4.039159999999999
 20
48.89902356168725
 30
0.0
 10
4.112842499999999
 20
49.04766556168725
 30
0.0
 10
4.186525
 20
49.19630756168726
 30
0.0
 10
4.266952
 20
49.34269906168726
 30
0.0
 10
4.347379
 20
49.48909056168726
 30
0.0
 10
4.434711
 20
49.63300356168725
 30
0.0
 10
4.522043
 20
49.77691656168725
 30
0.0
 10
4.616327999999999
 20
49.91847906168725
 30
0.0
 10
4.710612999999999
 20
50.06004156168725
 30
0.0
 10
4.8118035
 20
50.19912606168725
 30
0.0
 10
4.912994000000001
 20
50.33821056168726
 30
0.0
 10
5.021107000000001
 20
50.47420506168726
 30
0.0
 10
5.12922
 20
50.61019956168726
 30
0.0
 10
5.2444325
 20
50.74326756168725
 30
0.0
 10
5.359645
 20
50.87633556168725
 30
0.0
 10
5.481780000000001
 20
51.00631406168725
 30
0.0
 10
5.603915000000001
 20
51.13629256168725
 30
0.0
 10
5.732459500000001
 20
51.26208306168725
 30
0.0
 10
5.861004000000001
 20
51.38787356168725
 30
0.0
 10
5.996233500000001
 20
51.50957806168725
 30
0.0
 10
6.131463
 20
51.63128256168725
 30
0.0
 10
6.273102
 20
51.74879906168725
 30
0.0
 10
6.414740999999999
 20
51.86631556168725
 30
0.0
 10
6.5614445
 20
51.97824056168725
 30
0.0
 10
6.708148000000001
 20
52.09016556168725
 30
0.0
 10
6.860052000000001
 20
52.19641356168725
 30
0.0
 10
7.011956000000001
 20
52.30266156168725
 30
0.0
 10
7.168924500000001
 20
52.40331756168725
 30
0.0
 10
7.325893000000001
 20
52.50397356168725
 30
0.0
 10
7.486177
 20
52.59789406168726
 30
0.0
 10
7.646460999999999
 20
52.69181456168726
 30
0.0
 10
7.810397499999999
 20
52.77896206168726
 30
0.0
 10
7.974333999999999
 20
52.86610956168726
 30
0.0
 10
8.141586499999999
 20
52.94652106168726
 30
0.0
 10
8.308838999999999
 20
53.02693256168725
 30
0.0
 10
8.476645999999999
 20
53.09957356168725
 30
0.0
 10
8.644452999999999
 20
53.17221456168725
 30
0.0
 10
8.8129405
 20
53.23684306168725
 30
0.0
 10
8.981428000000001
 20
53.30147156168726
 30
0.0
 10
9.1504705
 20
53.35832956168726
 30
0.0
 10
9.319513
 20
53.41518756168725
 30
0.0
 10
9.4859725
 20
53.46396456168726
 30
0.0
 10
9.652432000000001
 20
53.51274156168726
 30
0.0
 10
9.8160215
 20
53.55311256168726
 30
0.0
 10
9.979610999999998
 20
53.59348356168726
 30
0.0
 10
10.1406175
 20
53.62577356168725
 30
0.0
 10
10.301624
 20
53.65806356168725
 30
0.0
 10
10.457773
 20
53.68293406168725
 30
0.0
 10
10.613922
 20
53.70780456168725
 30
0.0
 10
10.7644545
 20
53.72547606168725
 30
0.0
 10
10.914987
 20
53.74314756168726
 30
0.0
 10
11.060662
 20
53.75340006168726
 30
0.0
 10
11.206337
 20
53.76365256168726
 30
0.0
 10
11.347154
 20
53.76648556168725
 30
0.0
 10
11.487971
 20
53.76931856168725
 30
0.0
  0
SPLINE
  5
F0
330
1F
100
AcDbEntity
  8
Default
100
AcDbSpline
210
0.0
220
0.0
230
1.0
 70
    24
 71
     2
 72
     6
 73
     3
 74
     0
 42
0.0000000001
 43
0.0000000001
 40
0.0
 40
0.0
 40
0.0
 40
1.0
 40
1.0
 40
1.0
 10
8.280650999999999
 20
57.55229356168726
 30
0.0
 10
8.280647499999999
 20
57.55229356168726
 30
0.0
 10
8.280643999999999
 20
57.55229356168726
 30
0.0
  0
SPLINE
  5
F1
330
1F
100
AcDbEntity
  8
Default
100
AcDbSpline
210
0.0
220
0.0
230
1.0
 70
     8
 71
     2
 72
    32
 73
    29
 74
     0
 42
0.0000000001
 43
0.0000000001
 40
0.0
 40
0.0
 40
0.0
 40
1.0
 40
1.0
 40
2.0
 40
2.0
 40
3.0
 40
3.0
 40
4.0
 40
4.0
 40
5.0
 40
5.0
 40
6.0
 40
6.0
 40
7.0
 40
7.0
 40
8.0
 40
8.0
 40
9.0
 40
9.0
 40
10.0
 40
10.0
 40
11.0
 40
11.0
 40
12.0
 40
12.0
 40
13.0
 40
13.0
 40
14.0
 40
14.0
 40
14.0
 10
7.987382
 20
57.57662356168725
 30
0.0
 10
8.1399915
 20
57.56395206168725
 30
0.0
 10
8.292601000000001
 20
57.55128056168726
 30
0.0
 10
8.337076000000001
 20
57.54684056168725
 30
0.0
 10
8.381551000000002
 20
57.54240056168725
 30
0.0
 10
8.423957000000001
 20
57.53700456168725
 30
0.0
 10
8.466363000000001
 20
57.53160856168726
 30
0.0
 10
8.506484
 20
57.52536256168725
 30
0.0
 10
8.546605
 20
57.51911656168725
 30
0.0
 10
8.584203
 20
57.51214306168725
 30
0.0
 10
8.621801000000001
 20
57.50516956168725
 30
0.0
 10
8.656592
 20
57.49762206168725
 30
0.0
 10
8.691382999999998
 20
57.49007456168726
 30
0.0
 10
8.723229499999999
 20
57.48209556168725
 30
0.0
 10
8.755075999999999
 20
57.47411656168725
 30
0.0
 10
8.7838295
 20
57.46586506168725
 30
0.0
 10
8.812583
 20
57.45761356168725
 30
0.0
 10
8.8379685
 20
57.44931956168725
 30
0.0
 10
8.863354000000001
 20
57.44102556168725
 30
0.0
 10
8.885331
 20
57.43288156168725
 30
0.0
 10
8.907308
 20
57.42473756168726
 30
0.0
 10
8.9258385
 20
57.41695856168726
 30
0.0
 10
8.944368999999998
 20
57.40917956168726
 30
0.0
 10
8.9592405
 20
57.40210456168726
 30
0.0
 10
8.974112000000002
 20
57.39502956168726
 30
0.0
 10
8.985361500000002
 20
57.38896106168725
 30
0.0
 10
8.996611000000001
 20
57.38289256168725
 30
0.0
 10
8.997775500000001
 20
57.38221556168725
 30
0.0
 10
8.998940000000001
 20
57.38153856168726
 30
0.0
  0
SPLINE
  5
F2
330
1F
100
AcDbEntity
  8
Default
100
AcDbSpline
210
0.0
220
0.0
230
1.0
 70
    24
 71
     2
 72
     6
 73
     3
 74
     0
 42
0.0000000001
 43
0.0000000001
 40
0.0
 40
0.0
 40
0.0
 40
1.0
 40
1.0
 40
1.0
 10
8.361446999999998
 20
58.52894756168725
 30
0.0
 10
8.0858545
 20
58.55181106168725
 30
0.0
 10
7.810262000000002
 20
58.57467456168725
 30
0.0
  0
SPLINE
  5
F3
330
1F
100
AcDbEntity
  8
Default
100
AcDbSpline
210
0.0
220
0.0
230
1.0
 70
     8
 71
     2
 72
    38
 73
    35
 74
     0
 42
0.0000000001
 43
0.0000000001
 40
0.0
 40
0.0
 40
0.0
 40
1.0
 40
1.0
 40
2.0
 40
2.0
 40
3.0
 40
3.0
 40
4.0
 40
4.0
 40
5.0
 40
5.0
 40
6.0
 40
6.0
 40
7.0
 40
7.0
 40
8.0
 40
8.0
 40
9.0
 40
9.0
 40
10.0
 40
10.0
 40
11.0
 40
11.0
 40
12.0
 40
12.0
 40
13.0
 40
13.0
 40
14.0
 40
14.0
 40
15.0
 40
15.0
 40
16.0
 40
16.0
 40
17.0
 40
17.0
 40
17.0
 10
11.691628
 20
53.74797156168726
 30
0.0
 10
11.6914395
 20
53.76049056168726
 30
0.0
 10
11.691251
 20
53.77300956168725
 30
0.0
 10
11.689232
 20
53.83876706168725
 30
0.0
 10
11.687213
 20
53.90452456168725
 30
0.0
 10
11.684058
 20
53.97142256168725
 30
0.0
 10
11.680903
 20
54.03832056168725
 30
0.0
 10
11.676551
 20
54.10571606168725
 30
0.0
 10
11.672199
 20
54.17311156168726
 30
0.0
 10
11.6666565
 20
54.23985356168726
 30
0.0
 10
11.661114
 20
54.30659556168725
 30
0.0
 10
11.6543525
 20
54.37232206168725
 30
0.0
 10
11.647591
 20
54.43804856168725
 30
0.0
 10
11.639589
 20
54.50239706168725
 30
0.0
 10
11.631587
 20
54.56674556168725
 30
0.0
 10
11.622415
 20
54.62876156168725
 30
0.0
 10
11.613243
 20
54.69077756168725
 30
0.0
 10
11.6029085
 20
54.75016556168725
 30
0.0
 10
11.592574
 20
54.80955356168726
 30
0.0
 10
11.5810655
 20
54.86613856168726
 30
0.0
 10
11.569557
 20
54.92272356168726
 30
0.0
 10
11.556906
 20
54.97610606168725
 30
0.0
 10
11.544255
 20
55.02948856168725
 30
0.0
 10
11.5304155
 20
55.07961856168725
 30
0.0
 10
11.516576
 20
55.12974856168726
 30
0.0
 10
11.5014625
 20
55.17664556168726
 30
0.0
 10
11.486349
 20
55.22354256168726
 30
0.0
 10
11.469745
 20
55.26743856168726
 30
0.0
 10
11.453141
 20
55.31133456168725
 30
0.0
 10
11.434691
 20
55.35255456168726
 30
0.0
 10
11.416241
 20
55.39377456168726
 30
0.0
 10
11.3955965
 20
55.43233806168725
 30
0.0
 10
11.374952
 20
55.47090156168725
 30
0.0
 10
11.36632
 20
55.48504856168725
 30
0.0
 10
11.357688
 20
55.49919556168725
 30
0.0
  0
ARC
  5
F4
330
1F
100
AcDbEntity
  8
Default
100
AcDbCircle
 10
4.751071
 20
40.63138956168725
 30
0.0
 40
1.749983667878319
100
AcDbArc
 50
187.9180229668755
 51
266.0713052946003
  0
ARC
  5
F5
330
1F
100
AcDbEntity
  8
Default
100
AcDbCircle
 10
10.724938
 20
41.49471856168726
 30
0.0
 40
1.499973335659328
100
AcDbArc
 50
294.9038086244213
 51
351.535150347596
  0
ARC
  5
F6
330
1F
100
AcDbEntity
  8
Default
100
AcDbCircle
 10
11.489971
 20
52.76928356168725
 30
0.0
 40
1.000036799185388
100
AcDbArc
 50
7.708320288557209
 51
90.11458739568954
  0
SPLINE
  5
F7
330
1F
100
AcDbEntity
  8
Default
100
AcDbSpline
210
0.0
220
0.0
230
1.0
 70
     8
 71
     2
 72
    34
 73
    31
 74
     0
 42
0.0000000001
 43
0.0000000001
 40
0.0
 40
0.0
 40
0.0
 40
1.0
 40
1.0
 40
2.0
 40
2.0
 40
3.0
 40
3.0
 40
4.0
 40
4.0
 40
5.0
 40
5.0
 40
6.0
 40
6.0
 40
7.0
 40
7.0
 40
8.0
 40
8.0
 40
9.0
 40
9.0
 40
10.0
 40
10.0
 40
11.0
 40
11.0
 40
12.0
 40
12.0
 40
13.0
 40
13.0
 40
14.0
 40
14.0
 40
15.0
 40
15.0
 40
15.0
 10
11.356571
 20
40.13421856168726
 30
0.0
 10
11.149689
 20
40.04242856168725
 30
0.0
 10
10.942807
 20
39.95063856168725
 30
0.0
 10
10.7318805
 20
39.86560106168725
 30
0.0
 10
10.520954
 20
39.78056356168725
 30
0.0
 10
10.305983
 20
39.70227806168725
 30
0.0
 10
10.091012
 20
39.62399256168725
 30
0.0
 10
9.871400999999999
 20
39.55225056168725
 30
0.0
 10
9.651789999999998
 20
39.48050856168725
 30
0.0
 10
9.428134499999999
 20
39.41551856168725
 30
0.0
 10
9.204479
 20
39.35052856168725
 30
0.0
 10
8.9785655
 20
39.29291706168725
 30
0.0
 10
8.752652000000001
 20
39.23530556168725
 30
0.0
 10
8.524434000000001
 20
39.18516656168725
 30
0.0
 10
8.296216000000001
 20
39.13502756168726
 30
0.0
 10
8.0657405
 20
39.09226656168725
 30
0.0
 10
7.835265
 20
39.04950556168725
 30
0.0
 10
7.604459499999999
 20
39.01447106168725
 30
0.0
 10
7.373653999999998
 20
38.97943656168726
 30
0.0
 10
7.142543999999999
 20
38.95223306168725
 30
0.0
 10
6.911434
 20
38.92502956168725
 30
0.0
 10
6.679994499999999
 20
38.90555156168725
 30
0.0
 10
6.448554999999999
 20
38.88607356168725
 30
0.0
 10
6.218636499999999
 20
38.87435606168725
 30
0.0
 10
5.988717999999999
 20
38.86263856168726
 30
0.0
 10
5.7609385
 20
38.85869156168725
 30
0.0
 10
5.533159000000001
 20
38.85474456168725
 30
0.0
 10
5.3069015
 20
38.85855806168725
 30
0.0
 10
5.080643999999999
 20
38.86237156168725
 30
0.0
 10
4.855907499999999
 20
38.87394506168725
 30
0.0
 10
4.631170999999998
 20
38.88551856168726
 30
0.0
  0
SPLINE
  5
F8
330
1F
100
AcDbEntity
  8
Default
100
AcDbSpline
210
0.0
220
0.0
230
1.0
 70
     8
 71
     2
 72
    64
 73
    61
 74
     0
 42
0.0000000001
 43
0.0000000001
 40
0.0
 40
0.0
 40
0.0
 40
1.0
 40
1.0
 40
2.0
 40
2.0
 40
3.0
 40
3.0
 40
4.0
 40
4.0
 40
5.0
 40
5.0
 40
6.0
 40
6.0
 40
7.0
 40
7.0
 40
8.0
 40
8.0
 40
9.0
 40
9.0
 40
10.0
 40
10.0
 40
11.0
 40
11.0
 40
12.0
 40
12.0
 40
13.0
 40
13.0
 40
14.0
 40
14.0
 40
15.0
 40
15.0
 40
16.0
 40
16.0
 40
17.0
 40
17.0
 40
18.0
 40
18.0
 40
19.0
 40
19.0
 40
20.0
 40
20.0
 40
21.0
 40
21.0
 40
22.0
 40
22.0
 40
23.0
 40
23.0
 40
24.0
 40
24.0
 40
25.0
 40
25.0
 40
26.0
 40
26.0
 40
27.0
 40
27.0
 40
28.0
 40
28.0
 40
29.0
 40
29.0
 40
30.0
 40
30.0
 40
30.0
 10
12.480971
 20
52.90341856168725
 30
0.0
 10
12.4959695
 20
52.78790556168725
 30
0.0
 10
12.510968
 20
52.67239256168725
 30
0.0
 10
12.525105
 20
52.55032606168725
 30
0.0
 10
12.539242
 20
52.42825956168725
 30
0.0
 10
12.552518
 20
52.29963956168725
 30
0.0
 10
12.565794
 20
52.17101956168725
 30
0.0
 10
12.5782565
 20
52.03646456168725
 30
0.0
 10
12.590719
 20
51.90190956168725
 30
0.0
 10
12.6023205
 20
51.76080106168725
 30
0.0
 10
12.613922
 20
51.61969256168725
 30
0.0
 10
12.624521
 20
51.47017206168725
 30
0.0
 10
12.63512
 20
51.32065156168725
 30
0.0
 10
12.6447785
 20
51.16275456168725
 30
0.0
 10
12.654437
 20
51.00485756168725
 30
0.0
 10
12.6630925
 20
50.83854906168725
 30
0.0
 10
12.671748
 20
50.67224056168725
 30
0.0
 10
12.679074
 20
50.49555656168725
 30
0.0
 10
12.6864
 20
50.31887256168725
 30
0.0
 10
12.692459
 20
50.13139206168725
 30
0.0
 10
12.698518
 20
49.94391156168725
 30
0.0
 10
12.7032475
 20
49.74605556168725
 30
0.0
 10
12.707977
 20
49.54819956168725
 30
0.0
 10
12.7108625
 20
49.33926406168725
 30
0.0
 10
12.713748
 20
49.13032856168726
 30
0.0
 10
12.7147755
 20
48.90897956168725
 30
0.0
 10
12.715803
 20
48.68763056168725
 30
0.0
 10
12.714986
 20
48.45520206168725
 30
0.0
 10
12.714169
 20
48.22277356168726
 30
0.0
 10
12.7110365
 20
47.98256156168726
 30
0.0
 10
12.707904
 20
47.74234956168726
 30
0.0
 10
12.702258
 20
47.49251306168726
 30
0.0
 10
12.696612
 20
47.24267656168725
 30
0.0
 10
12.6886495
 20
46.98505656168725
 30
0.0
 10
12.680687
 20
46.72743656168725
 30
0.0
 10
12.6705305
 20
46.47085156168725
 30
0.0
 10
12.660374
 20
46.21426656168725
 30
0.0
 10
12.6478025
 20
45.95896056168725
 30
0.0
 10
12.635231
 20
45.70365456168725
 30
0.0
 10
12.6204655
 20
45.44938406168725
 30
0.0
 10
12.6057
 20
45.19511356168726
 30
0.0
 10
12.5895195
 20
44.94996356168726
 30
0.0
 10
12.573339
 20
44.70481356168725
 30
0.0
 10
12.55577
 20
44.47084356168725
 30
0.0
 10
12.538201
 20
44.23687356168725
 30
0.0
 10
12.5192175
 20
44.01202506168725
 30
0.0
 10
12.500234
 20
43.78717656168725
 30
0.0
 10
12.480538
 20
43.57335806168725
 30
0.0
 10
12.460842
 20
43.35953956168725
 30
0.0
 10
12.44046
 20
43.15721606168725
 30
0.0
 10
12.420078
 20
42.95489256168725
 30
0.0
 10
12.3989835
 20
42.76359956168725
 30
0.0
 10
12.377889
 20
42.57230656168725
 30
0.0
 10
12.356704
 20
42.39255956168725
 30
0.0
 10
12.335519
 20
42.21281256168725
 30
0.0
 10
12.3144515
 20
42.04478406168725
 30
0.0
 10
12.293384
 20
41.87675556168725
 30
0.0
 10
12.272226
 20
41.72027306168725
 30
0.0
 10
12.251068
 20
41.56379056168725
 30
0.0
 10
12.2298195
 20
41.41885456168725
 30
0.0
 10
12.208571
 20
41.27391856168726
 30
0.0
  0
CIRCLE
  5
F9
330
1F
100
AcDbEntity
  8
Default
100
AcDbCircle
 10
11.20393314505571
 20
26.20104468294394
 30
0.0
 40
0.4894475779964266
  0
SPLINE
  5
FA
330
1F
100
AcDbEntity
  8
Default
100
AcDbSpline
210
0.0
220
0.0
230
1.0
 70
    12
 71
     3
 72
    12
 73
     8
 74
     0
 42
0.0000000001
 43
0.0000000001
 40
-14.5374141795705
 40
-14.5374141795705
 40
-14.5374141795705
 40
-14.5374141795705
 40
-14.41934725534845
 40
-14.37741709520271
 40
-11.72195382020863
 40
-10.18186587578625
 40
-10.05066365206097
 40
-10.05066365206097
 40
-10.05066365206097
 40
-10.05066365206097
 10
8.849998081824591
 20
32.47393965815978
 30
0.0
 41
1.0
 10
8.878777845047987
 20
32.44837552367935
 30
0.0
 41
1.0
 10
8.930197656893572
 20
32.37337679643962
 30
0.0
 41
1.0
 10
9.065159534871437
 20
31.4446557127379
 30
0.0
 41
1.0
 10
9.26597286477488
 20
30.04634182362106
 30
0.0
 41
1.0
 10
9.418983504583572
 20
28.61198991707733
 30
0.0
 41
1.0
 10
9.468471261065377
 20
28.05710509735981
 30
0.0
 41
1.0
 10
9.472296400555937
 20
28.01353951767176
 30
0.0
 41
1.0
  0
SPLINE
  5
FB
330
1F
100
AcDbEntity
  8
Default
100
AcDbSpline
210
0.0
220
0.0
230
1.0
 70
    12
 71
     2
 72
     6
 73
     3
 74
     0
 42
0.0000000001
 43
0.0000000001
 40
-0.0147217657248775
 40
-0.0147217657248775
 40
-0.0147217657248775
 40
0.0
 40
0.0
 40
0.0
 10
9.02364150682423
 20
0.0070632434137343
 30
0.0
 41
1.0
 10
9.030971670729377
 20
0.0077820056005832
 30
0.0
 41
0.9996253281867565
 10
9.042849417664835
 20
0.0095215415385489
 30
0.0
 41
1.0
  0
SPLINE
  5
FC
330
1F
100
AcDbEntity
  8
Default
100
AcDbSpline
210
0.0
220
0.0
230
1.0
 70
    12
 71
     2
 72
     6
 73
     3
 74
     0
 42
0.0000000001
 43
0.0000000001
 40
0.0
 40
0.0
 40
0.0
 40
0.0905125898444878
 40
0.0905125898444878
 40
0.0905125898444878
 10
9.042849417664835
 20
0.0095215415385489
 30
0.0
 41
1.0
 10
9.10190292625851
 20
0.0173517644409298
 30
0.0
 41
0.7556419620120104
 10
9.102510337575374
 20
0.0722798499397587
 30
0.0
 41
1.0
  0
SPLINE
  5
FD
330
1F
100
AcDbEntity
  8
Default
100
AcDbSpline
210
0.0
220
0.0
230
1.0
 70
    24
 71
     2
 72
     6
 73
     3
 74
     0
 42
0.0000000001
 43
0.0000000001
 40
0.0
 40
0.0
 40
0.0
 40
0.0838826131717245
 40
0.0838826131717245
 40
0.0838826131717245
 10
9.102510337575374
 20
0.0722798499397587
 30
0.0
 10
9.101926920344804
 20
0.114218612142464
 30
0.0
 10
9.101343503114233
 20
0.1561573743451692
 30
0.0
  0
SPLINE
  5
FE
330
1F
100
AcDbEntity
  8
Default
100
AcDbSpline
210
0.0
220
0.0
230
1.0
 70
    12
 71
     2
 72
     6
 73
     3
 74
     0
 42
0.0000000001
 43
0.0000000001
 40
-0.4678786518234926
 40
-0.4678786518234926
 40
-0.4678786518234926
 40
0.0
 40
0.0
 40
0.0
 10
8.073074238592996
 20
-0.0072794261962599
 30
0.0
 41
1.0
 10
8.306957831265287
 20
-0.0143321204280719
 30
0.0
 41
0.99967599695013
 10
8.540897275472915
 20
-0.009474429260468
 30
0.0
 41
1.0
  0
SPLINE
  5
FF
330
1F
100
AcDbEntity
  8
Default
100
AcDbSpline
210
0.0
220
0.0
230
1.0
 70
    24
 71
     2
 72
     6
 73
     3
 74
     0
 42
0.0000000001
 43
0.0000000001
 40
0.0
 40
0.0
 40
0.0
 40
0.0838826130654592
 40
0.0838826130654592
 40
0.0838826130654592
 10
7.976452258500874
 20
0.1405148736226902
 30
0.0
 10
7.977035675809438
 20
0.0985761114754763
 30
0.0
 10
7.977619093118001
 20
0.0566373493282625
 30
0.0
  0
SPLINE
  5
100
330
1F
100
AcDbEntity
  8
Default
100
AcDbSpline
210
0.0
220
0.0
230
1.0
 70
    12
 71
     2
 72
     6
 73
     3
 74
     0
 42
0.0000000001
 43
0.0000000001
 40
-0.4681485405974239
 40
-0.4681485405974239
 40
-0.4681485405974239
 40
0.0
 40
0.0
 40
0.0
 10
8.540897275472915
 20
-0.009474429260468
 30
0.0
 41
1.0
 10
8.775016203420662
 20
-0.0078228924777565
 30
0.0
 41
0.9996765963466816
 10
9.00874850749759
 20
0.0057281465216029
 30
0.0
 41
1.0
  0
SPLINE
  5
101
330
1F
100
AcDbEntity
  8
Default
100
AcDbSpline
210
0.0
220
0.0
230
1.0
 70
    12
 71
     2
 72
     6
 73
     3
 74
     0
 42
0.0000000001
 43
0.0000000001
 40
0.0
 40
0.0
 40
0.0
 40
0.090509536218289
 40
0.090509536218289
 40
0.090509536218289
 10
7.977619093118001
 20
0.0566373493282625
 30
0.0
 41
1.0
 10
7.979661975657059
 20
0.0016767954230861
 30
0.0
 41
0.7543192092771731
 10
8.039382688027201
 20
-0.0045365745537768
 30
0.0
 41
1.0
  0
SPLINE
  5
102
330
1F
100
AcDbEntity
  8
Default
100
AcDbSpline
210
0.0
220
0.0
230
1.0
 70
    24
 71
     2
 72
     6
 73
     3
 74
     0
 42
0.0000000001
 43
0.0000000001
 40
0.0
 40
0.0
 40
0.0
 40
16.55517303774998
 40
16.55517303774998
 40
16.55517303774998
 10
7.746172605459932
 20
16.69409231248151
 30
0.0
 10
7.861312389878536
 20
8.41730661950232
 30
0.0
 10
7.976452174297142
 20
0.1405209265231283
 30
0.0
  0
SPLINE
  5
103
330
1F
100
AcDbEntity
  8
Default
100
AcDbSpline
210
0.0
220
0.0
230
1.0
 70
    12
 71
     2
 72
     6
 73
     3
 74
     0
 42
0.0000000001
 43
0.0000000001
 40
0.0
 40
0.0
 40
0.0
 40
0.0149504543859661
 40
0.0149504543859661
 40
0.0149504543859661
 10
9.00874850749759
 20
0.0057281465216029
 30
0.0
 41
1.0
 10
9.016200569615672
 20
0.0063189861429629
 30
0.0
 41
0.9999561228672283
 10
9.02364150682423
 20
0.0070632434137343
 30
0.0
 41
1.0
  0
SPLINE
  5
104
330
1F
100
AcDbEntity
  8
Default
100
AcDbSpline
210
0.0
220
0.0
230
1.0
 70
    12
 71
     2
 72
     6
 73
     3
 74
     0
 42
0.0000000001
 43
0.0000000001
 40
0.0
 40
0.0
 40
0.0
 40
0.0287637614208012
 40
0.0287637614208012
 40
0.0287637614208012
 10
8.039382688027201
 20
-0.0045365745537768
 30
0.0
 41
1.0
 10
8.05870491254471
 20
-0.0066060521716718
 30
0.0
 41
0.9996656851759237
 10
8.073074238592996
 20
-0.0072794261962599
 30
0.0
 41
1.0
  0
SPLINE
  5
105
330
1F
100
AcDbEntity
  8
Default
100
AcDbSpline
210
0.0
220
0.0
230
1.0
 70
     8
 71
     2
 72
    11
 73
     8
 74
     0
 42
0.0000000001
 43
0.0000000001
 40
0.0
 40
0.0
 40
0.0
 40
1.0
 40
2.0
 40
3.0
 40
4.0
 40
5.0
 40
6.0
 40
6.0
 40
6.0
 10
7.976452216397853
 20
0.1405209271088
 30
0.0
 10
8.069862151284946
 20
0.1496151944427943
 30
0.0
 10
8.257227251894102
 20
0.1609697554648802
 30
0.0
 10
8.444882101251697
 20
0.1649773768433725
 30
0.0
 10
8.632567605664331
 20
0.164449916500493
 30
0.0
 10
8.82020063247706
 20
0.168886917824407
 30
0.0
 10
9.007901362060016
 20
0.1654531874968828
 30
0.0
 10
9.101343461012714
 20
0.1561573737594877
 30
0.0
  0
SPLINE
  5
106
330
1F
100
AcDbEntity
  8
Default
100
AcDbSpline
210
0.0
220
0.0
230
1.0
 70
    12
 71
     2
 72
     6
 73
     3
 74
     0
 42
0.0000000001
 43
0.0000000001
 40
0.0
 40
0.0
 40
0.0
 40
0.5069875979584633
 40
0.5069875979584633
 40
0.5069875979584633
 10
8.034610422080604
 20
-0.0024273001073274
 30
0.0
 41
1.0
 10
8.287167001002935
 20
0.0222001805890327
 30
0.0
 41
0.9984597417000961
 10
8.540901305757187
 20
0.0186950718808428
 30
0.0
 41
1.0
  0
SPLINE
  5
107
330
1F
100
AcDbEntity
  8
Default
100
AcDbSpline
210
0.0
220
0.0
230
1.0
 70
    12
 71
     2
 72
     6
 73
     3
 74
     0
 42
0.0000000001
 43
0.0000000001
 40
0.0
 40
0.0
 40
0.0
 40
0.5065890987312437
 40
0.5065890987312437
 40
0.5065890987312437
 10
8.540901305757187
 20
0.0186950718808428
 30
0.0
 41
1.0
 10
8.794240958091004
 20
0.0292684959253454
 30
0.0
 41
0.9984529850107059
 10
9.04718412886523
 20
0.0116478867060044
 30
0.0
 41
1.0
  0
SPLINE
  5
108
330
1F
100
AcDbEntity
  8
Default
100
AcDbSpline
210
0.0
220
0.0
230
1.0
 70
     8
 71
     2
 72
    32
 73
    29
 74
     0
 42
0.0000000001
 43
0.0000000001
 40
0.0
 40
0.0
 40
0.0
 40
1.0
 40
1.0
 40
2.0
 40
2.0
 40
3.0
 40
3.0
 40
4.0
 40
4.0
 40
5.0
 40
5.0
 40
6.0
 40
6.0
 40
7.0
 40
7.0
 40
8.0
 40
8.0
 40
9.0
 40
9.0
 40
10.0
 40
10.0
 40
11.0
 40
11.0
 40
12.0
 40
12.0
 40
13.0
 40
13.0
 40
14.0
 40
14.0
 40
14.0
 10
8.871837588098817
 20
16.65409551767176
 30
0.0
 10
8.917211088098817
 20
16.67839201767176
 30
0.0
 10
8.962584588098817
 20
16.70268851767176
 30
0.0
 10
9.017162088098816
 20
16.73667301767176
 30
0.0
 10
9.071739588098815
 20
16.77065751767176
 30
0.0
 10
9.124113588098815
 20
16.80823551767176
 30
0.0
 10
9.176487588098816
 20
16.84581351767176
 30
0.0
 10
9.226413588098817
 20
16.88686601767176
 30
0.0
 10
9.276339588098818
 20
16.92791851767176
 30
0.0
 10
9.323545588098817
 20
16.97225701767176
 30
0.0
 10
9.370751588098816
 20
17.01659551767176
 30
0.0
 10
9.415019588098817
 20
17.06403501767176
 30
0.0
 10
9.459287588098817
 20
17.11147451767176
 30
0.0
 10
9.500404088098817
 20
17.16183251767176
 30
0.0
 10
9.541520588098816
 20
17.21219051767176
 30
0.0
 10
9.579261588098817
 20
17.26523951767176
 30
0.0
 10
9.617002588098817
 20
17.31828851767176
 30
0.0
 10
9.651194088098817
 20
17.37379201767176
 30
0.0
 10
9.685385588098818
 20
17.42929551767176
 30
0.0
 10
9.715865588098817
 20
17.48702451767176
 30
0.0
 10
9.746345588098816
 20
17.54475351767176
 30
0.0
 10
9.772949088098816
 20
17.60446051767176
 30
0.0
 10
9.799552588098816
 20
17.66416751767176
 30
0.0
 10
9.822153088098815
 20
17.72559001767176
 30
0.0
 10
9.844753588098815
 20
17.78701251767176
 30
0.0
 10
9.863243088098816
 20
17.84988301767176
 30
0.0
 10
9.881732588098817
 20
17.91275351767176
 30
0.0
 10
9.889993588098816
 20
17.94732551767176
 30
0.0
 10
9.898254588098816
 20
17.98189751767176
 30
0.0
  0
SPLINE
  5
109
330
1F
100
AcDbEntity
  8
Default
100
AcDbSpline
210
0.0
220
0.0
230
1.0
 70
     8
 71
     2
 72
    38
 73
    35
 74
     0
 42
0.0000000001
 43
0.0000000001
 40
0.0
 40
0.0
 40
0.0
 40
1.0
 40
1.0
 40
2.0
 40
2.0
 40
3.0
 40
3.0
 40
4.0
 40
4.0
 40
5.0
 40
5.0
 40
6.0
 40
6.0
 40
7.0
 40
7.0
 40
8.0
 40
8.0
 40
9.0
 40
9.0
 40
10.0
 40
10.0
 40
11.0
 40
11.0
 40
12.0
 40
12.0
 40
13.0
 40
13.0
 40
14.0
 40
14.0
 40
15.0
 40
15.0
 40
16.0
 40
16.0
 40
17.0
 40
17.0
 40
17.0
 10
33.75748166984512
 20
24.90936012871959
 30
0.0
 10
33.77612466984512
 20
24.95235312871959
 30
0.0
 10
33.79476766984511
 20
24.99534612871959
 30
0.0
 10
33.81646116984512
 20
25.03668212871959
 30
0.0
 10
33.83815466984512
 20
25.07801812871959
 30
0.0
 10
33.86273866984512
 20
25.11746512871959
 30
0.0
 10
33.88732266984512
 20
25.15691212871959
 30
0.0
 10
33.91463466984512
 20
25.19429512871959
 30
0.0
 10
33.94194666984512
 20
25.23167812871959
 30
0.0
 10
33.97183966984512
 20
25.26686212871959
 30
0.0
 10
34.00173266984513
 20
25.30204612871959
 30
0.0
 10
34.03403766984513
 20
25.33486012871959
 30
0.0
 10
34.06634266984513
 20
25.36767412871959
 30
0.0
 10
34.10085416984512
 20
25.39795862871959
 30
0.0
 10
34.13536566984511
 20
25.42824312871959
 30
0.0
 10
34.17189616984512
 20
25.45586912871959
 30
0.0
 10
34.20842666984512
 20
25.48349512871959
 30
0.0
 10
34.24677566984512
 20
25.50833362871959
 30
0.0
 10
34.28512466984512
 20
25.53317212871959
 30
0.0
 10
34.32506766984512
 20
25.55511562871959
 30
0.0
 10
34.36501066984512
 20
25.57705912871959
 30
0.0
 10
34.40632666984512
 20
25.59601312871959
 30
0.0
 10
34.44764266984512
 20
25.61496712871959
 30
0.0
 10
34.49011466984512
 20
25.63085412871959
 30
0.0
 10
34.53258666984512
 20
25.64674112871959
 30
0.0
 10
34.57597616984512
 20
25.65950512871959
 30
0.0
 10
34.61936566984512
 20
25.67226912871959
 30
0.0
 10
34.66341416984512
 20
25.68186062871959
 30
0.0
 10
34.70746266984511
 20
25.69145212871959
 30
0.0
 10
34.75192916984512
 20
25.69784962871959
 30
0.0
 10
34.79639566984513
 20
25.70424712871959
 30
0.0
 10
34.84105716984512
 20
25.70745712871959
 30
0.0
 10
34.88571866984512
 20
25.71066712871959
 30
0.0
 10
34.90849866984512
 20
25.71108012871959
 30
0.0
 10
34.93127866984513
 20
25.71149312871959
 30
0.0
  0
SPLINE
  5
10A
330
1F
100
AcDbEntity
  8
Default
100
AcDbSpline
210
0.0
220
0.0
230
1.0
 70
    24
 71
     2
 72
     6
 73
     3
 74
     0
 42
0.0000000001
 43
0.0000000001
 40
0.0
 40
0.0
 40
0.0
 40
1.0
 40
1.0
 40
1.0
 10
33.74140766984512
 20
24.86580812871959
 30
0.0
 10
33.74944466984512
 20
24.88758412871959
 30
0.0
 10
33.75748166984512
 20
24.90936012871959
 30
0.0
  0
SPLINE
  5
10B
330
1F
100
AcDbEntity
  8
Default
100
AcDbSpline
210
0.0
220
0.0
230
1.0
 70
     8
 71
     2
 72
    40
 73
    37
 74
     0
 42
0.0000000001
 43
0.0000000001
 40
0.0
 40
0.0
 40
0.0
 40
1.0
 40
1.0
 40
2.0
 40
2.0
 40
3.0
 40
3.0
 40
4.0
 40
4.0
 40
5.0
 40
5.0
 40
6.0
 40
6.0
 40
7.0
 40
7.0
 40
8.0
 40
8.0
 40
9.0
 40
9.0
 40
10.0
 40
10.0
 40
11.0
 40
11.0
 40
12.0
 40
12.0
 40
13.0
 40
13.0
 40
14.0
 40
14.0
 40
15.0
 40
15.0
 40
16.0
 40
16.0
 40
17.0
 40
17.0
 40
18.0
 40
18.0
 40
18.0
 10
34.93127866984513
 20
26.69078812871959
 30
0.0
 10
34.88955416984513
 20
26.69000862871959
 30
0.0
 10
34.84782966984513
 20
26.68922912871959
 30
0.0
 10
34.76734766984512
 20
26.68331612871959
 30
0.0
 10
34.68686566984512
 20
26.67740312871959
 30
0.0
 10
34.60689416984512
 20
26.66569612871959
 30
0.0
 10
34.52692266984512
 20
26.65398912871959
 30
0.0
 10
34.44787266984512
 20
26.63650512871959
 30
0.0
 10
34.36882266984512
 20
26.61902112871959
 30
0.0
 10
34.29112166984512
 20
26.59583062871959
 30
0.0
 10
34.21342066984512
 20
26.57264012871959
 30
0.0
 10
34.13751666984512
 20
26.54386212871959
 30
0.0
 10
34.06161266984512
 20
26.51508412871959
 30
0.0
 10
33.98792166984512
 20
26.48083862871959
 30
0.0
 10
33.91423066984513
 20
26.44659312871959
 30
0.0
 10
33.84313766984512
 20
26.40705012871959
 30
0.0
 10
33.77204466984512
 20
26.36750712871959
 30
0.0
 10
33.70395216984512
 20
26.32287462871959
 30
0.0
 10
33.63585966984512
 20
26.27824212871959
 30
0.0
 10
33.57114516984512
 20
26.22873362871959
 30
0.0
 10
33.50643066984512
 20
26.17922512871959
 30
0.0
 10
33.44543216984512
 20
26.12509762871959
 30
0.0
 10
33.38443366984512
 20
26.07097012871959
 30
0.0
 10
33.32749716984512
 20
26.01251012871959
 30
0.0
 10
33.27056066984512
 20
25.95405012871959
 30
0.0
 10
33.21800816984512
 20
25.89155562871959
 30
0.0
 10
33.16545566984512
 20
25.82906112871959
 30
0.0
 10
33.11755766984512
 20
25.76285812871959
 30
0.0
 10
33.06965966984512
 20
25.69665512871959
 30
0.0
 10
33.02668566984512
 20
25.62708212871959
 30
0.0
 10
32.98371166984512
 20
25.55750912871959
 30
0.0
 10
32.94590716984512
 20
25.48492412871959
 30
0.0
 10
32.90810266984512
 20
25.41233912871959
 30
0.0
 10
32.87566816984512
 20
25.33712562871959
 30
0.0
 10
32.84323366984512
 20
25.26191212871959
 30
0.0
 10
32.82953316984512
 20
25.22470962871959
 30
0.0
 10
32.81583266984512
 20
25.18750712871959
 30
0.0
  0
SPLINE
  5
10C
330
1F
100
AcDbEntity
  8
Default
100
AcDbSpline
210
0.0
220
0.0
230
1.0
 70
    24
 71
     2
 72
     6
 73
     3
 74
     0
 42
0.0000000001
 43
0.0000000001
 40
0.0
 40
0.0
 40
0.0
 40
1.0
 40
1.0
 40
1.0
 10
34.93127866984513
 20
25.71149312871959
 30
0.0
 10
35.29413066984512
 20
25.71149312871959
 30
0.0
 10
35.65698266984512
 20
25.71149312871959
 30
0.0
  0
SPLINE
  5
10D
330
1F
100
AcDbEntity
  8
Default
100
AcDbSpline
210
0.0
220
0.0
230
1.0
 70
    24
 71
     2
 72
     6
 73
     3
 74
     0
 42
0.0000000001
 43
0.0000000001
 40
0.0
 40
0.0
 40
0.0
 40
1.0
 40
1.0
 40
1.0
 10
35.64843566984513
 20
26.69078812871959
 30
0.0
 10
35.28985716984513
 20
26.69078812871959
 30
0.0
 10
34.93127866984513
 20
26.69078812871959
 30
0.0
  0
SPLINE
  5
10E
330
1F
100
AcDbEntity
  8
Default
100
AcDbSpline
210
0.0
220
0.0
230
1.0
 70
    24
 71
     2
 72
     6
 73
     3
 74
     0
 42
0.0000000001
 43
0.0000000001
 40
-1.0
 40
-1.0
 40
-1.0
 40
0.0
 40
0.0
 40
0.0
 10
9.602384588098815
 20
27.20103951767176
 30
0.0
 10
9.602384588098815
 20
27.23228951767176
 30
0.0
 10
9.602384588098815
 20
27.26353951767176
 30
0.0
  0
SPLINE
  5
10F
330
1F
100
AcDbEntity
  8
Default
100
AcDbSpline
210
0.0
220
0.0
230
1.0
 70
    24
 71
     2
 72
     6
 73
     3
 74
     0
 42
0.0000000001
 43
0.0000000001
 40
0.0
 40
0.0
 40
0.0
 40
1.0
 40
1.0
 40
1.0
 10
12.38238458809882
 20
27.20103951767176
 30
0.0
 10
10.99238458809882
 20
27.20103951767176
 30
0.0
 10
9.602384588098815
 20
27.20103951767176
 30
0.0
  0
SPLINE
  5
110
330
1F
100
AcDbEntity
  8
Default
100
AcDbSpline
210
0.0
220
0.0
230
1.0
 70
    24
 71
     2
 72
     6
 73
     3
 74
     0
 42
0.0000000001
 43
0.0000000001
 40
0.0
 40
0.0
 40
0.0
 40
1.0
 40
1.0
 40
1.0
 10
12.38238458809882
 20
27.26353951767176
 30
0.0
 10
12.38238458809882
 20
27.23228951767176
 30
0.0
 10
12.38238458809882
 20
27.20103951767176
 30
0.0
  0
SPLINE
  5
111
330
1F
100
AcDbEntity
  8
Default
100
AcDbSpline
210
0.0
220
0.0
230
1.0
 70
    24
 71
     2
 72
     6
 73
     3
 74
     0
 42
0.0000000001
 43
0.0000000001
 40
0.0
 40
0.0
 40
0.0
 40
1.0
 40
1.0
 40
1.0
 10
2.896494088098816
 20
28.01353951767176
 30
0.0
 10
2.896494088098816
 20
27.63853951767176
 30
0.0
 10
2.896494088098816
 20
27.26353951767176
 30
0.0
  0
SPLINE
  5
112
330
1F
100
AcDbEntity
  8
Default
100
AcDbSpline
210
0.0
220
0.0
230
1.0
 70
    24
 71
     2
 72
     6
 73
     3
 74
     0
 42
0.0000000001
 43
0.0000000001
 40
0.0
 40
0.0
 40
0.0
 40
1.0
 40
1.0
 40
1.0
 10
12.71578908809882
 20
28.01353951767176
 30
0.0
 10
7.806141588098816
 20
28.01353951767176
 30
0.0
 10
2.896494088098816
 20
28.01353951767176
 30
0.0
  0
SPLINE
  5
113
330
1F
100
AcDbEntity
  8
Default
100
AcDbSpline
210
0.0
220
0.0
230
1.0
 70
    24
 71
     2
 72
     6
 73
     3
 74
     0
 42
0.0000000001
 43
0.0000000001
 40
0.0
 40
0.0
 40
0.0
 40
1.0
 40
1.0
 40
1.0
 10
12.71578908809882
 20
27.26353951767176
 30
0.0
 10
12.71578908809882
 20
27.63853951767176
 30
0.0
 10
12.71578908809882
 20
28.01353951767176
 30
0.0
  0
SPLINE
  5
114
330
1F
100
AcDbEntity
  8
Default
100
AcDbSpline
210
0.0
220
0.0
230
1.0
 70
    24
 71
     2
 72
     6
 73
     3
 74
     0
 42
0.0000000001
 43
0.0000000001
 40
-1.0
 40
-1.0
 40
-1.0
 40
0.0
 40
0.0
 40
0.0
 10
2.896494088098816
 20
27.26353951767176
 30
0.0
 10
7.806141588098816
 20
27.26353951767176
 30
0.0
 10
12.71578908809882
 20
27.26353951767176
 30
0.0
  0
SPLINE
  5
115
330
1F
100
AcDbEntity
  8
Default
100
AcDbSpline
210
0.0
220
0.0
230
1.0
 70
    24
 71
     2
 72
     6
 73
     3
 74
     0
 42
0.0000000001
 43
0.0000000001
 40
0.0
 40
0.0
 40
0.0
 40
1.0
 40
1.0
 40
1.0
 10
10.15326958809882
 20
26.51703951767175
 30
0.0
 10
10.14132658809882
 20
26.85903951767176
 30
0.0
 10
10.12938358809881
 20
27.20103951767176
 30
0.0
  0
SPLINE
  5
116
330
1F
100
AcDbEntity
  8
Default
100
AcDbSpline
210
0.0
220
0.0
230
1.0
 70
     8
 71
     3
 72
    14
 73
    10
 74
     0
 42
0.0000000001
 43
0.0000000001
 40
0.0
 40
0.0
 40
0.0
 40
0.0
 40
1.0
 40
2.0
 40
3.0
 40
4.0
 40
5.0
 40
6.0
 40
7.0
 40
7.0
 40
7.0
 40
7.0
 10
12.23149958809882
 20
26.51704351767176
 30
0.0
 10
12.22612149629611
 20
26.34867243319095
 30
0.0
 10
12.15230433791954
 20
26.01762066543865
 30
0.0
 10
11.89176519155777
 20
25.5740864245737
 30
0.0
 10
11.45668552754843
 20
25.28881478463375
 30
0.0
 10
10.92808754311553
 20
25.28881581421051
 30
0.0
 10
10.49300543239563
 20
25.5740820346862
 30
0.0
 10
10.23246706319111
 20
26.01761760524393
 30
0.0
 10
10.15864701387728
 20
26.3486681270482
 30
0.0
 10
10.15326958809882
 20
26.51703951767175
 30
0.0
  0
SPLINE
  5
117
330
1F
100
AcDbEntity
  8
Default
100
AcDbSpline
210
0.0
220
0.0
230
1.0
 70
    24
 71
     2
 72
     6
 73
     3
 74
     0
 42
0.0000000001
 43
0.0000000001
 40
0.0
 40
0.0
 40
0.0
 40
1.0
 40
1.0
 40
1.0
 10
12.25538358809882
 20
27.20103951767176
 30
0.0
 10
12.24344158809882
 20
26.85904151767176
 30
0.0
 10
12.23149958809882
 20
26.51704351767176
 30
0.0
  0
LINE
  5
118
330
1F
100
AcDbEntity
  8
Default
100
AcDbLine
 10
9.898252588098817
 20
17.98188951767176
 30
0.0
 11
11.52143938765803
 21
25.36456344289007
 31
0.0
  0
SPLINE
  5
119
330
1F
100
AcDbEntity
  8
Default
100
AcDbSpline
210
0.0
220
0.0
230
1.0
 70
    24
 71
     2
 72
     6
 73
     3
 74
     0
 42
0.0000000001
 43
0.0000000001
 40
0.0
 40
0.0
 40
0.0
 40
1.0
 40
1.0
 40
1.0
 10
34.74398366984512
 20
28.01364012871959
 30
0.0
 10
34.74398366984512
 20
27.63864012871959
 30
0.0
 10
34.74398366984512
 20
27.26364012871959
 30
0.0
  0
SPLINE
  5
11A
330
1F
100
AcDbEntity
  8
Default
100
AcDbSpline
210
0.0
220
0.0
230
1.0
 70
    24
 71
     2
 72
     6
 73
     3
 74
     0
 42
0.0000000001
 43
0.0000000001
 40
0.0
 40
0.0
 40
0.0
 40
1.0
 40
1.0
 40
1.0
 10
49.65849416984513
 20
28.01364012871959
 30
0.0
 10
42.20123891984512
 20
28.01364012871959
 30
0.0
 10
34.74398366984512
 20
28.01364012871959
 30
0.0
  0
SPLINE
  5
11B
330
1F
100
AcDbEntity
  8
Default
100
AcDbSpline
210
0.0
220
0.0
230
1.0
 70
    24
 71
     2
 72
     6
 73
     3
 74
     0
 42
0.0000000001
 43
0.0000000001
 40
0.0
 40
0.0
 40
0.0
 40
1.0
 40
1.0
 40
1.0
 10
49.65849416984513
 20
27.26364012871959
 30
0.0
 10
49.65849416984513
 20
27.63864012871959
 30
0.0
 10
49.65849416984513
 20
28.01364012871959
 30
0.0
  0
SPLINE
  5
11C
330
1F
100
AcDbEntity
  8
Default
100
AcDbSpline
210
0.0
220
0.0
230
1.0
 70
    24
 71
     2
 72
     6
 73
     3
 74
     0
 42
0.0000000001
 43
0.0000000001
 40
-1.0
 40
-1.0
 40
-1.0
 40
0.0
 40
0.0
 40
0.0
 10
34.74398366984512
 20
27.26364012871959
 30
0.0
 10
42.20123891984512
 20
27.26364012871959
 30
0.0
 10
49.65849416984513
 20
27.26364012871959
 30
0.0
  0
SPLINE
  5
11D
330
1F
100
AcDbEntity
  8
Default
100
AcDbSpline
210
0.0
220
0.0
230
1.0
 70
    24
 71
     2
 72
     6
 73
     3
 74
     0
 42
0.0000000001
 43
0.0000000001
 40
0.0
 40
0.0
 40
0.0
 40
1.0
 40
1.0
 40
1.0
 10
35.51398266984512
 20
27.20114012871959
 30
0.0
 10
35.51398266984512
 20
27.23239012871959
 30
0.0
 10
35.51398266984512
 20
27.26364012871959
 30
0.0
  0
SPLINE
  5
11E
330
1F
100
AcDbEntity
  8
Default
100
AcDbSpline
210
0.0
220
0.0
230
1.0
 70
    24
 71
     2
 72
     6
 73
     3
 74
     0
 42
0.0000000001
 43
0.0000000001
 40
0.0
 40
0.0
 40
0.0
 40
1.0
 40
1.0
 40
1.0
 10
37.89398266984512
 20
27.20114012871959
 30
0.0
 10
36.70398266984512
 20
27.20114012871959
 30
0.0
 10
35.51398266984512
 20
27.20114012871959
 30
0.0
  0
SPLINE
  5
11F
330
1F
100
AcDbEntity
  8
Default
100
AcDbSpline
210
0.0
220
0.0
230
1.0
 70
    24
 71
     2
 72
     6
 73
     3
 74
     0
 42
0.0000000001
 43
0.0000000001
 40
-1.0
 40
-1.0
 40
-1.0
 40
0.0
 40
0.0
 40
0.0
 10
37.89398266984512
 20
27.26364012871959
 30
0.0
 10
37.89398266984512
 20
27.23239012871959
 30
0.0
 10
37.89398266984512
 20
27.20114012871959
 30
0.0
  0
SPLINE
  5
120
330
1F
100
AcDbEntity
  8
Default
100
AcDbSpline
210
0.0
220
0.0
230
1.0
 70
    24
 71
     2
 72
     6
 73
     3
 74
     0
 42
0.0000000001
 43
0.0000000001
 40
0.0
 40
0.0
 40
0.0
 40
1.0
 40
1.0
 40
1.0
 10
37.62826676447911
 20
25.4002781278934
 30
0.0
 10
37.63612471716211
 20
26.30070912830649
 30
0.0
 10
37.64398266984512
 20
27.20114012871959
 30
0.0
  0
ARC
  5
121
330
1F
100
AcDbEntity
  8
Default
100
AcDbCircle
 10
37.52827066984513
 20
25.40115112871959
 30
0.0
 40
0.0999999053624062
100
AcDbArc
 50
270.0
 51
359.4998005443408
  0
SPLINE
  5
122
330
1F
100
AcDbEntity
  8
Default
100
AcDbSpline
210
0.0
220
0.0
230
1.0
 70
    24
 71
     2
 72
     6
 73
     3
 74
     0
 42
0.0000000001
 43
0.0000000001
 40
0.0
 40
0.0
 40
0.0
 40
1.0
 40
1.0
 40
1.0
 10
35.75969466984512
 20
25.30115122335718
 30
0.0
 10
36.64398266984512
 20
25.30115122335718
 30
0.0
 10
37.52827066984513
 20
25.30115122335718
 30
0.0
  0
ARC
  5
123
330
1F
100
AcDbEntity
  8
Default
100
AcDbCircle
 10
35.75969466984512
 20
25.40115112871959
 30
0.0
 40
0.0999999053624062
100
AcDbArc
 50
180.5001994556592
 51
270.0
  0
SPLINE
  5
124
330
1F
100
AcDbEntity
  8
Default
100
AcDbSpline
210
0.0
220
0.0
230
1.0
 70
    24
 71
     2
 72
     6
 73
     3
 74
     0
 42
0.0000000001
 43
0.0000000001
 40
0.0
 40
0.0
 40
0.0
 40
1.0
 40
1.0
 40
1.0
 10
35.64398266984512
 20
27.20114012871959
 30
0.0
 10
35.65184062252813
 20
26.30070912830649
 30
0.0
 10
35.65969857521114
 20
25.4002781278934
 30
0.0
  0
SPLINE
  5
125
330
1F
100
AcDbEntity
  8
Default
100
AcDbSpline
210
0.0
220
0.0
230
1.0
 70
    24
 71
     2
 72
     6
 73
     3
 74
     0
 42
0.0000000001
 43
0.0000000001
 40
0.0
 40
0.0
 40
0.0
 40
1.0
 40
1.0
 40
1.0
 10
37.68127866984513
 20
26.69068512871959
 30
0.0
 10
37.66040366984512
 20
26.69073662871958
 30
0.0
 10
37.63952866984512
 20
26.69078812871959
 30
0.0
  0
SPLINE
  5
126
330
1F
100
AcDbEntity
  8
Default
100
AcDbSpline
210
0.0
220
0.0
230
1.0
 70
    24
 71
     2
 72
     6
 73
     3
 74
     0
 42
0.0000000001
 43
0.0000000001
 40
0.0
 40
0.0
 40
0.0
 40
1.0
 40
1.0
 40
1.0
 10
37.68127866984513
 20
25.71159612871959
 30
0.0
 10
37.68127866984513
 20
26.20114062871959
 30
0.0
 10
37.68127866984513
 20
26.69068512871959
 30
0.0
  0
SPLINE
  5
127
330
1F
100
AcDbEntity
  8
Default
100
AcDbSpline
210
0.0
220
0.0
230
1.0
 70
    24
 71
     2
 72
     6
 73
     3
 74
     0
 42
0.0000000001
 43
0.0000000001
 40
0.0
 40
0.0
 40
0.0
 40
1.0
 40
1.0
 40
1.0
 10
37.63098266984512
 20
25.71149312871959
 30
0.0
 10
37.65613066984513
 20
25.71154462871959
 30
0.0
 10
37.68127866984513
 20
25.71159612871959
 30
0.0
  0
SPLINE
  5
128
330
1F
100
AcDbEntity
  8
Default
100
AcDbSpline
210
0.0
220
0.0
230
1.0
 70
     8
 71
     2
 72
     8
 73
     5
 74
     0
 42
0.0000000001
 43
0.0000000001
 40
0.0
 40
0.0
 40
0.0
 40
1.0
 40
1.0
 40
2.0
 40
2.0
 40
2.0
 10
8.941112088098816
 20
18.19232151767176
 30
0.0
 10
8.937701338098815
 20
18.17785601767176
 30
0.0
 10
8.934290588098815
 20
18.16339051767176
 30
0.0
 10
8.921941588098816
 20
18.12207801767176
 30
0.0
 10
8.909592588098818
 20
18.08076551767176
 30
0.0
  0
LINE
  5
129
330
1F
100
AcDbEntity
  8
Default
100
AcDbLine
 10
10.56131693160401
 20
25.56143391212316
 30
0.0
 11
8.941112088098816
 21
18.19232151767176
 31
0.0
  0
SPLINE
  5
12A
330
1F
100
AcDbEntity
  8
Default
100
AcDbSpline
210
0.0
220
0.0
230
1.0
 70
    12
 71
     3
 72
    16
 73
    12
 74
     0
 42
0.0000000001
 43
0.0000000001
 40
-9.298268072183765
 40
-9.298268072183765
 40
-9.298268072183765
 40
-9.298268072183765
 40
-8.673929290600562
 40
-8.673929290600562
 40
-8.673929290600562
 40
-6.586620086222773
 40
-5.772800495400565
 40
-4.920229152264927
 40
-4.920229152264927
 40
-4.920229152264927
 40
-3.896273645716633
 40
-3.896273645716633
 40
-3.896273645716633
 40
-3.896273645716633
 10
9.532095908276611
 20
27.26353951767176
 30
0.0
 41
1.0
 10
9.54695048976791
 20
27.05595090972321
 30
0.0
 41
1.0
 10
9.560402497108287
 20
26.84824691874349
 30
0.0
 41
1.0
 10
9.572498973225377
 20
26.64042143435345
 30
0.0
 41
1.0
 10
9.608675387058055
 20
25.94554014077119
 30
0.0
 41
1.0
 10
9.676628460264677
 20
24.98066585107565
 30
0.0
 41
1.0
 10
9.716479212786098
 20
23.72994020667396
 30
0.0
 41
1.0
 10
9.725643444996125
 20
23.17458115165922
 30
0.0
 41
1.0
 10
9.72908670557459
 20
22.89036704839491
 30
0.0
 41
1.0
 10
9.735664216114412
 20
22.54910532059633
 30
0.0
 41
0.9999999999532982
 10
9.742243115715233
 20
22.20765041986936
 30
0.0
 41
0.9999999999222762
 10
9.748823404376742
 20
21.86600234623006
 30
0.0
 41
0.9999999999069339
  0
SPLINE
  5
12B
330
1F
100
AcDbEntity
  8
Default
100
AcDbSpline
210
0.0
220
0.0
230
1.0
 70
    24
 71
     2
 72
     6
 73
     3
 74
     0
 42
0.0000000001
 43
0.0000000001
 40
0.0
 40
0.0
 40
0.0
 40
17.44366551506392
 40
17.44366551506392
 40
17.44366551506392
 10
10.08410720374532
 20
0.2669864245367606
 30
0.0
 10
9.950002529020852
 20
8.98778814149917
 30
0.0
 10
9.815897854296383
 20
17.70858985846158
 30
0.0
  0
SPLINE
  5
12C
330
1F
100
AcDbEntity
  8
Default
100
AcDbSpline
210
0.0
220
0.0
230
1.0
 70
     8
 71
     3
 72
     8
 73
     4
 74
     0
 42
0.0000000001
 43
0.0000000001
 40
0.0
 40
0.0
 40
0.0
 40
0.0
 40
0.5160797568490254
 40
0.5160797568490254
 40
0.5160797568490254
 40
0.5160797568490254
 10
7.746175763228774
 20
16.69415488843361
 30
0.0
 10
7.930629944916672
 20
16.91364410769315
 30
0.0
 10
8.119227126670035
 20
17.12959439015741
 30
0.0
 10
8.310438750036893
 20
17.34321295479798
 30
0.0
  0
SPLINE
  5
12D
330
1F
100
AcDbEntity
  8
Default
100
AcDbSpline
210
0.0
220
0.0
230
1.0
 70
     8
 71
     3
 72
     8
 73
     4
 74
     0
 42
0.0000000001
 43
0.0000000001
 40
0.0
 40
0.0
 40
0.0
 40
0.0
 40
0.5160797568490254
 40
0.5160797568490254
 40
0.5160797568490254
 40
0.5160797568490254
 10
-7.746175763228774
 20
16.69415488843361
 30
0.0
 10
-7.930629944916672
 20
16.91364410769315
 30
0.0
 10
-8.119227126670035
 20
17.12959439015741
 30
0.0
 10
-8.310438750036893
 20
17.34321295479798
 30
0.0
  0
SPLINE
  5
12E
330
1F
100
AcDbEntity
  8
Default
100
AcDbSpline
210
0.0
220
0.0
230
1.0
 70
    24
 71
     2
 72
     6
 73
     3
 74
     0
 42
0.0000000001
 43
0.0000000001
 40
0.0
 40
0.0
 40
0.0
 40
0.0838826130654592
 40
0.0838826130654592
 40
0.0838826130654592
 10
-7.976452258500874
 20
0.1405148736226902
 30
0.0
 10
-7.977035675809438
 20
0.0985761114754763
 30
0.0
 10
-7.977619093118001
 20
0.0566373493282625
 30
0.0
  0
SPLINE
  5
12F
330
1F
100
AcDbEntity
  8
Default
100
AcDbSpline
210
0.0
220
0.0
230
1.0
 70
    12
 71
     2
 72
     6
 73
     3
 74
     0
 42
0.0000000001
 43
0.0000000001
 40
-0.4678786518234926
 40
-0.4678786518234926
 40
-0.4678786518234926
 40
0.0
 40
0.0
 40
0.0
 10
-8.073074238592996
 20
-0.0072794261962599
 30
0.0
 41
1.0
 10
-8.306957831265287
 20
-0.0143321204280719
 30
0.0
 41
0.99967599695013
 10
-8.540897275472915
 20
-0.009474429260468
 30
0.0
 41
1.0
  0
SPLINE
  5
130
330
1F
100
AcDbEntity
  8
Default
100
AcDbSpline
210
0.0
220
0.0
230
1.0
 70
    12
 71
     2
 72
     6
 73
     3
 74
     0
 42
0.0000000001
 43
0.0000000001
 40
0.0
 40
0.0
 40
0.0
 40
0.5065890987312437
 40
0.5065890987312437
 40
0.5065890987312437
 10
-8.540901305757187
 20
0.0186950718808428
 30
0.0
 41
1.0
 10
-8.794240958091004
 20
0.0292684959253454
 30
0.0
 41
0.9984529850107059
 10
-9.04718412886523
 20
0.0116478867060044
 30
0.0
 41
1.0
  0
SPLINE
  5
131
330
1F
100
AcDbEntity
  8
Default
100
AcDbSpline
210
0.0
220
0.0
230
1.0
 70
    12
 71
     2
 72
     6
 73
     3
 74
     0
 42
0.0000000001
 43
0.0000000001
 40
0.0
 40
0.0
 40
0.0
 40
0.0905125898444878
 40
0.0905125898444878
 40
0.0905125898444878
 10
-9.042849417664835
 20
0.0095215415385489
 30
0.0
 41
1.0
 10
-9.10190292625851
 20
0.0173517644409298
 30
0.0
 41
0.7556419620120104
 10
-9.102510337575374
 20
0.0722798499397587
 30
0.0
 41
1.0
  0
SPLINE
  5
132
330
1F
100
AcDbEntity
  8
Default
100
AcDbSpline
210
0.0
220
0.0
230
1.0
 70
    12
 71
     2
 72
     6
 73
     3
 74
     0
 42
0.0000000001
 43
0.0000000001
 40
0.0
 40
0.0
 40
0.0
 40
0.5069875979584633
 40
0.5069875979584633
 40
0.5069875979584633
 10
-8.034610422080604
 20
-0.0024273001073274
 30
0.0
 41
1.0
 10
-8.287167001002935
 20
0.0222001805890327
 30
0.0
 41
0.9984597417000961
 10
-8.540901305757187
 20
0.0186950718808428
 30
0.0
 41
1.0
  0
SPLINE
  5
133
330
1F
100
AcDbEntity
  8
Default
100
AcDbSpline
210
0.0
220
0.0
230
1.0
 70
     8
 71
     2
 72
    11
 73
     8
 74
     0
 42
0.0000000001
 43
0.0000000001
 40
0.0
 40
0.0
 40
0.0
 40
1.0
 40
2.0
 40
3.0
 40
4.0
 40
5.0
 40
6.0
 40
6.0
 40
6.0
 10
-7.976452216397853
 20
0.1405209271088
 30
0.0
 10
-8.069862151284946
 20
0.1496151944427943
 30
0.0
 10
-8.257227251894102
 20
0.1609697554648802
 30
0.0
 10
-8.444882101251697
 20
0.1649773768433725
 30
0.0
 10
-8.632567605664331
 20
0.164449916500493
 30
0.0
 10
-8.82020063247706
 20
0.168886917824407
 30
0.0
 10
-9.007901362060016
 20
0.1654531874968828
 30
0.0
 10
-9.101343461012714
 20
0.1561573737594877
 30
0.0
  0
SPLINE
  5
134
330
1F
100
AcDbEntity
  8
Default
100
AcDbSpline
210
0.0
220
0.0
230
1.0
 70
    12
 71
     2
 72
     6
 73
     3
 74
     0
 42
0.0000000001
 43
0.0000000001
 40
0.0
 40
0.0
 40
0.0
 40
0.0287637614208012
 40
0.0287637614208012
 40
0.0287637614208012
 10
-8.039382688027201
 20
-0.0045365745537768
 30
0.0
 41
1.0
 10
-8.05870491254471
 20
-0.0066060521716718
 30
0.0
 41
0.9996656851759237
 10
-8.073074238592996
 20
-0.0072794261962599
 30
0.0
 41
1.0
  0
SPLINE
  5
135
330
1F
100
AcDbEntity
  8
Default
100
AcDbSpline
210
0.0
220
0.0
230
1.0
 70
    12
 71
     2
 72
     6
 73
     3
 74
     0
 42
0.0000000001
 43
0.0000000001
 40
0.0
 40
0.0
 40
0.0
 40
0.0149504543859661
 40
0.0149504543859661
 40
0.0149504543859661
 10
-9.00874850749759
 20
0.0057281465216029
 30
0.0
 41
1.0
 10
-9.016200569615672
 20
0.0063189861429629
 30
0.0
 41
0.9999561228672283
 10
-9.02364150682423
 20
0.0070632434137343
 30
0.0
 41
1.0
  0
SPLINE
  5
136
330
1F
100
AcDbEntity
  8
Default
100
AcDbSpline
210
0.0
220
0.0
230
1.0
 70
    24
 71
     2
 72
     6
 73
     3
 74
     0
 42
0.0000000001
 43
0.0000000001
 40
0.0
 40
0.0
 40
0.0
 40
16.55517303774998
 40
16.55517303774998
 40
16.55517303774998
 10
-7.746172605459932
 20
16.69409231248151
 30
0.0
 10
-7.861312389878536
 20
8.41730661950232
 30
0.0
 10
-7.976452174297142
 20
0.1405209265231283
 30
0.0
  0
SPLINE
  5
137
330
1F
100
AcDbEntity
  8
Default
100
AcDbSpline
210
0.0
220
0.0
230
1.0
 70
    12
 71
     2
 72
     6
 73
     3
 74
     0
 42
0.0000000001
 43
0.0000000001
 40
0.0
 40
0.0
 40
0.0
 40
0.090509536218289
 40
0.090509536218289
 40
0.090509536218289
 10
-7.977619093118001
 20
0.0566373493282625
 30
0.0
 41
1.0
 10
-7.979661975657059
 20
0.0016767954230861
 30
0.0
 41
0.7543192092771731
 10
-8.039382688027201
 20
-0.0045365745537768
 30
0.0
 41
1.0
  0
SPLINE
  5
138
330
1F
100
AcDbEntity
  8
Default
100
AcDbSpline
210
0.0
220
0.0
230
1.0
 70
    12
 71
     2
 72
     6
 73
     3
 74
     0
 42
0.0000000001
 43
0.0000000001
 40
-0.4681485405974239
 40
-0.4681485405974239
 40
-0.4681485405974239
 40
0.0
 40
0.0
 40
0.0
 10
-8.540897275472915
 20
-0.009474429260468
 30
0.0
 41
1.0
 10
-8.775016203420662
 20
-0.0078228924777565
 30
0.0
 41
0.9996765963466816
 10
-9.00874850749759
 20
0.0057281465216029
 30
0.0
 41
1.0
  0
SPLINE
  5
139
330
1F
100
AcDbEntity
  8
Default
100
AcDbSpline
210
0.0
220
0.0
230
1.0
 70
    24
 71
     2
 72
     6
 73
     3
 74
     0
 42
0.0000000001
 43
0.0000000001
 40
0.0
 40
0.0
 40
0.0
 40
0.0838826131717245
 40
0.0838826131717245
 40
0.0838826131717245
 10
-9.102510337575374
 20
0.0722798499397587
 30
0.0
 10
-9.101926920344804
 20
0.114218612142464
 30
0.0
 10
-9.101343503114233
 20
0.1561573743451692
 30
0.0
  0
SPLINE
  5
13A
330
1F
100
AcDbEntity
  8
Default
100
AcDbSpline
210
0.0
220
0.0
230
1.0
 70
    12
 71
     2
 72
     6
 73
     3
 74
     0
 42
0.0000000001
 43
0.0000000001
 40
-0.0147217657248775
 40
-0.0147217657248775
 40
-0.0147217657248775
 40
0.0
 40
0.0
 40
0.0
 10
-9.02364150682423
 20
0.0070632434137343
 30
0.0
 41
1.0
 10
-9.030971670729377
 20
0.0077820056005832
 30
0.0
 41
0.9996253281867565
 10
-9.042849417664835
 20
0.0095215415385489
 30
0.0
 41
1.0
  0
ARC
  5
13B
330
1F
100
AcDbEntity
  8
Default
100
AcDbCircle
 10
-9.215557185938449
 20
20.02108206457916
 30
0.0
 40
2.225899787192812
100
AcDbArc
 50
269.1154124068016
 51
279.3830439350859
  0
SPLINE
  5
13C
330
1F
100
AcDbEntity
  8
Default
100
AcDbSpline
210
0.0
220
0.0
230
1.0
 70
    12
 71
     2
 72
     6
 73
     3
 74
     0
 42
0.0000000001
 43
0.0000000001
 40
-2.61767884764435
 40
-2.61767884764435
 40
-2.61767884764435
 40
-1.76714586765109
 40
-1.76714586765109
 40
-1.76714586765109
 10
-9.811555355401305
 20
17.93127031119547
 30
0.0
 41
0.978914442170177
 10
-9.783061513330017
 20
17.80367934268387
 30
0.0
 41
0.7180591067466878
 10
-9.249921411901177
 20
17.79544755671427
 30
0.0
 41
1.0
  0
ARC
  5
13D
330
1F
100
AcDbEntity
  8
Default
100
AcDbCircle
 10
-12.60358467296645
 20
21.78850533488995
 30
0.0
 40
5.559433541729797
100
AcDbArc
 50
309.5964629372505
 51
312.4026717484545
  0
SPLINE
  5
13E
330
1F
100
AcDbEntity
  8
Default
100
AcDbSpline
210
0.0
220
0.0
230
1.0
 70
     8
 71
     3
 72
    12
 73
     8
 74
     0
 42
0.0000000001
 43
0.0000000001
 40
0.0
 40
0.0
 40
0.0
 40
0.0
 40
0.1289980641857453
 40
0.2562220713897911
 40
0.4615769468258699
 40
0.6420974572341978
 40
0.9090739014683552
 40
0.9090739014683552
 40
0.9090739014683552
 40
0.9090739014683552
 10
-9.070186619695663
 20
16.78195481076429
 30
0.0
 10
-9.104922508876683
 20
16.80610457632508
 30
0.0
 10
-9.170603097129971
 20
16.864743447519
 30
0.0
 10
-9.26960651225711
 20
16.9762723768876
 30
0.0
 10
-9.344876642721175
 20
17.14766476304774
 30
0.0
 10
-9.246418185406176
 20
17.35523665985551
 30
0.0
 10
-9.128767910014666
 20
17.44789665741967
 30
0.0
 10
-9.06013281301944
 20
17.50466941119394
 30
0.0
  0
ARC
  5
13F
330
1F
100
AcDbEntity
  8
Default
100
AcDbCircle
 10
-8.784460212159274
 20
17.19293026322955
 30
0.0
 40
0.5005401107730305
100
AcDbArc
 50
235.1914438821115
 51
260.3343011109504
  0
SPLINE
  5
140
330
1F
100
AcDbEntity
  8
Default
100
AcDbSpline
210
0.0
220
0.0
230
1.0
 70
     8
 71
     2
 72
    22
 73
    19
 74
     0
 42
0.0000000001
 43
0.0000000001
 40
0.0
 40
0.0
 40
0.0
 40
1.0
 40
1.0
 40
2.0
 40
2.0
 40
3.0
 40
3.0
 40
4.0
 40
4.0
 40
5.0
 40
5.0
 40
6.0
 40
6.0
 40
7.0
 40
7.0
 40
8.0
 40
8.0
 40
9.0
 40
9.0
 40
9.0
 10
-9.101028
 20
45.84360856168725
 30
0.0
 10
-9.100022500000001
 20
45.85627606168725
 30
0.0
 10
-9.099017000000003
 20
45.86894356168725
 30
0.0
 10
-9.097440500000005
 20
45.88155206168725
 30
0.0
 10
-9.095864000000006
 20
45.89416056168725
 30
0.0
 10
-9.093718500000001
 20
45.90668556168725
 30
0.0
 10
-9.091572999999997
 20
45.91921056168726
 30
0.0
 10
-9.088864000000001
 20
45.93162506168726
 30
0.0
 10
-9.086155000000005
 20
45.94403956168726
 30
0.0
 10
-9.082887000000007
 20
45.95631906168725
 30
0.0
 10
-9.079619000000008
 20
45.96859856168725
 30
0.0
 10
-9.075800000000008
 20
45.98071756168725
 30
0.0
 10
-9.071981000000008
 20
45.99283656168725
 30
0.0
 10
-9.067617500000004
 20
46.00477056168725
 30
0.0
 10
-9.063254
 20
46.01670456168726
 30
0.0
 10
-9.058356000000003
 20
46.02842906168726
 30
0.0
 10
-9.053458000000006
 20
46.04015356168726
 30
0.0
 10
-9.048035000000006
 20
46.05164456168725
 30
0.0
 10
-9.042612000000005
 20
46.06313556168725
 30
0.0
  0
SPLINE
  5
141
330
1F
100
AcDbEntity
  8
Default
100
AcDbSpline
210
0.0
220
0.0
230
1.0
 70
     8
 71
     2
 72
    10
 73
     7
 74
     0
 42
0.0000000001
 43
0.0000000001
 40
0.0
 40
0.0
 40
0.0
 40
1.0
 40
1.0
 40
2.0
 40
2.0
 40
3.0
 40
3.0
 40
3.0
 10
-9.100172999999998
 20
45.76741856168726
 30
0.0
 10
-9.100889500000001
 20
45.78010656168725
 30
0.0
 10
-9.101606000000004
 20
45.79279456168725
 30
0.0
 10
-9.101749000000005
 20
45.80550106168725
 30
0.0
 10
-9.101892000000007
 20
45.81820756168725
 30
0.0
 10
-9.101460000000003
 20
45.83090806168725
 30
0.0
 10
-9.101028
 20
45.84360856168725
 30
0.0
  0
SPLINE
  5
142
330
1F
100
AcDbEntity
  8
Default
100
AcDbSpline
210
0.0
220
0.0
230
1.0
 70
     8
 71
     2
 72
    10
 73
     7
 74
     0
 42
0.0000000001
 43
0.0000000001
 40
0.0
 40
0.0
 40
0.0
 40
0.9917136824330205
 40
0.9917136824330205
 40
1.993370945946416
 40
1.993370945946416
 40
2.429715343783526
 40
2.429715343783526
 40
2.429715343783526
 10
-9.013426088098804
 20
0.0000940176717528
 30
0.0
 10
-9.008944838098806
 20
0.0004377676717535
 30
0.0
 10
-9.004463588098808
 20
0.0007815176717543
 30
0.0
 10
-9.000073088098809
 20
0.0019380176717547
 30
0.0
 10
-8.99568258809881
 20
0.0030945176717552
 30
0.0
 10
-8.9938926154245
 20
0.0039363580692001
 30
0.0
 10
-8.99210264275019
 20
0.004778198466645
 30
0.0
  0
SPLINE
  5
143
330
1F
100
AcDbEntity
  8
Default
100
AcDbSpline
210
0.0
220
0.0
230
1.0
 70
    24
 71
     2
 72
     6
 73
     3
 74
     0
 42
0.0000000001
 43
0.0000000001
 40
-1.0
 40
-1.0
 40
-1.0
 40
0.0
 40
0.0
 40
0.0
 10
-10.03835608809881
 20
0.015855017671754
 30
0.0
 10
-9.525891088098806
 20
0.0079745176717534
 30
0.0
 10
-9.013426088098804
 20
0.0000940176717528
 30
0.0
  0
SPLINE
  5
144
330
1F
100
AcDbEntity
  8
Default
100
AcDbSpline
210
0.0
220
0.0
230
1.0
 70
     8
 71
     2
 72
    22
 73
    19
 74
     0
 42
0.0000000001
 43
0.0000000001
 40
0.0
 40
0.0
 40
0.0
 40
1.001177608470404
 40
1.001177608470404
 40
2.002355216940809
 40
2.002355216940809
 40
3.003532825411213
 40
3.003532825411213
 40
4.004710433881617
 40
4.004710433881617
 40
5.005888042352022
 40
5.005888042352022
 40
6.007065650822426
 40
6.007065650822426
 40
7.008243259292831
 40
7.008243259292831
 40
8.009420867763234
 40
8.009420867763234
 40
9.0
 40
9.0
 40
9.0
 10
-10.08750908809881
 20
0.0666170176717529
 30
0.0
 10
-10.0873658380988
 20
0.063741767671754
 30
0.0
 10
-10.0872225880988
 20
0.0608665176717551
 30
0.0
 10
-10.0863615880988
 20
0.0564060176717547
 30
0.0
 10
-10.0855005880988
 20
0.0519455176717543
 30
0.0
 10
-10.08384658809881
 20
0.047714017671753
 30
0.0
 10
-10.08219258809881
 20
0.0434825176717517
 30
0.0
 10
-10.07980058809881
 20
0.0396210176717524
 30
0.0
 10
-10.07740858809881
 20
0.0357595176717531
 30
0.0
 10
-10.07435758809881
 20
0.0323945176717526
 30
0.0
 10
-10.07130658809881
 20
0.0290295176717521
 30
0.0
 10
-10.06769758809881
 20
0.0262725176717531
 30
0.0
 10
-10.06408858809881
 20
0.0235155176717541
 30
0.0
 10
-10.06004108809881
 20
0.0214575176717542
 30
0.0
 10
-10.05599358809881
 20
0.0193995176717543
 30
0.0
 10
-10.05164058809881
 20
0.0181085176717541
 30
0.0
 10
-10.0472875880988
 20
0.016817517671754
 30
0.0
 10
-10.04282183809881
 20
0.016336267671754
 30
0.0
 10
-10.03835608809881
 20
0.015855017671754
 30
0.0
  0
SPLINE
  5
145
330
1F
100
AcDbEntity
  8
Default
100
AcDbSpline
210
0.0
220
0.0
230
1.0
 70
    24
 71
     2
 72
     6
 73
     3
 74
     0
 42
0.0000000001
 43
0.0000000001
 40
0.9888426942219548
 40
0.9888426942219548
 40
0.9888426942219548
 40
1.0
 40
1.0
 40
1.0
 10
-10.08446241633267
 20
0.2660734883656097
 30
0.0
 10
-10.08598575221574
 20
0.1663452530186813
 30
0.0
 10
-10.08750908809881
 20
0.0666170176717529
 30
0.0
  0
SPLINE
  5
146
330
1F
100
AcDbEntity
  8
Default
100
AcDbSpline
210
0.0
220
0.0
230
1.0
 70
     8
 71
     3
 72
    13
 73
     9
 74
     0
 42
0.0000000001
 43
0.0000000001
 40
-6.0
 40
-6.0
 40
-6.0
 40
-6.0
 40
-4.999947347228503
 40
-3.999894694457004
 40
-2.999842041685507
 40
-1.999789388914009
 40
-0.9997367361425108
 40
0.0
 40
0.0
 40
0.0
 40
0.0
 10
-9.103522588098805
 20
0.1617965176717533
 30
0.0
 10
-9.158749752877561
 20
0.1482094648563042
 30
0.0
 10
-9.271311870382263
 20
0.1306052509965063
 30
0.0
 10
-9.441849201123242
 20
0.1222285934748903
 30
0.0
 10
-9.612143530271684
 20
0.1250995397616386
 30
0.0
 10
-9.78337244020302
 20
0.1387515644163173
 30
0.0
 10
-9.946923854881998
 20
0.1727626584081285
 30
0.0
 10
-10.06424139804493
 20
0.2101418909984183
 30
0.0
 10
-10.08446241633267
 20
0.2660734883656097
 30
0.0
  0
SPLINE
  5
147
330
1F
100
AcDbEntity
  8
Default
100
AcDbSpline
210
0.0
220
0.0
230
1.0
 70
     8
 71
     2
 72
    10
 73
     7
 74
     0
 42
0.0000000001
 43
0.0000000001
 40
0.0
 40
0.0
 40
0.0
 40
0.9917136824330205
 40
0.9917136824330205
 40
1.993370945946416
 40
1.993370945946416
 40
2.429715343783526
 40
2.429715343783526
 40
2.429715343783526
 10
9.013426088098804
 20
0.0000940176717528
 30
0.0
 10
9.008944838098806
 20
0.0004377676717535
 30
0.0
 10
9.004463588098808
 20
0.0007815176717543
 30
0.0
 10
9.000073088098809
 20
0.0019380176717547
 30
0.0
 10
8.99568258809881
 20
0.0030945176717552
 30
0.0
 10
8.9938926154245
 20
0.0039363580692001
 30
0.0
 10
8.99210264275019
 20
0.004778198466645
 30
0.0
  0
SPLINE
  5
148
330
1F
100
AcDbEntity
  8
Default
100
AcDbSpline
210
0.0
220
0.0
230
1.0
 70
    24
 71
     2
 72
     6
 73
     3
 74
     0
 42
0.0000000001
 43
0.0000000001
 40
-1.0
 40
-1.0
 40
-1.0
 40
0.0
 40
0.0
 40
0.0
 10
10.03835608809881
 20
0.015855017671754
 30
0.0
 10
9.525891088098806
 20
0.0079745176717534
 30
0.0
 10
9.013426088098804
 20
0.0000940176717528
 30
0.0
  0
SPLINE
  5
149
330
1F
100
AcDbEntity
  8
Default
100
AcDbSpline
210
0.0
220
0.0
230
1.0
 70
     8
 71
     2
 72
    22
 73
    19
 74
     0
 42
0.0000000001
 43
0.0000000001
 40
0.0
 40
0.0
 40
0.0
 40
1.001177608470404
 40
1.001177608470404
 40
2.002355216940809
 40
2.002355216940809
 40
3.003532825411213
 40
3.003532825411213
 40
4.004710433881617
 40
4.004710433881617
 40
5.005888042352022
 40
5.005888042352022
 40
6.007065650822426
 40
6.007065650822426
 40
7.008243259292831
 40
7.008243259292831
 40
8.009420867763234
 40
8.009420867763234
 40
9.0
 40
9.0
 40
9.0
 10
10.08750908809881
 20
0.0666170176717529
 30
0.0
 10
10.0873658380988
 20
0.063741767671754
 30
0.0
 10
10.0872225880988
 20
0.0608665176717551
 30
0.0
 10
10.0863615880988
 20
0.0564060176717547
 30
0.0
 10
10.0855005880988
 20
0.0519455176717543
 30
0.0
 10
10.08384658809881
 20
0.047714017671753
 30
0.0
 10
10.08219258809881
 20
0.0434825176717517
 30
0.0
 10
10.07980058809881
 20
0.0396210176717524
 30
0.0
 10
10.07740858809881
 20
0.0357595176717531
 30
0.0
 10
10.07435758809881
 20
0.0323945176717526
 30
0.0
 10
10.07130658809881
 20
0.0290295176717521
 30
0.0
 10
10.06769758809881
 20
0.0262725176717531
 30
0.0
 10
10.06408858809881
 20
0.0235155176717541
 30
0.0
 10
10.06004108809881
 20
0.0214575176717542
 30
0.0
 10
10.05599358809881
 20
0.0193995176717543
 30
0.0
 10
10.05164058809881
 20
0.0181085176717541
 30
0.0
 10
10.0472875880988
 20
0.016817517671754
 30
0.0
 10
10.04282183809881
 20
0.016336267671754
 30
0.0
 10
10.03835608809881
 20
0.015855017671754
 30
0.0
  0
SPLINE
  5
14A
330
1F
100
AcDbEntity
  8
Default
100
AcDbSpline
210
0.0
220
0.0
230
1.0
 70
    24
 71
     2
 72
     6
 73
     3
 74
     0
 42
0.0000000001
 43
0.0000000001
 40
0.9888426942219548
 40
0.9888426942219548
 40
0.9888426942219548
 40
1.0
 40
1.0
 40
1.0
 10
10.08446241633267
 20
0.2660734883656097
 30
0.0
 10
10.08598575221574
 20
0.1663452530186813
 30
0.0
 10
10.08750908809881
 20
0.0666170176717529
 30
0.0
  0
SPLINE
  5
14B
330
1F
100
AcDbEntity
  8
Default
100
AcDbSpline
210
0.0
220
0.0
230
1.0
 70
     8
 71
     3
 72
    13
 73
     9
 74
     0
 42
0.0000000001
 43
0.0000000001
 40
-6.0
 40
-6.0
 40
-6.0
 40
-6.0
 40
-4.999947347228503
 40
-3.999894694457004
 40
-2.999842041685507
 40
-1.999789388914009
 40
-0.9997367361425108
 40
0.0
 40
0.0
 40
0.0
 40
0.0
 10
9.103522588098805
 20
0.1617965176717533
 30
0.0
 10
9.158749752877561
 20
0.1482094648563042
 30
0.0
 10
9.271311870382263
 20
0.1306052509965063
 30
0.0
 10
9.441849201123242
 20
0.1222285934748903
 30
0.0
 10
9.612143530271684
 20
0.1250995397616386
 30
0.0
 10
9.78337244020302
 20
0.1387515644163173
 30
0.0
 10
9.946923854881998
 20
0.1727626584081285
 30
0.0
 10
10.06424139804493
 20
0.2101418909984183
 30
0.0
 10
10.08446241633267
 20
0.2660734883656097
 30
0.0
  0
ENDSEC
  0
SECTION
  2
OBJECTS
  0
DICTIONARY
  5
C
330
0
100
AcDbDictionary
281
     1
  3
ACAD_GROUP
350
D
  3
ACAD_LAYOUT
350
1A
  3
ACAD_MLEADERSTYLE
350
14D
  3
ACAD_MLINESTYLE
350
17
  3
ACAD_PLOTSETTINGS
350
19
  3
ACAD_PLOTSTYLENAME
350
E
  3
ACAD_TABLESTYLE
350
14C
  3
ACAD_VISUALSTYLE
350
2A
  0
DICTIONARY
  5
D
102
{ACAD_REACTORS
330
C
102
}
330
C
100
AcDbDictionary
281
     1
  0
DICTIONARY
  5
1A
102
{ACAD_REACTORS
330
C
102
}
330
C
100
AcDbDictionary
281
     1
  3
Layout1
350
1E
  3
Layout2
350
26
  3
Model
350
22
  0
DICTIONARY
  5
14D
102
{ACAD_REACTORS
330
C
102
}
330
C
100
AcDbDictionary
281
     1
  0
DICTIONARY
  5
17
102
{ACAD_REACTORS
330
C
102
}
330
C
100
AcDbDictionary
281
     1
  3
Standard
350
18
  0
DICTIONARY
  5
19
102
{ACAD_REACTORS
330
C
102
}
330
C
100
AcDbDictionary
281
     1
  0
ACDBDICTIONARYWDFLT
  5
E
102
{ACAD_REACTORS
330
C
102
}
330
C
100
AcDbDictionary
281
     1
  3
Normal
350
F
100
AcDbDictionaryWithDefault
340
F
  0
DICTIONARY
  5
14C
102
{ACAD_REACTORS
330
C
102
}
330
C
100
AcDbDictionary
281
     1
  0
DICTIONARY
  5
2A
102
{ACAD_REACTORS
330
C
102
}
330
C
100
AcDbDictionary
281
     1
  3
2dWireframe
350
2F
  3
3D Hidden
350
31
  3
3dWireframe
350
30
  3
Basic
350
32
  3
Brighten
350
36
  3
ColorChange
350
3A
  3
Conceptual
350
34
  3
Dim
350
35
  3
Facepattern
350
39
  3
Flat
350
2B
  3
FlatWithEdges
350
2C
  3
Gouraud
350
2D
  3
GouraudWithEdges
350
2E
  3
Linepattern
350
38
  3
Realistic
350
33
  3
Thicken
350
37
  0
LAYOUT
  5
1E
102
{ACAD_REACTORS
330
1A
102
}
330
1A
100
AcDbPlotSettings
  1

  2
none_device
  4

  6

 40
0.0
 41
0.0
 42
0.0
 43
0.0
 44
0.0
 45
0.0
 46
0.0
 47
0.0
 48
0.0
 49
0.0
140
0.0
141
0.0
142
1.0
143
1.0
 70
   688
 72
     0
 73
     0
 74
     5
  7

 75
    16
 76
     0
 77
     2
 78
   300
147
1.0
148
0.0
149
0.0
100
AcDbLayout
  1
Layout1
 70
     1
 71
     1
 10
0.0
 20
0.0
 11
12.0
 21
9.0
 12
0.0
 22
0.0
 32
0.0
 14
1.000000000000000E+20
 24
1.000000000000000E+20
 34
1.000000000000000E+20
 15
-1.000000000000000E+20
 25
-1.000000000000000E+20
 35
-1.000000000000000E+20
146
0.0
 13
0.0
 23
0.0
 33
0.0
 16
1.0
 26
0.0
 36
0.0
 17
0.0
 27
1.0
 37
0.0
 76
     0
330
1B
  0
LAYOUT
  5
26
102
{ACAD_REACTORS
330
1A
102
}
330
1A
100
AcDbPlotSettings
  1

  2
none_device
  4

  6

 40
0.0
 41
0.0
 42
0.0
 43
0.0
 44
0.0
 45
0.0
 46
0.0
 47
0.0
 48
0.0
 49
0.0
140
0.0
141
0.0
142
1.0
143
1.0
 70
   688
 72
     0
 73
     0
 74
     5
  7

 75
    16
 76
     0
 77
     2
 78
   300
147
1.0
148
0.0
149
0.0
100
AcDbLayout
  1
Layout2
 70
     1
 71
     2
 10
0.0
 20
0.0
 11
0.0
 21
0.0
 12
0.0
 22
0.0
 32
0.0
 14
0.0
 24
0.0
 34
0.0
 15
0.0
 25
0.0
 35
0.0
146
0.0
 13
0.0
 23
0.0
 33
0.0
 16
1.0
 26
0.0
 36
0.0
 17
0.0
 27
1.0
 37
0.0
 76
     0
330
23
  0
LAYOUT
  5
22
102
{ACAD_REACTORS
330
1A
102
}
330
1A
100
AcDbPlotSettings
  1

  2
none_device
  4

  6

 40
0.0
 41
0.0
 42
0.0
 43
0.0
 44
0.0
 45
0.0
 46
0.0
 47
0.0
 48
0.0
 49
0.0
140
0.0
141
0.0
142
1.0
143
1.0
 70
  1712
 72
     0
 73
     0
 74
     0
  7

 75
     0
 76
     0
 77
     2
 78
   300
147
1.0
148
0.0
149
0.0
100
AcDbLayout
  1
Model
 70
     1
 71
     0
 10
0.0
 20
0.0
 11
12.0
 21
9.0
 12
0.0
 22
0.0
 32
0.0
 14
-10.08750908809881
 24
-0.0113540416246758
 34
0.0
 15
49.65849416984513
 25
66.47486563784624
 35
0.0
146
0.0
 13
0.0
 23
0.0
 33
0.0
 16
1.0
 26
0.0
 36
0.0
 17
0.0
 27
1.0
 37
0.0
 76
     0
330
1F
331
29
  0
MLINESTYLE
  5
18
102
{ACAD_REACTORS
330
17
102
}
330
17
100
AcDbMlineStyle
  2
Standard
 70
     0
  3

 62
   256
 51
90.0
 52
90.0
 71
     2
 49
0.5
 62
   256
  6
BYLAYER
 49
-0.5
 62
   256
  6
BYLAYER
  0
ACDBPLACEHOLDER
  5
F
102
{ACAD_REACTORS
330
E
102
}
330
E
  0
VISUALSTYLE
  5
2F
102
{ACAD_REACTORS
330
2A
102
}
330
2A
100
AcDbVisualStyle
  2
2dWireframe
 70
     4
 71
     0
 72
     2
 73
     0
 90
        0
 40
-0.6
 41
-30.0
 62
     5
 63
     7
421
 16777215
 74
     1
 91
        4
 64
     7
 65
   257
 75
     1
175
     1
 42
1.0
 92
        0
 66
   257
 43
1.0
 76
     1
 77
     6
 78
     2
 67
     7
 79
     5
170
     0
171
     0
290
     0
174
     0
 93
        1
 44
0.0
173
     0
291
     0
 45
0.0
1001
ACAD
1000
AcDbSavedByObjectVersion
1070
     0
  0
VISUALSTYLE
  5
31
102
{ACAD_REACTORS
330
2A
102
}
330
2A
100
AcDbVisualStyle
  2
3D Hidden
 70
     6
 71
     1
 72
     2
 73
     2
 90
        0
 40
-0.6
 41
-30.0
 62
     5
 63
     7
421
 16777215
 74
     2
 91
        2
 64
     7
 65
   257
 75
     2
175
     1
 42
40.0
 92
        0
 66
   257
 43
1.0
 76
     1
 77
     6
 78
     2
 67
     7
 79
     3
170
     0
171
     0
290
     0
174
     0
 93
        1
 44
0.0
173
     0
291
     0
 45
0.0
1001
ACAD
1000
AcDbSavedByObjectVersion
1070
     0
  0
VISUALSTYLE
  5
30
102
{ACAD_REACTORS
330
2A
102
}
330
2A
100
AcDbVisualStyle
  2
3dWireframe
 70
     5
 71
     0
 72
     2
 73
     0
 90
        0
 40
-0.6
 41
-30.0
 62
     5
 63
     7
421
 16777215
 74
     1
 91
        4
 64
     7
 65
   257
 75
     1
175
     1
 42
1.0
 92
        0
 66
   257
 43
1.0
 76
     1
 77
     6
 78
     2
 67
     7
 79
     5
170
     0
171
     0
290
     0
174
     0
 93
        1
 44
0.0
173
     0
291
     0
 45
0.0
1001
ACAD
1000
AcDbSavedByObjectVersion
1070
     0
  0
VISUALSTYLE
  5
32
102
{ACAD_REACTORS
330
2A
102
}
330
2A
100
AcDbVisualStyle
  2
Basic
 70
     7
 71
     1
 72
     0
 73
     1
 90
        0
 40
-0.6
 41
-30.0
 62
     5
 63
     7
421
 16777215
 74
     0
 91
        4
 64
     7
 65
   257
 75
     1
175
     1
 42
1.0
 92
        8
 66
     7
 43
1.0
 76
     1
 77
     6
 78
     2
 67
     7
 79
     5
170
     0
171
     0
290
     0
174
     0
 93
        1
 44
0.0
173
     0
291
     1
 45
0.0
1001
ACAD
1000
AcDbSavedByObjectVersion
1070
     0
  0
VISUALSTYLE
  5
36
102
{ACAD_REACTORS
330
2A
102
}
330
2A
100
AcDbVisualStyle
  2
Brighten
 70
    12
 71
     2
 72
     2
 73
     0
 90
        0
 40
-0.6
 41
-30.0
 62
     5
 63
     7
421
 16777215
 74
     1
 91
        4
 64
     7
 65
   257
 75
     1
175
     1
 42
1.0
 92
        8
 66
     7
 43
1.0
 76
     1
 77
     6
 78
     2
 67
     7
 79
     5
170
     0
171
     0
290
     0
174
     0
 93
        1
 44
50.0
173
     0
291
     1
 45
0.0
1001
ACAD
1000
AcDbSavedByObjectVersion
1070
     0
  0
VISUALSTYLE
  5
3A
102
{ACAD_REACTORS
330
2A
102
}
330
2A
100
AcDbVisualStyle
  2
ColorChange
 70
    16
 71
     2
 72
     2
 73
     3
 90
        0
 40
-0.6
 41
-30.0
 62
     5
 63
     8
421
  8421504
 74
     1
 91
        4
 64
     7
 65
   257
 75
     1
175
     1
 42
1.0
 92
        8
 66
     8
424
  8421504
 43
1.0
 76
     1
 77
     6
 78
     2
 67
     7
 79
     5
170
     0
171
     0
290
     0
174
     0
 93
        1
 44
0.0
173
     0
291
     1
 45
0.0
1001
ACAD
1000
AcDbSavedByObjectVersion
1070
     0
  0
VISUALSTYLE
  5
34
102
{ACAD_REACTORS
330
2A
102
}
330
2A
100
AcDbVisualStyle
  2
Conceptual
 70
     9
 71
     3
 72
     2
 73
     0
 90
        0
 40
-0.6
 41
-30.0
 62
     5
 63
     7
421
 16777215
 74
     2
 91
        2
 64
     7
 65
   257
 75
     1
175
     1
 42
40.0
 92
        8
 66
     7
 43
1.0
 76
     1
 77
     6
 78
     2
 67
     7
 79
     3
170
     0
171
     0
290
     0
174
     0
 93
        1
 44
0.0
173
     0
291
     0
 45
0.0
1001
ACAD
1000
AcDbSavedByObjectVersion
1070
     0
  0
VISUALSTYLE
  5
35
102
{ACAD_REACTORS
330
2A
102
}
330
2A
100
AcDbVisualStyle
  2
Dim
 70
    11
 71
     2
 72
     2
 73
     0
 90
        0
 40
-0.6
 41
-30.0
 62
     5
 63
     7
421
 16777215
 74
     1
 91
        4
 64
     7
 65
   257
 75
     1
175
     1
 42
1.0
 92
        8
 66
     7
 43
1.0
 76
     1
 77
     6
 78
     2
 67
     7
 79
     5
170
     0
171
     0
290
     0
174
     0
 93
        1
 44
-50.0
173
     0
291
     1
 45
0.0
1001
ACAD
1000
AcDbSavedByObjectVersion
1070
     0
  0
VISUALSTYLE
  5
39
102
{ACAD_REACTORS
330
2A
102
}
330
2A
100
AcDbVisualStyle
  2
Facepattern
 70
    15
 71
     2
 72
     2
 73
     0
 90
        0
 40
-0.6
 41
-30.0
 62
     5
 63
     7
421
 16777215
 74
     1
 91
        4
 64
     7
 65
   257
 75
     1
175
     1
 42
1.0
 92
        8
 66
     7
 43
1.0
 76
     1
 77
     6
 78
     2
 67
     7
 79
     5
170
     0
171
     0
290
     0
174
     0
 93
        1
 44
0.0
173
     0
291
     1
 45
0.0
1001
ACAD
1000
AcDbSavedByObjectVersion
1070
     0
  0
VISUALSTYLE
  5
2B
102
{ACAD_REACTORS
330
2A
102
}
330
2A
100
AcDbVisualStyle
  2
Flat
 70
     0
 71
     2
 72
     1
 73
     1
 90
        2
 40
-0.6
 41
30.0
 62
     5
 63
     7
421
 16777215
 74
     0
 91
        4
 64
     7
 65
   257
 75
     1
175
     1
 42
1.0
 92
        8
 66
     7
 43
1.0
 76
     1
 77
     6
 78
     2
 67
     7
 79
     5
170
     0
171
     0
290
     0
174
     0
 93
       13
 44
0.0
173
     0
291
     1
 45
0.0
1001
ACAD
1000
AcDbSavedByObjectVersion
1070
     0
  0
VISUALSTYLE
  5
2C
102
{ACAD_REACTORS
330
2A
102
}
330
2A
100
AcDbVisualStyle
  2
FlatWithEdges
 70
     1
 71
     2
 72
     1
 73
     1
 90
        2
 40
-0.6
 41
30.0
 62
     5
 63
     7
421
 16777215
 74
     1
 91
        4
 64
     7
 65
   257
 75
     1
175
     1
 42
1.0
 92
        0
 66
   257
 43
1.0
 76
     1
 77
     6
 78
     2
 67
     7
 79
     5
170
     0
171
     0
290
     0
174
     0
 93
       13
 44
0.0
173
     0
291
     1
 45
0.0
1001
ACAD
1000
AcDbSavedByObjectVersion
1070
     0
  0
VISUALSTYLE
  5
2D
102
{ACAD_REACTORS
330
2A
102
}
330
2A
100
AcDbVisualStyle
  2
Gouraud
 70
     2
 71
     2
 72
     2
 73
     1
 90
        2
 40
-0.6
 41
30.0
 62
     5
 63
     7
421
 16777215
 74
     0
 91
        4
 64
     7
 65
   257
 75
     1
175
     1
 42
1.0
 92
        0
 66
     7
 43
1.0
 76
     1
 77
     6
 78
     2
 67
     7
 79
     5
170
     0
171
     0
290
     0
174
     0
 93
       13
 44
0.0
173
     0
291
     1
 45
0.0
1001
ACAD
1000
AcDbSavedByObjectVersion
1070
     0
  0
VISUALSTYLE
  5
2E
102
{ACAD_REACTORS
330
2A
102
}
330
2A
100
AcDbVisualStyle
  2
GouraudWithEdges
 70
     3
 71
     2
 72
     2
 73
     1
 90
        2
 40
-0.6
 41
30.0
 62
     5
 63
     7
421
 16777215
 74
     1
 91
        4
 64
     7
 65
   257
 75
     1
175
     1
 42
1.0
 92
        0
 66
   257
 43
1.0
 76
     1
 77
     6
 78
     2
 67
     7
 79
     5
170
     0
171
     0
290
     0
174
     0
 93
       13
 44
0.0
173
     0
291
     1
 45
0.0
1001
ACAD
1000
AcDbSavedByObjectVersion
1070
     0
  0
VISUALSTYLE
  5
38
102
{ACAD_REACTORS
330
2A
102
}
330
2A
100
AcDbVisualStyle
  2
Linepattern
 70
    14
 71
     2
 72
     2
 73
     0
 90
        0
 40
-0.6
 41
-30.0
 62
     5
 63
     7
421
 16777215
 74
     1
 91
        4
 64
     7
 65
   257
 75
     7
175
     7
 42
1.0
 92
        8
 66
     7
 43
1.0
 76
     1
 77
     6
 78
     2
 67
     7
 79
     5
170
     0
171
     0
290
     0
174
     0
 93
        1
 44
0.0
173
     0
291
     1
 45
0.0
1001
ACAD
1000
AcDbSavedByObjectVersion
1070
     0
  0
VISUALSTYLE
  5
33
102
{ACAD_REACTORS
330
2A
102
}
330
2A
100
AcDbVisualStyle
  2
Realistic
 70
     8
 71
     2
 72
     2
 73
     0
 90
        0
 40
-0.6
 41
-30.0
 62
     5
 63
     7
421
 16777215
 74
     1
 91
        0
 64
     7
 65
   257
 75
     1
175
     1
 42
1.0
 92
        8
 66
     8
424
  7895160
 43
1.0
 76
     1
 77
     6
 78
     2
 67
     7
 79
     5
170
     0
171
     0
290
     0
174
     0
 93
       13
 44
0.0
173
     0
291
     0
 45
0.0
1001
ACAD
1000
AcDbSavedByObjectVersion
1070
     0
  0
VISUALSTYLE
  5
37
102
{ACAD_REACTORS
330
2A
102
}
330
2A
100
AcDbVisualStyle
  2
Thicken
 70
    13
 71
     2
 72
     2
 73
     0
 90
        0
 40
-0.6
 41
-30.0
 62
     5
 63
     7
421
 16777215
 74
     1
 91
        4
 64
     7
 65
   257
 75
     1
175
     1
 42
1.0
 92
       12
 66
     7
 43
1.0
 76
     1
 77
     6
 78
     2
 67
     7
 79
     5
170
     0
171
     0
290
     0
174
     0
 93
        1
 44
0.0
173
     0
291
     1
 45
0.0
1001
ACAD
1000
AcDbSavedByObjectVersion
1070
     0
  0
ENDSEC
  0
EOF
