  0
SECTION
  2
HEADER
  9
$ACADVER
  1
AC1018
  9
$ACADMAINTVER
 70
     0
  9
$DWGCODEPAGE
  3
ANSI_1252
  9
$INSBASE
 10
0.0
 20
0.0
 30
0.0
  9
$EXTMIN
 10
-23.90441587486743
 20
0.000000000001469
 30
0.0
  9
$EXTMAX
 10
23.90441587486564
 20
86.77497601536842
 30
0.0
  9
$LIMMIN
 10
0.0
 20
0.0
  9
$LIMMAX
 10
12.0
 20
9.0
  9
$ORTHOMODE
 70
     0
  9
$REGENMODE
 70
     1
  9
$FILLMODE
 70
     1
  9
$QTEXTMODE
 70
     0
  9
$MIRRTEXT
 70
     1
  9
$LTSCALE
 40
0.0393700787401575
  9
$ATTMODE
 70
     1
  9
$TEXTSIZE
 40
0.2
  9
$TRACEWID
 40
0.05
  9
$TEXTSTYLE
  7
Standard
  9
$CLAYER
  8
DEFAULT
  9
$CELTYPE
  6
ByLayer
  9
$CECOLOR
 62
   256
  9
$CELTSCALE
 40
1.0
  9
$DISPSILH
 70
     0
  9
$DIMSCALE
 40
1.0
  9
$DIMASZ
 40
0.18
  9
$DIMEXO
 40
0.0625
  9
$DIMDLI
 40
0.38
  9
$DIMRND
 40
0.0
  9
$DIMDLE
 40
0.0
  9
$DIMEXE
 40
0.18
  9
$DIMTP
 40
0.0
  9
$DIMTM
 40
0.0
  9
$DIMTXT
 40
0.18
  9
$DIMCEN
 40
0.09
  9
$DIMTSZ
 40
0.0
  9
$DIMTOL
 70
     0
  9
$DIMLIM
 70
     0
  9
$DIMTIH
 70
     1
  9
$DIMTOH
 70
     1
  9
$DIMSE1
 70
     0
  9
$DIMSE2
 70
     0
  9
$DIMTAD
 70
     0
  9
$DIMZIN
 70
     0
  9
$DIMBLK
  1

  9
$DIMASO
 70
     1
  9
$DIMSHO
 70
     1
  9
$DIMPOST
  1

  9
$DIMAPOST
  1

  9
$DIMALT
 70
     0
  9
$DIMALTD
 70
     2
  9
$DIMALTF
 40
25.4
  9
$DIMLFAC
 40
1.0
  9
$DIMTOFL
 70
     0
  9
$DIMTVP
 40
0.0
  9
$DIMTIX
 70
     0
  9
$DIMSOXD
 70
     0
  9
$DIMSAH
 70
     0
  9
$DIMBLK1
  1

  9
$DIMBLK2
  1

  9
$DIMSTYLE
  2
Standard
  9
$DIMCLRD
 70
     0
  9
$DIMCLRE
 70
     0
  9
$DIMCLRT
 70
     0
  9
$DIMTFAC
 40
1.0
  9
$DIMGAP
 40
0.09
  9
$DIMJUST
 70
     0
  9
$DIMSD1
 70
     0
  9
$DIMSD2
 70
     0
  9
$DIMTOLJ
 70
     1
  9
$DIMTZIN
 70
     0
  9
$DIMALTZ
 70
     0
  9
$DIMALTTZ
 70
     0
  9
$DIMUPT
 70
     0
  9
$DIMDEC
 70
     4
  9
$DIMTDEC
 70
     4
  9
$DIMALTU
 70
     2
  9
$DIMALTTD
 70
     2
  9
$DIMTXSTY
  7
Standard
  9
$DIMAUNIT
 70
     0
  9
$DIMADEC
 70
     0
  9
$DIMALTRND
 40
0.0
  9
$DIMAZIN
 70
     0
  9
$DIMDSEP
 70
    46
  9
$DIMATFIT
 70
     3
  9
$DIMFRAC
 70
     0
  9
$DIMLDRBLK
  1

  9
$DIMLUNIT
 70
     2
  9
$DIMLWD
 70
    -2
  9
$DIMLWE
 70
    -2
  9
$DIMTMOVE
 70
     2
  9
$LUNITS
 70
     2
  9
$LUPREC
 70
     3
  9
$SKETCHINC
 40
0.1
  9
$FILLETRAD
 40
0.5
  9
$AUNITS
 70
     0
  9
$AUPREC
 70
     0
  9
$MENU
  1
.
  9
$ELEVATION
 40
0.0
  9
$PELEVATION
 40
0.0
  9
$THICKNESS
 40
0.0
  9
$LIMCHECK
 70
     0
  9
$CHAMFERA
 40
0.5
  9
$CHAMFERB
 40
0.5
  9
$CHAMFERC
 40
1.0
  9
$CHAMFERD
 40
0.0
  9
$SKPOLY
 70
     0
  9
$TDCREATE
 40
2456041.511450081
  9
$TDUCREATE
 40
2456041.678116748
  9
$TDUPDATE
 40
2456041.511450093
  9
$TDUUPDATE
 40
2456041.678116759
  9
$TDINDWG
 40
0.0000000116
  9
$TDUSRTIMER
 40
0.0000000116
  9
$USRTIMER
 70
     1
  9
$ANGBASE
 50
0.0
  9
$ANGDIR
 70
     0
  9
$PDMODE
 70
     0
  9
$PDSIZE
 40
0.0
  9
$PLINEWID
 40
0.0
  9
$SPLFRAME
 70
     0
  9
$SPLINETYPE
 70
     6
  9
$SPLINESEGS
 70
     8
  9
$HANDSEED
  5
B4
  9
$SURFTAB1
 70
     6
  9
$SURFTAB2
 70
     6
  9
$SURFTYPE
 70
     6
  9
$SURFU
 70
     6
  9
$SURFV
 70
     6
  9
$UCSBASE
  2

  9
$UCSNAME
  2

  9
$UCSORG
 10
0.0
 20
0.0
 30
0.0
  9
$UCSXDIR
 10
1.0
 20
0.0
 30
0.0
  9
$UCSYDIR
 10
0.0
 20
1.0
 30
0.0
  9
$UCSORTHOREF
  2

  9
$UCSORTHOVIEW
 70
     0
  9
$UCSORGTOP
 10
0.0
 20
0.0
 30
0.0
  9
$UCSORGBOTTOM
 10
0.0
 20
0.0
 30
0.0
  9
$UCSORGLEFT
 10
0.0
 20
0.0
 30
0.0
  9
$UCSORGRIGHT
 10
0.0
 20
0.0
 30
0.0
  9
$UCSORGFRONT
 10
0.0
 20
0.0
 30
0.0
  9
$UCSORGBACK
 10
0.0
 20
0.0
 30
0.0
  9
$PUCSBASE
  2

  9
$PUCSNAME
  2

  9
$PUCSORG
 10
0.0
 20
0.0
 30
0.0
  9
$PUCSXDIR
 10
1.0
 20
0.0
 30
0.0
  9
$PUCSYDIR
 10
0.0
 20
1.0
 30
0.0
  9
$PUCSORTHOREF
  2

  9
$PUCSORTHOVIEW
 70
     0
  9
$PUCSORGTOP
 10
0.0
 20
0.0
 30
0.0
  9
$PUCSORGBOTTOM
 10
0.0
 20
0.0
 30
0.0
  9
$PUCSORGLEFT
 10
0.0
 20
0.0
 30
0.0
  9
$PUCSORGRIGHT
 10
0.0
 20
0.0
 30
0.0
  9
$PUCSORGFRONT
 10
0.0
 20
0.0
 30
0.0
  9
$PUCSORGBACK
 10
0.0
 20
0.0
 30
0.0
  9
$USERI1
 70
     0
  9
$USERI2
 70
     0
  9
$USERI3
 70
     0
  9
$USERI4
 70
     0
  9
$USERI5
 70
     0
  9
$USERR1
 40
0.0
  9
$USERR2
 40
0.0
  9
$USERR3
 40
0.0
  9
$USERR4
 40
0.0
  9
$USERR5
 40
0.0
  9
$WORLDVIEW
 70
     1
  9
$SHADEDGE
 70
     3
  9
$SHADEDIF
 70
    70
  9
$TILEMODE
 70
     1
  9
$MAXACTVP
 70
    64
  9
$PINSBASE
 10
0.0
 20
0.0
 30
0.0
  9
$PLIMCHECK
 70
     0
  9
$PEXTMIN
 10
1.000000000000000E+20
 20
1.000000000000000E+20
 30
1.000000000000000E+20
  9
$PEXTMAX
 10
-1.000000000000000E+20
 20
-1.000000000000000E+20
 30
-1.000000000000000E+20
  9
$PLIMMIN
 10
0.0
 20
0.0
  9
$PLIMMAX
 10
12.0
 20
9.0
  9
$UNITMODE
 70
     0
  9
$VISRETAIN
 70
     1
  9
$PLINEGEN
 70
     0
  9
$PSLTSCALE
 70
     1
  9
$TREEDEPTH
 70
  3020
  9
$CMLSTYLE
  2
Standard
  9
$CMLJUST
 70
     0
  9
$CMLSCALE
 40
1.0
  9
$PROXYGRAPHICS
 70
     1
  9
$MEASUREMENT
 70
     0
  9
$CELWEIGHT
370
    -1
  9
$ENDCAPS
280
     0
  9
$JOINSTYLE
280
     0
  9
$LWDISPLAY
290
     0
  9
$INSUNITS
 70
     1
  9
$HYPERLINKBASE
  1

  9
$STYLESHEET
  1

  9
$XEDIT
290
     1
  9
$CEPSNTYPE
380
     0
  9
$PSTYLEMODE
290
     1
  9
$FINGERPRINTGUID
  2
{39CCCB9F-044D-4D55-B912-4CCB7DA8079D}
  9
$VERSIONGUID
  2
{FAEB1C32-E019-11D5-929B-00C0DF256EC4}
  9
$EXTNAMES
290
     1
  9
$PSVPSCALE
 40
0.0
  9
$OLESTARTUP
290
     0
  9
$SORTENTS
280
   127
  9
$INDEXCTL
280
     0
  9
$HIDETEXT
280
     1
  9
$XCLIPFRAME
290
     0
  9
$HALOGAP
280
     0
  9
$OBSCOLOR
 70
   257
  9
$OBSLTYPE
280
     0
  9
$INTERSECTIONDISPLAY
280
     0
  9
$INTERSECTIONCOLOR
 70
   257
  9
$DIMASSOC
280
     2
  9
$PROJECTNAME
  1

  0
ENDSEC
  0
SECTION
  2
CLASSES
  0
CLASS
  1
ACDBDICTIONARYWDFLT
  2
AcDbDictionaryWithDefault
  3
ObjectDBX Classes
 90
        0
 91
        4
280
     0
281
     0
  0
CLASS
  1
VISUALSTYLE
  2
AcDbVisualStyle
  3
ObjectDBX Classes
 90
     4095
 91
        4
280
     0
281
     0
  0
ENDSEC
  0
SECTION
  2
TABLES
  0
TABLE
  2
VPORT
  5
8
330
0
100
AcDbSymbolTable
 70
     1
  0
VPORT
  5
29
330
8
100
AcDbSymbolTableRecord
100
AcDbViewportTableRecord
  2
*Active
 70
     0
 10
0.0
 20
0.0
 11
1.0
 21
1.0
 12
-0.0000000000008953
 22
43.38748800768494
 13
0.0
 23
0.0
 14
0.5
 24
0.5
 15
0.5
 25
0.5
 16
0.0
 26
0.0
 36
1.0
 17
0.0
 27
0.0
 37
0.0
 40
88.5104755356743
 41
0.5509518290303718
 42
50.0
 43
0.0
 44
0.0
 50
0.0
 51
0.0
 71
     0
 72
   100
 73
     1
 74
     3
 75
     0
 76
     0
 77
     0
 78
     0
281
     0
 65
     1
110
0.0
120
0.0
130
0.0
111
1.0
121
0.0
131
0.0
112
0.0
122
1.0
132
0.0
 79
     0
146
0.0
  0
ENDTAB
  0
TABLE
  2
LTYPE
  5
5
330
0
100
AcDbSymbolTable
 70
     1
  0
LTYPE
  5
14
330
5
100
AcDbSymbolTableRecord
100
AcDbLinetypeTableRecord
  2
ByBlock
 70
     0
  3

 72
    65
 73
     0
 40
0.0
  0
LTYPE
  5
15
330
5
100
AcDbSymbolTableRecord
100
AcDbLinetypeTableRecord
  2
ByLayer
 70
     0
  3

 72
    65
 73
     0
 40
0.0
  0
LTYPE
  5
16
330
5
100
AcDbSymbolTableRecord
100
AcDbLinetypeTableRecord
  2
Continuous
 70
     0
  3
Solid line
 72
    65
 73
     0
 40
0.0
  0
ENDTAB
  0
TABLE
  2
LAYER
  5
2
330
0
100
AcDbSymbolTable
 70
     3
  0
LAYER
  5
10
330
2
100
AcDbSymbolTableRecord
100
AcDbLayerTableRecord
  2
0
 70
     0
 62
     7
  6
Continuous
370
    -3
390
F
  0
LAYER
  5
3B
330
2
100
AcDbSymbolTableRecord
100
AcDbLayerTableRecord
  2
MAKE2D VISIBLE LINES
 70
     0
 62
     7
  6
Continuous
370
    -3
390
F
  0
LAYER
  5
4C
330
2
100
AcDbSymbolTableRecord
100
AcDbLayerTableRecord
  2
DEFAULT
 70
     0
 62
     7
  6
Continuous
370
    -3
390
F
  0
ENDTAB
  0
TABLE
  2
STYLE
  5
3
330
0
100
AcDbSymbolTable
 70
     1
  0
STYLE
  5
11
330
3
100
AcDbSymbolTableRecord
100
AcDbTextStyleTableRecord
  2
Standard
 70
     0
 40
0.0
 41
1.0
 50
0.0
 71
     0
 42
0.2
  3
txt
  4

  0
ENDTAB
  0
TABLE
  2
VIEW
  5
6
330
0
100
AcDbSymbolTable
 70
     0
  0
ENDTAB
  0
TABLE
  2
UCS
  5
7
330
0
100
AcDbSymbolTable
 70
     0
  0
ENDTAB
  0
TABLE
  2
APPID
  5
9
330
0
100
AcDbSymbolTable
 70
     1
  0
APPID
  5
12
330
9
100
AcDbSymbolTableRecord
100
AcDbRegAppTableRecord
  2
ACAD
 70
     0
  0
ENDTAB
  0
TABLE
  2
DIMSTYLE
  5
A
330
0
100
AcDbSymbolTable
 70
     1
100
AcDbDimStyleTable
  0
DIMSTYLE
105
27
330
A
100
AcDbSymbolTableRecord
100
AcDbDimStyleTableRecord
  2
Standard
 70
     0
340
11
  0
ENDTAB
  0
TABLE
  2
BLOCK_RECORD
  5
1
330
0
100
AcDbSymbolTable
 70
     1
  0
BLOCK_RECORD
  5
1F
330
1
100
AcDbSymbolTableRecord
100
AcDbBlockTableRecord
  2
*Model_Space
340
22
  0
BLOCK_RECORD
  5
1B
330
1
100
AcDbSymbolTableRecord
100
AcDbBlockTableRecord
  2
*Paper_Space
340
1E
  0
BLOCK_RECORD
  5
23
330
1
100
AcDbSymbolTableRecord
100
AcDbBlockTableRecord
  2
*Paper_Space0
340
26
  0
ENDTAB
  0
ENDSEC
  0
SECTION
  2
BLOCKS
  0
BLOCK
  5
20
330
1F
100
AcDbEntity
  8
0
100
AcDbBlockBegin
  2
*Model_Space
 70
     0
 10
0.0
 20
0.0
 30
0.0
  3
*Model_Space
  1

  0
ENDBLK
  5
21
330
1F
100
AcDbEntity
  8
0
100
AcDbBlockEnd
  0
BLOCK
  5
1C
330
1B
100
AcDbEntity
 67
     1
  8
0
100
AcDbBlockBegin
  2
*Paper_Space
 70
     0
 10
0.0
 20
0.0
 30
0.0
  3
*Paper_Space
  1

  0
ENDBLK
  5
1D
330
1B
100
AcDbEntity
 67
     1
  8
0
100
AcDbBlockEnd
  0
BLOCK
  5
24
330
23
100
AcDbEntity
  8
0
100
AcDbBlockBegin
  2
*Paper_Space0
 70
     0
 10
0.0
 20
0.0
 30
0.0
  3
*Paper_Space0
  1

  0
ENDBLK
  5
25
330
23
100
AcDbEntity
  8
0
100
AcDbBlockEnd
  0
ENDSEC
  0
SECTION
  2
ENTITIES
  0
SPLINE
  5
3C
330
1F
100
AcDbEntity
  8
MAKE2D VISIBLE LINES
100
AcDbSpline
210
0.0
220
0.0
230
1.0
 70
    12
 71
     2
 72
     6
 73
     3
 74
     0
 42
0.0000000001
 43
0.0000000001
 40
0.0
 40
0.0
 40
0.0
 40
32.24311766354289
 40
32.24311766354289
 40
32.24311766354289
 10
23.60219107775176
 20
63.70389359389185
 30
0.0
 41
0.9999999999999998
 10
13.24013490559477
 20
76.11069504609654
 30
0.0
 41
0.9959918060987395
 10
0.8333334533893133
 20
86.47275121825442
 30
0.0
 41
1.0
  0
SPLINE
  5
3D
330
1F
100
AcDbEntity
  8
MAKE2D VISIBLE LINES
100
AcDbSpline
210
0.0
220
0.0
230
1.0
 70
    12
 71
     2
 72
     6
 73
     3
 74
     0
 42
0.0000000001
 43
0.0000000001
 40
0.0
 40
0.0
 40
0.0
 40
1.809168263957058
 40
1.809168263957058
 40
1.809168263957058
 10
0.8333334533893133
 20
86.47275121825442
 30
0.0
 41
1.0
 10
-0.0000000000019656
 20
87.168744306169
 30
0.0
 41
0.7675193868450457
 10
-0.8333334533917078
 20
86.47275121825388
 30
0.0
 41
1.0
  0
SPLINE
  5
3E
330
1F
100
AcDbEntity
  8
MAKE2D VISIBLE LINES
100
AcDbSpline
210
0.0
220
0.0
230
1.0
 70
    12
 71
     2
 72
     6
 73
     3
 74
     0
 42
0.0000000001
 43
0.0000000001
 40
0.0
 40
0.0
 40
0.0
 40
32.24311766354289
 40
32.24311766354289
 40
32.24311766354289
 10
-0.8333334533917078
 20
86.47275121825388
 30
0.0
 41
1.0
 10
-13.24013490559701
 20
76.11069504609611
 30
0.0
 41
0.9959918060987396
 10
-23.60219107775411
 20
63.70389359389117
 30
0.0
 41
1.0
  0
SPLINE
  5
3F
330
1F
100
AcDbEntity
  8
MAKE2D VISIBLE LINES
100
AcDbSpline
210
0.0
220
0.0
230
1.0
 70
    12
 71
     2
 72
     6
 73
     3
 74
     0
 42
0.0000000001
 43
0.0000000001
 40
0.0
 40
0.0
 40
0.0
 40
1.809168263956966
 40
1.809168263956966
 40
1.809168263956966
 10
-23.60219107775411
 20
63.70389359389117
 30
0.0
 41
1.0
 10
-24.29818416566765
 20
62.87056014050115
 30
0.0
 41
0.7675193868450967
 10
-23.60219107775269
 20
62.03722668711129
 30
0.0
 41
1.0
  0
SPLINE
  5
40
330
1F
100
AcDbEntity
  8
MAKE2D VISIBLE LINES
100
AcDbSpline
210
0.0
220
0.0
230
1.0
 70
    12
 71
     2
 72
     6
 73
     3
 74
     0
 42
0.0000000001
 43
0.0000000001
 40
0.0
 40
0.0
 40
0.0
 40
32.24311766354308
 40
32.24311766354308
 40
32.24311766354308
 10
-23.60219107775269
 20
62.03722668711129
 30
0.0
 41
1.0
 10
-13.24013490559472
 20
49.63042523490591
 30
0.0
 41
0.99599180609874
 10
-0.8333334533898427
 20
39.26836906274877
 30
0.0
 41
1.0
  0
SPLINE
  5
41
330
1F
100
AcDbEntity
  8
MAKE2D VISIBLE LINES
100
AcDbSpline
210
0.0
220
0.0
230
1.0
 70
    12
 71
     2
 72
     6
 73
     3
 74
     0
 42
0.0000000001
 43
0.0000000001
 40
0.0
 40
0.0
 40
0.0
 40
1.809168263957198
 40
1.809168263957198
 40
1.809168263957198
 10
-0.8333334533898427
 20
39.26836906274877
 30
0.0
 41
1.0
 10
-0.0000000000005899
 20
38.57237597483593
 30
0.0
 41
0.7675193868452113
 10
0.8333334533887413
 20
39.26836906274939
 30
0.0
 41
0.9999999999996332
  0
SPLINE
  5
42
330
1F
100
AcDbEntity
  8
MAKE2D VISIBLE LINES
100
AcDbSpline
210
0.0
220
0.0
230
1.0
 70
    12
 71
     2
 72
     6
 73
     3
 74
     0
 42
0.0000000001
 43
0.0000000001
 40
0.0
 40
0.0
 40
0.0
 40
32.24311766354278
 40
32.24311766354278
 40
32.24311766354278
 10
0.8333334533887413
 20
39.26836906274941
 30
0.0
 41
0.9999999999999998
 10
13.24013490559332
 20
49.63042523490633
 30
0.0
 41
0.9959918060987396
 10
23.6021910777504
 20
62.03722668711082
 30
0.0
 41
1.0
  0
SPLINE
  5
43
330
1F
100
AcDbEntity
  8
MAKE2D VISIBLE LINES
100
AcDbSpline
210
0.0
220
0.0
230
1.0
 70
    12
 71
     2
 72
     6
 73
     3
 74
     0
 42
0.0000000001
 43
0.0000000001
 40
0.0
 40
0.0
 40
0.0
 40
1.809168263957204
 40
1.809168263957204
 40
1.809168263957204
 10
23.6021910777521
 20
62.03722668711285
 30
0.0
 41
1.0
 10
24.29818416566534
 20
62.8705601405025
 30
0.0
 41
0.7675193868451913
 10
23.60219107775176
 20
63.70389359389185
 30
0.0
 41
0.9999999999996569
  0
SPLINE
  5
44
330
1F
100
AcDbEntity
  8
MAKE2D VISIBLE LINES
100
AcDbSpline
210
0.0
220
0.0
230
1.0
 70
    12
 71
     2
 72
     6
 73
     3
 74
     0
 42
0.0000000001
 43
0.0000000001
 40
0.0
 40
0.0
 40
0.0
 40
32.23416124196714
 40
32.23416124196714
 40
32.23416124196714
 10
-0.8012821667125323
 20
86.43437524890172
 30
0.0
 41
1.0
 10
-13.20463728516357
 20
76.07519742566446
 30
0.0
 41
0.9959918060988714
 10
-23.56381510840081
 20
63.67184230721338
 30
0.0
 41
1.0
  0
SPLINE
  5
45
330
1F
100
AcDbEntity
  8
MAKE2D VISIBLE LINES
100
AcDbSpline
210
0.0
220
0.0
230
1.0
 70
    12
 71
     2
 72
     6
 73
     3
 74
     0
 42
0.0000000001
 43
0.0000000001
 40
0.0
 40
0.0
 40
0.0
 40
1.739584869175368
 40
1.739584869175368
 40
1.739584869175368
 10
-23.56381510840081
 20
63.67184230721338
 30
0.0
 41
1.0
 10
-24.23303923140911
 20
62.87056014050176
 30
0.0
 41
0.7675193868347241
 10
-23.56381510840047
 20
62.06927797379043
 30
0.0
 41
1.0
  0
SPLINE
  5
46
330
1F
100
AcDbEntity
  8
MAKE2D VISIBLE LINES
100
AcDbSpline
210
0.0
220
0.0
230
1.0
 70
    12
 71
     2
 72
     6
 73
     3
 74
     0
 42
0.0000000001
 43
0.0000000001
 40
0.0
 40
0.0
 40
0.0
 40
32.23416124196704
 40
32.23416124196704
 40
32.23416124196704
 10
-23.56381510840047
 20
62.06927797379043
 30
0.0
 41
1.0
 10
-13.20463728516325
 20
49.6659228553394
 30
0.0
 41
0.9959918060988713
 10
-0.8012821667121841
 20
39.30674503210221
 30
0.0
 41
1.0
  0
SPLINE
  5
47
330
1F
100
AcDbEntity
  8
MAKE2D VISIBLE LINES
100
AcDbSpline
210
0.0
220
0.0
230
1.0
 70
    12
 71
     2
 72
     6
 73
     3
 74
     0
 42
0.0000000001
 43
0.0000000001
 40
0.0
 40
0.0
 40
0.0
 40
1.739584869175438
 40
1.739584869175438
 40
1.739584869175438
 10
-0.8012821667121841
 20
39.30674503210221
 30
0.0
 41
1.0
 10
-0.0000000000004932
 20
38.63752090909406
 30
0.0
 41
0.7675193868348
 10
0.8012821667108678
 20
39.30674503210261
 30
0.0
 41
1.0
  0
SPLINE
  5
48
330
1F
100
AcDbEntity
  8
MAKE2D VISIBLE LINES
100
AcDbSpline
210
0.0
220
0.0
230
1.0
 70
    12
 71
     2
 72
     6
 73
     3
 74
     0
 42
0.0000000001
 43
0.0000000001
 40
0.0
 40
0.0
 40
0.0
 40
32.23416124196701
 40
32.23416124196701
 40
32.23416124196701
 10
0.8012821667108678
 20
39.30674503210261
 30
0.0
 41
1.0
 10
13.20463728516184
 20
49.66592285533986
 30
0.0
 41
0.9959918060988714
 10
23.56381510839904
 20
62.06927797379088
 30
0.0
 41
1.0
  0
SPLINE
  5
49
330
1F
100
AcDbEntity
  8
MAKE2D VISIBLE LINES
100
AcDbSpline
210
0.0
220
0.0
230
1.0
 70
    12
 71
     2
 72
     6
 73
     3
 74
     0
 42
0.0000000001
 43
0.0000000001
 40
0.0
 40
0.0
 40
0.0
 40
1.739584869175388
 40
1.739584869175388
 40
1.739584869175388
 10
23.56381510839904
 20
62.06927797379088
 30
0.0
 41
1.0
 10
24.23303923140723
 20
62.87056014050253
 30
0.0
 41
0.7675193868347787
 10
23.56381510839858
 20
63.67184230721406
 30
0.0
 41
1.0
  0
SPLINE
  5
4A
330
1F
100
AcDbEntity
  8
MAKE2D VISIBLE LINES
100
AcDbSpline
210
0.0
220
0.0
230
1.0
 70
    12
 71
     2
 72
     6
 73
     3
 74
     0
 42
0.0000000001
 43
0.0000000001
 40
-32.23416124196819
 40
-32.23416124196819
 40
-32.23416124196819
 40
0.0
 40
0.0
 40
0.0
 10
23.56381510839858
 20
63.67184230721406
 30
0.0
 41
1.0
 10
13.20463728517442
 20
76.07519742567845
 30
0.0
 41
0.9959918060987681
 10
0.8012821667100738
 20
86.43437524890237
 30
0.0
 41
1.0
  0
SPLINE
  5
4B
330
1F
100
AcDbEntity
  8
MAKE2D VISIBLE LINES
100
AcDbSpline
210
0.0
220
0.0
230
1.0
 70
    12
 71
     2
 72
     6
 73
     3
 74
     0
 42
0.0000000001
 43
0.0000000001
 40
0.0
 40
0.0
 40
0.0
 40
1.739584869175357
 40
1.739584869175357
 40
1.739584869175357
 10
0.8012821667104149
 20
86.43437524890206
 30
0.0
 41
1.0
 10
-0.0000000000011989
 20
87.1035993719103
 30
0.0
 41
0.7675193868347362
 10
-0.8012821667125323
 20
86.43437524890172
 30
0.0
 41
1.0
  0
LINE
  5
4D
330
1F
100
AcDbEntity
  8
DEFAULT
100
AcDbLine
 10
-23.85441587485019
 20
28.95749999999937
 30
0.0
 11
23.85441587485019
 21
28.95749999999937
 31
0.0
  0
LINE
  5
4E
330
1F
100
AcDbEntity
  8
DEFAULT
100
AcDbLine
 10
22.72286378712154
 20
28.20750000000173
 30
0.0
 11
-22.72286378712154
 21
28.20750000000173
 31
0.0
  0
ARC
  5
4F
330
1F
100
AcDbEntity
  8
DEFAULT
100
AcDbCircle
 10
23.69551008090128
 20
28.82188812959152
 30
0.0
 40
0.2089057939480824
100
AcDbArc
 50
319.5222107522089
 51
40.47778924776762
  0
LINE
  5
50
330
1F
100
AcDbEntity
  8
DEFAULT
100
AcDbLine
 10
23.85441587485014
 20
28.68627625918718
 30
0.0
 11
22.72286378712154
 21
28.20749999999815
 31
0.0
  0
ARC
  5
51
330
1F
100
AcDbEntity
  8
DEFAULT
100
AcDbCircle
 10
-23.69551008090128
 20
28.82188812959152
 30
0.0
 40
0.2089057939480824
100
AcDbArc
 50
139.5222107522324
 51
220.4777892477911
  0
LINE
  5
52
330
1F
100
AcDbEntity
  8
DEFAULT
100
AcDbLine
 10
-23.85441587485014
 20
28.68627625918718
 30
0.0
 11
-22.72286378712154
 21
28.20749999999815
 31
0.0
  0
SPLINE
  5
53
330
1F
100
AcDbEntity
  8
MAKE2D VISIBLE LINES
100
AcDbSpline
210
0.0
220
0.0
230
1.0
 70
    24
 71
     2
 72
     6
 73
     3
 74
     0
 42
0.0000000001
 43
0.0000000001
 40
0.0
 40
0.0
 40
0.0
 40
22.46750000000144
 40
22.46750000000144
 40
22.46750000000144
 10
1.006431695305707
 20
28.20750000000142
 30
0.0
 10
1.006431695305707
 20
16.9737500000007
 30
0.0
 10
1.006431695305707
 20
5.739999999999982
 30
0.0
  0
SPLINE
  5
54
330
1F
100
AcDbEntity
  8
MAKE2D VISIBLE LINES
100
AcDbSpline
210
0.0
220
0.0
230
1.0
 70
    24
 71
     2
 72
     6
 73
     3
 74
     0
 42
0.0000000001
 43
0.0000000001
 40
0.0
 40
0.0
 40
0.0
 40
1.995954908856028
 40
1.995954908856028
 40
1.995954908856028
 10
-0.9935683046942998
 20
5.739999999999982
 30
0.0
 10
0.0044091497337142
 20
5.739999999999982
 30
0.0
 10
1.002386604161728
 20
5.739999999999982
 30
0.0
  0
SPLINE
  5
55
330
1F
100
AcDbEntity
  8
MAKE2D VISIBLE LINES
100
AcDbSpline
210
0.0
220
0.0
230
1.0
 70
    24
 71
     2
 72
     6
 73
     3
 74
     0
 42
0.0000000001
 43
0.0000000001
 40
0.0
 40
0.0
 40
0.0
 40
22.46750000000144
 40
22.46750000000144
 40
22.46750000000144
 10
-0.9935683046942998
 20
28.20750000000142
 30
0.0
 10
-0.9935683046942998
 20
16.9737500000007
 30
0.0
 10
-0.9935683046942998
 20
5.739999999999982
 30
0.0
  0
LINE
  5
56
330
1F
100
AcDbEntity
  8
MAKE2D VISIBLE LINES
100
AcDbLine
 10
0.5547991453997883
 20
0.4499999999973091
 30
0.0
 11
0.5600936902513496
 21
1.038821305720481
 31
0.0
  0
SPLINE
  5
57
330
1F
100
AcDbEntity
  8
MAKE2D VISIBLE LINES
100
AcDbSpline
210
0.0
220
0.0
230
1.0
 70
     8
 71
     3
 72
    17
 73
    13
 74
     0
 42
0.0000000001
 43
0.0000000001
 40
0.0
 40
0.0
 40
0.0
 40
0.0
 40
0.4571038709495606
 40
0.600361088136114
 40
0.7146413041590246
 40
0.7422800016803912
 40
0.9884286652944652
 40
1.057503174746353
 40
1.650044530572786
 40
2.866880312248628
 40
3.345402392526125
 40
3.699083247927207
 40
3.699083247927207
 40
3.699083247927207
 40
3.699083247927207
 10
0.5600936902513496
 20
1.038821305720481
 30
0.0
 10
0.5614626957900128
 20
1.191072283173293
 30
0.0
 10
0.553266120912923
 20
1.391532726303229
 30
0.0
 10
0.5661207989939498
 20
1.629209943474007
 30
0.0
 10
0.573779174669113
 20
1.724326720498223
 30
0.0
 10
0.6017256690238924
 20
1.850567580638812
 30
0.0
 10
0.6318255924157512
 20
1.960921498516499
 30
0.0
 10
0.6947706992241933
 20
2.256927388726168
 30
0.0
 10
0.8259754849519112
 20
2.86912762990787
 30
0.0
 10
0.9895749886423459
 20
3.614103957830785
 30
0.0
 10
1.11240815351583
 20
4.286092038660838
 30
0.0
 10
1.139434608783333
 20
4.56263163931327
 30
0.0
 10
1.14253717663567
 20
4.681574884874415
 30
0.0
  0
SPLINE
  5
58
330
1F
100
AcDbEntity
  8
MAKE2D VISIBLE LINES
100
AcDbSpline
210
0.0
220
0.0
230
1.0
 70
    12
 71
     2
 72
     6
 73
     3
 74
     0
 42
0.0000000001
 43
0.0000000001
 40
-0.2238473794300213
 40
-0.2238473794300213
 40
-0.2238473794300213
 40
0.0
 40
0.0
 40
0.0
 10
1.14253717663567
 20
4.681574884874415
 30
0.0
 41
1.0
 10
1.130152221018822
 20
4.804965634387823
 30
0.0
 41
0.8711372374078382
 10
1.019118485586716
 20
4.857681285616296
 30
0.0
 41
1.0
  0
LINE
  5
59
330
1F
100
AcDbEntity
  8
MAKE2D VISIBLE LINES
100
AcDbLine
 10
-0.5547991453997883
 20
0.4499999999973091
 30
0.0
 11
-0.5600936902513496
 21
1.038821305720481
 31
0.0
  0
SPLINE
  5
5A
330
1F
100
AcDbEntity
  8
MAKE2D VISIBLE LINES
100
AcDbSpline
210
0.0
220
0.0
230
1.0
 70
     8
 71
     3
 72
    17
 73
    13
 74
     0
 42
0.0000000001
 43
0.0000000001
 40
0.0
 40
0.0
 40
0.0
 40
0.0
 40
0.4571038709495606
 40
0.600361088136114
 40
0.7146413041590246
 40
0.7422800016803912
 40
0.9884286652944652
 40
1.057503174746353
 40
1.650044530572786
 40
2.866880312248628
 40
3.345402392526125
 40
3.699083247927207
 40
3.699083247927207
 40
3.699083247927207
 40
3.699083247927207
 10
-0.5600936902513496
 20
1.038821305720481
 30
0.0
 10
-0.5614626957900128
 20
1.191072283173293
 30
0.0
 10
-0.553266120912923
 20
1.391532726303229
 30
0.0
 10
-0.5661207989939498
 20
1.629209943474007
 30
0.0
 10
-0.573779174669113
 20
1.724326720498223
 30
0.0
 10
-0.6017256690238924
 20
1.850567580638812
 30
0.0
 10
-0.6318255924157512
 20
1.960921498516499
 30
0.0
 10
-0.6947706992241933
 20
2.256927388726168
 30
0.0
 10
-0.8259754849519112
 20
2.86912762990787
 30
0.0
 10
-0.9895749886423459
 20
3.614103957830785
 30
0.0
 10
-1.11240815351583
 20
4.286092038660838
 30
0.0
 10
-1.139434608783333
 20
4.56263163931327
 30
0.0
 10
-1.14253717663567
 20
4.681574884874415
 30
0.0
  0
SPLINE
  5
5B
330
1F
100
AcDbEntity
  8
MAKE2D VISIBLE LINES
100
AcDbSpline
210
0.0
220
0.0
230
1.0
 70
    12
 71
     2
 72
     6
 73
     3
 74
     0
 42
0.0000000001
 43
0.0000000001
 40
-0.2238473794300213
 40
-0.2238473794300213
 40
-0.2238473794300213
 40
0.0
 40
0.0
 40
0.0
 10
-1.14253717663567
 20
4.681574884874415
 30
0.0
 41
1.0
 10
-1.130152221018822
 20
4.804965634387823
 30
0.0
 41
0.8711372374078382
 10
-1.019118485586716
 20
4.857681285616296
 30
0.0
 41
1.0
  0
SPLINE
  5
5C
330
1F
100
AcDbEntity
  8
MAKE2D VISIBLE LINES
100
AcDbSpline
210
0.0
220
0.0
230
1.0
 70
    24
 71
     2
 72
     6
 73
     3
 74
     0
 42
0.0000000001
 43
0.0000000001
 40
0.0
 40
0.0
 40
0.0
 40
0.0813867696627497
 40
0.0813867696627497
 40
0.0813867696627497
 10
-1.00238660391841
 20
5.739999999999982
 30
0.0
 10
-1.002386604000108
 20
5.699306615168608
 30
0.0
 10
-1.002386604081806
 20
5.658613230337233
 30
0.0
  0
SPLINE
  5
5D
330
1F
100
AcDbEntity
  8
MAKE2D VISIBLE LINES
100
AcDbSpline
210
0.0
220
0.0
230
1.0
 70
    12
 71
     2
 72
     6
 73
     3
 74
     0
 42
0.0000000001
 43
0.0000000001
 40
0.0
 40
0.0
 40
0.0
 40
0.7821994778406779
 40
0.7821994778406779
 40
0.7821994778406779
 10
-1.002386604081806
 20
5.658613230337233
 30
0.0
 41
1.0
 10
-1.002386618710999
 20
5.181729790395566
 30
0.0
 41
0.7507820732216763
 10
-1.475387356468872
 20
5.120999918247652
 30
0.0
 41
1.0
  0
SPLINE
  5
5E
330
1F
100
AcDbEntity
  8
MAKE2D VISIBLE LINES
100
AcDbSpline
210
0.0
220
0.0
230
1.0
 70
     8
 71
     3
 72
    18
 73
    14
 74
     0
 42
0.0000000001
 43
0.0000000001
 40
0.0
 40
0.0
 40
0.0
 40
0.0
 40
2.737044841197598
 40
5.473987538010683
 40
10.82332973264263
 40
12.74615251449677
 40
13.09725504101821
 40
13.14192017256602
 40
13.30665529948011
 40
13.76460296493259
 40
13.9336239781701
 40
13.99384762734556
 40
14.38907774737468
 40
14.38907774737468
 40
14.38907774737468
 40
14.38907774737468
 10
-1.475387356468872
 20
5.120999918247652
 30
0.0
 10
-2.380262551455033
 20
5.004688913361468
 30
0.0
 10
-4.185134896540987
 20
4.73324362253534
 30
0.0
 10
-7.726625537995972
 20
4.040859253009808
 30
0.0
 10
-10.95632946501819
 20
3.191664060632442
 30
0.0
 10
-13.37263854852311
 20
2.404487030099714
 30
0.0
 10
-14.1030637068254
 20
2.151589824950022
 30
0.0
 10
-14.27892295649572
 20
2.089159125440644
 30
0.0
 10
-14.47844217380106
 20
1.985793275491466
 30
0.0
 10
-14.64121647194244
 20
1.759094555988067
 30
0.0
 10
-14.676152957528
 20
1.530443632559157
 30
0.0
 10
-14.67599319131976
 20
1.322490631000407
 30
0.0
 10
-14.67518892841112
 20
1.17049771248914
 30
0.0
 10
-14.67588660391856
 20
1.038821305720483
 30
0.0
  0
LINE
  5
5F
330
1F
100
AcDbEntity
  8
MAKE2D VISIBLE LINES
100
AcDbLine
 10
-14.67588660391856
 20
1.038821305720483
 30
0.0
 11
-14.67588660391839
 21
0.4499999999973084
 31
0.0
  0
LINE
  5
60
330
1F
100
AcDbEntity
  8
MAKE2D VISIBLE LINES
100
AcDbLine
 10
-13.5508866039184
 20
0.4499999999973092
 30
0.0
 11
-13.55088660391839
 21
1.038821305720483
 31
0.0
  0
SPLINE
  5
61
330
1F
100
AcDbEntity
  8
MAKE2D VISIBLE LINES
100
AcDbSpline
210
0.0
220
0.0
230
1.0
 70
     8
 71
     3
 72
    15
 73
    11
 74
     0
 42
0.0000000001
 43
0.0000000001
 40
0.0
 40
0.0
 40
0.0
 40
0.0
 40
0.0996298077989244
 40
0.2092170962417541
 40
0.3094864705796317
 40
0.4144736687004785
 40
0.6655241022704962
 40
2.267029568009034
 40
5.683042636208958
 40
7.72398412559456
 40
7.72398412559456
 40
7.72398412559456
 40
7.72398412559456
 10
-13.55088660391839
 20
1.038821305720483
 30
0.0
 10
-13.55068413415231
 20
1.070796263208655
 30
0.0
 10
-13.54364684588934
 20
1.144481530800646
 30
0.0
 10
-13.49776017972556
 20
1.233471443269676
 30
0.0
 10
-13.43515027751386
 20
1.324343152622256
 30
0.0
 10
-13.30063654148634
 20
1.395342931698037
 30
0.0
 10
-12.69251555031168
 20
1.632614562975919
 30
0.0
 10
-11.03780168001538
 20
2.221819525742346
 30
0.0
 10
-8.773760763747433
 20
2.868619992857327
 30
0.0
 10
-7.005226486231949
 20
3.293094364974912
 30
0.0
 10
-6.34086520980518
 20
3.440121801046854
 30
0.0
  0
ARC
  5
62
330
1F
100
AcDbEntity
  8
MAKE2D VISIBLE LINES
100
AcDbCircle
 10
2.304859314629771
 20
-32.80974426717339
 30
0.0
 40
37.26662504864535
100
AcDbArc
 50
95.90413810943396
 51
103.4146393501962
  0
ARC
  5
63
330
1F
100
AcDbEntity
  8
MAKE2D VISIBLE LINES
100
AcDbCircle
 10
1.189515517686984
 20
-22.02440380431732
 30
0.0
 40
26.42376746011736
100
AcDbArc
 50
94.99863338047966
 51
95.90413810943379
  0
SPLINE
  5
64
330
1F
100
AcDbEntity
  8
MAKE2D VISIBLE LINES
100
AcDbSpline
210
0.0
220
0.0
230
1.0
 70
    24
 71
     2
 72
     6
 73
     3
 74
     0
 42
0.0000000001
 43
0.0000000001
 40
0.0
 40
0.0
 40
0.0
 40
0.0813867696627497
 40
0.0813867696627497
 40
0.0813867696627497
 10
1.00238660391841
 20
5.739999999999982
 30
0.0
 10
1.002386604000108
 20
5.699306615168608
 30
0.0
 10
1.002386604081806
 20
5.658613230337233
 30
0.0
  0
SPLINE
  5
65
330
1F
100
AcDbEntity
  8
MAKE2D VISIBLE LINES
100
AcDbSpline
210
0.0
220
0.0
230
1.0
 70
    12
 71
     2
 72
     6
 73
     3
 74
     0
 42
0.0000000001
 43
0.0000000001
 40
0.0
 40
0.0
 40
0.0
 40
0.7821994778406779
 40
0.7821994778406779
 40
0.7821994778406779
 10
1.002386604081806
 20
5.658613230337233
 30
0.0
 41
1.0
 10
1.002386618710999
 20
5.181729790395566
 30
0.0
 41
0.7507820732216763
 10
1.475387356468872
 20
5.120999918247652
 30
0.0
 41
1.0
  0
SPLINE
  5
66
330
1F
100
AcDbEntity
  8
MAKE2D VISIBLE LINES
100
AcDbSpline
210
0.0
220
0.0
230
1.0
 70
     8
 71
     3
 72
    18
 73
    14
 74
     0
 42
0.0000000001
 43
0.0000000001
 40
0.0
 40
0.0
 40
0.0
 40
0.0
 40
2.737044841197598
 40
5.473987538010683
 40
10.82332973264263
 40
12.74615251449677
 40
13.09725504101821
 40
13.14192017256602
 40
13.30665529948011
 40
13.76460296493259
 40
13.9336239781701
 40
13.99384762734556
 40
14.38907774737468
 40
14.38907774737468
 40
14.38907774737468
 40
14.38907774737468
 10
1.475387356468872
 20
5.120999918247652
 30
0.0
 10
2.380262551455033
 20
5.004688913361468
 30
0.0
 10
4.185134896540987
 20
4.73324362253534
 30
0.0
 10
7.726625537995972
 20
4.040859253009808
 30
0.0
 10
10.95632946501819
 20
3.191664060632442
 30
0.0
 10
13.37263854852311
 20
2.404487030099714
 30
0.0
 10
14.1030637068254
 20
2.151589824950022
 30
0.0
 10
14.27892295649572
 20
2.089159125440644
 30
0.0
 10
14.47844217380106
 20
1.985793275491466
 30
0.0
 10
14.64121647194244
 20
1.759094555988067
 30
0.0
 10
14.676152957528
 20
1.530443632559157
 30
0.0
 10
14.67599319131976
 20
1.322490631000407
 30
0.0
 10
14.67518892841112
 20
1.17049771248914
 30
0.0
 10
14.67588660391856
 20
1.038821305720483
 30
0.0
  0
LINE
  5
67
330
1F
100
AcDbEntity
  8
MAKE2D VISIBLE LINES
100
AcDbLine
 10
14.67588660391856
 20
1.038821305720483
 30
0.0
 11
14.67588660391839
 21
0.4499999999973084
 31
0.0
  0
LINE
  5
68
330
1F
100
AcDbEntity
  8
MAKE2D VISIBLE LINES
100
AcDbLine
 10
13.5508866039184
 20
0.4499999999973092
 30
0.0
 11
13.55088660391839
 21
1.038821305720483
 31
0.0
  0
SPLINE
  5
69
330
1F
100
AcDbEntity
  8
MAKE2D VISIBLE LINES
100
AcDbSpline
210
0.0
220
0.0
230
1.0
 70
     8
 71
     3
 72
    15
 73
    11
 74
     0
 42
0.0000000001
 43
0.0000000001
 40
0.0
 40
0.0
 40
0.0
 40
0.0
 40
0.0996298077989244
 40
0.2092170962417541
 40
0.3094864705796317
 40
0.4144736687004785
 40
0.6655241022704962
 40
2.267029568009034
 40
5.683042636208958
 40
7.72398412559456
 40
7.72398412559456
 40
7.72398412559456
 40
7.72398412559456
 10
13.55088660391839
 20
1.038821305720483
 30
0.0
 10
13.55068413415231
 20
1.070796263208655
 30
0.0
 10
13.54364684588934
 20
1.144481530800646
 30
0.0
 10
13.49776017972556
 20
1.233471443269676
 30
0.0
 10
13.43515027751386
 20
1.324343152622256
 30
0.0
 10
13.30063654148634
 20
1.395342931698037
 30
0.0
 10
12.69251555031168
 20
1.632614562975919
 30
0.0
 10
11.03780168001538
 20
2.221819525742346
 30
0.0
 10
8.773760763747433
 20
2.868619992857327
 30
0.0
 10
7.005226486231949
 20
3.293094364974912
 30
0.0
 10
6.34086520980518
 20
3.440121801046854
 30
0.0
  0
ARC
  5
6A
330
1F
100
AcDbEntity
  8
MAKE2D VISIBLE LINES
100
AcDbCircle
 10
-2.304859314629771
 20
-32.80974426717339
 30
0.0
 40
37.26662504864535
100
AcDbArc
 50
76.58536064980379
 51
84.09586189056607
  0
ARC
  5
6B
330
1F
100
AcDbEntity
  8
MAKE2D VISIBLE LINES
100
AcDbCircle
 10
-1.189515517686984
 20
-22.02440380431732
 30
0.0
 40
26.42376746011736
100
AcDbArc
 50
84.09586189056623
 51
85.00136661952035
  0
SPLINE
  5
6C
330
1F
100
AcDbEntity
  8
DEFAULT
100
AcDbSpline
210
0.0
220
0.0
230
1.0
 70
    12
 71
     2
 72
     6
 73
     3
 74
     0
 42
0.0000000001
 43
0.0000000001
 40
0.0
 40
0.0
 40
0.0
 40
0.46236341646682
 40
0.46236341646682
 40
0.46236341646682
 10
0.8245247017620159
 20
0.3499999999999932
 30
0.0
 41
1.0
 10
1.047390348347109
 20
0.2741342936259223
 30
0.0
 41
0.9830001114850309
 10
1.226288898452111
 20
0.1235386512431922
 30
0.0
 41
1.0
  0
SPLINE
  5
6D
330
1F
100
AcDbEntity
  8
DEFAULT
100
AcDbSpline
210
0.0
220
0.0
230
1.0
 70
    12
 71
     2
 72
     6
 73
     3
 74
     0
 42
0.0000000001
 43
0.0000000001
 40
0.0
 40
0.0
 40
0.0
 40
0.0608900842196441
 40
0.0608900842196441
 40
0.0608900842196441
 10
1.226288898452111
 20
0.1235386512431922
 30
0.0
 41
1.0
 10
1.250955019594042
 20
0.1024508355175233
 30
0.0
 41
0.9097760575793582
 10
1.251193301959191
 20
0.0699999999999836
 30
0.0
 41
1.0
  0
SPLINE
  5
6E
330
1F
100
AcDbEntity
  8
DEFAULT
100
AcDbSpline
210
0.0
220
0.0
230
1.0
 70
    12
 71
     2
 72
     6
 73
     3
 74
     0
 42
0.0000000001
 43
0.0000000001
 40
0.0
 40
0.0
 40
0.0
 40
0.1098866721493189
 40
0.1098866721493189
 40
0.1098866721493189
 10
1.251193301959191
 20
0.0699999999999836
 30
0.0
 41
1.0
 10
1.251033937855029
 20
0.000160007674806
 30
0.0
 41
0.7087216953588164
 10
1.178807020561877
 20
0.000000000001469
 30
0.0
 41
1.0
  0
POLYLINE
  5
6F
330
1F
100
AcDbEntity
  8
DEFAULT
100
AcDb2dPolyline
 66
     1
 10
0.0
 20
0.0
 30
0.0
  0
VERTEX
  5
70
330
6F
100
AcDbEntity
  8
DEFAULT
100
AcDbVertex
100
AcDb2dVertex
 10
1.178807020561877
 20
0.000000000001469
 30
0.0
  0
VERTEX
  5
71
330
6F
100
AcDbEntity
  8
DEFAULT
100
AcDbVertex
100
AcDb2dVertex
 10
-1.178807020561877
 20
0.0000000000014692
 30
0.0
  0
SEQEND
  5
72
330
6F
100
AcDbEntity
  8
DEFAULT
  0
SPLINE
  5
73
330
1F
100
AcDbEntity
  8
DEFAULT
100
AcDbSpline
210
0.0
220
0.0
230
1.0
 70
    12
 71
     2
 72
     6
 73
     3
 74
     0
 42
0.0000000001
 43
0.0000000001
 40
0.0
 40
0.0
 40
0.0
 40
0.1098605435233935
 40
0.1098605435233935
 40
0.1098605435233935
 10
-1.178807020561877
 20
0.0000000000014692
 30
0.0
 41
1.0
 10
-1.248586511889563
 20
0.0002208291614163
 30
0.0
 41
0.7093377523798728
 10
-1.248806698040809
 20
0.0699999999999836
 30
0.0
 41
1.0
  0
SPLINE
  5
74
330
1F
100
AcDbEntity
  8
DEFAULT
100
AcDbSpline
210
0.0
220
0.0
230
1.0
 70
    12
 71
     2
 72
     6
 73
     3
 74
     0
 42
0.0000000001
 43
0.0000000001
 40
0.0
 40
0.0
 40
0.0
 40
0.0608900842196552
 40
0.0608900842196552
 40
0.0608900842196552
 10
-1.248806698040809
 20
0.0699999999999836
 30
0.0
 41
1.0
 10
-1.248568415675672
 20
0.1024508355175377
 30
0.0
 41
0.9097760575790177
 10
-1.223902294533723
 20
0.1235386512431918
 30
0.0
 41
1.0
  0
SPLINE
  5
75
330
1F
100
AcDbEntity
  8
DEFAULT
100
AcDbSpline
210
0.0
220
0.0
230
1.0
 70
    12
 71
     2
 72
     6
 73
     3
 74
     0
 42
0.0000000001
 43
0.0000000001
 40
0.0
 40
0.0
 40
0.0
 40
0.4623568505677551
 40
0.4623568505677551
 40
0.4623568505677551
 10
-1.223902294533723
 20
0.1235386512431918
 30
0.0
 41
1.0
 10
-1.0449767545422
 20
0.2740866098387973
 30
0.0
 41
0.9830423763328535
 10
-0.8238066980408121
 20
0.3499999999999931
 30
0.0
 41
1.0
  0
POLYLINE
  5
76
330
1F
100
AcDbEntity
  8
DEFAULT
100
AcDb2dPolyline
 66
     1
 10
0.0
 20
0.0
 30
0.0
  0
VERTEX
  5
77
330
76
100
AcDbEntity
  8
DEFAULT
100
AcDbVertex
100
AcDb2dVertex
 10
-0.8238066980408121
 20
0.3499999999999931
 30
0.0
  0
VERTEX
  5
78
330
76
100
AcDbEntity
  8
DEFAULT
100
AcDbVertex
100
AcDb2dVertex
 10
0.8245247017620159
 20
0.3499999999999932
 30
0.0
  0
SEQEND
  5
79
330
76
100
AcDbEntity
  8
DEFAULT
  0
SPLINE
  5
7A
330
1F
100
AcDbEntity
  8
DEFAULT
100
AcDbSpline
210
0.0
220
0.0
230
1.0
 70
    24
 71
     2
 72
     6
 73
     3
 74
     0
 42
0.0000000001
 43
0.0000000001
 40
0.0
 40
0.0
 40
0.0
 40
0.0369999999999999
 40
0.0369999999999999
 40
0.0369999999999999
 10
-0.8238066980407979
 20
0.3499999999999829
 30
0.0
 10
-0.8238066980407979
 20
0.3684999999999829
 30
0.0
 10
-0.8238066980407979
 20
0.3869999999999829
 30
0.0
  0
SPLINE
  5
7B
330
1F
100
AcDbEntity
  8
DEFAULT
100
AcDbSpline
210
0.0
220
0.0
230
1.0
 70
    12
 71
     2
 72
     6
 73
     3
 74
     0
 42
0.0000000001
 43
0.0000000001
 40
0.0
 40
0.0
 40
0.0
 40
0.0988980049340393
 40
0.0988980049340393
 40
0.0988980049340393
 10
-0.8238066980407979
 20
0.3869999999999829
 30
0.0
 41
1.0
 10
-0.8236632703462399
 20
0.4498559930918318
 30
0.0
 41
0.7087216953679459
 10
-0.7608072785787385
 20
0.4499999999973093
 30
0.0
 41
1.0
  0
POLYLINE
  5
7C
330
1F
100
AcDbEntity
  8
DEFAULT
100
AcDb2dPolyline
 66
     1
 10
0.0
 20
0.0
 30
0.0
  0
VERTEX
  5
7D
330
7C
100
AcDbEntity
  8
DEFAULT
100
AcDbVertex
100
AcDb2dVertex
 10
-0.7608072785787385
 20
0.4499999999973093
 30
0.0
  0
VERTEX
  5
7E
330
7C
100
AcDbEntity
  8
DEFAULT
100
AcDbVertex
100
AcDb2dVertex
 10
0.7631938824971343
 20
0.4499999999973083
 30
0.0
  0
SEQEND
  5
7F
330
7C
100
AcDbEntity
  8
DEFAULT
  0
SPLINE
  5
80
330
1F
100
AcDbEntity
  8
DEFAULT
100
AcDbSpline
210
0.0
220
0.0
230
1.0
 70
    12
 71
     2
 72
     6
 73
     3
 74
     0
 42
0.0000000001
 43
0.0000000001
 40
0.0
 40
0.0
 40
0.0
 40
0.0988744891713385
 40
0.0988744891713385
 40
0.0988744891713385
 10
0.7631938824971343
 20
0.4499999999973083
 30
0.0
 41
1.0
 10
0.8259951344237464
 20
0.4498012537553616
 30
0.0
 41
0.709337752372324
 10
0.8261933019592007
 20
0.3869999999999829
 30
0.0
 41
1.0
  0
SPLINE
  5
81
330
1F
100
AcDbEntity
  8
DEFAULT
100
AcDbSpline
210
0.0
220
0.0
230
1.0
 70
    24
 71
     2
 72
     6
 73
     3
 74
     0
 42
0.0000000001
 43
0.0000000001
 40
0.0
 40
0.0
 40
0.0
 40
0.0369999999999999
 40
0.0369999999999999
 40
0.0369999999999999
 10
0.8261933019592007
 20
0.3869999999999829
 30
0.0
 10
0.8261933019591972
 20
0.3684999999999829
 30
0.0
 10
0.8261933019591936
 20
0.3499999999999829
 30
0.0
  0
SPLINE
  5
82
330
1F
100
AcDbEntity
  8
DEFAULT
100
AcDbSpline
210
0.0
220
0.0
230
1.0
 70
    12
 71
     2
 72
     6
 73
     3
 74
     0
 42
0.0000000001
 43
0.0000000001
 40
0.0
 40
0.0
 40
0.0
 40
0.46236341646682
 40
0.46236341646682
 40
0.46236341646682
 10
-14.93671800372123
 20
0.3499999999999932
 30
0.0
 41
1.0
 10
-15.15958365030632
 20
0.2741342936259223
 30
0.0
 41
0.9830001114850309
 10
-15.33848220041132
 20
0.1235386512431922
 30
0.0
 41
1.0
  0
SPLINE
  5
83
330
1F
100
AcDbEntity
  8
DEFAULT
100
AcDbSpline
210
0.0
220
0.0
230
1.0
 70
    12
 71
     2
 72
     6
 73
     3
 74
     0
 42
0.0000000001
 43
0.0000000001
 40
0.0
 40
0.0
 40
0.0
 40
0.0608900842196441
 40
0.0608900842196441
 40
0.0608900842196441
 10
-15.33848220041132
 20
0.1235386512431922
 30
0.0
 41
1.0
 10
-15.36314832155325
 20
0.1024508355175233
 30
0.0
 41
0.9097760575793582
 10
-15.3633866039184
 20
0.0699999999999836
 30
0.0
 41
1.0
  0
SPLINE
  5
84
330
1F
100
AcDbEntity
  8
DEFAULT
100
AcDbSpline
210
0.0
220
0.0
230
1.0
 70
    12
 71
     2
 72
     6
 73
     3
 74
     0
 42
0.0000000001
 43
0.0000000001
 40
0.0
 40
0.0
 40
0.0
 40
0.1098866721493189
 40
0.1098866721493189
 40
0.1098866721493189
 10
-15.3633866039184
 20
0.0699999999999836
 30
0.0
 41
1.0
 10
-15.36322723981424
 20
0.000160007674806
 30
0.0
 41
0.7087216953588164
 10
-15.29100032252109
 20
0.000000000001469
 30
0.0
 41
1.0
  0
POLYLINE
  5
85
330
1F
100
AcDbEntity
  8
DEFAULT
100
AcDb2dPolyline
 66
     1
 10
0.0
 20
0.0
 30
0.0
  0
VERTEX
  5
86
330
85
100
AcDbEntity
  8
DEFAULT
100
AcDbVertex
100
AcDb2dVertex
 10
-15.29100032252109
 20
0.000000000001469
 30
0.0
  0
VERTEX
  5
87
330
85
100
AcDbEntity
  8
DEFAULT
100
AcDbVertex
100
AcDb2dVertex
 10
-12.93338628139733
 20
0.0000000000014692
 30
0.0
  0
SEQEND
  5
88
330
85
100
AcDbEntity
  8
DEFAULT
  0
SPLINE
  5
89
330
1F
100
AcDbEntity
  8
DEFAULT
100
AcDbSpline
210
0.0
220
0.0
230
1.0
 70
    12
 71
     2
 72
     6
 73
     3
 74
     0
 42
0.0000000001
 43
0.0000000001
 40
0.0
 40
0.0
 40
0.0
 40
0.1098605435233935
 40
0.1098605435233935
 40
0.1098605435233935
 10
-12.93338628139733
 20
0.0000000000014692
 30
0.0
 41
1.0
 10
-12.86360679006965
 20
0.0002208291614163
 30
0.0
 41
0.7093377523798728
 10
-12.8633866039184
 20
0.0699999999999836
 30
0.0
 41
1.0
  0
SPLINE
  5
8A
330
1F
100
AcDbEntity
  8
DEFAULT
100
AcDbSpline
210
0.0
220
0.0
230
1.0
 70
    12
 71
     2
 72
     6
 73
     3
 74
     0
 42
0.0000000001
 43
0.0000000001
 40
0.0
 40
0.0
 40
0.0
 40
0.0608900842196552
 40
0.0608900842196552
 40
0.0608900842196552
 10
-12.8633866039184
 20
0.0699999999999836
 30
0.0
 41
1.0
 10
-12.86362488628354
 20
0.1024508355175377
 30
0.0
 41
0.9097760575790177
 10
-12.88829100742549
 20
0.1235386512431918
 30
0.0
 41
1.0
  0
SPLINE
  5
8B
330
1F
100
AcDbEntity
  8
DEFAULT
100
AcDbSpline
210
0.0
220
0.0
230
1.0
 70
    12
 71
     2
 72
     6
 73
     3
 74
     0
 42
0.0000000001
 43
0.0000000001
 40
0.0
 40
0.0
 40
0.0
 40
0.4623568505677551
 40
0.4623568505677551
 40
0.4623568505677551
 10
-12.88829100742549
 20
0.1235386512431918
 30
0.0
 41
1.0
 10
-13.06721654741701
 20
0.2740866098387973
 30
0.0
 41
0.9830423763328535
 10
-13.2883866039184
 20
0.3499999999999931
 30
0.0
 41
1.0
  0
POLYLINE
  5
8C
330
1F
100
AcDbEntity
  8
DEFAULT
100
AcDb2dPolyline
 66
     1
 10
0.0
 20
0.0
 30
0.0
  0
VERTEX
  5
8D
330
8C
100
AcDbEntity
  8
DEFAULT
100
AcDbVertex
100
AcDb2dVertex
 10
-13.2883866039184
 20
0.3499999999999931
 30
0.0
  0
VERTEX
  5
8E
330
8C
100
AcDbEntity
  8
DEFAULT
100
AcDbVertex
100
AcDb2dVertex
 10
-14.93671800372123
 20
0.3499999999999932
 30
0.0
  0
SEQEND
  5
8F
330
8C
100
AcDbEntity
  8
DEFAULT
  0
SPLINE
  5
90
330
1F
100
AcDbEntity
  8
DEFAULT
100
AcDbSpline
210
0.0
220
0.0
230
1.0
 70
    24
 71
     2
 72
     6
 73
     3
 74
     0
 42
0.0000000001
 43
0.0000000001
 40
0.0
 40
0.0
 40
0.0
 40
0.0369999999999999
 40
0.0369999999999999
 40
0.0369999999999999
 10
-13.28838660391841
 20
0.3499999999999829
 30
0.0
 10
-13.28838660391841
 20
0.3684999999999829
 30
0.0
 10
-13.28838660391841
 20
0.3869999999999829
 30
0.0
  0
SPLINE
  5
91
330
1F
100
AcDbEntity
  8
DEFAULT
100
AcDbSpline
210
0.0
220
0.0
230
1.0
 70
    12
 71
     2
 72
     6
 73
     3
 74
     0
 42
0.0000000001
 43
0.0000000001
 40
0.0
 40
0.0
 40
0.0
 40
0.0988980049340393
 40
0.0988980049340393
 40
0.0988980049340393
 10
-13.28838660391841
 20
0.3869999999999829
 30
0.0
 41
1.0
 10
-13.28853003161297
 20
0.4498559930918318
 30
0.0
 41
0.7087216953679459
 10
-13.35138602338047
 20
0.4499999999973093
 30
0.0
 41
1.0
  0
POLYLINE
  5
92
330
1F
100
AcDbEntity
  8
DEFAULT
100
AcDb2dPolyline
 66
     1
 10
0.0
 20
0.0
 30
0.0
  0
VERTEX
  5
93
330
92
100
AcDbEntity
  8
DEFAULT
100
AcDbVertex
100
AcDb2dVertex
 10
-13.35138602338047
 20
0.4499999999973093
 30
0.0
  0
VERTEX
  5
94
330
92
100
AcDbEntity
  8
DEFAULT
100
AcDbVertex
100
AcDb2dVertex
 10
-14.87538718445634
 20
0.4499999999973083
 30
0.0
  0
SEQEND
  5
95
330
92
100
AcDbEntity
  8
DEFAULT
  0
SPLINE
  5
96
330
1F
100
AcDbEntity
  8
DEFAULT
100
AcDbSpline
210
0.0
220
0.0
230
1.0
 70
    12
 71
     2
 72
     6
 73
     3
 74
     0
 42
0.0000000001
 43
0.0000000001
 40
0.0
 40
0.0
 40
0.0
 40
0.0988744891713385
 40
0.0988744891713385
 40
0.0988744891713385
 10
-14.87538718445634
 20
0.4499999999973083
 30
0.0
 41
1.0
 10
-14.93818843638295
 20
0.4498012537553616
 30
0.0
 41
0.709337752372324
 10
-14.93838660391841
 20
0.3869999999999829
 30
0.0
 41
1.0
  0
SPLINE
  5
97
330
1F
100
AcDbEntity
  8
DEFAULT
100
AcDbSpline
210
0.0
220
0.0
230
1.0
 70
    24
 71
     2
 72
     6
 73
     3
 74
     0
 42
0.0000000001
 43
0.0000000001
 40
0.0
 40
0.0
 40
0.0
 40
0.0369999999999999
 40
0.0369999999999999
 40
0.0369999999999999
 10
-14.93838660391841
 20
0.3869999999999829
 30
0.0
 10
-14.93838660391841
 20
0.3684999999999829
 30
0.0
 10
-14.9383866039184
 20
0.3499999999999829
 30
0.0
  0
SPLINE
  5
98
330
1F
100
AcDbEntity
  8
DEFAULT
100
AcDbSpline
210
0.0
220
0.0
230
1.0
 70
    24
 71
     2
 72
     6
 73
     3
 74
     0
 42
0.0000000001
 43
0.0000000001
 40
0.0
 40
0.0
 40
0.0
 40
0.0369999999999999
 40
0.0369999999999999
 40
0.0369999999999999
 10
13.28838660391841
 20
0.3499999999999829
 30
0.0
 10
13.28838660391841
 20
0.3684999999999829
 30
0.0
 10
13.28838660391841
 20
0.3869999999999829
 30
0.0
  0
SPLINE
  5
99
330
1F
100
AcDbEntity
  8
DEFAULT
100
AcDbSpline
210
0.0
220
0.0
230
1.0
 70
    12
 71
     2
 72
     6
 73
     3
 74
     0
 42
0.0000000001
 43
0.0000000001
 40
0.0
 40
0.0
 40
0.0
 40
0.0988980049340393
 40
0.0988980049340393
 40
0.0988980049340393
 10
13.28838660391841
 20
0.3869999999999829
 30
0.0
 41
1.0
 10
13.28853003161297
 20
0.4498559930918318
 30
0.0
 41
0.7087216953679459
 10
13.35138602338047
 20
0.4499999999973093
 30
0.0
 41
1.0
  0
POLYLINE
  5
9A
330
1F
100
AcDbEntity
  8
DEFAULT
100
AcDb2dPolyline
 66
     1
 10
0.0
 20
0.0
 30
0.0
  0
VERTEX
  5
9B
330
9A
100
AcDbEntity
  8
DEFAULT
100
AcDbVertex
100
AcDb2dVertex
 10
13.35138602338047
 20
0.4499999999973093
 30
0.0
  0
VERTEX
  5
9C
330
9A
100
AcDbEntity
  8
DEFAULT
100
AcDbVertex
100
AcDb2dVertex
 10
14.87538718445634
 20
0.4499999999973083
 30
0.0
  0
SEQEND
  5
9D
330
9A
100
AcDbEntity
  8
DEFAULT
  0
SPLINE
  5
9E
330
1F
100
AcDbEntity
  8
DEFAULT
100
AcDbSpline
210
0.0
220
0.0
230
1.0
 70
    12
 71
     2
 72
     6
 73
     3
 74
     0
 42
0.0000000001
 43
0.0000000001
 40
0.0
 40
0.0
 40
0.0
 40
0.0988744891713385
 40
0.0988744891713385
 40
0.0988744891713385
 10
14.87538718445634
 20
0.4499999999973083
 30
0.0
 41
1.0
 10
14.93818843638295
 20
0.4498012537553616
 30
0.0
 41
0.709337752372324
 10
14.93838660391841
 20
0.3869999999999829
 30
0.0
 41
1.0
  0
SPLINE
  5
9F
330
1F
100
AcDbEntity
  8
DEFAULT
100
AcDbSpline
210
0.0
220
0.0
230
1.0
 70
    24
 71
     2
 72
     6
 73
     3
 74
     0
 42
0.0000000001
 43
0.0000000001
 40
0.0
 40
0.0
 40
0.0
 40
0.0369999999999999
 40
0.0369999999999999
 40
0.0369999999999999
 10
14.93838660391841
 20
0.3869999999999829
 30
0.0
 10
14.93838660391841
 20
0.3684999999999829
 30
0.0
 10
14.9383866039184
 20
0.3499999999999829
 30
0.0
  0
SPLINE
  5
A0
330
1F
100
AcDbEntity
  8
DEFAULT
100
AcDbSpline
210
0.0
220
0.0
230
1.0
 70
    12
 71
     2
 72
     6
 73
     3
 74
     0
 42
0.0000000001
 43
0.0000000001
 40
0.0
 40
0.0
 40
0.0
 40
0.46236341646682
 40
0.46236341646682
 40
0.46236341646682
 10
14.93671800372123
 20
0.3499999999999932
 30
0.0
 41
1.0
 10
15.15958365030632
 20
0.2741342936259223
 30
0.0
 41
0.9830001114850309
 10
15.33848220041132
 20
0.1235386512431922
 30
0.0
 41
1.0
  0
SPLINE
  5
A1
330
1F
100
AcDbEntity
  8
DEFAULT
100
AcDbSpline
210
0.0
220
0.0
230
1.0
 70
    12
 71
     2
 72
     6
 73
     3
 74
     0
 42
0.0000000001
 43
0.0000000001
 40
0.0
 40
0.0
 40
0.0
 40
0.0608900842196441
 40
0.0608900842196441
 40
0.0608900842196441
 10
15.33848220041132
 20
0.1235386512431922
 30
0.0
 41
1.0
 10
15.36314832155325
 20
0.1024508355175233
 30
0.0
 41
0.9097760575793582
 10
15.3633866039184
 20
0.0699999999999836
 30
0.0
 41
1.0
  0
SPLINE
  5
A2
330
1F
100
AcDbEntity
  8
DEFAULT
100
AcDbSpline
210
0.0
220
0.0
230
1.0
 70
    12
 71
     2
 72
     6
 73
     3
 74
     0
 42
0.0000000001
 43
0.0000000001
 40
0.0
 40
0.0
 40
0.0
 40
0.1098866721493189
 40
0.1098866721493189
 40
0.1098866721493189
 10
15.3633866039184
 20
0.0699999999999836
 30
0.0
 41
1.0
 10
15.36322723981424
 20
0.000160007674806
 30
0.0
 41
0.7087216953588164
 10
15.29100032252109
 20
0.000000000001469
 30
0.0
 41
1.0
  0
POLYLINE
  5
A3
330
1F
100
AcDbEntity
  8
DEFAULT
100
AcDb2dPolyline
 66
     1
 10
0.0
 20
0.0
 30
0.0
  0
VERTEX
  5
A4
330
A3
100
AcDbEntity
  8
DEFAULT
100
AcDbVertex
100
AcDb2dVertex
 10
15.29100032252109
 20
0.000000000001469
 30
0.0
  0
VERTEX
  5
A5
330
A3
100
AcDbEntity
  8
DEFAULT
100
AcDbVertex
100
AcDb2dVertex
 10
12.93338628139733
 20
0.0000000000014692
 30
0.0
  0
SEQEND
  5
A6
330
A3
100
AcDbEntity
  8
DEFAULT
  0
SPLINE
  5
A7
330
1F
100
AcDbEntity
  8
DEFAULT
100
AcDbSpline
210
0.0
220
0.0
230
1.0
 70
    12
 71
     2
 72
     6
 73
     3
 74
     0
 42
0.0000000001
 43
0.0000000001
 40
0.0
 40
0.0
 40
0.0
 40
0.1098605435233935
 40
0.1098605435233935
 40
0.1098605435233935
 10
12.93338628139733
 20
0.0000000000014692
 30
0.0
 41
1.0
 10
12.86360679006965
 20
0.0002208291614163
 30
0.0
 41
0.7093377523798728
 10
12.8633866039184
 20
0.0699999999999836
 30
0.0
 41
1.0
  0
SPLINE
  5
A8
330
1F
100
AcDbEntity
  8
DEFAULT
100
AcDbSpline
210
0.0
220
0.0
230
1.0
 70
    12
 71
     2
 72
     6
 73
     3
 74
     0
 42
0.0000000001
 43
0.0000000001
 40
0.0
 40
0.0
 40
0.0
 40
0.0608900842196552
 40
0.0608900842196552
 40
0.0608900842196552
 10
12.8633866039184
 20
0.0699999999999836
 30
0.0
 41
1.0
 10
12.86362488628354
 20
0.1024508355175377
 30
0.0
 41
0.9097760575790177
 10
12.88829100742549
 20
0.1235386512431918
 30
0.0
 41
1.0
  0
SPLINE
  5
A9
330
1F
100
AcDbEntity
  8
DEFAULT
100
AcDbSpline
210
0.0
220
0.0
230
1.0
 70
    12
 71
     2
 72
     6
 73
     3
 74
     0
 42
0.0000000001
 43
0.0000000001
 40
0.0
 40
0.0
 40
0.0
 40
0.4623568505677551
 40
0.4623568505677551
 40
0.4623568505677551
 10
12.88829100742549
 20
0.1235386512431918
 30
0.0
 41
1.0
 10
13.06721654741701
 20
0.2740866098387973
 30
0.0
 41
0.9830423763328535
 10
13.2883866039184
 20
0.3499999999999931
 30
0.0
 41
1.0
  0
POLYLINE
  5
AA
330
1F
100
AcDbEntity
  8
DEFAULT
100
AcDb2dPolyline
 66
     1
 10
0.0
 20
0.0
 30
0.0
  0
VERTEX
  5
AB
330
AA
100
AcDbEntity
  8
DEFAULT
100
AcDbVertex
100
AcDb2dVertex
 10
13.2883866039184
 20
0.3499999999999931
 30
0.0
  0
VERTEX
  5
AC
330
AA
100
AcDbEntity
  8
DEFAULT
100
AcDbVertex
100
AcDb2dVertex
 10
14.93671800372123
 20
0.3499999999999932
 30
0.0
  0
SEQEND
  5
AD
330
AA
100
AcDbEntity
  8
DEFAULT
  0
POLYLINE
  5
AE
330
1F
100
AcDbEntity
  8
DEFAULT
100
AcDb2dPolyline
 66
     1
 10
0.0
 20
0.0
 30
0.0
  0
VERTEX
  5
AF
330
AE
100
AcDbEntity
  8
DEFAULT
100
AcDbVertex
100
AcDb2dVertex
 10
1.00238660391841
 20
5.739999999999982
 30
0.0
  0
VERTEX
  5
B0
330
AE
100
AcDbEntity
  8
DEFAULT
100
AcDbVertex
100
AcDb2dVertex
 10
-0.9935683044509886
 20
5.739999999999982
 30
0.0
  0
SEQEND
  5
B1
330
AE
100
AcDbEntity
  8
DEFAULT
  0
ENDSEC
  0
SECTION
  2
OBJECTS
  0
DICTIONARY
  5
C
330
0
100
AcDbDictionary
281
     1
  3
ACAD_GROUP
350
D
  3
ACAD_LAYOUT
350
1A
  3
ACAD_MLEADERSTYLE
350
B3
  3
ACAD_MLINESTYLE
350
17
  3
ACAD_PLOTSETTINGS
350
19
  3
ACAD_PLOTSTYLENAME
350
E
  3
ACAD_TABLESTYLE
350
B2
  3
ACAD_VISUALSTYLE
350
2A
  0
DICTIONARY
  5
D
102
{ACAD_REACTORS
330
C
102
}
330
C
100
AcDbDictionary
281
     1
  0
DICTIONARY
  5
1A
102
{ACAD_REACTORS
330
C
102
}
330
C
100
AcDbDictionary
281
     1
  3
Layout1
350
1E
  3
Layout2
350
26
  3
Model
350
22
  0
DICTIONARY
  5
B3
102
{ACAD_REACTORS
330
C
102
}
330
C
100
AcDbDictionary
281
     1
  0
DICTIONARY
  5
17
102
{ACAD_REACTORS
330
C
102
}
330
C
100
AcDbDictionary
281
     1
  3
Standard
350
18
  0
DICTIONARY
  5
19
102
{ACAD_REACTORS
330
C
102
}
330
C
100
AcDbDictionary
281
     1
  0
ACDBDICTIONARYWDFLT
  5
E
102
{ACAD_REACTORS
330
C
102
}
330
C
100
AcDbDictionary
281
     1
  3
Normal
350
F
100
AcDbDictionaryWithDefault
340
F
  0
DICTIONARY
  5
B2
102
{ACAD_REACTORS
330
C
102
}
330
C
100
AcDbDictionary
281
     1
  0
DICTIONARY
  5
2A
102
{ACAD_REACTORS
330
C
102
}
330
C
100
AcDbDictionary
281
     1
  3
2dWireframe
350
2F
  3
3D Hidden
350
31
  3
3dWireframe
350
30
  3
Basic
350
32
  3
Brighten
350
36
  3
ColorChange
350
3A
  3
Conceptual
350
34
  3
Dim
350
35
  3
Facepattern
350
39
  3
Flat
350
2B
  3
FlatWithEdges
350
2C
  3
Gouraud
350
2D
  3
GouraudWithEdges
350
2E
  3
Linepattern
350
38
  3
Realistic
350
33
  3
Thicken
350
37
  0
LAYOUT
  5
1E
102
{ACAD_REACTORS
330
1A
102
}
330
1A
100
AcDbPlotSettings
  1

  2
none_device
  4

  6

 40
0.0
 41
0.0
 42
0.0
 43
0.0
 44
0.0
 45
0.0
 46
0.0
 47
0.0
 48
0.0
 49
0.0
140
0.0
141
0.0
142
1.0
143
1.0
 70
   688
 72
     0
 73
     0
 74
     5
  7

 75
    16
 76
     0
 77
     2
 78
   300
147
1.0
148
0.0
149
0.0
100
AcDbLayout
  1
Layout1
 70
     1
 71
     1
 10
0.0
 20
0.0
 11
12.0
 21
9.0
 12
0.0
 22
0.0
 32
0.0
 14
1.000000000000000E+20
 24
1.000000000000000E+20
 34
1.000000000000000E+20
 15
-1.000000000000000E+20
 25
-1.000000000000000E+20
 35
-1.000000000000000E+20
146
0.0
 13
0.0
 23
0.0
 33
0.0
 16
1.0
 26
0.0
 36
0.0
 17
0.0
 27
1.0
 37
0.0
 76
     0
330
1B
  0
LAYOUT
  5
26
102
{ACAD_REACTORS
330
1A
102
}
330
1A
100
AcDbPlotSettings
  1

  2
none_device
  4

  6

 40
0.0
 41
0.0
 42
0.0
 43
0.0
 44
0.0
 45
0.0
 46
0.0
 47
0.0
 48
0.0
 49
0.0
140
0.0
141
0.0
142
1.0
143
1.0
 70
   688
 72
     0
 73
     0
 74
     5
  7

 75
    16
 76
     0
 77
     2
 78
   300
147
1.0
148
0.0
149
0.0
100
AcDbLayout
  1
Layout2
 70
     1
 71
     2
 10
0.0
 20
0.0
 11
0.0
 21
0.0
 12
0.0
 22
0.0
 32
0.0
 14
0.0
 24
0.0
 34
0.0
 15
0.0
 25
0.0
 35
0.0
146
0.0
 13
0.0
 23
0.0
 33
0.0
 16
1.0
 26
0.0
 36
0.0
 17
0.0
 27
1.0
 37
0.0
 76
     0
330
23
  0
LAYOUT
  5
22
102
{ACAD_REACTORS
330
1A
102
}
330
1A
100
AcDbPlotSettings
  1

  2
none_device
  4

  6

 40
0.0
 41
0.0
 42
0.0
 43
0.0
 44
0.0
 45
0.0
 46
0.0
 47
0.0
 48
0.0
 49
0.0
140
0.0
141
0.0
142
1.0
143
1.0
 70
  1712
 72
     0
 73
     0
 74
     0
  7

 75
     0
 76
     0
 77
     2
 78
   300
147
1.0
148
0.0
149
0.0
100
AcDbLayout
  1
Model
 70
     1
 71
     0
 10
0.0
 20
0.0
 11
12.0
 21
9.0
 12
0.0
 22
0.0
 32
0.0
 14
-23.90441587486743
 24
0.000000000001469
 34
0.0
 15
23.90441587486564
 25
86.77497601536842
 35
0.0
146
0.0
 13
0.0
 23
0.0
 33
0.0
 16
1.0
 26
0.0
 36
0.0
 17
0.0
 27
1.0
 37
0.0
 76
     0
330
1F
331
29
  0
MLINESTYLE
  5
18
102
{ACAD_REACTORS
330
17
102
}
330
17
100
AcDbMlineStyle
  2
Standard
 70
     0
  3

 62
   256
 51
90.0
 52
90.0
 71
     2
 49
0.5
 62
   256
  6
BYLAYER
 49
-0.5
 62
   256
  6
BYLAYER
  0
ACDBPLACEHOLDER
  5
F
102
{ACAD_REACTORS
330
E
102
}
330
E
  0
VISUALSTYLE
  5
2F
102
{ACAD_REACTORS
330
2A
102
}
330
2A
100
AcDbVisualStyle
  2
2dWireframe
 70
     4
 71
     0
 72
     2
 73
     0
 90
        0
 40
-0.6
 41
-30.0
 62
     5
 63
     7
421
 16777215
 74
     1
 91
        4
 64
     7
 65
   257
 75
     1
175
     1
 42
1.0
 92
        0
 66
   257
 43
1.0
 76
     1
 77
     6
 78
     2
 67
     7
 79
     5
170
     0
171
     0
290
     0
174
     0
 93
        1
 44
0.0
173
     0
291
     0
 45
0.0
1001
ACAD
1000
AcDbSavedByObjectVersion
1070
     0
  0
VISUALSTYLE
  5
31
102
{ACAD_REACTORS
330
2A
102
}
330
2A
100
AcDbVisualStyle
  2
3D Hidden
 70
     6
 71
     1
 72
     2
 73
     2
 90
        0
 40
-0.6
 41
-30.0
 62
     5
 63
     7
421
 16777215
 74
     2
 91
        2
 64
     7
 65
   257
 75
     2
175
     1
 42
40.0
 92
        0
 66
   257
 43
1.0
 76
     1
 77
     6
 78
     2
 67
     7
 79
     3
170
     0
171
     0
290
     0
174
     0
 93
        1
 44
0.0
173
     0
291
     0
 45
0.0
1001
ACAD
1000
AcDbSavedByObjectVersion
1070
     0
  0
VISUALSTYLE
  5
30
102
{ACAD_REACTORS
330
2A
102
}
330
2A
100
AcDbVisualStyle
  2
3dWireframe
 70
     5
 71
     0
 72
     2
 73
     0
 90
        0
 40
-0.6
 41
-30.0
 62
     5
 63
     7
421
 16777215
 74
     1
 91
        4
 64
     7
 65
   257
 75
     1
175
     1
 42
1.0
 92
        0
 66
   257
 43
1.0
 76
     1
 77
     6
 78
     2
 67
     7
 79
     5
170
     0
171
     0
290
     0
174
     0
 93
        1
 44
0.0
173
     0
291
     0
 45
0.0
1001
ACAD
1000
AcDbSavedByObjectVersion
1070
     0
  0
VISUALSTYLE
  5
32
102
{ACAD_REACTORS
330
2A
102
}
330
2A
100
AcDbVisualStyle
  2
Basic
 70
     7
 71
     1
 72
     0
 73
     1
 90
        0
 40
-0.6
 41
-30.0
 62
     5
 63
     7
421
 16777215
 74
     0
 91
        4
 64
     7
 65
   257
 75
     1
175
     1
 42
1.0
 92
        8
 66
     7
 43
1.0
 76
     1
 77
     6
 78
     2
 67
     7
 79
     5
170
     0
171
     0
290
     0
174
     0
 93
        1
 44
0.0
173
     0
291
     1
 45
0.0
1001
ACAD
1000
AcDbSavedByObjectVersion
1070
     0
  0
VISUALSTYLE
  5
36
102
{ACAD_REACTORS
330
2A
102
}
330
2A
100
AcDbVisualStyle
  2
Brighten
 70
    12
 71
     2
 72
     2
 73
     0
 90
        0
 40
-0.6
 41
-30.0
 62
     5
 63
     7
421
 16777215
 74
     1
 91
        4
 64
     7
 65
   257
 75
     1
175
     1
 42
1.0
 92
        8
 66
     7
 43
1.0
 76
     1
 77
     6
 78
     2
 67
     7
 79
     5
170
     0
171
     0
290
     0
174
     0
 93
        1
 44
50.0
173
     0
291
     1
 45
0.0
1001
ACAD
1000
AcDbSavedByObjectVersion
1070
     0
  0
VISUALSTYLE
  5
3A
102
{ACAD_REACTORS
330
2A
102
}
330
2A
100
AcDbVisualStyle
  2
ColorChange
 70
    16
 71
     2
 72
     2
 73
     3
 90
        0
 40
-0.6
 41
-30.0
 62
     5
 63
     8
421
  8421504
 74
     1
 91
        4
 64
     7
 65
   257
 75
     1
175
     1
 42
1.0
 92
        8
 66
     8
424
  8421504
 43
1.0
 76
     1
 77
     6
 78
     2
 67
     7
 79
     5
170
     0
171
     0
290
     0
174
     0
 93
        1
 44
0.0
173
     0
291
     1
 45
0.0
1001
ACAD
1000
AcDbSavedByObjectVersion
1070
     0
  0
VISUALSTYLE
  5
34
102
{ACAD_REACTORS
330
2A
102
}
330
2A
100
AcDbVisualStyle
  2
Conceptual
 70
     9
 71
     3
 72
     2
 73
     0
 90
        0
 40
-0.6
 41
-30.0
 62
     5
 63
     7
421
 16777215
 74
     2
 91
        2
 64
     7
 65
   257
 75
     1
175
     1
 42
40.0
 92
        8
 66
     7
 43
1.0
 76
     1
 77
     6
 78
     2
 67
     7
 79
     3
170
     0
171
     0
290
     0
174
     0
 93
        1
 44
0.0
173
     0
291
     0
 45
0.0
1001
ACAD
1000
AcDbSavedByObjectVersion
1070
     0
  0
VISUALSTYLE
  5
35
102
{ACAD_REACTORS
330
2A
102
}
330
2A
100
AcDbVisualStyle
  2
Dim
 70
    11
 71
     2
 72
     2
 73
     0
 90
        0
 40
-0.6
 41
-30.0
 62
     5
 63
     7
421
 16777215
 74
     1
 91
        4
 64
     7
 65
   257
 75
     1
175
     1
 42
1.0
 92
        8
 66
     7
 43
1.0
 76
     1
 77
     6
 78
     2
 67
     7
 79
     5
170
     0
171
     0
290
     0
174
     0
 93
        1
 44
-50.0
173
     0
291
     1
 45
0.0
1001
ACAD
1000
AcDbSavedByObjectVersion
1070
     0
  0
VISUALSTYLE
  5
39
102
{ACAD_REACTORS
330
2A
102
}
330
2A
100
AcDbVisualStyle
  2
Facepattern
 70
    15
 71
     2
 72
     2
 73
     0
 90
        0
 40
-0.6
 41
-30.0
 62
     5
 63
     7
421
 16777215
 74
     1
 91
        4
 64
     7
 65
   257
 75
     1
175
     1
 42
1.0
 92
        8
 66
     7
 43
1.0
 76
     1
 77
     6
 78
     2
 67
     7
 79
     5
170
     0
171
     0
290
     0
174
     0
 93
        1
 44
0.0
173
     0
291
     1
 45
0.0
1001
ACAD
1000
AcDbSavedByObjectVersion
1070
     0
  0
VISUALSTYLE
  5
2B
102
{ACAD_REACTORS
330
2A
102
}
330
2A
100
AcDbVisualStyle
  2
Flat
 70
     0
 71
     2
 72
     1
 73
     1
 90
        2
 40
-0.6
 41
30.0
 62
     5
 63
     7
421
 16777215
 74
     0
 91
        4
 64
     7
 65
   257
 75
     1
175
     1
 42
1.0
 92
        8
 66
     7
 43
1.0
 76
     1
 77
     6
 78
     2
 67
     7
 79
     5
170
     0
171
     0
290
     0
174
     0
 93
       13
 44
0.0
173
     0
291
     1
 45
0.0
1001
ACAD
1000
AcDbSavedByObjectVersion
1070
     0
  0
VISUALSTYLE
  5
2C
102
{ACAD_REACTORS
330
2A
102
}
330
2A
100
AcDbVisualStyle
  2
FlatWithEdges
 70
     1
 71
     2
 72
     1
 73
     1
 90
        2
 40
-0.6
 41
30.0
 62
     5
 63
     7
421
 16777215
 74
     1
 91
        4
 64
     7
 65
   257
 75
     1
175
     1
 42
1.0
 92
        0
 66
   257
 43
1.0
 76
     1
 77
     6
 78
     2
 67
     7
 79
     5
170
     0
171
     0
290
     0
174
     0
 93
       13
 44
0.0
173
     0
291
     1
 45
0.0
1001
ACAD
1000
AcDbSavedByObjectVersion
1070
     0
  0
VISUALSTYLE
  5
2D
102
{ACAD_REACTORS
330
2A
102
}
330
2A
100
AcDbVisualStyle
  2
Gouraud
 70
     2
 71
     2
 72
     2
 73
     1
 90
        2
 40
-0.6
 41
30.0
 62
     5
 63
     7
421
 16777215
 74
     0
 91
        4
 64
     7
 65
   257
 75
     1
175
     1
 42
1.0
 92
        0
 66
     7
 43
1.0
 76
     1
 77
     6
 78
     2
 67
     7
 79
     5
170
     0
171
     0
290
     0
174
     0
 93
       13
 44
0.0
173
     0
291
     1
 45
0.0
1001
ACAD
1000
AcDbSavedByObjectVersion
1070
     0
  0
VISUALSTYLE
  5
2E
102
{ACAD_REACTORS
330
2A
102
}
330
2A
100
AcDbVisualStyle
  2
GouraudWithEdges
 70
     3
 71
     2
 72
     2
 73
     1
 90
        2
 40
-0.6
 41
30.0
 62
     5
 63
     7
421
 16777215
 74
     1
 91
        4
 64
     7
 65
   257
 75
     1
175
     1
 42
1.0
 92
        0
 66
   257
 43
1.0
 76
     1
 77
     6
 78
     2
 67
     7
 79
     5
170
     0
171
     0
290
     0
174
     0
 93
       13
 44
0.0
173
     0
291
     1
 45
0.0
1001
ACAD
1000
AcDbSavedByObjectVersion
1070
     0
  0
VISUALSTYLE
  5
38
102
{ACAD_REACTORS
330
2A
102
}
330
2A
100
AcDbVisualStyle
  2
Linepattern
 70
    14
 71
     2
 72
     2
 73
     0
 90
        0
 40
-0.6
 41
-30.0
 62
     5
 63
     7
421
 16777215
 74
     1
 91
        4
 64
     7
 65
   257
 75
     7
175
     7
 42
1.0
 92
        8
 66
     7
 43
1.0
 76
     1
 77
     6
 78
     2
 67
     7
 79
     5
170
     0
171
     0
290
     0
174
     0
 93
        1
 44
0.0
173
     0
291
     1
 45
0.0
1001
ACAD
1000
AcDbSavedByObjectVersion
1070
     0
  0
VISUALSTYLE
  5
33
102
{ACAD_REACTORS
330
2A
102
}
330
2A
100
AcDbVisualStyle
  2
Realistic
 70
     8
 71
     2
 72
     2
 73
     0
 90
        0
 40
-0.6
 41
-30.0
 62
     5
 63
     7
421
 16777215
 74
     1
 91
        0
 64
     7
 65
   257
 75
     1
175
     1
 42
1.0
 92
        8
 66
     8
424
  7895160
 43
1.0
 76
     1
 77
     6
 78
     2
 67
     7
 79
     5
170
     0
171
     0
290
     0
174
     0
 93
       13
 44
0.0
173
     0
291
     0
 45
0.0
1001
ACAD
1000
AcDbSavedByObjectVersion
1070
     0
  0
VISUALSTYLE
  5
37
102
{ACAD_REACTORS
330
2A
102
}
330
2A
100
AcDbVisualStyle
  2
Thicken
 70
    13
 71
     2
 72
     2
 73
     0
 90
        0
 40
-0.6
 41
-30.0
 62
     5
 63
     7
421
 16777215
 74
     1
 91
        4
 64
     7
 65
   257
 75
     1
175
     1
 42
1.0
 92
       12
 66
     7
 43
1.0
 76
     1
 77
     6
 78
     2
 67
     7
 79
     5
170
     0
171
     0
290
     0
174
     0
 93
        1
 44
0.0
173
     0
291
     1
 45
0.0
1001
ACAD
1000
AcDbSavedByObjectVersion
1070
     0
  0
ENDSEC
  0
EOF
