  0
SECTION
  2
HEADER
  9
$ACADVER
  1
AC1018
  9
$ACADMAINTVER
 70
     0
  9
$DWGCODEPAGE
  3
ANSI_1252
  9
$INSBASE
 10
0.0
 20
0.0
 30
0.0
  9
$EXTMIN
 10
-18.46426539820954
 20
-0.0000001137601211
 30
0.0
  9
$EXTMAX
 10
62.87011484752931
 20
76.69847055416834
 30
0.0
  9
$LIMMIN
 10
0.0
 20
0.0
  9
$LIMMAX
 10
12.0
 20
9.0
  9
$ORTHOMODE
 70
     0
  9
$REGENMODE
 70
     1
  9
$FILLMODE
 70
     1
  9
$QTEXTMODE
 70
     0
  9
$MIRRTEXT
 70
     1
  9
$LTSCALE
 40
0.0393700787401575
  9
$ATTMODE
 70
     1
  9
$TEXTSIZE
 40
0.2
  9
$TRACEWID
 40
0.05
  9
$TEXTSTYLE
  7
Standard
  9
$CLAYER
  8
Default
  9
$CELTYPE
  6
ByLayer
  9
$CECOLOR
 62
   256
  9
$CELTSCALE
 40
1.0
  9
$DISPSILH
 70
     0
  9
$DIMSCALE
 40
1.0
  9
$DIMASZ
 40
0.18
  9
$DIMEXO
 40
0.0625
  9
$DIMDLI
 40
0.38
  9
$DIMRND
 40
0.0
  9
$DIMDLE
 40
0.0
  9
$DIMEXE
 40
0.18
  9
$DIMTP
 40
0.0
  9
$DIMTM
 40
0.0
  9
$DIMTXT
 40
0.18
  9
$DIMCEN
 40
0.09
  9
$DIMTSZ
 40
0.0
  9
$DIMTOL
 70
     0
  9
$DIMLIM
 70
     0
  9
$DIMTIH
 70
     1
  9
$DIMTOH
 70
     1
  9
$DIMSE1
 70
     0
  9
$DIMSE2
 70
     0
  9
$DIMTAD
 70
     0
  9
$DIMZIN
 70
     0
  9
$DIMBLK
  1

  9
$DIMASO
 70
     1
  9
$DIMSHO
 70
     1
  9
$DIMPOST
  1

  9
$DIMAPOST
  1

  9
$DIMALT
 70
     0
  9
$DIMALTD
 70
     2
  9
$DIMALTF
 40
25.4
  9
$DIMLFAC
 40
1.0
  9
$DIMTOFL
 70
     0
  9
$DIMTVP
 40
0.0
  9
$DIMTIX
 70
     0
  9
$DIMSOXD
 70
     0
  9
$DIMSAH
 70
     0
  9
$DIMBLK1
  1

  9
$DIMBLK2
  1

  9
$DIMSTYLE
  2
Standard
  9
$DIMCLRD
 70
     0
  9
$DIMCLRE
 70
     0
  9
$DIMCLRT
 70
     0
  9
$DIMTFAC
 40
1.0
  9
$DIMGAP
 40
0.09
  9
$DIMJUST
 70
     0
  9
$DIMSD1
 70
     0
  9
$DIMSD2
 70
     0
  9
$DIMTOLJ
 70
     1
  9
$DIMTZIN
 70
     0
  9
$DIMALTZ
 70
     0
  9
$DIMALTTZ
 70
     0
  9
$DIMUPT
 70
     0
  9
$DIMDEC
 70
     4
  9
$DIMTDEC
 70
     4
  9
$DIMALTU
 70
     2
  9
$DIMALTTD
 70
     2
  9
$DIMTXSTY
  7
Standard
  9
$DIMAUNIT
 70
     0
  9
$DIMADEC
 70
     0
  9
$DIMALTRND
 40
0.0
  9
$DIMAZIN
 70
     0
  9
$DIMDSEP
 70
    46
  9
$DIMATFIT
 70
     3
  9
$DIMFRAC
 70
     0
  9
$DIMLDRBLK
  1

  9
$DIMLUNIT
 70
     2
  9
$DIMLWD
 70
    -2
  9
$DIMLWE
 70
    -2
  9
$DIMTMOVE
 70
     2
  9
$LUNITS
 70
     2
  9
$LUPREC
 70
     3
  9
$SKETCHINC
 40
0.1
  9
$FILLETRAD
 40
0.5
  9
$AUNITS
 70
     0
  9
$AUPREC
 70
     0
  9
$MENU
  1
.
  9
$ELEVATION
 40
0.0
  9
$PELEVATION
 40
0.0
  9
$THICKNESS
 40
0.0
  9
$LIMCHECK
 70
     0
  9
$CHAMFERA
 40
0.5
  9
$CHAMFERB
 40
0.5
  9
$CHAMFERC
 40
1.0
  9
$CHAMFERD
 40
0.0
  9
$SKPOLY
 70
     0
  9
$TDCREATE
 40
2457702.676437674
  9
$TDUCREATE
 40
2457702.884771007
  9
$TDUPDATE
 40
2457702.676437685
  9
$TDUUPDATE
 40
2457702.884771018
  9
$TDINDWG
 40
0.0000000116
  9
$TDUSRTIMER
 40
0.0000000116
  9
$USRTIMER
 70
     1
  9
$ANGBASE
 50
0.0
  9
$ANGDIR
 70
     0
  9
$PDMODE
 70
     0
  9
$PDSIZE
 40
0.0
  9
$PLINEWID
 40
0.0
  9
$SPLFRAME
 70
     0
  9
$SPLINETYPE
 70
     6
  9
$SPLINESEGS
 70
     8
  9
$HANDSEED
  5
CA
  9
$SURFTAB1
 70
     6
  9
$SURFTAB2
 70
     6
  9
$SURFTYPE
 70
     6
  9
$SURFU
 70
     6
  9
$SURFV
 70
     6
  9
$UCSBASE
  2

  9
$UCSNAME
  2

  9
$UCSORG
 10
0.0
 20
0.0
 30
0.0
  9
$UCSXDIR
 10
1.0
 20
0.0
 30
0.0
  9
$UCSYDIR
 10
0.0
 20
1.0
 30
0.0
  9
$UCSORTHOREF
  2

  9
$UCSORTHOVIEW
 70
     0
  9
$UCSORGTOP
 10
0.0
 20
0.0
 30
0.0
  9
$UCSORGBOTTOM
 10
0.0
 20
0.0
 30
0.0
  9
$UCSORGLEFT
 10
0.0
 20
0.0
 30
0.0
  9
$UCSORGRIGHT
 10
0.0
 20
0.0
 30
0.0
  9
$UCSORGFRONT
 10
0.0
 20
0.0
 30
0.0
  9
$UCSORGBACK
 10
0.0
 20
0.0
 30
0.0
  9
$PUCSBASE
  2

  9
$PUCSNAME
  2

  9
$PUCSORG
 10
0.0
 20
0.0
 30
0.0
  9
$PUCSXDIR
 10
1.0
 20
0.0
 30
0.0
  9
$PUCSYDIR
 10
0.0
 20
1.0
 30
0.0
  9
$PUCSORTHOREF
  2

  9
$PUCSORTHOVIEW
 70
     0
  9
$PUCSORGTOP
 10
0.0
 20
0.0
 30
0.0
  9
$PUCSORGBOTTOM
 10
0.0
 20
0.0
 30
0.0
  9
$PUCSORGLEFT
 10
0.0
 20
0.0
 30
0.0
  9
$PUCSORGRIGHT
 10
0.0
 20
0.0
 30
0.0
  9
$PUCSORGFRONT
 10
0.0
 20
0.0
 30
0.0
  9
$PUCSORGBACK
 10
0.0
 20
0.0
 30
0.0
  9
$USERI1
 70
     0
  9
$USERI2
 70
     0
  9
$USERI3
 70
     0
  9
$USERI4
 70
     0
  9
$USERI5
 70
     0
  9
$USERR1
 40
0.0
  9
$USERR2
 40
0.0
  9
$USERR3
 40
0.0
  9
$USERR4
 40
0.0
  9
$USERR5
 40
0.0
  9
$WORLDVIEW
 70
     1
  9
$SHADEDGE
 70
     3
  9
$SHADEDIF
 70
    70
  9
$TILEMODE
 70
     1
  9
$MAXACTVP
 70
    64
  9
$PINSBASE
 10
0.0
 20
0.0
 30
0.0
  9
$PLIMCHECK
 70
     0
  9
$PEXTMIN
 10
1.000000000000000E+20
 20
1.000000000000000E+20
 30
1.000000000000000E+20
  9
$PEXTMAX
 10
-1.000000000000000E+20
 20
-1.000000000000000E+20
 30
-1.000000000000000E+20
  9
$PLIMMIN
 10
0.0
 20
0.0
  9
$PLIMMAX
 10
12.0
 20
9.0
  9
$UNITMODE
 70
     0
  9
$VISRETAIN
 70
     1
  9
$PLINEGEN
 70
     0
  9
$PSLTSCALE
 70
     1
  9
$TREEDEPTH
 70
  3020
  9
$CMLSTYLE
  2
Standard
  9
$CMLJUST
 70
     0
  9
$CMLSCALE
 40
1.0
  9
$PROXYGRAPHICS
 70
     1
  9
$MEASUREMENT
 70
     0
  9
$CELWEIGHT
370
    -1
  9
$ENDCAPS
280
     0
  9
$JOINSTYLE
280
     0
  9
$LWDISPLAY
290
     0
  9
$INSUNITS
 70
     1
  9
$HYPERLINKBASE
  1

  9
$STYLESHEET
  1

  9
$XEDIT
290
     1
  9
$CEPSNTYPE
380
     0
  9
$PSTYLEMODE
290
     1
  9
$FINGERPRINTGUID
  2
{D59AB1B2-6F01-4E5B-9CBC-0B7B2F379CB3}
  9
$VERSIONGUID
  2
{FAEB1C32-E019-11D5-929B-00C0DF256EC4}
  9
$EXTNAMES
290
     1
  9
$PSVPSCALE
 40
0.0
  9
$OLESTARTUP
290
     0
  9
$SORTENTS
280
   127
  9
$INDEXCTL
280
     0
  9
$HIDETEXT
280
     1
  9
$XCLIPFRAME
290
     0
  9
$HALOGAP
280
     0
  9
$OBSCOLOR
 70
   257
  9
$OBSLTYPE
280
     0
  9
$INTERSECTIONDISPLAY
280
     0
  9
$INTERSECTIONCOLOR
 70
   257
  9
$DIMASSOC
280
     2
  9
$PROJECTNAME
  1

  0
ENDSEC
  0
SECTION
  2
CLASSES
  0
CLASS
  1
ACDBDICTIONARYWDFLT
  2
AcDbDictionaryWithDefault
  3
ObjectDBX Classes
 90
        0
 91
        4
280
     0
281
     0
  0
CLASS
  1
VISUALSTYLE
  2
AcDbVisualStyle
  3
ObjectDBX Classes
 90
     4095
 91
        4
280
     0
281
     0
  0
ENDSEC
  0
SECTION
  2
TABLES
  0
TABLE
  2
VPORT
  5
8
330
0
100
AcDbSymbolTable
 70
     1
  0
VPORT
  5
29
330
8
100
AcDbSymbolTableRecord
100
AcDbViewportTableRecord
  2
*Active
 70
     0
 10
0.0
 20
0.0
 11
1.0
 21
1.0
 12
22.20292472465989
 22
38.34923522020411
 13
0.0
 23
0.0
 14
0.5
 24
0.5
 15
0.5
 25
0.5
 16
0.0
 26
0.0
 36
1.0
 17
0.0
 27
0.0
 37
0.0
 40
78.23244008128704
 41
1.060443311808418
 42
50.0
 43
0.0
 44
0.0
 50
0.0
 51
0.0
 71
     0
 72
   100
 73
     1
 74
     3
 75
     0
 76
     0
 77
     0
 78
     0
281
     0
 65
     1
110
0.0
120
0.0
130
0.0
111
1.0
121
0.0
131
0.0
112
0.0
122
1.0
132
0.0
 79
     0
146
0.0
  0
ENDTAB
  0
TABLE
  2
LTYPE
  5
5
330
0
100
AcDbSymbolTable
 70
     1
  0
LTYPE
  5
14
330
5
100
AcDbSymbolTableRecord
100
AcDbLinetypeTableRecord
  2
ByBlock
 70
     0
  3

 72
    65
 73
     0
 40
0.0
  0
LTYPE
  5
15
330
5
100
AcDbSymbolTableRecord
100
AcDbLinetypeTableRecord
  2
ByLayer
 70
     0
  3

 72
    65
 73
     0
 40
0.0
  0
LTYPE
  5
16
330
5
100
AcDbSymbolTableRecord
100
AcDbLinetypeTableRecord
  2
Continuous
 70
     0
  3
Solid line
 72
    65
 73
     0
 40
0.0
  0
ENDTAB
  0
TABLE
  2
LAYER
  5
2
330
0
100
AcDbSymbolTable
 70
     2
  0
LAYER
  5
10
330
2
100
AcDbSymbolTableRecord
100
AcDbLayerTableRecord
  2
0
 70
     0
 62
     7
  6
Continuous
370
    -3
390
F
  0
LAYER
  5
3B
330
2
100
AcDbSymbolTableRecord
100
AcDbLayerTableRecord
  2
Default
 70
     0
 62
     7
  6
Continuous
370
    -3
390
F
  0
ENDTAB
  0
TABLE
  2
STYLE
  5
3
330
0
100
AcDbSymbolTable
 70
     1
  0
STYLE
  5
11
330
3
100
AcDbSymbolTableRecord
100
AcDbTextStyleTableRecord
  2
Standard
 70
     0
 40
0.0
 41
1.0
 50
0.0
 71
     0
 42
0.2
  3
txt
  4

  0
ENDTAB
  0
TABLE
  2
VIEW
  5
6
330
0
100
AcDbSymbolTable
 70
     0
  0
ENDTAB
  0
TABLE
  2
UCS
  5
7
330
0
100
AcDbSymbolTable
 70
     0
  0
ENDTAB
  0
TABLE
  2
APPID
  5
9
330
0
100
AcDbSymbolTable
 70
     1
  0
APPID
  5
12
330
9
100
AcDbSymbolTableRecord
100
AcDbRegAppTableRecord
  2
ACAD
 70
     0
  0
ENDTAB
  0
TABLE
  2
DIMSTYLE
  5
A
330
0
100
AcDbSymbolTable
 70
     1
100
AcDbDimStyleTable
  0
DIMSTYLE
105
27
330
A
100
AcDbSymbolTableRecord
100
AcDbDimStyleTableRecord
  2
Standard
 70
     0
340
11
  0
ENDTAB
  0
TABLE
  2
BLOCK_RECORD
  5
1
330
0
100
AcDbSymbolTable
 70
     1
  0
BLOCK_RECORD
  5
1F
330
1
100
AcDbSymbolTableRecord
100
AcDbBlockTableRecord
  2
*Model_Space
340
22
  0
BLOCK_RECORD
  5
1B
330
1
100
AcDbSymbolTableRecord
100
AcDbBlockTableRecord
  2
*Paper_Space
340
1E
  0
BLOCK_RECORD
  5
23
330
1
100
AcDbSymbolTableRecord
100
AcDbBlockTableRecord
  2
*Paper_Space0
340
26
  0
ENDTAB
  0
ENDSEC
  0
SECTION
  2
BLOCKS
  0
BLOCK
  5
20
330
1F
100
AcDbEntity
  8
0
100
AcDbBlockBegin
  2
*Model_Space
 70
     0
 10
0.0
 20
0.0
 30
0.0
  3
*Model_Space
  1

  0
ENDBLK
  5
21
330
1F
100
AcDbEntity
  8
0
100
AcDbBlockEnd
  0
BLOCK
  5
1C
330
1B
100
AcDbEntity
 67
     1
  8
0
100
AcDbBlockBegin
  2
*Paper_Space
 70
     0
 10
0.0
 20
0.0
 30
0.0
  3
*Paper_Space
  1

  0
ENDBLK
  5
1D
330
1B
100
AcDbEntity
 67
     1
  8
0
100
AcDbBlockEnd
  0
BLOCK
  5
24
330
23
100
AcDbEntity
  8
0
100
AcDbBlockBegin
  2
*Paper_Space0
 70
     0
 10
0.0
 20
0.0
 30
0.0
  3
*Paper_Space0
  1

  0
ENDBLK
  5
25
330
23
100
AcDbEntity
  8
0
100
AcDbBlockEnd
  0
ENDSEC
  0
SECTION
  2
ENTITIES
  0
ARC
  5
3C
330
1F
100
AcDbEntity
  8
Default
100
AcDbCircle
 10
-25.38144373761395
 20
58.82531779872364
 30
0.0
 40
15.07143535630798
100
AcDbArc
 50
316.3363854048243
 51
327.7864548225303
  0
SPLINE
  5
3D
330
1F
100
AcDbEntity
  8
Default
100
AcDbSpline
210
0.0
220
0.0
230
1.0
 70
     8
 71
     3
 72
    12
 73
     8
 74
     0
 42
0.0000000001
 43
0.0000000001
 40
-5.0
 40
-5.0
 40
-5.0
 40
-5.0
 40
-4.0
 40
-3.0
 40
-2.0
 40
-1.0
 40
0.0
 40
0.0
 40
0.0
 40
0.0
 10
-12.62999713367003
 20
50.79109268324814
 30
0.0
 10
-11.93134571387952
 20
51.89995086760096
 30
0.0
 10
-10.83656867368293
 20
54.27890235759824
 30
0.0
 10
-9.365904411805275
 20
57.92650619223966
 30
0.0
 10
-7.164490160854854
 20
61.20976594202495
 30
0.0
 10
-3.944905167769093
 20
63.5986965268526
 30
0.0
 10
-1.304703373162937
 20
64.0891597338572
 30
0.0
 10
-0.0000186739520416
 20
64.09011666751815
 30
0.0
  0
SPLINE
  5
3E
330
1F
100
AcDbEntity
  8
Default
100
AcDbSpline
210
0.0
220
0.0
230
1.0
 70
     8
 71
     3
 72
    12
 73
     8
 74
     0
 42
0.0000000001
 43
0.0000000001
 40
0.0000000000000003
 40
0.0000000000000003
 40
0.0000000000000003
 40
0.0000000000000003
 40
1.0
 40
2.0
 40
3.0
 40
4.0
 40
5.0
 40
5.0
 40
5.0
 40
5.0
 10
-0.0000186739520416
 20
64.09011666751815
 30
0.0
 10
1.304666025258854
 20
64.0891597338572
 30
0.0
 10
3.94486781986501
 20
63.5986965268526
 30
0.0
 10
7.164452812950771
 20
61.20976594202495
 30
0.0
 10
9.365867063901192
 20
57.92650619223966
 30
0.0
 10
10.83653132577885
 20
54.27890235759824
 30
0.0
 10
11.93130836597544
 20
51.89995086760098
 30
0.0
 10
12.62995978576595
 20
50.79109268324814
 30
0.0
  0
ARC
  5
3F
330
1F
100
AcDbEntity
  8
Default
100
AcDbCircle
 10
25.38140638971251
 20
58.82531779872529
 30
0.0
 40
15.07143535631108
100
AcDbArc
 50
212.2135451774678
 51
223.6636145893466
  0
SPLINE
  5
40
330
1F
100
AcDbEntity
  8
Default
100
AcDbSpline
210
0.0
220
0.0
230
1.0
 70
     8
 71
     3
 72
    12
 73
     8
 74
     0
 42
0.0000000001
 43
0.0000000001
 40
0.0
 40
0.0
 40
0.0
 40
0.0
 40
1.0
 40
2.0
 40
3.0
 40
4.0
 40
5.0
 40
5.0
 40
5.0
 40
5.0
 10
-0.000018850451994
 20
44.13036821950814
 30
0.0
 10
1.336093003375083
 20
44.13498920549647
 30
0.0
 10
4.011119407482823
 20
44.30785200177137
 30
0.0
 10
7.939035194019255
 20
45.14891384040338
 30
0.0
 10
11.72128761465066
 20
46.54010885013052
 30
0.0
 10
15.09940333250705
 20
48.73329468878265
 30
0.0
 10
17.0295977255021
 20
50.60565570860452
 30
0.0
 10
17.864160693868
 20
51.64936504393815
 30
0.0
  0
SPLINE
  5
41
330
1F
100
AcDbEntity
  8
Default
100
AcDbSpline
210
0.0
220
0.0
230
1.0
 70
     8
 71
     3
 72
    10
 73
     6
 74
     0
 42
0.0000000001
 43
0.0000000001
 40
0.0
 40
0.0
 40
0.0
 40
0.0
 40
1.0
 40
2.0
 40
3.0
 40
3.0
 40
3.0
 40
3.0
 10
17.864160693868
 20
51.64936504393815
 30
0.0
 10
18.08365795818295
 20
51.94440930977413
 30
0.0
 10
18.39053108391875
 20
52.62489872969628
 30
0.0
 10
18.50220140003015
 20
53.73017138261199
 30
0.0
 10
18.42278323811655
 20
54.46258962436262
 30
0.0
 10
18.35986952386799
 20
54.82413779540813
 30
0.0
  0
SPLINE
  5
42
330
1F
100
AcDbEntity
  8
Default
100
AcDbSpline
210
0.0
220
0.0
230
1.0
 70
     8
 71
     3
 72
    14
 73
    10
 74
     0
 42
0.0000000001
 43
0.0000000001
 40
-7.0
 40
-7.0
 40
-7.0
 40
-7.0
 40
-6.0
 40
-5.0
 40
-4.0
 40
-3.0
 40
-2.0
 40
-1.0
 40
0.0
 40
0.0
 40
0.0
 40
0.0
 10
18.35986952386799
 20
54.82413779540813
 30
0.0
 10
18.10162679412741
 20
56.2693549221575
 30
0.0
 10
17.46721544619876
 20
59.13824783098648
 30
0.0
 10
16.11301944211428
 20
63.33771225137915
 30
0.0
 10
14.13766632839898
 20
67.29215996430534
 30
0.0
 10
11.48316503431568
 20
70.82916092907476
 30
0.0
 10
8.221694001230674
 20
73.81972252019855
 30
0.0
 10
4.379756510525397
 20
76.04514610094964
 30
0.0
 10
1.471503581560654
 20
76.69920138208286
 30
0.0
 10
-0.0000186752260163
 20
76.69847055416813
 30
0.0
  0
SPLINE
  5
43
330
1F
100
AcDbEntity
  8
Default
100
AcDbSpline
210
0.0
220
0.0
230
1.0
 70
     8
 71
     3
 72
    14
 73
    10
 74
     0
 42
0.0000000001
 43
0.0000000001
 40
0.0
 40
0.0
 40
0.0
 40
0.0
 40
1.0
 40
2.0
 40
3.0
 40
4.0
 40
5.0
 40
6.0
 40
7.0
 40
7.0
 40
7.0
 40
7.0
 10
-0.0000186752260163
 20
76.69847055416813
 30
0.0
 10
-1.471540932012687
 20
76.69920138208286
 30
0.0
 10
-4.379793860977429
 20
76.04514610094964
 30
0.0
 10
-8.221731351682706
 20
73.81972252019855
 30
0.0
 10
-11.48320238476771
 20
70.82916092907476
 30
0.0
 10
-14.13770367885101
 20
67.29215996430534
 30
0.0
 10
-16.11305679256631
 20
63.33771225137915
 30
0.0
 10
-17.4672527966508
 20
59.13824783098648
 30
0.0
 10
-18.10166414457944
 20
56.2693549221575
 30
0.0
 10
-18.35990687432002
 20
54.82413779540813
 30
0.0
  0
SPLINE
  5
44
330
1F
100
AcDbEntity
  8
Default
100
AcDbSpline
210
0.0
220
0.0
230
1.0
 70
     8
 71
     3
 72
    10
 73
     6
 74
     0
 42
0.0000000001
 43
0.0000000001
 40
-3.0
 40
-3.0
 40
-3.0
 40
-3.0
 40
-2.0
 40
-1.0
 40
0.0
 40
0.0
 40
0.0
 40
0.0
 10
-18.35990687432002
 20
54.82413779540813
 30
0.0
 10
-18.42282058856858
 20
54.46258962436262
 30
0.0
 10
-18.50223875048218
 20
53.73017138261199
 30
0.0
 10
-18.39056843437078
 20
52.62489872969628
 30
0.0
 10
-18.08369530863499
 20
51.94440930977413
 30
0.0
 10
-17.86419804432003
 20
51.64936504393815
 30
0.0
  0
SPLINE
  5
45
330
1F
100
AcDbEntity
  8
Default
100
AcDbSpline
210
0.0
220
0.0
230
1.0
 70
     8
 71
     3
 72
    12
 73
     8
 74
     0
 42
0.0000000001
 43
0.0000000001
 40
-5.0
 40
-5.0
 40
-5.0
 40
-5.0
 40
-3.99999998251405
 40
-2.999999965028101
 40
-1.999999947542151
 40
-0.9999999300562011
 40
0.0
 40
0.0
 40
0.0
 40
0.0
 10
-17.86419804432003
 20
51.64936504393815
 30
0.0
 10
-17.02963507595413
 20
50.60565570860452
 30
0.0
 10
-15.09944068295908
 20
48.73329468878265
 30
0.0
 10
-11.7213249651027
 20
46.54010885013052
 30
0.0
 10
-7.939072544471287
 20
45.14891384040338
 30
0.0
 10
-4.011156872407071
 20
44.30785202628265
 30
0.0
 10
-1.336130587704019
 20
44.13498922060982
 30
0.0
 10
-0.000018850451994
 20
44.13036821950814
 30
0.0
  0
SPLINE
  5
46
330
1F
100
AcDbEntity
  8
Default
100
AcDbSpline
210
0.0
220
0.0
230
1.0
 70
    24
 71
     2
 72
     6
 73
     3
 74
     0
 42
0.0000000001
 43
0.0000000001
 40
-1.0
 40
-1.0
 40
-1.0
 40
0.0
 40
0.0
 40
0.0
 10
36.53334461862523
 20
0.0000001137601195
 30
0.0
 10
36.95932561862524
 20
0.0
 30
0.0
 10
37.38530661862524
 20
-0.0000001137601195
 30
0.0
  0
ARC
  5
47
330
1F
100
AcDbEntity
  8
Default
100
AcDbCircle
 10
37.38530661862524
 20
0.1560002036190404
 30
0.0
 40
0.1560003173791616
100
AcDbArc
 50
270.0
 51
0.9542353274369954
  0
SPLINE
  5
48
330
1F
100
AcDbEntity
  8
Default
100
AcDbSpline
210
0.0
220
0.0
230
1.0
 70
    24
 71
     2
 72
     6
 73
     3
 74
     0
 42
0.0000000001
 43
0.0000000001
 40
0.0
 40
0.0
 40
0.0
 40
1.0
 40
1.0
 40
1.0
 10
37.5412853012901
 20
0.158598198333479
 30
0.0
 10
37.53940244325167
 20
0.2719237006989044
 30
0.0
 10
37.53751958521324
 20
0.3852492030643297
 30
0.0
  0
ARC
  5
49
330
1F
100
AcDbEntity
  8
Default
100
AcDbCircle
 10
37.52252161862524
 20
0.3850002036190432
 30
0.0
 40
0.0150000334165922
100
AcDbArc
 50
0.9511493883656386
 51
90.0
  0
SPLINE
  5
4A
330
1F
100
AcDbEntity
  8
Default
100
AcDbSpline
210
0.0
220
0.0
230
1.0
 70
    24
 71
     2
 72
     6
 73
     3
 74
     0
 42
0.0000000001
 43
0.0000000001
 40
0.0
 40
0.0
 40
0.0
 40
1.0
 40
1.0
 40
1.0
 10
37.52252161862524
 20
0.4000002370356341
 30
0.0
 10
36.96245261862524
 20
0.4000001574101439
 30
0.0
 10
36.40238361862524
 20
0.4000000777846537
 30
0.0
  0
ARC
  5
4B
330
1F
100
AcDbEntity
  8
Default
100
AcDbCircle
 10
36.40238361862524
 20
0.3850002036190432
 30
0.0
 40
0.0149998741656119
100
AcDbArc
 50
90.0
 51
177.4590116358753
  0
SPLINE
  5
4C
330
1F
100
AcDbEntity
  8
Default
100
AcDbSpline
210
0.0
220
0.0
230
1.0
 70
    24
 71
     2
 72
     6
 73
     3
 74
     0
 42
0.0000000001
 43
0.0000000001
 40
0.0
 40
0.0
 40
0.0
 40
1.0
 40
1.0
 40
1.0
 10
36.38739849291458
 20
0.3856652091977928
 30
0.0
 10
36.38244860065496
 20
0.2742997044113622
 30
0.0
 10
36.37749870839534
 20
0.1629341996249316
 30
0.0
  0
ARC
  5
4D
330
1F
100
AcDbEntity
  8
Default
100
AcDbCircle
 10
36.5333446186252
 20
0.1560002036190404
 30
0.0
 40
0.156000089858892
100
AcDbArc
 50
177.4524396582778
 51
270.0000000000105
  0
SPLINE
  5
4E
330
1F
100
AcDbEntity
  8
Default
100
AcDbSpline
210
0.0
220
0.0
230
1.0
 70
    24
 71
     2
 72
     6
 73
     3
 74
     0
 42
0.0000000001
 43
0.0000000001
 40
0.0
 40
0.0
 40
0.0
 40
1.0
 40
1.0
 40
1.0
 10
46.82813261862524
 20
3.764203203619044
 30
0.0
 10
46.81612311862524
 20
3.764219703619043
 30
0.0
 10
46.80411361862523
 20
3.764236203619042
 30
0.0
  0
ARC
  5
4F
330
1F
100
AcDbEntity
  8
Default
100
AcDbCircle
 10
57.20624841537649
 20
0.4299822298391653
 30
0.0
 40
0.0301461525494779
100
AcDbArc
 50
275.9814716278315
 51
1.743069286894076
  0
SPLINE
  5
50
330
1F
100
AcDbEntity
  8
Default
100
AcDbSpline
210
0.0
220
0.0
230
1.0
 70
     8
 71
     3
 72
     8
 73
     4
 74
     0
 42
0.0000000001
 43
0.0000000001
 40
-1.0
 40
-1.0
 40
-1.0
 40
-1.0
 40
0.0
 40
0.0
 40
0.0
 40
0.0
 10
57.23638061862523
 20
0.4308992036190418
 30
0.0
 10
57.21698523829179
 20
1.080163077607679
 30
0.0
 10
57.19423282504477
 20
1.729323203528061
 30
0.0
 10
57.16911905383271
 20
2.378390146457519
 30
0.0
  0
SPLINE
  5
51
330
1F
100
AcDbEntity
  8
Default
100
AcDbSpline
210
0.0
220
0.0
230
1.0
 70
     8
 71
     3
 72
     8
 73
     4
 74
     0
 42
0.0000000001
 43
0.0000000001
 40
-1.0
 40
-1.0
 40
-1.0
 40
-1.0
 40
0.0
 40
0.0
 40
0.0
 40
0.0
 10
57.16911905383271
 20
2.378390146457519
 30
0.0
 10
57.15415591812616
 20
2.774819027172377
 30
0.0
 10
57.01226034340539
 20
3.099940349249
 30
0.0
 10
56.66424761862522
 20
3.201251203619041
 30
0.0
  0
LINE
  5
52
330
1F
100
AcDbEntity
  8
Default
100
AcDbLine
 10
56.66424761862522
 20
3.201251203619041
 30
0.0
 11
48.11599834461868
 21
5.700358621913665
 31
0.0
  0
LINE
  5
53
330
1F
100
AcDbEntity
  8
Default
100
AcDbLine
 10
48.11599834461868
 20
5.700358621913665
 30
0.0
 11
48.10262961862524
 21
6.463000203619043
 31
0.0
  0
SPLINE
  5
54
330
1F
100
AcDbEntity
  8
Default
100
AcDbSpline
210
0.0
220
0.0
230
1.0
 70
    24
 71
     2
 72
     6
 73
     3
 74
     0
 42
0.0000000001
 43
0.0000000001
 40
0.0
 40
0.0
 40
0.0
 40
1.0
 40
1.0
 40
1.0
 10
48.10262961862524
 20
6.463000203619043
 30
0.0
 10
46.81266811862523
 20
6.463000203619043
 30
0.0
 10
45.52270661862523
 20
6.463000203619043
 30
0.0
  0
LINE
  5
55
330
1F
100
AcDbEntity
  8
Default
100
AcDbLine
 10
45.52270661862523
 20
6.463000203619043
 30
0.0
 11
45.50933789263178
 21
5.700358621913665
 31
0.0
  0
LINE
  5
56
330
1F
100
AcDbEntity
  8
Default
100
AcDbLine
 10
45.50933789263178
 20
5.700358621913665
 30
0.0
 11
36.96108861862525
 21
3.201251203619041
 31
0.0
  0
SPLINE
  5
57
330
1F
100
AcDbEntity
  8
Default
100
AcDbSpline
210
0.0
220
0.0
230
1.0
 70
     8
 71
     3
 72
     8
 73
     4
 74
     0
 42
0.0000000001
 43
0.0000000001
 40
0.0
 40
0.0
 40
0.0
 40
0.0
 40
1.0
 40
1.0
 40
1.0
 40
1.0
 10
36.96108861862525
 20
3.201251203619041
 30
0.0
 10
36.61307589384507
 20
3.099940349249
 30
0.0
 10
36.47118031912431
 20
2.774819027172377
 30
0.0
 10
36.45621718341776
 20
2.378390146457519
 30
0.0
  0
SPLINE
  5
58
330
1F
100
AcDbEntity
  8
Default
100
AcDbSpline
210
0.0
220
0.0
230
1.0
 70
     8
 71
     3
 72
     8
 73
     4
 74
     0
 42
0.0000000001
 43
0.0000000001
 40
0.0
 40
0.0
 40
0.0
 40
0.0
 40
1.0
 40
1.0
 40
1.0
 40
1.0
 10
36.45621718341776
 20
2.378390146457519
 30
0.0
 10
36.43110341220569
 20
1.729323203528061
 30
0.0
 10
36.40835099895867
 20
1.080163077607679
 30
0.0
 10
36.38895561862524
 20
0.4308992036190418
 30
0.0
  0
ARC
  5
59
330
1F
100
AcDbEntity
  8
Default
100
AcDbCircle
 10
36.41908782187398
 20
0.4299822298391653
 30
0.0
 40
0.0301461525494779
100
AcDbArc
 50
178.2569307131059
 51
264.0185283721685
  0
POLYLINE
  5
5A
330
1F
100
AcDbEntity
  8
Default
100
AcDb2dPolyline
 66
     1
 10
0.0
 20
0.0
 30
0.0
  0
VERTEX
  5
5B
330
5A
100
AcDbEntity
  8
Default
100
AcDbVertex
100
AcDb2dVertex
 10
36.41594638633072
 20
0.4000002036190438
 30
0.0
  0
VERTEX
  5
5C
330
5A
100
AcDbEntity
  8
Default
100
AcDbVertex
100
AcDb2dVertex
 10
37.50836661862522
 20
0.4000002036190438
 30
0.0
  0
SEQEND
  5
5D
330
5A
100
AcDbEntity
  8
Default
  0
ARC
  5
5E
330
1F
100
AcDbEntity
  8
Default
100
AcDbCircle
 10
37.5083865889763
 20
0.4299791660751637
 30
0.0
 40
0.0299789691076987
100
AcDbArc
 50
269.9618326796843
 51
358.0177628547094
  0
SPLINE
  5
5F
330
1F
100
AcDbEntity
  8
Default
100
AcDbSpline
210
0.0
220
0.0
230
1.0
 70
     8
 71
     3
 72
     8
 73
     4
 74
     0
 42
0.0000000001
 43
0.0000000001
 40
0.0
 40
0.0
 40
0.0
 40
0.0
 40
1.0
 40
1.0
 40
1.0
 40
1.0
 10
37.53834761862525
 20
0.4289422036190409
 30
0.0
 10
37.55410728702049
 20
0.8716722302663911
 30
0.0
 10
37.56547255054159
 20
1.314567372908119
 30
0.0
 10
37.57118661862524
 20
1.757543203619043
 30
0.0
  0
SPLINE
  5
60
330
1F
100
AcDbEntity
  8
Default
100
AcDbSpline
210
0.0
220
0.0
230
1.0
 70
     8
 71
     3
 72
     8
 73
     4
 74
     0
 42
0.0000000001
 43
0.0000000001
 40
-1.0
 40
-1.0
 40
-1.0
 40
-1.0
 40
0.0
 40
0.0
 40
0.0
 40
0.0
 10
37.57118661862524
 20
1.757543203619043
 30
0.0
 10
37.57334960484517
 20
1.925225947954804
 30
0.0
 10
37.60746667442653
 20
2.060524703019183
 30
0.0
 10
37.74981261862522
 20
2.088165203619042
 30
0.0
  0
SPLINE
  5
61
330
1F
100
AcDbEntity
  8
Default
100
AcDbSpline
210
0.0
220
0.0
230
1.0
 70
     8
 71
     3
 72
     8
 73
     4
 74
     0
 42
0.0000000001
 43
0.0000000001
 40
0.0
 40
0.0
 40
0.0
 40
0.0
 40
1.0
 40
1.0
 40
1.0
 40
1.0
 10
37.74981261862522
 20
2.088165203619042
 30
0.0
 10
40.41600237615337
 20
2.605881532012845
 30
0.0
 10
43.07981510392577
 20
3.147074280150417
 30
0.0
 10
45.74884961862524
 20
3.638929203619043
 30
0.0
  0
SPLINE
  5
62
330
1F
100
AcDbEntity
  8
Default
100
AcDbSpline
210
0.0
220
0.0
230
1.0
 70
     8
 71
     3
 72
     8
 73
     4
 74
     0
 42
0.0000000001
 43
0.0000000001
 40
0.0
 40
0.0
 40
0.0
 40
0.0
 40
1.0
 40
1.0
 40
1.0
 40
1.0
 10
45.74884961862524
 20
3.638929203619043
 30
0.0
 10
46.03390814746715
 20
3.691460349288175
 30
0.0
 10
46.52483181329601
 20
3.764236203619042
 30
0.0
 10
46.81266811862523
 20
3.764236203619042
 30
0.0
  0
SPLINE
  5
63
330
1F
100
AcDbEntity
  8
Default
100
AcDbSpline
210
0.0
220
0.0
230
1.0
 70
     8
 71
     3
 72
     8
 73
     4
 74
     0
 42
0.0000000001
 43
0.0000000001
 40
-1.0
 40
-1.0
 40
-1.0
 40
-1.0
 40
0.0
 40
0.0
 40
0.0
 40
0.0
 10
46.81266811862523
 20
3.764236203619042
 30
0.0
 10
47.10050442395445
 20
3.764236203619042
 30
0.0
 10
47.59142808978331
 20
3.691460349288175
 30
0.0
 10
47.87648661862523
 20
3.638929203619043
 30
0.0
  0
SPLINE
  5
64
330
1F
100
AcDbEntity
  8
Default
100
AcDbSpline
210
0.0
220
0.0
230
1.0
 70
     8
 71
     3
 72
     8
 73
     4
 74
     0
 42
0.0000000001
 43
0.0000000001
 40
-1.0
 40
-1.0
 40
-1.0
 40
-1.0
 40
0.0
 40
0.0
 40
0.0
 40
0.0
 10
47.87648661862523
 20
3.638929203619043
 30
0.0
 10
50.54552113332469
 20
3.147074280150417
 30
0.0
 10
53.2093338610971
 20
2.605881532012845
 30
0.0
 10
55.87552361862524
 20
2.088165203619042
 30
0.0
  0
SPLINE
  5
65
330
1F
100
AcDbEntity
  8
Default
100
AcDbSpline
210
0.0
220
0.0
230
1.0
 70
     8
 71
     3
 72
     8
 73
     4
 74
     0
 42
0.0000000001
 43
0.0000000001
 40
0.0
 40
0.0
 40
0.0
 40
0.0
 40
1.0
 40
1.0
 40
1.0
 40
1.0
 10
55.87552361862524
 20
2.088165203619042
 30
0.0
 10
56.01786956282394
 20
2.060524703019183
 30
0.0
 10
56.0519866324053
 20
1.925225947954804
 30
0.0
 10
56.05414961862522
 20
1.757543203619043
 30
0.0
  0
SPLINE
  5
66
330
1F
100
AcDbEntity
  8
Default
100
AcDbSpline
210
0.0
220
0.0
230
1.0
 70
     8
 71
     3
 72
     8
 73
     4
 74
     0
 42
0.0000000001
 43
0.0000000001
 40
-1.0
 40
-1.0
 40
-1.0
 40
-1.0
 40
0.0
 40
0.0
 40
0.0
 40
0.0
 10
56.05414961862522
 20
1.757543203619043
 30
0.0
 10
56.05986368670887
 20
1.314567372908119
 30
0.0
 10
56.07122895022997
 20
0.8716722302663911
 30
0.0
 10
56.08698861862522
 20
0.4289422036190409
 30
0.0
  0
ARC
  5
67
330
1F
100
AcDbEntity
  8
Default
100
AcDbCircle
 10
56.11694964827416
 20
0.4299791660751637
 30
0.0
 40
0.0299789691076987
100
AcDbArc
 50
181.9822371452906
 51
270.0381673203157
  0
POLYLINE
  5
68
330
1F
100
AcDbEntity
  8
Default
100
AcDb2dPolyline
 66
     1
 10
0.0
 20
0.0
 30
0.0
  0
VERTEX
  5
69
330
68
100
AcDbEntity
  8
Default
100
AcDbVertex
100
AcDb2dVertex
 10
56.11696961862524
 20
0.4000002036190438
 30
0.0
  0
VERTEX
  5
6A
330
68
100
AcDbEntity
  8
Default
100
AcDbVertex
100
AcDb2dVertex
 10
57.20938985091974
 20
0.4000002036190438
 30
0.0
  0
SEQEND
  5
6B
330
68
100
AcDbEntity
  8
Default
  0
SPLINE
  5
6C
330
1F
100
AcDbEntity
  8
Default
100
AcDbSpline
210
0.0
220
0.0
230
1.0
 70
    24
 71
     2
 72
     6
 73
     3
 74
     0
 42
0.0000000001
 43
0.0000000001
 40
-1.0
 40
-1.0
 40
-1.0
 40
0.0
 40
0.0
 40
0.0
 10
57.09199161862524
 20
0.0000001137601195
 30
0.0
 10
56.66601061862523
 20
0.0
 30
0.0
 10
56.24002961862522
 20
-0.0000001137601195
 30
0.0
  0
ARC
  5
6D
330
1F
100
AcDbEntity
  8
Default
100
AcDbCircle
 10
56.24002961862522
 20
0.1560002036190404
 30
0.0
 40
0.1560003173791616
100
AcDbArc
 50
179.045764672563
 51
270.0
  0
SPLINE
  5
6E
330
1F
100
AcDbEntity
  8
Default
100
AcDbSpline
210
0.0
220
0.0
230
1.0
 70
    24
 71
     2
 72
     6
 73
     3
 74
     0
 42
0.0000000001
 43
0.0000000001
 40
0.0
 40
0.0
 40
0.0
 40
1.0
 40
1.0
 40
1.0
 10
56.08405093596037
 20
0.158598198333479
 30
0.0
 10
56.0859337939988
 20
0.2719237006989044
 30
0.0
 10
56.08781665203723
 20
0.3852492030643297
 30
0.0
  0
ARC
  5
6F
330
1F
100
AcDbEntity
  8
Default
100
AcDbCircle
 10
56.10281461862522
 20
0.3850002036190432
 30
0.0
 40
0.0150000334165922
100
AcDbArc
 50
90.0
 51
179.0488506116344
  0
SPLINE
  5
70
330
1F
100
AcDbEntity
  8
Default
100
AcDbSpline
210
0.0
220
0.0
230
1.0
 70
    24
 71
     2
 72
     6
 73
     3
 74
     0
 42
0.0000000001
 43
0.0000000001
 40
0.0
 40
0.0
 40
0.0
 40
1.0
 40
1.0
 40
1.0
 10
56.10281461862522
 20
0.4000002370356341
 30
0.0
 10
56.66288361862522
 20
0.4000001574101439
 30
0.0
 10
57.22295261862522
 20
0.4000000777846537
 30
0.0
  0
ARC
  5
71
330
1F
100
AcDbEntity
  8
Default
100
AcDbCircle
 10
57.22295261862522
 20
0.3850002036190432
 30
0.0
 40
0.0149998741656119
100
AcDbArc
 50
2.540988364124757
 51
90.0
  0
SPLINE
  5
72
330
1F
100
AcDbEntity
  8
Default
100
AcDbSpline
210
0.0
220
0.0
230
1.0
 70
    24
 71
     2
 72
     6
 73
     3
 74
     0
 42
0.0000000001
 43
0.0000000001
 40
0.0
 40
0.0
 40
0.0
 40
1.0
 40
1.0
 40
1.0
 10
57.23793774433589
 20
0.3856652091977928
 30
0.0
 10
57.2428876365955
 20
0.2742997044113622
 30
0.0
 10
57.24783752885512
 20
0.1629341996249316
 30
0.0
  0
ARC
  5
73
330
1F
100
AcDbEntity
  8
Default
100
AcDbCircle
 10
57.09199161862526
 20
0.1560002036190404
 30
0.0
 40
0.156000089858892
100
AcDbArc
 50
269.9999999999895
 51
2.547560341722255
  0
SPLINE
  5
74
330
1F
100
AcDbEntity
  8
Default
100
AcDbSpline
210
0.0
220
0.0
230
1.0
 70
    24
 71
     2
 72
     6
 73
     3
 74
     0
 42
0.0000000001
 43
0.0000000001
 40
0.0
 40
0.0
 40
0.0
 40
1.0
 40
1.0
 40
1.0
 10
56.66338761862523
 20
3.201502203619043
 30
0.0
 10
56.68276911862524
 20
3.195056703619043
 30
0.0
 10
56.70215061862525
 20
3.188611203619043
 30
0.0
  0
SPLINE
  5
75
330
1F
100
AcDbEntity
  8
Default
100
AcDbSpline
210
0.0
220
0.0
230
1.0
 70
    24
 71
     2
 72
     6
 73
     3
 74
     0
 42
0.0000000001
 43
0.0000000001
 40
0.0
 40
0.0
 40
0.0
 40
1.0
 40
1.0
 40
1.0
 10
56.66338761862523
 20
3.201502203619043
 30
0.0
 10
56.66381761862522
 20
3.201376703619042
 30
0.0
 10
56.66424761862522
 20
3.201251203619041
 30
0.0
  0
SPLINE
  5
76
330
1F
100
AcDbEntity
  8
Default
100
AcDbSpline
210
0.0
220
0.0
230
1.0
 70
    24
 71
     2
 72
     6
 73
     3
 74
     0
 42
0.0000000001
 43
0.0000000001
 40
0.0
 40
0.0
 40
0.0
 40
1.0
 40
1.0
 40
1.0
 10
55.54521861862523
 20
22.17405520361904
 30
0.0
 10
55.54688161862523
 20
22.17254020361904
 30
0.0
 10
55.54854461862522
 20
22.17102520361905
 30
0.0
  0
SPLINE
  5
77
330
1F
100
AcDbEntity
  8
Default
100
AcDbSpline
210
0.0
220
0.0
230
1.0
 70
    24
 71
     2
 72
     6
 73
     3
 74
     0
 42
0.0000000001
 43
0.0000000001
 40
-0.992333212475387
 40
-0.992333212475387
 40
-0.992333212475387
 40
-0.0000000290065147
 40
-0.0000000290065147
 40
-0.0000000290065147
 10
30.38891536200749
 20
28.06122631008916
 30
0.0
 10
35.98336932678648
 20
18.81786002704444
 30
0.0
 10
41.57782329156547
 20
9.574493743999717
 30
0.0
  0
LINE
  5
78
330
1F
100
AcDbEntity
  8
Default
100
AcDbLine
 10
41.57782329156547
 20
9.574493743999717
 30
0.0
 11
62.46500403168273
 21
12.13911626903579
 31
0.0
  0
LINE
  5
79
330
1F
100
AcDbEntity
  8
Default
100
AcDbLine
 10
62.46500403168273
 20
12.13911626903579
 30
0.0
 11
62.64120925574631
 21
12.47610239292761
 31
0.0
  0
SPLINE
  5
7A
330
1F
100
AcDbEntity
  8
Default
100
AcDbSpline
210
0.0
220
0.0
230
1.0
 70
     8
 71
     3
 72
    10
 73
     6
 74
     0
 42
0.0000000001
 43
0.0000000001
 40
-3.0
 40
-3.0
 40
-3.0
 40
-3.0
 40
-2.0
 40
-0.9999999999999999
 40
-0.3621758776358368
 40
-0.3621758776358368
 40
-0.3621758776358368
 40
-0.3621758776358368
 10
62.64120925574631
 20
12.47610239292761
 30
0.0
 10
62.79636239900012
 20
12.7728271729821
 30
0.0
 10
62.95905363116444
 20
13.44824719383475
 30
0.0
 10
62.70441932174158
 20
14.32220427772969
 30
0.0
 10
62.37836393072613
 20
14.76851114687652
 30
0.0
 10
62.23464472760961
 20
14.92721456436991
 30
0.0
  0
LINE
  5
7B
330
1F
100
AcDbEntity
  8
Default
100
AcDbLine
 10
62.23464472760961
 20
14.92721456436991
 30
0.0
 11
56.93697861862524
 21
20.77721720361905
 31
0.0
  0
SPLINE
  5
7C
330
1F
100
AcDbEntity
  8
Default
100
AcDbSpline
210
0.0
220
0.0
230
1.0
 70
     8
 71
     3
 72
    10
 73
     6
 74
     0
 42
0.0000000001
 43
0.0000000001
 40
-3.0
 40
-3.0
 40
-3.0
 40
-3.0
 40
-2.0
 40
-1.0
 40
0.0
 40
0.0
 40
0.0
 40
0.0
 10
56.93697861862524
 20
20.77721720361905
 30
0.0
 10
56.52728257217246
 20
21.1916370076544
 30
0.0
 10
55.74327958210808
 20
22.05697593205534
 30
0.0
 10
54.36389697398361
 20
23.14672538969963
 30
0.0
 10
53.30211069205794
 20
23.64743080866036
 30
0.0
 10
52.74784861862523
 20
23.82850020361904
 30
0.0
  0
POLYLINE
  5
7D
330
1F
100
AcDbEntity
  8
Default
100
AcDb2dPolyline
 66
     1
 10
0.0
 20
0.0
 30
0.0
  0
VERTEX
  5
7E
330
7D
100
AcDbEntity
  8
Default
100
AcDbVertex
100
AcDb2dVertex
 10
52.74784861862523
 20
23.82850020361904
 30
0.0
  0
VERTEX
  5
7F
330
7D
100
AcDbEntity
  8
Default
100
AcDbVertex
100
AcDb2dVertex
 10
33.29008061862522
 20
29.16174420361904
 30
0.0
  0
SEQEND
  5
80
330
7D
100
AcDbEntity
  8
Default
  0
SPLINE
  5
81
330
1F
100
AcDbEntity
  8
Default
100
AcDbSpline
210
0.0
220
0.0
230
1.0
 70
     8
 71
     3
 72
    10
 73
     6
 74
     0
 42
0.0000000001
 43
0.0000000001
 40
-3.0
 40
-3.0
 40
-3.0
 40
-3.0
 40
-2.0
 40
-1.0
 40
0.0
 40
0.0
 40
0.0
 40
0.0
 10
33.29008061862522
 20
29.16174420361904
 30
0.0
 10
32.96317924686605
 20
29.25134568203765
 30
0.0
 10
32.3133315363611
 20
29.29697013683884
 30
0.0
 10
31.30795520490305
 20
29.07527634872409
 30
0.0
 10
30.74519433948749
 20
28.66037643440008
 30
0.0
 10
30.57024261862524
 20
28.36616220361904
 30
0.0
  0
LINE
  5
82
330
1F
100
AcDbEntity
  8
Default
100
AcDbLine
 10
30.57024261862524
 20
28.36616220361904
 30
0.0
 11
30.38891536200749
 21
28.06122631008916
 31
0.0
  0
LINE
  5
83
330
1F
100
AcDbEntity
  8
Default
100
AcDbLine
 10
59.20172842182857
 20
18.2763437900399
 30
0.0
 11
41.57784961862522
 21
9.57445020361904
 31
0.0
  0
LINE
  5
84
330
1F
100
AcDbEntity
  8
Default
100
AcDbLine
 10
45.52266761862524
 20
6.463000203619032
 30
0.0
 11
45.52270361862524
 21
6.463000203619043
 31
0.0
  0
SPLINE
  5
85
330
1F
100
AcDbEntity
  8
Default
100
AcDbSpline
210
0.0
220
0.0
230
1.0
 70
    24
 71
     2
 72
     6
 73
     3
 74
     0
 42
0.0000000001
 43
0.0000000001
 40
-1.0
 40
-1.0
 40
-1.0
 40
0.0
 40
0.0
 40
0.0
 10
45.52270361862524
 20
6.463000203619043
 30
0.0
 10
46.81267686862522
 20
6.463000203619066
 30
0.0
 10
48.10265011862521
 20
6.463000203619089
 30
0.0
  0
LINE
  5
86
330
1F
100
AcDbEntity
  8
Default
100
AcDbLine
 10
48.10265011862521
 20
6.463000203619089
 30
0.0
 11
48.10266761862523
 21
10.37564364267376
 31
0.0
  0
POLYLINE
  5
87
330
1F
100
AcDbEntity
  8
Default
100
AcDb2dPolyline
 66
     1
 10
0.0
 20
0.0
 30
0.0
  0
VERTEX
  5
88
330
87
100
AcDbEntity
  8
Default
100
AcDbVertex
100
AcDb2dVertex
 10
48.10266761862523
 20
10.37564364267376
 30
0.0
  0
VERTEX
  5
89
330
87
100
AcDbEntity
  8
Default
100
AcDbVertex
100
AcDb2dVertex
 10
45.52266761862524
 20
10.05885957320456
 30
0.0
  0
SEQEND
  5
8A
330
87
100
AcDbEntity
  8
Default
  0
LINE
  5
8B
330
1F
100
AcDbEntity
  8
Default
100
AcDbLine
 10
45.52266761862524
 20
10.05885957320456
 30
0.0
 11
45.52266761862524
 21
6.503000203619042
 31
0.0
  0
LINE
  5
8C
330
1F
100
AcDbEntity
  8
Default
100
AcDbLine
 10
45.52266761862524
 20
6.503000203619042
 30
0.0
 11
45.52266761862524
 21
6.463000203619032
 31
0.0
  0
SPLINE
  5
8D
330
1F
100
AcDbEntity
  8
Default
100
AcDbSpline
210
0.0
220
0.0
230
1.0
 70
     8
 71
     3
 72
    19
 73
    15
 74
     0
 42
0.0000000001
 43
0.0000000001
 40
0.0
 40
0.0
 40
0.0
 40
0.0
 40
1.0
 40
2.0
 40
3.0
 40
4.0
 40
5.0
 40
6.0
 40
7.0
 40
8.0
 40
9.0
 40
10.0
 40
11.0
 40
12.0
 40
12.0
 40
12.0
 40
12.0
 10
16.57922689005056
 20
18.90127320361904
 30
0.0
 10
16.24102255298291
 20
18.51201709297599
 30
0.0
 10
15.58005343426254
 20
17.71991429471161
 30
0.0
 10
14.62672346363712
 20
16.50189504631066
 30
0.0
 10
13.68260850771946
 20
15.2748853055954
 30
0.0
 10
12.58248607733935
 20
14.18215009097093
 30
0.0
 10
11.37929562342327
 20
13.20727308679373
 30
0.0
 10
10.08349036445927
 20
12.35861598752163
 30
0.0
 10
8.718276396223075
 20
11.62825052011916
 30
0.0
 10
7.299603381639372
 20
11.00843777005351
 30
0.0
 10
5.839811774826956
 20
10.49343365270547
 30
0.0
 10
4.347794696848297
 20
10.08079354083297
 30
0.0
 10
2.828959556541179
 20
9.78073830911379
 30
0.0
 10
1.803878309226633
 20
9.659903444978333
 30
0.0
 10
1.289552755094775
 20
9.622213140129041
 30
0.0
  0
SPLINE
  5
8E
330
1F
100
AcDbEntity
  8
Default
100
AcDbSpline
210
0.0
220
0.0
230
1.0
 70
     8
 71
     3
 72
    24
 73
    20
 74
     0
 42
0.0000000001
 43
0.0000000001
 40
-17.0
 40
-17.0
 40
-17.0
 40
-17.0
 40
-16.0
 40
-15.0
 40
-14.0
 40
-13.0
 40
-12.0
 40
-11.0
 40
-10.0
 40
-9.0
 40
-8.0
 40
-7.0
 40
-6.0
 40
-5.0
 40
-4.0
 40
-3.0
 40
-2.0
 40
-1.0
 40
0.0
 40
0.0
 40
0.0
 40
0.0
 10
-18.35992537432017
 20
22.54209437767904
 30
0.0
 10
-18.1612338079799
 20
22.88915350191699
 30
0.0
 10
-17.78946690229662
 20
23.6011311673435
 30
0.0
 10
-17.04630970130069
 20
24.55045061926857
 30
0.0
 10
-16.14205835420918
 20
25.34664815733269
 30
0.0
 10
-15.14188382852458
 20
26.01495674452474
 30
0.0
 10
-14.06640818634634
 20
26.55287034165487
 30
0.0
 10
-12.95683158815305
 20
27.0127468703504
 30
0.0
 10
-11.82222954001094
 20
27.4071607927568
 30
0.0
 10
-10.67164917922372
 20
27.75142274150661
 30
0.0
 10
-9.509852942068392
 20
28.05558911345766
 30
0.0
 10
-8.33937885499546
 20
28.32436370423223
 30
0.0
 10
-7.161618807401879
 20
28.55914554934098
 30
0.0
 10
-5.977804881597052
 20
28.76099942297728
 30
0.0
 10
-4.789194192873651
 20
28.93232598367153
 30
0.0
 10
-3.596348188217092
 20
29.07119271481913
 30
0.0
 10
-2.40000123608948
 20
29.17583555699827
 30
0.0
 10
-1.200842546869097
 20
29.24190870191403
 30
0.0
 10
-0.4003103628137694
 20
29.25588776556035
 30
0.0
 10
-0.0000185000001807
 20
29.25578920361905
 30
0.0
  0
SPLINE
  5
8F
330
1F
100
AcDbEntity
  8
Default
100
AcDbSpline
210
0.0
220
0.0
230
1.0
 70
     8
 71
     3
 72
    24
 73
    20
 74
     0
 42
0.0000000001
 43
0.0000000001
 40
0.0
 40
0.0
 40
0.0
 40
0.0
 40
1.0
 40
2.0
 40
3.0
 40
4.0
 40
5.0
 40
6.0
 40
7.0
 40
8.0
 40
9.0
 40
10.0
 40
11.0
 40
12.0
 40
13.0
 40
14.0
 40
15.0
 40
16.0
 40
17.0
 40
17.0
 40
17.0
 40
17.0
 10
-0.0000185000001807
 20
29.25578920361905
 30
0.0
 10
0.4002733628134081
 20
29.25588776556035
 30
0.0
 10
1.200805546868736
 20
29.24190870191403
 30
0.0
 10
2.399964236089119
 20
29.17583555699827
 30
0.0
 10
3.596311188216731
 20
29.07119271481913
 30
0.0
 10
4.78915719287329
 20
28.93232598367153
 30
0.0
 10
5.977767881596691
 20
28.76099942297728
 30
0.0
 10
7.161581807401518
 20
28.55914554934098
 30
0.0
 10
8.339341854995098
 20
28.32436370423223
 30
0.0
 10
9.50981594206803
 20
28.05558911345766
 30
0.0
 10
10.67161217922336
 20
27.75142274150661
 30
0.0
 10
11.82219254001058
 20
27.4071607927568
 30
0.0
 10
12.95679458815269
 20
27.0127468703504
 30
0.0
 10
14.06637118634598
 20
26.55287034165487
 30
0.0
 10
15.14184682852422
 20
26.01495674452474
 30
0.0
 10
16.14202135420882
 20
25.34664815733269
 30
0.0
 10
17.04627270130032
 20
24.55045061926857
 30
0.0
 10
17.78942990229626
 20
23.6011311673435
 30
0.0
 10
18.16119680797954
 20
22.88915350191699
 30
0.0
 10
18.35988837431981
 20
22.54209437767904
 30
0.0
  0
SPLINE
  5
90
330
1F
100
AcDbEntity
  8
Default
100
AcDbSpline
210
0.0
220
0.0
230
1.0
 70
     8
 71
     3
 72
    29
 73
    25
 74
     0
 42
0.0000000001
 43
0.0000000001
 40
-22.0
 40
-22.0
 40
-22.0
 40
-22.0
 40
-21.0
 40
-20.0
 40
-19.0
 40
-18.0
 40
-17.0
 40
-16.0
 40
-15.0
 40
-14.0
 40
-13.0
 40
-12.0
 40
-11.0
 40
-10.0
 40
-9.0
 40
-8.0
 40
-7.0
 40
-6.0
 40
-5.0
 40
-4.0
 40
-3.0
 40
-2.0
 40
-1.0
 40
0.0
 40
0.0
 40
0.0
 40
0.0
 10
18.35988837431981
 20
22.54209437767904
 30
0.0
 10
18.53469798990648
 20
22.23112494388358
 30
0.0
 10
18.39873212459213
 20
21.51620157351315
 30
0.0
 10
17.90058859852616
 20
20.62111159254898
 30
0.0
 10
17.30363104671491
 20
19.77839959276888
 30
0.0
 10
16.65910718984159
 20
18.97566836072154
 30
0.0
 10
15.96343856155923
 20
18.21530098004674
 30
0.0
 10
15.22082383261358
 20
17.50136704756312
 30
0.0
 10
14.42978961468182
 20
16.84115085993897
 30
0.0
 10
13.60496816351426
 20
16.22418444633295
 30
0.0
 10
12.74813983703805
 20
15.65235300054527
 30
0.0
 10
11.86330081974273
 20
15.12500362049315
 30
0.0
 10
10.9527817923431
 20
14.64338222770835
 30
0.0
 10
10.02062625882448
 20
14.2051384141982
 30
0.0
 10
9.068416705304827
 20
13.81242274352743
 30
0.0
 10
8.099962860086919
 20
13.46177828412424
 30
0.0
 10
7.117147623184252
 20
13.15360284972157
 30
0.0
 10
6.121622335156133
 20
12.88948187255369
 30
0.0
 10
5.116504081266356
 20
12.66474420583777
 30
0.0
 10
4.103112784536336
 20
12.48072946619526
 30
0.0
 10
3.08293127728848
 20
12.33917790279909
 30
0.0
 10
2.057938230804069
 20
12.2383457360751
 30
0.0
 10
1.029753220627072
 20
12.17816412459255
 30
0.0
 10
0.3432452598485725
 20
12.16537137507618
 30
0.0
 10
-0.0000185000001807
 20
12.16543558330904
 30
0.0
  0
SPLINE
  5
91
330
1F
100
AcDbEntity
  8
Default
100
AcDbSpline
210
0.0
220
0.0
230
1.0
 70
     8
 71
     3
 72
    29
 73
    25
 74
     0
 42
0.0000000001
 43
0.0000000001
 40
0.0
 40
0.0
 40
0.0
 40
0.0
 40
1.0
 40
2.0
 40
3.0
 40
4.0
 40
5.0
 40
6.0
 40
7.0
 40
8.0
 40
9.0
 40
10.0
 40
11.0
 40
12.0
 40
13.0
 40
14.0
 40
15.0
 40
16.0
 40
17.0
 40
18.0
 40
19.0
 40
20.0
 40
21.0
 40
22.0
 40
22.0
 40
22.0
 40
22.0
 10
-0.0000185000001807
 20
12.16543558330904
 30
0.0
 10
-0.3432822598489338
 20
12.16537137507618
 30
0.0
 10
-1.029790220627433
 20
12.17816412459255
 30
0.0
 10
-2.057975230804431
 20
12.2383457360751
 30
0.0
 10
-3.082968277288842
 20
12.33917790279909
 30
0.0
 10
-4.103149784536697
 20
12.48072946619526
 30
0.0
 10
-5.116541081266718
 20
12.66474420583777
 30
0.0
 10
-6.121659335156494
 20
12.88948187255369
 30
0.0
 10
-7.117184623184613
 20
13.15360284972157
 30
0.0
 10
-8.09999986008728
 20
13.46177828412424
 30
0.0
 10
-9.068453705305188
 20
13.81242274352743
 30
0.0
 10
-10.02066325882484
 20
14.2051384141982
 30
0.0
 10
-10.95281879234346
 20
14.64338222770835
 30
0.0
 10
-11.86333781974309
 20
15.12500362049315
 30
0.0
 10
-12.74817683703841
 20
15.65235300054527
 30
0.0
 10
-13.60500516351462
 20
16.22418444633295
 30
0.0
 10
-14.42982661468218
 20
16.84115085993897
 30
0.0
 10
-15.22086083261394
 20
17.50136704756312
 30
0.0
 10
-15.96347556155959
 20
18.21530098004674
 30
0.0
 10
-16.65914418984195
 20
18.97566836072154
 30
0.0
 10
-17.30366804671527
 20
19.77839959276888
 30
0.0
 10
-17.90062559852652
 20
20.62111159254898
 30
0.0
 10
-18.39876912459249
 20
21.51620157351315
 30
0.0
 10
-18.53473498990684
 20
22.23112494388358
 30
0.0
 10
-18.35992537432017
 20
22.54209437767904
 30
0.0
  0
SPLINE
  5
92
330
1F
100
AcDbEntity
  8
Default
100
AcDbSpline
210
0.0
220
0.0
230
1.0
 70
     8
 71
     3
 72
    19
 73
    15
 74
     0
 42
0.0000000001
 43
0.0000000001
 40
0.0
 40
0.0
 40
0.0
 40
0.0
 40
1.0
 40
2.0
 40
3.0
 40
4.0
 40
5.0
 40
6.0
 40
7.0
 40
8.0
 40
9.0
 40
10.0
 40
11.0
 40
12.0
 40
12.0
 40
12.0
 40
12.0
 10
-12.63001563367018
 20
19.61946674117904
 30
0.0
 10
-12.00586947270543
 20
19.23033506503831
 30
0.0
 10
-10.71617845137689
 20
18.51216556313967
 30
0.0
 10
-8.657856888680044
 20
17.71046264193512
 30
0.0
 10
-6.575327747071242
 20
16.97022837164867
 30
0.0
 10
-4.408947410166746
 20
16.51777823894887
 30
0.0
 10
-2.208002038733781
 20
16.31897268797783
 30
0.0
 10
-0.000307027336504
 20
16.26676605751145
 30
0.0
 10
2.207537818230946
 20
16.31711220219992
 30
0.0
 10
4.408419813379396
 20
16.51840905178064
 30
0.0
 10
6.574163059956106
 20
16.97167779697251
 30
0.0
 10
8.658521434779459
 20
17.70720591297616
 30
0.0
 10
10.71332614413399
 20
18.51763589487308
 30
0.0
 10
12.00434930953637
 20
19.23257126147362
 30
0.0
 10
12.62994128576983
 20
19.61946674117904
 30
0.0
  0
SPLINE
  5
93
330
1F
100
AcDbEntity
  8
Default
100
AcDbSpline
210
0.0
220
0.0
230
1.0
 70
     8
 71
     3
 72
    19
 73
    15
 74
     0
 42
0.0000000001
 43
0.0000000001
 40
0.0
 40
0.0
 40
0.0
 40
0.0
 40
1.0
 40
2.0
 40
3.0
 40
4.0
 40
5.0
 40
6.0
 40
7.0
 40
8.0
 40
9.0
 40
10.0
 40
11.0
 40
12.0
 40
12.0
 40
12.0
 40
12.0
 10
-16.57979100000017
 20
18.90127320361904
 30
0.0
 10
-16.24158666293252
 20
18.51201709297599
 30
0.0
 10
-15.58061754421215
 20
17.71991429471161
 30
0.0
 10
-14.62728757358673
 20
16.50189504631066
 30
0.0
 10
-13.68317261766907
 20
15.2748853055954
 30
0.0
 10
-12.58305018728896
 20
14.18215009097093
 30
0.0
 10
-11.37985973337288
 20
13.20727308679373
 30
0.0
 10
-10.08405447440887
 20
12.35861598752163
 30
0.0
 10
-8.718840506172683
 20
11.62825052011916
 30
0.0
 10
-7.300167491588979
 20
11.00843777005351
 30
0.0
 10
-5.840375884776563
 20
10.49343365270547
 30
0.0
 10
-4.348358806797904
 20
10.08079354083297
 30
0.0
 10
-2.829523666490786
 20
9.78073830911379
 30
0.0
 10
-1.80444241917624
 20
9.659903444978333
 30
0.0
 10
-1.290116865044382
 20
9.622213140129041
 30
0.0
  0
SPLINE
  5
94
330
1F
100
AcDbEntity
  8
Default
100
AcDbSpline
210
0.0
220
0.0
230
1.0
 70
    24
 71
     2
 72
     6
 73
     3
 74
     0
 42
0.0000000001
 43
0.0000000001
 40
-1.0
 40
-1.0
 40
-1.0
 40
0.0
 40
0.0
 40
0.0
 10
10.27932349999998
 20
0.0000001137601195
 30
0.0
 10
9.853342499999968
 20
0.0
 30
0.0
 10
9.42736149999996
 20
-0.0000001137601195
 30
0.0
  0
ARC
  5
95
330
1F
100
AcDbEntity
  8
Default
100
AcDbCircle
 10
9.42736149999996
 20
0.1560002036190404
 30
0.0
 40
0.1560003173791616
100
AcDbArc
 50
179.045764672563
 51
270.0
  0
SPLINE
  5
96
330
1F
100
AcDbEntity
  8
Default
100
AcDbSpline
210
0.0
220
0.0
230
1.0
 70
    24
 71
     2
 72
     6
 73
     3
 74
     0
 42
0.0000000001
 43
0.0000000001
 40
0.0
 40
0.0
 40
0.0
 40
1.0
 40
1.0
 40
1.0
 10
9.271382817335109
 20
0.158598198333479
 30
0.0
 10
9.273265675373537
 20
0.2719237006989044
 30
0.0
 10
9.275148533411965
 20
0.3852492030643297
 30
0.0
  0
ARC
  5
97
330
1F
100
AcDbEntity
  8
Default
100
AcDbCircle
 10
9.290146499999963
 20
0.3850002036190432
 30
0.0
 40
0.0150000334165922
100
AcDbArc
 50
90.0
 51
179.0488506116344
  0
SPLINE
  5
98
330
1F
100
AcDbEntity
  8
Default
100
AcDbSpline
210
0.0
220
0.0
230
1.0
 70
    24
 71
     2
 72
     6
 73
     3
 74
     0
 42
0.0000000001
 43
0.0000000001
 40
0.0
 40
0.0
 40
0.0
 40
1.0
 40
1.0
 40
1.0
 10
9.290146499999963
 20
0.4000002370356341
 30
0.0
 10
9.850215499999962
 20
0.4000001574101439
 30
0.0
 10
10.41028449999996
 20
0.4000000777846537
 30
0.0
  0
ARC
  5
99
330
1F
100
AcDbEntity
  8
Default
100
AcDbCircle
 10
10.41028449999996
 20
0.3850002036190432
 30
0.0
 40
0.0149998741656119
100
AcDbArc
 50
2.540988364125058
 51
90.0
  0
SPLINE
  5
9A
330
1F
100
AcDbEntity
  8
Default
100
AcDbSpline
210
0.0
220
0.0
230
1.0
 70
    24
 71
     2
 72
     6
 73
     3
 74
     0
 42
0.0000000001
 43
0.0000000001
 40
0.0
 40
0.0
 40
0.0
 40
1.0
 40
1.0
 40
1.0
 10
10.42526962571063
 20
0.3856652091977928
 30
0.0
 10
10.43021951797024
 20
0.2742997044113622
 30
0.0
 10
10.43516941022986
 20
0.1629341996249316
 30
0.0
  0
ARC
  5
9B
330
1F
100
AcDbEntity
  8
Default
100
AcDbCircle
 10
10.2793235
 20
0.1560002036190404
 30
0.0
 40
0.156000089858892
100
AcDbArc
 50
269.9999999999895
 51
2.547560341722245
  0
SPLINE
  5
9C
330
1F
100
AcDbEntity
  8
Default
100
AcDbSpline
210
0.0
220
0.0
230
1.0
 70
    24
 71
     2
 72
     6
 73
     3
 74
     0
 42
0.0000000001
 43
0.0000000001
 40
0.0
 40
0.0
 40
0.0
 40
1.0
 40
1.0
 40
1.0
 10
-0.0154645000000357
 20
3.764203203619044
 30
0.0
 10
-0.0034550000000309
 20
3.764219703619043
 30
0.0
 10
0.008554499999974
 20
3.764236203619042
 30
0.0
  0
ARC
  5
9D
330
1F
100
AcDbEntity
  8
Default
100
AcDbCircle
 10
-10.39358029675128
 20
0.4299822298391653
 30
0.0
 40
0.0301461525494779
100
AcDbArc
 50
178.2569307131059
 51
264.0185283721685
  0
SPLINE
  5
9E
330
1F
100
AcDbEntity
  8
Default
100
AcDbSpline
210
0.0
220
0.0
230
1.0
 70
     8
 71
     3
 72
     8
 73
     4
 74
     0
 42
0.0000000001
 43
0.0000000001
 40
-1.0
 40
-1.0
 40
-1.0
 40
-1.0
 40
0.0
 40
0.0
 40
0.0
 40
0.0
 10
-10.42371250000002
 20
0.4308992036190418
 30
0.0
 10
-10.40431711966659
 20
1.080163077607679
 30
0.0
 10
-10.38156470641957
 20
1.729323203528061
 30
0.0
 10
-10.3564509352075
 20
2.378390146457519
 30
0.0
  0
SPLINE
  5
9F
330
1F
100
AcDbEntity
  8
Default
100
AcDbSpline
210
0.0
220
0.0
230
1.0
 70
     8
 71
     3
 72
     8
 73
     4
 74
     0
 42
0.0000000001
 43
0.0000000001
 40
-1.0
 40
-1.0
 40
-1.0
 40
-1.0
 40
0.0
 40
0.0
 40
0.0
 40
0.0
 10
-10.3564509352075
 20
2.378390146457519
 30
0.0
 10
-10.34148779950095
 20
2.774819027172377
 30
0.0
 10
-10.19959222478019
 20
3.099940349249
 30
0.0
 10
-9.851579500000014
 20
3.201251203619041
 30
0.0
  0
LINE
  5
A0
330
1F
100
AcDbEntity
  8
Default
100
AcDbLine
 10
-9.851579500000014
 20
3.201251203619041
 30
0.0
 11
-1.303330225993477
 21
5.700358621913665
 31
0.0
  0
LINE
  5
A1
330
1F
100
AcDbEntity
  8
Default
100
AcDbLine
 10
-1.303330225993477
 20
5.700358621913665
 30
0.0
 11
-1.289961500000032
 21
6.463000203619043
 31
0.0
  0
SPLINE
  5
A2
330
1F
100
AcDbEntity
  8
Default
100
AcDbSpline
210
0.0
220
0.0
230
1.0
 70
    24
 71
     2
 72
     6
 73
     3
 74
     0
 42
0.0000000001
 43
0.0000000001
 40
0.0
 40
0.0
 40
0.0
 40
1.0
 40
1.0
 40
1.0
 10
-1.289961500000032
 20
6.463000203619043
 30
0.0
 10
-0.0000000000000284
 20
6.463000203619043
 30
0.0
 10
1.289961499999976
 20
6.463000203619043
 30
0.0
  0
LINE
  5
A3
330
1F
100
AcDbEntity
  8
Default
100
AcDbLine
 10
1.289961499999976
 20
6.463000203619043
 30
0.0
 11
1.30333022599342
 21
5.700358621913665
 31
0.0
  0
LINE
  5
A4
330
1F
100
AcDbEntity
  8
Default
100
AcDbLine
 10
1.30333022599342
 20
5.700358621913665
 30
0.0
 11
9.851579499999957
 21
3.201251203619041
 31
0.0
  0
SPLINE
  5
A5
330
1F
100
AcDbEntity
  8
Default
100
AcDbSpline
210
0.0
220
0.0
230
1.0
 70
     8
 71
     3
 72
     8
 73
     4
 74
     0
 42
0.0000000001
 43
0.0000000001
 40
0.0
 40
0.0
 40
0.0
 40
0.0
 40
1.0
 40
1.0
 40
1.0
 40
1.0
 10
9.851579499999957
 20
3.201251203619041
 30
0.0
 10
10.19959222478013
 20
3.099940349249
 30
0.0
 10
10.3414877995009
 20
2.774819027172377
 30
0.0
 10
10.35645093520745
 20
2.378390146457519
 30
0.0
  0
SPLINE
  5
A6
330
1F
100
AcDbEntity
  8
Default
100
AcDbSpline
210
0.0
220
0.0
230
1.0
 70
     8
 71
     3
 72
     8
 73
     4
 74
     0
 42
0.0000000001
 43
0.0000000001
 40
0.0
 40
0.0
 40
0.0
 40
0.0
 40
1.0
 40
1.0
 40
1.0
 40
1.0
 10
10.35645093520745
 20
2.378390146457519
 30
0.0
 10
10.38156470641951
 20
1.729323203528061
 30
0.0
 10
10.40431711966653
 20
1.080163077607679
 30
0.0
 10
10.42371249999997
 20
0.4308992036190418
 30
0.0
  0
ARC
  5
A7
330
1F
100
AcDbEntity
  8
Default
100
AcDbCircle
 10
10.39358029675122
 20
0.4299822298391653
 30
0.0
 40
0.0301461525494779
100
AcDbArc
 50
275.9814716278315
 51
1.743069286894076
  0
POLYLINE
  5
A8
330
1F
100
AcDbEntity
  8
Default
100
AcDb2dPolyline
 66
     1
 10
0.0
 20
0.0
 30
0.0
  0
VERTEX
  5
A9
330
A8
100
AcDbEntity
  8
Default
100
AcDbVertex
100
AcDb2dVertex
 10
10.39672173229448
 20
0.4000002036190438
 30
0.0
  0
VERTEX
  5
AA
330
A8
100
AcDbEntity
  8
Default
100
AcDbVertex
100
AcDb2dVertex
 10
9.30430149999998
 20
0.4000002036190438
 30
0.0
  0
SEQEND
  5
AB
330
A8
100
AcDbEntity
  8
Default
  0
ARC
  5
AC
330
1F
100
AcDbEntity
  8
Default
100
AcDbCircle
 10
9.304281529648904
 20
0.4299791660751637
 30
0.0
 40
0.0299789691076987
100
AcDbArc
 50
181.9822371452906
 51
270.0381673203157
  0
SPLINE
  5
AD
330
1F
100
AcDbEntity
  8
Default
100
AcDbSpline
210
0.0
220
0.0
230
1.0
 70
     8
 71
     3
 72
     8
 73
     4
 74
     0
 42
0.0000000001
 43
0.0000000001
 40
0.0
 40
0.0
 40
0.0
 40
0.0
 40
1.0
 40
1.0
 40
1.0
 40
1.0
 10
9.274320499999959
 20
0.4289422036190409
 30
0.0
 10
9.258560831604711
 20
0.8716722302663911
 30
0.0
 10
9.247195568083612
 20
1.314567372908119
 30
0.0
 10
9.241481499999963
 20
1.757543203619043
 30
0.0
  0
SPLINE
  5
AE
330
1F
100
AcDbEntity
  8
Default
100
AcDbSpline
210
0.0
220
0.0
230
1.0
 70
     8
 71
     3
 72
     8
 73
     4
 74
     0
 42
0.0000000001
 43
0.0000000001
 40
-1.0
 40
-1.0
 40
-1.0
 40
-1.0
 40
0.0
 40
0.0
 40
0.0
 40
0.0
 10
9.241481499999963
 20
1.757543203619043
 30
0.0
 10
9.239318513780034
 20
1.925225947954804
 30
0.0
 10
9.205201444198678
 20
2.060524703019183
 30
0.0
 10
9.062855499999984
 20
2.088165203619042
 30
0.0
  0
SPLINE
  5
AF
330
1F
100
AcDbEntity
  8
Default
100
AcDbSpline
210
0.0
220
0.0
230
1.0
 70
     8
 71
     3
 72
     8
 73
     4
 74
     0
 42
0.0000000001
 43
0.0000000001
 40
0.0
 40
0.0
 40
0.0
 40
0.0
 40
1.0
 40
1.0
 40
1.0
 40
1.0
 10
9.062855499999984
 20
2.088165203619042
 30
0.0
 10
6.396665742471839
 20
2.605881532012845
 30
0.0
 10
3.73285301469943
 20
3.147074280150417
 30
0.0
 10
1.063818499999968
 20
3.638929203619043
 30
0.0
  0
SPLINE
  5
B0
330
1F
100
AcDbEntity
  8
Default
100
AcDbSpline
210
0.0
220
0.0
230
1.0
 70
     8
 71
     3
 72
     8
 73
     4
 74
     0
 42
0.0000000001
 43
0.0000000001
 40
0.0
 40
0.0
 40
0.0
 40
0.0
 40
1.0
 40
1.0
 40
1.0
 40
1.0
 10
1.063818499999968
 20
3.638929203619043
 30
0.0
 10
0.7787599711580526
 20
3.691460349288175
 30
0.0
 10
0.2878363053291935
 20
3.764236203619042
 30
0.0
 10
-0.0000000000000284
 20
3.764236203619042
 30
0.0
  0
SPLINE
  5
B1
330
1F
100
AcDbEntity
  8
Default
100
AcDbSpline
210
0.0
220
0.0
230
1.0
 70
     8
 71
     3
 72
     8
 73
     4
 74
     0
 42
0.0000000001
 43
0.0000000001
 40
-1.0
 40
-1.0
 40
-1.0
 40
-1.0
 40
0.0
 40
0.0
 40
0.0
 40
0.0
 10
-0.0000000000000284
 20
3.764236203619042
 30
0.0
 10
-0.2878363053292503
 20
3.764236203619042
 30
0.0
 10
-0.7787599711581095
 20
3.691460349288175
 30
0.0
 10
-1.063818500000025
 20
3.638929203619043
 30
0.0
  0
SPLINE
  5
B2
330
1F
100
AcDbEntity
  8
Default
100
AcDbSpline
210
0.0
220
0.0
230
1.0
 70
     8
 71
     3
 72
     8
 73
     4
 74
     0
 42
0.0000000001
 43
0.0000000001
 40
-1.0
 40
-1.0
 40
-1.0
 40
-1.0
 40
0.0
 40
0.0
 40
0.0
 40
0.0
 10
-1.063818500000025
 20
3.638929203619043
 30
0.0
 10
-3.732853014699486
 20
3.147074280150417
 30
0.0
 10
-6.396665742471896
 20
2.605881532012845
 30
0.0
 10
-9.06285550000004
 20
2.088165203619042
 30
0.0
  0
SPLINE
  5
B3
330
1F
100
AcDbEntity
  8
Default
100
AcDbSpline
210
0.0
220
0.0
230
1.0
 70
     8
 71
     3
 72
     8
 73
     4
 74
     0
 42
0.0000000001
 43
0.0000000001
 40
0.0
 40
0.0
 40
0.0
 40
0.0
 40
1.0
 40
1.0
 40
1.0
 40
1.0
 10
-9.06285550000004
 20
2.088165203619042
 30
0.0
 10
-9.205201444198735
 20
2.060524703019183
 30
0.0
 10
-9.239318513780091
 20
1.925225947954804
 30
0.0
 10
-9.24148150000002
 20
1.757543203619043
 30
0.0
  0
SPLINE
  5
B4
330
1F
100
AcDbEntity
  8
Default
100
AcDbSpline
210
0.0
220
0.0
230
1.0
 70
     8
 71
     3
 72
     8
 73
     4
 74
     0
 42
0.0000000001
 43
0.0000000001
 40
-1.0
 40
-1.0
 40
-1.0
 40
-1.0
 40
0.0
 40
0.0
 40
0.0
 40
0.0
 10
-9.24148150000002
 20
1.757543203619043
 30
0.0
 10
-9.247195568083669
 20
1.314567372908119
 30
0.0
 10
-9.258560831604768
 20
0.8716722302663911
 30
0.0
 10
-9.274320500000016
 20
0.4289422036190409
 30
0.0
  0
ARC
  5
B5
330
1F
100
AcDbEntity
  8
Default
100
AcDbCircle
 10
-9.30428152964896
 20
0.4299791660751637
 30
0.0
 40
0.0299789691076987
100
AcDbArc
 50
269.9618326796843
 51
358.0177628547094
  0
POLYLINE
  5
B6
330
1F
100
AcDbEntity
  8
Default
100
AcDb2dPolyline
 66
     1
 10
0.0
 20
0.0
 30
0.0
  0
VERTEX
  5
B7
330
B6
100
AcDbEntity
  8
Default
100
AcDbVertex
100
AcDb2dVertex
 10
-9.304301500000037
 20
0.4000002036190438
 30
0.0
  0
VERTEX
  5
B8
330
B6
100
AcDbEntity
  8
Default
100
AcDbVertex
100
AcDb2dVertex
 10
-10.39672173229454
 20
0.4000002036190438
 30
0.0
  0
SEQEND
  5
B9
330
B6
100
AcDbEntity
  8
Default
  0
SPLINE
  5
BA
330
1F
100
AcDbEntity
  8
Default
100
AcDbSpline
210
0.0
220
0.0
230
1.0
 70
    24
 71
     2
 72
     6
 73
     3
 74
     0
 42
0.0000000001
 43
0.0000000001
 40
-1.0
 40
-1.0
 40
-1.0
 40
0.0
 40
0.0
 40
0.0
 10
-10.27932350000003
 20
0.0000001137601195
 30
0.0
 10
-9.853342500000025
 20
0.0
 30
0.0
 10
-9.427361500000018
 20
-0.0000001137601195
 30
0.0
  0
ARC
  5
BB
330
1F
100
AcDbEntity
  8
Default
100
AcDbCircle
 10
-9.427361500000018
 20
0.1560002036190404
 30
0.0
 40
0.1560003173791616
100
AcDbArc
 50
270.0
 51
0.9542353274369845
  0
SPLINE
  5
BC
330
1F
100
AcDbEntity
  8
Default
100
AcDbSpline
210
0.0
220
0.0
230
1.0
 70
    24
 71
     2
 72
     6
 73
     3
 74
     0
 42
0.0000000001
 43
0.0000000001
 40
0.0
 40
0.0
 40
0.0
 40
1.0
 40
1.0
 40
1.0
 10
-9.271382817335166
 20
0.158598198333479
 30
0.0
 10
-9.273265675373594
 20
0.2719237006989044
 30
0.0
 10
-9.275148533412022
 20
0.3852492030643297
 30
0.0
  0
ARC
  5
BD
330
1F
100
AcDbEntity
  8
Default
100
AcDbCircle
 10
-9.29014650000002
 20
0.3850002036190432
 30
0.0
 40
0.0150000334165922
100
AcDbArc
 50
0.9511493883656386
 51
90.0
  0
SPLINE
  5
BE
330
1F
100
AcDbEntity
  8
Default
100
AcDbSpline
210
0.0
220
0.0
230
1.0
 70
    24
 71
     2
 72
     6
 73
     3
 74
     0
 42
0.0000000001
 43
0.0000000001
 40
0.0
 40
0.0
 40
0.0
 40
1.0
 40
1.0
 40
1.0
 10
-9.29014650000002
 20
0.4000002370356341
 30
0.0
 10
-9.850215500000019
 20
0.4000001574101439
 30
0.0
 10
-10.41028450000002
 20
0.4000000777846537
 30
0.0
  0
ARC
  5
BF
330
1F
100
AcDbEntity
  8
Default
100
AcDbCircle
 10
-10.41028450000002
 20
0.3850002036190432
 30
0.0
 40
0.0149998741656119
100
AcDbArc
 50
90.0
 51
177.459011635875
  0
SPLINE
  5
C0
330
1F
100
AcDbEntity
  8
Default
100
AcDbSpline
210
0.0
220
0.0
230
1.0
 70
    24
 71
     2
 72
     6
 73
     3
 74
     0
 42
0.0000000001
 43
0.0000000001
 40
0.0
 40
0.0
 40
0.0
 40
1.0
 40
1.0
 40
1.0
 10
-10.42526962571068
 20
0.3856652091977928
 30
0.0
 10
-10.4302195179703
 20
0.2742997044113622
 30
0.0
 10
-10.43516941022992
 20
0.1629341996249316
 30
0.0
  0
ARC
  5
C1
330
1F
100
AcDbEntity
  8
Default
100
AcDbCircle
 10
-10.27932350000006
 20
0.1560002036190404
 30
0.0
 40
0.156000089858892
100
AcDbArc
 50
177.4524396582778
 51
270.0000000000105
  0
LINE
  5
C2
330
1F
100
AcDbEntity
  8
Default
100
AcDbLine
 10
-1.289961500000032
 20
6.463000203619043
 30
0.0
 11
-1.290018500000201
 21
10.05885957320456
 31
0.0
  0
SPLINE
  5
C3
330
1F
100
AcDbEntity
  8
Default
100
AcDbSpline
210
0.0
220
0.0
230
1.0
 70
     8
 71
     3
 72
     9
 73
     5
 74
     0
 42
0.0000000001
 43
0.0000000001
 40
1.075252304077887
 40
1.075252304077887
 40
1.075252304077887
 40
1.075252304077887
 40
2.075252304077887
 40
3.075252304077887
 40
3.075252304077887
 40
3.075252304077887
 40
3.075252304077887
 10
-1.290018500000201
 20
10.05885957320456
 30
0.0
 10
-1.29001850000023
 20
10.37564364267382
 30
0.0
 10
-0.0000185000001807
 20
10.37564364267384
 30
0.0
 10
1.28998149999984
 20
10.37564364267385
 30
0.0
 10
1.28998149999984
 20
10.05885957320456
 30
0.0
  0
LINE
  5
C4
330
1F
100
AcDbEntity
  8
Default
100
AcDbLine
 10
1.28998149999984
 20
10.05885957320456
 30
0.0
 11
1.289942999999994
 21
6.463000203619039
 31
0.0
  0
SPLINE
  5
C5
330
1F
100
AcDbEntity
  8
Default
100
AcDbSpline
210
0.0
220
0.0
230
1.0
 70
    24
 71
     2
 72
     6
 73
     3
 74
     0
 42
0.0000000001
 43
0.0000000001
 40
-1.0
 40
-1.0
 40
-1.0
 40
0.0
 40
0.0
 40
0.0
 10
1.289942999999994
 20
6.463000203619039
 30
0.0
 10
-0.0000092500000193
 20
6.463000203619041
 30
0.0
 10
-1.289961500000032
 20
6.463000203619043
 30
0.0
  0
SPLINE
  5
C6
330
1F
100
AcDbEntity
  8
Default
100
AcDbSpline
210
0.0
220
0.0
230
1.0
 70
    24
 71
     2
 72
     6
 73
     3
 74
     0
 42
0.0000000001
 43
0.0000000001
 40
0.0
 40
0.0
 40
0.0
 40
1.0
 40
1.0
 40
1.0
 10
-9.850719500000025
 20
3.201502203619043
 30
0.0
 10
-9.870101000000034
 20
3.195056703619043
 30
0.0
 10
-9.889482500000042
 20
3.188611203619043
 30
0.0
  0
SPLINE
  5
C7
330
1F
100
AcDbEntity
  8
Default
100
AcDbSpline
210
0.0
220
0.0
230
1.0
 70
    24
 71
     2
 72
     6
 73
     3
 74
     0
 42
0.0000000001
 43
0.0000000001
 40
0.0
 40
0.0
 40
0.0
 40
1.0
 40
1.0
 40
1.0
 10
-9.850719500000025
 20
3.201502203619043
 30
0.0
 10
-9.85114950000002
 20
3.201376703619042
 30
0.0
 10
-9.851579500000014
 20
3.201251203619041
 30
0.0
  0
ENDSEC
  0
SECTION
  2
OBJECTS
  0
DICTIONARY
  5
C
330
0
100
AcDbDictionary
281
     1
  3
ACAD_GROUP
350
D
  3
ACAD_LAYOUT
350
1A
  3
ACAD_MLEADERSTYLE
350
C9
  3
ACAD_MLINESTYLE
350
17
  3
ACAD_PLOTSETTINGS
350
19
  3
ACAD_PLOTSTYLENAME
350
E
  3
ACAD_TABLESTYLE
350
C8
  3
ACAD_VISUALSTYLE
350
2A
  0
DICTIONARY
  5
D
102
{ACAD_REACTORS
330
C
102
}
330
C
100
AcDbDictionary
281
     1
  0
DICTIONARY
  5
1A
102
{ACAD_REACTORS
330
C
102
}
330
C
100
AcDbDictionary
281
     1
  3
Layout1
350
1E
  3
Layout2
350
26
  3
Model
350
22
  0
DICTIONARY
  5
C9
102
{ACAD_REACTORS
330
C
102
}
330
C
100
AcDbDictionary
281
     1
  0
DICTIONARY
  5
17
102
{ACAD_REACTORS
330
C
102
}
330
C
100
AcDbDictionary
281
     1
  3
Standard
350
18
  0
DICTIONARY
  5
19
102
{ACAD_REACTORS
330
C
102
}
330
C
100
AcDbDictionary
281
     1
  0
ACDBDICTIONARYWDFLT
  5
E
102
{ACAD_REACTORS
330
C
102
}
330
C
100
AcDbDictionary
281
     1
  3
Normal
350
F
100
AcDbDictionaryWithDefault
340
F
  0
DICTIONARY
  5
C8
102
{ACAD_REACTORS
330
C
102
}
330
C
100
AcDbDictionary
281
     1
  0
DICTIONARY
  5
2A
102
{ACAD_REACTORS
330
C
102
}
330
C
100
AcDbDictionary
281
     1
  3
2dWireframe
350
2F
  3
3D Hidden
350
31
  3
3dWireframe
350
30
  3
Basic
350
32
  3
Brighten
350
36
  3
ColorChange
350
3A
  3
Conceptual
350
34
  3
Dim
350
35
  3
Facepattern
350
39
  3
Flat
350
2B
  3
FlatWithEdges
350
2C
  3
Gouraud
350
2D
  3
GouraudWithEdges
350
2E
  3
Linepattern
350
38
  3
Realistic
350
33
  3
Thicken
350
37
  0
LAYOUT
  5
1E
102
{ACAD_REACTORS
330
1A
102
}
330
1A
100
AcDbPlotSettings
  1

  2
none_device
  4

  6

 40
0.0
 41
0.0
 42
0.0
 43
0.0
 44
0.0
 45
0.0
 46
0.0
 47
0.0
 48
0.0
 49
0.0
140
0.0
141
0.0
142
1.0
143
1.0
 70
   688
 72
     0
 73
     0
 74
     5
  7

 75
    16
 76
     0
 77
     2
 78
   300
147
1.0
148
0.0
149
0.0
100
AcDbLayout
  1
Layout1
 70
     1
 71
     1
 10
0.0
 20
0.0
 11
12.0
 21
9.0
 12
0.0
 22
0.0
 32
0.0
 14
1.000000000000000E+20
 24
1.000000000000000E+20
 34
1.000000000000000E+20
 15
-1.000000000000000E+20
 25
-1.000000000000000E+20
 35
-1.000000000000000E+20
146
0.0
 13
0.0
 23
0.0
 33
0.0
 16
1.0
 26
0.0
 36
0.0
 17
0.0
 27
1.0
 37
0.0
 76
     0
330
1B
  0
LAYOUT
  5
26
102
{ACAD_REACTORS
330
1A
102
}
330
1A
100
AcDbPlotSettings
  1

  2
none_device
  4

  6

 40
0.0
 41
0.0
 42
0.0
 43
0.0
 44
0.0
 45
0.0
 46
0.0
 47
0.0
 48
0.0
 49
0.0
140
0.0
141
0.0
142
1.0
143
1.0
 70
   688
 72
     0
 73
     0
 74
     5
  7

 75
    16
 76
     0
 77
     2
 78
   300
147
1.0
148
0.0
149
0.0
100
AcDbLayout
  1
Layout2
 70
     1
 71
     2
 10
0.0
 20
0.0
 11
0.0
 21
0.0
 12
0.0
 22
0.0
 32
0.0
 14
0.0
 24
0.0
 34
0.0
 15
0.0
 25
0.0
 35
0.0
146
0.0
 13
0.0
 23
0.0
 33
0.0
 16
1.0
 26
0.0
 36
0.0
 17
0.0
 27
1.0
 37
0.0
 76
     0
330
23
  0
LAYOUT
  5
22
102
{ACAD_REACTORS
330
1A
102
}
330
1A
100
AcDbPlotSettings
  1

  2
none_device
  4

  6

 40
0.0
 41
0.0
 42
0.0
 43
0.0
 44
0.0
 45
0.0
 46
0.0
 47
0.0
 48
0.0
 49
0.0
140
0.0
141
0.0
142
1.0
143
1.0
 70
  1712
 72
     0
 73
     0
 74
     0
  7

 75
     0
 76
     0
 77
     2
 78
   300
147
1.0
148
0.0
149
0.0
100
AcDbLayout
  1
Model
 70
     1
 71
     0
 10
0.0
 20
0.0
 11
12.0
 21
9.0
 12
0.0
 22
0.0
 32
0.0
 14
-18.46426539820954
 24
-0.0000001137601211
 34
0.0
 15
62.87011484752931
 25
76.69847055416834
 35
0.0
146
0.0
 13
0.0
 23
0.0
 33
0.0
 16
1.0
 26
0.0
 36
0.0
 17
0.0
 27
1.0
 37
0.0
 76
     0
330
1F
331
29
  0
MLINESTYLE
  5
18
102
{ACAD_REACTORS
330
17
102
}
330
17
100
AcDbMlineStyle
  2
Standard
 70
     0
  3

 62
   256
 51
90.0
 52
90.0
 71
     2
 49
0.5
 62
   256
  6
BYLAYER
 49
-0.5
 62
   256
  6
BYLAYER
  0
ACDBPLACEHOLDER
  5
F
102
{ACAD_REACTORS
330
E
102
}
330
E
  0
VISUALSTYLE
  5
2F
102
{ACAD_REACTORS
330
2A
102
}
330
2A
100
AcDbVisualStyle
  2
2dWireframe
 70
     4
 71
     0
 72
     2
 73
     0
 90
        0
 40
-0.6
 41
-30.0
 62
     5
 63
     7
421
 16777215
 74
     1
 91
        4
 64
     7
 65
   257
 75
     1
175
     1
 42
1.0
 92
        0
 66
   257
 43
1.0
 76
     1
 77
     6
 78
     2
 67
     7
 79
     5
170
     0
171
     0
290
     0
174
     0
 93
        1
 44
0.0
173
     0
291
     0
 45
0.0
1001
ACAD
1000
AcDbSavedByObjectVersion
1070
     0
  0
VISUALSTYLE
  5
31
102
{ACAD_REACTORS
330
2A
102
}
330
2A
100
AcDbVisualStyle
  2
3D Hidden
 70
     6
 71
     1
 72
     2
 73
     2
 90
        0
 40
-0.6
 41
-30.0
 62
     5
 63
     7
421
 16777215
 74
     2
 91
        2
 64
     7
 65
   257
 75
     2
175
     1
 42
40.0
 92
        0
 66
   257
 43
1.0
 76
     1
 77
     6
 78
     2
 67
     7
 79
     3
170
     0
171
     0
290
     0
174
     0
 93
        1
 44
0.0
173
     0
291
     0
 45
0.0
1001
ACAD
1000
AcDbSavedByObjectVersion
1070
     0
  0
VISUALSTYLE
  5
30
102
{ACAD_REACTORS
330
2A
102
}
330
2A
100
AcDbVisualStyle
  2
3dWireframe
 70
     5
 71
     0
 72
     2
 73
     0
 90
        0
 40
-0.6
 41
-30.0
 62
     5
 63
     7
421
 16777215
 74
     1
 91
        4
 64
     7
 65
   257
 75
     1
175
     1
 42
1.0
 92
        0
 66
   257
 43
1.0
 76
     1
 77
     6
 78
     2
 67
     7
 79
     5
170
     0
171
     0
290
     0
174
     0
 93
        1
 44
0.0
173
     0
291
     0
 45
0.0
1001
ACAD
1000
AcDbSavedByObjectVersion
1070
     0
  0
VISUALSTYLE
  5
32
102
{ACAD_REACTORS
330
2A
102
}
330
2A
100
AcDbVisualStyle
  2
Basic
 70
     7
 71
     1
 72
     0
 73
     1
 90
        0
 40
-0.6
 41
-30.0
 62
     5
 63
     7
421
 16777215
 74
     0
 91
        4
 64
     7
 65
   257
 75
     1
175
     1
 42
1.0
 92
        8
 66
     7
 43
1.0
 76
     1
 77
     6
 78
     2
 67
     7
 79
     5
170
     0
171
     0
290
     0
174
     0
 93
        1
 44
0.0
173
     0
291
     1
 45
0.0
1001
ACAD
1000
AcDbSavedByObjectVersion
1070
     0
  0
VISUALSTYLE
  5
36
102
{ACAD_REACTORS
330
2A
102
}
330
2A
100
AcDbVisualStyle
  2
Brighten
 70
    12
 71
     2
 72
     2
 73
     0
 90
        0
 40
-0.6
 41
-30.0
 62
     5
 63
     7
421
 16777215
 74
     1
 91
        4
 64
     7
 65
   257
 75
     1
175
     1
 42
1.0
 92
        8
 66
     7
 43
1.0
 76
     1
 77
     6
 78
     2
 67
     7
 79
     5
170
     0
171
     0
290
     0
174
     0
 93
        1
 44
50.0
173
     0
291
     1
 45
0.0
1001
ACAD
1000
AcDbSavedByObjectVersion
1070
     0
  0
VISUALSTYLE
  5
3A
102
{ACAD_REACTORS
330
2A
102
}
330
2A
100
AcDbVisualStyle
  2
ColorChange
 70
    16
 71
     2
 72
     2
 73
     3
 90
        0
 40
-0.6
 41
-30.0
 62
     5
 63
     8
421
  8421504
 74
     1
 91
        4
 64
     7
 65
   257
 75
     1
175
     1
 42
1.0
 92
        8
 66
     8
424
  8421504
 43
1.0
 76
     1
 77
     6
 78
     2
 67
     7
 79
     5
170
     0
171
     0
290
     0
174
     0
 93
        1
 44
0.0
173
     0
291
     1
 45
0.0
1001
ACAD
1000
AcDbSavedByObjectVersion
1070
     0
  0
VISUALSTYLE
  5
34
102
{ACAD_REACTORS
330
2A
102
}
330
2A
100
AcDbVisualStyle
  2
Conceptual
 70
     9
 71
     3
 72
     2
 73
     0
 90
        0
 40
-0.6
 41
-30.0
 62
     5
 63
     7
421
 16777215
 74
     2
 91
        2
 64
     7
 65
   257
 75
     1
175
     1
 42
40.0
 92
        8
 66
     7
 43
1.0
 76
     1
 77
     6
 78
     2
 67
     7
 79
     3
170
     0
171
     0
290
     0
174
     0
 93
        1
 44
0.0
173
     0
291
     0
 45
0.0
1001
ACAD
1000
AcDbSavedByObjectVersion
1070
     0
  0
VISUALSTYLE
  5
35
102
{ACAD_REACTORS
330
2A
102
}
330
2A
100
AcDbVisualStyle
  2
Dim
 70
    11
 71
     2
 72
     2
 73
     0
 90
        0
 40
-0.6
 41
-30.0
 62
     5
 63
     7
421
 16777215
 74
     1
 91
        4
 64
     7
 65
   257
 75
     1
175
     1
 42
1.0
 92
        8
 66
     7
 43
1.0
 76
     1
 77
     6
 78
     2
 67
     7
 79
     5
170
     0
171
     0
290
     0
174
     0
 93
        1
 44
-50.0
173
     0
291
     1
 45
0.0
1001
ACAD
1000
AcDbSavedByObjectVersion
1070
     0
  0
VISUALSTYLE
  5
39
102
{ACAD_REACTORS
330
2A
102
}
330
2A
100
AcDbVisualStyle
  2
Facepattern
 70
    15
 71
     2
 72
     2
 73
     0
 90
        0
 40
-0.6
 41
-30.0
 62
     5
 63
     7
421
 16777215
 74
     1
 91
        4
 64
     7
 65
   257
 75
     1
175
     1
 42
1.0
 92
        8
 66
     7
 43
1.0
 76
     1
 77
     6
 78
     2
 67
     7
 79
     5
170
     0
171
     0
290
     0
174
     0
 93
        1
 44
0.0
173
     0
291
     1
 45
0.0
1001
ACAD
1000
AcDbSavedByObjectVersion
1070
     0
  0
VISUALSTYLE
  5
2B
102
{ACAD_REACTORS
330
2A
102
}
330
2A
100
AcDbVisualStyle
  2
Flat
 70
     0
 71
     2
 72
     1
 73
     1
 90
        2
 40
-0.6
 41
30.0
 62
     5
 63
     7
421
 16777215
 74
     0
 91
        4
 64
     7
 65
   257
 75
     1
175
     1
 42
1.0
 92
        8
 66
     7
 43
1.0
 76
     1
 77
     6
 78
     2
 67
     7
 79
     5
170
     0
171
     0
290
     0
174
     0
 93
       13
 44
0.0
173
     0
291
     1
 45
0.0
1001
ACAD
1000
AcDbSavedByObjectVersion
1070
     0
  0
VISUALSTYLE
  5
2C
102
{ACAD_REACTORS
330
2A
102
}
330
2A
100
AcDbVisualStyle
  2
FlatWithEdges
 70
     1
 71
     2
 72
     1
 73
     1
 90
        2
 40
-0.6
 41
30.0
 62
     5
 63
     7
421
 16777215
 74
     1
 91
        4
 64
     7
 65
   257
 75
     1
175
     1
 42
1.0
 92
        0
 66
   257
 43
1.0
 76
     1
 77
     6
 78
     2
 67
     7
 79
     5
170
     0
171
     0
290
     0
174
     0
 93
       13
 44
0.0
173
     0
291
     1
 45
0.0
1001
ACAD
1000
AcDbSavedByObjectVersion
1070
     0
  0
VISUALSTYLE
  5
2D
102
{ACAD_REACTORS
330
2A
102
}
330
2A
100
AcDbVisualStyle
  2
Gouraud
 70
     2
 71
     2
 72
     2
 73
     1
 90
        2
 40
-0.6
 41
30.0
 62
     5
 63
     7
421
 16777215
 74
     0
 91
        4
 64
     7
 65
   257
 75
     1
175
     1
 42
1.0
 92
        0
 66
     7
 43
1.0
 76
     1
 77
     6
 78
     2
 67
     7
 79
     5
170
     0
171
     0
290
     0
174
     0
 93
       13
 44
0.0
173
     0
291
     1
 45
0.0
1001
ACAD
1000
AcDbSavedByObjectVersion
1070
     0
  0
VISUALSTYLE
  5
2E
102
{ACAD_REACTORS
330
2A
102
}
330
2A
100
AcDbVisualStyle
  2
GouraudWithEdges
 70
     3
 71
     2
 72
     2
 73
     1
 90
        2
 40
-0.6
 41
30.0
 62
     5
 63
     7
421
 16777215
 74
     1
 91
        4
 64
     7
 65
   257
 75
     1
175
     1
 42
1.0
 92
        0
 66
   257
 43
1.0
 76
     1
 77
     6
 78
     2
 67
     7
 79
     5
170
     0
171
     0
290
     0
174
     0
 93
       13
 44
0.0
173
     0
291
     1
 45
0.0
1001
ACAD
1000
AcDbSavedByObjectVersion
1070
     0
  0
VISUALSTYLE
  5
38
102
{ACAD_REACTORS
330
2A
102
}
330
2A
100
AcDbVisualStyle
  2
Linepattern
 70
    14
 71
     2
 72
     2
 73
     0
 90
        0
 40
-0.6
 41
-30.0
 62
     5
 63
     7
421
 16777215
 74
     1
 91
        4
 64
     7
 65
   257
 75
     7
175
     7
 42
1.0
 92
        8
 66
     7
 43
1.0
 76
     1
 77
     6
 78
     2
 67
     7
 79
     5
170
     0
171
     0
290
     0
174
     0
 93
        1
 44
0.0
173
     0
291
     1
 45
0.0
1001
ACAD
1000
AcDbSavedByObjectVersion
1070
     0
  0
VISUALSTYLE
  5
33
102
{ACAD_REACTORS
330
2A
102
}
330
2A
100
AcDbVisualStyle
  2
Realistic
 70
     8
 71
     2
 72
     2
 73
     0
 90
        0
 40
-0.6
 41
-30.0
 62
     5
 63
     7
421
 16777215
 74
     1
 91
        0
 64
     7
 65
   257
 75
     1
175
     1
 42
1.0
 92
        8
 66
     8
424
  7895160
 43
1.0
 76
     1
 77
     6
 78
     2
 67
     7
 79
     5
170
     0
171
     0
290
     0
174
     0
 93
       13
 44
0.0
173
     0
291
     0
 45
0.0
1001
ACAD
1000
AcDbSavedByObjectVersion
1070
     0
  0
VISUALSTYLE
  5
37
102
{ACAD_REACTORS
330
2A
102
}
330
2A
100
AcDbVisualStyle
  2
Thicken
 70
    13
 71
     2
 72
     2
 73
     0
 90
        0
 40
-0.6
 41
-30.0
 62
     5
 63
     7
421
 16777215
 74
     1
 91
        4
 64
     7
 65
   257
 75
     1
175
     1
 42
1.0
 92
       12
 66
     7
 43
1.0
 76
     1
 77
     6
 78
     2
 67
     7
 79
     5
170
     0
171
     0
290
     0
174
     0
 93
        1
 44
0.0
173
     0
291
     1
 45
0.0
1001
ACAD
1000
AcDbSavedByObjectVersion
1070
     0
  0
ENDSEC
  0
EOF
