  0
SECTION
  2
HEADER
  9
$ACADVER
  1
AC1018
  9
$ACADMAINTVER
 70
     0
  9
$DWGCODEPAGE
  3
ANSI_1252
  9
$INSBASE
 10
0.0
 20
0.0
 30
0.0
  9
$EXTMIN
 10
-18.46424689820937
 20
0.2500012036190462
 30
0.0
  9
$EXTMAX
 10
62.87013334752943
 20
89.24259755416837
 30
0.0
  9
$LIMMIN
 10
0.0
 20
0.0
  9
$LIMMAX
 10
12.0
 20
9.0
  9
$ORTHOMODE
 70
     0
  9
$REGENMODE
 70
     1
  9
$FILLMODE
 70
     1
  9
$QTEXTMODE
 70
     0
  9
$MIRRTEXT
 70
     1
  9
$LTSCALE
 40
0.0393700787401575
  9
$ATTMODE
 70
     1
  9
$TEXTSIZE
 40
0.2
  9
$TRACEWID
 40
0.05
  9
$TEXTSTYLE
  7
Standard
  9
$CLAYER
  8
Default
  9
$CELTYPE
  6
ByLayer
  9
$CECOLOR
 62
   256
  9
$CELTSCALE
 40
1.0
  9
$DISPSILH
 70
     0
  9
$DIMSCALE
 40
1.0
  9
$DIMASZ
 40
0.18
  9
$DIMEXO
 40
0.0625
  9
$DIMDLI
 40
0.38
  9
$DIMRND
 40
0.0
  9
$DIMDLE
 40
0.0
  9
$DIMEXE
 40
0.18
  9
$DIMTP
 40
0.0
  9
$DIMTM
 40
0.0
  9
$DIMTXT
 40
0.18
  9
$DIMCEN
 40
0.09
  9
$DIMTSZ
 40
0.0
  9
$DIMTOL
 70
     0
  9
$DIMLIM
 70
     0
  9
$DIMTIH
 70
     1
  9
$DIMTOH
 70
     1
  9
$DIMSE1
 70
     0
  9
$DIMSE2
 70
     0
  9
$DIMTAD
 70
     0
  9
$DIMZIN
 70
     0
  9
$DIMBLK
  1

  9
$DIMASO
 70
     1
  9
$DIMSHO
 70
     1
  9
$DIMPOST
  1

  9
$DIMAPOST
  1

  9
$DIMALT
 70
     0
  9
$DIMALTD
 70
     2
  9
$DIMALTF
 40
25.4
  9
$DIMLFAC
 40
1.0
  9
$DIMTOFL
 70
     0
  9
$DIMTVP
 40
0.0
  9
$DIMTIX
 70
     0
  9
$DIMSOXD
 70
     0
  9
$DIMSAH
 70
     0
  9
$DIMBLK1
  1

  9
$DIMBLK2
  1

  9
$DIMSTYLE
  2
Standard
  9
$DIMCLRD
 70
     0
  9
$DIMCLRE
 70
     0
  9
$DIMCLRT
 70
     0
  9
$DIMTFAC
 40
1.0
  9
$DIMGAP
 40
0.09
  9
$DIMJUST
 70
     0
  9
$DIMSD1
 70
     0
  9
$DIMSD2
 70
     0
  9
$DIMTOLJ
 70
     1
  9
$DIMTZIN
 70
     0
  9
$DIMALTZ
 70
     0
  9
$DIMALTTZ
 70
     0
  9
$DIMUPT
 70
     0
  9
$DIMDEC
 70
     4
  9
$DIMTDEC
 70
     4
  9
$DIMALTU
 70
     2
  9
$DIMALTTD
 70
     2
  9
$DIMTXSTY
  7
Standard
  9
$DIMAUNIT
 70
     0
  9
$DIMADEC
 70
     0
  9
$DIMALTRND
 40
0.0
  9
$DIMAZIN
 70
     0
  9
$DIMDSEP
 70
    46
  9
$DIMATFIT
 70
     3
  9
$DIMFRAC
 70
     0
  9
$DIMLDRBLK
  1

  9
$DIMLUNIT
 70
     2
  9
$DIMLWD
 70
    -2
  9
$DIMLWE
 70
    -2
  9
$DIMTMOVE
 70
     2
  9
$LUNITS
 70
     2
  9
$LUPREC
 70
     3
  9
$SKETCHINC
 40
0.1
  9
$FILLETRAD
 40
0.5
  9
$AUNITS
 70
     0
  9
$AUPREC
 70
     0
  9
$MENU
  1
.
  9
$ELEVATION
 40
0.0
  9
$PELEVATION
 40
0.0
  9
$THICKNESS
 40
0.0
  9
$LIMCHECK
 70
     0
  9
$CHAMFERA
 40
0.5
  9
$CHAMFERB
 40
0.5
  9
$CHAMFERC
 40
1.0
  9
$CHAMFERD
 40
0.0
  9
$SKPOLY
 70
     0
  9
$TDCREATE
 40
2457702.676827674
  9
$TDUCREATE
 40
2457702.885161007
  9
$TDUPDATE
 40
2457702.676827685
  9
$TDUUPDATE
 40
2457702.885161018
  9
$TDINDWG
 40
0.0000000116
  9
$TDUSRTIMER
 40
0.0000000116
  9
$USRTIMER
 70
     1
  9
$ANGBASE
 50
0.0
  9
$ANGDIR
 70
     0
  9
$PDMODE
 70
     0
  9
$PDSIZE
 40
0.0
  9
$PLINEWID
 40
0.0
  9
$SPLFRAME
 70
     0
  9
$SPLINETYPE
 70
     6
  9
$SPLINESEGS
 70
     8
  9
$HANDSEED
  5
FE
  9
$SURFTAB1
 70
     6
  9
$SURFTAB2
 70
     6
  9
$SURFTYPE
 70
     6
  9
$SURFU
 70
     6
  9
$SURFV
 70
     6
  9
$UCSBASE
  2

  9
$UCSNAME
  2

  9
$UCSORG
 10
0.0
 20
0.0
 30
0.0
  9
$UCSXDIR
 10
1.0
 20
0.0
 30
0.0
  9
$UCSYDIR
 10
0.0
 20
1.0
 30
0.0
  9
$UCSORTHOREF
  2

  9
$UCSORTHOVIEW
 70
     0
  9
$UCSORGTOP
 10
0.0
 20
0.0
 30
0.0
  9
$UCSORGBOTTOM
 10
0.0
 20
0.0
 30
0.0
  9
$UCSORGLEFT
 10
0.0
 20
0.0
 30
0.0
  9
$UCSORGRIGHT
 10
0.0
 20
0.0
 30
0.0
  9
$UCSORGFRONT
 10
0.0
 20
0.0
 30
0.0
  9
$UCSORGBACK
 10
0.0
 20
0.0
 30
0.0
  9
$PUCSBASE
  2

  9
$PUCSNAME
  2

  9
$PUCSORG
 10
0.0
 20
0.0
 30
0.0
  9
$PUCSXDIR
 10
1.0
 20
0.0
 30
0.0
  9
$PUCSYDIR
 10
0.0
 20
1.0
 30
0.0
  9
$PUCSORTHOREF
  2

  9
$PUCSORTHOVIEW
 70
     0
  9
$PUCSORGTOP
 10
0.0
 20
0.0
 30
0.0
  9
$PUCSORGBOTTOM
 10
0.0
 20
0.0
 30
0.0
  9
$PUCSORGLEFT
 10
0.0
 20
0.0
 30
0.0
  9
$PUCSORGRIGHT
 10
0.0
 20
0.0
 30
0.0
  9
$PUCSORGFRONT
 10
0.0
 20
0.0
 30
0.0
  9
$PUCSORGBACK
 10
0.0
 20
0.0
 30
0.0
  9
$USERI1
 70
     0
  9
$USERI2
 70
     0
  9
$USERI3
 70
     0
  9
$USERI4
 70
     0
  9
$USERI5
 70
     0
  9
$USERR1
 40
0.0
  9
$USERR2
 40
0.0
  9
$USERR3
 40
0.0
  9
$USERR4
 40
0.0
  9
$USERR5
 40
0.0
  9
$WORLDVIEW
 70
     1
  9
$SHADEDGE
 70
     3
  9
$SHADEDIF
 70
    70
  9
$TILEMODE
 70
     1
  9
$MAXACTVP
 70
    64
  9
$PINSBASE
 10
0.0
 20
0.0
 30
0.0
  9
$PLIMCHECK
 70
     0
  9
$PEXTMIN
 10
1.000000000000000E+20
 20
1.000000000000000E+20
 30
1.000000000000000E+20
  9
$PEXTMAX
 10
-1.000000000000000E+20
 20
-1.000000000000000E+20
 30
-1.000000000000000E+20
  9
$PLIMMIN
 10
0.0
 20
0.0
  9
$PLIMMAX
 10
12.0
 20
9.0
  9
$UNITMODE
 70
     0
  9
$VISRETAIN
 70
     1
  9
$PLINEGEN
 70
     0
  9
$PSLTSCALE
 70
     1
  9
$TREEDEPTH
 70
  3020
  9
$CMLSTYLE
  2
Standard
  9
$CMLJUST
 70
     0
  9
$CMLSCALE
 40
1.0
  9
$PROXYGRAPHICS
 70
     1
  9
$MEASUREMENT
 70
     0
  9
$CELWEIGHT
370
    -1
  9
$ENDCAPS
280
     0
  9
$JOINSTYLE
280
     0
  9
$LWDISPLAY
290
     0
  9
$INSUNITS
 70
     1
  9
$HYPERLINKBASE
  1

  9
$STYLESHEET
  1

  9
$XEDIT
290
     1
  9
$CEPSNTYPE
380
     0
  9
$PSTYLEMODE
290
     1
  9
$FINGERPRINTGUID
  2
{D70C3848-E037-45A9-A491-5D78A0AFD708}
  9
$VERSIONGUID
  2
{FAEB1C32-E019-11D5-929B-00C0DF256EC4}
  9
$EXTNAMES
290
     1
  9
$PSVPSCALE
 40
0.0
  9
$OLESTARTUP
290
     0
  9
$SORTENTS
280
   127
  9
$INDEXCTL
280
     0
  9
$HIDETEXT
280
     1
  9
$XCLIPFRAME
290
     0
  9
$HALOGAP
280
     0
  9
$OBSCOLOR
 70
   257
  9
$OBSLTYPE
280
     0
  9
$INTERSECTIONDISPLAY
280
     0
  9
$INTERSECTIONCOLOR
 70
   257
  9
$DIMASSOC
280
     2
  9
$PROJECTNAME
  1

  0
ENDSEC
  0
SECTION
  2
CLASSES
  0
CLASS
  1
ACDBDICTIONARYWDFLT
  2
AcDbDictionaryWithDefault
  3
ObjectDBX Classes
 90
        0
 91
        4
280
     0
281
     0
  0
CLASS
  1
VISUALSTYLE
  2
AcDbVisualStyle
  3
ObjectDBX Classes
 90
     4095
 91
        4
280
     0
281
     0
  0
ENDSEC
  0
SECTION
  2
TABLES
  0
TABLE
  2
VPORT
  5
8
330
0
100
AcDbSymbolTable
 70
     1
  0
VPORT
  5
29
330
8
100
AcDbSymbolTableRecord
100
AcDbViewportTableRecord
  2
*Active
 70
     0
 10
0.0
 20
0.0
 11
1.0
 21
1.0
 12
22.20294322466003
 22
44.74629937889371
 13
0.0
 23
0.0
 14
0.5
 24
0.5
 15
0.5
 25
0.5
 16
0.0
 26
0.0
 36
1.0
 17
0.0
 27
0.0
 37
0.0
 40
90.77244827756031
 41
0.9139454694113636
 42
50.0
 43
0.0
 44
0.0
 50
0.0
 51
0.0
 71
     0
 72
   100
 73
     1
 74
     3
 75
     0
 76
     0
 77
     0
 78
     0
281
     0
 65
     1
110
0.0
120
0.0
130
0.0
111
1.0
121
0.0
131
0.0
112
0.0
122
1.0
132
0.0
 79
     0
146
0.0
  0
ENDTAB
  0
TABLE
  2
LTYPE
  5
5
330
0
100
AcDbSymbolTable
 70
     1
  0
LTYPE
  5
14
330
5
100
AcDbSymbolTableRecord
100
AcDbLinetypeTableRecord
  2
ByBlock
 70
     0
  3

 72
    65
 73
     0
 40
0.0
  0
LTYPE
  5
15
330
5
100
AcDbSymbolTableRecord
100
AcDbLinetypeTableRecord
  2
ByLayer
 70
     0
  3

 72
    65
 73
     0
 40
0.0
  0
LTYPE
  5
16
330
5
100
AcDbSymbolTableRecord
100
AcDbLinetypeTableRecord
  2
Continuous
 70
     0
  3
Solid line
 72
    65
 73
     0
 40
0.0
  0
ENDTAB
  0
TABLE
  2
LAYER
  5
2
330
0
100
AcDbSymbolTable
 70
     2
  0
LAYER
  5
10
330
2
100
AcDbSymbolTableRecord
100
AcDbLayerTableRecord
  2
0
 70
     0
 62
     7
  6
Continuous
370
    -3
390
F
  0
LAYER
  5
3B
330
2
100
AcDbSymbolTableRecord
100
AcDbLayerTableRecord
  2
Default
 70
     0
 62
     7
  6
Continuous
370
    -3
390
F
  0
ENDTAB
  0
TABLE
  2
STYLE
  5
3
330
0
100
AcDbSymbolTable
 70
     1
  0
STYLE
  5
11
330
3
100
AcDbSymbolTableRecord
100
AcDbTextStyleTableRecord
  2
Standard
 70
     0
 40
0.0
 41
1.0
 50
0.0
 71
     0
 42
0.2
  3
txt
  4

  0
ENDTAB
  0
TABLE
  2
VIEW
  5
6
330
0
100
AcDbSymbolTable
 70
     0
  0
ENDTAB
  0
TABLE
  2
UCS
  5
7
330
0
100
AcDbSymbolTable
 70
     0
  0
ENDTAB
  0
TABLE
  2
APPID
  5
9
330
0
100
AcDbSymbolTable
 70
     1
  0
APPID
  5
12
330
9
100
AcDbSymbolTableRecord
100
AcDbRegAppTableRecord
  2
ACAD
 70
     0
  0
ENDTAB
  0
TABLE
  2
DIMSTYLE
  5
A
330
0
100
AcDbSymbolTable
 70
     1
100
AcDbDimStyleTable
  0
DIMSTYLE
105
27
330
A
100
AcDbSymbolTableRecord
100
AcDbDimStyleTableRecord
  2
Standard
 70
     0
340
11
  0
ENDTAB
  0
TABLE
  2
BLOCK_RECORD
  5
1
330
0
100
AcDbSymbolTable
 70
     1
  0
BLOCK_RECORD
  5
1F
330
1
100
AcDbSymbolTableRecord
100
AcDbBlockTableRecord
  2
*Model_Space
340
22
  0
BLOCK_RECORD
  5
1B
330
1
100
AcDbSymbolTableRecord
100
AcDbBlockTableRecord
  2
*Paper_Space
340
1E
  0
BLOCK_RECORD
  5
23
330
1
100
AcDbSymbolTableRecord
100
AcDbBlockTableRecord
  2
*Paper_Space0
340
26
  0
ENDTAB
  0
ENDSEC
  0
SECTION
  2
BLOCKS
  0
BLOCK
  5
20
330
1F
100
AcDbEntity
  8
0
100
AcDbBlockBegin
  2
*Model_Space
 70
     0
 10
0.0
 20
0.0
 30
0.0
  3
*Model_Space
  1

  0
ENDBLK
  5
21
330
1F
100
AcDbEntity
  8
0
100
AcDbBlockEnd
  0
BLOCK
  5
1C
330
1B
100
AcDbEntity
 67
     1
  8
0
100
AcDbBlockBegin
  2
*Paper_Space
 70
     0
 10
0.0
 20
0.0
 30
0.0
  3
*Paper_Space
  1

  0
ENDBLK
  5
1D
330
1B
100
AcDbEntity
 67
     1
  8
0
100
AcDbBlockEnd
  0
BLOCK
  5
24
330
23
100
AcDbEntity
  8
0
100
AcDbBlockBegin
  2
*Paper_Space0
 70
     0
 10
0.0
 20
0.0
 30
0.0
  3
*Paper_Space0
  1

  0
ENDBLK
  5
25
330
23
100
AcDbEntity
  8
0
100
AcDbBlockEnd
  0
ENDSEC
  0
SECTION
  2
ENTITIES
  0
SPLINE
  5
3C
330
1F
100
AcDbEntity
  8
Default
100
AcDbSpline
210
0.0
220
0.0
230
1.0
 70
     8
 71
     3
 72
    11
 73
     7
 74
     0
 42
0.0000000001
 43
0.0000000001
 40
3.815308456578702
 40
3.815308456578702
 40
3.815308456578702
 40
3.815308456578702
 40
4.0
 40
5.0
 40
6.0
 40
7.0
 40
7.0
 40
7.0
 40
7.0
 10
-13.58332742439099
 20
80.45126091728386
 30
0.0
 10
-13.7334895965531
 20
80.22554166054067
 30
0.0
 10
-14.67241437829774
 20
78.76158874382301
 30
0.0
 10
-16.11092679256599
 20
75.88183925137915
 30
0.0
 10
-17.46512279665048
 20
71.6823748309865
 30
0.0
 10
-18.09953414457912
 20
68.81348192215751
 30
0.0
 10
-18.3577768743197
 20
67.36826479540815
 30
0.0
  0
SPLINE
  5
3D
330
1F
100
AcDbEntity
  8
Default
100
AcDbSpline
210
0.0
220
0.0
230
1.0
 70
     8
 71
     3
 72
    10
 73
     6
 74
     0
 42
0.0000000001
 43
0.0000000001
 40
-3.0
 40
-3.0
 40
-3.0
 40
-3.0
 40
-2.0
 40
-1.0
 40
0.0
 40
0.0
 40
0.0
 40
0.0
 10
-18.3577768743197
 20
67.36826479540815
 30
0.0
 10
-18.42069058856826
 20
67.00671662436264
 30
0.0
 10
-18.50010875048186
 20
66.27429838261199
 30
0.0
 10
-18.38843843437046
 20
65.16902572969629
 30
0.0
 10
-18.08156530863467
 20
64.48853630977413
 30
0.0
 10
-17.86206804431971
 20
64.19349204393815
 30
0.0
  0
SPLINE
  5
3E
330
1F
100
AcDbEntity
  8
Default
100
AcDbSpline
210
0.0
220
0.0
230
1.0
 70
     8
 71
     3
 72
    12
 73
     8
 74
     0
 42
0.0000000001
 43
0.0000000001
 40
-5.0
 40
-5.0
 40
-5.0
 40
-5.0
 40
-3.99999998251405
 40
-2.999999965028101
 40
-1.999999947542151
 40
-0.9999999300562011
 40
0.0
 40
0.0
 40
0.0
 40
0.0
 10
-17.86206804431971
 20
64.19349204393815
 30
0.0
 10
-17.02750507595381
 20
63.14978270860452
 30
0.0
 10
-15.09731068295876
 20
61.27742168878265
 30
0.0
 10
-11.71919496510237
 20
59.08423585013053
 30
0.0
 10
-7.936942544470966
 20
57.69304084040338
 30
0.0
 10
-4.00902687240675
 20
56.85197902628265
 30
0.0
 10
-1.334000587703699
 20
56.67911622060983
 30
0.0
 10
0.0021111495483268
 20
56.67449521950815
 30
0.0
  0
SPLINE
  5
3F
330
1F
100
AcDbEntity
  8
Default
100
AcDbSpline
210
0.0
220
0.0
230
1.0
 70
     8
 71
     3
 72
    12
 73
     8
 74
     0
 42
0.0000000001
 43
0.0000000001
 40
0.0
 40
0.0
 40
0.0
 40
0.0
 40
1.0
 40
2.0
 40
3.0
 40
4.0
 40
5.0
 40
5.0
 40
5.0
 40
5.0
 10
0.0021111495483268
 20
56.67449521950815
 30
0.0
 10
1.338223003375404
 20
56.67911620549647
 30
0.0
 10
4.013249407483144
 20
56.85197900177137
 30
0.0
 10
7.941165194019575
 20
57.69304084040338
 30
0.0
 10
11.72341761465098
 20
59.08423585013053
 30
0.0
 10
15.10153333250737
 20
61.27742168878265
 30
0.0
 10
17.03172772550242
 20
63.14978270860452
 30
0.0
 10
17.86629069386832
 20
64.19349204393815
 30
0.0
  0
SPLINE
  5
40
330
1F
100
AcDbEntity
  8
Default
100
AcDbSpline
210
0.0
220
0.0
230
1.0
 70
     8
 71
     3
 72
    10
 73
     6
 74
     0
 42
0.0000000001
 43
0.0000000001
 40
0.0
 40
0.0
 40
0.0
 40
0.0
 40
1.0
 40
2.0
 40
3.0
 40
3.0
 40
3.0
 40
3.0
 10
17.86629069386832
 20
64.19349204393815
 30
0.0
 10
18.08578795818327
 20
64.48853630977413
 30
0.0
 10
18.39266108391907
 20
65.16902572969629
 30
0.0
 10
18.50433140003047
 20
66.27429838261199
 30
0.0
 10
18.42491323811687
 20
67.00671662436264
 30
0.0
 10
18.36199952386831
 20
67.36826479540815
 30
0.0
  0
SPLINE
  5
41
330
1F
100
AcDbEntity
  8
Default
100
AcDbSpline
210
0.0
220
0.0
230
1.0
 70
     8
 71
     3
 72
    11
 73
     7
 74
     0
 42
0.0000000001
 43
0.0000000001
 40
-7.0
 40
-7.0
 40
-7.0
 40
-7.0
 40
-6.0
 40
-5.0
 40
-4.0
 40
-3.815308434842889
 40
-3.815308434842889
 40
-3.815308434842889
 40
-3.815308434842889
 10
18.36199952386831
 20
67.36826479540815
 30
0.0
 10
18.10375679412773
 20
68.81348192215751
 30
0.0
 10
17.46934544619909
 20
71.6823748309865
 30
0.0
 10
16.1151494421146
 20
75.88183925137915
 30
0.0
 10
14.67663701353439
 20
78.76158877247406
 30
0.0
 10
13.73771221164837
 20
80.22554171425963
 30
0.0
 10
13.58755002092316
 20
80.45126099697657
 30
0.0
  0
SPLINE
  5
42
330
1F
100
AcDbEntity
  8
Default
100
AcDbSpline
210
0.0
220
0.0
230
1.0
 70
     8
 71
     3
 72
     8
 73
     4
 74
     0
 42
0.0000000001
 43
0.0000000001
 40
-0.9542700316589415
 40
-0.9542700316589415
 40
-0.9542700316589415
 40
-0.9542700316589415
 40
0.0
 40
0.0
 40
0.0
 40
0.0
 10
4.107017067402026
 20
88.45388709921536
 30
0.0
 10
2.794729353071162
 20
88.94552525047229
 30
0.0
 10
1.406340915344956
 20
89.24329496134547
 30
0.0
 10
0.0021113247743045
 20
89.24259755416816
 30
0.0
  0
SPLINE
  5
43
330
1F
100
AcDbEntity
  8
Default
100
AcDbSpline
210
0.0
220
0.0
230
1.0
 70
     8
 71
     3
 72
     8
 73
     4
 74
     0
 42
0.0000000001
 43
0.0000000001
 40
0.0
 40
0.0
 40
0.0
 40
0.0
 40
0.9542699803455702
 40
0.9542699803455702
 40
0.9542699803455702
 40
0.9542699803455702
 10
0.0021113247743045
 20
89.24259755416816
 30
0.0
 10
-1.402118190287567
 20
89.24329496130798
 30
0.0
 10
-2.790506554208676
 20
88.94552528249585
 30
0.0
 10
-4.102794206158947
 20
88.45388717852504
 30
0.0
  0
SPLINE
  5
44
330
1F
100
AcDbEntity
  8
Default
100
AcDbSpline
210
0.0
220
0.0
230
1.0
 70
     8
 71
     3
 72
    16
 73
    12
 74
     0
 42
0.0000000001
 43
0.0000000001
 40
0.0
 40
0.0
 40
0.0
 40
0.0
 40
1.0
 40
2.0
 40
3.0
 40
4.0
 40
5.0
 40
6.0
 40
7.0
 40
8.0
 40
9.0
 40
9.0
 40
9.0
 40
9.0
 10
0.002110954698324
 20
88.74247691250815
 30
0.0
 10
0.6631640341967824
 20
88.74269174934037
 30
0.0
 10
1.985445631179246
 20
88.70005402448228
 30
0.0
 10
3.959267445609427
 20
88.49580375870678
 30
0.0
 10
5.915754718804081
 20
88.16529791026173
 30
0.0
 10
7.846663036444923
 20
87.70831965492542
 30
0.0
 10
9.741687610970942
 20
87.11828782187192
 30
0.0
 10
11.59161737987939
 20
86.4044754891847
 30
0.0
 10
13.39328091585266
 20
85.55901742432354
 30
0.0
 10
15.11742967984368
 20
84.62371745670237
 30
0.0
 10
16.28561918101336
 20
83.89104909112285
 30
0.0
 10
16.57196721473834
 20
83.32289243650814
 30
0.0
  0
SPLINE
  5
45
330
1F
100
AcDbEntity
  8
Default
100
AcDbSpline
210
0.0
220
0.0
230
1.0
 70
     8
 71
     3
 72
     8
 73
     4
 74
     0
 42
0.0000000001
 43
0.0000000001
 40
-1.0
 40
-1.0
 40
-1.0
 40
-1.0
 40
0.0
 40
0.0
 40
0.0
 40
0.0
 10
16.57196721473834
 20
83.32289243650814
 30
0.0
 10
16.9646876249932
 20
82.54367732688522
 30
0.0
 10
16.25665334156959
 20
81.99362378307984
 30
0.0
 10
15.39066741902003
 20
81.37504283529097
 30
0.0
  0
SPLINE
  5
46
330
1F
100
AcDbEntity
  8
Default
100
AcDbSpline
210
0.0
220
0.0
230
1.0
 70
     8
 71
     3
 72
    16
 73
    12
 74
     0
 42
0.0000000001
 43
0.0000000001
 40
0.5659106209000409
 40
0.5659106209000409
 40
0.5659106209000409
 40
0.5659106209000409
 40
1.0
 40
2.0
 40
3.0
 40
4.0
 40
5.0
 40
6.0
 40
7.0
 40
8.0
 40
9.0
 40
9.0
 40
9.0
 40
9.0
 10
15.39066741902003
 20
81.37504283529097
 30
0.0
 10
15.3200619912932
 20
81.32460879096641
 30
0.0
 10
15.07496972085251
 20
81.16184786036402
 30
0.0
 10
14.66487229184601
 20
80.90294815938321
 30
0.0
 10
14.13315290384524
 20
80.6226165216502
 30
0.0
 10
13.54784593462675
 20
80.42563229981818
 30
0.0
 10
13.00444957306426
 20
80.3307364000353
 30
0.0
 10
12.38789058798658
 20
80.31375715268913
 30
0.0
 10
11.78985096244897
 20
80.37332598180237
 30
0.0
 10
11.21034439999612
 20
80.55274946117603
 30
0.0
 10
10.87679652142249
 20
80.78401485049483
 30
0.0
 10
10.71308714954831
 20
80.89894421950814
 30
0.0
  0
SPLINE
  5
47
330
1F
100
AcDbEntity
  8
Default
100
AcDbSpline
210
0.0
220
0.0
230
1.0
 70
     8
 71
     3
 72
    16
 73
    12
 74
     0
 42
0.0000000001
 43
0.0000000001
 40
0.0
 40
0.0
 40
0.0
 40
0.0
 40
1.0
 40
2.0
 40
3.0
 40
4.0
 40
5.0
 40
6.0
 40
7.0
 40
8.0
 40
9.0
 40
9.0
 40
9.0
 40
9.0
 10
10.71308714954831
 20
80.89894421950814
 30
0.0
 10
10.35882431418302
 20
81.14764839366316
 30
0.0
 10
9.685734403035681
 20
81.79646295086843
 30
0.0
 10
8.726876409101763
 20
82.67925780177691
 30
0.0
 10
7.589363631751112
 20
83.27953569137188
 30
0.0
 10
6.381875034866638
 20
83.75426624879981
 30
0.0
 10
5.139055653166295
 20
84.11392368494606
 30
0.0
 10
3.870365918879983
 20
84.37078252403208
 30
0.0
 10
2.586785281336731
 20
84.53485481230206
 30
0.0
 10
1.295488515010604
 20
84.61572140931946
 30
0.0
 10
0.433197396045486
 20
84.62727765179685
 30
0.0
 10
0.0021111495483268
 20
84.62799721950813
 30
0.0
  0
SPLINE
  5
48
330
1F
100
AcDbEntity
  8
Default
100
AcDbSpline
210
0.0
220
0.0
230
1.0
 70
     8
 71
     3
 72
    16
 73
    12
 74
     0
 42
0.0000000001
 43
0.0000000001
 40
-9.0
 40
-9.0
 40
-9.0
 40
-9.0
 40
-8.0
 40
-7.0
 40
-6.0
 40
-5.0
 40
-4.0
 40
-3.0
 40
-2.0
 40
-1.0
 40
0.0
 40
0.0
 40
0.0
 40
0.0
 10
0.0021111495483268
 20
84.62799721950813
 30
0.0
 10
-0.4289750969488324
 20
84.62727765179685
 30
0.0
 10
-1.29126621591395
 20
84.61572140931946
 30
0.0
 10
-2.582562982240077
 20
84.53485481230206
 30
0.0
 10
-3.86614361978333
 20
84.37078252403208
 30
0.0
 10
-5.134833354069642
 20
84.11392368494606
 30
0.0
 10
-6.377652735769985
 20
83.75426624879981
 30
0.0
 10
-7.585141332654459
 20
83.27953569137188
 30
0.0
 10
-8.72265411000511
 20
82.67925780177691
 30
0.0
 10
-9.681512103939028
 20
81.79646295086843
 30
0.0
 10
-10.35460201508637
 20
81.14764839366316
 30
0.0
 10
-10.70886485045166
 20
80.89894421950814
 30
0.0
  0
SPLINE
  5
49
330
1F
100
AcDbEntity
  8
Default
100
AcDbSpline
210
0.0
220
0.0
230
1.0
 70
     8
 71
     3
 72
    16
 73
    12
 74
     0
 42
0.0000000001
 43
0.0000000001
 40
-9.0
 40
-9.0
 40
-9.0
 40
-9.0
 40
-8.0
 40
-7.0
 40
-6.0
 40
-5.0
 40
-4.0
 40
-3.0
 40
-2.0
 40
-1.0
 40
-0.5659106209000409
 40
-0.5659106209000409
 40
-0.5659106209000409
 40
-0.5659106209000409
 10
-10.70886485045166
 20
80.89894421950814
 30
0.0
 10
-10.87257422232584
 20
80.78401485049483
 30
0.0
 10
-11.20612210089946
 20
80.55274946117603
 30
0.0
 10
-11.78562866335231
 20
80.37332598180237
 30
0.0
 10
-12.38366828888992
 20
80.31375715268913
 30
0.0
 10
-13.00022727396761
 20
80.3307364000353
 30
0.0
 10
-13.5436236355301
 20
80.42563229981818
 30
0.0
 10
-14.12893060474859
 20
80.6226165216502
 30
0.0
 10
-14.66064999274936
 20
80.90294815938321
 30
0.0
 10
-15.07074742175585
 20
81.16184786036402
 30
0.0
 10
-15.31583969219655
 20
81.32460879096641
 30
0.0
 10
-15.38644511992338
 20
81.37504283529097
 30
0.0
  0
SPLINE
  5
4A
330
1F
100
AcDbEntity
  8
Default
100
AcDbSpline
210
0.0
220
0.0
230
1.0
 70
     8
 71
     3
 72
     8
 73
     4
 74
     0
 42
0.0000000001
 43
0.0000000001
 40
0.0
 40
0.0
 40
0.0
 40
0.0
 40
1.0
 40
1.0
 40
1.0
 40
1.0
 10
-15.38644511992338
 20
81.37504283529097
 30
0.0
 10
-16.25243104247294
 20
81.99362378307984
 30
0.0
 10
-16.96046532589655
 20
82.54367732688522
 30
0.0
 10
-16.56774491564168
 20
83.32289243650814
 30
0.0
  0
SPLINE
  5
4B
330
1F
100
AcDbEntity
  8
Default
100
AcDbSpline
210
0.0
220
0.0
230
1.0
 70
     8
 71
     3
 72
    16
 73
    12
 74
     0
 42
0.0000000001
 43
0.0000000001
 40
-9.0
 40
-9.0
 40
-9.0
 40
-9.0
 40
-7.999999978166152
 40
-6.999999956332305
 40
-5.999999934498456
 40
-4.999999912664609
 40
-3.999999890830761
 40
-2.999999868996913
 40
-1.999999847163065
 40
-0.9999998253292175
 40
0.0
 40
0.0
 40
0.0
 40
0.0
 10
-16.56774491564168
 20
83.32289243650814
 30
0.0
 10
-16.28139688191671
 20
83.89104909112285
 30
0.0
 10
-15.11320738074703
 20
84.62371745670237
 30
0.0
 10
-13.389058616756
 20
85.55901742432354
 30
0.0
 10
-11.58739508078274
 20
86.4044754891847
 30
0.0
 10
-9.737465311874288
 20
87.11828782187192
 30
0.0
 10
-7.842440737348269
 20
87.70831965492542
 30
0.0
 10
-5.911532419707427
 20
88.16529791026173
 30
0.0
 10
-3.955045146512774
 20
88.49580375870678
 30
0.0
 10
-1.981223461370959
 20
88.70005401110356
 30
0.0
 10
-0.6589419949345796
 20
88.74269174096185
 30
0.0
 10
0.002110954698324
 20
88.74247691250815
 30
0.0
  0
ARC
  5
4C
330
1F
100
AcDbEntity
  8
Default
100
AcDbCircle
 10
-25.37931373761363
 20
71.36944479872366
 30
0.0
 40
15.07143535630798
100
AcDbArc
 50
316.3363854048242
 51
327.78645482253
  0
SPLINE
  5
4D
330
1F
100
AcDbEntity
  8
Default
100
AcDbSpline
210
0.0
220
0.0
230
1.0
 70
     8
 71
     3
 72
    12
 73
     8
 74
     0
 42
0.0000000001
 43
0.0000000001
 40
-5.0
 40
-5.0
 40
-5.0
 40
-5.0
 40
-4.0
 40
-3.0
 40
-2.0
 40
-1.0
 40
0.0
 40
0.0
 40
0.0
 40
0.0
 10
-12.62786713366971
 20
63.33521968324814
 30
0.0
 10
-11.9292157138792
 20
64.44407786760097
 30
0.0
 10
-10.83443867368261
 20
66.82302935759824
 30
0.0
 10
-9.363774411804954
 20
70.47063319223966
 30
0.0
 10
-7.162360160854533
 20
73.75389294202495
 30
0.0
 10
-3.942775167768772
 20
76.14282352685262
 30
0.0
 10
-1.302573373162616
 20
76.6332867338572
 30
0.0
 10
0.0021113260482792
 20
76.63424366751815
 30
0.0
  0
SPLINE
  5
4E
330
1F
100
AcDbEntity
  8
Default
100
AcDbSpline
210
0.0
220
0.0
230
1.0
 70
     8
 71
     3
 72
    12
 73
     8
 74
     0
 42
0.0000000001
 43
0.0000000001
 40
0.0000000000000003
 40
0.0000000000000003
 40
0.0000000000000003
 40
0.0000000000000003
 40
1.0
 40
2.0
 40
3.0
 40
4.0
 40
5.0
 40
5.0
 40
5.0
 40
5.0
 10
0.0021113260482792
 20
76.63424366751815
 30
0.0
 10
1.306796025259175
 20
76.6332867338572
 30
0.0
 10
3.946997819865331
 20
76.14282352685262
 30
0.0
 10
7.166582812951091
 20
73.75389294202495
 30
0.0
 10
9.367997063901512
 20
70.47063319223966
 30
0.0
 10
10.83866132577917
 20
66.82302935759824
 30
0.0
 10
11.93343836597576
 20
64.44407786760098
 30
0.0
 10
12.63208978576627
 20
63.33521968324814
 30
0.0
  0
ARC
  5
4F
330
1F
100
AcDbEntity
  8
Default
100
AcDbCircle
 10
25.38353638971283
 20
71.36944479872531
 30
0.0
 40
15.07143535631108
100
AcDbArc
 50
212.2135451774695
 51
223.6636145893482
  0
SPLINE
  5
50
330
1F
100
AcDbEntity
  8
Default
100
AcDbSpline
210
0.0
220
0.0
230
1.0
 70
    24
 71
     2
 72
     6
 73
     3
 74
     0
 42
0.0000000001
 43
0.0000000001
 40
0.0
 40
0.0
 40
0.0
 40
1.0
 40
1.0
 40
1.0
 10
36.82168611862532
 20
36.27344120361904
 30
0.0
 10
36.82168561862532
 20
36.27344370361904
 30
0.0
 10
36.82168511862533
 20
36.27344620361905
 30
0.0
  0
LINE
  5
51
330
1F
100
AcDbEntity
  8
Default
100
AcDbLine
 10
59.20172059476896
 20
18.2763437900399
 30
0.0
 11
41.5778417915656
 21
9.57445020361904
 31
0.0
  0
SPLINE
  5
52
330
1F
100
AcDbEntity
  8
Default
100
AcDbSpline
210
0.0
220
0.0
230
1.0
 70
     8
 71
     3
 72
    11
 73
     7
 74
     0
 42
0.0000000001
 43
0.0000000001
 40
-4.655729760082615
 40
-4.655729760082615
 40
-4.655729760082615
 40
-4.655729760082615
 40
-3.0
 40
-2.0
 40
-1.0
 40
-0.0000000000000001
 40
-0.0000000000000001
 40
-0.0000000000000001
 40
-0.0000000000000001
 10
37.26521361914276
 20
26.70585543702246
 30
0.0
 10
38.71781197647691
 20
27.02539949347298
 30
0.0
 10
39.33436573323785
 20
29.03426190148581
 30
0.0
 10
39.1591789216137
 20
31.8144974128769
 30
0.0
 10
38.83932857025071
 20
34.07155813511675
 30
0.0
 10
38.59469237355516
 20
35.82400256381428
 30
0.0
 10
38.50343811862534
 20
36.57853120361904
 30
0.0
  0
SPLINE
  5
53
330
1F
100
AcDbEntity
  8
Default
100
AcDbSpline
210
0.0
220
0.0
230
1.0
 70
     8
 71
     3
 72
    10
 73
     6
 74
     0
 42
0.0000000001
 43
0.0000000001
 40
-0.0000000000000001
 40
-0.0000000000000001
 40
-0.0000000000000001
 40
-0.0000000000000001
 40
0.9999999999999999
 40
2.0
 40
3.0
 40
3.0
 40
3.0
 40
3.0
 10
38.50343811862534
 20
36.57853120361904
 30
0.0
 10
38.47488344105561
 20
36.81463331242828
 30
0.0
 10
38.38417712947954
 20
37.53405753827598
 30
0.0
 10
38.24484782405311
 20
38.23475887286603
 30
0.0
 10
38.07667370497471
 20
38.70035985102839
 30
0.0
 10
37.96689411862532
 20
38.91166570361904
 30
0.0
  0
POLYLINE
  5
54
330
1F
100
AcDbEntity
  8
Default
100
AcDb2dPolyline
 66
     1
 10
0.0
 20
0.0
 30
0.0
  0
VERTEX
  5
55
330
54
100
AcDbEntity
  8
Default
100
AcDbVertex
100
AcDb2dVertex
 10
37.96689411862532
 20
38.91166570361904
 30
0.0
  0
VERTEX
  5
56
330
54
100
AcDbEntity
  8
Default
100
AcDbVertex
100
AcDb2dVertex
 10
37.87473811862533
 20
39.08525820361905
 30
0.0
  0
VERTEX
  5
57
330
54
100
AcDbEntity
  8
Default
100
AcDbVertex
100
AcDb2dVertex
 10
37.81606611862533
 20
39.18945820361905
 30
0.0
  0
VERTEX
  5
58
330
54
100
AcDbEntity
  8
Default
100
AcDbVertex
100
AcDb2dVertex
 10
37.75347611862533
 20
39.29460020361905
 30
0.0
  0
VERTEX
  5
59
330
54
100
AcDbEntity
  8
Default
100
AcDbVertex
100
AcDb2dVertex
 10
37.68524611862533
 20
39.40265920361905
 30
0.0
  0
VERTEX
  5
5A
330
54
100
AcDbEntity
  8
Default
100
AcDbVertex
100
AcDb2dVertex
 10
37.61056611862533
 20
39.51368220361904
 30
0.0
  0
VERTEX
  5
5B
330
54
100
AcDbEntity
  8
Default
100
AcDbVertex
100
AcDb2dVertex
 10
37.57011011862532
 20
39.57080720361905
 30
0.0
  0
VERTEX
  5
5C
330
54
100
AcDbEntity
  8
Default
100
AcDbVertex
100
AcDb2dVertex
 10
37.52754911862532
 20
39.62867420361906
 30
0.0
  0
VERTEX
  5
5D
330
54
100
AcDbEntity
  8
Default
100
AcDbVertex
100
AcDb2dVertex
 10
37.48270211862534
 20
39.68721020361905
 30
0.0
  0
VERTEX
  5
5E
330
54
100
AcDbEntity
  8
Default
100
AcDbVertex
100
AcDb2dVertex
 10
37.43529111862533
 20
39.74640220361906
 30
0.0
  0
VERTEX
  5
5F
330
54
100
AcDbEntity
  8
Default
100
AcDbVertex
100
AcDb2dVertex
 10
37.38525711862532
 20
39.80592420361904
 30
0.0
  0
VERTEX
  5
60
330
54
100
AcDbEntity
  8
Default
100
AcDbVertex
100
AcDb2dVertex
 10
37.33272811862533
 20
39.86526520361905
 30
0.0
  0
VERTEX
  5
61
330
54
100
AcDbEntity
  8
Default
100
AcDbVertex
100
AcDb2dVertex
 10
37.27746111862534
 20
39.92442120361905
 30
0.0
  0
VERTEX
  5
62
330
54
100
AcDbEntity
  8
Default
100
AcDbVertex
100
AcDb2dVertex
 10
37.21934111862531
 20
39.98327320361904
 30
0.0
  0
VERTEX
  5
63
330
54
100
AcDbEntity
  8
Default
100
AcDbVertex
100
AcDb2dVertex
 10
37.15883711862533
 20
40.04118620361905
 30
0.0
  0
VERTEX
  5
64
330
54
100
AcDbEntity
  8
Default
100
AcDbVertex
100
AcDb2dVertex
 10
37.09624311862534
 20
40.09781720361904
 30
0.0
  0
VERTEX
  5
65
330
54
100
AcDbEntity
  8
Default
100
AcDbVertex
100
AcDb2dVertex
 10
37.03122311862533
 20
40.15343720361905
 30
0.0
  0
VERTEX
  5
66
330
54
100
AcDbEntity
  8
Default
100
AcDbVertex
100
AcDb2dVertex
 10
36.96339711862531
 20
40.20823420361904
 30
0.0
  0
VERTEX
  5
67
330
54
100
AcDbEntity
  8
Default
100
AcDbVertex
100
AcDb2dVertex
 10
36.89237411862534
 20
40.26227620361905
 30
0.0
  0
VERTEX
  5
68
330
54
100
AcDbEntity
  8
Default
100
AcDbVertex
100
AcDb2dVertex
 10
36.81832811862533
 20
40.31513920361905
 30
0.0
  0
VERTEX
  5
69
330
54
100
AcDbEntity
  8
Default
100
AcDbVertex
100
AcDb2dVertex
 10
36.74175211862534
 20
40.36624320361904
 30
0.0
  0
VERTEX
  5
6A
330
54
100
AcDbEntity
  8
Default
100
AcDbVertex
100
AcDb2dVertex
 10
36.66259711862533
 20
40.41544920361905
 30
0.0
  0
VERTEX
  5
6B
330
54
100
AcDbEntity
  8
Default
100
AcDbVertex
100
AcDb2dVertex
 10
36.58081911862534
 20
40.46264620361904
 30
0.0
  0
VERTEX
  5
6C
330
54
100
AcDbEntity
  8
Default
100
AcDbVertex
100
AcDb2dVertex
 10
36.49704111862532
 20
40.50739120361905
 30
0.0
  0
VERTEX
  5
6D
330
54
100
AcDbEntity
  8
Default
100
AcDbVertex
100
AcDb2dVertex
 10
36.41084111862533
 20
40.54986720361904
 30
0.0
  0
VERTEX
  5
6E
330
54
100
AcDbEntity
  8
Default
100
AcDbVertex
100
AcDb2dVertex
 10
36.32281611862531
 20
40.58975720361904
 30
0.0
  0
VERTEX
  5
6F
330
54
100
AcDbEntity
  8
Default
100
AcDbVertex
100
AcDb2dVertex
 10
36.23538111862534
 20
40.62611420361905
 30
0.0
  0
VERTEX
  5
70
330
54
100
AcDbEntity
  8
Default
100
AcDbVertex
100
AcDb2dVertex
 10
36.14865011862533
 20
40.65916420361904
 30
0.0
  0
VERTEX
  5
71
330
54
100
AcDbEntity
  8
Default
100
AcDbVertex
100
AcDb2dVertex
 10
36.06307611862532
 20
40.68900620361904
 30
0.0
  0
VERTEX
  5
72
330
54
100
AcDbEntity
  8
Default
100
AcDbVertex
100
AcDb2dVertex
 10
35.98190511862533
 20
40.71494820361904
 30
0.0
  0
VERTEX
  5
73
330
54
100
AcDbEntity
  8
Default
100
AcDbVertex
100
AcDb2dVertex
 10
35.90611511862532
 20
40.73729820361905
 30
0.0
  0
VERTEX
  5
74
330
54
100
AcDbEntity
  8
Default
100
AcDbVertex
100
AcDb2dVertex
 10
35.77134611862532
 20
40.77330020361904
 30
0.0
  0
VERTEX
  5
75
330
54
100
AcDbEntity
  8
Default
100
AcDbVertex
100
AcDb2dVertex
 10
35.71603211862531
 20
40.78700420361905
 30
0.0
  0
SEQEND
  5
76
330
54
100
AcDbEntity
  8
Default
  0
SPLINE
  5
77
330
1F
100
AcDbEntity
  8
Default
100
AcDbSpline
210
0.0
220
0.0
230
1.0
 70
     8
 71
     3
 72
     8
 73
     4
 74
     0
 42
0.0000000001
 43
0.0000000001
 40
42.00000000000001
 40
42.00000000000001
 40
42.00000000000001
 40
42.00000000000001
 40
43.00000000000001
 40
43.00000000000001
 40
43.00000000000001
 40
43.00000000000001
 10
35.71603211862531
 20
40.78700420361905
 30
0.0
 10
34.9864394749511
 20
40.96776020732363
 30
0.0
 10
33.7511915125052
 20
41.25939429034859
 30
0.0
 10
33.08697596811938
 20
41.58380389546421
 30
0.0
  0
ARC
  5
78
330
1F
100
AcDbEntity
  8
Default
100
AcDbCircle
 10
32.13368011862543
 20
39.63196920361934
 30
0.0
 40
2.172195120368221
100
AcDbArc
 50
63.96864783993439
 51
74.81008470918829
  0
ARC
  5
79
330
1F
100
AcDbEntity
  8
Default
100
AcDbCircle
 10
32.10517555528018
 20
39.52698195026227
 30
0.0
 40
2.280983141303279
100
AcDbArc
 50
74.81008470918992
 51
124.8238149554532
  0
SPLINE
  5
7A
330
1F
100
AcDbEntity
  8
Default
100
AcDbSpline
210
0.0
220
0.0
230
1.0
 70
     8
 71
     2
 72
     8
 73
     5
 74
     0
 42
0.0000000001
 43
0.0000000001
 40
0.0
 40
0.0
 40
0.0
 40
1.0
 40
1.0
 40
2.0
 40
2.0
 40
2.0
 10
36.82165311862532
 20
36.27367620361905
 30
0.0
 10
36.82101161862532
 20
36.27824320361904
 30
0.0
 10
36.82037011862532
 20
36.28281020361904
 30
0.0
 10
36.82019561862532
 20
36.28402320361904
 30
0.0
 10
36.82002111862532
 20
36.28523620361904
 30
0.0
  0
SPLINE
  5
7B
330
1F
100
AcDbEntity
  8
Default
100
AcDbSpline
210
0.0
220
0.0
230
1.0
 70
     8
 71
     3
 72
     8
 73
     4
 74
     0
 42
0.0000000001
 43
0.0000000001
 40
0.0
 40
0.0
 40
0.0
 40
0.0
 40
1.0
 40
1.0
 40
1.0
 40
1.0
 10
37.76283943401533
 20
28.01929494624905
 30
0.0
 10
37.89756278499296
 20
27.0944194111794
 30
0.0
 10
37.60746804079086
 20
26.50942885649538
 30
0.0
 10
36.74698431716534
 20
26.73646336634904
 30
0.0
  0
POLYLINE
  5
7C
330
1F
100
AcDbEntity
  8
Default
100
AcDb2dPolyline
 66
     1
 10
0.0
 20
0.0
 30
0.0
  0
VERTEX
  5
7D
330
7C
100
AcDbEntity
  8
Default
100
AcDbVertex
100
AcDb2dVertex
 10
36.74698431716534
 20
26.73646336634904
 30
0.0
  0
VERTEX
  5
7E
330
7C
100
AcDbEntity
  8
Default
100
AcDbVertex
100
AcDb2dVertex
 10
30.57026111862534
 20
28.36616220361904
 30
0.0
  0
SEQEND
  5
7F
330
7C
100
AcDbEntity
  8
Default
  0
POLYLINE
  5
80
330
1F
100
AcDbEntity
  8
Default
100
AcDb2dPolyline
 66
     1
 10
0.0
 20
0.0
 30
0.0
  0
VERTEX
  5
81
330
80
100
AcDbEntity
  8
Default
100
AcDbVertex
100
AcDb2dVertex
 10
30.57026111862534
 20
28.36616220361904
 30
0.0
  0
VERTEX
  5
82
330
80
100
AcDbEntity
  8
Default
100
AcDbVertex
100
AcDb2dVertex
 10
30.80260911862534
 20
41.39946820361904
 30
0.0
  0
SEQEND
  5
83
330
80
100
AcDbEntity
  8
Default
  0
POLYLINE
  5
84
330
1F
100
AcDbEntity
  8
Default
100
AcDb2dPolyline
 66
     1
 10
0.0
 20
0.0
 30
0.0
  0
VERTEX
  5
85
330
84
100
AcDbEntity
  8
Default
100
AcDbVertex
100
AcDb2dVertex
 10
30.80260911862534
 20
41.39946820361904
 30
0.0
  0
VERTEX
  5
86
330
84
100
AcDbEntity
  8
Default
100
AcDbVertex
100
AcDb2dVertex
 10
35.00592033738532
 20
40.60401341728905
 30
0.0
  0
SEQEND
  5
87
330
84
100
AcDbEntity
  8
Default
  0
SPLINE
  5
88
330
1F
100
AcDbEntity
  8
Default
100
AcDbSpline
210
0.0
220
0.0
230
1.0
 70
     8
 71
     3
 72
    12
 73
     8
 74
     0
 42
0.0000000001
 43
0.0000000001
 40
0.0
 40
0.0
 40
0.0
 40
0.0
 40
1.0
 40
2.0
 40
3.0
 40
4.0
 40
5.0
 40
5.0
 40
5.0
 40
5.0
 10
35.00592033738532
 20
40.60401341728905
 30
0.0
 10
35.15608435082241
 20
40.57559565876335
 30
0.0
 10
35.4227447138221
 20
40.41566549330983
 30
0.0
 10
35.71913421645307
 20
40.06631892382046
 30
0.0
 10
35.93652255486647
 20
39.66503647442405
 30
0.0
 10
36.09415180849912
 20
39.23758933332332
 30
0.0
 10
36.16583998739726
 20
38.94254343516493
 30
0.0
 10
36.19340040829532
 20
38.79349071957905
 30
0.0
  0
POLYLINE
  5
89
330
1F
100
AcDbEntity
  8
Default
100
AcDb2dPolyline
 66
     1
 10
0.0
 20
0.0
 30
0.0
  0
VERTEX
  5
8A
330
89
100
AcDbEntity
  8
Default
100
AcDbVertex
100
AcDb2dVertex
 10
36.19340040829532
 20
38.79349071957905
 30
0.0
  0
VERTEX
  5
8B
330
89
100
AcDbEntity
  8
Default
100
AcDbVertex
100
AcDb2dVertex
 10
37.76283943401533
 20
28.01929494624905
 30
0.0
  0
SEQEND
  5
8C
330
89
100
AcDbEntity
  8
Default
  0
LINE
  5
8D
330
1F
100
AcDbEntity
  8
Default
100
AcDbLine
 10
30.57026111862534
 20
28.36616220361904
 30
0.0
 11
30.38893386200759
 21
28.06122631008916
 31
0.0
  0
SPLINE
  5
8E
330
1F
100
AcDbEntity
  8
Default
100
AcDbSpline
210
0.0
220
0.0
230
1.0
 70
    24
 71
     2
 72
     6
 73
     3
 74
     0
 42
0.0000000001
 43
0.0000000001
 40
-0.992333212475387
 40
-0.992333212475387
 40
-0.992333212475387
 40
-0.0000000290065147
 40
-0.0000000290065147
 40
-0.0000000290065147
 10
30.38893386200759
 20
28.06122631008916
 30
0.0
 10
35.9833878267866
 20
18.81786002704444
 30
0.0
 10
41.5778417915656
 20
9.574493743999717
 30
0.0
  0
LINE
  5
8F
330
1F
100
AcDbEntity
  8
Default
100
AcDbLine
 10
41.5778417915656
 20
9.574493743999717
 30
0.0
 11
62.46502253168283
 21
12.13911626903579
 31
0.0
  0
LINE
  5
90
330
1F
100
AcDbEntity
  8
Default
100
AcDbLine
 10
62.46502253168283
 20
12.13911626903579
 30
0.0
 11
62.64122775574644
 21
12.47610239292761
 31
0.0
  0
SPLINE
  5
91
330
1F
100
AcDbEntity
  8
Default
100
AcDbSpline
210
0.0
220
0.0
230
1.0
 70
     8
 71
     3
 72
    10
 73
     6
 74
     0
 42
0.0000000001
 43
0.0000000001
 40
-3.0
 40
-3.0
 40
-3.0
 40
-3.0
 40
-2.0
 40
-0.9999999999999999
 40
-0.3621758776358368
 40
-0.3621758776358368
 40
-0.3621758776358368
 40
-0.3621758776358368
 10
62.64122775574644
 20
12.47610239292761
 30
0.0
 10
62.79638089900025
 20
12.7728271729821
 30
0.0
 10
62.95907213116458
 20
13.44824719383475
 30
0.0
 10
62.70443782174168
 20
14.32220427772969
 30
0.0
 10
62.37838243072626
 20
14.76851114687652
 30
0.0
 10
62.23466322760974
 20
14.92721456436991
 30
0.0
  0
LINE
  5
92
330
1F
100
AcDbEntity
  8
Default
100
AcDbLine
 10
62.23466322760974
 20
14.92721456436991
 30
0.0
 11
56.93699711862534
 21
20.77721720361905
 31
0.0
  0
SPLINE
  5
93
330
1F
100
AcDbEntity
  8
Default
100
AcDbSpline
210
0.0
220
0.0
230
1.0
 70
     8
 71
     3
 72
    10
 73
     6
 74
     0
 42
0.0000000001
 43
0.0000000001
 40
-3.0
 40
-3.0
 40
-3.0
 40
-3.0
 40
-2.0
 40
-1.0
 40
0.0
 40
0.0
 40
0.0
 40
0.0
 10
56.93699711862534
 20
20.77721720361905
 30
0.0
 10
56.52730107217256
 20
21.1916370076544
 30
0.0
 10
55.74329808210818
 20
22.05697593205534
 30
0.0
 10
54.36391547398374
 20
23.14672538969963
 30
0.0
 10
53.30212919205808
 20
23.64743080866036
 30
0.0
 10
52.74786711862536
 20
23.82850020361904
 30
0.0
  0
POLYLINE
  5
94
330
1F
100
AcDbEntity
  8
Default
100
AcDb2dPolyline
 66
     1
 10
0.0
 20
0.0
 30
0.0
  0
VERTEX
  5
95
330
94
100
AcDbEntity
  8
Default
100
AcDbVertex
100
AcDb2dVertex
 10
52.74786711862536
 20
23.82850020361904
 30
0.0
  0
VERTEX
  5
96
330
94
100
AcDbEntity
  8
Default
100
AcDbVertex
100
AcDb2dVertex
 10
38.68873376426343
 20
27.6820145741959
 30
0.0
  0
SEQEND
  5
97
330
94
100
AcDbEntity
  8
Default
  0
SPLINE
  5
98
330
1F
100
AcDbEntity
  8
Default
100
AcDbSpline
210
0.0
220
0.0
230
1.0
 70
     8
 71
     3
 72
    12
 73
     8
 74
     0
 42
0.0000000001
 43
0.0000000001
 40
-5.0
 40
-5.0
 40
-5.0
 40
-5.0
 40
-4.0
 40
-3.0
 40
-2.0
 40
-1.0
 40
0.0
 40
0.0
 40
0.0
 40
0.0
 10
-12.66907683952387
 20
27.10808038372905
 30
0.0
 10
-13.30271510062887
 20
27.65144066252846
 30
0.0
 10
-13.94956199527739
 20
29.18940752355117
 30
0.0
 10
-14.94134050219985
 20
31.42563535026548
 30
0.0
 10
-15.68500451598153
 20
33.77512104088844
 30
0.0
 10
-16.24636344886089
 20
36.16817791478109
 30
0.0
 10
-16.47416743181039
 20
37.79260269333516
 30
0.0
 10
-16.56687767255987
 20
38.60623729027905
 30
0.0
  0
SPLINE
  5
99
330
1F
100
AcDbEntity
  8
Default
100
AcDbSpline
210
0.0
220
0.0
230
1.0
 70
     8
 71
     3
 72
    12
 73
     8
 74
     0
 42
0.0000000001
 43
0.0000000001
 40
0.0
 40
0.0
 40
0.0
 40
0.0
 40
1.0
 40
2.0
 40
3.0
 40
4.0
 40
5.0
 40
5.0
 40
5.0
 40
5.0
 10
-16.56687767255987
 20
38.60623729027905
 30
0.0
 10
-16.58645973291483
 20
38.77987548205898
 30
0.0
 10
-16.58603329034305
 20
39.13231398752301
 30
0.0
 10
-16.45354024813297
 20
39.64365363559775
 30
0.0
 10
-16.18565994849426
 20
40.10354380406025
 30
0.0
 10
-15.7722693190844
 20
40.43701930537146
 30
0.0
 10
-15.45292434216087
 20
40.58591197701618
 30
0.0
 10
-15.28194949999987
 20
40.62533720361905
 30
0.0
  0
SPLINE
  5
9A
330
1F
100
AcDbEntity
  8
Default
100
AcDbSpline
210
0.0
220
0.0
230
1.0
 70
     8
 71
     3
 72
    12
 73
     8
 74
     0
 42
0.0000000001
 43
0.0000000001
 40
-5.0
 40
-5.0
 40
-5.0
 40
-5.0
 40
-4.0
 40
-3.0
 40
-2.0
 40
-1.0
 40
0.0
 40
0.0
 40
0.0
 40
0.0
 10
-15.28194949999987
 20
40.62533720361905
 30
0.0
 10
-14.2828754283896
 20
40.84859586574431
 30
0.0
 10
-12.24173124216641
 20
41.02999617774214
 30
0.0
 10
-9.19182811735378
 20
41.35853787621892
 30
0.0
 10
-6.13074390554344
 20
41.58615623542322
 30
0.0
 10
-3.066537105990179
 20
41.75415339579079
 30
0.0
 10
-1.020842938021488
 20
41.79998864043891
 30
0.0
 10
0.0021115000001402
 20
41.79991620361905
 30
0.0
  0
SPLINE
  5
9B
330
1F
100
AcDbEntity
  8
Default
100
AcDbSpline
210
0.0
220
0.0
230
1.0
 70
     8
 71
     3
 72
    12
 73
     8
 74
     0
 42
0.0000000001
 43
0.0000000001
 40
0.0
 40
0.0
 40
0.0
 40
0.0
 40
1.0
 40
2.0
 40
3.0
 40
4.0
 40
5.0
 40
5.0
 40
5.0
 40
5.0
 10
0.0021115000001402
 20
41.79991620361905
 30
0.0
 10
1.025065938021768
 20
41.79998864043891
 30
0.0
 10
3.070760105990459
 20
41.75415339579079
 30
0.0
 10
6.13496690554372
 20
41.58615623542322
 30
0.0
 10
9.19605111735406
 20
41.35853787621892
 30
0.0
 10
12.24595424216669
 20
41.02999617774214
 30
0.0
 10
14.28709842838988
 20
40.84859586574431
 30
0.0
 10
15.28617250000015
 20
40.62533720361905
 30
0.0
  0
SPLINE
  5
9C
330
1F
100
AcDbEntity
  8
Default
100
AcDbSpline
210
0.0
220
0.0
230
1.0
 70
     8
 71
     3
 72
    12
 73
     8
 74
     0
 42
0.0000000001
 43
0.0000000001
 40
-5.0
 40
-5.0
 40
-5.0
 40
-5.0
 40
-4.0
 40
-3.0
 40
-2.0
 40
-1.0
 40
0.0
 40
0.0
 40
0.0
 40
0.0
 10
15.28617250000015
 20
40.62533720361905
 30
0.0
 10
15.45714734216115
 20
40.58591197701618
 30
0.0
 10
15.77649231908468
 20
40.43701930537146
 30
0.0
 10
16.18988294849454
 20
40.10354380406025
 30
0.0
 10
16.45776324813325
 20
39.64365363559775
 30
0.0
 10
16.59025629034333
 20
39.13231398752301
 30
0.0
 10
16.59068273291511
 20
38.77987548205898
 30
0.0
 10
16.57110067256015
 20
38.60623729027905
 30
0.0
  0
SPLINE
  5
9D
330
1F
100
AcDbEntity
  8
Default
100
AcDbSpline
210
0.0
220
0.0
230
1.0
 70
     8
 71
     3
 72
    12
 73
     8
 74
     0
 42
0.0000000001
 43
0.0000000001
 40
0.0
 40
0.0
 40
0.0
 40
0.0
 40
1.0
 40
2.0
 40
3.0
 40
4.0
 40
5.0
 40
5.0
 40
5.0
 40
5.0
 10
16.57110067256015
 20
38.60623729027905
 30
0.0
 10
16.47839043181067
 20
37.79260269333516
 30
0.0
 10
16.25058644886117
 20
36.16817791478109
 30
0.0
 10
15.68922751598181
 20
33.77512104088844
 30
0.0
 10
14.94556350220013
 20
31.42563535026548
 30
0.0
 10
13.95378499527767
 20
29.18940752355117
 30
0.0
 10
13.30693810062915
 20
27.65144066252846
 30
0.0
 10
12.67329983952415
 20
27.10808038372905
 30
0.0
  0
SPLINE
  5
9E
330
1F
100
AcDbEntity
  8
Default
100
AcDbSpline
210
0.0
220
0.0
230
1.0
 70
     8
 71
     3
 72
    19
 73
    15
 74
     0
 42
0.0000000001
 43
0.0000000001
 40
0.0
 40
0.0
 40
0.0
 40
0.0
 40
1.0
 40
2.0
 40
3.0
 40
4.0
 40
5.0
 40
6.0
 40
7.0
 40
8.0
 40
9.0
 40
10.0
 40
11.0
 40
12.0
 40
12.0
 40
12.0
 40
12.0
 10
16.57924539005073
 20
18.90127320361904
 30
0.0
 10
16.24104105298308
 20
18.51201709297599
 30
0.0
 10
15.5800719342627
 20
17.71991429471161
 30
0.0
 10
14.62674196363729
 20
16.50189504631066
 30
0.0
 10
13.68262700771963
 20
15.2748853055954
 30
0.0
 10
12.58250457733952
 20
14.18215009097093
 30
0.0
 10
11.37931412342344
 20
13.20727308679373
 30
0.0
 10
10.08350886445943
 20
12.35861598752163
 30
0.0
 10
8.718294896223242
 20
11.62825052011916
 30
0.0
 10
7.299621881639538
 20
11.00843777005351
 30
0.0
 10
5.839830274827122
 20
10.49343365270547
 30
0.0
 10
4.347813196848463
 20
10.08079354083297
 30
0.0
 10
2.828978056541345
 20
9.78073830911379
 30
0.0
 10
1.803896809226799
 20
9.659903444978333
 30
0.0
 10
1.289571255094941
 20
9.622213140129041
 30
0.0
  0
SPLINE
  5
9F
330
1F
100
AcDbEntity
  8
Default
100
AcDbSpline
210
0.0
220
0.0
230
1.0
 70
     8
 71
     3
 72
    24
 73
    20
 74
     0
 42
0.0000000001
 43
0.0000000001
 40
-17.0
 40
-17.0
 40
-17.0
 40
-17.0
 40
-16.0
 40
-15.0
 40
-14.0
 40
-13.0
 40
-12.0
 40
-11.0
 40
-10.0
 40
-9.0
 40
-8.0
 40
-7.0
 40
-6.0
 40
-5.0
 40
-4.0
 40
-3.0
 40
-2.0
 40
-1.0
 40
0.0
 40
0.0
 40
0.0
 40
0.0
 10
-18.35990687432
 20
22.54209437767904
 30
0.0
 10
-18.16121530797973
 20
22.88915350191699
 30
0.0
 10
-17.78944840229646
 20
23.6011311673435
 30
0.0
 10
-17.04629120130052
 20
24.55045061926857
 30
0.0
 10
-16.14203985420902
 20
25.34664815733269
 30
0.0
 10
-15.14186532852442
 20
26.01495674452474
 30
0.0
 10
-14.06638968634617
 20
26.55287034165487
 30
0.0
 10
-12.95681308815288
 20
27.0127468703504
 30
0.0
 10
-11.82221104001077
 20
27.4071607927568
 30
0.0
 10
-10.67163067922355
 20
27.75142274150661
 30
0.0
 10
-9.509834442068225
 20
28.05558911345766
 30
0.0
 10
-8.339360354995293
 20
28.32436370423223
 30
0.0
 10
-7.161600307401713
 20
28.55914554934098
 30
0.0
 10
-5.977786381596886
 20
28.76099942297728
 30
0.0
 10
-4.789175692873485
 20
28.93232598367153
 30
0.0
 10
-3.596329688216926
 20
29.07119271481913
 30
0.0
 10
-2.399982736089314
 20
29.17583555699827
 30
0.0
 10
-1.200824046868931
 20
29.24190870191403
 30
0.0
 10
-0.400291862813603
 20
29.25588776556035
 30
0.0
 10
-0.0000000000000142
 20
29.25578920361905
 30
0.0
  0
SPLINE
  5
A0
330
1F
100
AcDbEntity
  8
Default
100
AcDbSpline
210
0.0
220
0.0
230
1.0
 70
     8
 71
     3
 72
    24
 73
    20
 74
     0
 42
0.0000000001
 43
0.0000000001
 40
0.0
 40
0.0
 40
0.0
 40
0.0
 40
1.0
 40
2.0
 40
3.0
 40
4.0
 40
5.0
 40
6.0
 40
7.0
 40
8.0
 40
9.0
 40
10.0
 40
11.0
 40
12.0
 40
13.0
 40
14.0
 40
15.0
 40
16.0
 40
17.0
 40
17.0
 40
17.0
 40
17.0
 10
-0.0000000000000142
 20
29.25578920361905
 30
0.0
 10
0.4002918628135745
 20
29.25588776556035
 30
0.0
 10
1.200824046868902
 20
29.24190870191403
 30
0.0
 10
2.399982736089285
 20
29.17583555699827
 30
0.0
 10
3.596329688216898
 20
29.07119271481913
 30
0.0
 10
4.789175692873457
 20
28.93232598367153
 30
0.0
 10
5.977786381596857
 20
28.76099942297728
 30
0.0
 10
7.161600307401685
 20
28.55914554934098
 30
0.0
 10
8.339360354995264
 20
28.32436370423223
 30
0.0
 10
9.509834442068197
 20
28.05558911345766
 30
0.0
 10
10.67163067922353
 20
27.75142274150661
 30
0.0
 10
11.82221104001074
 20
27.4071607927568
 30
0.0
 10
12.95681308815286
 20
27.0127468703504
 30
0.0
 10
14.06638968634614
 20
26.55287034165487
 30
0.0
 10
15.14186532852439
 20
26.01495674452474
 30
0.0
 10
16.14203985420899
 20
25.34664815733269
 30
0.0
 10
17.04629120130049
 20
24.55045061926857
 30
0.0
 10
17.78944840229643
 20
23.6011311673435
 30
0.0
 10
18.1612153079797
 20
22.88915350191699
 30
0.0
 10
18.35990687431998
 20
22.54209437767904
 30
0.0
  0
SPLINE
  5
A1
330
1F
100
AcDbEntity
  8
Default
100
AcDbSpline
210
0.0
220
0.0
230
1.0
 70
     8
 71
     3
 72
    29
 73
    25
 74
     0
 42
0.0000000001
 43
0.0000000001
 40
-22.0
 40
-22.0
 40
-22.0
 40
-22.0
 40
-21.0
 40
-20.0
 40
-19.0
 40
-18.0
 40
-17.0
 40
-16.0
 40
-15.0
 40
-14.0
 40
-13.0
 40
-12.0
 40
-11.0
 40
-10.0
 40
-9.0
 40
-8.0
 40
-7.0
 40
-6.0
 40
-5.0
 40
-4.0
 40
-3.0
 40
-2.0
 40
-1.0
 40
0.0
 40
0.0
 40
0.0
 40
0.0
 10
18.35990687431998
 20
22.54209437767904
 30
0.0
 10
18.53471648990664
 20
22.23112494388358
 30
0.0
 10
18.3987506245923
 20
21.51620157351315
 30
0.0
 10
17.90060709852632
 20
20.62111159254898
 30
0.0
 10
17.30364954671508
 20
19.77839959276888
 30
0.0
 10
16.65912568984176
 20
18.97566836072154
 30
0.0
 10
15.9634570615594
 20
18.21530098004674
 30
0.0
 10
15.22084233261374
 20
17.50136704756312
 30
0.0
 10
14.42980811468199
 20
16.84115085993897
 30
0.0
 10
13.60498666351442
 20
16.22418444633295
 30
0.0
 10
12.74815833703822
 20
15.65235300054527
 30
0.0
 10
11.8633193197429
 20
15.12500362049315
 30
0.0
 10
10.95280029234327
 20
14.64338222770835
 30
0.0
 10
10.02064475882464
 20
14.2051384141982
 30
0.0
 10
9.068435205304993
 20
13.81242274352743
 30
0.0
 10
8.099981360087085
 20
13.46177828412424
 30
0.0
 10
7.117166123184418
 20
13.15360284972157
 30
0.0
 10
6.121640835156299
 20
12.88948187255369
 30
0.0
 10
5.116522581266523
 20
12.66474420583777
 30
0.0
 10
4.103131284536502
 20
12.48072946619526
 30
0.0
 10
3.082949777288647
 20
12.33917790279909
 30
0.0
 10
2.057956730804236
 20
12.2383457360751
 30
0.0
 10
1.029771720627238
 20
12.17816412459255
 30
0.0
 10
0.3432637598487389
 20
12.16537137507618
 30
0.0
 10
-0.0000000000000142
 20
12.16543558330904
 30
0.0
  0
SPLINE
  5
A2
330
1F
100
AcDbEntity
  8
Default
100
AcDbSpline
210
0.0
220
0.0
230
1.0
 70
     8
 71
     3
 72
    29
 73
    25
 74
     0
 42
0.0000000001
 43
0.0000000001
 40
0.0
 40
0.0
 40
0.0
 40
0.0
 40
1.0
 40
2.0
 40
3.0
 40
4.0
 40
5.0
 40
6.0
 40
7.0
 40
8.0
 40
9.0
 40
10.0
 40
11.0
 40
12.0
 40
13.0
 40
14.0
 40
15.0
 40
16.0
 40
17.0
 40
18.0
 40
19.0
 40
20.0
 40
21.0
 40
22.0
 40
22.0
 40
22.0
 40
22.0
 10
-0.0000000000000142
 20
12.16543558330904
 30
0.0
 10
-0.3432637598487673
 20
12.16537137507618
 30
0.0
 10
-1.029771720627267
 20
12.17816412459255
 30
0.0
 10
-2.057956730804264
 20
12.2383457360751
 30
0.0
 10
-3.082949777288675
 20
12.33917790279909
 30
0.0
 10
-4.103131284536531
 20
12.48072946619526
 30
0.0
 10
-5.116522581266551
 20
12.66474420583777
 30
0.0
 10
-6.121640835156327
 20
12.88948187255369
 30
0.0
 10
-7.117166123184447
 20
13.15360284972157
 30
0.0
 10
-8.099981360087114
 20
13.46177828412424
 30
0.0
 10
-9.068435205305022
 20
13.81242274352743
 30
0.0
 10
-10.02064475882467
 20
14.2051384141982
 30
0.0
 10
-10.9528002923433
 20
14.64338222770835
 30
0.0
 10
-11.86331931974293
 20
15.12500362049315
 30
0.0
 10
-12.74815833703825
 20
15.65235300054527
 30
0.0
 10
-13.60498666351445
 20
16.22418444633295
 30
0.0
 10
-14.42980811468202
 20
16.84115085993897
 30
0.0
 10
-15.22084233261377
 20
17.50136704756312
 30
0.0
 10
-15.96345706155942
 20
18.21530098004674
 30
0.0
 10
-16.65912568984179
 20
18.97566836072154
 30
0.0
 10
-17.30364954671511
 20
19.77839959276888
 30
0.0
 10
-17.90060709852635
 20
20.62111159254898
 30
0.0
 10
-18.39875062459232
 20
21.51620157351315
 30
0.0
 10
-18.53471648990667
 20
22.23112494388358
 30
0.0
 10
-18.35990687432
 20
22.54209437767904
 30
0.0
  0
SPLINE
  5
A3
330
1F
100
AcDbEntity
  8
Default
100
AcDbSpline
210
0.0
220
0.0
230
1.0
 70
     8
 71
     3
 72
    19
 73
    15
 74
     0
 42
0.0000000001
 43
0.0000000001
 40
0.0
 40
0.0
 40
0.0
 40
0.0
 40
1.0
 40
2.0
 40
3.0
 40
4.0
 40
5.0
 40
6.0
 40
7.0
 40
8.0
 40
9.0
 40
10.0
 40
11.0
 40
12.0
 40
12.0
 40
12.0
 40
12.0
 10
-12.62999713367002
 20
19.61946674117904
 30
0.0
 10
-12.00585097270526
 20
19.23033506503831
 30
0.0
 10
-10.71615995137672
 20
18.51216556313967
 30
0.0
 10
-8.657838388679878
 20
17.71046264193512
 30
0.0
 10
-6.575309247071075
 20
16.97022837164867
 30
0.0
 10
-4.40892891016658
 20
16.51777823894887
 30
0.0
 10
-2.207983538733615
 20
16.31897268797783
 30
0.0
 10
-0.0002885273363376
 20
16.26676605751145
 30
0.0
 10
2.207556318231113
 20
16.31711220219992
 30
0.0
 10
4.408438313379563
 20
16.51840905178064
 30
0.0
 10
6.574181559956273
 20
16.97167779697251
 30
0.0
 10
8.658539934779625
 20
17.70720591297616
 30
0.0
 10
10.71334464413415
 20
18.51763589487308
 30
0.0
 10
12.00436780953653
 20
19.23257126147362
 30
0.0
 10
12.62995978577
 20
19.61946674117904
 30
0.0
  0
SPLINE
  5
A4
330
1F
100
AcDbEntity
  8
Default
100
AcDbSpline
210
0.0
220
0.0
230
1.0
 70
     8
 71
     3
 72
    19
 73
    15
 74
     0
 42
0.0000000001
 43
0.0000000001
 40
0.0
 40
0.0
 40
0.0
 40
0.0
 40
1.0
 40
2.0
 40
3.0
 40
4.0
 40
5.0
 40
6.0
 40
7.0
 40
8.0
 40
9.0
 40
10.0
 40
11.0
 40
12.0
 40
12.0
 40
12.0
 40
12.0
 10
-16.5797725
 20
18.90127320361904
 30
0.0
 10
-16.24156816293235
 20
18.51201709297599
 30
0.0
 10
-15.58059904421198
 20
17.71991429471161
 30
0.0
 10
-14.62726907358656
 20
16.50189504631066
 30
0.0
 10
-13.68315411766891
 20
15.2748853055954
 30
0.0
 10
-12.58303168728879
 20
14.18215009097093
 30
0.0
 10
-11.37984123337272
 20
13.20727308679373
 30
0.0
 10
-10.08403597440871
 20
12.35861598752163
 30
0.0
 10
-8.718822006172516
 20
11.62825052011916
 30
0.0
 10
-7.300148991588813
 20
11.00843777005351
 30
0.0
 10
-5.840357384776397
 20
10.49343365270547
 30
0.0
 10
-4.348340306797738
 20
10.08079354083297
 30
0.0
 10
-2.82950516649062
 20
9.78073830911379
 30
0.0
 10
-1.804423919176074
 20
9.659903444978333
 30
0.0
 10
-1.290098365044216
 20
9.622213140129041
 30
0.0
  0
SPLINE
  5
A5
330
1F
100
AcDbEntity
  8
Default
100
AcDbSpline
210
0.0
220
0.0
230
1.0
 70
    24
 71
     2
 72
     6
 73
     3
 74
     0
 42
0.0000000001
 43
0.0000000001
 40
0.0
 40
0.0
 40
0.0
 40
1.0
 40
1.0
 40
1.0
 10
47.24147711862533
 20
4.120001203619047
 30
0.0
 10
46.81590961862533
 20
4.120001203619047
 30
0.0
 10
46.39034211862533
 20
4.120001203619047
 30
0.0
  0
SPLINE
  5
A6
330
1F
100
AcDbEntity
  8
Default
100
AcDbSpline
210
0.0
220
0.0
230
1.0
 70
     8
 71
     3
 72
     8
 73
     4
 74
     0
 42
0.0000000001
 43
0.0000000001
 40
0.0
 40
0.0
 40
0.0
 40
0.0
 40
1.0
 40
1.0
 40
1.0
 40
1.0
 10
47.09120261862533
 20
4.238833203619045
 30
0.0
 10
47.09243229367586
 20
4.203235954262333
 30
0.0
 10
47.11327218248051
 20
4.173979905338154
 30
0.0
 10
47.14629861862532
 20
4.160083203619045
 30
0.0
  0
POLYLINE
  5
A7
330
1F
100
AcDbEntity
  8
Default
100
AcDb2dPolyline
 66
     1
 10
0.0
 20
0.0
 30
0.0
  0
VERTEX
  5
A8
330
A7
100
AcDbEntity
  8
Default
100
AcDbVertex
100
AcDb2dVertex
 10
47.14629861862532
 20
4.160083203619045
 30
0.0
  0
VERTEX
  5
A9
330
A7
100
AcDbEntity
  8
Default
100
AcDbVertex
100
AcDb2dVertex
 10
56.43886861862534
 20
0.2500012036190462
 30
0.0
  0
VERTEX
  5
AA
330
A7
100
AcDbEntity
  8
Default
100
AcDbVertex
100
AcDb2dVertex
 10
58.14503061862531
 20
0.2500012036190462
 30
0.0
  0
VERTEX
  5
AB
330
A7
100
AcDbEntity
  8
Default
100
AcDbVertex
100
AcDb2dVertex
 10
58.11537461862532
 20
1.561211203619045
 30
0.0
  0
SEQEND
  5
AC
330
A7
100
AcDbEntity
  8
Default
  0
SPLINE
  5
AD
330
1F
100
AcDbEntity
  8
Default
100
AcDbSpline
210
0.0
220
0.0
230
1.0
 70
     8
 71
     3
 72
     8
 73
     4
 74
     0
 42
0.0000000001
 43
0.0000000001
 40
-1.0
 40
-1.0
 40
-1.0
 40
-1.0
 40
0.0
 40
0.0
 40
0.0
 40
0.0
 10
58.11537461862532
 20
1.561211203619045
 30
0.0
 10
58.11444403570063
 20
1.60235598500098
 30
0.0
 10
58.09360039046091
 20
1.640499471519444
 30
0.0
 10
58.05800161862534
 20
1.659418203619044
 30
0.0
  0
POLYLINE
  5
AE
330
1F
100
AcDbEntity
  8
Default
100
AcDb2dPolyline
 66
     1
 10
0.0
 20
0.0
 30
0.0
  0
VERTEX
  5
AF
330
AE
100
AcDbEntity
  8
Default
100
AcDbVertex
100
AcDb2dVertex
 10
58.05800161862534
 20
1.659418203619044
 30
0.0
  0
VERTEX
  5
B0
330
AE
100
AcDbEntity
  8
Default
100
AcDbVertex
100
AcDb2dVertex
 10
48.06847861862532
 20
6.968284203619046
 30
0.0
  0
SEQEND
  5
B1
330
AE
100
AcDbEntity
  8
Default
  0
SPLINE
  5
B2
330
1F
100
AcDbEntity
  8
Default
100
AcDbSpline
210
0.0
220
0.0
230
1.0
 70
     8
 71
     3
 72
     8
 73
     4
 74
     0
 42
0.0000000001
 43
0.0000000001
 40
0.0
 40
0.0
 40
0.0
 40
0.0
 40
1.0
 40
1.0
 40
1.0
 40
1.0
 10
48.06847861862532
 20
6.968284203619046
 30
0.0
 10
47.99467853035689
 20
7.00750477295006
 30
0.0
 10
47.8628188659995
 20
7.021254859876073
 30
0.0
 10
47.77562761862534
 20
7.022434203619046
 30
0.0
  0
SPLINE
  5
B3
330
1F
100
AcDbEntity
  8
Default
100
AcDbSpline
210
0.0
220
0.0
230
1.0
 70
     8
 71
     3
 72
    10
 73
     6
 74
     0
 42
0.0000000001
 43
0.0000000001
 40
0.0
 40
0.0
 40
0.0
 40
0.0
 40
1.0
 40
2.0
 40
3.0
 40
3.0
 40
3.0
 40
3.0
 10
47.77562761862534
 20
7.022434203619046
 30
0.0
 10
47.69520645928539
 20
7.023521975544856
 30
0.0
 10
47.53449167178429
 20
7.013697696159166
 30
0.0
 10
47.29570588998085
 20
6.978649552375614
 30
0.0
 10
47.13805858721743
 20
6.946756748582253
 30
0.0
 10
47.05947161862532
 20
6.929774203619047
 30
0.0
  0
SPLINE
  5
B4
330
1F
100
AcDbEntity
  8
Default
100
AcDbSpline
210
0.0
220
0.0
230
1.0
 70
     8
 71
     3
 72
     8
 73
     4
 74
     0
 42
0.0000000001
 43
0.0000000001
 40
0.0
 40
0.0
 40
0.0
 40
0.0
 40
1.0
 40
1.0
 40
1.0
 40
1.0
 10
47.05947161862532
 20
6.929774203619047
 30
0.0
 10
47.02034779934833
 20
6.921319595534438
 30
0.0
 10
46.99943759406291
 20
6.895293103456677
 30
0.0
 10
47.00081261862532
 20
6.855488203619046
 30
0.0
  0
POLYLINE
  5
B5
330
1F
100
AcDbEntity
  8
Default
100
AcDb2dPolyline
 66
     1
 10
0.0
 20
0.0
 30
0.0
  0
VERTEX
  5
B6
330
B5
100
AcDbEntity
  8
Default
100
AcDbVertex
100
AcDb2dVertex
 10
47.00081261862532
 20
6.855488203619046
 30
0.0
  0
VERTEX
  5
B7
330
B5
100
AcDbEntity
  8
Default
100
AcDbVertex
100
AcDb2dVertex
 10
47.09120261862533
 20
4.238833203619045
 30
0.0
  0
SEQEND
  5
B8
330
B5
100
AcDbEntity
  8
Default
  0
SPLINE
  5
B9
330
1F
100
AcDbEntity
  8
Default
100
AcDbSpline
210
0.0
220
0.0
230
1.0
 70
     8
 71
     3
 72
     8
 73
     4
 74
     0
 42
0.0000000001
 43
0.0000000001
 40
0.0
 40
0.0
 40
0.0
 40
0.0
 40
1.0
 40
1.0
 40
1.0
 40
1.0
 10
46.54061661862532
 20
4.238833203619045
 30
0.0
 10
46.5393869435748
 20
4.203235954262333
 30
0.0
 10
46.51854705477014
 20
4.173979905338154
 30
0.0
 10
46.48552061862533
 20
4.160083203619045
 30
0.0
  0
POLYLINE
  5
BA
330
1F
100
AcDbEntity
  8
Default
100
AcDb2dPolyline
 66
     1
 10
0.0
 20
0.0
 30
0.0
  0
VERTEX
  5
BB
330
BA
100
AcDbEntity
  8
Default
100
AcDbVertex
100
AcDb2dVertex
 10
46.48552061862533
 20
4.160083203619045
 30
0.0
  0
VERTEX
  5
BC
330
BA
100
AcDbEntity
  8
Default
100
AcDbVertex
100
AcDb2dVertex
 10
37.19295061862532
 20
0.2500012036190462
 30
0.0
  0
VERTEX
  5
BD
330
BA
100
AcDbEntity
  8
Default
100
AcDbVertex
100
AcDb2dVertex
 10
35.48678861862531
 20
0.2500012036190462
 30
0.0
  0
VERTEX
  5
BE
330
BA
100
AcDbEntity
  8
Default
100
AcDbVertex
100
AcDb2dVertex
 10
35.51644461862533
 20
1.561211203619045
 30
0.0
  0
SEQEND
  5
BF
330
BA
100
AcDbEntity
  8
Default
  0
SPLINE
  5
C0
330
1F
100
AcDbEntity
  8
Default
100
AcDbSpline
210
0.0
220
0.0
230
1.0
 70
     8
 71
     3
 72
     8
 73
     4
 74
     0
 42
0.0000000001
 43
0.0000000001
 40
-1.0
 40
-1.0
 40
-1.0
 40
-1.0
 40
0.0
 40
0.0
 40
0.0
 40
0.0
 10
35.51644461862533
 20
1.561211203619045
 30
0.0
 10
35.51737520155
 20
1.60235598500098
 30
0.0
 10
35.53821884678972
 20
1.640499471519444
 30
0.0
 10
35.57381761862534
 20
1.659418203619044
 30
0.0
  0
POLYLINE
  5
C1
330
1F
100
AcDbEntity
  8
Default
100
AcDb2dPolyline
 66
     1
 10
0.0
 20
0.0
 30
0.0
  0
VERTEX
  5
C2
330
C1
100
AcDbEntity
  8
Default
100
AcDbVertex
100
AcDb2dVertex
 10
35.57381761862534
 20
1.659418203619044
 30
0.0
  0
VERTEX
  5
C3
330
C1
100
AcDbEntity
  8
Default
100
AcDbVertex
100
AcDb2dVertex
 10
45.56334061862533
 20
6.968284203619046
 30
0.0
  0
SEQEND
  5
C4
330
C1
100
AcDbEntity
  8
Default
  0
SPLINE
  5
C5
330
1F
100
AcDbEntity
  8
Default
100
AcDbSpline
210
0.0
220
0.0
230
1.0
 70
     8
 71
     3
 72
     8
 73
     4
 74
     0
 42
0.0000000001
 43
0.0000000001
 40
0.0
 40
0.0
 40
0.0
 40
0.0
 40
1.0
 40
1.0
 40
1.0
 40
1.0
 10
45.56334061862533
 20
6.968284203619046
 30
0.0
 10
45.63714070689376
 20
7.00750477295006
 30
0.0
 10
45.76900037125115
 20
7.021254859876073
 30
0.0
 10
45.85619161862532
 20
7.022434203619046
 30
0.0
  0
SPLINE
  5
C6
330
1F
100
AcDbEntity
  8
Default
100
AcDbSpline
210
0.0
220
0.0
230
1.0
 70
     8
 71
     3
 72
    10
 73
     6
 74
     0
 42
0.0000000001
 43
0.0000000001
 40
0.0
 40
0.0
 40
0.0
 40
0.0
 40
1.0
 40
2.0
 40
3.0
 40
3.0
 40
3.0
 40
3.0
 10
45.85619161862532
 20
7.022434203619046
 30
0.0
 10
45.93661277796527
 20
7.023521975544856
 30
0.0
 10
46.09732756546636
 20
7.013697696159166
 30
0.0
 10
46.3361133472698
 20
6.978649552375614
 30
0.0
 10
46.49376065003322
 20
6.946756748582253
 30
0.0
 10
46.57234761862533
 20
6.929774203619047
 30
0.0
  0
SPLINE
  5
C7
330
1F
100
AcDbEntity
  8
Default
100
AcDbSpline
210
0.0
220
0.0
230
1.0
 70
     8
 71
     3
 72
     8
 73
     4
 74
     0
 42
0.0000000001
 43
0.0000000001
 40
0.0
 40
0.0
 40
0.0
 40
0.0
 40
1.0
 40
1.0
 40
1.0
 40
1.0
 10
46.57234761862533
 20
6.929774203619047
 30
0.0
 10
46.61147143790232
 20
6.921319595534438
 30
0.0
 10
46.63238164318774
 20
6.895293103456677
 30
0.0
 10
46.63100661862534
 20
6.855488203619046
 30
0.0
  0
POLYLINE
  5
C8
330
1F
100
AcDbEntity
  8
Default
100
AcDb2dPolyline
 66
     1
 10
0.0
 20
0.0
 30
0.0
  0
VERTEX
  5
C9
330
C8
100
AcDbEntity
  8
Default
100
AcDbVertex
100
AcDb2dVertex
 10
46.63100661862534
 20
6.855488203619046
 30
0.0
  0
VERTEX
  5
CA
330
C8
100
AcDbEntity
  8
Default
100
AcDbVertex
100
AcDb2dVertex
 10
46.54061661862532
 20
4.238833203619045
 30
0.0
  0
SEQEND
  5
CB
330
C8
100
AcDbEntity
  8
Default
  0
LINE
  5
CC
330
1F
100
AcDbEntity
  8
Default
100
AcDbLine
 10
48.10588503968454
 20
6.948404808282231
 30
0.0
 11
48.10590036862534
 21
10.37564364267376
 31
0.0
  0
POLYLINE
  5
CD
330
1F
100
AcDbEntity
  8
Default
100
AcDb2dPolyline
 66
     1
 10
0.0
 20
0.0
 30
0.0
  0
VERTEX
  5
CE
330
CD
100
AcDbEntity
  8
Default
100
AcDbVertex
100
AcDb2dVertex
 10
48.10590036862534
 20
10.37564364267376
 30
0.0
  0
VERTEX
  5
CF
330
CD
100
AcDbEntity
  8
Default
100
AcDbVertex
100
AcDb2dVertex
 10
45.52590036862536
 20
10.05885957320456
 30
0.0
  0
SEQEND
  5
D0
330
CD
100
AcDbEntity
  8
Default
  0
LINE
  5
D1
330
1F
100
AcDbEntity
  8
Default
100
AcDbLine
 10
45.52590036862536
 20
10.05885957320456
 30
0.0
 11
45.52590036862536
 21
6.948386830115187
 31
0.0
  0
LINE
  5
D2
330
1F
100
AcDbEntity
  8
Default
100
AcDbLine
 10
-1.289950694475195
 20
6.948408117359108
 30
0.0
 11
-1.290000000000035
 21
10.05885957320456
 31
0.0
  0
SPLINE
  5
D3
330
1F
100
AcDbEntity
  8
Default
100
AcDbSpline
210
0.0
220
0.0
230
1.0
 70
     8
 71
     3
 72
     9
 73
     5
 74
     0
 42
0.0000000001
 43
0.0000000001
 40
1.075252304077887
 40
1.075252304077887
 40
1.075252304077887
 40
1.075252304077887
 40
2.075252304077887
 40
3.075252304077887
 40
3.075252304077887
 40
3.075252304077887
 40
3.075252304077887
 10
-1.290000000000035
 20
10.05885957320456
 30
0.0
 10
-1.290000000000063
 20
10.37564364267382
 30
0.0
 10
-0.0000000000000142
 20
10.37564364267384
 30
0.0
 10
1.290000000000006
 20
10.37564364267385
 30
0.0
 10
1.290000000000006
 20
10.05885957320456
 30
0.0
  0
LINE
  5
D4
330
1F
100
AcDbEntity
  8
Default
100
AcDbLine
 10
1.290000000000006
 20
10.05885957320456
 30
0.0
 11
1.2899666972652
 21
6.948419276187792
 31
0.0
  0
SPLINE
  5
D5
330
1F
100
AcDbEntity
  8
Default
100
AcDbSpline
210
0.0
220
0.0
230
1.0
 70
     8
 71
     3
 72
     8
 73
     4
 74
     0
 42
0.0000000001
 43
0.0000000001
 40
0.0
 40
0.0
 40
0.0
 40
0.0
 40
1.0
 40
1.0
 40
1.0
 40
1.0
 10
-0.2752744999998669
 20
4.238833203619045
 30
0.0
 10
-0.2765041750503912
 20
4.203235954262333
 30
0.0
 10
-0.29734406385505
 20
4.173979905338154
 30
0.0
 10
-0.3303704999998587
 20
4.160083203619045
 30
0.0
  0
POLYLINE
  5
D6
330
1F
100
AcDbEntity
  8
Default
100
AcDb2dPolyline
 66
     1
 10
0.0
 20
0.0
 30
0.0
  0
VERTEX
  5
D7
330
D6
100
AcDbEntity
  8
Default
100
AcDbVertex
100
AcDb2dVertex
 10
-0.3303704999998587
 20
4.160083203619045
 30
0.0
  0
VERTEX
  5
D8
330
D6
100
AcDbEntity
  8
Default
100
AcDbVertex
100
AcDb2dVertex
 10
-9.62294049999987
 20
0.2500012036190462
 30
0.0
  0
VERTEX
  5
D9
330
D6
100
AcDbEntity
  8
Default
100
AcDbVertex
100
AcDb2dVertex
 10
-11.32910249999985
 20
0.2500012036190462
 30
0.0
  0
VERTEX
  5
DA
330
D6
100
AcDbEntity
  8
Default
100
AcDbVertex
100
AcDb2dVertex
 10
-11.29944649999986
 20
1.561211203619045
 30
0.0
  0
SEQEND
  5
DB
330
D6
100
AcDbEntity
  8
Default
  0
SPLINE
  5
DC
330
1F
100
AcDbEntity
  8
Default
100
AcDbSpline
210
0.0
220
0.0
230
1.0
 70
     8
 71
     3
 72
     8
 73
     4
 74
     0
 42
0.0000000001
 43
0.0000000001
 40
-1.0
 40
-1.0
 40
-1.0
 40
-1.0
 40
0.0
 40
0.0
 40
0.0
 40
0.0
 10
-11.29944649999986
 20
1.561211203619045
 30
0.0
 10
-11.29851591707516
 20
1.60235598500098
 30
0.0
 10
-11.27767227183544
 20
1.640499471519444
 30
0.0
 10
-11.24207349999988
 20
1.659418203619044
 30
0.0
  0
POLYLINE
  5
DD
330
1F
100
AcDbEntity
  8
Default
100
AcDb2dPolyline
 66
     1
 10
0.0
 20
0.0
 30
0.0
  0
VERTEX
  5
DE
330
DD
100
AcDbEntity
  8
Default
100
AcDbVertex
100
AcDb2dVertex
 10
-11.24207349999988
 20
1.659418203619044
 30
0.0
  0
VERTEX
  5
DF
330
DD
100
AcDbEntity
  8
Default
100
AcDbVertex
100
AcDb2dVertex
 10
-1.252550499999856
 20
6.968284203619046
 30
0.0
  0
SEQEND
  5
E0
330
DD
100
AcDbEntity
  8
Default
  0
SPLINE
  5
E1
330
1F
100
AcDbEntity
  8
Default
100
AcDbSpline
210
0.0
220
0.0
230
1.0
 70
     8
 71
     3
 72
     8
 73
     4
 74
     0
 42
0.0000000001
 43
0.0000000001
 40
0.0
 40
0.0
 40
0.0
 40
0.0
 40
1.0
 40
1.0
 40
1.0
 40
1.0
 10
-1.252550499999856
 20
6.968284203619046
 30
0.0
 10
-1.178750411731428
 20
7.00750477295006
 30
0.0
 10
-1.046890747374036
 20
7.021254859876073
 30
0.0
 10
-0.9596994999998714
 20
7.022434203619046
 30
0.0
  0
SPLINE
  5
E2
330
1F
100
AcDbEntity
  8
Default
100
AcDbSpline
210
0.0
220
0.0
230
1.0
 70
     8
 71
     3
 72
    10
 73
     6
 74
     0
 42
0.0000000001
 43
0.0000000001
 40
0.0
 40
0.0
 40
0.0
 40
0.0
 40
1.0
 40
2.0
 40
3.0
 40
3.0
 40
3.0
 40
3.0
 10
-0.9596994999998714
 20
7.022434203619046
 30
0.0
 10
-0.8792783406599227
 20
7.023521975544856
 30
0.0
 10
-0.7185635531588304
 20
7.013697696159166
 30
0.0
 10
-0.479777771355387
 20
6.978649552375614
 30
0.0
 10
-0.3221304685919648
 20
6.946756748582253
 30
0.0
 10
-0.2435434999998591
 20
6.929774203619047
 30
0.0
  0
SPLINE
  5
E3
330
1F
100
AcDbEntity
  8
Default
100
AcDbSpline
210
0.0
220
0.0
230
1.0
 70
     8
 71
     3
 72
     8
 73
     4
 74
     0
 42
0.0000000001
 43
0.0000000001
 40
0.0
 40
0.0
 40
0.0
 40
0.0
 40
1.0
 40
1.0
 40
1.0
 40
1.0
 10
-0.2435434999998591
 20
6.929774203619047
 30
0.0
 10
-0.2044196807228644
 20
6.921319595534438
 30
0.0
 10
-0.1835094754374467
 20
6.895293103456677
 30
0.0
 10
-0.1848844999998533
 20
6.855488203619046
 30
0.0
  0
POLYLINE
  5
E4
330
1F
100
AcDbEntity
  8
Default
100
AcDb2dPolyline
 66
     1
 10
0.0
 20
0.0
 30
0.0
  0
VERTEX
  5
E5
330
E4
100
AcDbEntity
  8
Default
100
AcDbVertex
100
AcDb2dVertex
 10
-0.1848844999998533
 20
6.855488203619046
 30
0.0
  0
VERTEX
  5
E6
330
E4
100
AcDbEntity
  8
Default
100
AcDbVertex
100
AcDb2dVertex
 10
-0.2752744999998669
 20
4.238833203619045
 30
0.0
  0
SEQEND
  5
E7
330
E4
100
AcDbEntity
  8
Default
  0
SPLINE
  5
E8
330
1F
100
AcDbEntity
  8
Default
100
AcDbSpline
210
0.0
220
0.0
230
1.0
 70
     8
 71
     3
 72
     8
 73
     4
 74
     0
 42
0.0000000001
 43
0.0000000001
 40
0.0
 40
0.0
 40
0.0
 40
0.0
 40
1.0
 40
1.0
 40
1.0
 40
1.0
 10
0.2753115000001429
 20
4.238833203619045
 30
0.0
 10
0.2765411750506672
 20
4.203235954262333
 30
0.0
 10
0.297381063855326
 20
4.173979905338154
 30
0.0
 10
0.3304075000001347
 20
4.160083203619045
 30
0.0
  0
POLYLINE
  5
E9
330
1F
100
AcDbEntity
  8
Default
100
AcDb2dPolyline
 66
     1
 10
0.0
 20
0.0
 30
0.0
  0
VERTEX
  5
EA
330
E9
100
AcDbEntity
  8
Default
100
AcDbVertex
100
AcDb2dVertex
 10
0.3304075000001347
 20
4.160083203619045
 30
0.0
  0
VERTEX
  5
EB
330
E9
100
AcDbEntity
  8
Default
100
AcDbVertex
100
AcDb2dVertex
 10
9.622977500000147
 20
0.2500012036190462
 30
0.0
  0
VERTEX
  5
EC
330
E9
100
AcDbEntity
  8
Default
100
AcDbVertex
100
AcDb2dVertex
 10
11.32913950000014
 20
0.2500012036190462
 30
0.0
  0
VERTEX
  5
ED
330
E9
100
AcDbEntity
  8
Default
100
AcDbVertex
100
AcDb2dVertex
 10
11.29948350000014
 20
1.561211203619045
 30
0.0
  0
SEQEND
  5
EE
330
E9
100
AcDbEntity
  8
Default
  0
SPLINE
  5
EF
330
1F
100
AcDbEntity
  8
Default
100
AcDbSpline
210
0.0
220
0.0
230
1.0
 70
     8
 71
     3
 72
     8
 73
     4
 74
     0
 42
0.0000000001
 43
0.0000000001
 40
-1.0
 40
-1.0
 40
-1.0
 40
-1.0
 40
0.0
 40
0.0
 40
0.0
 40
0.0
 10
11.29948350000014
 20
1.561211203619045
 30
0.0
 10
11.29855291707545
 20
1.60235598500098
 30
0.0
 10
11.27770927183573
 20
1.640499471519444
 30
0.0
 10
11.24211050000014
 20
1.659418203619044
 30
0.0
  0
POLYLINE
  5
F0
330
1F
100
AcDbEntity
  8
Default
100
AcDb2dPolyline
 66
     1
 10
0.0
 20
0.0
 30
0.0
  0
VERTEX
  5
F1
330
F0
100
AcDbEntity
  8
Default
100
AcDbVertex
100
AcDb2dVertex
 10
11.24211050000014
 20
1.659418203619044
 30
0.0
  0
VERTEX
  5
F2
330
F0
100
AcDbEntity
  8
Default
100
AcDbVertex
100
AcDb2dVertex
 10
1.252587500000132
 20
6.968284203619046
 30
0.0
  0
SEQEND
  5
F3
330
F0
100
AcDbEntity
  8
Default
  0
SPLINE
  5
F4
330
1F
100
AcDbEntity
  8
Default
100
AcDbSpline
210
0.0
220
0.0
230
1.0
 70
     8
 71
     3
 72
     8
 73
     4
 74
     0
 42
0.0000000001
 43
0.0000000001
 40
0.0
 40
0.0
 40
0.0
 40
0.0
 40
1.0
 40
1.0
 40
1.0
 40
1.0
 10
1.252587500000132
 20
6.968284203619046
 30
0.0
 10
1.178787411731705
 20
7.00750477295006
 30
0.0
 10
1.046927747374312
 20
7.021254859876073
 30
0.0
 10
0.9597365000001474
 20
7.022434203619046
 30
0.0
  0
SPLINE
  5
F5
330
1F
100
AcDbEntity
  8
Default
100
AcDbSpline
210
0.0
220
0.0
230
1.0
 70
     8
 71
     3
 72
    10
 73
     6
 74
     0
 42
0.0000000001
 43
0.0000000001
 40
0.0
 40
0.0
 40
0.0
 40
0.0
 40
1.0
 40
2.0
 40
3.0
 40
3.0
 40
3.0
 40
3.0
 10
0.9597365000001474
 20
7.022434203619046
 30
0.0
 10
0.8793153406601988
 20
7.023521975544856
 30
0.0
 10
0.7186005531591064
 20
7.013697696159166
 30
0.0
 10
0.4798147713556631
 20
6.978649552375614
 30
0.0
 10
0.3221674685922409
 20
6.946756748582253
 30
0.0
 10
0.2435805000001352
 20
6.929774203619047
 30
0.0
  0
SPLINE
  5
F6
330
1F
100
AcDbEntity
  8
Default
100
AcDbSpline
210
0.0
220
0.0
230
1.0
 70
     8
 71
     3
 72
     8
 73
     4
 74
     0
 42
0.0000000001
 43
0.0000000001
 40
0.0
 40
0.0
 40
0.0
 40
0.0
 40
1.0
 40
1.0
 40
1.0
 40
1.0
 10
0.2435805000001352
 20
6.929774203619047
 30
0.0
 10
0.2044566807231405
 20
6.921319595534438
 30
0.0
 10
0.1835464754377227
 20
6.895293103456677
 30
0.0
 10
0.1849215000001294
 20
6.855488203619046
 30
0.0
  0
POLYLINE
  5
F7
330
1F
100
AcDbEntity
  8
Default
100
AcDb2dPolyline
 66
     1
 10
0.0
 20
0.0
 30
0.0
  0
VERTEX
  5
F8
330
F7
100
AcDbEntity
  8
Default
100
AcDbVertex
100
AcDb2dVertex
 10
0.1849215000001294
 20
6.855488203619046
 30
0.0
  0
VERTEX
  5
F9
330
F7
100
AcDbEntity
  8
Default
100
AcDbVertex
100
AcDb2dVertex
 10
0.2753115000001429
 20
4.238833203619045
 30
0.0
  0
SEQEND
  5
FA
330
F7
100
AcDbEntity
  8
Default
  0
SPLINE
  5
FB
330
1F
100
AcDbEntity
  8
Default
100
AcDbSpline
210
0.0
220
0.0
230
1.0
 70
    24
 71
     2
 72
     6
 73
     3
 74
     0
 42
0.0000000001
 43
0.0000000001
 40
0.0
 40
0.0
 40
0.0
 40
1.0
 40
1.0
 40
1.0
 10
-0.4255494999998604
 20
4.120001203619047
 30
0.0
 10
0.000018500000138
 20
4.120001203619047
 30
0.0
 10
0.4255865000001364
 20
4.120001203619047
 30
0.0
  0
ENDSEC
  0
SECTION
  2
OBJECTS
  0
DICTIONARY
  5
C
330
0
100
AcDbDictionary
281
     1
  3
ACAD_GROUP
350
D
  3
ACAD_LAYOUT
350
1A
  3
ACAD_MLEADERSTYLE
350
FD
  3
ACAD_MLINESTYLE
350
17
  3
ACAD_PLOTSETTINGS
350
19
  3
ACAD_PLOTSTYLENAME
350
E
  3
ACAD_TABLESTYLE
350
FC
  3
ACAD_VISUALSTYLE
350
2A
  0
DICTIONARY
  5
D
102
{ACAD_REACTORS
330
C
102
}
330
C
100
AcDbDictionary
281
     1
  0
DICTIONARY
  5
1A
102
{ACAD_REACTORS
330
C
102
}
330
C
100
AcDbDictionary
281
     1
  3
Layout1
350
1E
  3
Layout2
350
26
  3
Model
350
22
  0
DICTIONARY
  5
FD
102
{ACAD_REACTORS
330
C
102
}
330
C
100
AcDbDictionary
281
     1
  0
DICTIONARY
  5
17
102
{ACAD_REACTORS
330
C
102
}
330
C
100
AcDbDictionary
281
     1
  3
Standard
350
18
  0
DICTIONARY
  5
19
102
{ACAD_REACTORS
330
C
102
}
330
C
100
AcDbDictionary
281
     1
  0
ACDBDICTIONARYWDFLT
  5
E
102
{ACAD_REACTORS
330
C
102
}
330
C
100
AcDbDictionary
281
     1
  3
Normal
350
F
100
AcDbDictionaryWithDefault
340
F
  0
DICTIONARY
  5
FC
102
{ACAD_REACTORS
330
C
102
}
330
C
100
AcDbDictionary
281
     1
  0
DICTIONARY
  5
2A
102
{ACAD_REACTORS
330
C
102
}
330
C
100
AcDbDictionary
281
     1
  3
2dWireframe
350
2F
  3
3D Hidden
350
31
  3
3dWireframe
350
30
  3
Basic
350
32
  3
Brighten
350
36
  3
ColorChange
350
3A
  3
Conceptual
350
34
  3
Dim
350
35
  3
Facepattern
350
39
  3
Flat
350
2B
  3
FlatWithEdges
350
2C
  3
Gouraud
350
2D
  3
GouraudWithEdges
350
2E
  3
Linepattern
350
38
  3
Realistic
350
33
  3
Thicken
350
37
  0
LAYOUT
  5
1E
102
{ACAD_REACTORS
330
1A
102
}
330
1A
100
AcDbPlotSettings
  1

  2
none_device
  4

  6

 40
0.0
 41
0.0
 42
0.0
 43
0.0
 44
0.0
 45
0.0
 46
0.0
 47
0.0
 48
0.0
 49
0.0
140
0.0
141
0.0
142
1.0
143
1.0
 70
   688
 72
     0
 73
     0
 74
     5
  7

 75
    16
 76
     0
 77
     2
 78
   300
147
1.0
148
0.0
149
0.0
100
AcDbLayout
  1
Layout1
 70
     1
 71
     1
 10
0.0
 20
0.0
 11
12.0
 21
9.0
 12
0.0
 22
0.0
 32
0.0
 14
1.000000000000000E+20
 24
1.000000000000000E+20
 34
1.000000000000000E+20
 15
-1.000000000000000E+20
 25
-1.000000000000000E+20
 35
-1.000000000000000E+20
146
0.0
 13
0.0
 23
0.0
 33
0.0
 16
1.0
 26
0.0
 36
0.0
 17
0.0
 27
1.0
 37
0.0
 76
     0
330
1B
  0
LAYOUT
  5
26
102
{ACAD_REACTORS
330
1A
102
}
330
1A
100
AcDbPlotSettings
  1

  2
none_device
  4

  6

 40
0.0
 41
0.0
 42
0.0
 43
0.0
 44
0.0
 45
0.0
 46
0.0
 47
0.0
 48
0.0
 49
0.0
140
0.0
141
0.0
142
1.0
143
1.0
 70
   688
 72
     0
 73
     0
 74
     5
  7

 75
    16
 76
     0
 77
     2
 78
   300
147
1.0
148
0.0
149
0.0
100
AcDbLayout
  1
Layout2
 70
     1
 71
     2
 10
0.0
 20
0.0
 11
0.0
 21
0.0
 12
0.0
 22
0.0
 32
0.0
 14
0.0
 24
0.0
 34
0.0
 15
0.0
 25
0.0
 35
0.0
146
0.0
 13
0.0
 23
0.0
 33
0.0
 16
1.0
 26
0.0
 36
0.0
 17
0.0
 27
1.0
 37
0.0
 76
     0
330
23
  0
LAYOUT
  5
22
102
{ACAD_REACTORS
330
1A
102
}
330
1A
100
AcDbPlotSettings
  1

  2
none_device
  4

  6

 40
0.0
 41
0.0
 42
0.0
 43
0.0
 44
0.0
 45
0.0
 46
0.0
 47
0.0
 48
0.0
 49
0.0
140
0.0
141
0.0
142
1.0
143
1.0
 70
  1712
 72
     0
 73
     0
 74
     0
  7

 75
     0
 76
     0
 77
     2
 78
   300
147
1.0
148
0.0
149
0.0
100
AcDbLayout
  1
Model
 70
     1
 71
     0
 10
0.0
 20
0.0
 11
12.0
 21
9.0
 12
0.0
 22
0.0
 32
0.0
 14
-18.46424689820937
 24
0.2500012036190462
 34
0.0
 15
62.87013334752943
 25
89.24259755416837
 35
0.0
146
0.0
 13
0.0
 23
0.0
 33
0.0
 16
1.0
 26
0.0
 36
0.0
 17
0.0
 27
1.0
 37
0.0
 76
     0
330
1F
331
29
  0
MLINESTYLE
  5
18
102
{ACAD_REACTORS
330
17
102
}
330
17
100
AcDbMlineStyle
  2
Standard
 70
     0
  3

 62
   256
 51
90.0
 52
90.0
 71
     2
 49
0.5
 62
   256
  6
BYLAYER
 49
-0.5
 62
   256
  6
BYLAYER
  0
ACDBPLACEHOLDER
  5
F
102
{ACAD_REACTORS
330
E
102
}
330
E
  0
VISUALSTYLE
  5
2F
102
{ACAD_REACTORS
330
2A
102
}
330
2A
100
AcDbVisualStyle
  2
2dWireframe
 70
     4
 71
     0
 72
     2
 73
     0
 90
        0
 40
-0.6
 41
-30.0
 62
     5
 63
     7
421
 16777215
 74
     1
 91
        4
 64
     7
 65
   257
 75
     1
175
     1
 42
1.0
 92
        0
 66
   257
 43
1.0
 76
     1
 77
     6
 78
     2
 67
     7
 79
     5
170
     0
171
     0
290
     0
174
     0
 93
        1
 44
0.0
173
     0
291
     0
 45
0.0
1001
ACAD
1000
AcDbSavedByObjectVersion
1070
     0
  0
VISUALSTYLE
  5
31
102
{ACAD_REACTORS
330
2A
102
}
330
2A
100
AcDbVisualStyle
  2
3D Hidden
 70
     6
 71
     1
 72
     2
 73
     2
 90
        0
 40
-0.6
 41
-30.0
 62
     5
 63
     7
421
 16777215
 74
     2
 91
        2
 64
     7
 65
   257
 75
     2
175
     1
 42
40.0
 92
        0
 66
   257
 43
1.0
 76
     1
 77
     6
 78
     2
 67
     7
 79
     3
170
     0
171
     0
290
     0
174
     0
 93
        1
 44
0.0
173
     0
291
     0
 45
0.0
1001
ACAD
1000
AcDbSavedByObjectVersion
1070
     0
  0
VISUALSTYLE
  5
30
102
{ACAD_REACTORS
330
2A
102
}
330
2A
100
AcDbVisualStyle
  2
3dWireframe
 70
     5
 71
     0
 72
     2
 73
     0
 90
        0
 40
-0.6
 41
-30.0
 62
     5
 63
     7
421
 16777215
 74
     1
 91
        4
 64
     7
 65
   257
 75
     1
175
     1
 42
1.0
 92
        0
 66
   257
 43
1.0
 76
     1
 77
     6
 78
     2
 67
     7
 79
     5
170
     0
171
     0
290
     0
174
     0
 93
        1
 44
0.0
173
     0
291
     0
 45
0.0
1001
ACAD
1000
AcDbSavedByObjectVersion
1070
     0
  0
VISUALSTYLE
  5
32
102
{ACAD_REACTORS
330
2A
102
}
330
2A
100
AcDbVisualStyle
  2
Basic
 70
     7
 71
     1
 72
     0
 73
     1
 90
        0
 40
-0.6
 41
-30.0
 62
     5
 63
     7
421
 16777215
 74
     0
 91
        4
 64
     7
 65
   257
 75
     1
175
     1
 42
1.0
 92
        8
 66
     7
 43
1.0
 76
     1
 77
     6
 78
     2
 67
     7
 79
     5
170
     0
171
     0
290
     0
174
     0
 93
        1
 44
0.0
173
     0
291
     1
 45
0.0
1001
ACAD
1000
AcDbSavedByObjectVersion
1070
     0
  0
VISUALSTYLE
  5
36
102
{ACAD_REACTORS
330
2A
102
}
330
2A
100
AcDbVisualStyle
  2
Brighten
 70
    12
 71
     2
 72
     2
 73
     0
 90
        0
 40
-0.6
 41
-30.0
 62
     5
 63
     7
421
 16777215
 74
     1
 91
        4
 64
     7
 65
   257
 75
     1
175
     1
 42
1.0
 92
        8
 66
     7
 43
1.0
 76
     1
 77
     6
 78
     2
 67
     7
 79
     5
170
     0
171
     0
290
     0
174
     0
 93
        1
 44
50.0
173
     0
291
     1
 45
0.0
1001
ACAD
1000
AcDbSavedByObjectVersion
1070
     0
  0
VISUALSTYLE
  5
3A
102
{ACAD_REACTORS
330
2A
102
}
330
2A
100
AcDbVisualStyle
  2
ColorChange
 70
    16
 71
     2
 72
     2
 73
     3
 90
        0
 40
-0.6
 41
-30.0
 62
     5
 63
     8
421
  8421504
 74
     1
 91
        4
 64
     7
 65
   257
 75
     1
175
     1
 42
1.0
 92
        8
 66
     8
424
  8421504
 43
1.0
 76
     1
 77
     6
 78
     2
 67
     7
 79
     5
170
     0
171
     0
290
     0
174
     0
 93
        1
 44
0.0
173
     0
291
     1
 45
0.0
1001
ACAD
1000
AcDbSavedByObjectVersion
1070
     0
  0
VISUALSTYLE
  5
34
102
{ACAD_REACTORS
330
2A
102
}
330
2A
100
AcDbVisualStyle
  2
Conceptual
 70
     9
 71
     3
 72
     2
 73
     0
 90
        0
 40
-0.6
 41
-30.0
 62
     5
 63
     7
421
 16777215
 74
     2
 91
        2
 64
     7
 65
   257
 75
     1
175
     1
 42
40.0
 92
        8
 66
     7
 43
1.0
 76
     1
 77
     6
 78
     2
 67
     7
 79
     3
170
     0
171
     0
290
     0
174
     0
 93
        1
 44
0.0
173
     0
291
     0
 45
0.0
1001
ACAD
1000
AcDbSavedByObjectVersion
1070
     0
  0
VISUALSTYLE
  5
35
102
{ACAD_REACTORS
330
2A
102
}
330
2A
100
AcDbVisualStyle
  2
Dim
 70
    11
 71
     2
 72
     2
 73
     0
 90
        0
 40
-0.6
 41
-30.0
 62
     5
 63
     7
421
 16777215
 74
     1
 91
        4
 64
     7
 65
   257
 75
     1
175
     1
 42
1.0
 92
        8
 66
     7
 43
1.0
 76
     1
 77
     6
 78
     2
 67
     7
 79
     5
170
     0
171
     0
290
     0
174
     0
 93
        1
 44
-50.0
173
     0
291
     1
 45
0.0
1001
ACAD
1000
AcDbSavedByObjectVersion
1070
     0
  0
VISUALSTYLE
  5
39
102
{ACAD_REACTORS
330
2A
102
}
330
2A
100
AcDbVisualStyle
  2
Facepattern
 70
    15
 71
     2
 72
     2
 73
     0
 90
        0
 40
-0.6
 41
-30.0
 62
     5
 63
     7
421
 16777215
 74
     1
 91
        4
 64
     7
 65
   257
 75
     1
175
     1
 42
1.0
 92
        8
 66
     7
 43
1.0
 76
     1
 77
     6
 78
     2
 67
     7
 79
     5
170
     0
171
     0
290
     0
174
     0
 93
        1
 44
0.0
173
     0
291
     1
 45
0.0
1001
ACAD
1000
AcDbSavedByObjectVersion
1070
     0
  0
VISUALSTYLE
  5
2B
102
{ACAD_REACTORS
330
2A
102
}
330
2A
100
AcDbVisualStyle
  2
Flat
 70
     0
 71
     2
 72
     1
 73
     1
 90
        2
 40
-0.6
 41
30.0
 62
     5
 63
     7
421
 16777215
 74
     0
 91
        4
 64
     7
 65
   257
 75
     1
175
     1
 42
1.0
 92
        8
 66
     7
 43
1.0
 76
     1
 77
     6
 78
     2
 67
     7
 79
     5
170
     0
171
     0
290
     0
174
     0
 93
       13
 44
0.0
173
     0
291
     1
 45
0.0
1001
ACAD
1000
AcDbSavedByObjectVersion
1070
     0
  0
VISUALSTYLE
  5
2C
102
{ACAD_REACTORS
330
2A
102
}
330
2A
100
AcDbVisualStyle
  2
FlatWithEdges
 70
     1
 71
     2
 72
     1
 73
     1
 90
        2
 40
-0.6
 41
30.0
 62
     5
 63
     7
421
 16777215
 74
     1
 91
        4
 64
     7
 65
   257
 75
     1
175
     1
 42
1.0
 92
        0
 66
   257
 43
1.0
 76
     1
 77
     6
 78
     2
 67
     7
 79
     5
170
     0
171
     0
290
     0
174
     0
 93
       13
 44
0.0
173
     0
291
     1
 45
0.0
1001
ACAD
1000
AcDbSavedByObjectVersion
1070
     0
  0
VISUALSTYLE
  5
2D
102
{ACAD_REACTORS
330
2A
102
}
330
2A
100
AcDbVisualStyle
  2
Gouraud
 70
     2
 71
     2
 72
     2
 73
     1
 90
        2
 40
-0.6
 41
30.0
 62
     5
 63
     7
421
 16777215
 74
     0
 91
        4
 64
     7
 65
   257
 75
     1
175
     1
 42
1.0
 92
        0
 66
     7
 43
1.0
 76
     1
 77
     6
 78
     2
 67
     7
 79
     5
170
     0
171
     0
290
     0
174
     0
 93
       13
 44
0.0
173
     0
291
     1
 45
0.0
1001
ACAD
1000
AcDbSavedByObjectVersion
1070
     0
  0
VISUALSTYLE
  5
2E
102
{ACAD_REACTORS
330
2A
102
}
330
2A
100
AcDbVisualStyle
  2
GouraudWithEdges
 70
     3
 71
     2
 72
     2
 73
     1
 90
        2
 40
-0.6
 41
30.0
 62
     5
 63
     7
421
 16777215
 74
     1
 91
        4
 64
     7
 65
   257
 75
     1
175
     1
 42
1.0
 92
        0
 66
   257
 43
1.0
 76
     1
 77
     6
 78
     2
 67
     7
 79
     5
170
     0
171
     0
290
     0
174
     0
 93
       13
 44
0.0
173
     0
291
     1
 45
0.0
1001
ACAD
1000
AcDbSavedByObjectVersion
1070
     0
  0
VISUALSTYLE
  5
38
102
{ACAD_REACTORS
330
2A
102
}
330
2A
100
AcDbVisualStyle
  2
Linepattern
 70
    14
 71
     2
 72
     2
 73
     0
 90
        0
 40
-0.6
 41
-30.0
 62
     5
 63
     7
421
 16777215
 74
     1
 91
        4
 64
     7
 65
   257
 75
     7
175
     7
 42
1.0
 92
        8
 66
     7
 43
1.0
 76
     1
 77
     6
 78
     2
 67
     7
 79
     5
170
     0
171
     0
290
     0
174
     0
 93
        1
 44
0.0
173
     0
291
     1
 45
0.0
1001
ACAD
1000
AcDbSavedByObjectVersion
1070
     0
  0
VISUALSTYLE
  5
33
102
{ACAD_REACTORS
330
2A
102
}
330
2A
100
AcDbVisualStyle
  2
Realistic
 70
     8
 71
     2
 72
     2
 73
     0
 90
        0
 40
-0.6
 41
-30.0
 62
     5
 63
     7
421
 16777215
 74
     1
 91
        0
 64
     7
 65
   257
 75
     1
175
     1
 42
1.0
 92
        8
 66
     8
424
  7895160
 43
1.0
 76
     1
 77
     6
 78
     2
 67
     7
 79
     5
170
     0
171
     0
290
     0
174
     0
 93
       13
 44
0.0
173
     0
291
     0
 45
0.0
1001
ACAD
1000
AcDbSavedByObjectVersion
1070
     0
  0
VISUALSTYLE
  5
37
102
{ACAD_REACTORS
330
2A
102
}
330
2A
100
AcDbVisualStyle
  2
Thicken
 70
    13
 71
     2
 72
     2
 73
     0
 90
        0
 40
-0.6
 41
-30.0
 62
     5
 63
     7
421
 16777215
 74
     1
 91
        4
 64
     7
 65
   257
 75
     1
175
     1
 42
1.0
 92
       12
 66
     7
 43
1.0
 76
     1
 77
     6
 78
     2
 67
     7
 79
     5
170
     0
171
     0
290
     0
174
     0
 93
        1
 44
0.0
173
     0
291
     1
 45
0.0
1001
ACAD
1000
AcDbSavedByObjectVersion
1070
     0
  0
ENDSEC
  0
EOF
