  0
SECTION
  2
HEADER
  9
$ACADVER
  1
AC1018
  9
$ACADMAINTVER
 70
     0
  9
$DWGCODEPAGE
  3
ANSI_1252
  9
$INSBASE
 10
0.0
 20
0.0
 30
0.0
  9
$EXTMIN
 10
-24.83884492439256
 20
0.0
 30
0.0
  9
$EXTMAX
 10
69.94678295895277
 20
82.34940720447366
 30
0.0
  9
$LIMMIN
 10
0.0
 20
0.0
  9
$LIMMAX
 10
12.0
 20
9.0
  9
$ORTHOMODE
 70
     0
  9
$REGENMODE
 70
     1
  9
$FILLMODE
 70
     1
  9
$QTEXTMODE
 70
     0
  9
$MIRRTEXT
 70
     1
  9
$LTSCALE
 40
0.0393700787401575
  9
$ATTMODE
 70
     1
  9
$TEXTSIZE
 40
0.2
  9
$TRACEWID
 40
0.05
  9
$TEXTSTYLE
  7
Standard
  9
$CLAYER
  8
Default
  9
$CELTYPE
  6
ByLayer
  9
$CECOLOR
 62
   256
  9
$CELTSCALE
 40
1.0
  9
$DISPSILH
 70
     0
  9
$DIMSCALE
 40
1.0
  9
$DIMASZ
 40
0.18
  9
$DIMEXO
 40
0.0625
  9
$DIMDLI
 40
0.38
  9
$DIMRND
 40
0.0
  9
$DIMDLE
 40
0.0
  9
$DIMEXE
 40
0.18
  9
$DIMTP
 40
0.0
  9
$DIMTM
 40
0.0
  9
$DIMTXT
 40
0.18
  9
$DIMCEN
 40
0.09
  9
$DIMTSZ
 40
0.0
  9
$DIMTOL
 70
     0
  9
$DIMLIM
 70
     0
  9
$DIMTIH
 70
     1
  9
$DIMTOH
 70
     1
  9
$DIMSE1
 70
     0
  9
$DIMSE2
 70
     0
  9
$DIMTAD
 70
     0
  9
$DIMZIN
 70
     0
  9
$DIMBLK
  1

  9
$DIMASO
 70
     1
  9
$DIMSHO
 70
     1
  9
$DIMPOST
  1

  9
$DIMAPOST
  1

  9
$DIMALT
 70
     0
  9
$DIMALTD
 70
     2
  9
$DIMALTF
 40
25.4
  9
$DIMLFAC
 40
1.0
  9
$DIMTOFL
 70
     0
  9
$DIMTVP
 40
0.0
  9
$DIMTIX
 70
     0
  9
$DIMSOXD
 70
     0
  9
$DIMSAH
 70
     0
  9
$DIMBLK1
  1

  9
$DIMBLK2
  1

  9
$DIMSTYLE
  2
Standard
  9
$DIMCLRD
 70
     0
  9
$DIMCLRE
 70
     0
  9
$DIMCLRT
 70
     0
  9
$DIMTFAC
 40
1.0
  9
$DIMGAP
 40
0.09
  9
$DIMJUST
 70
     0
  9
$DIMSD1
 70
     0
  9
$DIMSD2
 70
     0
  9
$DIMTOLJ
 70
     1
  9
$DIMTZIN
 70
     0
  9
$DIMALTZ
 70
     0
  9
$DIMALTTZ
 70
     0
  9
$DIMUPT
 70
     0
  9
$DIMDEC
 70
     4
  9
$DIMTDEC
 70
     4
  9
$DIMALTU
 70
     2
  9
$DIMALTTD
 70
     2
  9
$DIMTXSTY
  7
Standard
  9
$DIMAUNIT
 70
     0
  9
$DIMADEC
 70
     0
  9
$DIMALTRND
 40
0.0
  9
$DIMAZIN
 70
     0
  9
$DIMDSEP
 70
    46
  9
$DIMATFIT
 70
     3
  9
$DIMFRAC
 70
     0
  9
$DIMLDRBLK
  1

  9
$DIMLUNIT
 70
     2
  9
$DIMLWD
 70
    -2
  9
$DIMLWE
 70
    -2
  9
$DIMTMOVE
 70
     2
  9
$LUNITS
 70
     2
  9
$LUPREC
 70
     3
  9
$SKETCHINC
 40
0.1
  9
$FILLETRAD
 40
0.5
  9
$AUNITS
 70
     0
  9
$AUPREC
 70
     0
  9
$MENU
  1
.
  9
$ELEVATION
 40
0.0
  9
$PELEVATION
 40
0.0
  9
$THICKNESS
 40
0.0
  9
$LIMCHECK
 70
     0
  9
$CHAMFERA
 40
0.5
  9
$CHAMFERB
 40
0.5
  9
$CHAMFERC
 40
1.0
  9
$CHAMFERD
 40
0.0
  9
$SKPOLY
 70
     0
  9
$TDCREATE
 40
2457834.622114826
  9
$TDUCREATE
 40
2457834.788781493
  9
$TDUPDATE
 40
2457834.622114838
  9
$TDUUPDATE
 40
2457834.788781505
  9
$TDINDWG
 40
0.0000000116
  9
$TDUSRTIMER
 40
0.0000000116
  9
$USRTIMER
 70
     1
  9
$ANGBASE
 50
0.0
  9
$ANGDIR
 70
     0
  9
$PDMODE
 70
     0
  9
$PDSIZE
 40
0.0
  9
$PLINEWID
 40
0.0
  9
$SPLFRAME
 70
     0
  9
$SPLINETYPE
 70
     6
  9
$SPLINESEGS
 70
     8
  9
$HANDSEED
  5
92
  9
$SURFTAB1
 70
     6
  9
$SURFTAB2
 70
     6
  9
$SURFTYPE
 70
     6
  9
$SURFU
 70
     6
  9
$SURFV
 70
     6
  9
$UCSBASE
  2

  9
$UCSNAME
  2

  9
$UCSORG
 10
0.0
 20
0.0
 30
0.0
  9
$UCSXDIR
 10
1.0
 20
0.0
 30
0.0
  9
$UCSYDIR
 10
0.0
 20
1.0
 30
0.0
  9
$UCSORTHOREF
  2

  9
$UCSORTHOVIEW
 70
     0
  9
$UCSORGTOP
 10
0.0
 20
0.0
 30
0.0
  9
$UCSORGBOTTOM
 10
0.0
 20
0.0
 30
0.0
  9
$UCSORGLEFT
 10
0.0
 20
0.0
 30
0.0
  9
$UCSORGRIGHT
 10
0.0
 20
0.0
 30
0.0
  9
$UCSORGFRONT
 10
0.0
 20
0.0
 30
0.0
  9
$UCSORGBACK
 10
0.0
 20
0.0
 30
0.0
  9
$PUCSBASE
  2

  9
$PUCSNAME
  2

  9
$PUCSORG
 10
0.0
 20
0.0
 30
0.0
  9
$PUCSXDIR
 10
1.0
 20
0.0
 30
0.0
  9
$PUCSYDIR
 10
0.0
 20
1.0
 30
0.0
  9
$PUCSORTHOREF
  2

  9
$PUCSORTHOVIEW
 70
     0
  9
$PUCSORGTOP
 10
0.0
 20
0.0
 30
0.0
  9
$PUCSORGBOTTOM
 10
0.0
 20
0.0
 30
0.0
  9
$PUCSORGLEFT
 10
0.0
 20
0.0
 30
0.0
  9
$PUCSORGRIGHT
 10
0.0
 20
0.0
 30
0.0
  9
$PUCSORGFRONT
 10
0.0
 20
0.0
 30
0.0
  9
$PUCSORGBACK
 10
0.0
 20
0.0
 30
0.0
  9
$USERI1
 70
     0
  9
$USERI2
 70
     0
  9
$USERI3
 70
     0
  9
$USERI4
 70
     0
  9
$USERI5
 70
     0
  9
$USERR1
 40
0.0
  9
$USERR2
 40
0.0
  9
$USERR3
 40
0.0
  9
$USERR4
 40
0.0
  9
$USERR5
 40
0.0
  9
$WORLDVIEW
 70
     1
  9
$SHADEDGE
 70
     3
  9
$SHADEDIF
 70
    70
  9
$TILEMODE
 70
     1
  9
$MAXACTVP
 70
    64
  9
$PINSBASE
 10
0.0
 20
0.0
 30
0.0
  9
$PLIMCHECK
 70
     0
  9
$PEXTMIN
 10
1.000000000000000E+20
 20
1.000000000000000E+20
 30
1.000000000000000E+20
  9
$PEXTMAX
 10
-1.000000000000000E+20
 20
-1.000000000000000E+20
 30
-1.000000000000000E+20
  9
$PLIMMIN
 10
0.0
 20
0.0
  9
$PLIMMAX
 10
12.0
 20
9.0
  9
$UNITMODE
 70
     0
  9
$VISRETAIN
 70
     1
  9
$PLINEGEN
 70
     0
  9
$PSLTSCALE
 70
     1
  9
$TREEDEPTH
 70
  3020
  9
$CMLSTYLE
  2
Standard
  9
$CMLJUST
 70
     0
  9
$CMLSCALE
 40
1.0
  9
$PROXYGRAPHICS
 70
     1
  9
$MEASUREMENT
 70
     0
  9
$CELWEIGHT
370
    -1
  9
$ENDCAPS
280
     0
  9
$JOINSTYLE
280
     0
  9
$LWDISPLAY
290
     0
  9
$INSUNITS
 70
     1
  9
$HYPERLINKBASE
  1

  9
$STYLESHEET
  1

  9
$XEDIT
290
     1
  9
$CEPSNTYPE
380
     0
  9
$PSTYLEMODE
290
     1
  9
$FINGERPRINTGUID
  2
{16664CBA-B731-4D9F-83D0-EDC2B20167FC}
  9
$VERSIONGUID
  2
{FAEB1C32-E019-11D5-929B-00C0DF256EC4}
  9
$EXTNAMES
290
     1
  9
$PSVPSCALE
 40
0.0
  9
$OLESTARTUP
290
     0
  9
$SORTENTS
280
   127
  9
$INDEXCTL
280
     0
  9
$HIDETEXT
280
     1
  9
$XCLIPFRAME
290
     0
  9
$HALOGAP
280
     0
  9
$OBSCOLOR
 70
   257
  9
$OBSLTYPE
280
     0
  9
$INTERSECTIONDISPLAY
280
     0
  9
$INTERSECTIONCOLOR
 70
   257
  9
$DIMASSOC
280
     2
  9
$PROJECTNAME
  1

  0
ENDSEC
  0
SECTION
  2
CLASSES
  0
CLASS
  1
ACDBDICTIONARYWDFLT
  2
AcDbDictionaryWithDefault
  3
ObjectDBX Classes
 90
        0
 91
        4
280
     0
281
     0
  0
CLASS
  1
VISUALSTYLE
  2
AcDbVisualStyle
  3
ObjectDBX Classes
 90
     4095
 91
        4
280
     0
281
     0
  0
ENDSEC
  0
SECTION
  2
TABLES
  0
TABLE
  2
VPORT
  5
8
330
0
100
AcDbSymbolTable
 70
     1
  0
VPORT
  5
29
330
8
100
AcDbSymbolTableRecord
100
AcDbViewportTableRecord
  2
*Active
 70
     0
 10
0.0
 20
0.0
 11
1.0
 21
1.0
 12
22.5539690172801
 22
41.17470360223683
 13
0.0
 23
0.0
 14
0.5
 24
0.5
 15
0.5
 25
0.5
 16
0.0
 26
0.0
 36
1.0
 17
0.0
 27
0.0
 37
0.0
 40
83.99639534856314
 41
1.151017731651577
 42
50.0
 43
0.0
 44
0.0
 50
0.0
 51
0.0
 71
     0
 72
   100
 73
     1
 74
     3
 75
     0
 76
     0
 77
     0
 78
     0
281
     0
 65
     1
110
0.0
120
0.0
130
0.0
111
1.0
121
0.0
131
0.0
112
0.0
122
1.0
132
0.0
 79
     0
146
0.0
  0
ENDTAB
  0
TABLE
  2
LTYPE
  5
5
330
0
100
AcDbSymbolTable
 70
     1
  0
LTYPE
  5
14
330
5
100
AcDbSymbolTableRecord
100
AcDbLinetypeTableRecord
  2
ByBlock
 70
     0
  3

 72
    65
 73
     0
 40
0.0
  0
LTYPE
  5
15
330
5
100
AcDbSymbolTableRecord
100
AcDbLinetypeTableRecord
  2
ByLayer
 70
     0
  3

 72
    65
 73
     0
 40
0.0
  0
LTYPE
  5
16
330
5
100
AcDbSymbolTableRecord
100
AcDbLinetypeTableRecord
  2
Continuous
 70
     0
  3
Solid line
 72
    65
 73
     0
 40
0.0
  0
ENDTAB
  0
TABLE
  2
LAYER
  5
2
330
0
100
AcDbSymbolTable
 70
     2
  0
LAYER
  5
10
330
2
100
AcDbSymbolTableRecord
100
AcDbLayerTableRecord
  2
0
 70
     0
 62
     7
  6
Continuous
370
    -3
390
F
  0
LAYER
  5
3B
330
2
100
AcDbSymbolTableRecord
100
AcDbLayerTableRecord
  2
Default
 70
     0
 62
     7
  6
Continuous
370
    -3
390
F
  0
ENDTAB
  0
TABLE
  2
STYLE
  5
3
330
0
100
AcDbSymbolTable
 70
     1
  0
STYLE
  5
11
330
3
100
AcDbSymbolTableRecord
100
AcDbTextStyleTableRecord
  2
Standard
 70
     0
 40
0.0
 41
1.0
 50
0.0
 71
     0
 42
0.2
  3
txt
  4

  0
ENDTAB
  0
TABLE
  2
VIEW
  5
6
330
0
100
AcDbSymbolTable
 70
     0
  0
ENDTAB
  0
TABLE
  2
UCS
  5
7
330
0
100
AcDbSymbolTable
 70
     0
  0
ENDTAB
  0
TABLE
  2
APPID
  5
9
330
0
100
AcDbSymbolTable
 70
     1
  0
APPID
  5
12
330
9
100
AcDbSymbolTableRecord
100
AcDbRegAppTableRecord
  2
ACAD
 70
     0
  0
ENDTAB
  0
TABLE
  2
DIMSTYLE
  5
A
330
0
100
AcDbSymbolTable
 70
     1
100
AcDbDimStyleTable
  0
DIMSTYLE
105
27
330
A
100
AcDbSymbolTableRecord
100
AcDbDimStyleTableRecord
  2
Standard
 70
     0
340
11
  0
ENDTAB
  0
TABLE
  2
BLOCK_RECORD
  5
1
330
0
100
AcDbSymbolTable
 70
     1
  0
BLOCK_RECORD
  5
1F
330
1
100
AcDbSymbolTableRecord
100
AcDbBlockTableRecord
  2
*Model_Space
340
22
  0
BLOCK_RECORD
  5
1B
330
1
100
AcDbSymbolTableRecord
100
AcDbBlockTableRecord
  2
*Paper_Space
340
1E
  0
BLOCK_RECORD
  5
23
330
1
100
AcDbSymbolTableRecord
100
AcDbBlockTableRecord
  2
*Paper_Space0
340
26
  0
ENDTAB
  0
ENDSEC
  0
SECTION
  2
BLOCKS
  0
BLOCK
  5
20
330
1F
100
AcDbEntity
  8
0
100
AcDbBlockBegin
  2
*Model_Space
 70
     0
 10
0.0
 20
0.0
 30
0.0
  3
*Model_Space
  1

  0
ENDBLK
  5
21
330
1F
100
AcDbEntity
  8
0
100
AcDbBlockEnd
  0
BLOCK
  5
1C
330
1B
100
AcDbEntity
 67
     1
  8
0
100
AcDbBlockBegin
  2
*Paper_Space
 70
     0
 10
0.0
 20
0.0
 30
0.0
  3
*Paper_Space
  1

  0
ENDBLK
  5
1D
330
1B
100
AcDbEntity
 67
     1
  8
0
100
AcDbBlockEnd
  0
BLOCK
  5
24
330
23
100
AcDbEntity
  8
0
100
AcDbBlockBegin
  2
*Paper_Space0
 70
     0
 10
0.0
 20
0.0
 30
0.0
  3
*Paper_Space0
  1

  0
ENDBLK
  5
25
330
23
100
AcDbEntity
  8
0
100
AcDbBlockEnd
  0
ENDSEC
  0
SECTION
  2
ENTITIES
  0
LINE
  5
3C
330
1F
100
AcDbEntity
  8
Default
100
AcDbLine
 10
14.75834257090969
 20
14.26342557506841
 30
0.0
 11
14.73980829288701
 21
14.26584293568685
 31
0.0
  0
ARC
  5
3D
330
1F
100
AcDbEntity
  8
Default
100
AcDbCircle
 10
-4.750727403443364
 20
-135.1711109985985
 30
0.0
 40
150.7026349566843
100
AcDbArc
 50
82.56905984647115
 51
97.48617601455281
  0
LINE
  5
3E
330
1F
100
AcDbEntity
  8
Default
100
AcDbLine
 10
-24.38531836310114
 20
14.24698369121667
 30
0.0
 11
-24.40398841363982
 21
14.24453031496203
 31
0.0
  0
ARC
  5
3F
330
1F
100
AcDbEntity
  8
Default
100
AcDbCircle
 10
-24.33884492439245
 20
13.7487921524118
 30
0.0
 40
0.5
100
AcDbArc
 50
97.48617601457015
 51
180.0000000000026
  0
SPLINE
  5
40
330
1F
100
AcDbEntity
  8
Default
100
AcDbSpline
210
0.0
220
0.0
230
1.0
 70
    12
 71
     2
 72
    14
 73
    11
 74
     0
 42
0.0000000001
 43
0.0000000001
 40
-2020.571834224613
 40
-2020.571834224613
 40
-2020.571834224613
 40
-1834.052513553354
 40
-1834.052513553354
 40
-1833.267115389957
 40
-1833.267115389957
 40
-990.6987267974558
 40
-990.6987267974558
 40
-7.844953181803054
 40
-7.844953181803054
 40
0.0
 40
0.0
 40
0.0
 10
-24.83884492439245
 20
13.74879215241178
 30
0.0
 41
0.7791853071013143
 10
-24.8388449243923
 20
10.07715198171771
 30
0.0
 41
0.7791853071013143
 10
-24.8388449243923
 20
6.405511811023628
 30
0.0
 41
0.7791853071013143
 10
-24.83884492439245
 20
5.905511811023645
 30
0.0
 41
0.5509672144522697
 10
-24.33884492439243
 20
5.905511811023529
 30
0.0
 41
0.7791853071013143
 10
-22.30985857840572
 20
5.905511811023629
 30
0.0
 41
1.0
 10
-8.822071004430061
 20
5.905511811023629
 30
0.0
 41
1.0
 10
6.827535294782852
 20
5.905511811023541
 30
0.0
 41
1.0
 10
15.193677027066
 20
5.905511811023451
 30
0.0
 41
1.0
 10
15.193677027066
 20
9.82798840192489
 30
0.0
 41
1.0
 10
15.193677027066
 20
13.75046499282633
 30
0.0
 41
1.0
  0
LINE
  5
41
330
1F
100
AcDbEntity
  8
Default
100
AcDbLine
 10
15.193677027066
 20
13.75046499282633
 30
0.0
 11
15.193677027066
 21
13.76762484146655
 31
0.0
  0
ARC
  5
42
330
1F
100
AcDbEntity
  8
Default
100
AcDbCircle
 10
14.693677027066
 20
13.7676248414673
 30
0.0
 40
0.5
100
AcDbArc
 50
359.9999999999151
 51
82.56905984648262
  0
SPLINE
  5
43
330
1F
100
AcDbEntity
  8
Default
100
AcDbSpline
210
0.0
220
0.0
230
1.0
 70
    11
 71
     2
 72
    12
 73
     9
 74
     0
 42
0.0000000001
 43
0.0000000001
 40
0.0
 40
0.0
 40
0.0
 40
1.0
 40
1.0
 40
2.0
 40
2.0
 40
3.0
 40
3.0
 40
4.0
 40
4.0
 40
4.0
 10
-20.34985092018927
 20
0.0
 30
0.0
 10
-19.95615013278767
 20
0.0
 30
0.0
 10
-19.56244934538607
 20
0.0
 30
0.0
 10
-19.56244934538607
 20
2.952755905511815
 30
0.0
 10
-19.56244934538607
 20
5.905511811023629
 30
0.0
 10
-19.95615013278767
 20
5.905511811023629
 30
0.0
 10
-20.34985092018927
 20
5.905511811023629
 30
0.0
 10
-20.34985092018927
 20
2.952755905511815
 30
0.0
 10
-20.34985092018927
 20
0.0
 30
0.0
  0
SPLINE
  5
44
330
1F
100
AcDbEntity
  8
Default
100
AcDbSpline
210
0.0
220
0.0
230
1.0
 70
    12
 71
     2
 72
    10
 73
     7
 74
     0
 42
0.0000000001
 43
0.0000000001
 40
-1127.827996069956
 40
-1127.827996069956
 40
-1127.827996069956
 40
-788.0853981633978
 40
-788.0853981633978
 40
-787.3000000000004
 40
-787.3000000000004
 40
-2.699999999999838
 40
-2.699999999999838
 40
-2.699999999999838
 10
-24.83884492439244
 20
13.75043325139444
 30
0.0
 41
1.0
 10
-24.83884492439244
 20
20.43827966687786
 30
0.0
 41
1.0
 10
-24.83884492439244
 20
27.07593092145949
 30
0.0
 41
1.0
 10
-24.83884492439235
 20
27.57593092145949
 30
0.0
 41
0.7071067811865476
 10
-24.33884492439244
 20
27.57593092145949
 30
0.0
 41
1.0
 10
-8.822071004430061
 20
27.57593092145949
 30
0.0
 41
1.0
 10
18.46433392783095
 20
27.57593092145949
 30
0.0
 41
1.0
  0
SPLINE
  5
45
330
1F
100
AcDbEntity
  8
Default
100
AcDbSpline
210
0.0
220
0.0
230
1.0
 70
    24
 71
     2
 72
     6
 73
     3
 74
     0
 42
0.0000000001
 43
0.0000000001
 40
0.0
 40
0.0
 40
0.0
 40
55.98252195145848
 40
55.98252195145848
 40
55.98252195145848
 10
-24.83884492439244
 20
13.75043325139444
 30
0.0
 10
-4.822583948663217
 20
13.75043325139444
 30
0.0
 10
15.193677027066
 20
13.75043325139444
 30
0.0
  0
SPLINE
  5
46
330
1F
100
AcDbEntity
  8
Default
100
AcDbSpline
210
0.0
220
0.0
230
1.0
 70
    12
 71
     2
 72
    10
 73
     7
 74
     0
 42
0.0000000001
 43
0.0000000001
 40
0.0
 40
0.0
 40
0.0
 40
37.72384879310624
 40
37.72384879310624
 40
53.66873068287003
 40
53.66873068287003
 40
53.86558107657068
 40
53.86558107657068
 40
53.86558107657068
 10
15.11690310710398
 20
48.64957887296102
 30
0.0
 41
1.0
 10
15.1169031071038
 20
72.66532690445729
 30
0.0
 41
0.7071067811865501
 10
-8.898844924392481
 20
72.6653269044573
 30
0.0
 41
1.0
 10
-16.87128586927438
 20
72.66532690445732
 30
0.0
 41
1.0
 10
-24.83884492439244
 20
72.66532690445732
 30
0.0
 41
1.0
 10
-24.83884492439244
 20
72.56690170760692
 30
0.0
 41
1.0
 10
-24.83884492439244
 20
72.46847651075652
 30
0.0
 41
1.0
  0
SPLINE
  5
47
330
1F
100
AcDbEntity
  8
Default
100
AcDbSpline
210
0.0
220
0.0
230
1.0
 70
    15
 71
     2
 72
    20
 73
    17
 74
     0
 42
0.0000000001
 43
0.0000000001
 40
-39.46062992126019
 40
-39.46062992126019
 40
-39.46062992126019
 40
9.180315006790238
 40
9.180315006790238
 40
9.576779310541003
 40
9.576779310541003
 40
9.97324361429177
 40
9.97324361429177
 40
62.40126082391634
 40
62.40126082391634
 40
77.84614271368024
 40
77.84614271368024
 40
78.63154087707757
 40
78.63154087707757
 40
111.3313692085901
 40
111.3313692085901
 40
112.1167673719875
 40
112.1167673719875
 40
112.1167673719875
 10
-24.33884492439254
 20
48.64957887296054
 30
0.0
 41
1.0
 10
-0.0232543501311664
 20
48.64957887296084
 30
0.0
 41
1.0
 10
24.29721811389404
 20
48.64957887296114
 30
0.0
 41
1.0
 10
24.50653396681422
 20
48.64957887296114
 30
0.0
 41
0.9224320989525607
 10
24.65342386883719
 20
48.79869789578313
 30
0.0
 41
1.0
 10
24.80031377086016
 20
48.94781691860511
 30
0.0
 41
0.9224320989525607
 10
24.7971614073776
 20
49.15710903237957
 30
0.0
 41
1.0
 10
24.29721811389408
 20
82.34940720447358
 30
0.0
 41
0.7124115098862498
 10
-8.898844924392478
 20
82.34940720447358
 30
0.0
 41
1.0
 10
-16.62128586927443
 20
82.34940720447362
 30
0.0
 41
1.0
 10
-24.33884492439256
 20
82.34940720447366
 30
0.0
 41
1.0
 10
-24.83884492439244
 20
82.34940720447355
 30
0.0
 41
0.707106781186628
 10
-24.83884492439244
 20
81.84940720447366
 30
0.0
 41
1.0
 10
-24.83884492439249
 20
65.49949303871739
 30
0.0
 41
1.0
 10
-24.83884492439256
 20
49.14957887296111
 30
0.0
 41
1.0
 10
-24.83884492439247
 20
48.64957887296119
 30
0.0
 41
0.7071067811870676
 10
-24.33884492439254
 20
48.64957887296054
 30
0.0
 41
1.0
  0
SPLINE
  5
48
330
1F
100
AcDbEntity
  8
Default
100
AcDbSpline
210
0.0
220
0.0
230
1.0
 70
    12
 71
     2
 72
     8
 73
     5
 74
     0
 42
0.0000000001
 43
0.0000000001
 40
0.0
 40
0.0
 40
0.0
 40
42.40864771796485
 40
42.40864771796485
 40
58.35352960772865
 40
58.35352960772865
 40
58.35352960772865
 10
18.09933873223495
 20
48.64957887296079
 30
0.0
 41
1.0
 10
18.09933873223543
 20
75.6477625295887
 30
0.0
 41
0.7071067811865412
 10
-8.898844924392476
 20
75.6477625295887
 30
0.0
 41
1.0
 10
-16.87128586927437
 20
75.6477625295887
 30
0.0
 41
1.0
 10
-24.83884492439244
 20
75.6477625295887
 30
0.0
 41
1.0
  0
POLYLINE
  5
49
330
1F
100
AcDbEntity
  8
Default
100
AcDb2dPolyline
 66
     1
 10
0.0
 20
0.0
 30
0.0
  0
VERTEX
  5
4A
330
49
100
AcDbEntity
  8
Default
100
AcDbVertex
100
AcDb2dVertex
 10
5.74624161868544
 20
0.0
 30
0.0
  0
VERTEX
  5
4B
330
49
100
AcDbEntity
  8
Default
100
AcDbVertex
100
AcDb2dVertex
 10
4.95884004388224
 20
0.0
 30
0.0
  0
VERTEX
  5
4C
330
49
100
AcDbEntity
  8
Default
100
AcDbVertex
100
AcDb2dVertex
 10
4.95884004388224
 20
5.905511811023629
 30
0.0
  0
VERTEX
  5
4D
330
49
100
AcDbEntity
  8
Default
100
AcDbVertex
100
AcDb2dVertex
 10
5.74624161868544
 20
5.905511811023629
 30
0.0
  0
VERTEX
  5
4E
330
49
100
AcDbEntity
  8
Default
100
AcDbVertex
100
AcDb2dVertex
 10
5.74624161868544
 20
0.0
 30
0.0
  0
SEQEND
  5
4F
330
49
100
AcDbEntity
  8
Default
  0
POLYLINE
  5
50
330
1F
100
AcDbEntity
  8
Default
100
AcDb2dPolyline
 66
     1
 10
0.0
 20
0.0
 30
0.0
  0
VERTEX
  5
51
330
50
100
AcDbEntity
  8
Default
100
AcDbVertex
100
AcDb2dVertex
 10
18.76992459635053
 20
0.0
 30
0.0
  0
VERTEX
  5
52
330
50
100
AcDbEntity
  8
Default
100
AcDbVertex
100
AcDb2dVertex
 10
17.98252302154734
 20
0.0
 30
0.0
  0
VERTEX
  5
53
330
50
100
AcDbEntity
  8
Default
100
AcDbVertex
100
AcDb2dVertex
 10
17.98252302154734
 20
5.905511811023629
 30
0.0
  0
VERTEX
  5
54
330
50
100
AcDbEntity
  8
Default
100
AcDbVertex
100
AcDb2dVertex
 10
18.76992459635053
 20
5.905511811023629
 30
0.0
  0
VERTEX
  5
55
330
50
100
AcDbEntity
  8
Default
100
AcDbVertex
100
AcDb2dVertex
 10
18.76992459635053
 20
0.0
 30
0.0
  0
SEQEND
  5
56
330
50
100
AcDbEntity
  8
Default
  0
ARC
  5
57
330
1F
100
AcDbEntity
  8
Default
100
AcDbCircle
 10
44.00760942279875
 20
14.84237722240408
 30
0.0
 40
28.8217012045445
100
AcDbArc
 50
154.4086356866024
 51
181.3303465786672
  0
ARC
  5
58
330
1F
100
AcDbEntity
  8
Default
100
AcDbCircle
 10
18.46433392783095
 20
27.07593092145949
 30
0.0
 40
0.5
100
AcDbArc
 50
81.22975403421468
 51
154.4086356866013
  0
LINE
  5
59
330
1F
100
AcDbEntity
  8
Default
100
AcDbLine
 10
18.5405702392741
 20
27.57008476877584
 30
0.0
 11
24.41491098801432
 21
26.66588406759336
 31
0.0
  0
ARC
  5
5A
330
1F
100
AcDbEntity
  8
Default
100
AcDbCircle
 10
24.33884492439246
 20
26.17170398506769
 30
0.0
 40
0.5
100
AcDbArc
 50
354.9999999999998
 51
81.2494932766753
  0
LINE
  5
5B
330
1F
100
AcDbEntity
  8
Default
100
AcDbLine
 10
24.83694227343838
 20
26.12812611369386
 30
0.0
 11
23.10762453713474
 21
6.36193393964978
 31
0.0
  0
ARC
  5
5C
330
1F
100
AcDbEntity
  8
Default
100
AcDbCircle
 10
22.60952718808883
 20
6.405511811023636
 30
0.0
 40
0.5
100
AcDbArc
 50
270.000000000013
 51
354.9999999999969
  0
POLYLINE
  5
5D
330
1F
100
AcDbEntity
  8
Default
100
AcDb2dPolyline
 66
     1
 10
0.0
 20
0.0
 30
0.0
  0
VERTEX
  5
5E
330
5D
100
AcDbEntity
  8
Default
100
AcDbVertex
100
AcDb2dVertex
 10
22.60952718808895
 20
5.905511811023636
 30
0.0
  0
VERTEX
  5
5F
330
5D
100
AcDbEntity
  8
Default
100
AcDbVertex
100
AcDb2dVertex
 10
15.19367702706611
 20
5.905511811023773
 30
0.0
  0
SEQEND
  5
60
330
5D
100
AcDbEntity
  8
Default
  0
LINE
  5
61
330
1F
100
AcDbEntity
  8
Default
100
AcDbLine
 10
15.19367702706611
 20
5.905511811023773
 30
0.0
 11
15.193677027066
 21
14.1732283464567
 31
0.0
  0
POLYLINE
  5
62
330
1F
100
AcDbEntity
  8
Default
100
AcDb2dPolyline
 66
     1
 10
0.0
 20
0.0
 30
0.0
  0
VERTEX
  5
63
330
62
100
AcDbEntity
  8
Default
100
AcDbVertex
100
AcDb2dVertex
 10
47.45305903209487
 20
0.0000000000000142
 30
0.0
  0
VERTEX
  5
64
330
62
100
AcDbEntity
  8
Default
100
AcDbVertex
100
AcDb2dVertex
 10
48.24046060689805
 20
0.0000000000000142
 30
0.0
  0
VERTEX
  5
65
330
62
100
AcDbEntity
  8
Default
100
AcDbVertex
100
AcDb2dVertex
 10
48.24046060689805
 20
5.905511811023644
 30
0.0
  0
VERTEX
  5
66
330
62
100
AcDbEntity
  8
Default
100
AcDbVertex
100
AcDb2dVertex
 10
47.45305903209487
 20
5.905511811023644
 30
0.0
  0
VERTEX
  5
67
330
62
100
AcDbEntity
  8
Default
100
AcDbVertex
100
AcDb2dVertex
 10
47.45305903209487
 20
0.0000000000000142
 30
0.0
  0
SEQEND
  5
68
330
62
100
AcDbEntity
  8
Default
  0
POLYLINE
  5
69
330
1F
100
AcDbEntity
  8
Default
100
AcDb2dPolyline
 66
     1
 10
0.0
 20
0.0
 30
0.0
  0
VERTEX
  5
6A
330
69
100
AcDbEntity
  8
Default
100
AcDbVertex
100
AcDb2dVertex
 10
42.45374696811812
 20
0.0000000000000142
 30
0.0
  0
VERTEX
  5
6B
330
69
100
AcDbEntity
  8
Default
100
AcDbVertex
100
AcDb2dVertex
 10
43.24114854292134
 20
0.0000000000000142
 30
0.0
  0
VERTEX
  5
6C
330
69
100
AcDbEntity
  8
Default
100
AcDbVertex
100
AcDb2dVertex
 10
43.24114854292134
 20
5.905511811023644
 30
0.0
  0
VERTEX
  5
6D
330
69
100
AcDbEntity
  8
Default
100
AcDbVertex
100
AcDb2dVertex
 10
42.45374696811812
 20
5.905511811023644
 30
0.0
  0
VERTEX
  5
6E
330
69
100
AcDbEntity
  8
Default
100
AcDbVertex
100
AcDb2dVertex
 10
42.45374696811812
 20
0.0000000000000142
 30
0.0
  0
SEQEND
  5
6F
330
69
100
AcDbEntity
  8
Default
  0
POLYLINE
  5
70
330
1F
100
AcDbEntity
  8
Default
100
AcDb2dPolyline
 66
     1
 10
0.0
 20
0.0
 30
0.0
  0
VERTEX
  5
71
330
70
100
AcDbEntity
  8
Default
100
AcDbVertex
100
AcDb2dVertex
 10
64.8286727227321
 20
0.0000000000000142
 30
0.0
  0
VERTEX
  5
72
330
70
100
AcDbEntity
  8
Default
100
AcDbVertex
100
AcDb2dVertex
 10
65.61607429753529
 20
0.0000000000000142
 30
0.0
  0
VERTEX
  5
73
330
70
100
AcDbEntity
  8
Default
100
AcDbVertex
100
AcDb2dVertex
 10
65.61607429753529
 20
5.905511811023644
 30
0.0
  0
VERTEX
  5
74
330
70
100
AcDbEntity
  8
Default
100
AcDbVertex
100
AcDb2dVertex
 10
64.8286727227321
 20
5.905511811023644
 30
0.0
  0
VERTEX
  5
75
330
70
100
AcDbEntity
  8
Default
100
AcDbVertex
100
AcDb2dVertex
 10
64.8286727227321
 20
0.0000000000000142
 30
0.0
  0
SEQEND
  5
76
330
70
100
AcDbEntity
  8
Default
  0
POLYLINE
  5
77
330
1F
100
AcDbEntity
  8
Default
100
AcDb2dPolyline
 66
     1
 10
0.0
 20
0.0
 30
0.0
  0
VERTEX
  5
78
330
77
100
AcDbEntity
  8
Default
100
AcDbVertex
100
AcDb2dVertex
 10
69.94678295895277
 20
13.77605978776907
 30
0.0
  0
VERTEX
  5
79
330
77
100
AcDbEntity
  8
Default
100
AcDbVertex
100
AcDb2dVertex
 10
69.94678295895277
 20
27.07585119350825
 30
0.0
  0
SEQEND
  5
7A
330
77
100
AcDbEntity
  8
Default
  0
ARC
  5
7B
330
1F
100
AcDbEntity
  8
Default
100
AcDbCircle
 10
69.44678295895277
 20
27.07585119350831
 30
0.0
 40
0.5
100
AcDbArc
 50
359.9999999999931
 51
89.99999999998697
  0
POLYLINE
  5
7C
330
1F
100
AcDbEntity
  8
Default
100
AcDb2dPolyline
 66
     1
 10
0.0
 20
0.0
 30
0.0
  0
VERTEX
  5
7D
330
7C
100
AcDbEntity
  8
Default
100
AcDbVertex
100
AcDb2dVertex
 10
69.44678295895288
 20
27.57585119350831
 30
0.0
  0
VERTEX
  5
7E
330
7C
100
AcDbEntity
  8
Default
100
AcDbVertex
100
AcDb2dVertex
 10
42.66021155723159
 20
27.57585119350831
 30
0.0
  0
SEQEND
  5
7F
330
7C
100
AcDbEntity
  8
Default
  0
LINE
  5
80
330
1F
100
AcDbEntity
  8
Default
100
AcDbLine
 10
45.93103492745649
 20
5.905511811023629
 30
0.0
 11
45.93103492745649
 21
13.73072667543258
 31
0.0
  0
ARC
  5
81
330
1F
100
AcDbEntity
  8
Default
100
AcDbCircle
 10
46.43103492745649
 20
13.73072667543258
 30
0.0
 40
0.5
100
AcDbArc
 50
103.0815176046117
 51
180.0
  0
ARC
  5
82
330
1F
100
AcDbEntity
  8
Default
100
AcDbCircle
 10
58.03733414005488
 20
-36.21735472505105
 30
0.0
 40
51.77881645476718
100
AcDbArc
 50
77.1441880858243
 51
103.0815176046126
  0
ARC
  5
83
330
1F
100
AcDbEntity
  8
Default
100
AcDbCircle
 10
69.44678295895277
 20
13.77605978776904
 30
0.0
 40
0.5
100
AcDbArc
 50
0.0000000000006107
 51
77.14418808583433
  0
LINE
  5
84
330
1F
100
AcDbEntity
  8
Default
100
AcDbLine
 10
69.94678295895277
 20
13.77605978776907
 30
0.0
 11
69.94678295895254
 21
6.405511811023615
 31
0.0
  0
ARC
  5
85
330
1F
100
AcDbEntity
  8
Default
100
AcDbCircle
 10
69.44678295895254
 20
6.405511811023644
 30
0.0
 40
0.5
100
AcDbArc
 50
270.0
 51
359.9999999999968
  0
LINE
  5
86
330
1F
100
AcDbEntity
  8
Default
100
AcDbLine
 10
69.44678295895254
 20
5.905511811023644
 30
0.0
 11
45.93103492745649
 21
5.905511811023629
 31
0.0
  0
LINE
  5
87
330
1F
100
AcDbEntity
  8
Default
100
AcDbLine
 10
45.93103492745649
 20
5.905511811023629
 30
0.0
 11
38.51518476643366
 21
5.905511811023629
 31
0.0
  0
ARC
  5
88
330
1F
100
AcDbEntity
  8
Default
100
AcDbCircle
 10
38.51518476643366
 20
6.405511811023629
 30
0.0
 40
0.5
100
AcDbArc
 50
185.0000000000005
 51
270.0000000000008
  0
LINE
  5
89
330
1F
100
AcDbEntity
  8
Default
100
AcDbLine
 10
38.01708741738774
 20
6.361933939649795
 30
0.0
 11
36.28776975798847
 21
26.12812523467301
 31
0.0
  0
ARC
  5
8A
330
1F
100
AcDbEntity
  8
Default
100
AcDbCircle
 10
36.78586710703439
 20
26.17170310604683
 30
0.0
 40
0.5
100
AcDbArc
 50
98.74999999999982
 51
184.9999999999994
  0
LINE
  5
8B
330
1F
100
AcDbEntity
  8
Default
100
AcDbLine
 10
36.70980541393942
 20
26.66588386128072
 30
0.0
 11
42.58414986413663
 21
27.5700319487422
 31
0.0
  0
ARC
  5
8C
330
1F
100
AcDbEntity
  8
Default
100
AcDbCircle
 10
42.66021155723159
 20
27.07585119350831
 30
0.0
 40
0.5
100
AcDbArc
 50
25.59136431339849
 51
98.75000000000142
  0
ARC
  5
8D
330
1F
100
AcDbEntity
  8
Default
100
AcDbCircle
 10
17.11880512520784
 20
14.84233768290218
 30
0.0
 40
28.81999815200728
100
AcDbArc
 50
358.6696534213316
 51
25.59289729474481
  0
LINE
  5
8E
330
1F
100
AcDbEntity
  8
Default
100
AcDbLine
 10
45.93103492745649
 20
14.17322834645883
 30
0.0
 11
45.93103492745649
 21
5.905511811023629
 31
0.0
  0
LINE
  5
8F
330
1F
100
AcDbEntity
  8
Default
100
AcDbLine
 10
64.72971311278592
 20
5.905511811023629
 30
0.0
 11
65.51711468758911
 21
5.905511811023629
 31
0.0
  0
ENDSEC
  0
SECTION
  2
OBJECTS
  0
DICTIONARY
  5
C
330
0
100
AcDbDictionary
281
     1
  3
ACAD_GROUP
350
D
  3
ACAD_LAYOUT
350
1A
  3
ACAD_MLEADERSTYLE
350
91
  3
ACAD_MLINESTYLE
350
17
  3
ACAD_PLOTSETTINGS
350
19
  3
ACAD_PLOTSTYLENAME
350
E
  3
ACAD_TABLESTYLE
350
90
  3
ACAD_VISUALSTYLE
350
2A
  0
DICTIONARY
  5
D
102
{ACAD_REACTORS
330
C
102
}
330
C
100
AcDbDictionary
281
     1
  0
DICTIONARY
  5
1A
102
{ACAD_REACTORS
330
C
102
}
330
C
100
AcDbDictionary
281
     1
  3
Layout1
350
1E
  3
Layout2
350
26
  3
Model
350
22
  0
DICTIONARY
  5
91
102
{ACAD_REACTORS
330
C
102
}
330
C
100
AcDbDictionary
281
     1
  0
DICTIONARY
  5
17
102
{ACAD_REACTORS
330
C
102
}
330
C
100
AcDbDictionary
281
     1
  3
Standard
350
18
  0
DICTIONARY
  5
19
102
{ACAD_REACTORS
330
C
102
}
330
C
100
AcDbDictionary
281
     1
  0
ACDBDICTIONARYWDFLT
  5
E
102
{ACAD_REACTORS
330
C
102
}
330
C
100
AcDbDictionary
281
     1
  3
Normal
350
F
100
AcDbDictionaryWithDefault
340
F
  0
DICTIONARY
  5
90
102
{ACAD_REACTORS
330
C
102
}
330
C
100
AcDbDictionary
281
     1
  0
DICTIONARY
  5
2A
102
{ACAD_REACTORS
330
C
102
}
330
C
100
AcDbDictionary
281
     1
  3
2dWireframe
350
2F
  3
3D Hidden
350
31
  3
3dWireframe
350
30
  3
Basic
350
32
  3
Brighten
350
36
  3
ColorChange
350
3A
  3
Conceptual
350
34
  3
Dim
350
35
  3
Facepattern
350
39
  3
Flat
350
2B
  3
FlatWithEdges
350
2C
  3
Gouraud
350
2D
  3
GouraudWithEdges
350
2E
  3
Linepattern
350
38
  3
Realistic
350
33
  3
Thicken
350
37
  0
LAYOUT
  5
1E
102
{ACAD_REACTORS
330
1A
102
}
330
1A
100
AcDbPlotSettings
  1

  2
none_device
  4

  6

 40
0.0
 41
0.0
 42
0.0
 43
0.0
 44
0.0
 45
0.0
 46
0.0
 47
0.0
 48
0.0
 49
0.0
140
0.0
141
0.0
142
1.0
143
1.0
 70
   688
 72
     0
 73
     0
 74
     5
  7

 75
    16
 76
     0
 77
     2
 78
   300
147
1.0
148
0.0
149
0.0
100
AcDbLayout
  1
Layout1
 70
     1
 71
     1
 10
0.0
 20
0.0
 11
12.0
 21
9.0
 12
0.0
 22
0.0
 32
0.0
 14
1.000000000000000E+20
 24
1.000000000000000E+20
 34
1.000000000000000E+20
 15
-1.000000000000000E+20
 25
-1.000000000000000E+20
 35
-1.000000000000000E+20
146
0.0
 13
0.0
 23
0.0
 33
0.0
 16
1.0
 26
0.0
 36
0.0
 17
0.0
 27
1.0
 37
0.0
 76
     0
330
1B
  0
LAYOUT
  5
26
102
{ACAD_REACTORS
330
1A
102
}
330
1A
100
AcDbPlotSettings
  1

  2
none_device
  4

  6

 40
0.0
 41
0.0
 42
0.0
 43
0.0
 44
0.0
 45
0.0
 46
0.0
 47
0.0
 48
0.0
 49
0.0
140
0.0
141
0.0
142
1.0
143
1.0
 70
   688
 72
     0
 73
     0
 74
     5
  7

 75
    16
 76
     0
 77
     2
 78
   300
147
1.0
148
0.0
149
0.0
100
AcDbLayout
  1
Layout2
 70
     1
 71
     2
 10
0.0
 20
0.0
 11
0.0
 21
0.0
 12
0.0
 22
0.0
 32
0.0
 14
0.0
 24
0.0
 34
0.0
 15
0.0
 25
0.0
 35
0.0
146
0.0
 13
0.0
 23
0.0
 33
0.0
 16
1.0
 26
0.0
 36
0.0
 17
0.0
 27
1.0
 37
0.0
 76
     0
330
23
  0
LAYOUT
  5
22
102
{ACAD_REACTORS
330
1A
102
}
330
1A
100
AcDbPlotSettings
  1

  2
none_device
  4

  6

 40
0.0
 41
0.0
 42
0.0
 43
0.0
 44
0.0
 45
0.0
 46
0.0
 47
0.0
 48
0.0
 49
0.0
140
0.0
141
0.0
142
1.0
143
1.0
 70
  1712
 72
     0
 73
     0
 74
     0
  7

 75
     0
 76
     0
 77
     2
 78
   300
147
1.0
148
0.0
149
0.0
100
AcDbLayout
  1
Model
 70
     1
 71
     0
 10
0.0
 20
0.0
 11
12.0
 21
9.0
 12
0.0
 22
0.0
 32
0.0
 14
-24.83884492439256
 24
0.0
 34
0.0
 15
69.94678295895277
 25
82.34940720447366
 35
0.0
146
0.0
 13
0.0
 23
0.0
 33
0.0
 16
1.0
 26
0.0
 36
0.0
 17
0.0
 27
1.0
 37
0.0
 76
     0
330
1F
331
29
  0
MLINESTYLE
  5
18
102
{ACAD_REACTORS
330
17
102
}
330
17
100
AcDbMlineStyle
  2
Standard
 70
     0
  3

 62
   256
 51
90.0
 52
90.0
 71
     2
 49
0.5
 62
   256
  6
BYLAYER
 49
-0.5
 62
   256
  6
BYLAYER
  0
ACDBPLACEHOLDER
  5
F
102
{ACAD_REACTORS
330
E
102
}
330
E
  0
VISUALSTYLE
  5
2F
102
{ACAD_REACTORS
330
2A
102
}
330
2A
100
AcDbVisualStyle
  2
2dWireframe
 70
     4
 71
     0
 72
     2
 73
     0
 90
        0
 40
-0.6
 41
-30.0
 62
     5
 63
     7
421
 16777215
 74
     1
 91
        4
 64
     7
 65
   257
 75
     1
175
     1
 42
1.0
 92
        0
 66
   257
 43
1.0
 76
     1
 77
     6
 78
     2
 67
     7
 79
     5
170
     0
171
     0
290
     0
174
     0
 93
        1
 44
0.0
173
     0
291
     0
 45
0.0
1001
ACAD
1000
AcDbSavedByObjectVersion
1070
     0
  0
VISUALSTYLE
  5
31
102
{ACAD_REACTORS
330
2A
102
}
330
2A
100
AcDbVisualStyle
  2
3D Hidden
 70
     6
 71
     1
 72
     2
 73
     2
 90
        0
 40
-0.6
 41
-30.0
 62
     5
 63
     7
421
 16777215
 74
     2
 91
        2
 64
     7
 65
   257
 75
     2
175
     1
 42
40.0
 92
        0
 66
   257
 43
1.0
 76
     1
 77
     6
 78
     2
 67
     7
 79
     3
170
     0
171
     0
290
     0
174
     0
 93
        1
 44
0.0
173
     0
291
     0
 45
0.0
1001
ACAD
1000
AcDbSavedByObjectVersion
1070
     0
  0
VISUALSTYLE
  5
30
102
{ACAD_REACTORS
330
2A
102
}
330
2A
100
AcDbVisualStyle
  2
3dWireframe
 70
     5
 71
     0
 72
     2
 73
     0
 90
        0
 40
-0.6
 41
-30.0
 62
     5
 63
     7
421
 16777215
 74
     1
 91
        4
 64
     7
 65
   257
 75
     1
175
     1
 42
1.0
 92
        0
 66
   257
 43
1.0
 76
     1
 77
     6
 78
     2
 67
     7
 79
     5
170
     0
171
     0
290
     0
174
     0
 93
        1
 44
0.0
173
     0
291
     0
 45
0.0
1001
ACAD
1000
AcDbSavedByObjectVersion
1070
     0
  0
VISUALSTYLE
  5
32
102
{ACAD_REACTORS
330
2A
102
}
330
2A
100
AcDbVisualStyle
  2
Basic
 70
     7
 71
     1
 72
     0
 73
     1
 90
        0
 40
-0.6
 41
-30.0
 62
     5
 63
     7
421
 16777215
 74
     0
 91
        4
 64
     7
 65
   257
 75
     1
175
     1
 42
1.0
 92
        8
 66
     7
 43
1.0
 76
     1
 77
     6
 78
     2
 67
     7
 79
     5
170
     0
171
     0
290
     0
174
     0
 93
        1
 44
0.0
173
     0
291
     1
 45
0.0
1001
ACAD
1000
AcDbSavedByObjectVersion
1070
     0
  0
VISUALSTYLE
  5
36
102
{ACAD_REACTORS
330
2A
102
}
330
2A
100
AcDbVisualStyle
  2
Brighten
 70
    12
 71
     2
 72
     2
 73
     0
 90
        0
 40
-0.6
 41
-30.0
 62
     5
 63
     7
421
 16777215
 74
     1
 91
        4
 64
     7
 65
   257
 75
     1
175
     1
 42
1.0
 92
        8
 66
     7
 43
1.0
 76
     1
 77
     6
 78
     2
 67
     7
 79
     5
170
     0
171
     0
290
     0
174
     0
 93
        1
 44
50.0
173
     0
291
     1
 45
0.0
1001
ACAD
1000
AcDbSavedByObjectVersion
1070
     0
  0
VISUALSTYLE
  5
3A
102
{ACAD_REACTORS
330
2A
102
}
330
2A
100
AcDbVisualStyle
  2
ColorChange
 70
    16
 71
     2
 72
     2
 73
     3
 90
        0
 40
-0.6
 41
-30.0
 62
     5
 63
     8
421
  8421504
 74
     1
 91
        4
 64
     7
 65
   257
 75
     1
175
     1
 42
1.0
 92
        8
 66
     8
424
  8421504
 43
1.0
 76
     1
 77
     6
 78
     2
 67
     7
 79
     5
170
     0
171
     0
290
     0
174
     0
 93
        1
 44
0.0
173
     0
291
     1
 45
0.0
1001
ACAD
1000
AcDbSavedByObjectVersion
1070
     0
  0
VISUALSTYLE
  5
34
102
{ACAD_REACTORS
330
2A
102
}
330
2A
100
AcDbVisualStyle
  2
Conceptual
 70
     9
 71
     3
 72
     2
 73
     0
 90
        0
 40
-0.6
 41
-30.0
 62
     5
 63
     7
421
 16777215
 74
     2
 91
        2
 64
     7
 65
   257
 75
     1
175
     1
 42
40.0
 92
        8
 66
     7
 43
1.0
 76
     1
 77
     6
 78
     2
 67
     7
 79
     3
170
     0
171
     0
290
     0
174
     0
 93
        1
 44
0.0
173
     0
291
     0
 45
0.0
1001
ACAD
1000
AcDbSavedByObjectVersion
1070
     0
  0
VISUALSTYLE
  5
35
102
{ACAD_REACTORS
330
2A
102
}
330
2A
100
AcDbVisualStyle
  2
Dim
 70
    11
 71
     2
 72
     2
 73
     0
 90
        0
 40
-0.6
 41
-30.0
 62
     5
 63
     7
421
 16777215
 74
     1
 91
        4
 64
     7
 65
   257
 75
     1
175
     1
 42
1.0
 92
        8
 66
     7
 43
1.0
 76
     1
 77
     6
 78
     2
 67
     7
 79
     5
170
     0
171
     0
290
     0
174
     0
 93
        1
 44
-50.0
173
     0
291
     1
 45
0.0
1001
ACAD
1000
AcDbSavedByObjectVersion
1070
     0
  0
VISUALSTYLE
  5
39
102
{ACAD_REACTORS
330
2A
102
}
330
2A
100
AcDbVisualStyle
  2
Facepattern
 70
    15
 71
     2
 72
     2
 73
     0
 90
        0
 40
-0.6
 41
-30.0
 62
     5
 63
     7
421
 16777215
 74
     1
 91
        4
 64
     7
 65
   257
 75
     1
175
     1
 42
1.0
 92
        8
 66
     7
 43
1.0
 76
     1
 77
     6
 78
     2
 67
     7
 79
     5
170
     0
171
     0
290
     0
174
     0
 93
        1
 44
0.0
173
     0
291
     1
 45
0.0
1001
ACAD
1000
AcDbSavedByObjectVersion
1070
     0
  0
VISUALSTYLE
  5
2B
102
{ACAD_REACTORS
330
2A
102
}
330
2A
100
AcDbVisualStyle
  2
Flat
 70
     0
 71
     2
 72
     1
 73
     1
 90
        2
 40
-0.6
 41
30.0
 62
     5
 63
     7
421
 16777215
 74
     0
 91
        4
 64
     7
 65
   257
 75
     1
175
     1
 42
1.0
 92
        8
 66
     7
 43
1.0
 76
     1
 77
     6
 78
     2
 67
     7
 79
     5
170
     0
171
     0
290
     0
174
     0
 93
       13
 44
0.0
173
     0
291
     1
 45
0.0
1001
ACAD
1000
AcDbSavedByObjectVersion
1070
     0
  0
VISUALSTYLE
  5
2C
102
{ACAD_REACTORS
330
2A
102
}
330
2A
100
AcDbVisualStyle
  2
FlatWithEdges
 70
     1
 71
     2
 72
     1
 73
     1
 90
        2
 40
-0.6
 41
30.0
 62
     5
 63
     7
421
 16777215
 74
     1
 91
        4
 64
     7
 65
   257
 75
     1
175
     1
 42
1.0
 92
        0
 66
   257
 43
1.0
 76
     1
 77
     6
 78
     2
 67
     7
 79
     5
170
     0
171
     0
290
     0
174
     0
 93
       13
 44
0.0
173
     0
291
     1
 45
0.0
1001
ACAD
1000
AcDbSavedByObjectVersion
1070
     0
  0
VISUALSTYLE
  5
2D
102
{ACAD_REACTORS
330
2A
102
}
330
2A
100
AcDbVisualStyle
  2
Gouraud
 70
     2
 71
     2
 72
     2
 73
     1
 90
        2
 40
-0.6
 41
30.0
 62
     5
 63
     7
421
 16777215
 74
     0
 91
        4
 64
     7
 65
   257
 75
     1
175
     1
 42
1.0
 92
        0
 66
     7
 43
1.0
 76
     1
 77
     6
 78
     2
 67
     7
 79
     5
170
     0
171
     0
290
     0
174
     0
 93
       13
 44
0.0
173
     0
291
     1
 45
0.0
1001
ACAD
1000
AcDbSavedByObjectVersion
1070
     0
  0
VISUALSTYLE
  5
2E
102
{ACAD_REACTORS
330
2A
102
}
330
2A
100
AcDbVisualStyle
  2
GouraudWithEdges
 70
     3
 71
     2
 72
     2
 73
     1
 90
        2
 40
-0.6
 41
30.0
 62
     5
 63
     7
421
 16777215
 74
     1
 91
        4
 64
     7
 65
   257
 75
     1
175
     1
 42
1.0
 92
        0
 66
   257
 43
1.0
 76
     1
 77
     6
 78
     2
 67
     7
 79
     5
170
     0
171
     0
290
     0
174
     0
 93
       13
 44
0.0
173
     0
291
     1
 45
0.0
1001
ACAD
1000
AcDbSavedByObjectVersion
1070
     0
  0
VISUALSTYLE
  5
38
102
{ACAD_REACTORS
330
2A
102
}
330
2A
100
AcDbVisualStyle
  2
Linepattern
 70
    14
 71
     2
 72
     2
 73
     0
 90
        0
 40
-0.6
 41
-30.0
 62
     5
 63
     7
421
 16777215
 74
     1
 91
        4
 64
     7
 65
   257
 75
     7
175
     7
 42
1.0
 92
        8
 66
     7
 43
1.0
 76
     1
 77
     6
 78
     2
 67
     7
 79
     5
170
     0
171
     0
290
     0
174
     0
 93
        1
 44
0.0
173
     0
291
     1
 45
0.0
1001
ACAD
1000
AcDbSavedByObjectVersion
1070
     0
  0
VISUALSTYLE
  5
33
102
{ACAD_REACTORS
330
2A
102
}
330
2A
100
AcDbVisualStyle
  2
Realistic
 70
     8
 71
     2
 72
     2
 73
     0
 90
        0
 40
-0.6
 41
-30.0
 62
     5
 63
     7
421
 16777215
 74
     1
 91
        0
 64
     7
 65
   257
 75
     1
175
     1
 42
1.0
 92
        8
 66
     8
424
  7895160
 43
1.0
 76
     1
 77
     6
 78
     2
 67
     7
 79
     5
170
     0
171
     0
290
     0
174
     0
 93
       13
 44
0.0
173
     0
291
     0
 45
0.0
1001
ACAD
1000
AcDbSavedByObjectVersion
1070
     0
  0
VISUALSTYLE
  5
37
102
{ACAD_REACTORS
330
2A
102
}
330
2A
100
AcDbVisualStyle
  2
Thicken
 70
    13
 71
     2
 72
     2
 73
     0
 90
        0
 40
-0.6
 41
-30.0
 62
     5
 63
     7
421
 16777215
 74
     1
 91
        4
 64
     7
 65
   257
 75
     1
175
     1
 42
1.0
 92
       12
 66
     7
 43
1.0
 76
     1
 77
     6
 78
     2
 67
     7
 79
     5
170
     0
171
     0
290
     0
174
     0
 93
        1
 44
0.0
173
     0
291
     1
 45
0.0
1001
ACAD
1000
AcDbSavedByObjectVersion
1070
     0
  0
ENDSEC
  0
EOF
