  0
SECTION
  2
HEADER
  9
$ACADVER
  1
AC1021
  9
$ACADMAINTVER
 70
    25
  9
$DWGCODEPAGE
  3
ANSI_1252
  9
$INSBASE
 10
0.0
 20
0.0
 30
0.0
  9
$EXTMIN
 10
1.000000000000000E+20
 20
1.000000000000000E+20
 30
1.000000000000000E+20
  9
$EXTMAX
 10
-1.000000000000000E+20
 20
-1.000000000000000E+20
 30
-1.000000000000000E+20
  9
$LIMMIN
 10
0.0
 20
0.0
  9
$LIMMAX
 10
12.0
 20
9.0
  9
$ORTHOMODE
 70
     0
  9
$REGENMODE
 70
     1
  9
$FILLMODE
 70
     1
  9
$QTEXTMODE
 70
     0
  9
$MIRRTEXT
 70
     1
  9
$LTSCALE
 40
1.0
  9
$ATTMODE
 70
     1
  9
$TEXTSIZE
 40
0.2
  9
$TRACEWID
 40
0.05
  9
$TEXTSTYLE
  7
Standard
  9
$CLAYER
  8
0
  9
$CELTYPE
  6
ByLayer
  9
$CECOLOR
 62
   256
  9
$CELTSCALE
 40
1.0
  9
$DISPSILH
 70
     0
  9
$DIMSCALE
 40
1.0
  9
$DIMASZ
 40
0.18
  9
$DIMEXO
 40
0.0625
  9
$DIMDLI
 40
0.38
  9
$DIMRND
 40
0.0
  9
$DIMDLE
 40
0.0
  9
$DIMEXE
 40
0.18
  9
$DIMTP
 40
0.0
  9
$DIMTM
 40
0.0
  9
$DIMTXT
 40
0.18
  9
$DIMCEN
 40
0.09
  9
$DIMTSZ
 40
0.0
  9
$DIMTOL
 70
     0
  9
$DIMLIM
 70
     0
  9
$DIMTIH
 70
     1
  9
$DIMTOH
 70
     1
  9
$DIMSE1
 70
     0
  9
$DIMSE2
 70
     0
  9
$DIMTAD
 70
     0
  9
$DIMZIN
 70
     0
  9
$DIMBLK
  1

  9
$DIMASO
 70
     1
  9
$DIMSHO
 70
     1
  9
$DIMPOST
  1

  9
$DIMAPOST
  1

  9
$DIMALT
 70
     0
  9
$DIMALTD
 70
     2
  9
$DIMALTF
 40
25.4
  9
$DIMLFAC
 40
1.0
  9
$DIMTOFL
 70
     0
  9
$DIMTVP
 40
0.0
  9
$DIMTIX
 70
     0
  9
$DIMSOXD
 70
     0
  9
$DIMSAH
 70
     0
  9
$DIMBLK1
  1

  9
$DIMBLK2
  1

  9
$DIMSTYLE
  2
STANDARD_ACAD
  9
$DIMCLRD
 70
     0
  9
$DIMCLRE
 70
     0
  9
$DIMCLRT
 70
     0
  9
$DIMTFAC
 40
1.0
  9
$DIMGAP
 40
0.09
  9
$DIMJUST
 70
     0
  9
$DIMSD1
 70
     0
  9
$DIMSD2
 70
     0
  9
$DIMTOLJ
 70
     1
  9
$DIMTZIN
 70
     0
  9
$DIMALTZ
 70
     0
  9
$DIMALTTZ
 70
     0
  9
$DIMUPT
 70
     0
  9
$DIMDEC
 70
     4
  9
$DIMTDEC
 70
     4
  9
$DIMALTU
 70
     2
  9
$DIMALTTD
 70
     2
  9
$DIMTXSTY
  7
Standard
  9
$DIMAUNIT
 70
     0
  9
$DIMADEC
 70
     0
  9
$DIMALTRND
 40
0.0
  9
$DIMAZIN
 70
     0
  9
$DIMDSEP
 70
    46
  9
$DIMATFIT
 70
     3
  9
$DIMFRAC
 70
     0
  9
$DIMLDRBLK
  1

  9
$DIMLUNIT
 70
     2
  9
$DIMLWD
 70
    -2
  9
$DIMLWE
 70
    -2
  9
$DIMTMOVE
 70
     2
  9
$DIMFXL
 40
1.0
  9
$DIMFXLON
 70
     0
  9
$DIMJOGANG
 40
0.7853981633974483
  9
$DIMTFILL
 70
     0
  9
$DIMTFILLCLR
 70
     0
  9
$DIMARCSYM
 70
     0
  9
$DIMLTYPE
  6

  9
$DIMLTEX1
  6

  9
$DIMLTEX2
  6

  9
$LUNITS
 70
     2
  9
$LUPREC
 70
     3
  9
$SKETCHINC
 40
0.1
  9
$FILLETRAD
 40
0.5
  9
$AUNITS
 70
     0
  9
$AUPREC
 70
     0
  9
$MENU
  1
.
  9
$ELEVATION
 40
0.0
  9
$PELEVATION
 40
0.0
  9
$THICKNESS
 40
0.0
  9
$LIMCHECK
 70
     0
  9
$CHAMFERA
 40
0.0
  9
$CHAMFERB
 40
0.0
  9
$CHAMFERC
 40
0.0
  9
$CHAMFERD
 40
0.0
  9
$SKPOLY
 70
     0
  9
$TDCREATE
 40
2459493.547704016
  9
$TDUCREATE
 40
2459493.714370683
  9
$TDUPDATE
 40
2459493.547716898
  9
$TDUUPDATE
 40
2459493.714383565
  9
$TDINDWG
 40
0.0000000116
  9
$TDUSRTIMER
 40
0.0000000116
  9
$USRTIMER
 70
     1
  9
$ANGBASE
 50
0.0
  9
$ANGDIR
 70
     0
  9
$PDMODE
 70
     0
  9
$PDSIZE
 40
0.0
  9
$PLINEWID
 40
0.0
  9
$SPLFRAME
 70
     0
  9
$SPLINETYPE
 70
     6
  9
$SPLINESEGS
 70
     8
  9
$HANDSEED
  5
1B4
  9
$SURFTAB1
 70
     6
  9
$SURFTAB2
 70
     6
  9
$SURFTYPE
 70
     6
  9
$SURFU
 70
     6
  9
$SURFV
 70
     6
  9
$UCSBASE
  2

  9
$UCSNAME
  2

  9
$UCSORG
 10
0.0
 20
0.0
 30
0.0
  9
$UCSXDIR
 10
1.0
 20
0.0
 30
0.0
  9
$UCSYDIR
 10
0.0
 20
1.0
 30
0.0
  9
$UCSORTHOREF
  2

  9
$UCSORTHOVIEW
 70
     0
  9
$UCSORGTOP
 10
0.0
 20
0.0
 30
0.0
  9
$UCSORGBOTTOM
 10
0.0
 20
0.0
 30
0.0
  9
$UCSORGLEFT
 10
0.0
 20
0.0
 30
0.0
  9
$UCSORGRIGHT
 10
0.0
 20
0.0
 30
0.0
  9
$UCSORGFRONT
 10
0.0
 20
0.0
 30
0.0
  9
$UCSORGBACK
 10
0.0
 20
0.0
 30
0.0
  9
$PUCSBASE
  2

  9
$PUCSNAME
  2

  9
$PUCSORG
 10
0.0
 20
0.0
 30
0.0
  9
$PUCSXDIR
 10
1.0
 20
0.0
 30
0.0
  9
$PUCSYDIR
 10
0.0
 20
1.0
 30
0.0
  9
$PUCSORTHOREF
  2

  9
$PUCSORTHOVIEW
 70
     0
  9
$PUCSORGTOP
 10
0.0
 20
0.0
 30
0.0
  9
$PUCSORGBOTTOM
 10
0.0
 20
0.0
 30
0.0
  9
$PUCSORGLEFT
 10
0.0
 20
0.0
 30
0.0
  9
$PUCSORGRIGHT
 10
0.0
 20
0.0
 30
0.0
  9
$PUCSORGFRONT
 10
0.0
 20
0.0
 30
0.0
  9
$PUCSORGBACK
 10
0.0
 20
0.0
 30
0.0
  9
$USERI1
 70
     0
  9
$USERI2
 70
     0
  9
$USERI3
 70
     0
  9
$USERI4
 70
     0
  9
$USERI5
 70
     0
  9
$USERR1
 40
0.0
  9
$USERR2
 40
0.0
  9
$USERR3
 40
0.0
  9
$USERR4
 40
0.0
  9
$USERR5
 40
0.0
  9
$WORLDVIEW
 70
     1
  9
$SHADEDGE
 70
     3
  9
$SHADEDIF
 70
    70
  9
$TILEMODE
 70
     1
  9
$MAXACTVP
 70
    64
  9
$PINSBASE
 10
0.0
 20
0.0
 30
0.0
  9
$PLIMCHECK
 70
     0
  9
$PEXTMIN
 10
1.000000000000000E+20
 20
1.000000000000000E+20
 30
1.000000000000000E+20
  9
$PEXTMAX
 10
-1.000000000000000E+20
 20
-1.000000000000000E+20
 30
-1.000000000000000E+20
  9
$PLIMMIN
 10
0.0
 20
0.0
  9
$PLIMMAX
 10
12.0
 20
9.0
  9
$UNITMODE
 70
     0
  9
$VISRETAIN
 70
     1
  9
$PLINEGEN
 70
     0
  9
$PSLTSCALE
 70
     1
  9
$TREEDEPTH
 70
  3020
  9
$CMLSTYLE
  2
Standard
  9
$CMLJUST
 70
     0
  9
$CMLSCALE
 40
1.0
  9
$PROXYGRAPHICS
 70
     1
  9
$MEASUREMENT
 70
     0
  9
$CELWEIGHT
370
    -1
  9
$ENDCAPS
280
     0
  9
$JOINSTYLE
280
     0
  9
$LWDISPLAY
290
     0
  9
$INSUNITS
 70
     1
  9
$HYPERLINKBASE
  1

  9
$STYLESHEET
  1

  9
$XEDIT
290
     1
  9
$CEPSNTYPE
380
     0
  9
$PSTYLEMODE
290
     1
  9
$FINGERPRINTGUID
  2
{ea26b37f-120e-4d5e-9018-273dd65b4875}
  9
$VERSIONGUID
  2
{FAEB1C32-E019-11D5-929B-00C0DF256EC4}
  9
$EXTNAMES
290
     1
  9
$PSVPSCALE
 40
0.0
  9
$OLESTARTUP
290
     0
  9
$SORTENTS
280
   127
  9
$INDEXCTL
280
     0
  9
$HIDETEXT
280
     1
  9
$XCLIPFRAME
290
     0
  9
$HALOGAP
280
     0
  9
$OBSCOLOR
 70
   257
  9
$OBSLTYPE
280
     0
  9
$INTERSECTIONDISPLAY
280
     0
  9
$INTERSECTIONCOLOR
 70
   257
  9
$DIMASSOC
280
     2
  9
$PROJECTNAME
  1

  9
$CAMERADISPLAY
290
     0
  9
$LENSLENGTH
 40
50.0
  9
$CAMERAHEIGHT
 40
0.0
  9
$STEPSPERSEC
 40
2.0
  9
$STEPSIZE
 40
6.0
  9
$3DDWFPREC
 40
2.0
  9
$PSOLWIDTH
 40
0.25
  9
$PSOLHEIGHT
 40
4.0
  9
$LOFTANG1
 40
1.570796326794897
  9
$LOFTANG2
 40
1.570796326794897
  9
$LOFTMAG1
 40
0.0
  9
$LOFTMAG2
 40
0.0
  9
$LOFTPARAM
 70
     7
  9
$LOFTNORMALS
280
     1
  9
$LATITUDE
 40
37.795
  9
$LONGITUDE
 40
-122.394
  9
$NORTHDIRECTION
 40
0.0
  9
$TIMEZONE
 70
 -8000
  9
$LIGHTGLYPHDISPLAY
280
     1
  9
$TILEMODELIGHTSYNCH
280
     1
  9
$CMATERIAL
347
44
  9
$SOLIDHIST
280
     0
  9
$SHOWHIST
280
     1
  9
$DWFFRAME
280
     2
  9
$DGNFRAME
280
     2
  9
$REALWORLDSCALE
290
     1
  9
$INTERFERECOLOR
 62
   256
  9
$CSHADOW
280
     0
  9
$SHADOWPLANELOCATION
 40
0.0
  0
ENDSEC
  0
SECTION
  2
CLASSES
  0
CLASS
  1
ACDBDICTIONARYWDFLT
  2
AcDbDictionaryWithDefault
  3
ObjectDBX Classes
 90
        0
 91
        3
280
     0
281
     0
  0
CLASS
  1
VISUALSTYLE
  2
AcDbVisualStyle
  3
ObjectDBX Classes
 90
     4095
 91
        3
280
     0
281
     0
  0
CLASS
  1
MATERIAL
  2
AcDbMaterial
  3
ObjectDBX Classes
 90
     1153
 91
        3
280
     0
281
     0
  0
CLASS
  1
SCALE
  2
AcDbScale
  3
ObjectDBX Classes
 90
     1153
 91
        3
280
     0
281
     0
  0
CLASS
  1
TABLESTYLE
  2
AcDbTableStyle
  3
ObjectDBX Classes
 90
     4095
 91
        3
280
     0
281
     0
  0
CLASS
  1
MLEADERSTYLE
  2
AcDbMLeaderStyle
  3
ACDB_MLEADERSTYLE_CLASS
 90
     4095
 91
        3
280
     0
281
     0
  0
CLASS
  1
SUN
  2
AcDbSun
  3
SCENEOE
 90
     1153
 91
        3
280
     0
281
     0
  0
CLASS
  1
DICTIONARYVAR
  2
AcDbDictionaryVar
  3
ObjectDBX Classes
 90
        0
 91
        3
280
     0
281
     0
  0
CLASS
  1
CELLSTYLEMAP
  2
AcDbCellStyleMap
  3
ObjectDBX Classes
 90
     1152
 91
        3
280
     0
281
     0
  0
ENDSEC
  0
SECTION
  2
TABLES
  0
TABLE
  2
VPORT
  5
8
330
0
100
AcDbSymbolTable
 70
     1
  0
VPORT
  5
29
330
8
100
AcDbSymbolTableRecord
100
AcDbViewportTableRecord
  2
*Active
 70
     0
 10
0.0
 20
0.0
 11
1.0
 21
1.0
 12
10.42990654205607
 22
4.5
 13
0.0
 23
0.0
 14
0.5
 24
0.5
 15
0.5
 25
0.5
 16
0.0
 26
0.0
 36
1.0
 17
0.0
 27
0.0
 37
0.0
 40
9.0
 41
1.972972972850329
 42
50.0
 43
0.0
 44
0.0
 50
0.0
 51
0.0
 71
     0
 72
   100
 73
     1
 74
     3
 75
     0
 76
     0
 77
     0
 78
     0
281
     0
 65
     1
110
0.0
120
0.0
130
0.0
111
1.0
121
0.0
131
0.0
112
0.0
122
1.0
132
0.0
 79
     0
146
0.0
348
2F
 60
     3
 61
     5
292
     1
282
     1
141
0.0
142
0.0
 63
   250
361
6D
  0
ENDTAB
  0
TABLE
  2
LTYPE
  5
5
330
0
100
AcDbSymbolTable
 70
     1
  0
LTYPE
  5
14
330
5
100
AcDbSymbolTableRecord
100
AcDbLinetypeTableRecord
  2
ByBlock
 70
     0
  3

 72
    65
 73
     0
 40
0.0
  0
LTYPE
  5
15
330
5
100
AcDbSymbolTableRecord
100
AcDbLinetypeTableRecord
  2
ByLayer
 70
     0
  3

 72
    65
 73
     0
 40
0.0
  0
LTYPE
  5
16
330
5
100
AcDbSymbolTableRecord
100
AcDbLinetypeTableRecord
  2
Continuous
 70
     0
  3
Solid line
 72
    65
 73
     0
 40
0.0
  0
ENDTAB
  0
TABLE
  2
LAYER
  5
2
330
0
100
AcDbSymbolTable
 70
     2
  0
LAYER
  5
10
330
2
100
AcDbSymbolTableRecord
100
AcDbLayerTableRecord
  2
0
 70
     0
 62
     7
  6
Continuous
370
    -3
390
F
347
46
  0
LAYER
  5
6E
330
2
100
AcDbSymbolTableRecord
100
AcDbLayerTableRecord
  2
2D DXF
 70
     0
 62
    18
420
        0
  6
Continuous
370
    -3
390
F
347
46
  0
ENDTAB
  0
TABLE
  2
STYLE
  5
3
330
0
100
AcDbSymbolTable
 70
     1
  0
STYLE
  5
11
330
3
100
AcDbSymbolTableRecord
100
AcDbTextStyleTableRecord
  2
Standard
 70
     0
 40
0.0
 41
1.0
 50
0.0
 71
     0
 42
0.2
  3
txt
  4

  0
ENDTAB
  0
TABLE
  2
VIEW
  5
6
330
0
100
AcDbSymbolTable
 70
     0
  0
ENDTAB
  0
TABLE
  2
UCS
  5
7
330
0
100
AcDbSymbolTable
 70
     0
  0
ENDTAB
  0
TABLE
  2
APPID
  5
9
330
0
100
AcDbSymbolTable
 70
     2
  0
APPID
  5
12
330
9
100
AcDbSymbolTableRecord
100
AcDbRegAppTableRecord
  2
ACAD
 70
     0
  0
APPID
  5
1AC
330
9
100
AcDbSymbolTableRecord
100
AcDbRegAppTableRecord
  2
ACAD_MLEADERVER
 70
     0
  0
ENDTAB
  0
TABLE
  2
DIMSTYLE
  5
A
330
0
100
AcDbSymbolTable
 70
     1
100
AcDbDimStyleTable
  0
DIMSTYLE
105
27
330
A
100
AcDbSymbolTableRecord
100
AcDbDimStyleTableRecord
  2
STANDARD_ACAD
 70
     0
178
     0
340
11
  0
ENDTAB
  0
TABLE
  2
BLOCK_RECORD
  5
1
330
0
100
AcDbSymbolTable
 70
     1
  0
BLOCK_RECORD
  5
1F
330
1
100
AcDbSymbolTableRecord
100
AcDbBlockTableRecord
  2
*Model_Space
340
22
 70
     0
280
     1
281
     0
  0
BLOCK_RECORD
  5
1B
330
1
100
AcDbSymbolTableRecord
100
AcDbBlockTableRecord
  2
*Paper_Space
340
1E
 70
     0
280
     1
281
     0
  0
BLOCK_RECORD
  5
23
330
1
100
AcDbSymbolTableRecord
100
AcDbBlockTableRecord
  2
*Paper_Space0
340
26
 70
     0
280
     1
281
     0
  0
ENDTAB
  0
ENDSEC
  0
SECTION
  2
BLOCKS
  0
BLOCK
  5
20
330
1F
100
AcDbEntity
  8
0
100
AcDbBlockBegin
  2
*Model_Space
 70
     0
 10
0.0
 20
0.0
 30
0.0
  3
*Model_Space
  1

  0
ENDBLK
  5
21
330
1F
100
AcDbEntity
  8
0
100
AcDbBlockEnd
  0
BLOCK
  5
1C
330
1B
100
AcDbEntity
 67
     1
  8
0
100
AcDbBlockBegin
  2
*Paper_Space
 70
     0
 10
0.0
 20
0.0
 30
0.0
  3
*Paper_Space
  1

  0
ENDBLK
  5
1D
330
1B
100
AcDbEntity
 67
     1
  8
0
100
AcDbBlockEnd
  0
BLOCK
  5
24
330
23
100
AcDbEntity
  8
0
100
AcDbBlockBegin
  2
*Paper_Space0
 70
     0
 10
0.0
 20
0.0
 30
0.0
  3
*Paper_Space0
  1

  0
ENDBLK
  5
25
330
23
100
AcDbEntity
  8
0
100
AcDbBlockEnd
  0
ENDSEC
  0
SECTION
  2
ENTITIES
  0
SPLINE
  5
6F
330
1F
100
AcDbEntity
  8
2D DXF
370
    -3
100
AcDbSpline
210
0.0
220
0.0
230
1.0
 70
    12
 71
     2
 72
     6
 73
     3
 74
     0
 42
0.000000001
 43
0.0000000001
 40
0.0
 40
0.0
 40
0.0
 40
0.0580366709116775
 40
0.0580366709116775
 40
0.0580366709116775
 10
-0.0042395681672502
 20
61.18940159941214
 30
0.0
 41
1.0
 10
-0.0042398179647241
 20
61.20045951559466
 30
0.0
 41
0.9597463681099195
 10
-0.0042399657597862
 20
61.20045944028934
 30
0.0
 41
0.9563646472156803
  0
LINE
  5
70
330
1F
100
AcDbEntity
  8
2D DXF
370
    -3
100
AcDbLine
 10
-0.3587395682193488
 20
65.79393304068147
 30
0.0
 11
0.3502604317806544
 21
65.79393304068147
 31
0.0
  0
SPLINE
  5
71
330
1F
100
AcDbEntity
  8
2D DXF
370
    -3
100
AcDbSpline
210
0.0
220
0.0
230
1.0
 70
    12
 71
     2
 72
     6
 73
     3
 74
     0
 42
0.000000001
 43
0.0000000001
 40
0.9424777960769379
 40
0.9424777960769379
 40
0.9424777960769379
 40
1.256637061435917
 40
1.256637061435917
 40
1.256637061435917
 10
-11.32923956821934
 20
53.26893304068146
 30
0.0
 41
1.0
 10
-11.32923956821936
 20
53.46893304068146
 30
0.0
 41
0.7071067811865476
 10
-11.52923956821932
 20
53.46893304068146
 30
0.0
 41
1.0
  0
LINE
  5
72
330
1F
100
AcDbEntity
  8
2D DXF
370
    -3
100
AcDbLine
 10
-11.90973956821934
 20
53.46893304068146
 30
0.0
 11
-11.52923956821932
 21
53.46893304068146
 31
0.0
  0
SPLINE
  5
73
330
1F
100
AcDbEntity
  8
2D DXF
370
    -3
100
AcDbSpline
210
0.0
220
0.0
230
1.0
 70
    28
 71
     2
 72
     8
 73
     5
 74
     0
 42
0.000000001
 43
0.0000000001
 40
-4.021238596594936
 40
-4.021238596594936
 40
-4.021238596594936
 40
-2.010619298297468
 40
-2.010619298297468
 40
-1.450146787943953
 40
-1.450146787943953
 40
-1.450146787943953
 10
-11.90973956821934
 20
53.46893304068146
 30
0.0
 41
1.0
 10
-11.90973956821935
 20
53.46893304068146
 30
0.0
 41
0.7071067811865476
 10
-11.90973956821934
 20
52.18893304068146
 30
0.0
 41
1.0
 10
-11.9097395682193
 20
51.91420105850665
 30
0.0
 41
0.9183542116834841
 10
-11.90973956821935
 20
51.66366698515429
 30
0.0
 41
0.882226955867176
  0
LINE
  5
74
330
1F
100
AcDbEntity
  8
2D DXF
370
    -3
100
AcDbLine
 10
-0.4237395682193466
 20
65.79393304068147
 30
0.0
 11
-0.8042395682193302
 21
65.79393304068147
 31
0.0
  0
SPLINE
  5
75
330
1F
100
AcDbEntity
  8
2D DXF
370
    -3
100
AcDbSpline
210
0.0
220
0.0
230
1.0
 70
    28
 71
     2
 72
     8
 73
     5
 74
     0
 42
0.000000001
 43
0.0000000001
 40
-4.021238596594936
 40
-4.021238596594936
 40
-4.021238596594936
 40
-2.010619298297468
 40
-2.010619298297468
 40
0.0
 40
0.0
 40
0.0
 10
-0.4237395682193466
 20
63.23393304068146
 30
0.0
 41
1.0
 10
-0.4237395682193324
 20
63.23393304068146
 30
0.0
 41
0.7071067811865476
 10
-0.4237395682193466
 20
64.51393304068147
 30
0.0
 41
1.0
 10
-0.4237395682193324
 20
65.79393304068147
 30
0.0
 41
0.7071067811865476
 10
-0.4237395682193466
 20
65.79393304068147
 30
0.0
 41
1.0
  0
LINE
  5
76
330
1F
100
AcDbEntity
  8
2D DXF
370
    -3
100
AcDbLine
 10
-0.8042395682193302
 20
63.23393304068146
 30
0.0
 11
-0.4237395682193466
 21
63.23393304068146
 31
0.0
  0
SPLINE
  5
77
330
1F
100
AcDbEntity
  8
2D DXF
370
    -3
100
AcDbSpline
210
0.0
220
0.0
230
1.0
 70
    12
 71
     2
 72
     6
 73
     3
 74
     0
 42
0.000000001
 43
0.0000000001
 40
0.0
 40
0.0
 40
0.0
 40
0.3141592653589793
 40
0.3141592653589793
 40
0.3141592653589793
 10
-0.8042395682193302
 20
65.79393304068147
 30
0.0
 41
1.0
 10
-1.004239568219368
 20
65.79393304068147
 30
0.0
 41
0.7071067811865476
 10
-1.004239568219347
 20
65.59393304068148
 30
0.0
 41
1.0
  0
SPLINE
  5
78
330
1F
100
AcDbEntity
  8
2D DXF
370
    -3
100
AcDbSpline
210
0.0
220
0.0
230
1.0
 70
    12
 71
     2
 72
     6
 73
     3
 74
     0
 42
0.000000001
 43
0.0000000001
 40
-0.3141592653589793
 40
-0.3141592653589793
 40
-0.3141592653589793
 40
0.0
 40
0.0
 40
0.0
 10
-0.8042395682193302
 20
63.23393304068146
 30
0.0
 41
1.0
 10
-1.004239568219368
 20
63.23393304068146
 30
0.0
 41
0.7071067811865476
 10
-1.004239568219347
 20
63.43393304068145
 30
0.0
 41
1.0
  0
SPLINE
  5
79
330
1F
100
AcDbEntity
  8
2D DXF
370
    -3
100
AcDbSpline
210
0.0
220
0.0
230
1.0
 70
    28
 71
     2
 72
     8
 73
     5
 74
     0
 42
0.000000001
 43
0.0000000001
 40
-3.392920065876977
 40
-3.392920065876977
 40
-3.392920065876977
 40
-1.696460032938488
 40
-1.696460032938488
 40
0.0
 40
0.0
 40
0.0
 10
-1.004239568219347
 20
65.59393304068148
 30
0.0
 41
1.0
 10
-1.004239568219368
 20
65.59393304068146
 30
0.0
 41
0.7071067811865476
 10
-1.004239568219347
 20
64.51393304068147
 30
0.0
 41
1.0
 10
-1.004239568219368
 20
63.43393304068147
 30
0.0
 41
0.7071067811865476
 10
-1.004239568219347
 20
63.43393304068145
 30
0.0
 41
1.0
  0
SPLINE
  5
7A
330
1F
100
AcDbEntity
  8
2D DXF
370
    -3
100
AcDbSpline
210
0.0
220
0.0
230
1.0
 70
    28
 71
     2
 72
     8
 73
     5
 74
     0
 42
0.000000001
 43
0.0000000001
 40
-3.392920065876977
 40
-3.392920065876977
 40
-3.392920065876977
 40
-1.696460032938488
 40
-1.696460032938488
 40
-1.341517303490344
 40
-1.341517303490344
 40
-1.341517303490344
 10
0.9957604317806528
 20
38.78393304068146
 30
0.0
 41
1.0
 10
0.9957604317806477
 20
38.78393304068145
 30
0.0
 41
0.7071067811865476
 10
0.9957604317806528
 20
39.86393304068146
 30
0.0
 41
1.0
 10
0.995760431780695
 20
40.03414406260247
 30
0.0
 41
0.9387192645249491
 10
0.9957604317806824
 20
40.19610439908249
 30
0.0
 41
0.9030815163172476
  0
SPLINE
  5
7B
330
1F
100
AcDbEntity
  8
2D DXF
370
    -3
100
AcDbSpline
210
0.0
220
0.0
230
1.0
 70
    12
 71
     2
 72
     6
 73
     3
 74
     0
 42
0.000000001
 43
0.0000000001
 40
-0.3141592653589793
 40
-0.3141592653589793
 40
-0.3141592653589793
 40
0.0
 40
0.0
 40
0.0
 10
0.7957604317806641
 20
38.58393304068146
 30
0.0
 41
1.0
 10
0.9957604317806477
 20
38.58393304068144
 30
0.0
 41
0.7071067811865476
 10
0.9957604317806528
 20
38.78393304068146
 30
0.0
 41
1.0
  0
LINE
  5
7C
330
1F
100
AcDbEntity
  8
2D DXF
370
    -3
100
AcDbLine
 10
0.7957604317806641
 20
38.58393304068146
 30
0.0
 11
0.4152604317806521
 21
38.58393304068146
 31
0.0
  0
LINE
  5
7D
330
1F
100
AcDbEntity
  8
2D DXF
370
    -3
100
AcDbLine
 10
-12.68373956821934
 20
53.46893304068146
 30
0.0
 11
-11.97473956821933
 21
53.46893304068146
 31
0.0
  0
SPLINE
  5
7E
330
1F
100
AcDbEntity
  8
2D DXF
370
    -3
100
AcDbSpline
210
0.0
220
0.0
230
1.0
 70
    28
 71
     2
 72
     8
 73
     5
 74
     0
 42
0.000000001
 43
0.0000000001
 40
-3.392920065876977
 40
-3.392920065876977
 40
-3.392920065876977
 40
-1.696460032938488
 40
-1.696460032938488
 40
0.0
 40
0.0
 40
0.0
 10
0.9957604317806528
 20
63.43393304068145
 30
0.0
 41
1.0
 10
0.9957604317806477
 20
63.43393304068147
 30
0.0
 41
0.7071067811865476
 10
0.9957604317806528
 20
64.51393304068147
 30
0.0
 41
1.0
 10
0.9957604317806477
 20
65.59393304068146
 30
0.0
 41
0.7071067811865476
 10
0.9957604317806528
 20
65.59393304068148
 30
0.0
 41
1.0
  0
SPLINE
  5
7F
330
1F
100
AcDbEntity
  8
2D DXF
370
    -3
100
AcDbSpline
210
0.0
220
0.0
230
1.0
 70
    12
 71
     2
 72
     6
 73
     3
 74
     0
 42
0.000000001
 43
0.0000000001
 40
-0.3141592653589793
 40
-0.3141592653589793
 40
-0.3141592653589793
 40
0.0
 40
0.0
 40
0.0
 10
0.7957604317806641
 20
63.23393304068146
 30
0.0
 41
1.0
 10
0.9957604317806477
 20
63.23393304068146
 30
0.0
 41
0.7071067811865476
 10
0.9957604317806528
 20
63.43393304068145
 30
0.0
 41
1.0
  0
SPLINE
  5
80
330
1F
100
AcDbEntity
  8
2D DXF
370
    -3
100
AcDbSpline
210
0.0
220
0.0
230
1.0
 70
    12
 71
     2
 72
     6
 73
     3
 74
     0
 42
0.000000001
 43
0.0000000001
 40
0.9424777960769379
 40
0.9424777960769379
 40
0.9424777960769379
 40
1.256637061435917
 40
1.256637061435917
 40
1.256637061435917
 10
0.9957604317806528
 20
65.59393304068148
 30
0.0
 41
1.0
 10
0.9957604317806477
 20
65.79393304068147
 30
0.0
 41
0.7071067811865476
 10
0.7957604317806641
 20
65.79393304068147
 30
0.0
 41
1.0
  0
LINE
  5
81
330
1F
100
AcDbEntity
  8
2D DXF
370
    -3
100
AcDbLine
 10
0.4152604317806521
 20
65.79393304068147
 30
0.0
 11
0.7957604317806641
 21
65.79393304068147
 31
0.0
  0
LINE
  5
82
330
1F
100
AcDbEntity
  8
2D DXF
370
    -3
100
AcDbLine
 10
0.7957604317806641
 20
63.23393304068146
 30
0.0
 11
0.4152604317806521
 21
63.23393304068146
 31
0.0
  0
SPLINE
  5
83
330
1F
100
AcDbEntity
  8
2D DXF
370
    -3
100
AcDbSpline
210
0.0
220
0.0
230
1.0
 70
    28
 71
     2
 72
     8
 73
     5
 74
     0
 42
0.000000001
 43
0.0000000001
 40
-4.021238596594936
 40
-4.021238596594936
 40
-4.021238596594936
 40
-2.010619298297468
 40
-2.010619298297468
 40
0.0
 40
0.0
 40
0.0
 10
0.4152604317806521
 20
65.79393304068147
 30
0.0
 41
1.0
 10
0.415260431780652
 20
65.79393304068147
 30
0.0
 41
0.7071067811865476
 10
0.4152604317806521
 20
64.51393304068147
 30
0.0
 41
1.0
 10
0.415260431780652
 20
63.23393304068146
 30
0.0
 41
0.7071067811865476
 10
0.4152604317806521
 20
63.23393304068146
 30
0.0
 41
1.0
  0
SPLINE
  5
84
330
1F
100
AcDbEntity
  8
2D DXF
370
    -3
100
AcDbSpline
210
0.0
220
0.0
230
1.0
 70
    28
 71
     2
 72
     8
 73
     5
 74
     0
 42
0.000000001
 43
0.0000000001
 40
-4.021238596594936
 40
-4.021238596594936
 40
-4.021238596594936
 40
-2.010619298297468
 40
-2.010619298297468
 40
-1.688469748664775
 40
-1.688469748664775
 40
-1.688469748664775
 10
-0.4237395682193466
 20
38.58393304068146
 30
0.0
 41
1.0
 10
-0.4237395682193324
 20
38.58393304068144
 30
0.0
 41
0.7071067811865476
 10
-0.4237395682193466
 20
39.86393304068146
 30
0.0
 41
1.0
 10
-0.4237395682193317
 20
40.01609188001912
 30
0.0
 41
0.9530714647914099
 10
-0.4237395682193386
 20
40.16401031241349
 30
0.0
 41
0.9211810887163472
  0
LINE
  5
85
330
1F
100
AcDbEntity
  8
2D DXF
370
    -3
100
AcDbLine
 10
-0.8042395682193302
 20
38.58393304068146
 30
0.0
 11
-0.4237395682193466
 21
38.58393304068146
 31
0.0
  0
SPLINE
  5
86
330
1F
100
AcDbEntity
  8
2D DXF
370
    -3
100
AcDbSpline
210
0.0
220
0.0
230
1.0
 70
    12
 71
     2
 72
     6
 73
     3
 74
     0
 42
0.000000001
 43
0.0000000001
 40
-0.3141592653589793
 40
-0.3141592653589793
 40
-0.3141592653589793
 40
0.0
 40
0.0
 40
0.0
 10
-0.8042395682193302
 20
38.58393304068146
 30
0.0
 41
1.0
 10
-1.004239568219368
 20
38.58393304068144
 30
0.0
 41
0.7071067811865476
 10
-1.004239568219347
 20
38.78393304068146
 30
0.0
 41
1.0
  0
LINE
  5
87
330
1F
100
AcDbEntity
  8
2D DXF
370
    -3
100
AcDbLine
 10
-12.74873956821934
 20
53.46893304068146
 30
0.0
 11
-13.12923956821935
 21
53.46893304068146
 31
0.0
  0
SPLINE
  5
88
330
1F
100
AcDbEntity
  8
2D DXF
370
    -3
100
AcDbSpline
210
0.0
220
0.0
230
1.0
 70
    28
 71
     2
 72
     6
 73
     3
 74
     0
 42
0.000000001
 43
0.0000000001
 40
-4.021238596594936
 40
-4.021238596594936
 40
-4.021238596594936
 40
-3.211340649965797
 40
-3.211340649965797
 40
-3.211340649965797
 10
-12.74873956821934
 20
50.90893304068146
 30
0.0
 41
1.0
 10
-12.74873956821929
 20
50.90893304068146
 30
0.0
 41
0.8820196261423139
 10
-12.74873956821937
 20
51.15068717151171
 30
0.0
 41
0.8590866464987275
  0
LINE
  5
89
330
1F
100
AcDbEntity
  8
2D DXF
370
    -3
100
AcDbLine
 10
-13.12923956821935
 20
50.90893304068146
 30
0.0
 11
-12.74873956821934
 21
50.90893304068146
 31
0.0
  0
SPLINE
  5
8A
330
1F
100
AcDbEntity
  8
2D DXF
370
    -3
100
AcDbSpline
210
0.0
220
0.0
230
1.0
 70
    12
 71
     2
 72
     6
 73
     3
 74
     0
 42
0.000000001
 43
0.0000000001
 40
0.0
 40
0.0
 40
0.0
 40
0.3141592653589793
 40
0.3141592653589793
 40
0.3141592653589793
 10
-13.12923956821935
 20
53.46893304068146
 30
0.0
 41
1.0
 10
-13.32923956821933
 20
53.46893304068146
 30
0.0
 41
0.7071067811865476
 10
-13.32923956821934
 20
53.26893304068146
 30
0.0
 41
1.0
  0
SPLINE
  5
8B
330
1F
100
AcDbEntity
  8
2D DXF
370
    -3
100
AcDbSpline
210
0.0
220
0.0
230
1.0
 70
    12
 71
     2
 72
     6
 73
     3
 74
     0
 42
0.000000001
 43
0.0000000001
 40
-0.3141592653589793
 40
-0.3141592653589793
 40
-0.3141592653589793
 40
0.0
 40
0.0
 40
0.0
 10
-13.12923956821935
 20
50.90893304068146
 30
0.0
 41
1.0
 10
-13.32923956821933
 20
50.90893304068145
 30
0.0
 41
0.7071067811865476
 10
-13.32923956821934
 20
51.10893304068146
 30
0.0
 41
1.0
  0
SPLINE
  5
8C
330
1F
100
AcDbEntity
  8
2D DXF
370
    -3
100
AcDbSpline
210
0.0
220
0.0
230
1.0
 70
    28
 71
     2
 72
     8
 73
     5
 74
     0
 42
0.000000001
 43
0.0000000001
 40
-3.392920065876977
 40
-3.392920065876977
 40
-3.392920065876977
 40
-1.696460032938488
 40
-1.696460032938488
 40
0.0
 40
0.0
 40
0.0
 10
-13.32923956821934
 20
53.26893304068146
 30
0.0
 41
1.0
 10
-13.32923956821933
 20
53.26893304068145
 30
0.0
 41
0.7071067811865476
 10
-13.32923956821934
 20
52.18893304068146
 30
0.0
 41
1.0
 10
-13.32923956821933
 20
51.10893304068146
 30
0.0
 41
0.7071067811865476
 10
-13.32923956821934
 20
51.10893304068146
 30
0.0
 41
1.0
  0
SPLINE
  5
8D
330
1F
100
AcDbEntity
  8
2D DXF
370
    -3
100
AcDbSpline
210
0.0
220
0.0
230
1.0
 70
    28
 71
     2
 72
     8
 73
     5
 74
     0
 42
0.000000001
 43
0.0000000001
 40
-2.332547755811289
 40
-2.332547755811289
 40
-2.332547755811289
 40
-2.010619298297468
 40
-2.010619298297468
 40
0.0
 40
0.0
 40
0.0
 10
0.4152604317807141
 20
40.16380025065519
 30
0.0
 41
0.9212248687045055
 10
0.41526043178065
 20
40.01598231478339
 30
0.0
 41
0.9531036719737469
 10
0.4152604317806521
 20
39.86393304068146
 30
0.0
 41
1.0
 10
0.415260431780652
 20
38.58393304068144
 30
0.0
 41
0.7071067811865476
 10
0.4152604317806521
 20
38.58393304068146
 30
0.0
 41
1.0
  0
SPLINE
  5
8E
330
1F
100
AcDbEntity
  8
2D DXF
370
    -3
100
AcDbSpline
210
0.0
220
0.0
230
1.0
 70
    28
 71
     2
 72
     8
 73
     5
 74
     0
 42
0.000000001
 43
0.0000000001
 40
-2.25412492948331
 40
-2.25412492948331
 40
-2.25412492948331
 40
-1.696460032938488
 40
-1.696460032938488
 40
0.0
 40
0.0
 40
0.0
 10
-11.32923956821931
 20
51.66784089506323
 30
0.0
 41
0.8707379739206973
 10
-11.32923956821934
 20
51.91115056172157
 30
0.0
 41
0.90371935477586
 10
-11.32923956821934
 20
52.18893304068146
 30
0.0
 41
1.0
 10
-11.32923956821936
 20
53.26893304068145
 30
0.0
 41
0.7071067811865476
 10
-11.32923956821934
 20
53.26893304068146
 30
0.0
 41
1.0
  0
SPLINE
  5
8F
330
1F
100
AcDbEntity
  8
2D DXF
370
    -3
100
AcDbSpline
210
0.0
220
0.0
230
1.0
 70
    28
 71
     2
 72
     8
 73
     5
 74
     0
 42
0.000000001
 43
0.0000000001
 40
-2.051931865501802
 40
-2.051931865501802
 40
-2.051931865501802
 40
-1.696460032938488
 40
-1.696460032938488
 40
0.0
 40
0.0
 40
0.0
 10
-1.004239568219333
 20
40.19660630314945
 30
0.0
 41
0.9029753249265025
 10
-1.004239568219391
 20
40.03441438140005
 30
0.0
 41
0.9386279150610791
 10
-1.004239568219347
 20
39.86393304068146
 30
0.0
 41
1.0
 10
-1.004239568219368
 20
38.78393304068145
 30
0.0
 41
0.7071067811865476
 10
-1.004239568219347
 20
38.78393304068146
 30
0.0
 41
1.0
  0
SPLINE
  5
90
330
1F
100
AcDbEntity
  8
2D DXF
370
    -3
100
AcDbSpline
210
0.0
220
0.0
230
1.0
 70
    28
 71
     2
 72
     8
 73
     5
 74
     0
 42
0.000000001
 43
0.0000000001
 40
-2.946053727531805
 40
-2.946053727531805
 40
-2.946053727531805
 40
-2.010619298297468
 40
-2.010619298297468
 40
0.0
 40
0.0
 40
0.0
 10
-12.74873956821936
 20
51.33740858631514
 30
0.0
 41
0.854260889860835
 10
-12.74873956821936
 20
51.70140533844081
 30
0.0
 41
0.8637323330183045
 10
-12.74873956821934
 20
52.18893304068146
 30
0.0
 41
1.0
 10
-12.74873956821934
 20
53.46893304068146
 30
0.0
 41
0.7071067811865476
 10
-12.74873956821934
 20
53.46893304068146
 30
0.0
 41
1.0
  0
SPLINE
  5
91
330
1F
100
AcDbEntity
  8
2D DXF
370
    -3
100
AcDbSpline
210
0.0
220
0.0
230
1.0
 70
     8
 71
     3
 72
    43
 73
    39
 74
     0
 42
0.000000001
 43
0.0000000001
 40
0.0
 40
0.0
 40
0.0
 40
0.0
 40
1.0
 40
2.0
 40
3.0
 40
4.0
 40
5.0
 40
6.0
 40
7.0
 40
8.0
 40
9.0
 40
10.0
 40
11.0
 40
12.0
 40
13.0
 40
14.0
 40
15.0
 40
16.0
 40
17.0
 40
17.0
 40
17.0
 40
18.0
 40
19.0
 40
20.0
 40
21.0
 40
22.0
 40
23.0
 40
24.0
 40
25.0
 40
26.0
 40
27.0
 40
28.0
 40
29.0
 40
30.0
 40
31.0
 40
32.0
 40
33.0
 40
34.0
 40
34.0
 40
34.0
 40
34.0
 10
-5.392148262364103
 20
56.41117624368115
 30
0.0
 10
-5.675159113175013
 20
56.07817122430143
 30
0.0
 10
-6.209125143788057
 20
55.38531745998741
 30
0.0
 10
-6.918361786081945
 20
54.28106201526732
 30
0.0
 10
-7.507039066890727
 20
53.10758038680014
 30
0.0
 10
-7.971227078554406
 20
51.87973898400232
 30
0.0
 10
-8.304066975107432
 20
50.60980209451377
 30
0.0
 10
-8.496323043751246
 20
49.31094283432357
 30
0.0
 10
-8.539561586103318
 20
47.99864768187176
 30
0.0
 10
-8.43530754943798
 20
46.68966617666216
 30
0.0
 10
-8.169547728857637
 20
45.40283235152606
 30
0.0
 10
-7.72137749838349
 20
44.16710213487136
 30
0.0
 10
-7.064163870752949
 20
43.02391861260368
 30
0.0
 10
-6.158218374240377
 20
42.06472290901931
 30
0.0
 10
-5.068755073953966
 20
41.32420229622642
 30
0.0
 10
-3.873280596926449
 20
40.77731735660393
 30
0.0
 10
-2.611687605382926
 20
40.40996752835093
 30
0.0
 10
-1.315283097229312
 20
40.20143667257776
 30
0.0
 10
-0.4412342563020815
 20
40.15705591016406
 30
0.0
 10
-0.0042675061485937
 20
40.15705591016406
 30
0.0
 10
0.432699244004894
 20
40.15705591016406
 30
0.0
 10
1.306748084932124
 20
40.20143667257776
 30
0.0
 10
2.603152593085738
 20
40.40996752835093
 30
0.0
 10
3.864745584629262
 20
40.77731735660393
 30
0.0
 10
5.060220061656779
 20
41.32420229622642
 30
0.0
 10
6.14968336194319
 20
42.06472290901931
 30
0.0
 10
7.055628858455762
 20
43.02391861260368
 30
0.0
 10
7.712842486086302
 20
44.16710213487136
 30
0.0
 10
8.16101271656045
 20
45.40283235152606
 30
0.0
 10
8.426772537140792
 20
46.68966617666216
 30
0.0
 10
8.53102657380613
 20
47.99864768187176
 30
0.0
 10
8.487788031454059
 20
49.31094283432357
 30
0.0
 10
8.295531962810244
 20
50.60980209451377
 30
0.0
 10
7.962692066257219
 20
51.87973898400232
 30
0.0
 10
7.498504054593539
 20
53.10758038680014
 30
0.0
 10
6.909826773784758
 20
54.28106201526732
 30
0.0
 10
6.20059013149087
 20
55.38531745998741
 30
0.0
 10
5.666624100877826
 20
56.07817122430143
 30
0.0
 10
5.383613250066915
 20
56.41117624368115
 30
0.0
  0
SPLINE
  5
92
330
1F
100
AcDbEntity
  8
2D DXF
370
    -3
100
AcDbSpline
210
0.0
220
0.0
230
1.0
 70
    11
 71
     3
 72
   123
 73
   119
 74
     0
 42
0.000000001
 43
0.0000000001
 40
0.0
 40
0.0
 40
0.0
 40
0.0
 40
1.0
 40
2.0
 40
3.0
 40
4.0
 40
5.0
 40
6.0
 40
7.0
 40
8.0
 40
9.0
 40
10.0
 40
11.0
 40
12.0
 40
13.0
 40
14.0
 40
15.0
 40
16.0
 40
17.0
 40
18.0
 40
19.0
 40
20.0
 40
21.0
 40
22.0
 40
23.0
 40
24.0
 40
25.0
 40
26.0
 40
27.0
 40
28.0
 40
29.0
 40
30.0
 40
31.0
 40
32.0
 40
33.0
 40
34.0
 40
35.0
 40
36.0
 40
37.0
 40
38.0
 40
39.0
 40
40.0
 40
41.0
 40
42.0
 40
43.0
 40
44.0
 40
45.0
 40
46.0
 40
47.0
 40
48.0
 40
49.0
 40
50.0
 40
51.0
 40
52.0
 40
53.0
 40
54.0
 40
55.0
 40
56.0
 40
57.0
 40
57.0
 40
57.0
 40
58.0
 40
59.0
 40
60.0
 40
61.0
 40
62.0
 40
63.0
 40
64.0
 40
65.0
 40
66.0
 40
67.0
 40
68.0
 40
69.0
 40
70.0
 40
71.0
 40
72.0
 40
73.0
 40
74.0
 40
75.0
 40
76.0
 40
77.0
 40
78.0
 40
79.0
 40
80.0
 40
81.0
 40
82.0
 40
83.0
 40
84.0
 40
85.0
 40
86.0
 40
87.0
 40
88.0
 40
89.0
 40
90.0
 40
91.0
 40
92.0
 40
93.0
 40
94.0
 40
95.0
 40
96.0
 40
97.0
 40
98.0
 40
99.0
 40
100.0
 40
101.0
 40
102.0
 40
103.0
 40
104.0
 40
105.0
 40
106.0
 40
107.0
 40
108.0
 40
109.0
 40
110.0
 40
111.0
 40
112.0
 40
113.0
 40
114.0
 40
114.0
 40
114.0
 40
114.0
 10
-0.0042310753432702
 20
57.217443516144
 30
0.0
 10
-0.1090973530315154
 20
57.21744076853041
 30
0.0
 10
-0.3188289843828187
 20
57.21505136215958
 30
0.0
 10
-0.6332684748675632
 20
57.20448295214403
 30
0.0
 10
-0.9474038070563751
 20
57.18708423719102
 30
0.0
 10
-1.261093191380027
 20
57.16296244302785
 30
0.0
 10
-1.574209248430392
 20
57.13228850089496
 30
0.0
 10
-1.886641981309012
 20
57.09530946246943
 30
0.0
 10
-2.198296298368106
 20
57.05226694726002
 30
0.0
 10
-2.509078816922496
 20
57.0033242073701
 30
0.0
 10
-2.818879521555615
 20
56.94853454253959
 30
0.0
 10
-3.127838062225337
 20
56.88916617827466
 30
0.0
 10
-3.435670422990469
 20
56.82424256643441
 30
0.0
 10
-3.743005020030054
 20
56.75702931300401
 30
0.0
 10
-4.050383914856283
 20
56.69002091257096
 30
0.0
 10
-4.357787336520104
 20
56.62312205699665
 30
0.0
 10
-4.665445019754472
 20
56.55740179672289
 30
0.0
 10
-4.973451255511733
 20
56.49333017639856
 30
0.0
 10
-5.28196123647659
 20
56.43171790317434
 30
0.0
 10
-5.591118462606048
 20
56.37343693530605
 30
0.0
 10
-5.901086069136667
 20
56.31957074712906
 30
0.0
 10
-6.211998324397072
 20
56.27154602474289
 30
0.0
 10
-6.524174094530323
 20
56.2317481836559
 30
0.0
 10
-6.837317405128246
 20
56.20344473575204
 30
0.0
 10
-7.152958910611787
 20
56.19384143103154
 30
0.0
 10
-7.463772230265519
 20
56.21578137361891
 30
0.0
 10
-7.781916070615111
 20
56.31441299116403
 30
0.0
 10
-7.914915084595847
 20
56.62961386831287
 30
0.0
 10
-7.826156748479931
 20
56.94037631529446
 30
0.0
 10
-7.697401442204622
 20
57.2257655485779
 30
0.0
 10
-7.540728776754506
 20
57.4994699469662
 30
0.0
 10
-7.369572250367455
 20
57.76332327565225
 30
0.0
 10
-7.190499329177655
 20
58.02205565523136
 30
0.0
 10
-7.005943823983543
 20
58.2768454052827
 30
0.0
 10
-6.811494303638128
 20
58.52433498323053
 30
0.0
 10
-6.599503948439221
 20
58.7570696780801
 30
0.0
 10
-6.373906352935293
 20
58.97643816832671
 30
0.0
 10
-6.143893336420703
 20
59.19108983861081
 30
0.0
 10
-5.905534543643611
 20
59.39654419053186
 30
0.0
 10
-5.657913953259296
 20
59.59072889356399
 30
0.0
 10
-5.40185841592664
 20
59.77362354985779
 30
0.0
 10
-5.138662115913789
 20
59.94609110295754
 30
0.0
 10
-4.86746966758794
 20
60.10575623743021
 30
0.0
 10
-4.588366853703107
 20
60.2511292286968
 30
0.0
 10
-4.303004447011048
 20
60.38373708566273
 30
0.0
 10
-4.012419897937249
 20
60.50445268681101
 30
0.0
 10
-3.717391124220953
 20
60.61383578697216
 30
0.0
 10
-3.418577919961635
 20
60.71239535764168
 30
0.0
 10
-3.116586000138497
 20
60.80070983114943
 30
0.0
 10
-2.811892262348167
 20
60.8791908478015
 30
0.0
 10
-2.504889851471361
 20
60.94807150383001
 30
0.0
 10
-2.195976834159168
 20
61.00778824078559
 30
0.0
 10
-1.885475512253024
 20
61.05858523378508
 30
0.0
 10
-1.573698909062259
 20
61.10083793032702
 30
0.0
 10
-1.260913024005603
 20
61.1348089250731
 30
0.0
 10
-0.9473621640390064
 20
61.16075801294083
 30
0.0
 10
-0.6332671308630182
 20
61.1789515977383
 30
0.0
 10
-0.3188298862331607
 20
61.1896588781721
 30
0.0
 10
-0.1090970563771947
 20
61.19197658841397
 30
0.0
 10
-0.0042310753432702
 20
61.19197402203632
 30
0.0
 10
0.1006349056906544
 20
61.19197658841397
 30
0.0
 10
0.3103677355466203
 20
61.1896588781721
 30
0.0
 10
0.6248049801764779
 20
61.1789515977383
 30
0.0
 10
0.9389000133524661
 20
61.16075801294083
 30
0.0
 10
1.252450873319063
 20
61.1348089250731
 30
0.0
 10
1.565236758375718
 20
61.10083793032702
 30
0.0
 10
1.877013361566483
 20
61.05858523378508
 30
0.0
 10
2.187514683472628
 20
61.00778824078559
 30
0.0
 10
2.496427700784821
 20
60.94807150383001
 30
0.0
 10
2.803430111661626
 20
60.8791908478015
 30
0.0
 10
3.108123849451957
 20
60.80070983114943
 30
0.0
 10
3.410115769275095
 20
60.71239535764168
 30
0.0
 10
3.708928973534412
 20
60.61383578697216
 30
0.0
 10
4.003957747250709
 20
60.50445268681101
 30
0.0
 10
4.294542296324508
 20
60.38373708566273
 30
0.0
 10
4.579904703016567
 20
60.2511292286968
 30
0.0
 10
4.8590075169014
 20
60.10575623743021
 30
0.0
 10
5.130199965227249
 20
59.94609110295754
 30
0.0
 10
5.393396265240099
 20
59.77362354985779
 30
0.0
 10
5.649451802572756
 20
59.59072889356399
 30
0.0
 10
5.897072392957071
 20
59.39654419053186
 30
0.0
 10
6.135431185734163
 20
59.19108983861081
 30
0.0
 10
6.365444202248753
 20
58.97643816832671
 30
0.0
 10
6.591041797752681
 20
58.7570696780801
 30
0.0
 10
6.803032152951587
 20
58.52433498323053
 30
0.0
 10
6.997481673297003
 20
58.2768454052827
 30
0.0
 10
7.182037178491115
 20
58.02205565523136
 30
0.0
 10
7.361110099680914
 20
57.76332327565225
 30
0.0
 10
7.532266626067965
 20
57.4994699469662
 30
0.0
 10
7.688939291518082
 20
57.2257655485779
 30
0.0
 10
7.817694597793391
 20
56.94037631529446
 30
0.0
 10
7.906452933909307
 20
56.62961386831287
 30
0.0
 10
7.773453919928571
 20
56.31441299116403
 30
0.0
 10
7.455310079578979
 20
56.21578137361891
 30
0.0
 10
7.144496759925246
 20
56.19384143103154
 30
0.0
 10
6.828855254441706
 20
56.20344473575204
 30
0.0
 10
6.515711943843783
 20
56.2317481836559
 30
0.0
 10
6.203536173710532
 20
56.27154602474289
 30
0.0
 10
5.892623918450127
 20
56.31957074712906
 30
0.0
 10
5.582656311919507
 20
56.37343693530605
 30
0.0
 10
5.27349908579005
 20
56.43171790317434
 30
0.0
 10
4.964989104825193
 20
56.49333017639856
 30
0.0
 10
4.656982869067932
 20
56.55740179672289
 30
0.0
 10
4.349325185833564
 20
56.62312205699665
 30
0.0
 10
4.041921764169743
 20
56.69002091257096
 30
0.0
 10
3.734542869343514
 20
56.75702931300401
 30
0.0
 10
3.427208272303929
 20
56.82424256643441
 30
0.0
 10
3.119375911538796
 20
56.88916617827466
 30
0.0
 10
2.810417370869075
 20
56.94853454253959
 30
0.0
 10
2.500616666235956
 20
57.0033242073701
 30
0.0
 10
2.189834147681566
 20
57.05226694726002
 30
0.0
 10
1.878179830622472
 20
57.09530946246943
 30
0.0
 10
1.565747097743852
 20
57.13228850089496
 30
0.0
 10
1.252631040693487
 20
57.16296244302785
 30
0.0
 10
0.9389416563698347
 20
57.18708423719102
 30
0.0
 10
0.6248063241810229
 20
57.20448295214403
 30
0.0
 10
0.3103668336962784
 20
57.21505136215958
 30
0.0
 10
0.100635202344975
 20
57.21744076853041
 30
0.0
 10
-0.0042310753432702
 20
57.217443516144
 30
0.0
  0
LINE
  5
93
330
1F
100
AcDbEntity
  8
2D DXF
370
    -3
100
AcDbLine
 10
-11.97473956821933
 20
53.46893304068146
 30
0.0
 11
-11.97473956821933
 21
51.66355932023311
 31
0.0
  0
LINE
  5
94
330
1F
100
AcDbEntity
  8
2D DXF
370
    -3
100
AcDbLine
 10
-12.68373956821934
 20
53.46893304068146
 30
0.0
 11
-12.68373956821934
 21
51.52196687024893
 31
0.0
  0
SPLINE
  5
95
330
1F
100
AcDbEntity
  8
2D DXF
370
    -3
100
AcDbSpline
210
0.0
220
0.0
230
1.0
 70
     8
 71
     3
 72
    19
 73
    15
 74
     0
 42
0.000000001
 43
0.0000000001
 40
-2.957974390997827
 40
-2.957974390997827
 40
-2.957974390997827
 40
-2.957974390997827
 40
0.0
 40
0.0
 40
0.0
 40
0.333722273727456
 40
0.667444547454912
 40
1.001166818753635
 40
1.168027955617363
 40
1.334889091388291
 40
1.471622646156443
 40
1.608356197403297
 40
1.88182329989677
 40
2.358222152785325
 40
2.358222152785325
 40
2.358222152785325
 40
2.358222152785325
 10
-8.233017370255553
 20
50.82719504973942
 30
0.0
 10
-9.163187191960148
 20
50.8372743800413
 30
0.0
 10
-10.09335701366474
 20
50.84735371034318
 30
0.0
 10
-11.02352683536934
 20
50.85743304064506
 30
0.0
 10
-11.12846972763934
 20
50.85857020296676
 30
0.0
 10
-11.33604645625933
 20
50.86065834194356
 30
0.0
 10
-11.63385261473933
 20
50.86243030894276
 30
0.0
 10
-11.85977763000933
 20
50.86314518650477
 30
0.0
 10
-12.01431139715935
 20
50.86336829089277
 30
0.0
 10
-12.10610128756933
 20
50.86343540896476
 30
0.0
 10
-12.17453816560935
 20
50.86346865215586
 30
0.0
 10
-12.24008677967934
 20
50.86349283327417
 30
0.0
 10
-12.30553178214934
 20
50.86349055510736
 30
0.0
 10
-12.32079683514932
 20
50.86346238153597
 30
0.0
 10
-12.32546112499934
 20
50.86344949357137
 30
0.0
  0
SPLINE
  5
96
330
1F
100
AcDbEntity
  8
2D DXF
370
    -3
100
AcDbSpline
210
0.0
220
0.0
230
1.0
 70
     8
 71
     3
 72
    18
 73
    14
 74
     0
 42
0.000000001
 43
0.0000000001
 40
2.358222152785325
 40
2.358222152785325
 40
2.358222152785325
 40
2.358222152785325
 40
3.358222152785325
 40
3.358222152785325
 40
4.358222152785325
 40
4.358222152785325
 40
5.358222152785325
 40
5.358222152785325
 40
6.358222152785325
 40
6.358222152785325
 40
7.358222152785325
 40
7.358222152785325
 40
8.358222152785325
 40
8.358222152785325
 40
8.358222152785325
 40
8.358222152785325
 10
-12.32546112499934
 20
50.86344949357137
 30
0.0
 10
-12.40102960612872
 20
50.86131065161074
 30
0.0
 10
-12.47494335856702
 20
50.87404640777739
 30
0.0
 10
-12.6194614060614
 20
50.92926711636527
 30
0.0
 10
-12.67337237193037
 20
50.9773381623768
 30
0.0
 10
-12.74449818791184
 20
51.11440163783509
 30
0.0
 10
-12.76227964166695
 20
51.18692268455069
 30
0.0
 10
-12.76227964070601
 20
51.33994339595474
 30
0.0
 10
-12.74449818842673
 20
51.41246444134661
 30
0.0
 10
-12.67337238027081
 20
51.54952791151002
 30
0.0
 10
-12.61946141459164
 20
51.59759895791259
 30
0.0
 10
-12.47494336003096
 20
51.65281967335953
 30
0.0
 10
-12.40102960592701
 20
51.6655554307447
 30
0.0
 10
-12.32546112499934
 20
51.66341658779156
 30
0.0
  0
SPLINE
  5
97
330
1F
100
AcDbEntity
  8
2D DXF
370
    -3
100
AcDbSpline
210
0.0
220
0.0
230
1.0
 70
     8
 71
     3
 72
    19
 73
    15
 74
     0
 42
0.000000001
 43
0.0000000001
 40
8.358222152785325
 40
8.358222152785325
 40
8.358222152785325
 40
8.358222152785325
 40
8.834621005673881
 40
9.108088108167353
 40
9.244821659414209
 40
9.38155521418236
 40
9.548416349953287
 40
9.715277486817016
 40
10.04899975811574
 40
10.38272203184319
 40
10.71644430557065
 40
10.71644430557065
 40
10.71644430557065
 40
13.91886294566947
 40
13.91886294566947
 40
13.91886294566947
 40
13.91886294566947
 10
-12.32546112499934
 20
51.66341658779156
 30
0.0
 10
-12.32079683514932
 20
51.66340369982696
 30
0.0
 10
-12.30553178214934
 20
51.66337552625556
 30
0.0
 10
-12.24008677967934
 20
51.66337324808876
 30
0.0
 10
-12.17453816560935
 20
51.66339742920707
 30
0.0
 10
-12.10610128756933
 20
51.66343067239816
 30
0.0
 10
-12.01431139715935
 20
51.66349779047016
 30
0.0
 10
-11.85977763000933
 20
51.66372089485816
 30
0.0
 10
-11.63385261473933
 20
51.66443577242016
 30
0.0
 10
-11.33604645625933
 20
51.66620773941936
 30
0.0
 10
-11.12846972763934
 20
51.66829587839617
 30
0.0
 10
-11.02352683536934
 20
51.66943304071786
 30
0.0
 10
-10.01648864580632
 20
51.68034531748966
 30
0.0
 10
-9.009450456243329
 20
51.69125759426145
 30
0.0
 10
-8.00241226668031
 20
51.70216987103325
 30
0.0
  0
SPLINE
  5
98
330
1F
100
AcDbEntity
  8
2D DXF
370
    -3
100
AcDbSpline
210
0.0
220
0.0
230
1.0
 70
     8
 71
     3
 72
    16
 73
    12
 74
     0
 42
0.000000001
 43
0.0000000001
 40
0.0882665820400162
 40
0.0882665820400162
 40
0.0882665820400162
 40
0.0882665820400162
 40
0.333722273727456
 40
0.667444547454912
 40
1.001166818753635
 40
1.168027955617363
 40
1.334889091388291
 40
1.471622646156443
 40
1.608356197403297
 40
1.88182329989677
 40
2.358222152785325
 40
2.358222152785325
 40
2.358222152785325
 40
2.358222152785325
 10
0.4008801169889438
 20
40.16345988586296
 30
0.0
 10
0.4000868185889459
 20
40.08677952214568
 30
0.0
 10
0.3983788912594122
 20
39.90769121429771
 30
0.0
 10
0.396763147446606
 20
39.63614075189864
 30
0.0
 10
0.396048269884588
 20
39.41021573662863
 30
0.0
 10
0.3958251654965892
 20
39.25568196947862
 30
0.0
 10
0.395758047424593
 20
39.16389207906863
 30
0.0
 10
0.3957248042334953
 20
39.09545520102861
 30
0.0
 10
0.3957006231151894
 20
39.02990658695862
 30
0.0
 10
0.3957029012819788
 20
38.96446158448862
 30
0.0
 10
0.3957310748534013
 20
38.94919653148864
 30
0.0
 10
0.3957439628180026
 20
38.94453224163863
 30
0.0
  0
SPLINE
  5
99
330
1F
100
AcDbEntity
  8
2D DXF
370
    -3
100
AcDbSpline
210
0.0
220
0.0
230
1.0
 70
     8
 71
     3
 72
    18
 73
    14
 74
     0
 42
0.000000001
 43
0.0000000001
 40
2.358222152785325
 40
2.358222152785325
 40
2.358222152785325
 40
2.358222152785325
 40
3.358222152785325
 40
3.358222152785325
 40
4.358222152785325
 40
4.358222152785325
 40
5.358222152785325
 40
5.358222152785325
 40
6.358222152785325
 40
6.358222152785325
 40
7.358222152785325
 40
7.358222152785325
 40
8.358222152785325
 40
8.358222152785325
 40
8.358222152785325
 40
8.358222152785325
 10
0.3957439628180026
 20
38.94453224163863
 30
0.0
 10
0.3978828047786038
 20
38.86896376050925
 30
0.0
 10
0.3851470486119553
 20
38.79505000807096
 30
0.0
 10
0.3299263400241017
 20
38.65053196057657
 30
0.0
 10
0.2818552940125443
 20
38.59662099470761
 30
0.0
 10
0.1447918185542818
 20
38.52549517872613
 30
0.0
 10
0.0722707718386602
 20
38.507713724971
 30
0.0
 10
-0.0807499395653934
 20
38.50771372593199
 30
0.0
 10
-0.153270984957274
 20
38.52549517821121
 30
0.0
 10
-0.2903344551206857
 20
38.59662098636715
 30
0.0
 10
-0.338405501523269
 20
38.6505319520463
 30
0.0
 10
-0.3936262169702189
 20
38.79505000660699
 30
0.0
 10
-0.406361974355363
 20
38.86896376071098
 30
0.0
 10
-0.4042231314022189
 20
38.94453224163863
 30
0.0
  0
SPLINE
  5
9A
330
1F
100
AcDbEntity
  8
2D DXF
370
    -3
100
AcDbSpline
210
0.0
220
0.0
230
1.0
 70
     8
 71
     3
 72
    16
 73
    12
 74
     0
 42
0.000000001
 43
0.0000000001
 40
8.358222152785325
 40
8.358222152785325
 40
8.358222152785325
 40
8.358222152785325
 40
8.834621005673881
 40
9.108088108167353
 40
9.244821659414209
 40
9.38155521418236
 40
9.548416349953287
 40
9.715277486817016
 40
10.04899975811574
 40
10.38272203184319
 40
10.62817583236049
 40
10.62817583236049
 40
10.62817583236049
 40
10.62817583236049
 10
-0.4042231314022189
 20
38.94453224163863
 30
0.0
 10
-0.4042102434376176
 20
38.94919653148864
 30
0.0
 10
-0.4041820698661951
 20
38.96446158448862
 30
0.0
 10
-0.4041797916994057
 20
39.02990658695862
 30
0.0
 10
-0.4042039728177116
 20
39.09545520102861
 30
0.0
 10
-0.4042372160088092
 20
39.16389207906863
 30
0.0
 10
-0.4043043340808055
 20
39.25568196947862
 30
0.0
 10
-0.4045274384688042
 20
39.41021573662863
 30
0.0
 10
-0.4052423160308223
 20
39.63614075189864
 30
0.0
 10
-0.4068580564964606
 20
39.90769065175199
 30
0.0
 10
-0.4085659760194886
 20
40.08677835260382
 30
0.0
 10
-0.4093592672367237
 20
40.16345811345832
 30
0.0
  0
SPLINE
  5
9B
330
1F
100
AcDbEntity
  8
2D DXF
370
    -3
100
AcDbSpline
210
0.0
220
0.0
230
1.0
 70
     8
 71
     3
 72
    19
 73
    15
 74
     0
 42
0.000000001
 43
0.0000000001
 40
-1.160247706671958
 40
-1.160247706671958
 40
-1.160247706671958
 40
-1.160247706671958
 40
0.0
 40
0.0
 40
0.0
 40
0.333722273727456
 40
0.667444547454912
 40
1.001166818753635
 40
1.168027955617363
 40
1.334889091388291
 40
1.471622646156443
 40
1.608356197403297
 40
1.88182329989677
 40
2.358222152785325
 40
2.358222152785325
 40
2.358222152785325
 40
2.358222152785325
 10
-0.421997174247295
 20
61.18573588226791
 30
0.0
 10
-0.4180436174135451
 20
61.55058941370235
 30
0.0
 10
-0.4140900605797952
 20
61.9154429451368
 30
0.0
 10
-0.4101365037460738
 20
62.28029647657125
 30
0.0
 10
-0.4089993414243764
 20
62.38523936884125
 30
0.0
 10
-0.4069112024475743
 20
62.59281609746124
 30
0.0
 10
-0.4051392354483738
 20
62.89062225594124
 30
0.0
 10
-0.4044243578863558
 20
63.11654727121125
 30
0.0
 10
-0.404201253498357
 20
63.27108103836126
 30
0.0
 10
-0.4041341354263892
 20
63.36287092877124
 30
0.0
 10
-0.4041008922352631
 20
63.43130780681126
 30
0.0
 10
-0.4040767111169572
 20
63.49685642088126
 30
0.0
 10
-0.4040789892837751
 20
63.56230142335126
 30
0.0
 10
-0.4041071628551691
 20
63.57756647635124
 30
0.0
 10
-0.4041200508197704
 20
63.58223076620125
 30
0.0
  0
SPLINE
  5
9C
330
1F
100
AcDbEntity
  8
2D DXF
370
    -3
100
AcDbSpline
210
0.0
220
0.0
230
1.0
 70
     8
 71
     3
 72
    18
 73
    14
 74
     0
 42
0.000000001
 43
0.0000000001
 40
2.358222152785325
 40
2.358222152785325
 40
2.358222152785325
 40
2.358222152785325
 40
3.358222152785325
 40
3.358222152785325
 40
4.358222152785325
 40
4.358222152785325
 40
5.358222152785325
 40
5.358222152785325
 40
6.358222152785325
 40
6.358222152785325
 40
7.358222152785325
 40
7.358222152785325
 40
8.358222152785325
 40
8.358222152785325
 40
8.358222152785325
 40
8.358222152785325
 10
-0.4041200508197704
 20
63.58223076620125
 30
0.0
 10
-0.4062588927803716
 20
63.65779924733063
 30
0.0
 10
-0.3935231366137231
 20
63.73171299976891
 30
0.0
 10
-0.3383024280258695
 20
63.8762310472633
 30
0.0
 10
-0.2902313820143121
 20
63.93014201313226
 30
0.0
 10
-0.1531679065560212
 20
64.00126782911374
 30
0.0
 10
-0.080646859840428
 20
64.01904928286886
 30
0.0
 10
0.0723738515636541
 20
64.01904928190788
 30
0.0
 10
0.1448948969554493
 20
64.00126782962866
 30
0.0
 10
0.281958367118861
 20
63.93014202147273
 30
0.0
 10
0.3300294135214443
 20
63.87623105579357
 30
0.0
 10
0.3852501289683659
 20
63.73171300123288
 30
0.0
 10
0.3979858863535384
 20
63.65779924712889
 30
0.0
 10
0.3958470434004226
 20
63.58223076620125
 30
0.0
  0
SPLINE
  5
9D
330
1F
100
AcDbEntity
  8
2D DXF
370
    -3
100
AcDbSpline
210
0.0
220
0.0
230
1.0
 70
     8
 71
     3
 72
    19
 73
    15
 74
     0
 42
0.000000001
 43
0.0000000001
 40
8.358222152785325
 40
8.358222152785325
 40
8.358222152785325
 40
8.358222152785325
 40
8.834621005673881
 40
9.108088108167353
 40
9.244821659414209
 40
9.38155521418236
 40
9.548416349953287
 40
9.715277486817016
 40
10.04899975811574
 40
10.38272203184319
 40
10.71644430557065
 40
10.71644430557065
 40
10.71644430557065
 40
11.87669805892489
 40
11.87669805892489
 40
11.87669805892489
 40
11.87669805892489
 10
0.3958470434004226
 20
63.58223076620125
 30
0.0
 10
0.3958341554358213
 20
63.57756647635124
 30
0.0
 10
0.3958059818644273
 20
63.56230142335126
 30
0.0
 10
0.3958037036976378
 20
63.49685642088126
 30
0.0
 10
0.3958278848159438
 20
63.43130780681126
 30
0.0
 10
0.395861128007013
 20
63.36287092877124
 30
0.0
 10
0.3959282460790376
 20
63.27108103836126
 30
0.0
 10
0.3961513504670364
 20
63.11654727121125
 30
0.0
 10
0.396866228029026
 20
62.89062225594124
 30
0.0
 10
0.3986381950282265
 20
62.59281609746124
 30
0.0
 10
0.4007263340050287
 20
62.38523936884125
 30
0.0
 10
0.401863496326726
 20
62.28029647657125
 30
0.0
 10
0.4058170737645952
 20
61.91544104368647
 30
0.0
 10
0.4097706512024644
 20
61.55058561080169
 30
0.0
 10
0.4137242286403335
 20
61.18573017791691
 30
0.0
  0
LINE
  5
9E
330
1F
100
AcDbEntity
  8
2D DXF
370
    -3
100
AcDbLine
 10
-0.3587395682193488
 20
65.79393304068147
 30
0.0
 11
-0.3587395682193488
 21
63.82130678811124
 31
0.0
  0
LINE
  5
9F
330
1F
100
AcDbEntity
  8
2D DXF
370
    -3
100
AcDbLine
 10
0.3502604317806544
 20
65.79393304068147
 30
0.0
 11
0.3502604317806544
 21
63.82176710194908
 31
0.0
  0
SPLINE
  5
A0
330
1F
100
AcDbEntity
  8
2D DXF
370
    -3
100
AcDbSpline
210
0.0
220
0.0
230
1.0
 70
    12
 71
     2
 72
     6
 73
     3
 74
     0
 42
0.000000001
 43
0.0000000001
 40
0.9424777960769379
 40
0.9424777960769379
 40
0.9424777960769379
 40
1.256637061435917
 40
1.256637061435917
 40
1.256637061435917
 10
11.3207774175328
 20
53.26893304068146
 30
0.0
 41
1.0
 10
11.3207774175328
 20
53.46893304068146
 30
0.0
 41
0.7071067811865476
 10
11.52077741753278
 20
53.46893304068146
 30
0.0
 41
1.0
  0
LINE
  5
A1
330
1F
100
AcDbEntity
  8
2D DXF
370
    -3
100
AcDbLine
 10
11.9012774175328
 20
53.46893304068146
 30
0.0
 11
11.52077741753278
 21
53.46893304068146
 31
0.0
  0
SPLINE
  5
A2
330
1F
100
AcDbEntity
  8
2D DXF
370
    -3
100
AcDbSpline
210
0.0
220
0.0
230
1.0
 70
    28
 71
     2
 72
     8
 73
     5
 74
     0
 42
0.000000001
 43
0.0000000001
 40
-4.021238596594936
 40
-4.021238596594936
 40
-4.021238596594936
 40
-2.010619298297468
 40
-2.010619298297468
 40
-1.450146787943953
 40
-1.450146787943953
 40
-1.450146787943953
 10
11.9012774175328
 20
53.46893304068146
 30
0.0
 41
1.0
 10
11.90127741753283
 20
53.46893304068146
 30
0.0
 41
0.7071067811865476
 10
11.9012774175328
 20
52.18893304068146
 30
0.0
 41
1.0
 10
11.90127741753282
 20
51.91420105850665
 30
0.0
 41
0.9183542116834841
 10
11.9012774175328
 20
51.66366698515429
 30
0.0
 41
0.882226955867176
  0
LINE
  5
A3
330
1F
100
AcDbEntity
  8
2D DXF
370
    -3
100
AcDbLine
 10
12.6752774175328
 20
53.46893304068146
 30
0.0
 11
11.96627741753279
 21
53.46893304068146
 31
0.0
  0
LINE
  5
A4
330
1F
100
AcDbEntity
  8
2D DXF
370
    -3
100
AcDbLine
 10
12.74027741753279
 20
53.46893304068146
 30
0.0
 11
13.12077741753281
 21
53.46893304068146
 31
0.0
  0
SPLINE
  5
A5
330
1F
100
AcDbEntity
  8
2D DXF
370
    -3
100
AcDbSpline
210
0.0
220
0.0
230
1.0
 70
    28
 71
     2
 72
     6
 73
     3
 74
     0
 42
0.000000001
 43
0.0000000001
 40
-4.021238596594936
 40
-4.021238596594936
 40
-4.021238596594936
 40
-3.211340649965797
 40
-3.211340649965797
 40
-3.211340649965797
 10
12.74027741753279
 20
50.90893304068146
 30
0.0
 41
1.0
 10
12.74027741753285
 20
50.90893304068146
 30
0.0
 41
0.8820196261423139
 10
12.74027741753283
 20
51.15068717151171
 30
0.0
 41
0.8590866464987275
  0
LINE
  5
A6
330
1F
100
AcDbEntity
  8
2D DXF
370
    -3
100
AcDbLine
 10
13.12077741753281
 20
50.90893304068146
 30
0.0
 11
12.74027741753279
 21
50.90893304068146
 31
0.0
  0
SPLINE
  5
A7
330
1F
100
AcDbEntity
  8
2D DXF
370
    -3
100
AcDbSpline
210
0.0
220
0.0
230
1.0
 70
    12
 71
     2
 72
     6
 73
     3
 74
     0
 42
0.000000001
 43
0.0000000001
 40
0.0
 40
0.0
 40
0.0
 40
0.3141592653589793
 40
0.3141592653589793
 40
0.3141592653589793
 10
13.12077741753281
 20
53.46893304068146
 30
0.0
 41
1.0
 10
13.32077741753281
 20
53.46893304068146
 30
0.0
 41
0.7071067811865476
 10
13.3207774175328
 20
53.26893304068146
 30
0.0
 41
1.0
  0
SPLINE
  5
A8
330
1F
100
AcDbEntity
  8
2D DXF
370
    -3
100
AcDbSpline
210
0.0
220
0.0
230
1.0
 70
    12
 71
     2
 72
     6
 73
     3
 74
     0
 42
0.000000001
 43
0.0000000001
 40
-0.3141592653589793
 40
-0.3141592653589793
 40
-0.3141592653589793
 40
0.0
 40
0.0
 40
0.0
 10
13.12077741753281
 20
50.90893304068146
 30
0.0
 41
1.0
 10
13.32077741753281
 20
50.90893304068145
 30
0.0
 41
0.7071067811865476
 10
13.3207774175328
 20
51.10893304068146
 30
0.0
 41
1.0
  0
SPLINE
  5
A9
330
1F
100
AcDbEntity
  8
2D DXF
370
    -3
100
AcDbSpline
210
0.0
220
0.0
230
1.0
 70
    28
 71
     2
 72
     8
 73
     5
 74
     0
 42
0.000000001
 43
0.0000000001
 40
-3.392920065876977
 40
-3.392920065876977
 40
-3.392920065876977
 40
-1.696460032938488
 40
-1.696460032938488
 40
0.0
 40
0.0
 40
0.0
 10
13.3207774175328
 20
53.26893304068146
 30
0.0
 41
1.0
 10
13.32077741753281
 20
53.26893304068145
 30
0.0
 41
0.7071067811865476
 10
13.3207774175328
 20
52.18893304068146
 30
0.0
 41
1.0
 10
13.32077741753281
 20
51.10893304068146
 30
0.0
 41
0.7071067811865476
 10
13.3207774175328
 20
51.10893304068146
 30
0.0
 41
1.0
  0
SPLINE
  5
AA
330
1F
100
AcDbEntity
  8
2D DXF
370
    -3
100
AcDbSpline
210
0.0
220
0.0
230
1.0
 70
    28
 71
     2
 72
     8
 73
     5
 74
     0
 42
0.000000001
 43
0.0000000001
 40
-2.25412492948331
 40
-2.25412492948331
 40
-2.25412492948331
 40
-1.696460032938488
 40
-1.696460032938488
 40
0.0
 40
0.0
 40
0.0
 10
11.32077741753279
 20
51.66784089506323
 30
0.0
 41
0.8707379739206973
 10
11.32077741753282
 20
51.91115056172157
 30
0.0
 41
0.90371935477586
 10
11.3207774175328
 20
52.18893304068146
 30
0.0
 41
1.0
 10
11.32077741753283
 20
53.26893304068145
 30
0.0
 41
0.7071067811865476
 10
11.3207774175328
 20
53.26893304068146
 30
0.0
 41
1.0
  0
SPLINE
  5
AB
330
1F
100
AcDbEntity
  8
2D DXF
370
    -3
100
AcDbSpline
210
0.0
220
0.0
230
1.0
 70
    28
 71
     2
 72
     8
 73
     5
 74
     0
 42
0.000000001
 43
0.0000000001
 40
-2.946053727531805
 40
-2.946053727531805
 40
-2.946053727531805
 40
-2.010619298297468
 40
-2.010619298297468
 40
0.0
 40
0.0
 40
0.0
 10
12.74027741753276
 20
51.33740858631514
 30
0.0
 41
0.854260889860835
 10
12.74027741753282
 20
51.70140533844081
 30
0.0
 41
0.8637323330183045
 10
12.74027741753279
 20
52.18893304068146
 30
0.0
 41
1.0
 10
12.74027741753281
 20
53.46893304068146
 30
0.0
 41
0.7071067811865476
 10
12.74027741753279
 20
53.46893304068146
 30
0.0
 41
1.0
  0
LINE
  5
AC
330
1F
100
AcDbEntity
  8
2D DXF
370
    -3
100
AcDbLine
 10
11.96627741753279
 20
53.46893304068146
 30
0.0
 11
11.96627741753279
 21
51.66355932023311
 31
0.0
  0
LINE
  5
AD
330
1F
100
AcDbEntity
  8
2D DXF
370
    -3
100
AcDbLine
 10
12.6752774175328
 20
53.46893304068146
 30
0.0
 11
12.6752774175328
 21
51.52196687024893
 31
0.0
  0
SPLINE
  5
AE
330
1F
100
AcDbEntity
  8
2D DXF
370
    -3
100
AcDbSpline
210
0.0
220
0.0
230
1.0
 70
     8
 71
     3
 72
    19
 73
    15
 74
     0
 42
0.000000001
 43
0.0000000001
 40
-2.957974390997827
 40
-2.957974390997827
 40
-2.957974390997827
 40
-2.957974390997827
 40
0.0
 40
0.0
 40
0.0
 40
0.333722273727456
 40
0.667444547454912
 40
1.001166818753635
 40
1.168027955617363
 40
1.334889091388291
 40
1.471622646156443
 40
1.608356197403297
 40
1.88182329989677
 40
2.358222152785325
 40
2.358222152785325
 40
2.358222152785325
 40
2.358222152785325
 10
8.224555219569012
 20
50.82719504973942
 30
0.0
 10
9.154725041273608
 20
50.8372743800413
 30
0.0
 10
10.08489486297823
 20
50.84735371034318
 30
0.0
 10
11.0150646846828
 20
50.85743304064506
 30
0.0
 10
11.1200075769528
 20
50.85857020296676
 30
0.0
 10
11.32758430557278
 20
50.86065834194356
 30
0.0
 10
11.62539046405278
 20
50.86243030894276
 30
0.0
 10
11.85131547932279
 20
50.86314518650477
 30
0.0
 10
12.00584924647281
 20
50.86336829089277
 30
0.0
 10
12.09763913688279
 20
50.86343540896476
 30
0.0
 10
12.16607601492281
 20
50.86346865215586
 30
0.0
 10
12.2316246289928
 20
50.86349283327417
 30
0.0
 10
12.2970696314628
 20
50.86349055510736
 30
0.0
 10
12.31233468446278
 20
50.86346238153597
 30
0.0
 10
12.3169989743128
 20
50.86344949357137
 30
0.0
  0
SPLINE
  5
AF
330
1F
100
AcDbEntity
  8
2D DXF
370
    -3
100
AcDbSpline
210
0.0
220
0.0
230
1.0
 70
     8
 71
     3
 72
    18
 73
    14
 74
     0
 42
0.000000001
 43
0.0000000001
 40
2.358222152785325
 40
2.358222152785325
 40
2.358222152785325
 40
2.358222152785325
 40
3.358222152785325
 40
3.358222152785325
 40
4.358222152785325
 40
4.358222152785325
 40
5.358222152785325
 40
5.358222152785325
 40
6.358222152785325
 40
6.358222152785325
 40
7.358222152785325
 40
7.358222152785325
 40
8.358222152785325
 40
8.358222152785325
 40
8.358222152785325
 40
8.358222152785325
 10
12.3169989743128
 20
50.86344949357137
 30
0.0
 10
12.39256745544215
 20
50.86131065161074
 30
0.0
 10
12.46648120788048
 20
50.87404640777739
 30
0.0
 10
12.61099925537489
 20
50.92926711636527
 30
0.0
 10
12.66491022124383
 20
50.9773381623768
 30
0.0
 10
12.73603603722533
 20
51.11440163783509
 30
0.0
 10
12.75381749098044
 20
51.18692268455069
 30
0.0
 10
12.75381749001947
 20
51.33994339595474
 30
0.0
 10
12.73603603774022
 20
51.41246444134661
 30
0.0
 10
12.66491022958429
 20
51.54952791151002
 30
0.0
 10
12.61099926390513
 20
51.59759895791259
 30
0.0
 10
12.46648120934442
 20
51.65281967335953
 30
0.0
 10
12.39256745524044
 20
51.6655554307447
 30
0.0
 10
12.3169989743128
 20
51.66341658779156
 30
0.0
  0
SPLINE
  5
B0
330
1F
100
AcDbEntity
  8
2D DXF
370
    -3
100
AcDbSpline
210
0.0
220
0.0
230
1.0
 70
     8
 71
     3
 72
    19
 73
    15
 74
     0
 42
0.000000001
 43
0.0000000001
 40
8.358222152785325
 40
8.358222152785325
 40
8.358222152785325
 40
8.358222152785325
 40
8.834621005673881
 40
9.108088108167353
 40
9.244821659414209
 40
9.38155521418236
 40
9.548416349953287
 40
9.715277486817016
 40
10.04899975811574
 40
10.38272203184319
 40
10.71644430557065
 40
10.71644430557065
 40
10.71644430557065
 40
13.91886294566947
 40
13.91886294566947
 40
13.91886294566947
 40
13.91886294566947
 10
12.3169989743128
 20
51.66341658779156
 30
0.0
 10
12.31233468446278
 20
51.66340369982696
 30
0.0
 10
12.2970696314628
 20
51.66337552625556
 30
0.0
 10
12.2316246289928
 20
51.66337324808876
 30
0.0
 10
12.16607601492281
 20
51.66339742920707
 30
0.0
 10
12.09763913688279
 20
51.66343067239816
 30
0.0
 10
12.00584924647281
 20
51.66349779047016
 30
0.0
 10
11.85131547932279
 20
51.66372089485816
 30
0.0
 10
11.62539046405278
 20
51.66443577242016
 30
0.0
 10
11.32758430557278
 20
51.66620773941936
 30
0.0
 10
11.1200075769528
 20
51.66829587839617
 30
0.0
 10
11.0150646846828
 20
51.66943304071786
 30
0.0
 10
10.00802649511981
 20
51.68034531748966
 30
0.0
 10
9.000988305556817
 20
51.69125759426145
 30
0.0
 10
7.993950115993769
 20
51.70216987103325
 30
0.0
  0
SPLINE
  5
B1
330
1F
100
AcDbEntity
  8
2D DXF
370
    -3
100
AcDbSpline
210
0.0
220
0.0
230
1.0
 70
     8
 71
     3
 72
     9
 73
     5
 74
     0
 42
0.000000001
 43
0.0000000001
 40
1.247294428985852
 40
1.247294428985852
 40
1.247294428985852
 40
1.247294428985852
 40
1.264512660730039
 40
1.280134708649868
 40
1.280134708649868
 40
1.280134708649868
 40
1.280134708649868
 10
3.372184247294697
 20
16.69665218536653
 30
0.0
 10
3.3790461454915
 20
16.69700900904517
 30
0.0
 10
3.392131479838937
 20
16.69767157738769
 30
0.0
 10
3.405189307619381
 20
16.69829830977426
 30
0.0
 10
3.411392133102439
 20
16.69858827721427
 30
0.0
  0
SPLINE
  5
B2
330
1F
100
AcDbEntity
  8
2D DXF
370
    -3
100
AcDbSpline
210
0.0
220
0.0
230
1.0
 70
    28
 71
     2
 72
     6
 73
     3
 74
     0
 42
0.000000001
 43
0.0000000001
 40
0.0438698847624298
 40
0.0438698847624298
 40
0.0438698847624298
 40
0.4243698847624376
 40
0.4243698847624376
 40
0.4243698847624376
 10
-13.12986798140462
 20
2.621844414103691
 30
0.0
 41
1.0
 10
-12.93961798140461
 20
2.621844414103691
 30
0.0
 41
1.0
 10
-12.7493679814046
 20
2.621844414103691
 30
0.0
 41
1.0
  0
SPLINE
  5
B3
330
1F
100
AcDbEntity
  8
2D DXF
370
    -3
100
AcDbSpline
210
0.0
220
0.0
230
1.0
 70
    12
 71
     2
 72
     8
 73
     5
 74
     0
 42
0.000000001
 43
0.0000000001
 40
0.0
 40
0.0
 40
0.0
 40
0.1656854249492369
 40
0.1656854249492369
 40
0.3313708498984772
 40
0.3313708498984772
 40
0.3313708498984772
 10
-13.12986798140462
 20
0.0618444141036889
 30
0.0
 41
1.0
 10
-13.21271069387922
 20
0.0618444141036834
 30
0.0
 41
0.8535533905932737
 10
-13.27128933764192
 20
0.1204230578663706
 30
0.0
 41
0.8535533905932737
 10
-13.32986798140459
 20
0.1790017016290661
 30
0.0
 41
0.8535533905932737
 10
-13.3298679814046
 20
0.2618444141036917
 30
0.0
 41
1.0
  0
SPLINE
  5
B4
330
1F
100
AcDbEntity
  8
2D DXF
370
    -3
100
AcDbSpline
210
0.0
220
0.0
230
1.0
 70
    12
 71
     2
 72
     8
 73
     5
 74
     0
 42
0.000000001
 43
0.0000000001
 40
0.0
 40
0.0
 40
0.0
 40
0.1656854249492368
 40
0.1656854249492368
 40
0.3313708498984775
 40
0.3313708498984775
 40
0.3313708498984775
 10
-13.12986798140462
 20
2.621844414103691
 30
0.0
 41
1.0
 10
-13.21271069387922
 20
2.621844414103681
 30
0.0
 41
0.8535533905932737
 10
-13.27128933764192
 20
2.563265770340994
 30
0.0
 41
0.8535533905932737
 10
-13.32986798140459
 20
2.504687126578307
 30
0.0
 41
0.8535533905932737
 10
-13.3298679814046
 20
2.421844414103688
 30
0.0
 41
1.0
  0
SPLINE
  5
B5
330
1F
100
AcDbEntity
  8
2D DXF
370
    -3
100
AcDbSpline
210
0.0
220
0.0
230
1.0
 70
    28
 71
     2
 72
     8
 73
     5
 74
     0
 42
0.000000001
 43
0.0000000001
 40
-1.113694595697582
 40
-1.113694595697582
 40
-1.113694595697582
 40
-0.5568472978487908
 40
-0.5568472978487908
 40
0.0
 40
0.0
 40
0.0
 10
-12.68436798140461
 20
1.34184441410369
 30
0.0
 41
1.0
 10
-12.68436798140461
 20
1.341844414103681
 30
0.0
 41
0.7071067811865476
 10
-12.3298679814046
 20
1.34184441410369
 30
0.0
 41
1.0
 10
-11.97536798140461
 20
1.341844414103691
 30
0.0
 41
0.7071067811865476
 10
-11.9753679814046
 20
1.34184441410369
 30
0.0
 41
1.0
  0
SPLINE
  5
B6
330
1F
100
AcDbEntity
  8
2D DXF
370
    -3
100
AcDbSpline
210
0.0
220
0.0
230
1.0
 70
    24
 71
     2
 72
     6
 73
     3
 74
     0
 42
0.000000001
 43
0.0000000001
 40
-1.28
 40
-1.28
 40
-1.28
 40
0.0
 40
0.0
 40
0.0
 10
-12.68436798140461
 20
2.621844414103691
 30
0.0
 10
-12.68436798140461
 20
1.981844414103691
 30
0.0
 10
-12.68436798140461
 20
1.34184441410369
 30
0.0
  0
SPLINE
  5
B7
330
1F
100
AcDbEntity
  8
2D DXF
370
    -3
100
AcDbSpline
210
0.0
220
0.0
230
1.0
 70
    24
 71
     2
 72
     6
 73
     3
 74
     0
 42
0.000000001
 43
0.0000000001
 40
-1.28
 40
-1.28
 40
-1.28
 40
0.0
 40
0.0
 40
0.0
 10
-11.9753679814046
 20
1.34184441410369
 30
0.0
 10
-11.9753679814046
 20
1.981844414103691
 30
0.0
 10
-11.9753679814046
 20
2.621844414103691
 30
0.0
  0
SPLINE
  5
B8
330
1F
100
AcDbEntity
  8
2D DXF
370
    -3
100
AcDbSpline
210
0.0
220
0.0
230
1.0
 70
    28
 71
     2
 72
     6
 73
     3
 74
     0
 42
0.000000001
 43
0.0000000001
 40
0.0183198847624326
 40
0.0183198847624326
 40
0.0183198847624326
 40
0.1433198847624326
 40
0.1433198847624326
 40
0.1433198847624326
 10
-12.65986798140462
 20
2.621844414103691
 30
0.0
 41
1.0
 10
-12.65986798140462
 20
2.684344414103691
 30
0.0
 41
1.0
 10
-12.65986798140462
 20
2.746844414103691
 30
0.0
 41
1.0
  0
SPLINE
  5
B9
330
1F
100
AcDbEntity
  8
2D DXF
370
    -3
100
AcDbSpline
210
0.0
220
0.0
230
1.0
 70
    12
 71
     2
 72
     8
 73
     5
 74
     0
 42
0.000000001
 43
0.0000000001
 40
0.0
 40
0.0
 40
0.0
 40
0.1656854249492389
 40
0.1656854249492389
 40
0.3313708498984846
 40
0.3313708498984846
 40
0.3313708498984846
 10
-11.52986798140459
 20
2.621844414103691
 30
0.0
 41
1.0
 10
-11.44702526892996
 20
2.621844414103681
 30
0.0
 41
0.8535533905932737
 10
-11.38844662516729
 20
2.563265770340994
 30
0.0
 41
0.8535533905932737
 10
-11.32986798140459
 20
2.504687126578307
 30
0.0
 41
0.8535533905932737
 10
-11.3298679814046
 20
2.421844414103688
 30
0.0
 41
1.0
  0
SPLINE
  5
BA
330
1F
100
AcDbEntity
  8
2D DXF
370
    -3
100
AcDbSpline
210
0.0
220
0.0
230
1.0
 70
    12
 71
     2
 72
     8
 73
     5
 74
     0
 42
0.000000001
 43
0.0000000001
 40
0.0
 40
0.0
 40
0.0
 40
0.1656854249492454
 40
0.1656854249492454
 40
0.3313708498984843
 40
0.3313708498984843
 40
0.3313708498984843
 10
-11.3298679814046
 20
0.2618444141036917
 30
0.0
 41
1.0
 10
-11.32986798140459
 20
0.1790017016290661
 30
0.0
 41
0.8535533905932737
 10
-11.38844662516729
 20
0.1204230578663706
 30
0.0
 41
0.8535533905932737
 10
-11.44702526892996
 20
0.0618444141036834
 30
0.0
 41
0.8535533905932737
 10
-11.52986798140459
 20
0.0618444141036889
 30
0.0
 41
1.0
  0
SPLINE
  5
BB
330
1F
100
AcDbEntity
  8
2D DXF
370
    -3
100
AcDbSpline
210
0.0
220
0.0
230
1.0
 70
    28
 71
     2
 72
     6
 73
     3
 74
     0
 42
0.000000001
 43
0.0000000001
 40
0.0438698847624333
 40
0.0438698847624333
 40
0.0438698847624333
 40
0.4243698847624376
 40
0.4243698847624376
 40
0.4243698847624376
 10
-11.9103679814046
 20
2.621844414103691
 30
0.0
 41
1.0
 10
-11.72011798140461
 20
2.621844414103691
 30
0.0
 41
1.0
 10
-11.52986798140462
 20
2.621844414103691
 30
0.0
 41
1.0
  0
SPLINE
  5
BC
330
1F
100
AcDbEntity
  8
2D DXF
370
    -3
100
AcDbSpline
210
0.0
220
0.0
230
1.0
 70
     8
 71
     3
 72
     9
 73
     5
 74
     0
 42
0.000000001
 43
0.0000000001
 40
0.8215732529839752
 40
0.8215732529839752
 40
0.8215732529839752
 40
0.8215732529839752
 40
0.8430084404866927
 40
0.854068736937849
 40
0.854068736937849
 40
0.854068736937849
 40
0.854068736937849
 10
-3.422047023558932
 20
16.69872710170611
 30
0.0
 10
-3.413545912527937
 20
16.69833803688972
 30
0.0
 10
-3.400630532908494
 20
16.69772484680894
 30
0.0
 10
-3.387688027423494
 20
16.69707657075173
 30
0.0
 10
-3.383281399393539
 20
16.69685196570948
 30
0.0
  0
SPLINE
  5
BD
330
1F
100
AcDbEntity
  8
2D DXF
370
    -3
100
AcDbSpline
210
0.0
220
0.0
230
1.0
 70
     8
 71
     3
 72
     8
 73
     4
 74
     0
 42
0.000000001
 43
0.0000000001
 40
0.0
 40
0.0
 40
0.0
 40
0.0
 40
0.0968412984604394
 40
0.0968412984604394
 40
0.0968412984604394
 40
0.0968412984604394
 10
-2.687142690314673
 20
16.59386893917608
 30
0.0
 10
-2.687055879272506
 20
16.58974412790865
 30
0.0
 10
-2.690621071852647
 20
16.58595016518828
 30
0.0
 10
-2.697463973633674
 20
16.58246353258245
 30
0.0
  0
SPLINE
  5
BE
330
1F
100
AcDbEntity
  8
2D DXF
370
    -3
100
AcDbSpline
210
0.0
220
0.0
230
1.0
 70
    28
 71
     2
 72
     8
 73
     5
 74
     0
 42
0.000000001
 43
0.0000000001
 40
0.0
 40
0.0
 40
0.0
 40
0.5568472978487908
 40
0.5568472978487908
 40
1.113694595697582
 40
1.113694595697582
 40
1.113694595697582
 10
-12.68436798140461
 20
2.621844414103691
 30
0.0
 41
1.0
 10
-12.68436798140461
 20
2.621844414103686
 30
0.0
 41
0.7071067811865476
 10
-12.3298679814046
 20
2.621844414103691
 30
0.0
 41
1.0
 10
-11.97536798140461
 20
2.621844414103686
 30
0.0
 41
0.7071067811865476
 10
-11.9753679814046
 20
2.621844414103691
 30
0.0
 41
1.0
  0
SPLINE
  5
BF
330
1F
100
AcDbEntity
  8
2D DXF
370
    -3
100
AcDbSpline
210
0.0
220
0.0
230
1.0
 70
    24
 71
     2
 72
     6
 73
     3
 74
     0
 42
0.000000001
 43
0.0000000001
 40
-0.125
 40
-0.125
 40
-0.125
 40
0.0
 40
0.0
 40
0.0
 10
20.00246234077495
 20
2.746844414103691
 30
0.0
 10
20.00246234077495
 20
2.684344414103691
 30
0.0
 10
20.00246234077495
 20
2.621844414103691
 30
0.0
  0
SPLINE
  5
C0
330
1F
100
AcDbEntity
  8
2D DXF
370
    -3
100
AcDbSpline
210
0.0
220
0.0
230
1.0
 70
    24
 71
     2
 72
     6
 73
     3
 74
     0
 42
0.000000001
 43
0.0000000001
 40
-0.125
 40
-0.125
 40
-0.125
 40
0.0
 40
0.0
 40
0.0
 10
20.66246234077498
 20
2.621844414103691
 30
0.0
 10
20.66246234077498
 20
2.684344414103691
 30
0.0
 10
20.66246234077498
 20
2.746844414103691
 30
0.0
  0
SPLINE
  5
C1
330
1F
100
AcDbEntity
  8
2D DXF
370
    -3
100
AcDbSpline
210
0.0
220
0.0
230
1.0
 70
    28
 71
     2
 72
     8
 73
     5
 74
     0
 42
0.000000001
 43
0.0000000001
 40
-1.036725575684632
 40
-1.036725575684632
 40
-1.036725575684632
 40
-0.5183627878423159
 40
-0.5183627878423159
 40
0.0
 40
0.0
 40
0.0
 10
20.00246234077495
 20
2.746844414103691
 30
0.0
 41
1.0
 10
20.00246234077496
 20
2.746844414103688
 30
0.0
 41
0.7071067811865476
 10
20.33246234077497
 20
2.746844414103691
 30
0.0
 41
1.0
 10
20.66246234077498
 20
2.746844414103688
 30
0.0
 41
0.7071067811865476
 10
20.66246234077498
 20
2.746844414103691
 30
0.0
 41
1.0
  0
SPLINE
  5
C2
330
1F
100
AcDbEntity
  8
2D DXF
370
    -3
100
AcDbSpline
210
0.0
220
0.0
230
1.0
 70
    24
 71
     2
 72
     6
 73
     3
 74
     0
 42
0.000000001
 43
0.0000000001
 40
-0.125
 40
-0.125
 40
-0.125
 40
0.0
 40
0.0
 40
0.0
 10
44.65246234077496
 20
2.746844414103691
 30
0.0
 10
44.65246234077496
 20
2.684344414103691
 30
0.0
 10
44.65246234077496
 20
2.621844414103691
 30
0.0
  0
SPLINE
  5
C3
330
1F
100
AcDbEntity
  8
2D DXF
370
    -3
100
AcDbSpline
210
0.0
220
0.0
230
1.0
 70
    24
 71
     2
 72
     6
 73
     3
 74
     0
 42
0.000000001
 43
0.0000000001
 40
-0.125
 40
-0.125
 40
-0.125
 40
0.0
 40
0.0
 40
0.0
 10
45.31246234077496
 20
2.621844414103691
 30
0.0
 10
45.31246234077496
 20
2.684344414103691
 30
0.0
 10
45.31246234077496
 20
2.746844414103691
 30
0.0
  0
SPLINE
  5
C4
330
1F
100
AcDbEntity
  8
2D DXF
370
    -3
100
AcDbSpline
210
0.0
220
0.0
230
1.0
 70
    24
 71
     2
 72
     6
 73
     3
 74
     0
 42
0.000000001
 43
0.0000000001
 40
-0.125
 40
-0.125
 40
-0.125
 40
0.0
 40
0.0
 40
0.0
 10
32.32746234077497
 20
2.746844414103691
 30
0.0
 10
32.32746234077497
 20
2.684344414103691
 30
0.0
 10
32.32746234077497
 20
2.621844414103691
 30
0.0
  0
SPLINE
  5
C5
330
1F
100
AcDbEntity
  8
2D DXF
370
    -3
100
AcDbSpline
210
0.0
220
0.0
230
1.0
 70
    11
 71
     3
 72
    65
 73
    61
 74
     0
 42
0.000000001
 43
0.0000000001
 40
0.0
 40
0.0
 40
0.0
 40
0.0
 40
1.0
 40
2.0
 40
3.0
 40
4.0
 40
5.0
 40
6.0
 40
7.0
 40
8.0
 40
9.0
 40
10.0
 40
11.0
 40
12.0
 40
13.0
 40
13.0
 40
13.0
 40
14.0
 40
15.0
 40
16.0
 40
17.0
 40
18.0
 40
19.0
 40
20.0
 40
21.0
 40
22.0
 40
23.0
 40
24.0
 40
25.0
 40
26.0
 40
26.0
 40
26.0
 40
27.0
 40
28.0
 40
29.0
 40
30.0
 40
31.0
 40
32.0
 40
33.0
 40
34.0
 40
35.0
 40
36.0
 40
37.0
 40
38.0
 40
39.0
 40
39.0
 40
39.0
 40
40.0
 40
41.0
 40
42.0
 40
43.0
 40
44.0
 40
45.0
 40
46.0
 40
47.0
 40
48.0
 40
49.0
 40
50.0
 40
51.0
 40
52.0
 40
52.0
 40
52.0
 40
52.0
 10
-0.0024709982232451
 20
18.87684196218113
 30
0.0
 10
-0.287371268580884
 20
18.87684196218113
 30
0.0
 10
-0.962023949400006
 20
18.90255991182839
 30
0.0
 10
-1.811905142762257
 20
18.99886155265385
 30
0.0
 10
-2.651365755381661
 20
19.16374950577033
 30
0.0
 10
-3.472711772348632
 20
19.40343984759738
 30
0.0
 10
-4.267935528286372
 20
19.71959279755755
 30
0.0
 10
-5.025362257759738
 20
20.11854722812582
 30
0.0
 10
-5.729900271406095
 20
20.6054581102443
 30
0.0
 10
-6.363582701231095
 20
21.18212674996626
 30
0.0
 10
-6.906767878095351
 20
21.84527727900861
 30
0.0
 10
-7.340021199121267
 20
22.58511722260276
 30
0.0
 10
-7.652116055934457
 20
23.38364563294095
 30
0.0
 10
-7.836444831755429
 20
24.22078081732995
 30
0.0
 10
-7.875712638075797
 20
24.79499799885797
 30
0.0
 10
-7.876830147528025
 20
25.07987422091482
 30
0.0
 10
-7.877879605432085
 20
25.34740269892052
 30
0.0
 10
-7.846591653317532
 20
25.88624822244468
 30
0.0
 10
-7.704950858044739
 20
26.67885913995771
 30
0.0
 10
-7.441449916417454
 20
27.43619430214881
 30
0.0
 10
-7.026175685173527
 20
28.14321148308682
 30
0.0
 10
-6.344725205953168
 20
28.58710802790991
 30
0.0
 10
-5.584502090130272
 20
28.85240986162175
 30
0.0
 10
-4.802228906335685
 20
29.03259488281931
 30
0.0
 10
-4.008379837061042
 20
29.15233589748281
 30
0.0
 10
-3.210052854151783
 20
29.2336210539686
 30
0.0
 10
-2.409298828983239
 20
29.28573822337923
 30
0.0
 10
-1.607468277556208
 20
29.31558613484547
 30
0.0
 10
-0.8052282453996753
 20
29.32951703566194
 30
0.0
 10
-0.2703343166144094
 20
29.3314536385537
 30
0.0
 10
-0.0024709982232451
 20
29.33145081383492
 30
0.0
 10
0.2653923201679191
 20
29.3314536385537
 30
0.0
 10
0.800286248953185
 20
29.32951703566194
 30
0.0
 10
1.602526281109718
 20
29.31558613484547
 30
0.0
 10
2.404356832536749
 20
29.28573822337923
 30
0.0
 10
3.205110857705293
 20
29.2336210539686
 30
0.0
 10
4.003437840614552
 20
29.15233589748281
 30
0.0
 10
4.797286909889195
 20
29.03259488281931
 30
0.0
 10
5.579560093683781
 20
28.85240986162175
 30
0.0
 10
6.339783209506678
 20
28.58710802790991
 30
0.0
 10
7.021233688727037
 20
28.14321148308682
 30
0.0
 10
7.436507919970964
 20
27.43619430214881
 30
0.0
 10
7.700008861598249
 20
26.67885913995771
 30
0.0
 10
7.841649656871041
 20
25.88624822244468
 30
0.0
 10
7.872937608985538
 20
25.34740269892052
 30
0.0
 10
7.871888151081535
 20
25.07987422091482
 30
0.0
 10
7.870770641629363
 20
24.79499799885797
 30
0.0
 10
7.831502835308939
 20
24.22078081732995
 30
0.0
 10
7.647174059487966
 20
23.38364563294095
 30
0.0
 10
7.335079202674777
 20
22.58511722260276
 30
0.0
 10
6.901825881648861
 20
21.84527727900861
 30
0.0
 10
6.358640704784605
 20
21.18212674996626
 30
0.0
 10
5.724958274959604
 20
20.6054581102443
 30
0.0
 10
5.020420261313248
 20
20.11854722812582
 30
0.0
 10
4.262993531839882
 20
19.71959279755755
 30
0.0
 10
3.467769775902141
 20
19.40343984759738
 30
0.0
 10
2.646423758935171
 20
19.16374950577033
 30
0.0
 10
1.806963146315766
 20
18.99886155265385
 30
0.0
 10
0.9570819529535157
 20
18.90255991182839
 30
0.0
 10
0.2824292721343937
 20
18.87684196218113
 30
0.0
 10
-0.0024709982232451
 20
18.87684196218113
 30
0.0
  0
SPLINE
  5
C6
330
1F
100
AcDbEntity
  8
2D DXF
370
    -3
100
AcDbSpline
210
0.0
220
0.0
230
1.0
 70
     8
 71
     3
 72
    29
 73
    25
 74
     0
 42
0.000000001
 43
0.0000000001
 40
-22.0
 40
-22.0
 40
-22.0
 40
-22.0
 40
-21.0
 40
-20.0
 40
-19.0
 40
-18.0
 40
-17.0
 40
-16.0
 40
-15.0
 40
-14.0
 40
-13.0
 40
-12.0
 40
-11.0
 40
-10.0
 40
-9.0
 40
-8.0
 40
-7.0
 40
-6.0
 40
-5.0
 40
-4.0
 40
-3.0
 40
-2.0
 40
-1.0
 40
0.0
 40
0.0
 40
0.0
 40
0.0
 10
8.497086152095974
 20
17.84819756992117
 30
0.0
 10
8.425836121461273
 20
17.9699628279876
 30
0.0
 10
8.132366249643397
 20
17.96597555666271
 30
0.0
 10
7.749680096687499
 20
17.91789987751386
 30
0.0
 10
7.360095849052371
 20
17.82638003576643
 30
0.0
 10
6.979007827267722
 20
17.71909283938355
 30
0.0
 10
6.600459449190751
 20
17.59945519285795
 30
0.0
 10
6.224665354714105
 20
17.47246687986045
 30
0.0
 10
5.849528580291988
 20
17.34329974403275
 30
0.0
 10
5.472146919185164
 20
17.22086677497559
 30
0.0
 10
5.092605060109022
 20
17.10529795904269
 30
0.0
 10
4.710885132665808
 20
16.99713095430069
 30
0.0
 10
4.327010607950072
 20
16.89686040861278
 30
0.0
 10
3.940847065151971
 20
16.80576697050913
 30
0.0
 10
3.55230685655097
 20
16.72537042924812
 30
0.0
 10
3.161646065990524
 20
16.6560190395479
 30
0.0
 10
2.769235188482028
 20
16.59739921562813
 30
0.0
 10
2.375432505570657
 20
16.54903617577507
 30
0.0
 10
1.98059357756587
 20
16.51008438370307
 30
0.0
 10
1.584998882995436
 20
16.47980965641126
 30
0.0
 10
1.188890719988265
 20
16.45730292041772
 30
0.0
 10
0.7924461125336535
 20
16.441886086843
 30
0.0
 10
0.3958043613708497
 20
16.43295772093242
 30
0.0
 10
0.1313174101220653
 20
16.43103974145359
 30
0.0
 10
-0.0019145908297986
 20
16.43104152463486
 30
0.0
  0
SPLINE
  5
C7
330
1F
100
AcDbEntity
  8
2D DXF
370
    -3
100
AcDbSpline
210
0.0
220
0.0
230
1.0
 70
     8
 71
     3
 72
    29
 73
    25
 74
     0
 42
0.000000001
 43
0.0000000001
 40
0.0
 40
0.0
 40
0.0
 40
0.0
 40
1.0
 40
2.0
 40
3.0
 40
4.0
 40
5.0
 40
6.0
 40
7.0
 40
8.0
 40
9.0
 40
10.0
 40
11.0
 40
12.0
 40
13.0
 40
14.0
 40
15.0
 40
16.0
 40
17.0
 40
18.0
 40
19.0
 40
20.0
 40
21.0
 40
22.0
 40
22.0
 40
22.0
 40
22.0
 10
-0.0019145908297986
 20
16.43104152463486
 30
0.0
 10
-0.1351465917816626
 20
16.43103974145359
 30
0.0
 10
-0.399633543030447
 20
16.43295772093242
 30
0.0
 10
-0.7962752941932507
 20
16.441886086843
 30
0.0
 10
-1.192719901647862
 20
16.45730292041772
 30
0.0
 10
-1.588828064655033
 20
16.47980965641126
 30
0.0
 10
-1.984422759225467
 20
16.51008438370307
 30
0.0
 10
-2.379261687230255
 20
16.54903617577507
 30
0.0
 10
-2.773064370141626
 20
16.59739921562813
 30
0.0
 10
-3.165475247650122
 20
16.6560190395479
 30
0.0
 10
-3.556136038210568
 20
16.72537042924812
 30
0.0
 10
-3.944676246811568
 20
16.80576697050913
 30
0.0
 10
-4.330839789609669
 20
16.89686040861278
 30
0.0
 10
-4.714714314325406
 20
16.99713095430069
 30
0.0
 10
-5.09643424176862
 20
17.10529795904269
 30
0.0
 10
-5.475976100844761
 20
17.22086677497559
 30
0.0
 10
-5.853357761951585
 20
17.34329974403275
 30
0.0
 10
-6.228494536373702
 20
17.47246687986045
 30
0.0
 10
-6.604288630850348
 20
17.59945519285795
 30
0.0
 10
-6.982837008927319
 20
17.71909283938355
 30
0.0
 10
-7.363925030711968
 20
17.82638003576643
 30
0.0
 10
-7.753509278347096
 20
17.91789987751386
 30
0.0
 10
-8.136195431302994
 20
17.96597555666271
 30
0.0
 10
-8.42966530312087
 20
17.9699628279876
 30
0.0
 10
-8.500915333755572
 20
17.84819756992117
 30
0.0
  0
SPLINE
  5
C8
330
1F
100
AcDbEntity
  8
2D DXF
370
    -3
100
AcDbSpline
210
0.0
220
0.0
230
1.0
 70
     8
 71
     3
 72
    10
 73
     6
 74
     0
 42
0.000000001
 43
0.0000000001
 40
0.0
 40
0.0
 40
0.0
 40
0.0
 40
1.0
 40
2.0
 40
3.0
 40
3.0
 40
3.0
 40
3.0
 10
4.179837851187258
 20
19.69916846861932
 30
0.0
 10
4.218157611346797
 20
19.48624233673435
 30
0.0
 10
4.29692422856796
 20
19.06067658992869
 30
0.0
 10
4.424784299467447
 20
18.42453056244881
 30
0.0
 10
4.529408416458651
 20
18.00381837304228
 30
0.0
 10
4.608680665514854
 20
17.80217261596505
 30
0.0
  0
SPLINE
  5
C9
330
1F
100
AcDbEntity
  8
2D DXF
370
    -3
100
AcDbSpline
210
0.0
220
0.0
230
1.0
 70
     8
 71
     3
 72
    10
 73
     6
 74
     0
 42
0.000000001
 43
0.0000000001
 40
0.0
 40
0.0
 40
0.0
 40
0.0
 40
1.0
 40
2.0
 40
3.0
 40
3.0
 40
3.0
 40
3.0
 10
-4.183667032846856
 20
19.69916846861932
 30
0.0
 10
-4.221986793006394
 20
19.48624233673435
 30
0.0
 10
-4.300753410227557
 20
19.06067658992869
 30
0.0
 10
-4.428613481127044
 20
18.42453056244881
 30
0.0
 10
-4.533237598118248
 20
18.00381837304228
 30
0.0
 10
-4.612509847174451
 20
17.80217261596505
 30
0.0
  0
SPLINE
  5
CA
330
1F
100
AcDbEntity
  8
2D DXF
370
    -3
100
AcDbSpline
210
0.0
220
0.0
230
1.0
 70
    24
 71
     2
 72
     6
 73
     3
 74
     0
 42
0.000000001
 43
0.0000000001
 40
0.0000269165430604
 40
0.0000269165430604
 40
0.0000269165430604
 40
0.3195090605941237
 40
0.3195090605941237
 40
0.3195090605941237
 10
26.33518037076699
 20
22.55073605107113
 30
0.0
 10
26.17674504908105
 20
22.5357898815576
 30
0.0
 10
26.01830972739511
 20
22.52084371204407
 30
0.0
  0
SPLINE
  5
CB
330
1F
100
AcDbEntity
  8
2D DXF
370
    -3
100
AcDbSpline
210
0.0
220
0.0
230
1.0
 70
     8
 71
     2
 72
    19
 73
    16
 74
     0
 42
0.000000001
 43
0.0000000001
 40
0.0
 40
0.0
 40
0.0
 40
1.0
 40
2.0
 40
3.0
 40
4.0
 40
5.0
 40
6.0
 40
7.0
 40
8.0
 40
9.0
 40
10.0
 40
11.0
 40
12.0
 40
13.0
 40
14.0
 40
14.0
 40
14.0
 10
22.83270509359899
 20
29.05542581149825
 30
0.0
 10
23.27272562593579
 20
28.95879199648937
 30
0.0
 10
24.12611300083263
 20
28.66866273908037
 30
0.0
 10
24.95817584090135
 20
28.32201837545827
 30
0.0
 10
25.72464312182008
 20
27.84047181058153
 30
0.0
 10
26.29622546353541
 20
27.13563041248511
 30
0.0
 10
26.72105442980173
 20
26.34009817764142
 30
0.0
 10
27.03370666332525
 20
25.49401724388859
 30
0.0
 10
27.23846865578925
 20
24.61642569061263
 30
0.0
 10
27.37401845158332
 20
23.72574330299545
 30
0.0
 10
27.44878985447049
 20
22.82794641190954
 30
0.0
 10
27.45209379327174
 20
21.92677153943509
 30
0.0
 10
27.36410471409432
 20
21.02972256101991
 30
0.0
 10
27.15256061650446
 20
20.15092733897737
 30
0.0
 10
26.73535005523316
 20
19.34847583592648
 30
0.0
 10
26.4345342704171
 20
19.01048601390706
 30
0.0
  0
SPLINE
  5
CC
330
1F
100
AcDbEntity
  8
2D DXF
370
    -3
100
AcDbSpline
210
0.0
220
0.0
230
1.0
 70
     8
 71
     2
 72
     8
 73
     5
 74
     0
 42
0.000000001
 43
0.0000000001
 40
0.0
 40
0.0
 40
0.0
 40
1.0
 40
2.0
 40
3.0
 40
3.0
 40
3.0
 10
26.1550730119251
 20
21.51109096286686
 30
0.0
 10
26.21032069507756
 20
21.09534458817967
 30
0.0
 10
26.31163599076508
 20
20.26266258853909
 30
0.0
 10
26.39821289533116
 20
19.42832092166707
 30
0.0
 10
26.43453569867854
 20
19.01048611110384
 30
0.0
  0
SPLINE
  5
CD
330
1F
100
AcDbEntity
  8
2D DXF
370
    -3
100
AcDbSpline
210
0.0
220
0.0
230
1.0
 70
     8
 71
     2
 72
     9
 73
     6
 74
     0
 42
0.000000001
 43
0.0000000001
 40
3.0
 40
3.0
 40
3.0
 40
4.0
 40
5.0
 40
6.0
 40
7.0
 40
7.0
 40
7.0
 10
26.43453569867854
 20
19.01048611110384
 30
0.0
 10
26.4382918680579
 20
18.96877121268567
 30
0.0
 10
26.487679521526
 20
18.9010226497645
 30
0.0
 10
26.56497457352596
 20
18.8692680369157
 30
0.0
 10
26.6529570608147
 20
18.87538699335674
 30
0.0
 10
26.6803858377299
 20
18.90683715948425
 30
0.0
  0
SPLINE
  5
CE
330
1F
100
AcDbEntity
  8
2D DXF
370
    -3
100
AcDbSpline
210
0.0
220
0.0
230
1.0
 70
     8
 71
     2
 72
    19
 73
    16
 74
     0
 42
0.000000001
 43
0.0000000001
 40
7.0
 40
7.0
 40
7.0
 40
8.0
 40
9.0
 40
10.0
 40
11.0
 40
12.0
 40
13.0
 40
14.0
 40
15.0
 40
16.0
 40
17.0
 40
18.0
 40
19.0
 40
20.0
 40
21.0
 40
21.0
 40
21.0
 10
26.6803858377299
 20
18.90683715948425
 30
0.0
 10
26.99035315996186
 20
19.26224942625942
 30
0.0
 10
27.41943361147118
 20
20.10083707856487
 30
0.0
 10
27.63775276024832
 20
21.01664581122108
 30
0.0
 10
27.72613134690086
 20
21.95147201023843
 30
0.0
 10
27.7187563670151
 20
22.89022524877305
 30
0.0
 10
27.63624424002872
 20
23.82502954286539
 30
0.0
 10
27.49223893259843
 20
24.75255585877366
 30
0.0
 10
27.26669242848494
 20
25.66390564347977
 30
0.0
 10
26.93058055796315
 20
26.54156649231133
 30
0.0
 10
26.46611254643433
 20
27.35847658340872
 30
0.0
 10
25.85872014931012
 20
28.07957238218012
 30
0.0
 10
25.07139666475832
 20
28.60025480142919
 30
0.0
 10
24.19369143283252
 20
28.93544154497206
 30
0.0
 10
23.30312141748432
 20
29.23229459442096
 30
0.0
 10
22.84326612148409
 20
29.32641408935083
 30
0.0
  0
SPLINE
  5
CF
330
1F
100
AcDbEntity
  8
2D DXF
370
    -3
100
AcDbSpline
210
0.0
220
0.0
230
1.0
 70
     8
 71
     2
 72
    11
 73
     8
 74
     0
 42
0.000000001
 43
0.0000000001
 40
21.0
 40
21.0
 40
21.0
 40
22.0
 40
23.0
 40
24.0
 40
25.0
 40
26.0
 40
27.0
 40
27.0
 40
27.0
 10
22.84326612148409
 20
29.32641408935083
 30
0.0
 10
22.80891372983207
 20
29.33344506144149
 30
0.0
 10
22.74688480695416
 20
29.30251274867548
 30
0.0
 10
22.71961857788394
 20
29.23889896486131
 30
0.0
 10
22.71681496260261
 20
29.17165855546872
 30
0.0
 10
22.74417652740108
 20
29.10942380696713
 30
0.0
 10
22.79550161828901
 20
29.06510816172202
 30
0.0
 10
22.82820315408033
 20
29.05607230475132
 30
0.0
  0
SPLINE
  5
D0
330
1F
100
AcDbEntity
  8
2D DXF
370
    -3
100
AcDbSpline
210
0.0
220
0.0
230
1.0
 70
     8
 71
     2
 72
    53
 73
    50
 74
     0
 42
0.000000001
 43
0.0000000001
 40
0.0854334264385601
 40
0.0854334264385601
 40
0.0854334264385601
 40
1.0
 40
2.0
 40
3.0
 40
4.0
 40
5.0
 40
6.0
 40
7.0
 40
8.0
 40
9.0
 40
10.0
 40
11.0
 40
12.0
 40
13.0
 40
14.0
 40
15.0
 40
16.0
 40
17.0
 40
18.0
 40
19.0
 40
20.0
 40
21.0
 40
22.0
 40
23.0
 40
24.0
 40
25.0
 40
26.0
 40
27.0
 40
28.0
 40
29.0
 40
30.0
 40
31.0
 40
32.0
 40
33.0
 40
34.0
 40
35.0
 40
36.0
 40
37.0
 40
38.0
 40
39.0
 40
40.0
 40
41.0
 40
42.0
 40
43.0
 40
44.0
 40
45.0
 40
46.0
 40
47.0
 40
48.0
 40
48.0
 40
48.0
 10
43.62160651553155
 20
16.45369796748746
 30
0.0
 10
43.409474027542
 20
16.56090233211489
 30
0.0
 10
42.98118431097323
 20
16.81421399081059
 30
0.0
 10
42.5291743377055
 20
17.07071470735474
 30
0.0
 10
42.0629576807939
 20
17.30056348082414
 30
0.0
 10
41.58430459256336
 20
17.50378736006788
 30
0.0
 10
41.08671507389302
 20
17.6551318465586
 30
0.0
 10
40.5784513551127
 20
17.76445894076862
 30
0.0
 10
40.06448752244491
 20
17.8421195199481
 30
0.0
 10
39.54736462060892
 20
17.89434129982024
 30
0.0
 10
39.02859690718704
 20
17.92585755754899
 30
0.0
 10
38.50908885934673
 20
17.94022020783125
 30
0.0
 10
37.98939283869522
 20
17.94017680019735
 30
0.0
 10
37.469845361732
 20
17.92811221895465
 30
0.0
 10
36.95064614062689
 20
17.9057043926006
 30
0.0
 10
36.43191849443191
 20
17.87427635149993
 30
0.0
 10
35.91372556823951
 20
17.83505169607302
 30
0.0
 10
35.39604327398884
 20
17.78961455750998
 30
0.0
 10
34.87877446184611
 20
17.73972092491408
 30
0.0
 10
34.36184680714605
 20
17.68641142585442
 30
0.0
 10
33.84523682683535
 20
17.63010925312307
 30
0.0
 10
33.32897719515809
 20
17.57068266635461
 30
0.0
 10
32.81303233536029
 20
17.50858105055768
 30
0.0
 10
32.29741179018795
 20
17.4438455452965
 30
0.0
 10
31.78204443353538
 20
17.37712819834194
 30
0.0
 10
31.26684453233669
 20
17.30913181545858
 30
0.0
 10
30.75170984665142
 20
17.24064454965394
 30
0.0
 10
30.23644935414116
 20
17.17310276517264
 30
0.0
 10
29.72077955571218
 20
17.10875346711933
 30
0.0
 10
29.20446763492471
 20
17.04967116514766
 30
0.0
 10
28.6869495051932
 20
17.00216034005931
 30
0.0
 10
28.16750239569389
 20
16.97878306120191
 30
0.0
 10
27.64828120696855
 20
17.01265755905951
 30
0.0
 10
27.13922770752056
 20
17.13159290433615
 30
0.0
 10
26.69517961907634
 20
17.41117933662669
 30
0.0
 10
26.37475284399871
 20
17.82651394083527
 30
0.0
 10
26.19331051305512
 20
18.31601579717477
 30
0.0
 10
26.08810088119226
 20
18.82548593184605
 30
0.0
 10
26.02608862653859
 20
19.341578661548
 30
0.0
 10
25.99253698679702
 20
19.86024271407172
 30
0.0
 10
25.96667740391025
 20
20.37925931036128
 30
0.0
 10
25.9387077332208
 20
20.89818098326943
 30
0.0
 10
25.90187177858316
 20
21.41655669365706
 30
0.0
 10
25.85235456920573
 20
21.93391148545273
 30
0.0
 10
25.7861156624253
 20
22.44930724491654
 30
0.0
 10
25.70870141124995
 20
22.963549793865
 30
0.0
 10
25.5929424415116
 20
23.4693267923318
 30
0.0
 10
25.4115261779453
 20
23.9637140724555
 30
0.0
 10
25.05344245946482
 20
24.33773291546302
 30
0.0
 10
24.79346368924821
 20
24.40821642122297
 30
0.0
  0
SPLINE
  5
D1
330
1F
100
AcDbEntity
  8
2D DXF
370
    -3
100
AcDbSpline
210
0.0
220
0.0
230
1.0
 70
     8
 71
     2
 72
    18
 73
    15
 74
     0
 42
0.000000001
 43
0.0000000001
 40
0.0
 40
0.0
 40
0.0
 40
1.0
 40
2.0
 40
3.0
 40
4.0
 40
5.0
 40
6.0
 40
7.0
 40
8.0
 40
9.0
 40
10.0
 40
11.0
 40
12.0
 40
12.99112390467558
 40
12.99112390467558
 40
12.99112390467558
 10
22.82820315408033
 20
29.05607230475132
 30
0.0
 10
23.06888746917942
 20
28.99136646730121
 30
0.0
 10
23.54324873019296
 20
28.83760981402
 30
0.0
 10
23.99649942269765
 20
28.62709590382858
 30
0.0
 10
24.39209915955128
 20
28.31965357583532
 30
0.0
 10
24.69216833812534
 20
27.91858684544175
 30
0.0
 10
24.90234035744716
 20
27.46543232897605
 30
0.0
 10
25.05682589123394
 20
26.99130195396307
 30
0.0
 10
25.20113007301946
 20
26.51427410257901
 30
0.0
 10
25.33131512530242
 20
26.03313770636268
 30
0.0
 10
25.44954919559548
 20
25.54894659588555
 30
0.0
 10
25.55652881215686
 20
25.06214635265228
 30
0.0
 10
25.65373080736596
 20
24.5733099757108
 30
0.0
 10
25.74624605942354
 20
24.08582471025819
 30
0.0
 10
25.79001588600916
 20
23.84274568556192
 30
0.0
  0
SPLINE
  5
D2
330
1F
100
AcDbEntity
  8
2D DXF
370
    -3
100
AcDbSpline
210
0.0
220
0.0
230
1.0
 70
     8
 71
     2
 72
     7
 73
     4
 74
     0
 42
0.000000001
 43
0.0000000001
 40
0.0
 40
0.0
 40
0.0
 40
1.0
 40
2.0
 40
2.0
 40
2.0
 10
26.33518037076699
 20
22.55073605107113
 30
0.0
 10
26.32963552823078
 20
22.57925415580891
 30
0.0
 10
26.18892321856903
 20
23.37317309462736
 30
0.0
 10
26.17876685992174
 20
23.40051247092413
 30
0.0
  0
SPLINE
  5
D3
330
1F
100
AcDbEntity
  8
2D DXF
370
    -3
100
AcDbSpline
210
0.0
220
0.0
230
1.0
 70
     8
 71
     3
 72
    11
 73
     7
 74
     0
 42
0.000000001
 43
0.0000000001
 40
2.0
 40
2.0
 40
2.0
 40
2.0
 40
2.50156835232133
 40
2.50156835232133
 40
2.50156835232133
 40
2.868978274657099
 40
2.868978274657099
 40
2.868978274657099
 40
2.868978274657099
 10
26.17876685992174
 20
23.40051247092413
 30
0.0
 10
26.14807220891795
 20
23.54867012532385
 30
0.0
 10
26.10681534614726
 20
23.7304705032694
 30
0.0
 10
26.06631820753235
 20
23.84893240293289
 30
0.0
 10
26.03379466829115
 20
23.94406999472481
 30
0.0
 10
26.00794457331484
 20
23.98213164337541
 30
0.0
 10
25.98791902662556
 20
23.98160741993404
 30
0.0
  0
SPLINE
  5
D4
330
1F
100
AcDbEntity
  8
2D DXF
370
    -3
100
AcDbSpline
210
0.0
220
0.0
230
1.0
 70
     8
 71
     3
 72
     8
 73
     4
 74
     0
 42
0.000000001
 43
0.0000000001
 40
2.868978274657099
 40
2.868978274657099
 40
2.868978274657099
 40
2.868978274657099
 40
2.942255389416193
 40
2.942255389416193
 40
2.942255389416193
 40
2.942255389416193
 10
25.98791902662556
 20
23.98160741993404
 30
0.0
 10
25.98400777053816
 20
23.98153013522901
 30
0.0
 10
25.98037219951631
 20
23.98028556825562
 30
0.0
 10
25.97702526785356
 20
23.97786537643302
 30
0.0
  0
SPLINE
  5
D5
330
1F
100
AcDbEntity
  8
2D DXF
370
    -3
100
AcDbSpline
210
0.0
220
0.0
230
1.0
 70
     8
 71
     3
 72
     8
 73
     4
 74
     0
 42
0.000000001
 43
0.0000000001
 40
2.942255389416193
 40
2.942255389416193
 40
2.942255389416193
 40
2.942255389416193
 40
3.256087856163177
 40
3.256087856163177
 40
3.256087856163177
 40
3.256087856163177
 10
25.97702526785356
 20
23.97786537643302
 30
0.0
 10
25.89220823529799
 20
23.91653136258223
 30
0.0
 10
25.80740503523528
 20
23.85526111125353
 30
0.0
 10
25.72258597729378
 20
23.79409832654552
 30
0.0
  0
SPLINE
  5
D6
330
1F
100
AcDbEntity
  8
2D DXF
370
    -3
100
AcDbSpline
210
0.0
220
0.0
230
1.0
 70
     8
 71
     3
 72
    11
 73
     7
 74
     0
 42
0.000000001
 43
0.0000000001
 40
1.106384034209326
 40
1.106384034209326
 40
1.106384034209326
 40
1.106384034209326
 40
1.617990370078946
 40
1.617990370078946
 40
1.617990370078946
 40
1.632577816608413
 40
1.632577816608413
 40
1.632577816608413
 40
1.632577816608413
 10
26.13831453662682
 20
21.47421453966128
 30
0.0
 10
26.20867449421179
 20
21.62904047889658
 30
0.0
 10
26.27902074865484
 20
21.78381944576996
 30
0.0
 10
26.34934123344381
 20
21.93850424044803
 30
0.0
 10
26.35134697785857
 20
21.94291629994817
 30
0.0
 10
26.35335269011121
 20
21.94732825450872
 30
0.0
 10
26.35535890972388
 20
21.9517398487536
 30
0.0
  0
SPLINE
  5
D7
330
1F
100
AcDbEntity
  8
2D DXF
370
    -3
100
AcDbSpline
210
0.0
220
0.0
230
1.0
 70
     8
 71
     2
 72
    11
 73
     8
 74
     0
 42
0.000000001
 43
0.0000000001
 40
1.632577816608413
 40
1.632577816608413
 40
1.632577816608413
 40
2.632577427346236
 40
3.632577505198671
 40
4.632577583051106
 40
5.632577660903541
 40
6.632577738755977
 40
7.632577816608412
 40
7.632577816608412
 40
7.632577816608412
 10
26.35535890972388
 20
21.9517398487536
 30
0.0
 10
26.37258668205796
 20
21.99935014866102
 30
0.0
 10
26.37957378373331
 20
22.10032183838901
 30
0.0
 10
26.3786099002137
 20
22.20104068475206
 30
0.0
 10
26.37171827385448
 20
22.3015931262893
 30
0.0
 10
26.36024623646706
 20
22.40170415094067
 30
0.0
 10
26.34478965152455
 20
22.50127828062483
 30
0.0
 10
26.33518037076705
 20
22.55073605107111
 30
0.0
  0
SPLINE
  5
D8
330
1F
100
AcDbEntity
  8
2D DXF
370
    -3
100
AcDbSpline
210
0.0
220
0.0
230
1.0
 70
     8
 71
     2
 72
    11
 73
     8
 74
     0
 42
0.000000001
 43
0.0000000001
 40
0.0
 40
0.0
 40
0.0
 40
1.0
 40
2.0
 40
3.0
 40
4.0
 40
5.0
 40
6.0
 40
6.0
 40
6.0
 10
1.192059130401802
 20
15.65834030596488
 30
0.0
 10
1.132817376173918
 20
15.64192550915715
 30
0.0
 10
1.024293445618085
 20
15.58417074995762
 30
0.0
 10
0.9276623820691015
 20
15.50845106750874
 30
0.0
 10
0.8450990125419793
 20
15.41756213337879
 30
0.0
 10
0.7785881383058921
 20
15.31437296149568
 30
0.0
 10
0.7303435675639918
 20
15.20146431993473
 30
0.0
 10
0.7158057436306962
 20
15.14182728381257
 30
0.0
  0
LINE
  5
D9
330
1F
100
AcDbEntity
  8
2D DXF
370
    -3
100
AcDbLine
 10
0.7158057436306962
 20
15.14182728381257
 30
0.0
 11
0.6651712806382335
 21
14.9337233864766
 31
0.0
  0
LINE
  5
DA
330
1F
100
AcDbEntity
  8
2D DXF
370
    -3
100
AcDbLine
 10
0.6651712806382335
 20
14.9337233864766
 30
0.0
 11
-0.6749073681662452
 21
14.93372348563462
 31
0.0
  0
LINE
  5
DB
330
1F
100
AcDbEntity
  8
2D DXF
370
    -3
100
AcDbLine
 10
-0.6749073681662452
 20
14.93372348563462
 30
0.0
 11
-0.7253435432937323
 21
15.14101272933769
 31
0.0
  0
SPLINE
  5
DC
330
1F
100
AcDbEntity
  8
2D DXF
370
    -3
100
AcDbSpline
210
0.0
220
0.0
230
1.0
 70
     8
 71
     2
 72
    11
 73
     8
 74
     0
 42
0.000000001
 43
0.0000000001
 40
8.216829150029167
 40
8.216829150029167
 40
8.216829150029167
 40
9.216829150029167
 40
10.21682915002917
 40
11.21682915002917
 40
12.21682915002917
 40
13.21682915002917
 40
14.21682915002917
 40
14.21682915002917
 40
14.21682915002917
 10
-0.7253435432937323
 20
15.14101272933769
 30
0.0
 10
-0.7399039965697654
 20
15.20074337295563
 30
0.0
 10
-0.7882242566476947
 20
15.31382996327241
 30
0.0
 10
-0.8548566537219386
 20
15.41717003843881
 30
0.0
 10
-0.9375458061789885
 20
15.50820483755741
 30
0.0
 10
-1.034333839956346
 20
15.58403730339634
 30
0.0
 10
-1.143034699333455
 20
15.64187099457561
 30
0.0
 10
-1.202372197476151
 20
15.65830233505915
 30
0.0
  0
SPLINE
  5
DD
330
1F
100
AcDbEntity
  8
2D DXF
370
    -3
100
AcDbSpline
210
0.0
220
0.0
230
1.0
 70
     8
 71
     2
 72
     8
 73
     5
 74
     0
 42
0.000000001
 43
0.0000000001
 40
0.0
 40
0.0
 40
0.0
 40
1.0
 40
2.0
 40
3.0
 40
3.0
 40
3.0
 10
5.456990532992094
 20
17.21875145266922
 30
0.0
 10
5.458669613007615
 20
17.21858157361869
 30
0.0
 10
5.46202842688318
 20
17.21824834192614
 30
0.0
 10
5.465387880299048
 20
17.21792162054882
 30
0.0
 10
5.46706791963895
 20
17.21776150705122
 30
0.0
  0
SPLINE
  5
DE
330
1F
100
AcDbEntity
  8
2D DXF
370
    -3
100
AcDbSpline
210
0.0
220
0.0
230
1.0
 70
     8
 71
     2
 72
     8
 73
     5
 74
     0
 42
0.000000001
 43
0.0000000001
 40
0.0
 40
0.0
 40
0.0
 40
1.0
 40
2.0
 40
3.0
 40
3.0
 40
3.0
 10
-5.460819714651691
 20
17.21875145266922
 30
0.0
 10
-5.462498794667212
 20
17.21858157361869
 30
0.0
 10
-5.465857608542777
 20
17.21824834192614
 30
0.0
 10
-5.469217061958645
 20
17.21792162054882
 30
0.0
 10
-5.470897101298547
 20
17.21776150705122
 30
0.0
  0
SPLINE
  5
DF
330
1F
100
AcDbEntity
  8
2D DXF
370
    -3
100
AcDbSpline
210
0.0
220
0.0
230
1.0
 70
     8
 71
     2
 72
     8
 73
     5
 74
     0
 42
0.000000001
 43
0.0000000001
 40
0.0
 40
0.0
 40
0.0
 40
1.0
 40
2.0
 40
3.0
 40
3.0
 40
3.0
 10
5.126589090674869
 20
17.11902429126133
 30
0.0
 10
5.127187438435087
 20
17.08490971563899
 30
0.0
 10
5.11672487801961
 20
17.01743872305283
 30
0.0
 10
5.091908117232478
 20
16.95380063136047
 30
0.0
 10
5.074652252783167
 20
16.9243925475996
 30
0.0
  0
SPLINE
  5
E0
330
1F
100
AcDbEntity
  8
2D DXF
370
    -3
100
AcDbSpline
210
0.0
220
0.0
230
1.0
 70
     8
 71
     2
 72
    18
 73
    15
 74
     0
 42
0.000000001
 43
0.0000000001
 40
3.0
 40
3.0
 40
3.0
 40
4.0
 40
5.0
 40
6.0
 40
7.0
 40
8.0
 40
9.0
 40
10.0
 40
11.0
 40
12.0
 40
13.0
 40
14.0
 40
15.0
 40
16.0
 40
16.0
 40
16.0
 10
5.074652252783167
 20
16.9243925475996
 30
0.0
 10
4.983836229391429
 20
16.76855719202555
 30
0.0
 10
4.803331229837781
 20
16.45637308833606
 30
0.0
 10
4.617216564046899
 20
16.14674107169277
 30
0.0
 10
4.359780914868381
 20
15.88983403800911
 30
0.0
 10
4.040083944755409
 20
15.71935159962095
 30
0.0
 10
3.686951698937506
 20
15.63858631726168
 30
0.0
 10
3.328252373380209
 20
15.59974158516751
 30
0.0
 10
2.96777660768349
 20
15.58478625550599
 30
0.0
 10
2.607148443364636
 20
15.57757724287326
 30
0.0
 10
2.246527058953788
 20
15.56987935154731
 30
0.0
 10
1.88587878736918
 20
15.56358048098848
 30
0.0
 10
1.525213841294132
 20
15.55833432466329
 30
0.0
 10
1.164534372068815
 20
15.55419780111228
 30
0.0
 10
0.9841891327995853
 20
15.55268464757752
 30
0.0
  0
SPLINE
  5
E1
330
1F
100
AcDbEntity
  8
2D DXF
370
    -3
100
AcDbSpline
210
0.0
220
0.0
230
1.0
 70
     8
 71
     2
 72
     8
 73
     5
 74
     0
 42
0.000000001
 43
0.0000000001
 40
0.0
 40
0.0
 40
0.0
 40
1.0
 40
2.0
 40
3.0
 40
3.0
 40
3.0
 10
-5.130418272334467
 20
17.11902429126133
 30
0.0
 10
-5.131016620094684
 20
17.08490971563899
 30
0.0
 10
-5.120554059679208
 20
17.01743872305283
 30
0.0
 10
-5.095737298892075
 20
16.95380063136047
 30
0.0
 10
-5.078481434442764
 20
16.9243925475996
 30
0.0
  0
SPLINE
  5
E2
330
1F
100
AcDbEntity
  8
2D DXF
370
    -3
100
AcDbSpline
210
0.0
220
0.0
230
1.0
 70
     8
 71
     2
 72
    18
 73
    15
 74
     0
 42
0.000000001
 43
0.0000000001
 40
3.0
 40
3.0
 40
3.0
 40
4.0
 40
5.0
 40
6.0
 40
7.0
 40
8.0
 40
9.0
 40
10.0
 40
11.0
 40
12.0
 40
13.0
 40
14.0
 40
15.0
 40
16.0
 40
16.0
 40
16.0
 10
-5.078481434442764
 20
16.9243925475996
 30
0.0
 10
-4.987665411051026
 20
16.76855719202555
 30
0.0
 10
-4.807160411497378
 20
16.45637308833606
 30
0.0
 10
-4.621045745706496
 20
16.14674107169277
 30
0.0
 10
-4.363610096527978
 20
15.88983403800911
 30
0.0
 10
-4.043913126415006
 20
15.71935159962095
 30
0.0
 10
-3.690780880597103
 20
15.63858631726168
 30
0.0
 10
-3.332081555039807
 20
15.59974158516751
 30
0.0
 10
-2.971605789343087
 20
15.58478625550599
 30
0.0
 10
-2.610977625024233
 20
15.57757724287326
 30
0.0
 10
-2.250356240613385
 20
15.56987935154731
 30
0.0
 10
-1.889707969028777
 20
15.56358048098848
 30
0.0
 10
-1.529043022953729
 20
15.55833432466329
 30
0.0
 10
-1.168363553728412
 20
15.55419780111228
 30
0.0
 10
-0.9880183144591825
 20
15.55268464757752
 30
0.0
  0
ARC
  5
E3
330
1F
100
AcDbEntity
  8
2D DXF
370
    -3
100
AcDbCircle
 10
0.4430891111702664
 20
40.92975285115683
 30
0.0
 40
24.68452968130421
210
0.0
220
0.0
230
-1.0
100
AcDbArc
 50
280.4539982226671
 51
283.7077083135562
  0
SPLINE
  5
E4
330
1F
100
AcDbEntity
  8
2D DXF
370
    -3
100
AcDbSpline
210
0.0
220
0.0
230
1.0
 70
     8
 71
     3
 72
    34
 73
    30
 74
     0
 42
0.000000001
 43
0.0000000001
 40
0.0000000000000107
 40
0.0000000000000107
 40
0.0000000000000107
 40
0.0000000000000107
 40
1.00000000000001
 40
2.00000000000001
 40
3.000000000000009
 40
4.000000000000009
 40
5.000000000000009
 40
6.000000000000008
 40
7.000000000000007
 40
8.000000000000007
 40
9.000000000000007
 40
10.00000000000001
 40
11.00000000000001
 40
12.00000000000001
 40
13.00000000000001
 40
14.00000000000001
 40
15.00000000000001
 40
16.00000000000001
 40
17.0
 40
18.0
 40
19.0
 40
20.0
 40
21.0
 40
22.0
 40
23.0
 40
24.0
 40
25.0
 40
26.0
 40
27.0
 40
27.0
 40
27.0
 40
27.0
 10
-6.292553765027137
 20
16.94830650506529
 30
0.0
 10
-6.335033349440195
 20
16.95866796633617
 30
0.0
 10
-6.419937384555155
 20
16.9796166101352
 30
0.0
 10
-6.547150335981982
 20
17.0116136414568
 30
0.0
 10
-6.674235931830069
 20
17.04411255165668
 30
0.0
 10
-6.801205887406454
 20
17.07706033837104
 30
0.0
 10
-6.928064647482344
 20
17.11043315667663
 30
0.0
 10
-7.054826686534383
 20
17.14417290614327
 30
0.0
 10
-7.181453468967661
 20
17.17841286099427
 30
0.0
 10
-7.30808863191173
 20
17.21263329593587
 30
0.0
 10
-7.434127235696437
 20
17.24900234336452
 30
0.0
 10
-7.559395114038168
 20
17.28794701582802
 30
0.0
 10
-7.683842257067667
 20
17.32943990535441
 30
0.0
 10
-7.80729067755361
 20
17.3738283908787
 30
0.0
 10
-7.929500121043972
 20
17.42151798017051
 30
0.0
 10
-8.050165773041144
 20
17.47304971744551
 30
0.0
 10
-8.168606963248052
 20
17.52939335627501
 30
0.0
 10
-8.284158997628467
 20
17.59198396982853
 30
0.0
 10
-8.392804236258641
 20
17.66483407948647
 30
0.0
 10
-8.492725012175967
 20
17.75362448269534
 30
0.0
 10
-8.536473476515354
 20
17.88290135968106
 30
0.0
 10
-8.489584149568074
 20
18.01236258615066
 30
0.0
 10
-8.403927226528353
 20
18.11317137422422
 30
0.0
 10
-8.285480538779538
 20
18.17459808437796
 30
0.0
 10
-8.157212405512936
 20
18.20406674212869
 30
0.0
 10
-8.026188925168398
 20
18.21429331215296
 30
0.0
 10
-7.894945960960328
 20
18.21216246427011
 30
0.0
 10
-7.764145350468752
 20
18.20162717809369
 30
0.0
 10
-7.663959788447229
 20
18.1885673284126
 30
0.0
 10
-7.62069325538458
 20
18.18225486516208
 30
0.0
  0
SPLINE
  5
E5
330
1F
100
AcDbEntity
  8
2D DXF
370
    -3
100
AcDbSpline
210
0.0
220
0.0
230
1.0
 70
     8
 71
     3
 72
    14
 73
    10
 74
     0
 42
0.000000001
 43
0.0000000001
 40
27.0
 40
27.0
 40
27.0
 40
27.0
 40
28.0
 40
29.0
 40
30.0
 40
31.0
 40
32.0
 40
33.0
 40
34.0
 40
34.0
 40
34.0
 40
34.0
 10
-7.62069325538458
 20
18.18225486516208
 30
0.0
 10
-7.260997903686913
 20
18.12977634358313
 30
0.0
 10
-6.528024574528771
 20
18.02391190578504
 30
0.0
 10
-5.446475504437373
 20
17.88389793040329
 30
0.0
 10
-4.361329563129843
 20
17.77429096261758
 30
0.0
 10
-3.272823369485295
 20
17.70537221259885
 30
0.0
 10
-2.182866083003645
 20
17.66837653121881
 30
0.0
 10
-1.092427367549803
 20
17.65317622866074
 30
0.0
 10
-0.3654179890062181
 20
17.65128839697456
 30
0.0
 10
-0.0019145908297986
 20
17.65136911463718
 30
0.0
  0
SPLINE
  5
E6
330
1F
100
AcDbEntity
  8
2D DXF
370
    -3
100
AcDbSpline
210
0.0
220
0.0
230
1.0
 70
     8
 71
     3
 72
    14
 73
    10
 74
     0
 42
0.000000001
 43
0.0000000001
 40
34.0
 40
34.0
 40
34.0
 40
34.0
 40
35.0
 40
36.0
 40
37.0
 40
38.0
 40
39.0
 40
40.0
 40
41.0
 40
41.0
 40
41.0
 40
41.0
 10
-0.0019145908297986
 20
17.65136911463718
 30
0.0
 10
0.3615888073466209
 20
17.65128839697456
 30
0.0
 10
1.088598185890206
 20
17.65317622866074
 30
0.0
 10
2.179036901344048
 20
17.66837653121881
 30
0.0
 10
3.268994187825697
 20
17.70537221259885
 30
0.0
 10
4.357500381470246
 20
17.77429096261758
 30
0.0
 10
5.442646322777776
 20
17.88389793040329
 30
0.0
 10
6.524195392869174
 20
18.02391190578504
 30
0.0
 10
7.257168722027316
 20
18.12977634358313
 30
0.0
 10
7.616864073724983
 20
18.18225486516208
 30
0.0
  0
SPLINE
  5
E7
330
1F
100
AcDbEntity
  8
2D DXF
370
    -3
100
AcDbSpline
210
0.0
220
0.0
230
1.0
 70
     8
 71
     3
 72
    34
 73
    30
 74
     0
 42
0.000000001
 43
0.0000000001
 40
40.99999999999999
 40
40.99999999999999
 40
40.99999999999999
 40
40.99999999999999
 40
41.99999999999999
 40
42.99999999999999
 40
43.99999999999999
 40
44.99999999999999
 40
45.99999999999999
 40
46.99999999999999
 40
47.99999999999999
 40
48.99999999999999
 40
49.99999999999999
 40
50.99999999999999
 40
51.99999999999999
 40
53.0
 40
54.0
 40
55.0
 40
56.0
 40
57.0
 40
58.0
 40
59.0
 40
60.0
 40
61.0
 40
62.0
 40
63.0
 40
64.0
 40
65.0
 40
66.0
 40
67.0
 40
68.0
 40
68.0
 40
68.0
 40
68.0
 10
7.616864073724983
 20
18.18225486516208
 30
0.0
 10
7.660130606787632
 20
18.1885673284126
 30
0.0
 10
7.760316168809155
 20
18.20162717809369
 30
0.0
 10
7.891116779300731
 20
18.21216246427011
 30
0.0
 10
8.022359743508801
 20
18.21429331215296
 30
0.0
 10
8.15338322385334
 20
18.20406674212869
 30
0.0
 10
8.28165135711994
 20
18.17459808437796
 30
0.0
 10
8.400098044868756
 20
18.11317137422422
 30
0.0
 10
8.485754967908477
 20
18.01236258615066
 30
0.0
 10
8.532644294855757
 20
17.88290135968106
 30
0.0
 10
8.48889583051637
 20
17.75362448269534
 30
0.0
 10
8.388975054599044
 20
17.66483407948647
 30
0.0
 10
8.28032981596887
 20
17.59198396982853
 30
0.0
 10
8.164777781588455
 20
17.52939335627501
 30
0.0
 10
8.046336591381547
 20
17.47304971744551
 30
0.0
 10
7.925670939384375
 20
17.42151798017051
 30
0.0
 10
7.803461495894013
 20
17.3738283908787
 30
0.0
 10
7.68001307540807
 20
17.32943990535441
 30
0.0
 10
7.55556593237857
 20
17.28794701582802
 30
0.0
 10
7.43029805403684
 20
17.24900234336452
 30
0.0
 10
7.304259450252133
 20
17.21263329593587
 30
0.0
 10
7.177624287308063
 20
17.17841286099427
 30
0.0
 10
7.050997504874786
 20
17.14417290614327
 30
0.0
 10
6.924235465822747
 20
17.11043315667663
 30
0.0
 10
6.797376705746856
 20
17.07706033837104
 30
0.0
 10
6.670406750170471
 20
17.04411255165668
 30
0.0
 10
6.543321154322385
 20
17.0116136414568
 30
0.0
 10
6.416108202895558
 20
16.9796166101352
 30
0.0
 10
6.331204167780598
 20
16.95866796633617
 30
0.0
 10
6.288724583367539
 20
16.94830650506529
 30
0.0
  0
ARC
  5
E8
330
1F
100
AcDbEntity
  8
2D DXF
370
    -3
100
AcDbCircle
 10
-0.4392599299628017
 20
40.92975284930317
 30
0.0
 40
24.6845296793962
210
0.0
220
0.0
230
-1.0
100
AcDbArc
 50
256.2922916864438
 51
259.5460017775782
  0
SPLINE
  5
E9
330
1F
100
AcDbEntity
  8
2D DXF
370
    -3
100
AcDbSpline
210
0.0
220
0.0
230
1.0
 70
     8
 71
     2
 72
    23
 73
    20
 74
     0
 42
0.000000001
 43
0.0000000001
 40
-19.64279919972779
 40
-19.64279919972779
 40
-19.64279919972779
 40
-17.0
 40
-16.0
 40
-15.0
 40
-14.0
 40
-13.0
 40
-12.0
 40
-11.0
 40
-10.0
 40
-8.999999999999998
 40
-7.999999999999998
 40
-6.999999999999998
 40
-5.999999999999998
 40
-4.999999999999998
 40
-3.999999999999998
 40
-2.999999999999998
 40
-1.999999999999998
 40
-0.9999999999999982
 40
0.0000000000000018
 40
0.0000000000000018
 40
0.0000000000000018
 10
-4.593974109205519
 20
16.13061039673939
 30
0.0
 10
-4.815486396666884
 20
16.10328643522556
 30
0.0
 10
-5.12217931926115
 20
16.08413993794335
 30
0.0
 10
-5.290731435513081
 20
16.07688000824314
 30
0.0
 10
-5.459369334238389
 20
16.07205606630887
 30
0.0
 10
-5.628050397962639
 20
16.06918713071731
 30
0.0
 10
-5.796752110054584
 20
16.06780114394901
 30
0.0
 10
-5.965443994000267
 20
16.06744455616904
 30
0.0
 10
-6.134220389784289
 20
16.06715795861155
 30
0.0
 10
-6.302243366229121
 20
16.08329205494471
 30
0.0
 10
-6.469815462864247
 20
16.10270169744408
 30
0.0
 10
-6.637654905505443
 20
16.11990798649248
 30
0.0
 10
-6.806050943097446
 20
16.13046806496196
 30
0.0
 10
-6.974719426745978
 20
16.13439291369394
 30
0.0
 10
-7.143386052125848
 20
16.13842494185663
 30
0.0
 10
-7.311892433336297
 20
16.14536742183364
 30
0.0
 10
-7.480552139927582
 20
16.15757652569496
 30
0.0
 10
-7.645715041301472
 20
16.17975130615977
 30
0.0
 10
-7.820462958559133
 20
16.23247090647001
 30
0.0
 10
-7.822867981404627
 20
16.32902462519932
 30
0.0
  0
SPLINE
  5
EA
330
1F
100
AcDbEntity
  8
2D DXF
370
    -3
100
AcDbSpline
210
0.0
220
0.0
230
1.0
 70
     8
 71
     2
 72
    23
 73
    20
 74
     0
 42
0.000000001
 43
0.0000000001
 40
0.0000000000000018
 40
0.0000000000000018
 40
0.0000000000000018
 40
1.000000000000002
 40
2.000000000000002
 40
3.000000000000002
 40
4.000000000000002
 40
5.000000000000002
 40
6.000000000000002
 40
7.000000000000002
 40
8.000000000000002
 40
9.000000000000002
 40
10.0
 40
11.0
 40
12.0
 40
13.0
 40
14.0
 40
15.0
 40
16.0
 40
17.0
 40
18.0311250816648
 40
18.0311250816648
 40
18.0311250816648
 10
-7.822867981404627
 20
16.32902462519932
 30
0.0
 10
-7.820462958559133
 20
16.42557834392863
 30
0.0
 10
-7.645715041301472
 20
16.47829794423888
 30
0.0
 10
-7.480552139927582
 20
16.50047272470368
 30
0.0
 10
-7.311892433336297
 20
16.51268182856501
 30
0.0
 10
-7.143386052125848
 20
16.51962430854202
 30
0.0
 10
-6.974719426745978
 20
16.5236563367047
 30
0.0
 10
-6.806050943097446
 20
16.52758118543669
 30
0.0
 10
-6.637654905505443
 20
16.53814126390617
 30
0.0
 10
-6.469815462864247
 20
16.55534755295457
 30
0.0
 10
-6.302243366229121
 20
16.57475719545394
 30
0.0
 10
-6.134220389784289
 20
16.5908912917871
 30
0.0
 10
-5.965443994000267
 20
16.59060469422961
 30
0.0
 10
-5.796752110054584
 20
16.59024810644964
 30
0.0
 10
-5.628050397962639
 20
16.58886211968134
 30
0.0
 10
-5.459369334238389
 20
16.58599318408977
 30
0.0
 10
-5.290731435513081
 20
16.58116924215551
 30
0.0
 10
-5.12217931926115
 20
16.5739093124553
 30
0.0
 10
-4.951175743907086
 20
16.56323374986628
 30
0.0
 10
-4.86451428765146
 20
16.5557692258255
 30
0.0
  0
LINE
  5
EB
330
1F
100
AcDbEntity
  8
2D DXF
370
    -3
100
AcDbLine
 10
-12.7493679814046
 20
2.621844414103691
 30
0.0
 11
-12.7493679814046
 21
0.0618444141036889
 31
0.0
  0
SPLINE
  5
EC
330
1F
100
AcDbEntity
  8
2D DXF
370
    -3
100
AcDbSpline
210
0.0
220
0.0
230
1.0
 70
    28
 71
     2
 72
     6
 73
     3
 74
     0
 42
0.000000001
 43
0.0000000001
 40
0.0438698847624333
 40
0.0438698847624333
 40
0.0438698847624333
 40
0.4243698847624412
 40
0.4243698847624412
 40
0.4243698847624412
 10
-12.7493679814046
 20
0.0618444141036889
 30
0.0
 41
1.0
 10
-12.93961798140461
 20
0.0618444141036889
 30
0.0
 41
1.0
 10
-13.12986798140462
 20
0.0618444141036889
 30
0.0
 41
1.0
  0
LINE
  5
ED
330
1F
100
AcDbEntity
  8
2D DXF
370
    -3
100
AcDbLine
 10
-11.9103679814046
 20
2.621844414103691
 30
0.0
 11
-11.9103679814046
 21
0.0618444141037031
 31
0.0
  0
SPLINE
  5
EE
330
1F
100
AcDbEntity
  8
2D DXF
370
    -3
100
AcDbSpline
210
0.0
220
0.0
230
1.0
 70
    28
 71
     2
 72
     6
 73
     3
 74
     0
 42
0.000000001
 43
0.0000000001
 40
-0.4243698847624376
 40
-0.4243698847624376
 40
-0.4243698847624376
 40
-0.0438698847624333
 40
-0.0438698847624333
 40
-0.0438698847624333
 10
-11.9103679814046
 20
0.0618444141037031
 30
0.0
 41
1.0
 10
-11.7201179814046
 20
0.061844414103696
 30
0.0
 41
1.0
 10
-11.52986798140459
 20
0.0618444141036889
 30
0.0
 41
1.0
  0
LINE
  5
EF
330
1F
100
AcDbEntity
  8
2D DXF
370
    -3
100
AcDbLine
 10
-12.65986798140462
 20
2.746844414103691
 30
0.0
 11
-11.99986798140462
 21
2.746844414103691
 31
0.0
  0
SPLINE
  5
F0
330
1F
100
AcDbEntity
  8
2D DXF
370
    -3
100
AcDbSpline
210
0.0
220
0.0
230
1.0
 70
    28
 71
     2
 72
     6
 73
     3
 74
     0
 42
0.000000001
 43
0.0000000001
 40
0.0183198847624326
 40
0.0183198847624326
 40
0.0183198847624326
 40
0.1433198847624326
 40
0.1433198847624326
 40
0.1433198847624326
 10
-11.99986798140462
 20
2.746844414103691
 30
0.0
 41
1.0
 10
-11.99986798140462
 20
2.684344414103691
 30
0.0
 41
1.0
 10
-11.99986798140462
 20
2.621844414103691
 30
0.0
 41
1.0
  0
LINE
  5
F1
330
1F
100
AcDbEntity
  8
2D DXF
370
    -3
100
AcDbLine
 10
-13.3298679814046
 20
2.421844414103688
 30
0.0
 11
-13.3298679814046
 21
0.2618444141036775
 31
0.0
  0
LINE
  5
F2
330
1F
100
AcDbEntity
  8
2D DXF
370
    -3
100
AcDbLine
 10
-11.3298679814046
 20
0.2618444141036775
 30
0.0
 11
-11.3298679814046
 21
2.421844414103688
 31
0.0
  0
SPLINE
  5
F3
330
1F
100
AcDbEntity
  8
2D DXF
370
    -3
100
AcDbSpline
210
0.0
220
0.0
230
1.0
 70
    28
 71
     2
 72
     6
 73
     3
 74
     0
 42
0.000000001
 43
0.0000000001
 40
0.0438698847624298
 40
0.0438698847624298
 40
0.0438698847624298
 40
0.4243698847624376
 40
0.4243698847624376
 40
0.4243698847624376
 10
-0.8019145908297531
 20
2.621844414103691
 30
0.0
 41
1.0
 10
-0.6116645908297471
 20
2.621844414103691
 30
0.0
 41
1.0
 10
-0.4214145908297411
 20
2.621844414103691
 30
0.0
 41
1.0
  0
SPLINE
  5
F4
330
1F
100
AcDbEntity
  8
2D DXF
370
    -3
100
AcDbSpline
210
0.0
220
0.0
230
1.0
 70
    12
 71
     2
 72
     8
 73
     5
 74
     0
 42
0.000000001
 43
0.0000000001
 40
0.0
 40
0.0
 40
0.0
 40
0.1656854249492369
 40
0.1656854249492369
 40
0.3313708498984772
 40
0.3313708498984772
 40
0.3313708498984772
 10
-0.8019145908297531
 20
0.0618444141036889
 30
0.0
 41
1.0
 10
-0.8847573033043729
 20
0.0618444141036834
 30
0.0
 41
0.8535533905932737
 10
-0.9433359470670766
 20
0.1204230578663706
 30
0.0
 41
0.8535533905932737
 10
-1.001914590829714
 20
0.1790017016290661
 30
0.0
 41
0.8535533905932737
 10
-1.001914590829742
 20
0.2618444141036917
 30
0.0
 41
1.0
  0
SPLINE
  5
F5
330
1F
100
AcDbEntity
  8
2D DXF
370
    -3
100
AcDbSpline
210
0.0
220
0.0
230
1.0
 70
    12
 71
     2
 72
     8
 73
     5
 74
     0
 42
0.000000001
 43
0.0000000001
 40
0.0
 40
0.0
 40
0.0
 40
0.1656854249492368
 40
0.1656854249492368
 40
0.3313708498984775
 40
0.3313708498984775
 40
0.3313708498984775
 10
-0.8019145908297531
 20
2.621844414103691
 30
0.0
 41
1.0
 10
-0.8847573033043729
 20
2.621844414103681
 30
0.0
 41
0.8535533905932737
 10
-0.9433359470670766
 20
2.563265770340994
 30
0.0
 41
0.8535533905932737
 10
-1.001914590829714
 20
2.504687126578307
 30
0.0
 41
0.8535533905932737
 10
-1.001914590829742
 20
2.421844414103688
 30
0.0
 41
1.0
  0
SPLINE
  5
F6
330
1F
100
AcDbEntity
  8
2D DXF
370
    -3
100
AcDbSpline
210
0.0
220
0.0
230
1.0
 70
    28
 71
     2
 72
     8
 73
     5
 74
     0
 42
0.000000001
 43
0.0000000001
 40
-1.113694595697582
 40
-1.113694595697582
 40
-1.113694595697582
 40
-0.5568472978487908
 40
-0.5568472978487908
 40
0.0
 40
0.0
 40
0.0
 10
-0.3564145908297434
 20
1.34184441410369
 30
0.0
 41
1.0
 10
-0.3564145908297487
 20
1.341844414103681
 30
0.0
 41
0.7071067811865476
 10
-0.0019145908297418
 20
1.34184441410369
 30
0.0
 41
1.0
 10
0.3525854091702555
 20
1.341844414103691
 30
0.0
 41
0.7071067811865476
 10
0.3525854091702598
 20
1.34184441410369
 30
0.0
 41
1.0
  0
SPLINE
  5
F7
330
1F
100
AcDbEntity
  8
2D DXF
370
    -3
100
AcDbSpline
210
0.0
220
0.0
230
1.0
 70
    24
 71
     2
 72
     6
 73
     3
 74
     0
 42
0.000000001
 43
0.0000000001
 40
-1.28
 40
-1.28
 40
-1.28
 40
0.0
 40
0.0
 40
0.0
 10
-0.3564145908297434
 20
2.621844414103691
 30
0.0
 10
-0.3564145908297434
 20
1.981844414103691
 30
0.0
 10
-0.3564145908297434
 20
1.34184441410369
 30
0.0
  0
SPLINE
  5
F8
330
1F
100
AcDbEntity
  8
2D DXF
370
    -3
100
AcDbSpline
210
0.0
220
0.0
230
1.0
 70
    24
 71
     2
 72
     6
 73
     3
 74
     0
 42
0.000000001
 43
0.0000000001
 40
-1.28
 40
-1.28
 40
-1.28
 40
0.0
 40
0.0
 40
0.0
 10
0.3525854091702598
 20
1.34184441410369
 30
0.0
 10
0.3525854091702598
 20
1.981844414103691
 30
0.0
 10
0.3525854091702598
 20
2.621844414103691
 30
0.0
  0
SPLINE
  5
F9
330
1F
100
AcDbEntity
  8
2D DXF
370
    -3
100
AcDbSpline
210
0.0
220
0.0
230
1.0
 70
    28
 71
     2
 72
     6
 73
     3
 74
     0
 42
0.000000001
 43
0.0000000001
 40
0.0183198847624326
 40
0.0183198847624326
 40
0.0183198847624326
 40
0.1433198847624326
 40
0.1433198847624326
 40
0.1433198847624326
 10
-0.3319145908297543
 20
2.621844414103691
 30
0.0
 41
1.0
 10
-0.3319145908297543
 20
2.684344414103691
 30
0.0
 41
1.0
 10
-0.3319145908297543
 20
2.746844414103691
 30
0.0
 41
1.0
  0
SPLINE
  5
FA
330
1F
100
AcDbEntity
  8
2D DXF
370
    -3
100
AcDbSpline
210
0.0
220
0.0
230
1.0
 70
    12
 71
     2
 72
     8
 73
     5
 74
     0
 42
0.000000001
 43
0.0000000001
 40
0.0
 40
0.0
 40
0.0
 40
0.1656854249492389
 40
0.1656854249492389
 40
0.3313708498984846
 40
0.3313708498984846
 40
0.3313708498984846
 10
0.7980854091702696
 20
2.621844414103691
 30
0.0
 41
1.0
 10
0.8809281216448853
 20
2.621844414103681
 30
0.0
 41
0.8535533905932737
 10
0.9395067654075892
 20
2.563265770340994
 30
0.0
 41
0.8535533905932737
 10
0.9980854091702929
 20
2.504687126578307
 30
0.0
 41
0.8535533905932737
 10
0.9980854091702582
 20
2.421844414103688
 30
0.0
 41
1.0
  0
SPLINE
  5
FB
330
1F
100
AcDbEntity
  8
2D DXF
370
    -3
100
AcDbSpline
210
0.0
220
0.0
230
1.0
 70
    12
 71
     2
 72
     8
 73
     5
 74
     0
 42
0.000000001
 43
0.0000000001
 40
0.0
 40
0.0
 40
0.0
 40
0.1656854249492454
 40
0.1656854249492454
 40
0.3313708498984843
 40
0.3313708498984843
 40
0.3313708498984843
 10
0.9980854091702582
 20
0.2618444141036917
 30
0.0
 41
1.0
 10
0.9980854091702929
 20
0.1790017016290661
 30
0.0
 41
0.8535533905932737
 10
0.9395067654075892
 20
0.1204230578663706
 30
0.0
 41
0.8535533905932737
 10
0.8809281216448853
 20
0.0618444141036834
 30
0.0
 41
0.8535533905932737
 10
0.7980854091702696
 20
0.0618444141036889
 30
0.0
 41
1.0
  0
SPLINE
  5
FC
330
1F
100
AcDbEntity
  8
2D DXF
370
    -3
100
AcDbSpline
210
0.0
220
0.0
230
1.0
 70
    28
 71
     2
 72
     6
 73
     3
 74
     0
 42
0.000000001
 43
0.0000000001
 40
0.0438698847624333
 40
0.0438698847624333
 40
0.0438698847624333
 40
0.4243698847624376
 40
0.4243698847624376
 40
0.4243698847624376
 10
0.4175854091702575
 20
2.621844414103691
 30
0.0
 41
1.0
 10
0.6078354091702494
 20
2.621844414103691
 30
0.0
 41
1.0
 10
0.7980854091702412
 20
2.621844414103691
 30
0.0
 41
1.0
  0
SPLINE
  5
FD
330
1F
100
AcDbEntity
  8
2D DXF
370
    -3
100
AcDbSpline
210
0.0
220
0.0
230
1.0
 70
    28
 71
     2
 72
     8
 73
     5
 74
     0
 42
0.000000001
 43
0.0000000001
 40
0.0
 40
0.0
 40
0.0
 40
0.5568472978487908
 40
0.5568472978487908
 40
1.113694595697582
 40
1.113694595697582
 40
1.113694595697582
 10
-0.3564145908297434
 20
2.621844414103691
 30
0.0
 41
1.0
 10
-0.3564145908297487
 20
2.621844414103686
 30
0.0
 41
0.7071067811865476
 10
-0.0019145908297418
 20
2.621844414103691
 30
0.0
 41
1.0
 10
0.3525854091702555
 20
2.621844414103686
 30
0.0
 41
0.7071067811865476
 10
0.3525854091702598
 20
2.621844414103691
 30
0.0
 41
1.0
  0
LINE
  5
FE
330
1F
100
AcDbEntity
  8
2D DXF
370
    -3
100
AcDbLine
 10
-0.4214145908297411
 20
2.621844414103691
 30
0.0
 11
-0.4214145908297411
 21
0.0618444141036889
 31
0.0
  0
SPLINE
  5
FF
330
1F
100
AcDbEntity
  8
2D DXF
370
    -3
100
AcDbSpline
210
0.0
220
0.0
230
1.0
 70
    28
 71
     2
 72
     6
 73
     3
 74
     0
 42
0.000000001
 43
0.0000000001
 40
0.0438698847624333
 40
0.0438698847624333
 40
0.0438698847624333
 40
0.4243698847624412
 40
0.4243698847624412
 40
0.4243698847624412
 10
-0.4214145908297411
 20
0.0618444141036889
 30
0.0
 41
1.0
 10
-0.6116645908297471
 20
0.0618444141036889
 30
0.0
 41
1.0
 10
-0.8019145908297531
 20
0.0618444141036889
 30
0.0
 41
1.0
  0
LINE
  5
100
330
1F
100
AcDbEntity
  8
2D DXF
370
    -3
100
AcDbLine
 10
0.4175854091702575
 20
2.621844414103691
 30
0.0
 11
0.4175854091702575
 21
0.0618444141037031
 31
0.0
  0
SPLINE
  5
101
330
1F
100
AcDbEntity
  8
2D DXF
370
    -3
100
AcDbSpline
210
0.0
220
0.0
230
1.0
 70
    28
 71
     2
 72
     6
 73
     3
 74
     0
 42
0.000000001
 43
0.0000000001
 40
-0.4243698847624376
 40
-0.4243698847624376
 40
-0.4243698847624376
 40
-0.0438698847624333
 40
-0.0438698847624333
 40
-0.0438698847624333
 10
0.4175854091702575
 20
0.0618444141037031
 30
0.0
 41
1.0
 10
0.6078354091702636
 20
0.061844414103696
 30
0.0
 41
1.0
 10
0.7980854091702696
 20
0.0618444141036889
 30
0.0
 41
1.0
  0
LINE
  5
102
330
1F
100
AcDbEntity
  8
2D DXF
370
    -3
100
AcDbLine
 10
-0.3319145908297543
 20
2.746844414103691
 30
0.0
 11
0.3280854091702423
 21
2.746844414103691
 31
0.0
  0
SPLINE
  5
103
330
1F
100
AcDbEntity
  8
2D DXF
370
    -3
100
AcDbSpline
210
0.0
220
0.0
230
1.0
 70
    28
 71
     2
 72
     6
 73
     3
 74
     0
 42
0.000000001
 43
0.0000000001
 40
0.0183198847624326
 40
0.0183198847624326
 40
0.0183198847624326
 40
0.1433198847624326
 40
0.1433198847624326
 40
0.1433198847624326
 10
0.3280854091702423
 20
2.746844414103691
 30
0.0
 41
1.0
 10
0.3280854091702423
 20
2.684344414103691
 30
0.0
 41
1.0
 10
0.3280854091702423
 20
2.621844414103691
 30
0.0
 41
1.0
  0
LINE
  5
104
330
1F
100
AcDbEntity
  8
2D DXF
370
    -3
100
AcDbLine
 10
-1.001914590829742
 20
2.421844414103688
 30
0.0
 11
-1.001914590829742
 21
0.2618444141036775
 31
0.0
  0
LINE
  5
105
330
1F
100
AcDbEntity
  8
2D DXF
370
    -3
100
AcDbLine
 10
0.9980854091702582
 20
0.2618444141036775
 30
0.0
 11
0.9980854091702582
 21
2.421844414103688
 31
0.0
  0
SPLINE
  5
106
330
1F
100
AcDbEntity
  8
2D DXF
370
    -3
100
AcDbSpline
210
0.0
220
0.0
230
1.0
 70
    28
 71
     2
 72
     6
 73
     3
 74
     0
 42
0.000000001
 43
0.0000000001
 40
0.0438698847624298
 40
0.0438698847624298
 40
0.0438698847624298
 40
0.4243698847624376
 40
0.4243698847624376
 40
0.4243698847624376
 10
13.12492598495813
 20
2.621844414103691
 30
0.0
 41
1.0
 10
12.93467598495812
 20
2.621844414103691
 30
0.0
 41
1.0
 10
12.74442598495811
 20
2.621844414103691
 30
0.0
 41
1.0
  0
SPLINE
  5
107
330
1F
100
AcDbEntity
  8
2D DXF
370
    -3
100
AcDbSpline
210
0.0
220
0.0
230
1.0
 70
    12
 71
     2
 72
     8
 73
     5
 74
     0
 42
0.000000001
 43
0.0000000001
 40
0.0
 40
0.0
 40
0.0
 40
0.1656854249492369
 40
0.1656854249492369
 40
0.3313708498984772
 40
0.3313708498984772
 40
0.3313708498984772
 10
13.12492598495813
 20
0.0618444141036889
 30
0.0
 41
1.0
 10
13.20776869743274
 20
0.0618444141036834
 30
0.0
 41
0.8535533905932737
 10
13.26634734119544
 20
0.1204230578663706
 30
0.0
 41
0.8535533905932737
 10
13.32492598495811
 20
0.1790017016290661
 30
0.0
 41
0.8535533905932737
 10
13.32492598495811
 20
0.2618444141036917
 30
0.0
 41
1.0
  0
SPLINE
  5
108
330
1F
100
AcDbEntity
  8
2D DXF
370
    -3
100
AcDbSpline
210
0.0
220
0.0
230
1.0
 70
    12
 71
     2
 72
     8
 73
     5
 74
     0
 42
0.000000001
 43
0.0000000001
 40
0.0
 40
0.0
 40
0.0
 40
0.1656854249492368
 40
0.1656854249492368
 40
0.3313708498984775
 40
0.3313708498984775
 40
0.3313708498984775
 10
13.12492598495813
 20
2.621844414103691
 30
0.0
 41
1.0
 10
13.20776869743274
 20
2.621844414103681
 30
0.0
 41
0.8535533905932737
 10
13.26634734119544
 20
2.563265770340994
 30
0.0
 41
0.8535533905932737
 10
13.32492598495811
 20
2.504687126578307
 30
0.0
 41
0.8535533905932737
 10
13.32492598495811
 20
2.421844414103688
 30
0.0
 41
1.0
  0
SPLINE
  5
109
330
1F
100
AcDbEntity
  8
2D DXF
370
    -3
100
AcDbSpline
210
0.0
220
0.0
230
1.0
 70
    28
 71
     2
 72
     8
 73
     5
 74
     0
 42
0.000000001
 43
0.0000000001
 40
-1.113694595697582
 40
-1.113694595697582
 40
-1.113694595697582
 40
-0.5568472978487908
 40
-0.5568472978487908
 40
0.0
 40
0.0
 40
0.0
 10
12.67942598495812
 20
1.34184441410369
 30
0.0
 41
1.0
 10
12.67942598495813
 20
1.341844414103681
 30
0.0
 41
0.7071067811865476
 10
12.32492598495811
 20
1.34184441410369
 30
0.0
 41
1.0
 10
11.97042598495813
 20
1.341844414103691
 30
0.0
 41
0.7071067811865476
 10
11.97042598495811
 20
1.34184441410369
 30
0.0
 41
1.0
  0
SPLINE
  5
10A
330
1F
100
AcDbEntity
  8
2D DXF
370
    -3
100
AcDbSpline
210
0.0
220
0.0
230
1.0
 70
    24
 71
     2
 72
     6
 73
     3
 74
     0
 42
0.000000001
 43
0.0000000001
 40
-1.28
 40
-1.28
 40
-1.28
 40
0.0
 40
0.0
 40
0.0
 10
12.67942598495812
 20
2.621844414103691
 30
0.0
 10
12.67942598495812
 20
1.981844414103691
 30
0.0
 10
12.67942598495812
 20
1.34184441410369
 30
0.0
  0
SPLINE
  5
10B
330
1F
100
AcDbEntity
  8
2D DXF
370
    -3
100
AcDbSpline
210
0.0
220
0.0
230
1.0
 70
    24
 71
     2
 72
     6
 73
     3
 74
     0
 42
0.000000001
 43
0.0000000001
 40
-1.28
 40
-1.28
 40
-1.28
 40
0.0
 40
0.0
 40
0.0
 10
11.97042598495811
 20
1.34184441410369
 30
0.0
 10
11.97042598495811
 20
1.981844414103691
 30
0.0
 10
11.97042598495811
 20
2.621844414103691
 30
0.0
  0
SPLINE
  5
10C
330
1F
100
AcDbEntity
  8
2D DXF
370
    -3
100
AcDbSpline
210
0.0
220
0.0
230
1.0
 70
    28
 71
     2
 72
     6
 73
     3
 74
     0
 42
0.000000001
 43
0.0000000001
 40
0.0183198847624326
 40
0.0183198847624326
 40
0.0183198847624326
 40
0.1433198847624326
 40
0.1433198847624326
 40
0.1433198847624326
 10
12.65492598495813
 20
2.621844414103691
 30
0.0
 41
1.0
 10
12.65492598495813
 20
2.684344414103691
 30
0.0
 41
1.0
 10
12.65492598495813
 20
2.746844414103691
 30
0.0
 41
1.0
  0
SPLINE
  5
10D
330
1F
100
AcDbEntity
  8
2D DXF
370
    -3
100
AcDbSpline
210
0.0
220
0.0
230
1.0
 70
    12
 71
     2
 72
     8
 73
     5
 74
     0
 42
0.000000001
 43
0.0000000001
 40
0.0
 40
0.0
 40
0.0
 40
0.1656854249492389
 40
0.1656854249492389
 40
0.3313708498984846
 40
0.3313708498984846
 40
0.3313708498984846
 10
11.5249259849581
 20
2.621844414103691
 30
0.0
 41
1.0
 10
11.44208327248348
 20
2.621844414103681
 30
0.0
 41
0.8535533905932737
 10
11.38350462872081
 20
2.563265770340994
 30
0.0
 41
0.8535533905932737
 10
11.3249259849581
 20
2.504687126578307
 30
0.0
 41
0.8535533905932737
 10
11.32492598495811
 20
2.421844414103688
 30
0.0
 41
1.0
  0
SPLINE
  5
10E
330
1F
100
AcDbEntity
  8
2D DXF
370
    -3
100
AcDbSpline
210
0.0
220
0.0
230
1.0
 70
    12
 71
     2
 72
     8
 73
     5
 74
     0
 42
0.000000001
 43
0.0000000001
 40
0.0
 40
0.0
 40
0.0
 40
0.1656854249492454
 40
0.1656854249492454
 40
0.3313708498984843
 40
0.3313708498984843
 40
0.3313708498984843
 10
11.32492598495811
 20
0.2618444141036917
 30
0.0
 41
1.0
 10
11.3249259849581
 20
0.1790017016290661
 30
0.0
 41
0.8535533905932737
 10
11.38350462872081
 20
0.1204230578663706
 30
0.0
 41
0.8535533905932737
 10
11.44208327248348
 20
0.0618444141036834
 30
0.0
 41
0.8535533905932737
 10
11.5249259849581
 20
0.0618444141036889
 30
0.0
 41
1.0
  0
SPLINE
  5
10F
330
1F
100
AcDbEntity
  8
2D DXF
370
    -3
100
AcDbSpline
210
0.0
220
0.0
230
1.0
 70
    28
 71
     2
 72
     6
 73
     3
 74
     0
 42
0.000000001
 43
0.0000000001
 40
0.0438698847624333
 40
0.0438698847624333
 40
0.0438698847624333
 40
0.4243698847624376
 40
0.4243698847624376
 40
0.4243698847624376
 10
11.90542598495811
 20
2.621844414103691
 30
0.0
 41
1.0
 10
11.71517598495812
 20
2.621844414103691
 30
0.0
 41
1.0
 10
11.52492598495813
 20
2.621844414103691
 30
0.0
 41
1.0
  0
SPLINE
  5
110
330
1F
100
AcDbEntity
  8
2D DXF
370
    -3
100
AcDbSpline
210
0.0
220
0.0
230
1.0
 70
    28
 71
     2
 72
     8
 73
     5
 74
     0
 42
0.000000001
 43
0.0000000001
 40
0.0
 40
0.0
 40
0.0
 40
0.5568472978487908
 40
0.5568472978487908
 40
1.113694595697582
 40
1.113694595697582
 40
1.113694595697582
 10
12.67942598495812
 20
2.621844414103691
 30
0.0
 41
1.0
 10
12.67942598495813
 20
2.621844414103686
 30
0.0
 41
0.7071067811865476
 10
12.32492598495811
 20
2.621844414103691
 30
0.0
 41
1.0
 10
11.97042598495813
 20
2.621844414103686
 30
0.0
 41
0.7071067811865476
 10
11.97042598495811
 20
2.621844414103691
 30
0.0
 41
1.0
  0
LINE
  5
111
330
1F
100
AcDbEntity
  8
2D DXF
370
    -3
100
AcDbLine
 10
12.74442598495811
 20
2.621844414103691
 30
0.0
 11
12.74442598495811
 21
0.0618444141036889
 31
0.0
  0
SPLINE
  5
112
330
1F
100
AcDbEntity
  8
2D DXF
370
    -3
100
AcDbSpline
210
0.0
220
0.0
230
1.0
 70
    28
 71
     2
 72
     6
 73
     3
 74
     0
 42
0.000000001
 43
0.0000000001
 40
0.0438698847624333
 40
0.0438698847624333
 40
0.0438698847624333
 40
0.4243698847624412
 40
0.4243698847624412
 40
0.4243698847624412
 10
12.74442598495811
 20
0.0618444141036889
 30
0.0
 41
1.0
 10
12.93467598495812
 20
0.0618444141036889
 30
0.0
 41
1.0
 10
13.12492598495813
 20
0.0618444141036889
 30
0.0
 41
1.0
  0
LINE
  5
113
330
1F
100
AcDbEntity
  8
2D DXF
370
    -3
100
AcDbLine
 10
11.90542598495811
 20
2.621844414103691
 30
0.0
 11
11.90542598495811
 21
0.0618444141037031
 31
0.0
  0
SPLINE
  5
114
330
1F
100
AcDbEntity
  8
2D DXF
370
    -3
100
AcDbSpline
210
0.0
220
0.0
230
1.0
 70
    28
 71
     2
 72
     6
 73
     3
 74
     0
 42
0.000000001
 43
0.0000000001
 40
-0.4243698847624376
 40
-0.4243698847624376
 40
-0.4243698847624376
 40
-0.0438698847624333
 40
-0.0438698847624333
 40
-0.0438698847624333
 10
11.90542598495811
 20
0.0618444141037031
 30
0.0
 41
1.0
 10
11.71517598495811
 20
0.061844414103696
 30
0.0
 41
1.0
 10
11.5249259849581
 20
0.0618444141036889
 30
0.0
 41
1.0
  0
LINE
  5
115
330
1F
100
AcDbEntity
  8
2D DXF
370
    -3
100
AcDbLine
 10
12.65492598495813
 20
2.746844414103691
 30
0.0
 11
11.99492598495813
 21
2.746844414103691
 31
0.0
  0
SPLINE
  5
116
330
1F
100
AcDbEntity
  8
2D DXF
370
    -3
100
AcDbSpline
210
0.0
220
0.0
230
1.0
 70
    28
 71
     2
 72
     6
 73
     3
 74
     0
 42
0.000000001
 43
0.0000000001
 40
0.0183198847624326
 40
0.0183198847624326
 40
0.0183198847624326
 40
0.1433198847624326
 40
0.1433198847624326
 40
0.1433198847624326
 10
11.99492598495813
 20
2.746844414103691
 30
0.0
 41
1.0
 10
11.99492598495813
 20
2.684344414103691
 30
0.0
 41
1.0
 10
11.99492598495813
 20
2.621844414103691
 30
0.0
 41
1.0
  0
LINE
  5
117
330
1F
100
AcDbEntity
  8
2D DXF
370
    -3
100
AcDbLine
 10
13.32492598495811
 20
2.421844414103688
 30
0.0
 11
13.32492598495811
 21
0.2618444141036775
 31
0.0
  0
LINE
  5
118
330
1F
100
AcDbEntity
  8
2D DXF
370
    -3
100
AcDbLine
 10
11.32492598495811
 20
0.2618444141036775
 30
0.0
 11
11.32492598495811
 21
2.421844414103688
 31
0.0
  0
CIRCLE
  5
119
330
1F
100
AcDbEntity
  8
2D DXF
100
AcDbCircle
 10
19.40696234077497
 20
1.34184441410369
 30
0.0
 40
1.279999999999987
  0
LINE
  5
11A
330
1F
100
AcDbEntity
  8
2D DXF
370
    -3
100
AcDbLine
 10
19.40696234077497
 20
2.621844414103691
 30
0.0
 11
20.68696234077497
 21
2.621844414103691
 31
0.0
  0
SPLINE
  5
11B
330
1F
100
AcDbEntity
  8
2D DXF
370
    -3
100
AcDbSpline
210
0.0
220
0.0
230
1.0
 70
    28
 71
     2
 72
     6
 73
     3
 74
     0
 42
0.000000001
 43
0.0000000001
 40
-1.413819884762434
 40
-1.413819884762434
 40
-1.413819884762434
 40
-0.1338198847624337
 40
-0.1338198847624337
 40
-0.1338198847624337
 10
20.68696234077497
 20
2.621844414103691
 30
0.0
 41
1.0
 10
20.68696234077497
 20
1.981844414103691
 30
0.0
 41
1.0
 10
20.68696234077497
 20
1.34184441410369
 30
0.0
 41
1.0
  0
SPLINE
  5
11C
330
1F
100
AcDbEntity
  8
2D DXF
370
    -3
100
AcDbSpline
210
0.0
220
0.0
230
1.0
 70
     8
 71
     2
 72
    15
 73
    12
 74
     0
 42
0.000000001
 43
0.0000000001
 40
0.0
 40
0.0
 40
0.0
 40
1.0
 40
2.0
 40
3.0
 40
4.0
 40
5.0
 40
6.0
 40
7.0
 40
8.0
 40
9.0
 40
10.0
 40
10.0
 40
10.0
 10
-0.5361531086646067
 20
6.445604006496694
 30
0.0
 10
-0.4428829355055797
 20
6.301749408958131
 30
0.0
 10
-0.4422226048411204
 20
5.932591471192808
 30
0.0
 10
-0.4359407389226675
 20
5.575702035569861
 30
0.0
 10
-0.4224086627129822
 20
5.216917154518228
 30
0.0
 10
-0.4085501778940142
 20
4.858493567758828
 30
0.0
 10
-0.4049503018116098
 20
4.499762419507348
 30
0.0
 10
-0.4048534951949847
 20
4.141036239033497
 30
0.0
 10
-0.4048200592559539
 20
3.782307161535158
 30
0.0
 10
-0.40470940740137
 20
3.423586263479478
 30
0.0
 10
-0.4055589977862297
 20
3.064818815662932
 30
0.0
 10
-0.3960187982637962
 20
2.885646682127486
 30
0.0
  0
SPLINE
  5
11D
330
1F
100
AcDbEntity
  8
2D DXF
370
    -3
100
AcDbSpline
210
0.0
220
0.0
230
1.0
 70
    12
 71
     2
 72
     6
 73
     3
 74
     0
 42
0.000000001
 43
0.0000000001
 40
10.0
 40
10.0
 40
10.0
 40
10.04592583941051
 40
10.04592583941051
 40
10.04592583941051
 10
-0.3960187982637962
 20
2.885646682127486
 30
0.0
 41
1.0
 10
-0.3948679674655087
 20
2.85684441410339
 30
0.0
 41
0.7210840447539764
 10
-0.3660427172141993
 20
2.856844414103691
 30
0.0
 41
1.0
  0
LINE
  5
11E
330
1F
100
AcDbEntity
  8
2D DXF
370
    -3
100
AcDbLine
 10
-0.3660427172141993
 20
2.856844414103691
 30
0.0
 11
0.3622135355546021
 21
2.856844414103691
 31
0.0
  0
SPLINE
  5
11F
330
1F
100
AcDbEntity
  8
2D DXF
370
    -3
100
AcDbSpline
210
0.0
220
0.0
230
1.0
 70
    12
 71
     2
 72
     6
 73
     3
 74
     0
 42
0.000000001
 43
0.0000000001
 40
10.77418209217931
 40
10.77418209217931
 40
10.77418209217931
 40
10.82010793158981
 40
10.82010793158981
 40
10.82010793158981
 10
0.3622135355546021
 20
2.856844414103691
 30
0.0
 41
1.0
 10
0.3910387858059125
 20
2.85684441410339
 30
0.0
 41
0.7210840447539764
 10
0.3921896166041989
 20
2.885646682127486
 30
0.0
 41
1.0
  0
SPLINE
  5
120
330
1F
100
AcDbEntity
  8
2D DXF
370
    -3
100
AcDbSpline
210
0.0
220
0.0
230
1.0
 70
     8
 71
     2
 72
    15
 73
    12
 74
     0
 42
0.000000001
 43
0.0000000001
 40
10.82010793158981
 40
10.82010793158981
 40
10.82010793158981
 40
11.82010793158981
 40
12.82010793158981
 40
13.82010793158981
 40
14.82010793158981
 40
15.82010793158981
 40
16.82010793158981
 40
17.82010793158981
 40
18.82010793158981
 40
19.82010793158981
 40
20.82010793158981
 40
20.82010793158981
 40
20.82010793158981
 10
0.3921896166041989
 20
2.885646682127486
 30
0.0
 10
0.4017298161266325
 20
3.064818815662932
 30
0.0
 10
0.4008802257417727
 20
3.423586263479478
 30
0.0
 10
0.4009908775963567
 20
3.782307161535158
 30
0.0
 10
0.4010243135353875
 20
4.141036239033497
 30
0.0
 10
0.4011211201520126
 20
4.499762419507348
 30
0.0
 10
0.4047209962344169
 20
4.858493567758828
 30
0.0
 10
0.4185794810533849
 20
5.216917154518228
 30
0.0
 10
0.4321115572630703
 20
5.575702035569861
 30
0.0
 10
0.4383934231815232
 20
5.932591471192808
 30
0.0
 10
0.4390537538459824
 20
6.301749408958131
 30
0.0
 10
0.5323239270050095
 20
6.445604006496694
 30
0.0
  0
LINE
  5
121
330
1F
100
AcDbEntity
  8
2D DXF
370
    -3
100
AcDbLine
 10
0.7821320185953908
 20
7.915844414103688
 30
0.0
 11
0.7821320185953908
 21
14.04782371383369
 31
0.0
  0
SPLINE
  5
122
330
1F
100
AcDbEntity
  8
2D DXF
370
    -3
100
AcDbSpline
210
0.0
220
0.0
230
1.0
 70
    28
 71
     2
 72
     8
 73
     5
 74
     0
 42
0.000000001
 43
0.0000000001
 40
0.0
 40
0.0
 40
0.0
 40
1.236216709187584
 40
1.236216709187584
 40
2.472433418375168
 40
2.472433418375168
 40
2.472433418375168
 10
0.7821320185953908
 20
14.04782371383369
 30
0.0
 41
1.0
 10
0.7821320185953926
 20
14.04782371383368
 30
0.0
 41
0.7071067811865476
 10
-0.0048679814046153
 20
14.04782371383369
 30
0.0
 41
1.0
 10
-0.7918679814046001
 20
14.04782371383368
 30
0.0
 41
0.7071067811865476
 10
-0.7918679814046214
 20
14.04782371383369
 30
0.0
 41
1.0
  0
LINE
  5
123
330
1F
100
AcDbEntity
  8
2D DXF
370
    -3
100
AcDbLine
 10
-0.7918679814046214
 20
14.04782371383369
 30
0.0
 11
-0.791867981404593
 21
7.915844414103688
 31
0.0
  0
SPLINE
  5
124
330
1F
100
AcDbEntity
  8
2D DXF
370
    -3
100
AcDbSpline
210
0.0
220
0.0
230
1.0
 70
     8
 71
     2
 72
    23
 73
    20
 74
     0
 42
0.000000001
 43
0.0000000001
 40
-38.84594170572853
 40
-38.84594170572853
 40
-38.84594170572853
 40
-37.26997980929874
 40
-36.26997980929874
 40
-35.26997980929874
 40
-34.26997980929874
 40
-33.26997980929874
 40
-32.26997980929874
 40
-31.26997980929874
 40
-30.26997980929874
 40
-29.26997980929874
 40
-28.26997980929874
 40
-27.26997980929874
 40
-26.26997980929874
 40
-25.26997980929874
 40
-24.26997980929874
 40
-23.26997980929874
 40
-22.26997980929874
 40
-21.26997980929874
 40
-20.26997980929874
 40
-20.26997980929874
 40
-20.26997980929874
 10
-0.4385798607454916
 20
5.713201556945037
 30
0.0
 10
-0.9739605956263091
 20
5.720662138503712
 30
0.0
 10
-1.84857173580879
 20
5.698464853375071
 30
0.0
 10
-2.527024198507277
 20
5.662122146182796
 30
0.0
 10
-3.201910144800834
 20
5.584425920884854
 30
0.0
 10
-3.876411239240426
 20
5.504322199678853
 30
0.0
 10
-4.550956057545861
 20
5.424442670651445
 30
0.0
 10
-5.225414684013586
 20
5.343862134102395
 30
0.0
 10
-5.899743393186171
 20
5.262196423237597
 30
0.0
 10
-6.573867010788391
 20
5.178853396129568
 30
0.0
 10
-7.247689146049581
 20
5.093101470939544
 30
0.0
 10
-7.92106931319357
 20
5.003942591948885
 30
0.0
 10
-8.593797741047595
 20
4.909952814016194
 30
0.0
 10
-9.265478111127166
 20
4.808831528493172
 30
0.0
 10
-9.935564904984219
 20
4.696911304512156
 30
0.0
 10
-10.60136716327965
 20
4.564329689771398
 30
0.0
 10
-11.25423528667578
 20
4.358649891495674
 30
0.0
 10
-11.77575994552562
 20
3.898545905135506
 30
0.0
 10
-11.92447738473437
 20
3.222450846907435
 30
0.0
 10
-11.93616688831459
 20
2.883859285103796
 30
0.0
  0
SPLINE
  5
125
330
1F
100
AcDbEntity
  8
2D DXF
370
    -3
100
AcDbSpline
210
0.0
220
0.0
230
1.0
 70
    12
 71
     2
 72
     6
 73
     3
 74
     0
 42
0.000000001
 43
0.0000000001
 40
-20.26997980929874
 40
-20.26997980929874
 40
-20.26997980929874
 40
-20.22584613293352
 40
-20.22584613293352
 40
-20.22584613293352
 10
-11.93616688831459
 20
2.883859285103796
 30
0.0
 41
1.0
 10
-11.93886874374401
 20
2.85684466968145
 30
0.0
 41
0.7414578727663395
 10
-11.9660181354346
 20
2.856844629554359
 30
0.0
 41
1.0
  0
LINE
  5
126
330
1F
100
AcDbEntity
  8
2D DXF
370
    -3
100
AcDbLine
 10
-11.9660181354346
 20
2.856844629554359
 30
0.0
 11
-12.69940170295449
 21
2.856844554657158
 31
0.0
  0
SPLINE
  5
127
330
1F
100
AcDbEntity
  8
2D DXF
370
    -3
100
AcDbSpline
210
0.0
220
0.0
230
1.0
 70
    12
 71
     2
 72
     6
 73
     3
 74
     0
 42
0.000000001
 43
0.0000000001
 40
-19.16049027132598
 40
-19.16049027132598
 40
-19.16049027132598
 40
-19.12260831424509
 40
-19.12260831424509
 40
-19.12260831424509
 10
-12.69940170295449
 20
2.856844554657158
 30
0.0
 41
1.0
 10
-12.72133797537311
 20
2.856844414096364
 30
0.0
 41
0.8072217568360037
 10
-12.72798935875461
 20
2.877747981912634
 30
0.0
 41
1.0
  0
SPLINE
  5
128
330
1F
100
AcDbEntity
  8
2D DXF
370
    -3
100
AcDbSpline
210
0.0
220
0.0
230
1.0
 70
     8
 71
     2
 72
    23
 73
    20
 74
     0
 42
0.000000001
 43
0.0000000001
 40
-19.12260831424509
 40
-19.12260831424509
 40
-19.12260831424509
 40
-18.12260831424509
 40
-17.12260831424509
 40
-16.12260831424509
 40
-15.12260831424509
 40
-14.12260831424509
 40
-13.12260831424509
 40
-12.12260831424509
 40
-11.12260831424509
 40
-10.12260831424509
 40
-9.122608314245086
 40
-8.122608314245086
 40
-7.122608314245086
 40
-6.122608314245086
 40
-5.122608314245086
 40
-4.122608314245086
 40
-3.122608314245087
 40
-2.122608314245087
 40
-1.122608314245087
 40
-1.122608314245087
 40
-1.122608314245087
 10
-12.72798935875461
 20
2.877747981912634
 30
0.0
 10
-12.7803543628166
 20
3.234372222302852
 30
0.0
 10
-12.70497466501122
 20
3.958445145205488
 30
0.0
 10
-12.42220323708763
 20
4.635946816487575
 30
0.0
 10
-11.82091248720648
 20
5.059044549356372
 30
0.0
 10
-11.15074494146127
 20
5.330065982319653
 30
0.0
 10
-10.45644816322321
 20
5.531002639882075
 30
0.0
 10
-9.753321076382136
 20
5.696798131777214
 30
0.0
 10
-9.046035439477308
 20
5.843700533421782
 30
0.0
 10
-8.336560493089323
 20
5.979531146161506
 30
0.0
 10
-7.625947194041643
 20
6.109244364820242
 30
0.0
 10
-6.914624494083327
 20
6.235000714057165
 30
0.0
 10
-6.202844981680371
 20
6.358141208481555
 30
0.0
 10
-5.490769366645978
 20
6.479554734208079
 30
0.0
 10
-4.778519335418352
 20
6.599942783078419
 30
0.0
 10
-4.066212922434531
 20
6.719988251088353
 30
0.0
 10
-3.353924853774728
 20
6.840189882042324
 30
0.0
 10
-2.64209326619563
 20
6.962804954371848
 30
0.0
 10
-1.929377563636066
 20
7.081786922084561
 30
0.0
 10
-1.577881647925594
 20
7.164944874092669
 30
0.0
  0
SPLINE
  5
129
330
1F
100
AcDbEntity
  8
2D DXF
370
    -3
100
AcDbSpline
210
0.0
220
0.0
230
1.0
 70
     8
 71
     3
 72
    10
 73
     6
 74
     0
 42
0.000000001
 43
0.0000000001
 40
-1.122608314245087
 40
-1.122608314245087
 40
-1.122608314245087
 40
-1.122608314245087
 40
-0.7124515631383728
 40
-0.5073731875850158
 40
-0.3022948120316587
 40
-0.3022948120316587
 40
-0.3022948120316587
 40
-0.3022948120316587
 10
-1.577881647925594
 20
7.164944874092669
 30
0.0
 10
-1.421187857098616
 20
7.208125777991683
 30
0.0
 10
-1.238764267972599
 20
7.286594695500682
 30
0.0
 10
-1.075623857401595
 20
7.468202650917689
 30
0.0
 10
-1.016560140543604
 20
7.592932140773684
 30
0.0
 10
-0.9916072728617991
 20
7.665844414103688
 30
0.0
  0
SPLINE
  5
12A
330
1F
100
AcDbEntity
  8
2D DXF
370
    -3
100
AcDbSpline
210
0.0
220
0.0
230
1.0
 70
     8
 71
     3
 72
     8
 73
     4
 74
     0
 42
0.000000001
 43
0.0000000001
 40
-0.3022948120316587
 40
-0.3022948120316587
 40
-0.3022948120316587
 40
-0.3022948120316587
 40
-0.1094141667980504
 40
-0.1094141667980504
 40
-0.1094141667980504
 40
-0.1094141667980504
 10
-0.9916072728617991
 20
7.665844414103688
 30
0.0
 10
-0.9725772036139944
 20
7.721450271842684
 30
0.0
 10
-0.9562103679514138
 20
7.783190789400692
 30
0.0
 10
-0.942042074541817
 20
7.851982444722694
 30
0.0
  0
SPLINE
  5
12B
330
1F
100
AcDbEntity
  8
2D DXF
370
    -3
100
AcDbSpline
210
0.0
220
0.0
230
1.0
 70
    12
 71
     2
 72
     6
 73
     3
 74
     0
 42
0.000000001
 43
0.0000000001
 40
-0.1094141667980504
 40
-0.1094141667980504
 40
-0.1094141667980504
 40
0.0
 40
0.0
 40
0.0
 10
-0.942042074541817
 20
7.851982444722694
 30
0.0
 41
1.0
 10
-0.9288890945760513
 20
7.915844409045782
 30
0.0
 41
0.775153375102519
 10
-0.8636867068253906
 20
7.915844414103688
 30
0.0
 41
1.0
  0
LINE
  5
12C
330
1F
100
AcDbEntity
  8
2D DXF
370
    -3
100
AcDbLine
 10
-0.8636867068253906
 20
7.915844414103688
 30
0.0
 11
0.8598575251657934
 21
7.915844414103688
 31
0.0
  0
SPLINE
  5
12D
330
1F
100
AcDbEntity
  8
2D DXF
370
    -3
100
AcDbSpline
210
0.0
220
0.0
230
1.0
 70
    12
 71
     2
 72
     6
 73
     3
 74
     0
 42
0.000000001
 43
0.0000000001
 40
1.723544231991184
 40
1.723544231991184
 40
1.723544231991184
 40
1.832958398789234
 40
1.832958398789234
 40
1.832958398789234
 10
0.8598575251657934
 20
7.915844414103688
 30
0.0
 41
1.0
 10
0.9250599129164687
 20
7.915844409045782
 30
0.0
 41
0.775153375102519
 10
0.9382128928822198
 20
7.851982444722694
 30
0.0
 41
1.0
  0
SPLINE
  5
12E
330
1F
100
AcDbEntity
  8
2D DXF
370
    -3
100
AcDbSpline
210
0.0
220
0.0
230
1.0
 70
     8
 71
     3
 72
     8
 73
     4
 74
     0
 42
0.000000001
 43
0.0000000001
 40
1.832958398789234
 40
1.832958398789234
 40
1.832958398789234
 40
1.832958398789234
 40
2.025839044022843
 40
2.025839044022843
 40
2.025839044022843
 40
2.025839044022843
 10
0.9382128928822198
 20
7.851982444722694
 30
0.0
 10
0.9523811862918166
 20
7.783190789400692
 30
0.0
 10
0.9687480219543971
 20
7.721450271842684
 30
0.0
 10
0.9877780912022018
 20
7.665844414103688
 30
0.0
  0
SPLINE
  5
12F
330
1F
100
AcDbEntity
  8
2D DXF
370
    -3
100
AcDbSpline
210
0.0
220
0.0
230
1.0
 70
     8
 71
     3
 72
    10
 73
     6
 74
     0
 42
0.000000001
 43
0.0000000001
 40
2.025839044022843
 40
2.025839044022843
 40
2.025839044022843
 40
2.025839044022843
 40
2.2309174195762
 40
2.435995795129557
 40
2.846152546236271
 40
2.846152546236271
 40
2.846152546236271
 40
2.846152546236271
 10
0.9877780912022018
 20
7.665844414103688
 30
0.0
 10
1.012730958884006
 20
7.592932140773684
 30
0.0
 10
1.071794675741998
 20
7.468202650917689
 30
0.0
 10
1.234935086313001
 20
7.286594695500682
 30
0.0
 10
1.417358675439019
 20
7.208125777991683
 30
0.0
 10
1.574052466265996
 20
7.164944874092669
 30
0.0
  0
SPLINE
  5
130
330
1F
100
AcDbEntity
  8
2D DXF
370
    -3
100
AcDbSpline
210
0.0
220
0.0
230
1.0
 70
     8
 71
     2
 72
    23
 73
    20
 74
     0
 42
0.000000001
 43
0.0000000001
 40
2.846152546236271
 40
2.846152546236271
 40
2.846152546236271
 40
3.846152546236271
 40
4.84615254623627
 40
5.84615254623627
 40
6.84615254623627
 40
7.84615254623627
 40
8.84615254623627
 40
9.84615254623627
 40
10.84615254623627
 40
11.84615254623627
 40
12.84615254623627
 40
13.84615254623627
 40
14.84615254623627
 40
15.84615254623627
 40
16.84615254623627
 40
17.84615254623627
 40
18.84615254623627
 40
19.84615254623627
 40
20.84615254623627
 40
20.84615254623627
 40
20.84615254623627
 10
1.574052466265996
 20
7.164944874092669
 30
0.0
 10
1.925548381976469
 20
7.081786922084561
 30
0.0
 10
2.638264084536033
 20
6.962804954371848
 30
0.0
 10
3.350095672115131
 20
6.840189882042324
 30
0.0
 10
4.062383740774933
 20
6.719988251088353
 30
0.0
 10
4.774690153758755
 20
6.599942783078419
 30
0.0
 10
5.486940184986381
 20
6.479554734208079
 30
0.0
 10
6.199015800020774
 20
6.358141208481555
 30
0.0
 10
6.91079531242373
 20
6.235000714057165
 30
0.0
 10
7.622118012382046
 20
6.109244364820242
 30
0.0
 10
8.332731311429725
 20
5.979531146161506
 30
0.0
 10
9.04220625781771
 20
5.843700533421782
 30
0.0
 10
9.749491894722539
 20
5.696798131777214
 30
0.0
 10
10.45261898156362
 20
5.531002639882075
 30
0.0
 10
11.14691575980167
 20
5.330065982319653
 30
0.0
 10
11.81708330554689
 20
5.059044549356372
 30
0.0
 10
12.41837405542803
 20
4.635946816487575
 30
0.0
 10
12.70114548335162
 20
3.958445145205488
 30
0.0
 10
12.776525181157
 20
3.234372222302852
 30
0.0
 10
12.72416017709502
 20
2.877747981912634
 30
0.0
  0
SPLINE
  5
131
330
1F
100
AcDbEntity
  8
2D DXF
370
    -3
100
AcDbSpline
210
0.0
220
0.0
230
1.0
 70
    12
 71
     2
 72
     6
 73
     3
 74
     0
 42
0.000000001
 43
0.0000000001
 40
20.84615254623627
 40
20.84615254623627
 40
20.84615254623627
 40
20.88403450331716
 40
20.88403450331716
 40
20.88403450331716
 10
12.72416017709502
 20
2.877747981912634
 30
0.0
 41
1.0
 10
12.7175087937135
 20
2.856844414096364
 30
0.0
 41
0.8072217568360037
 10
12.69557252129489
 20
2.856844554657158
 30
0.0
 41
1.0
  0
LINE
  5
132
330
1F
100
AcDbEntity
  8
2D DXF
370
    -3
100
AcDbLine
 10
12.69557252129489
 20
2.856844554657158
 30
0.0
 11
11.962188953775
 21
2.856844629554359
 31
0.0
  0
SPLINE
  5
133
330
1F
100
AcDbEntity
  8
2D DXF
370
    -3
100
AcDbSpline
210
0.0
220
0.0
230
1.0
 70
    12
 71
     2
 72
     6
 73
     3
 74
     0
 42
0.000000001
 43
0.0000000001
 40
21.9493903649247
 40
21.9493903649247
 40
21.9493903649247
 40
21.99352404128992
 40
21.99352404128992
 40
21.99352404128992
 10
11.962188953775
 20
2.856844629554359
 30
0.0
 41
1.0
 10
11.93503956208445
 20
2.85684466968145
 30
0.0
 41
0.7414578727663395
 10
11.93233770665499
 20
2.883859285103796
 30
0.0
 41
1.0
  0
SPLINE
  5
134
330
1F
100
AcDbEntity
  8
2D DXF
370
    -3
100
AcDbSpline
210
0.0
220
0.0
230
1.0
 70
     8
 71
     2
 72
    23
 73
    20
 74
     0
 42
0.000000001
 43
0.0000000001
 40
21.99352404128992
 40
21.99352404128992
 40
21.99352404128992
 40
22.99352404128992
 40
23.99352404128992
 40
24.99352404128992
 40
25.99352404128992
 40
26.99352404128992
 40
27.99352404128992
 40
28.99352404128992
 40
29.99352404128992
 40
30.99352404128992
 40
31.99352404128992
 40
32.99352404128992
 40
33.99352404128992
 40
34.99352404128992
 40
35.99352404128992
 40
36.99352404128992
 40
37.99352404128992
 40
38.99352404128992
 40
40.56948593771971
 40
40.56948593771971
 40
40.56948593771971
 10
11.93233770665499
 20
2.883859285103796
 30
0.0
 10
11.92064820307478
 20
3.222450846907435
 30
0.0
 10
11.77193076386602
 20
3.898545905135506
 30
0.0
 10
11.25040610501618
 20
4.358649891495674
 30
0.0
 10
10.59753798162005
 20
4.564329689771398
 30
0.0
 10
9.931735723324621
 20
4.696911304512156
 30
0.0
 10
9.261648929467569
 20
4.808831528493172
 30
0.0
 10
8.589968559387998
 20
4.909952814016194
 30
0.0
 10
7.917240131533973
 20
5.003942591948885
 30
0.0
 10
7.243859964389983
 20
5.093101470939544
 30
0.0
 10
6.570037829128793
 20
5.178853396129568
 30
0.0
 10
5.895914211526573
 20
5.262196423237597
 30
0.0
 10
5.221585502353989
 20
5.343862134102395
 30
0.0
 10
4.547126875886264
 20
5.424442670651445
 30
0.0
 10
3.872582057580829
 20
5.504322199678853
 30
0.0
 10
3.198080963141237
 20
5.584425920884854
 30
0.0
 10
2.52319501684768
 20
5.662122146182796
 30
0.0
 10
1.844742554149192
 20
5.698464853375071
 30
0.0
 10
0.9701314139667119
 20
5.720662138503712
 30
0.0
 10
0.4347506790858944
 20
5.713201556945037
 30
0.0
  0
LINE
  5
135
330
1F
100
AcDbEntity
  8
2D DXF
370
    -3
100
AcDbLine
 10
0.5461320185954008
 20
14.9337233952848
 30
0.0
 11
0.5461320185954008
 21
14.04782371383369
 31
0.0
  0
LINE
  5
136
330
1F
100
AcDbEntity
  8
2D DXF
370
    -3
100
AcDbLine
 10
-0.555867981404603
 20
14.04782371383369
 30
0.0
 11
-0.555867981404603
 21
14.9337234768264
 31
0.0
  0
SPLINE
  5
137
330
1F
100
AcDbEntity
  8
2D DXF
370
    -3
100
AcDbSpline
210
0.0
220
0.0
230
1.0
 70
     8
 71
     2
 72
    15
 73
    12
 74
     0
 42
0.000000001
 43
0.0000000001
 40
0.0
 40
0.0
 40
0.0
 40
1.0
 40
2.0
 40
3.0
 40
4.0
 40
5.0
 40
6.0
 40
7.0
 40
8.0
 40
9.0
 40
10.0
 40
10.0
 40
10.0
 10
32.12322382294006
 20
6.445604006496694
 30
0.0
 10
32.21649399609909
 20
6.301749408958131
 30
0.0
 10
32.21715432676355
 20
5.932591471192808
 30
0.0
 10
32.223436192682
 20
5.575702035569861
 30
0.0
 10
32.23696826889169
 20
5.216917154518228
 30
0.0
 10
32.25082675371065
 20
4.858493567758828
 30
0.0
 10
32.25442662979306
 20
4.499762419507348
 30
0.0
 10
32.25452343640966
 20
4.141036239033497
 30
0.0
 10
32.25455687234869
 20
3.782307161535158
 30
0.0
 10
32.2546675242033
 20
3.423586263479478
 30
0.0
 10
32.25381793381841
 20
3.064818815662932
 30
0.0
 10
32.26335813334087
 20
2.885646682127486
 30
0.0
  0
SPLINE
  5
138
330
1F
100
AcDbEntity
  8
2D DXF
370
    -3
100
AcDbSpline
210
0.0
220
0.0
230
1.0
 70
    12
 71
     2
 72
     6
 73
     3
 74
     0
 42
0.000000001
 43
0.0000000001
 40
10.0
 40
10.0
 40
10.0
 40
10.04592583941051
 40
10.04592583941051
 40
10.04592583941051
 10
32.26335813334087
 20
2.885646682127486
 30
0.0
 41
1.0
 10
32.26450896413918
 20
2.85684441410339
 30
0.0
 41
0.7210840447539764
 10
32.29333421439047
 20
2.856844414103691
 30
0.0
 41
1.0
  0
LINE
  5
139
330
1F
100
AcDbEntity
  8
2D DXF
370
    -3
100
AcDbLine
 10
32.29333421439047
 20
2.856844414103691
 30
0.0
 11
33.02159046715927
 21
2.856844414103691
 31
0.0
  0
SPLINE
  5
13A
330
1F
100
AcDbEntity
  8
2D DXF
370
    -3
100
AcDbSpline
210
0.0
220
0.0
230
1.0
 70
    12
 71
     2
 72
     6
 73
     3
 74
     0
 42
0.000000001
 43
0.0000000001
 40
10.77418209217931
 40
10.77418209217931
 40
10.77418209217931
 40
10.82010793158981
 40
10.82010793158981
 40
10.82010793158981
 10
33.02159046715927
 20
2.856844414103691
 30
0.0
 41
1.0
 10
33.0504157174106
 20
2.85684441410339
 30
0.0
 41
0.7210840447539764
 10
33.05156654820887
 20
2.885646682127486
 30
0.0
 41
1.0
  0
SPLINE
  5
13B
330
1F
100
AcDbEntity
  8
2D DXF
370
    -3
100
AcDbSpline
210
0.0
220
0.0
230
1.0
 70
     8
 71
     2
 72
    15
 73
    12
 74
     0
 42
0.000000001
 43
0.0000000001
 40
10.82010793158981
 40
10.82010793158981
 40
10.82010793158981
 40
11.82010793158981
 40
12.82010793158981
 40
13.82010793158981
 40
14.82010793158981
 40
15.82010793158981
 40
16.82010793158981
 40
17.82010793158981
 40
18.82010793158981
 40
19.82010793158981
 40
20.82010793158981
 40
20.82010793158981
 40
20.82010793158981
 10
33.05156654820887
 20
2.885646682127486
 30
0.0
 10
33.06110674773133
 20
3.064818815662932
 30
0.0
 10
33.06025715734644
 20
3.423586263479478
 30
0.0
 10
33.06036780920105
 20
3.782307161535158
 30
0.0
 10
33.06040124514008
 20
4.141036239033497
 30
0.0
 10
33.06049805175668
 20
4.499762419507348
 30
0.0
 10
33.06409792783909
 20
4.858493567758828
 30
0.0
 10
33.07795641265805
 20
5.216917154518228
 30
0.0
 10
33.09148848886774
 20
5.575702035569861
 30
0.0
 10
33.09777035478619
 20
5.932591471192808
 30
0.0
 10
33.09843068545065
 20
6.301749408958131
 30
0.0
 10
33.19170085860968
 20
6.445604006496694
 30
0.0
  0
LINE
  5
13C
330
1F
100
AcDbEntity
  8
2D DXF
370
    -3
100
AcDbLine
 10
33.44150895020006
 20
7.915844414103688
 30
0.0
 11
33.44150895020006
 21
14.04782371383369
 31
0.0
  0
SPLINE
  5
13D
330
1F
100
AcDbEntity
  8
2D DXF
370
    -3
100
AcDbSpline
210
0.0
220
0.0
230
1.0
 70
    28
 71
     2
 72
     8
 73
     5
 74
     0
 42
0.000000001
 43
0.0000000001
 40
0.0
 40
0.0
 40
0.0
 40
1.236216709187584
 40
1.236216709187584
 40
2.472433418375168
 40
2.472433418375168
 40
2.472433418375168
 10
33.44150895020006
 20
14.04782371383369
 30
0.0
 41
1.0
 10
33.44150895020009
 20
14.04782371383368
 30
0.0
 41
0.7071067811865476
 10
32.65450895020005
 20
14.04782371383369
 30
0.0
 41
1.0
 10
31.86750895020005
 20
14.04782371383368
 30
0.0
 41
0.7071067811865476
 10
31.86750895020008
 20
14.04782371383369
 30
0.0
 41
1.0
  0
LINE
  5
13E
330
1F
100
AcDbEntity
  8
2D DXF
370
    -3
100
AcDbLine
 10
31.86750895020008
 20
14.04782371383369
 30
0.0
 11
31.86750895020008
 21
7.915844414103688
 31
0.0
  0
SPLINE
  5
13F
330
1F
100
AcDbEntity
  8
2D DXF
370
    -3
100
AcDbSpline
210
0.0
220
0.0
230
1.0
 70
     8
 71
     2
 72
    23
 73
    20
 74
     0
 42
0.000000001
 43
0.0000000001
 40
-38.84594170572853
 40
-38.84594170572853
 40
-38.84594170572853
 40
-37.26997980929874
 40
-36.26997980929874
 40
-35.26997980929874
 40
-34.26997980929874
 40
-33.26997980929874
 40
-32.26997980929874
 40
-31.26997980929874
 40
-30.26997980929874
 40
-29.26997980929874
 40
-28.26997980929874
 40
-27.26997980929874
 40
-26.26997980929874
 40
-25.26997980929874
 40
-24.26997980929874
 40
-23.26997980929874
 40
-22.26997980929874
 40
-21.26997980929874
 40
-20.26997980929874
 40
-20.26997980929874
 40
-20.26997980929874
 10
32.22079707085918
 20
5.713201556945037
 30
0.0
 10
31.68541633597839
 20
5.720662138503712
 30
0.0
 10
30.81080519579588
 20
5.698464853375071
 30
0.0
 10
30.13235273309736
 20
5.662122146182796
 30
0.0
 10
29.45746678680383
 20
5.584425920884854
 30
0.0
 10
28.78296569236424
 20
5.504322199678853
 30
0.0
 10
28.10842087405881
 20
5.424442670651445
 30
0.0
 10
27.43396224759108
 20
5.343862134102395
 30
0.0
 10
26.7596335384185
 20
5.262196423237597
 30
0.0
 10
26.08550992081628
 20
5.178853396129568
 30
0.0
 10
25.41168778555509
 20
5.093101470939544
 30
0.0
 10
24.7383076184111
 20
5.003942591948885
 30
0.0
 10
24.0655791905571
 20
4.909952814016194
 30
0.0
 10
23.3938988204775
 20
4.808831528493172
 30
0.0
 10
22.72381202662045
 20
4.696911304512156
 30
0.0
 10
22.05800976832502
 20
4.564329689771398
 30
0.0
 10
21.40514164492889
 20
4.358649891495674
 30
0.0
 10
20.88361698607905
 20
3.898545905135506
 30
0.0
 10
20.7348995468703
 20
3.222450846907435
 30
0.0
 10
20.72321004329008
 20
2.883859285103796
 30
0.0
  0
SPLINE
  5
140
330
1F
100
AcDbEntity
  8
2D DXF
370
    -3
100
AcDbSpline
210
0.0
220
0.0
230
1.0
 70
    12
 71
     2
 72
     6
 73
     3
 74
     0
 42
0.000000001
 43
0.0000000001
 40
-20.26997980929874
 40
-20.26997980929874
 40
-20.26997980929874
 40
-20.22584613293352
 40
-20.22584613293352
 40
-20.22584613293352
 10
20.72321004329008
 20
2.883859285103796
 30
0.0
 41
1.0
 10
20.72050818786066
 20
2.85684466968145
 30
0.0
 41
0.7414578727663395
 10
20.69335879617007
 20
2.856844629554359
 30
0.0
 41
1.0
  0
LINE
  5
141
330
1F
100
AcDbEntity
  8
2D DXF
370
    -3
100
AcDbLine
 10
20.69335879617007
 20
2.856844629554359
 30
0.0
 11
19.95997522865018
 21
2.856844554657158
 31
0.0
  0
SPLINE
  5
142
330
1F
100
AcDbEntity
  8
2D DXF
370
    -3
100
AcDbSpline
210
0.0
220
0.0
230
1.0
 70
    12
 71
     2
 72
     6
 73
     3
 74
     0
 42
0.000000001
 43
0.0000000001
 40
-19.16049027132598
 40
-19.16049027132598
 40
-19.16049027132598
 40
-19.12260831424509
 40
-19.12260831424509
 40
-19.12260831424509
 10
19.95997522865018
 20
2.856844554657158
 30
0.0
 41
1.0
 10
19.93803895623157
 20
2.856844414096364
 30
0.0
 41
0.8072217568360037
 10
19.93138757285006
 20
2.877747981912634
 30
0.0
 41
1.0
  0
SPLINE
  5
143
330
1F
100
AcDbEntity
  8
2D DXF
370
    -3
100
AcDbSpline
210
0.0
220
0.0
230
1.0
 70
     8
 71
     2
 72
    23
 73
    20
 74
     0
 42
0.000000001
 43
0.0000000001
 40
-19.12260831424509
 40
-19.12260831424509
 40
-19.12260831424509
 40
-18.12260831424509
 40
-17.12260831424509
 40
-16.12260831424509
 40
-15.12260831424509
 40
-14.12260831424509
 40
-13.12260831424509
 40
-12.12260831424509
 40
-11.12260831424509
 40
-10.12260831424509
 40
-9.122608314245086
 40
-8.122608314245086
 40
-7.122608314245086
 40
-6.122608314245086
 40
-5.122608314245086
 40
-4.122608314245086
 40
-3.122608314245087
 40
-2.122608314245087
 40
-1.122608314245087
 40
-1.122608314245087
 40
-1.122608314245087
 10
19.93138757285006
 20
2.877747981912634
 30
0.0
 10
19.87902256878807
 20
3.234372222302852
 30
0.0
 10
19.95440226659345
 20
3.958445145205488
 30
0.0
 10
20.23717369451704
 20
4.635946816487575
 30
0.0
 10
20.83846444439818
 20
5.059044549356372
 30
0.0
 10
21.5086319901434
 20
5.330065982319653
 30
0.0
 10
22.20292876838145
 20
5.531002639882075
 30
0.0
 10
22.9060558552225
 20
5.696798131777214
 30
0.0
 10
23.61334149212736
 20
5.843700533421782
 30
0.0
 10
24.32281643851535
 20
5.979531146161506
 30
0.0
 10
25.03342973756303
 20
6.109244364820242
 30
0.0
 10
25.74475243752134
 20
6.235000714057165
 30
0.0
 10
26.4565319499243
 20
6.358141208481555
 30
0.0
 10
27.16860756495869
 20
6.479554734208079
 30
0.0
 10
27.88085759618632
 20
6.599942783078419
 30
0.0
 10
28.59316400917014
 20
6.719988251088353
 30
0.0
 10
29.30545207782994
 20
6.840189882042324
 30
0.0
 10
30.01728366540901
 20
6.962804954371848
 30
0.0
 10
30.7299993679686
 20
7.081786922084561
 30
0.0
 10
31.08149528367908
 20
7.164944874092669
 30
0.0
  0
SPLINE
  5
144
330
1F
100
AcDbEntity
  8
2D DXF
370
    -3
100
AcDbSpline
210
0.0
220
0.0
230
1.0
 70
     8
 71
     3
 72
    10
 73
     6
 74
     0
 42
0.000000001
 43
0.0000000001
 40
-1.122608314245087
 40
-1.122608314245087
 40
-1.122608314245087
 40
-1.122608314245087
 40
-0.7124515631383728
 40
-0.5073731875850158
 40
-0.3022948120316587
 40
-0.3022948120316587
 40
-0.3022948120316587
 40
-0.3022948120316587
 10
31.08149528367908
 20
7.164944874092669
 30
0.0
 10
31.23818907450605
 20
7.208125777991683
 30
0.0
 10
31.42061266363207
 20
7.286594695500682
 30
0.0
 10
31.58375307420307
 20
7.468202650917689
 30
0.0
 10
31.64281679106107
 20
7.592932140773684
 30
0.0
 10
31.66776965874287
 20
7.665844414103688
 30
0.0
  0
SPLINE
  5
145
330
1F
100
AcDbEntity
  8
2D DXF
370
    -3
100
AcDbSpline
210
0.0
220
0.0
230
1.0
 70
     8
 71
     3
 72
     8
 73
     4
 74
     0
 42
0.000000001
 43
0.0000000001
 40
-0.3022948120316587
 40
-0.3022948120316587
 40
-0.3022948120316587
 40
-0.3022948120316587
 40
-0.1094141667980504
 40
-0.1094141667980504
 40
-0.1094141667980504
 40
-0.1094141667980504
 10
31.66776965874287
 20
7.665844414103688
 30
0.0
 10
31.68679972799067
 20
7.721450271842684
 30
0.0
 10
31.70316656365326
 20
7.783190789400692
 30
0.0
 10
31.71733485706288
 20
7.851982444722694
 30
0.0
  0
SPLINE
  5
146
330
1F
100
AcDbEntity
  8
2D DXF
370
    -3
100
AcDbSpline
210
0.0
220
0.0
230
1.0
 70
    12
 71
     2
 72
     6
 73
     3
 74
     0
 42
0.000000001
 43
0.0000000001
 40
-0.1094141667980504
 40
-0.1094141667980504
 40
-0.1094141667980504
 40
0.0
 40
0.0
 40
0.0
 10
31.71733485706288
 20
7.851982444722694
 30
0.0
 41
1.0
 10
31.73048783702867
 20
7.915844409045782
 30
0.0
 41
0.775153375102519
 10
31.79569022477928
 20
7.915844414103688
 30
0.0
 41
1.0
  0
LINE
  5
147
330
1F
100
AcDbEntity
  8
2D DXF
370
    -3
100
AcDbLine
 10
31.79569022477928
 20
7.915844414103688
 30
0.0
 11
33.51923445677046
 21
7.915844414103688
 31
0.0
  0
SPLINE
  5
148
330
1F
100
AcDbEntity
  8
2D DXF
370
    -3
100
AcDbSpline
210
0.0
220
0.0
230
1.0
 70
    12
 71
     2
 72
     6
 73
     3
 74
     0
 42
0.000000001
 43
0.0000000001
 40
1.723544231991184
 40
1.723544231991184
 40
1.723544231991184
 40
1.832958398789234
 40
1.832958398789234
 40
1.832958398789234
 10
33.51923445677046
 20
7.915844414103688
 30
0.0
 41
1.0
 10
33.58443684452111
 20
7.915844409045782
 30
0.0
 41
0.775153375102519
 10
33.59758982448686
 20
7.851982444722694
 30
0.0
 41
1.0
  0
SPLINE
  5
149
330
1F
100
AcDbEntity
  8
2D DXF
370
    -3
100
AcDbSpline
210
0.0
220
0.0
230
1.0
 70
     8
 71
     3
 72
     8
 73
     4
 74
     0
 42
0.000000001
 43
0.0000000001
 40
1.832958398789234
 40
1.832958398789234
 40
1.832958398789234
 40
1.832958398789234
 40
2.025839044022843
 40
2.025839044022843
 40
2.025839044022843
 40
2.025839044022843
 10
33.59758982448686
 20
7.851982444722694
 30
0.0
 10
33.61175811789649
 20
7.783190789400692
 30
0.0
 10
33.62812495355907
 20
7.721450271842684
 30
0.0
 10
33.64715502280687
 20
7.665844414103688
 30
0.0
  0
SPLINE
  5
14A
330
1F
100
AcDbEntity
  8
2D DXF
370
    -3
100
AcDbSpline
210
0.0
220
0.0
230
1.0
 70
     8
 71
     3
 72
    10
 73
     6
 74
     0
 42
0.000000001
 43
0.0000000001
 40
2.025839044022843
 40
2.025839044022843
 40
2.025839044022843
 40
2.025839044022843
 40
2.2309174195762
 40
2.435995795129557
 40
2.846152546236271
 40
2.846152546236271
 40
2.846152546236271
 40
2.846152546236271
 10
33.64715502280687
 20
7.665844414103688
 30
0.0
 10
33.67210789048868
 20
7.592932140773684
 30
0.0
 10
33.73117160734667
 20
7.468202650917689
 30
0.0
 10
33.89431201791767
 20
7.286594695500682
 30
0.0
 10
34.07673560704369
 20
7.208125777991683
 30
0.0
 10
34.23342939787067
 20
7.164944874092669
 30
0.0
  0
SPLINE
  5
14B
330
1F
100
AcDbEntity
  8
2D DXF
370
    -3
100
AcDbSpline
210
0.0
220
0.0
230
1.0
 70
     8
 71
     2
 72
    23
 73
    20
 74
     0
 42
0.000000001
 43
0.0000000001
 40
2.846152546236271
 40
2.846152546236271
 40
2.846152546236271
 40
3.846152546236271
 40
4.84615254623627
 40
5.84615254623627
 40
6.84615254623627
 40
7.84615254623627
 40
8.84615254623627
 40
9.84615254623627
 40
10.84615254623627
 40
11.84615254623627
 40
12.84615254623627
 40
13.84615254623627
 40
14.84615254623627
 40
15.84615254623627
 40
16.84615254623627
 40
17.84615254623627
 40
18.84615254623627
 40
19.84615254623627
 40
20.84615254623627
 40
20.84615254623627
 40
20.84615254623627
 10
34.23342939787067
 20
7.164944874092669
 30
0.0
 10
34.58492531358114
 20
7.081786922084561
 30
0.0
 10
35.29764101614073
 20
6.962804954371848
 30
0.0
 10
36.0094726037198
 20
6.840189882042324
 30
0.0
 10
36.7217606723796
 20
6.719988251088353
 30
0.0
 10
37.43406708536342
 20
6.599942783078419
 30
0.0
 10
38.14631711659105
 20
6.479554734208079
 30
0.0
 10
38.85839273162544
 20
6.358141208481555
 30
0.0
 10
39.5701722440284
 20
6.235000714057165
 30
0.0
 10
40.28149494398671
 20
6.109244364820242
 30
0.0
 10
40.99210824303439
 20
5.979531146161506
 30
0.0
 10
41.70158318942238
 20
5.843700533421782
 30
0.0
 10
42.40886882632724
 20
5.696798131777214
 30
0.0
 10
43.11199591316829
 20
5.531002639882075
 30
0.0
 10
43.80629269140634
 20
5.330065982319653
 30
0.0
 10
44.47646023715156
 20
5.059044549356372
 30
0.0
 10
45.0777509870327
 20
4.635946816487575
 30
0.0
 10
45.36052241495629
 20
3.958445145205488
 30
0.0
 10
45.43590211276167
 20
3.234372222302852
 30
0.0
 10
45.38353710869968
 20
2.877747981912634
 30
0.0
  0
SPLINE
  5
14C
330
1F
100
AcDbEntity
  8
2D DXF
370
    -3
100
AcDbSpline
210
0.0
220
0.0
230
1.0
 70
    12
 71
     2
 72
     6
 73
     3
 74
     0
 42
0.000000001
 43
0.0000000001
 40
20.84615254623627
 40
20.84615254623627
 40
20.84615254623627
 40
20.88403450331716
 40
20.88403450331716
 40
20.88403450331716
 10
45.38353710869968
 20
2.877747981912634
 30
0.0
 41
1.0
 10
45.37688572531819
 20
2.856844414096364
 30
0.0
 41
0.8072217568360037
 10
45.35494945289956
 20
2.856844554657158
 30
0.0
 41
1.0
  0
LINE
  5
14D
330
1F
100
AcDbEntity
  8
2D DXF
370
    -3
100
AcDbLine
 10
45.35494945289956
 20
2.856844554657158
 30
0.0
 11
44.62156588537967
 21
2.856844629554359
 31
0.0
  0
SPLINE
  5
14E
330
1F
100
AcDbEntity
  8
2D DXF
370
    -3
100
AcDbSpline
210
0.0
220
0.0
230
1.0
 70
    12
 71
     2
 72
     6
 73
     3
 74
     0
 42
0.000000001
 43
0.0000000001
 40
21.9493903649247
 40
21.9493903649247
 40
21.9493903649247
 40
21.99352404128992
 40
21.99352404128992
 40
21.99352404128992
 10
44.62156588537967
 20
2.856844629554359
 30
0.0
 41
1.0
 10
44.59441649368912
 20
2.85684466968145
 30
0.0
 41
0.7414578727663395
 10
44.59171463825966
 20
2.883859285103796
 30
0.0
 41
1.0
  0
SPLINE
  5
14F
330
1F
100
AcDbEntity
  8
2D DXF
370
    -3
100
AcDbSpline
210
0.0
220
0.0
230
1.0
 70
     8
 71
     2
 72
    23
 73
    20
 74
     0
 42
0.000000001
 43
0.0000000001
 40
21.99352404128992
 40
21.99352404128992
 40
21.99352404128992
 40
22.99352404128992
 40
23.99352404128992
 40
24.99352404128992
 40
25.99352404128992
 40
26.99352404128992
 40
27.99352404128992
 40
28.99352404128992
 40
29.99352404128992
 40
30.99352404128992
 40
31.99352404128992
 40
32.99352404128992
 40
33.99352404128992
 40
34.99352404128992
 40
35.99352404128992
 40
36.99352404128992
 40
37.99352404128992
 40
38.99352404128992
 40
40.56948593771971
 40
40.56948593771971
 40
40.56948593771971
 10
44.59171463825966
 20
2.883859285103796
 30
0.0
 10
44.58002513467945
 20
3.222450846907435
 30
0.0
 10
44.43130769547069
 20
3.898545905135506
 30
0.0
 10
43.90978303662085
 20
4.358649891495674
 30
0.0
 10
43.25691491322472
 20
4.564329689771398
 30
0.0
 10
42.59111265492929
 20
4.696911304512156
 30
0.0
 10
41.92102586107224
 20
4.808831528493172
 30
0.0
 10
41.24934549099264
 20
4.909952814016194
 30
0.0
 10
40.57661706313864
 20
5.003942591948885
 30
0.0
 10
39.90323689599465
 20
5.093101470939544
 30
0.0
 10
39.22941476073346
 20
5.178853396129568
 30
0.0
 10
38.55529114313124
 20
5.262196423237597
 30
0.0
 10
37.88096243395866
 20
5.343862134102395
 30
0.0
 10
37.20650380749093
 20
5.424442670651445
 30
0.0
 10
36.5319589891855
 20
5.504322199678853
 30
0.0
 10
35.85745789474591
 20
5.584425920884854
 30
0.0
 10
35.18257194845238
 20
5.662122146182796
 30
0.0
 10
34.50411948575386
 20
5.698464853375071
 30
0.0
 10
33.62950834557135
 20
5.720662138503712
 30
0.0
 10
33.09412761069056
 20
5.713201556945037
 30
0.0
  0
LINE
  5
150
330
1F
100
AcDbEntity
  8
2D DXF
370
    -3
100
AcDbLine
 10
33.20550895020007
 20
14.9337233952848
 30
0.0
 11
33.20550895020007
 21
14.04782371383369
 31
0.0
  0
LINE
  5
151
330
1F
100
AcDbEntity
  8
2D DXF
370
    -3
100
AcDbLine
 10
32.10350895020007
 20
14.04782371383369
 30
0.0
 11
32.10350895020007
 21
14.9337234768264
 31
0.0
  0
SPLINE
  5
152
330
1F
100
AcDbEntity
  8
2D DXF
370
    -3
100
AcDbSpline
210
0.0
220
0.0
230
1.0
 70
    12
 71
     2
 72
     6
 73
     3
 74
     0
 42
0.000000001
 43
0.0000000001
 40
0.0
 40
0.0
 40
0.0
 40
1.109317472823581
 40
1.109317472823581
 40
1.109317472823581
 10
34.16550756916131
 20
15.83419095363409
 30
0.0
 41
1.0
 10
33.53117646236075
 20
15.77083333919564
 30
0.0
 41
0.8160296580062121
 10
33.38046796291717
 20
15.15141660663947
 30
0.0
 41
1.0
  0
SPLINE
  5
153
330
1F
100
AcDbEntity
  8
2D DXF
370
    -3
100
AcDbSpline
210
0.0
220
0.0
230
1.0
 70
    24
 71
     2
 72
     6
 73
     3
 74
     0
 42
0.000000001
 43
0.0000000001
 40
1.109317472823581
 40
1.109317472823581
 40
1.109317472823581
 40
1.30192688225681
 40
1.30192688225681
 40
1.30192688225681
 10
33.38046796291717
 20
15.15141660663947
 30
0.0
 10
33.35770055082644
 20
15.05784181784866
 30
0.0
 10
33.33493313873571
 20
14.96426702905785
 30
0.0
  0
SPLINE
  5
154
330
1F
100
AcDbEntity
  8
2D DXF
370
    -3
100
AcDbSpline
210
0.0
220
0.0
230
1.0
 70
    12
 71
     2
 72
     6
 73
     3
 74
     0
 42
0.000000001
 43
0.0000000001
 40
1.30192688225681
 40
1.30192688225681
 40
1.30192688225681
 40
1.355211950235501
 40
1.355211950235501
 40
1.355211950235501
 10
33.33493313873571
 20
14.96426702905785
 30
0.0
 41
1.0
 10
33.32750166517729
 20
14.93372343605644
 30
0.0
 41
0.7862601907090584
 10
33.29606700480558
 20
14.93372343605569
 30
0.0
 41
1.0
  0
SPLINE
  5
155
330
1F
100
AcDbEntity
  8
2D DXF
370
    -3
100
AcDbSpline
210
0.0
220
0.0
230
1.0
 70
    12
 71
     2
 72
     8
 73
     5
 74
     0
 42
0.000000001
 43
0.0000000001
 40
1.355211950235501
 40
1.355211950235501
 40
1.355211950235501
 40
2.358329810768466
 40
2.358329810768466
 40
3.361447671301431
 40
3.361447671301431
 40
3.361447671301431
 10
33.29606700480558
 20
14.93372343605569
 30
0.0
 41
1.0
 10
33.29606700977561
 20
14.93372338880271
 30
0.0
 41
0.7071067811865458
 10
32.65746234574523
 20
14.93372338880258
 30
0.0
 41
1.0
 10
32.01885768171491
 20
14.93372338880243
 30
0.0
 41
0.7071067811865458
 10
32.0188576767449
 20
14.93372343605539
 30
0.0
 41
1.0
  0
SPLINE
  5
156
330
1F
100
AcDbEntity
  8
2D DXF
370
    -3
100
AcDbSpline
210
0.0
220
0.0
230
1.0
 70
    12
 71
     2
 72
     6
 73
     3
 74
     0
 42
0.000000001
 43
0.0000000001
 40
3.361447671301431
 40
3.361447671301431
 40
3.361447671301431
 40
3.414732739280092
 40
3.414732739280092
 40
3.414732739280092
 10
32.0188576767449
 20
14.93372343605539
 30
0.0
 41
1.0
 10
31.98742301637283
 20
14.9337234360559
 30
0.0
 41
0.786260190696171
 10
31.97999154281537
 20
14.96426702905788
 30
0.0
 41
1.0
  0
SPLINE
  5
157
330
1F
100
AcDbEntity
  8
2D DXF
370
    -3
100
AcDbSpline
210
0.0
220
0.0
230
1.0
 70
    24
 71
     2
 72
     6
 73
     3
 74
     0
 42
0.000000001
 43
0.0000000001
 40
3.414732739280092
 40
3.414732739280092
 40
3.414732739280092
 40
3.597297267570287
 40
3.597297267570287
 40
3.597297267570287
 10
31.97999154281537
 20
14.96426702905788
 30
0.0
 10
31.95841148677849
 20
15.05296174665087
 30
0.0
 10
31.93683143074161
 20
15.14165646424387
 30
0.0
  0
SPLINE
  5
158
330
1F
100
AcDbEntity
  8
2D DXF
370
    -3
100
AcDbSpline
210
0.0
220
0.0
230
1.0
 70
    12
 71
     2
 72
     6
 73
     3
 74
     0
 42
0.000000001
 43
0.0000000001
 40
3.597297267570287
 40
3.597297267570287
 40
3.597297267570287
 40
4.435814418677666
 40
4.435814418677666
 40
4.435814418677666
 10
31.93683143074161
 20
15.14165646424387
 30
0.0
 41
1.0
 10
31.81765547483358
 20
15.63147343087314
 30
0.0
 41
0.7656381219864815
 10
31.31462647461022
 20
15.59852810952988
 30
0.0
 41
1.0
  0
SPLINE
  5
159
330
1F
100
AcDbEntity
  8
2D DXF
370
    -3
100
AcDbSpline
210
0.0
220
0.0
230
1.0
 70
     8
 71
     3
 72
     8
 73
     4
 74
     0
 42
0.000000001
 43
0.0000000001
 40
18.0
 40
18.0
 40
18.0
 40
18.0
 40
18.48640706632447
 40
18.48640706632447
 40
18.48640706632447
 40
18.48640706632447
 10
29.33042953427586
 20
16.36326416177369
 30
0.0
 10
29.42832046179812
 20
16.22852885964345
 30
0.0
 10
29.5261758987583
 20
16.09384240539165
 30
0.0
 10
29.62399586122827
 20
15.9592048114265
 30
0.0
  0
SPLINE
  5
15A
330
1F
100
AcDbEntity
  8
2D DXF
370
    -3
100
AcDbSpline
210
0.0
220
0.0
230
1.0
 70
    12
 71
     2
 72
     6
 73
     3
 74
     0
 42
0.000000001
 43
0.0000000001
 40
18.48640706632447
 40
18.48640706632447
 40
18.48640706632447
 40
19.48442014587033
 40
19.48442014587033
 40
19.48442014587033
 10
29.62399586122827
 20
15.9592048114265
 30
0.0
 41
1.0
 10
29.94434037752224
 20
15.51827532653231
 30
0.0
 41
0.8780584312854955
 10
30.48851379589009
 20
15.54851950792934
 30
0.0
 41
1.0
  0
SPLINE
  5
15B
330
1F
100
AcDbEntity
  8
2D DXF
370
    -3
100
AcDbSpline
210
0.0
220
0.0
230
1.0
 70
     8
 71
     2
 72
    13
 73
    10
 74
     0
 42
0.000000001
 43
0.0000000001
 40
19.48442014587033
 40
19.48442014587033
 40
19.48442014587033
 40
20.48442014587033
 40
21.48442014587033
 40
22.48442014587033
 40
23.48442014587033
 40
24.48442014587033
 40
25.48442014587033
 40
26.48442014587033
 40
27.48442014587033
 40
27.48442014587033
 40
27.48442014587033
 10
30.48851379589009
 20
15.54851950792934
 30
0.0
 10
31.00300894030157
 20
15.57531313786251
 30
0.0
 10
32.03014485635605
 20
15.65594207514486
 30
0.0
 10
33.05669343962084
 20
15.7437316494793
 30
0.0
 10
34.08391069603049
 20
15.8239971069296
 30
0.0
 10
35.10853112113084
 20
15.93227127779099
 30
0.0
 10
36.13180341863158
 20
16.05245980334368
 30
0.0
 10
37.1535080736591
 20
16.18535210270446
 30
0.0
 10
38.17350280104522
 20
16.33078144215423
 30
0.0
 10
38.68256937521433
 20
16.4097496620162
 30
0.0
  0
SPLINE
  5
15C
330
1F
100
AcDbEntity
  8
2D DXF
370
    -3
100
AcDbSpline
210
0.0
220
0.0
230
1.0
 70
    12
 71
     2
 72
     6
 73
     3
 74
     0
 42
0.000000001
 43
0.0000000001
 40
27.48442014587033
 40
27.48442014587033
 40
27.48442014587033
 40
28.48241730483766
 40
28.48241730483766
 40
28.48241730483766
 10
38.68256937521433
 20
16.4097496620162
 30
0.0
 41
1.0
 10
39.22112930545951
 20
16.49330426882304
 30
0.0
 41
0.8780622295905389
 10
39.44280336159964
 20
16.99118857626775
 30
0.0
 41
1.0
  0
SPLINE
  5
15D
330
1F
100
AcDbEntity
  8
2D DXF
370
    -3
100
AcDbSpline
210
0.0
220
0.0
230
1.0
 70
    28
 71
     2
 72
     6
 73
     3
 74
     0
 42
0.000000001
 43
0.0000000001
 40
28.48241730483766
 40
28.48241730483766
 40
28.48241730483766
 40
28.82179011573188
 40
28.82179011573188
 40
28.82179011573188
 10
39.44280336159965
 20
16.99118857626775
 30
0.0
 41
0.9999999822047236
 10
39.51182105673756
 20
17.1462048123692
 30
0.0
 41
0.9999999822047236
 10
39.58083875187546
 20
17.30122104847064
 30
0.0
 41
0.9999999822047236
  0
SPLINE
  5
15E
330
1F
100
AcDbEntity
  8
2D DXF
370
    -3
100
AcDbSpline
210
0.0
220
0.0
230
1.0
 70
     8
 71
     2
 72
    23
 73
    20
 74
     0
 42
0.000000001
 43
0.0000000001
 40
28.82179011573188
 40
28.82179011573188
 40
28.82179011573188
 40
29.82179011573188
 40
30.82179011573188
 40
31.82179011573188
 40
32.82179011573189
 40
33.82179011573189
 40
34.82179011573189
 40
35.82179011573189
 40
36.82179011573189
 40
37.82179011573189
 40
38.82179011573189
 40
39.82179011573189
 40
40.82179011573189
 40
41.82179011573189
 40
42.82179011573189
 40
43.82179011573189
 40
44.82179011573189
 40
45.82179011573189
 40
46.82179011573189
 40
46.82179011573189
 40
46.82179011573189
 10
39.58083875187548
 20
17.30122104847064
 30
0.0
 10
39.29640071228663
 20
17.33923483544295
 30
0.0
 10
38.7259365181127
 20
17.40406596870345
 30
0.0
 10
38.15152749389553
 20
17.41580922623379
 30
0.0
 10
37.57756297578486
 20
17.39926773569773
 30
0.0
 10
37.00484304971373
 20
17.35807999337564
 30
0.0
 10
36.43320930087476
 20
17.30434278001383
 30
0.0
 10
35.86194298090122
 20
17.2469422546539
 30
0.0
 10
35.29104582347189
 20
17.18596466701109
 30
0.0
 10
34.72037199003564
 20
17.12294430593151
 30
0.0
 10
34.14982418272704
 20
17.05879377209617
 30
0.0
 10
33.57938609184338
 20
16.99367472816454
 30
0.0
 10
33.00905522774262
 20
16.92762320119297
 30
0.0
 10
32.43879330161325
 20
16.86098671419938
 30
0.0
 10
31.86848674425268
 20
16.79468858803021
 30
0.0
 10
31.29779332490186
 20
16.73200087760824
 30
0.0
 10
30.72760657337604
 20
16.66368196990149
 30
0.0
 10
30.16035749145327
 20
16.57845026188284
 30
0.0
 10
29.58987961845175
 20
16.49023876904954
 30
0.0
 10
29.33042953427586
 20
16.36326416177369
 30
0.0
  0
SPLINE
  5
15F
330
1F
100
AcDbEntity
  8
2D DXF
370
    -3
100
AcDbSpline
210
0.0
220
0.0
230
1.0
 70
     8
 71
     2
 72
    10
 73
     7
 74
     0
 42
0.000000001
 43
0.0000000001
 40
25.26262598822278
 40
25.26262598822278
 40
25.26262598822278
 40
26.24920543449504
 40
27.24920543449504
 40
28.24920543449504
 40
29.24920543449504
 40
30.24920543449504
 40
30.24920543449504
 40
30.24920543449504
 10
39.22540545433831
 20
17.34650006172127
 30
0.0
 10
39.67015154683433
 20
17.3580059673578
 30
0.0
 10
40.56584822659359
 20
17.32717608669752
 30
0.0
 10
41.46012502268378
 20
17.20360565844999
 30
0.0
 10
42.33268252940026
 20
16.97214895994735
 30
0.0
 10
43.17476150079951
 20
16.64798870573306
 30
0.0
 10
43.58732643923993
 20
16.46602881509753
 30
0.0
  0
SPLINE
  5
160
330
1F
100
AcDbEntity
  8
2D DXF
370
    -3
100
AcDbSpline
210
0.0
220
0.0
230
1.0
 70
     8
 71
     3
 72
     8
 73
     4
 74
     0
 42
0.000000001
 43
0.0000000001
 40
30.24920543449504
 40
30.24920543449504
 40
30.24920543449504
 40
30.24920543449504
 40
31.24920543449504
 40
31.24920543449504
 40
31.24920543449504
 40
31.24920543449504
 10
43.58732643923993
 20
16.46602881509753
 30
0.0
 10
43.80277155462151
 20
16.37100772634243
 30
0.0
 10
43.83820687238425
 20
16.6669724288724
 30
0.0
 10
43.64784443729447
 20
16.76286447804098
 30
0.0
  0
SPLINE
  5
161
330
1F
100
AcDbEntity
  8
2D DXF
370
    -3
100
AcDbSpline
210
0.0
220
0.0
230
1.0
 70
     8
 71
     2
 72
    31
 73
    28
 74
     0
 42
0.000000001
 43
0.0000000001
 40
-74.50594340722382
 40
-74.50594340722382
 40
-74.50594340722382
 40
-74.0
 40
-73.0
 40
-72.0
 40
-71.0
 40
-70.0
 40
-69.0
 40
-68.0
 40
-67.0
 40
-66.0
 40
-65.0
 40
-64.0
 40
-63.0
 40
-62.0
 40
-61.0
 40
-60.0
 40
-59.0
 40
-58.0
 40
-57.0
 40
-56.0
 40
-55.0
 40
-54.0
 40
-53.0
 40
-52.0
 40
-51.0
 40
-50.0
 40
-49.0
 40
-49.0
 40
-49.0
 10
29.45461212635384
 20
16.41869630687948
 30
0.0
 10
29.34490724893438
 20
16.41358386599755
 30
0.0
 10
29.01818583739482
 20
16.40224877747536
 30
0.0
 10
28.58400807868016
 20
16.40013118345217
 30
0.0
 10
28.15002280583145
 20
16.41469100676682
 30
0.0
 10
27.71746775127475
 20
16.45356147374686
 30
0.0
 10
27.28902984962953
 20
16.52539107902295
 30
0.0
 10
26.86951802069002
 20
16.63899160837863
 30
0.0
 10
26.46828039839365
 20
16.80693226457598
 30
0.0
 10
26.10210154311228
 20
17.04321639012434
 30
0.0
 10
25.80239618161006
 20
17.36066254107101
 30
0.0
 10
25.59832279114558
 20
17.74622677867636
 30
0.0
 10
25.47395298306328
 20
18.1631310315576
 30
0.0
 10
25.40148188869462
 20
18.59150536357373
 30
0.0
 10
25.35912377121436
 20
19.02368192841658
 30
0.0
 10
25.33224686292353
 20
19.45702004894038
 30
0.0
 10
25.31690376246986
 20
19.89090942290163
 30
0.0
 10
25.30647537039677
 20
20.32492890039359
 30
0.0
 10
25.29460781241109
 20
20.75891477657336
 30
0.0
 10
25.27617557627021
 20
21.19268141550096
 30
0.0
 10
25.24788998150446
 20
21.62592607471633
 30
0.0
 10
25.2081377334497
 20
22.05827365852072
 30
0.0
 10
25.15655183790325
 20
22.48936941713274
 30
0.0
 10
25.09349100366582
 20
22.91893412160042
 30
0.0
 10
25.01972852989992
 20
23.34678771225541
 30
0.0
 10
24.93614495617153
 20
23.77282808093469
 30
0.0
 10
24.84369219071307
 20
24.19702873524258
 30
0.0
 10
24.79346368924821
 20
24.40821642122297
 30
0.0
  0
SPLINE
  5
162
330
1F
100
AcDbEntity
  8
2D DXF
370
    -3
100
AcDbSpline
210
0.0
220
0.0
230
1.0
 70
     8
 71
     3
 72
     8
 73
     4
 74
     0
 42
0.000000001
 43
0.0000000001
 40
-49.0
 40
-49.0
 40
-49.0
 40
-49.0
 40
-48.0
 40
-48.0
 40
-48.0
 40
-48.0
 10
24.79346368924821
 20
24.40821642122297
 30
0.0
 10
24.77276137547763
 20
24.49526010383639
 30
0.0
 10
24.89687768535261
 20
24.50026472155949
 30
0.0
 10
24.97906555808147
 20
24.47336066973226
 30
0.0
  0
SPLINE
  5
163
330
1F
100
AcDbEntity
  8
2D DXF
370
    -3
100
AcDbSpline
210
0.0
220
0.0
230
1.0
 70
     8
 71
     2
 72
    53
 73
    50
 74
     0
 42
0.000000001
 43
0.0000000001
 40
-48.0
 40
-48.0
 40
-48.0
 40
-47.0
 40
-46.0
 40
-45.0
 40
-44.0
 40
-43.0
 40
-42.0
 40
-41.0
 40
-40.0
 40
-39.0
 40
-38.0
 40
-37.0
 40
-36.0
 40
-35.0
 40
-34.0
 40
-33.0
 40
-32.0
 40
-31.0
 40
-30.0
 40
-29.0
 40
-28.0
 40
-27.0
 40
-26.0
 40
-25.0
 40
-24.0
 40
-23.0
 40
-22.0
 40
-21.0
 40
-20.0
 40
-19.0
 40
-18.0
 40
-17.0
 40
-16.0
 40
-15.0
 40
-14.0
 40
-13.0
 40
-12.0
 40
-11.0
 40
-10.0
 40
-9.0
 40
-8.0
 40
-7.0
 40
-6.0
 40
-5.0
 40
-4.0
 40
-3.0
 40
-2.0
 40
-1.0
 40
0.0
 40
0.0
 40
0.0
 10
24.97906555808147
 20
24.47336066973226
 30
0.0
 10
25.22721597265259
 20
24.39212907931754
 30
0.0
 10
25.61690515419521
 20
24.05832179103319
 30
0.0
 10
25.81070609192177
 20
23.5741266818284
 30
0.0
 10
25.93681108845898
 20
23.07789067921073
 30
0.0
 10
26.01283517477113
 20
22.57010526334425
 30
0.0
 10
26.0808720735434
 20
22.06179735242102
 30
0.0
 10
26.13305100699127
 20
21.55149233440181
 30
0.0
 10
26.1728891074696
 20
21.04011573255657
 30
0.0
 10
26.20371285451394
 20
20.52812355028952
 30
0.0
 10
26.23120321097845
 20
20.01594971827863
 30
0.0
 10
26.26331418580033
 20
19.50402732150648
 30
0.0
 10
26.3154365771302
 20
18.99357541557647
 30
0.0
 10
26.4115437465734
 20
18.48940337379321
 30
0.0
 10
26.5739282102037
 20
18.00025676058125
 30
0.0
 10
26.879896473773
 20
17.58216506503132
 30
0.0
 10
27.3230847860814
 20
17.31169437483877
 30
0.0
 10
27.82944485344997
 20
17.21037378642406
 30
0.0
 10
28.34307685934643
 20
17.20873077067357
 30
0.0
 10
28.85444029497997
 20
17.25009784111991
 30
0.0
 10
29.36418216028996
 20
17.30714574612362
 30
0.0
 10
29.8729960978451
 20
17.37189579132448
 30
0.0
 10
30.38134572334248
 20
17.44015522697627
 30
0.0
 10
30.88950378613147
 20
17.50982046828923
 30
0.0
 10
31.39765146602021
 20
17.5795658897085
 30
0.0
 10
31.9059142009
 20
17.6484662445026
 30
0.0
 10
32.41439149606232
 20
17.7157681313859
 30
0.0
 10
32.9231547166478
 20
17.78087624698554
 30
0.0
 10
33.43225311541944
 20
17.8433122522606
 30
0.0
 10
33.94170726013029
 20
17.90277761460945
 30
0.0
 10
34.45150402782873
 20
17.95922722938815
 30
0.0
 10
34.9616114229387
 20
18.01280245190881
 30
0.0
 10
35.47209272609167
 20
18.06270209628291
 30
0.0
 10
35.98302821624749
 20
18.1077393794603
 30
0.0
 10
36.49449423573255
 20
18.1463292169492
 30
0.0
 10
37.00649353149392
 20
18.17709733771743
 30
0.0
 10
37.51895798374984
 20
18.19885852585243
 30
0.0
 10
38.03175878629447
 20
18.21042037556967
 30
0.0
 10
38.54469760564707
 20
18.21003134675625
 30
0.0
 10
39.05744039531562
 20
18.19543717107868
 30
0.0
 10
39.56944221369351
 20
18.16398574454091
 30
0.0
 10
40.0798342842469
 20
18.11241207326015
 30
0.0
 10
40.58722719586559
 20
18.03655088812887
 30
0.0
 10
41.08930199635542
 20
17.93076357087963
 30
0.0
 10
41.58202148579529
 20
17.78696953091597
 30
0.0
 10
42.058309053717
 20
17.59591267776516
 30
0.0
 10
42.52257799651066
 20
17.37756520492414
 30
0.0
 10
42.97375217855729
 20
17.13347549047931
 30
0.0
 10
43.41875826375816
 20
16.87826299459297
 30
0.0
 10
43.64784443729447
 20
16.76286447804098
 30
0.0
  0
SPLINE
  5
164
330
1F
100
AcDbEntity
  8
2D DXF
370
    -3
100
AcDbSpline
210
0.0
220
0.0
230
1.0
 70
    24
 71
     2
 72
     6
 73
     3
 74
     0
 42
0.000000001
 43
0.0000000001
 40
-0.125
 40
-0.125
 40
-0.125
 40
0.0
 40
0.0
 40
0.0
 10
32.98746234077497
 20
2.621844414103691
 30
0.0
 10
32.98746234077497
 20
2.684344414103691
 30
0.0
 10
32.98746234077497
 20
2.746844414103691
 30
0.0
  0
SPLINE
  5
165
330
1F
100
AcDbEntity
  8
2D DXF
370
    -3
100
AcDbSpline
210
0.0
220
0.0
230
1.0
 70
    28
 71
     2
 72
     8
 73
     5
 74
     0
 42
0.000000001
 43
0.0000000001
 40
-1.036725575684632
 40
-1.036725575684632
 40
-1.036725575684632
 40
-0.5183627878423159
 40
-0.5183627878423159
 40
0.0
 40
0.0
 40
0.0
 10
32.32746234077494
 20
2.746844414103691
 30
0.0
 41
1.0
 10
32.32746234077494
 20
2.746844414103688
 30
0.0
 41
0.7071067811865476
 10
32.65746234077496
 20
2.746844414103691
 30
0.0
 41
1.0
 10
32.98746234077495
 20
2.746844414103688
 30
0.0
 41
0.7071067811865476
 10
32.98746234077497
 20
2.746844414103691
 30
0.0
 41
1.0
  0
CIRCLE
  5
166
330
1F
100
AcDbEntity
  8
2D DXF
100
AcDbCircle
 10
31.73196234077496
 20
1.34184441410369
 30
0.0
 40
1.279999999999987
  0
LINE
  5
167
330
1F
100
AcDbEntity
  8
2D DXF
370
    -3
100
AcDbLine
 10
31.73196234077496
 20
2.621844414103691
 30
0.0
 11
33.01196234077496
 21
2.621844414103691
 31
0.0
  0
SPLINE
  5
168
330
1F
100
AcDbEntity
  8
2D DXF
370
    -3
100
AcDbSpline
210
0.0
220
0.0
230
1.0
 70
    28
 71
     2
 72
     6
 73
     3
 74
     0
 42
0.000000001
 43
0.0000000001
 40
-1.413819884762434
 40
-1.413819884762434
 40
-1.413819884762434
 40
-0.1338198847624337
 40
-0.1338198847624337
 40
-0.1338198847624337
 10
33.01196234077496
 20
2.621844414103691
 30
0.0
 41
1.0
 10
33.01196234077496
 20
1.981844414103691
 30
0.0
 41
1.0
 10
33.01196234077496
 20
1.34184441410369
 30
0.0
 41
1.0
  0
SPLINE
  5
169
330
1F
100
AcDbEntity
  8
2D DXF
370
    -3
100
AcDbSpline
210
0.0
220
0.0
230
1.0
 70
    28
 71
     2
 72
     8
 73
     5
 74
     0
 42
0.000000001
 43
0.0000000001
 40
-1.036725575684632
 40
-1.036725575684632
 40
-1.036725575684632
 40
-0.5183627878423159
 40
-0.5183627878423159
 40
0.0
 40
0.0
 40
0.0
 10
44.65246234077499
 20
2.746844414103691
 30
0.0
 41
1.0
 10
44.65246234077498
 20
2.746844414103688
 30
0.0
 41
0.7071067811865476
 10
44.98246234077497
 20
2.746844414103691
 30
0.0
 41
1.0
 10
45.31246234077501
 20
2.746844414103688
 30
0.0
 41
0.7071067811865476
 10
45.31246234077499
 20
2.746844414103691
 30
0.0
 41
1.0
  0
CIRCLE
  5
16A
330
1F
100
AcDbEntity
  8
2D DXF
100
AcDbCircle
 10
44.05696234077497
 20
1.34184441410369
 30
0.0
 40
1.279999999999987
  0
LINE
  5
16B
330
1F
100
AcDbEntity
  8
2D DXF
370
    -3
100
AcDbLine
 10
44.05696234077497
 20
2.621844414103691
 30
0.0
 11
45.33696234077497
 21
2.621844414103691
 31
0.0
  0
SPLINE
  5
16C
330
1F
100
AcDbEntity
  8
2D DXF
370
    -3
100
AcDbSpline
210
0.0
220
0.0
230
1.0
 70
    28
 71
     2
 72
     6
 73
     3
 74
     0
 42
0.000000001
 43
0.0000000001
 40
-1.413819884762434
 40
-1.413819884762434
 40
-1.413819884762434
 40
-0.1338198847624337
 40
-0.1338198847624337
 40
-0.1338198847624337
 10
45.33696234077497
 20
2.621844414103691
 30
0.0
 41
1.0
 10
45.33696234077497
 20
1.981844414103691
 30
0.0
 41
1.0
 10
45.33696234077497
 20
1.34184441410369
 30
0.0
 41
1.0
  0
SPLINE
  5
16D
330
1F
100
AcDbEntity
  8
2D DXF
370
    -3
100
AcDbSpline
210
0.0
220
0.0
230
1.0
 70
     8
 71
     2
 72
     9
 73
     6
 74
     0
 42
0.000000001
 43
0.0000000001
 40
2.213615568765502
 40
2.213615568765502
 40
2.213615568765502
 40
3.0
 40
4.0
 40
5.0
 40
6.0
 40
6.0
 40
6.0
 10
32.18954390228315
 20
16.13769918990815
 30
0.0
 10
32.24143203506266
 20
16.1344909984916
 30
0.0
 10
32.35872130529806
 20
16.11932536003332
 30
0.0
 10
32.48883893956655
 20
16.09562181460781
 30
0.0
 10
32.62343389860762
 20
16.07029174463446
 30
0.0
 10
32.68989877842925
 20
16.07727748500014
 30
0.0
  0
SPLINE
  5
16E
330
1F
100
AcDbEntity
  8
2D DXF
370
    -3
100
AcDbSpline
210
0.0
220
0.0
230
1.0
 70
     8
 71
     2
 72
     9
 73
     6
 74
     0
 42
0.000000001
 43
0.0000000001
 40
-6.0
 40
-6.0
 40
-6.0
 40
-5.0
 40
-4.0
 40
-3.0
 40
-2.216501958002819
 40
-2.216501958002819
 40
-2.216501958002819
 10
32.68989877842925
 20
16.07727748500014
 30
0.0
 10
32.75636365825089
 20
16.08426322536582
 30
0.0
 10
32.8827509768311
 20
16.1370236380464
 30
0.0
 10
33.00509698439622
 20
16.1872621814792
 30
0.0
 10
33.1164898124802
 20
16.22641885420779
 30
0.0
 10
33.16638964837209
 20
16.24030618276329
 30
0.0
  0
SPLINE
  5
16F
330
1F
100
AcDbEntity
  8
2D DXF
370
    -3
100
AcDbSpline
210
0.0
220
0.0
230
1.0
 70
     8
 71
     2
 72
     9
 73
     6
 74
     0
 42
0.000000001
 43
0.0000000001
 40
-3.57122434459611
 40
-3.57122434459611
 40
-3.57122434459611
 40
-3.0
 40
-2.0
 40
-1.0
 40
0.0
 40
0.0
 40
0.0
 10
33.1357994957081
 20
16.52035538699955
 30
0.0
 10
33.09566278859886
 20
16.52320727566426
 30
0.0
 10
32.9853918838176
 20
16.53572924119479
 30
0.0
 10
32.846558110266
 20
16.56070157031849
 30
0.0
 10
32.70791668428585
 20
16.58824504092082
 30
0.0
 10
32.6369775814134
 20
16.58078904076299
 30
0.0
  0
SPLINE
  5
170
330
1F
100
AcDbEntity
  8
2D DXF
370
    -3
100
AcDbSpline
210
0.0
220
0.0
230
1.0
 70
     8
 71
     2
 72
     9
 73
     6
 74
     0
 42
0.000000001
 43
0.0000000001
 40
0.0
 40
0.0
 40
0.0
 40
1.0
 40
2.0
 40
3.0
 40
3.573659889073946
 40
3.573659889073946
 40
3.573659889073946
 10
32.6369775814134
 20
16.58078904076299
 30
0.0
 10
32.56603847854102
 20
16.57333304060516
 30
0.0
 10
32.43615330990009
 20
16.51756628762671
 30
0.0
 10
32.30554542657153
 20
16.46427449920793
 30
0.0
 10
32.20012450929958
 20
16.42904503396335
 30
0.0
 10
32.1612912502862
 20
16.4178701811956
 30
0.0
  0
SPLINE
  5
171
330
1F
100
AcDbEntity
  8
2D DXF
370
    -3
100
AcDbSpline
210
0.0
220
0.0
230
1.0
 70
     8
 71
     3
 72
     8
 73
     4
 74
     0
 42
0.000000001
 43
0.0000000001
 40
-0.416228929430958
 40
-0.416228929430958
 40
-0.416228929430958
 40
-0.416228929430958
 40
0.0073818719498712
 40
0.0073818719498712
 40
0.0073818719498712
 40
0.0073818719498712
 10
32.9053108216895
 20
16.55014128185339
 30
0.0
 10
32.9074355885809
 20
16.67215744331858
 30
0.0
 10
32.90956062108744
 20
16.79417192427266
 30
0.0
 10
32.91168509792813
 20
16.91621312321016
 30
0.0
  0
SPLINE
  5
172
330
1F
100
AcDbEntity
  8
2D DXF
370
    -3
100
AcDbSpline
210
0.0
220
0.0
230
1.0
 70
     8
 71
     3
 72
     8
 73
     4
 74
     0
 42
0.000000001
 43
0.0000000001
 40
-0.5816880328048271
 40
-0.5816880328048271
 40
-0.5816880328048271
 40
-0.5816880328048271
 40
-0.1696681538827542
 40
-0.1696681538827542
 40
-0.1696681538827542
 40
-0.1696681538827542
 10
32.30095309310279
 20
16.84497425394026
 30
0.0
 10
32.32785874264708
 20
16.72842601384069
 30
0.0
 10
32.35476310028689
 20
16.61188641806397
 30
0.0
 10
32.38166779091925
 20
16.49534412868748
 30
0.0
  0
SPLINE
  5
173
330
1F
100
AcDbEntity
  8
2D DXF
370
    -3
100
AcDbSpline
210
0.0
220
0.0
230
1.0
 70
     8
 71
     5
 72
    17
 73
    11
 74
     0
 42
0.000000001
 43
0.0000000001
 40
0.0
 40
0.0
 40
0.0
 40
0.0
 40
0.0
 40
0.0
 40
0.2208933319825939
 40
0.3313399979738589
 40
0.4417866639651238
 40
0.5522333299563886
 40
0.6626799959476536
 40
0.8835733279304706
 40
0.8835733279304706
 40
0.8835733279304706
 40
0.8835733279304706
 40
0.8835733279304706
 40
0.8835733279304706
 10
32.64723717604839
 20
16.48317551825254
 30
0.0
 10
32.71138383829962
 20
16.4899176041333
 30
0.0
 10
32.80764195555581
 20
16.4996580688977
 30
0.0
 10
32.93284272670313
 20
16.51135793725864
 30
0.0
 10
33.07784308729036
 20
16.52111423101204
 30
0.0
 10
33.22637078311142
 20
16.52197082758049
 30
0.0
 10
33.35061487896361
 20
16.51229639248882
 30
0.0
 10
33.42513683093186
 20
16.49112698927752
 30
0.0
 10
33.46276474432459
 20
16.46376670974395
 30
0.0
 10
33.47667354798075
 20
16.43636881557342
 30
0.0
 10
33.47894704205682
 20
16.41473796434916
 30
0.0
  0
SPLINE
  5
174
330
1F
100
AcDbEntity
  8
2D DXF
370
    -3
100
AcDbSpline
210
0.0
220
0.0
230
1.0
 70
     8
 71
     5
 72
    17
 73
    11
 74
     0
 42
0.000000001
 43
0.0000000001
 40
0.8835733279304706
 40
0.8835733279304706
 40
0.8835733279304706
 40
0.8835733279304706
 40
0.8835733279304706
 40
0.8835733279304706
 40
1.104466659913288
 40
1.214913325904553
 40
1.325359991895817
 40
1.435806657887083
 40
1.546253323878347
 40
1.767146655860941
 40
1.767146655860941
 40
1.767146655860941
 40
1.767146655860941
 40
1.767146655860941
 40
1.767146655860941
 10
33.47894704205682
 20
16.41473796434916
 30
0.0
 10
33.48122053613291
 20
16.3931071131249
 30
0.0
 10
33.47331201570937
 20
16.36341612579143
 30
0.0
 10
33.44219488448276
 20
16.32883045091484
 30
0.0
 10
33.37370278237826
 20
16.29262966491797
 30
0.0
 10
33.25418514627272
 20
16.25733483940184
 30
0.0
 10
33.10872504052195
 20
16.22729207290863
 30
0.0
 10
32.9648648381776
 20
16.20668789809667
 30
0.0
 10
32.83996746485657
 20
16.19210139224188
 30
0.0
 10
32.74378766191278
 20
16.18161581656756
 30
0.0
 10
32.67964099966154
 20
16.17487373068678
 30
0.0
  0
SPLINE
  5
175
330
1F
100
AcDbEntity
  8
2D DXF
370
    -3
100
AcDbSpline
210
0.0
220
0.0
230
1.0
 70
     8
 71
     3
 72
    13
 73
     9
 74
     0
 42
0.000000001
 43
0.0000000001
 40
1.767146655860941
 40
1.767146655860941
 40
1.767146655860941
 40
1.767146655860941
 40
1.877973288787121
 40
1.9887999217133
 40
2.099626554639479
 40
2.210453187565658
 40
2.432106453418017
 40
2.653759719270375
 40
2.653759719270375
 40
2.653759719270375
 40
2.653759719270375
 10
32.67964099966154
 20
16.17487373068678
 30
0.0
 10
32.62618544778552
 20
16.16925532578614
 30
0.0
 10
32.51928417240775
 20
16.1583340426648
 30
0.0
 10
32.36611683543121
 20
16.14520389037074
 30
0.0
 10
32.22569541979117
 20
16.13744893604812
 30
0.0
 10
32.06103482958331
 20
16.13658951120905
 30
0.0
 10
31.90567169785074
 20
16.15755653199275
 30
0.0
 10
31.85172029044632
 20
16.20725986588303
 30
0.0
 10
31.84793113365286
 20
16.24331128459013
 30
0.0
  0
SPLINE
  5
176
330
1F
100
AcDbEntity
  8
2D DXF
370
    -3
100
AcDbSpline
210
0.0
220
0.0
230
1.0
 70
     8
 71
     3
 72
    13
 73
     9
 74
     0
 42
0.000000001
 43
0.0000000001
 40
2.653759719270375
 40
2.653759719270375
 40
2.653759719270375
 40
2.653759719270375
 40
2.875412985122733
 40
3.097066250975091
 40
3.207892883901271
 40
3.31871951682745
 40
3.429546149753629
 40
3.540372782679808
 40
3.540372782679808
 40
3.540372782679808
 40
3.540372782679808
 10
31.84793113365286
 20
16.24331128459013
 30
0.0
 10
31.8441419768594
 20
16.27936270329724
 30
0.0
 10
31.88658051237984
 20
16.33919702842593
 30
0.0
 10
32.03418929818399
 20
16.39200768090933
 30
0.0
 10
32.19543034390263
 20
16.42540189828617
 30
0.0
 10
32.33439556036801
 20
16.44701166227445
 30
0.0
 10
32.48694573570656
 20
16.4660137153196
 30
0.0
 10
32.59378162417237
 20
16.47755711335191
 30
0.0
 10
32.64723717604839
 20
16.48317551825254
 30
0.0
  0
ENDSEC
  0
SECTION
  2
OBJECTS
  0
DICTIONARY
  5
C
330
0
100
AcDbDictionary
281
     1
  3
ACAD_DETAILVIEWSTYLE
350
1B2
  3
ACAD_GROUP
350
D
  3
ACAD_LAYOUT
350
1A
  3
ACAD_MATERIAL
350
43
  3
ACAD_MLEADERSTYLE
350
6B
  3
ACAD_MLINESTYLE
350
17
  3
ACAD_PLOTSETTINGS
350
19
  3
ACAD_PLOTSTYLENAME
350
E
  3
ACAD_SCALELIST
350
47
  3
ACAD_SECTIONVIEWSTYLE
350
1B3
  3
ACAD_TABLESTYLE
350
69
  3
ACAD_VISUALSTYLE
350
2A
  3
ACDB_RECOMPOSE_DATA
350
1AF
  3
AcDbVariableDictionary
350
177
  0
SUN
  5
6D
330
29
100
AcDbSun
 90
        1
290
     0
 63
     7
421
 16777215
 40
1.0
291
     1
 91
  2455826
 92
 54000000
292
     0
 70
     2
 71
   256
280
     1
  0
DICTIONARY
  5
1B2
102
{ACAD_REACTORS
330
C
102
}
330
C
100
AcDbDictionary
281
     1
  0
DICTIONARY
  5
D
102
{ACAD_REACTORS
330
C
102
}
330
C
100
AcDbDictionary
281
     1
  0
DICTIONARY
  5
1A
102
{ACAD_REACTORS
330
C
102
}
330
C
100
AcDbDictionary
281
     1
  3
Layout1
350
1E
  3
Layout2
350
26
  3
Model
350
22
  0
DICTIONARY
  5
43
102
{ACAD_REACTORS
330
C
102
}
330
C
100
AcDbDictionary
281
     1
  3
ByBlock
350
45
  3
ByLayer
350
44
  3
Global
350
46
  0
DICTIONARY
  5
6B
102
{ACAD_REACTORS
330
C
102
}
330
C
100
AcDbDictionary
281
     1
  3
Standard
350
6C
  0
DICTIONARY
  5
17
102
{ACAD_REACTORS
330
C
102
}
330
C
100
AcDbDictionary
281
     1
  3
Standard
350
18
  0
DICTIONARY
  5
19
102
{ACAD_REACTORS
330
C
102
}
330
C
100
AcDbDictionary
281
     1
  0
ACDBDICTIONARYWDFLT
  5
E
102
{ACAD_REACTORS
330
C
102
}
330
C
100
AcDbDictionary
281
     1
  3
Normal
350
F
100
AcDbDictionaryWithDefault
340
F
  0
DICTIONARY
  5
47
102
{ACAD_REACTORS
330
C
102
}
330
C
100
AcDbDictionary
281
     1
  3
A0
350
48
  3
A1
350
49
  3
A2
350
4A
  3
A3
350
4B
  3
A4
350
4C
  3
A5
350
4D
  3
A6
350
4E
  3
A7
350
4F
  3
A8
350
50
  3
A9
350
51
  3
B0
350
52
  3
B1
350
53
  3
B2
350
54
  3
B3
350
55
  3
B4
350
56
  3
B5
350
57
  3
B6
350
58
  3
B7
350
59
  3
B8
350
5A
  3
B9
350
5B
  3
C0
350
5C
  3
C1
350
5D
  3
C2
350
5E
  3
C3
350
5F
  3
C4
350
60
  3
C5
350
61
  3
C6
350
62
  3
C7
350
63
  3
C8
350
64
  3
C9
350
65
  3
D0
350
66
  3
D1
350
67
  3
D2
350
68
  0
DICTIONARY
  5
1B3
102
{ACAD_REACTORS
330
C
102
}
330
C
100
AcDbDictionary
281
     1
  0
DICTIONARY
  5
69
102
{ACAD_REACTORS
330
C
102
}
330
C
100
AcDbDictionary
281
     1
  3
Standard
350
6A
  0
DICTIONARY
  5
2A
102
{ACAD_REACTORS
330
C
102
}
330
C
100
AcDbDictionary
281
     1
  3
2dWireframe
350
2F
  3
Basic
350
32
  3
Brighten
350
36
  3
ColorChange
350
3A
  3
Conceptual
350
34
  3
Dim
350
35
  3
EdgeColorOff
350
3D
  3
Facepattern
350
39
  3
Flat
350
2B
  3
FlatWithEdges
350
2C
  3
Gouraud
350
2D
  3
GouraudWithEdges
350
2E
  3
Hidden
350
31
  3
JitterOff
350
3B
  3
Linepattern
350
38
  3
OverhangOff
350
3C
  3
Realistic
350
33
  3
Shaded
350
42
  3
Shaded with edges
350
41
  3
Shades of Gray
350
3E
  3
Sketchy
350
3F
  3
Thicken
350
37
  3
Wireframe
350
30
  3
X-Ray
350
40
  0
XRECORD
  5
1AF
102
{ACAD_REACTORS
330
C
102
}
330
C
100
AcDbXrecord
280
     1
 90
        1
330
6A
  0
DICTIONARY
  5
177
102
{ACAD_REACTORS
330
C
102
}
330
C
100
AcDbDictionary
281
     1
  3
CANNOSCALE
350
178
  3
CMLEADERSTYLE
350
1B1
  3
CTABLESTYLE
350
1B0
  3
XCLIPFRAME
350
179
  0
LAYOUT
  5
1E
102
{ACAD_REACTORS
330
1A
102
}
330
1A
100
AcDbPlotSettings
  1

  2
none_device
  4

  6

 40
0.0
 41
0.0
 42
0.0
 43
0.0
 44
0.0
 45
0.0
 46
0.0
 47
0.0
 48
0.0
 49
0.0
140
0.0
141
0.0
142
1.0
143
1.0
 70
   688
 72
     0
 73
     0
 74
     5
  7

 75
    16
 76
     0
 77
     2
 78
   300
147
1.0
148
0.0
149
0.0
100
AcDbLayout
  1
Layout1
 70
     1
 71
     1
 10
0.0
 20
0.0
 11
12.0
 21
9.0
 12
0.0
 22
0.0
 32
0.0
 14
1.000000000000000E+20
 24
1.000000000000000E+20
 34
1.000000000000000E+20
 15
-1.000000000000000E+20
 25
-1.000000000000000E+20
 35
-1.000000000000000E+20
146
0.0
 13
0.0
 23
0.0
 33
0.0
 16
1.0
 26
0.0
 36
0.0
 17
0.0
 27
1.0
 37
0.0
 76
     0
330
1B
  0
LAYOUT
  5
26
102
{ACAD_REACTORS
330
1A
102
}
330
1A
100
AcDbPlotSettings
  1

  2
none_device
  4

  6

 40
0.0
 41
0.0
 42
0.0
 43
0.0
 44
0.0
 45
0.0
 46
0.0
 47
0.0
 48
0.0
 49
0.0
140
0.0
141
0.0
142
1.0
143
1.0
 70
   688
 72
     0
 73
     0
 74
     5
  7

 75
    16
 76
     0
 77
     2
 78
   300
147
1.0
148
0.0
149
0.0
100
AcDbLayout
  1
Layout2
 70
     1
 71
     2
 10
0.0
 20
0.0
 11
0.0
 21
0.0
 12
0.0
 22
0.0
 32
0.0
 14
0.0
 24
0.0
 34
0.0
 15
0.0
 25
0.0
 35
0.0
146
0.0
 13
0.0
 23
0.0
 33
0.0
 16
1.0
 26
0.0
 36
0.0
 17
0.0
 27
1.0
 37
0.0
 76
     0
330
23
  0
LAYOUT
  5
22
102
{ACAD_REACTORS
330
1A
102
}
330
1A
100
AcDbPlotSettings
  1

  2
none_device
  4
Letter_(8.50_x_11.00_Inches)
  6

 40
6.35
 41
6.35
 42
6.35000508
 43
6.35000508
 44
215.9
 45
279.4
 46
0.0
 47
0.0
 48
0.0
 49
0.0
140
0.0
141
0.0
142
1.0
143
1.0
 70
  1712
 72
     0
 73
     0
 74
     0
  7

 75
     0
 76
     0
 77
     2
 78
   300
147
1.0
148
0.0
149
0.0
100
AcDbLayout
  1
Model
 70
     1
 71
     0
 10
0.0
 20
0.0
 11
12.0
 21
9.0
 12
0.0
 22
0.0
 32
0.0
 14
1.000000000000000E+20
 24
1.000000000000000E+20
 34
1.000000000000000E+20
 15
-1.000000000000000E+20
 25
-1.000000000000000E+20
 35
-1.000000000000000E+20
146
0.0
 13
0.0
 23
0.0
 33
0.0
 16
1.0
 26
0.0
 36
0.0
 17
0.0
 27
1.0
 37
0.0
 76
     0
330
1F
331
29
  0
MATERIAL
  5
45
102
{ACAD_REACTORS
330
43
102
}
330
43
100
AcDbMaterial
  1
ByBlock
 72
     1
 94
      127
  0
MATERIAL
  5
44
102
{ACAD_REACTORS
330
43
102
}
330
43
100
AcDbMaterial
  1
ByLayer
 72
     1
 94
      127
  0
MATERIAL
  5
46
102
{ACAD_REACTORS
330
43
102
}
330
43
100
AcDbMaterial
  1
Global
 72
     1
 94
      127
  0
MLEADERSTYLE
  5
6C
102
{ACAD_REACTORS
330
6B
102
}
102
{ACAD_XDICTIONARY
360
1AD
102
}
330
6B
100
AcDbMLeaderStyle
170
     2
171
     1
172
     0
 90
        2
 40
0.0
 41
0.0
173
     1
 91
-1056964608
340
14
 92
       -2
290
     1
 42
0.09
291
     1
 43
0.36
  3
Standard
341
0
 44
0.18
300

342
11
174
     1
178
     6
175
     1
176
     0
 93
-1056964608
 45
0.18
292
     0
297
     0
 46
0.18
343
0
 94
-1056964608
 47
1.0
 49
1.0
140
1.0
293
     1
141
0.0
294
     1
177
     0
142
1.0
295
     0
296
     0
143
0.125
1001
ACAD_MLEADERVER
1070
     2
  0
MLINESTYLE
  5
18
102
{ACAD_REACTORS
330
17
102
}
330
17
100
AcDbMlineStyle
  2
Standard
 70
     0
  3

 62
   256
 51
90.0
 52
90.0
 71
     2
 49
0.5
 62
   256
  6
BYLAYER
 49
-0.5
 62
   256
  6
BYLAYER
  0
ACDBPLACEHOLDER
  5
F
102
{ACAD_REACTORS
330
E
102
}
330
E
  0
SCALE
  5
48
102
{ACAD_REACTORS
330
47
102
}
330
47
100
AcDbScale
 70
     0
300
1:1
140
1.0
141
1.0
290
     1
  0
SCALE
  5
49
102
{ACAD_REACTORS
330
47
102
}
330
47
100
AcDbScale
 70
     0
300
1:2
140
1.0
141
2.0
290
     0
  0
SCALE
  5
4A
102
{ACAD_REACTORS
330
47
102
}
330
47
100
AcDbScale
 70
     0
300
1:4
140
1.0
141
4.0
290
     0
  0
SCALE
  5
4B
102
{ACAD_REACTORS
330
47
102
}
330
47
100
AcDbScale
 70
     0
300
1:5
140
1.0
141
5.0
290
     0
  0
SCALE
  5
4C
102
{ACAD_REACTORS
330
47
102
}
330
47
100
AcDbScale
 70
     0
300
1:8
140
1.0
141
8.0
290
     0
  0
SCALE
  5
4D
102
{ACAD_REACTORS
330
47
102
}
330
47
100
AcDbScale
 70
     0
300
1:10
140
1.0
141
10.0
290
     0
  0
SCALE
  5
4E
102
{ACAD_REACTORS
330
47
102
}
330
47
100
AcDbScale
 70
     0
300
1:16
140
1.0
141
16.0
290
     0
  0
SCALE
  5
4F
102
{ACAD_REACTORS
330
47
102
}
330
47
100
AcDbScale
 70
     0
300
1:20
140
1.0
141
20.0
290
     0
  0
SCALE
  5
50
102
{ACAD_REACTORS
330
47
102
}
330
47
100
AcDbScale
 70
     0
300
1:30
140
1.0
141
30.0
290
     0
  0
SCALE
  5
51
102
{ACAD_REACTORS
330
47
102
}
330
47
100
AcDbScale
 70
     0
300
1:40
140
1.0
141
40.0
290
     0
  0
SCALE
  5
52
102
{ACAD_REACTORS
330
47
102
}
330
47
100
AcDbScale
 70
     0
300
1:50
140
1.0
141
50.0
290
     0
  0
SCALE
  5
53
102
{ACAD_REACTORS
330
47
102
}
330
47
100
AcDbScale
 70
     0
300
1:100
140
1.0
141
100.0
290
     0
  0
SCALE
  5
54
102
{ACAD_REACTORS
330
47
102
}
330
47
100
AcDbScale
 70
     0
300
2:1
140
2.0
141
1.0
290
     0
  0
SCALE
  5
55
102
{ACAD_REACTORS
330
47
102
}
330
47
100
AcDbScale
 70
     0
300
4:1
140
4.0
141
1.0
290
     0
  0
SCALE
  5
56
102
{ACAD_REACTORS
330
47
102
}
330
47
100
AcDbScale
 70
     0
300
8:1
140
8.0
141
1.0
290
     0
  0
SCALE
  5
57
102
{ACAD_REACTORS
330
47
102
}
330
47
100
AcDbScale
 70
     0
300
10:1
140
10.0
141
1.0
290
     0
  0
SCALE
  5
58
102
{ACAD_REACTORS
330
47
102
}
330
47
100
AcDbScale
 70
     0
300
100:1
140
100.0
141
1.0
290
     0
  0
SCALE
  5
59
102
{ACAD_REACTORS
330
47
102
}
330
47
100
AcDbScale
 70
     0
300
1/128" = 1'-0"
140
0.0078125
141
12.0
290
     0
  0
SCALE
  5
5A
102
{ACAD_REACTORS
330
47
102
}
330
47
100
AcDbScale
 70
     0
300
1/64" = 1'-0"
140
0.015625
141
12.0
290
     0
  0
SCALE
  5
5B
102
{ACAD_REACTORS
330
47
102
}
330
47
100
AcDbScale
 70
     0
300
1/32" = 1'-0"
140
0.03125
141
12.0
290
     0
  0
SCALE
  5
5C
102
{ACAD_REACTORS
330
47
102
}
330
47
100
AcDbScale
 70
     0
300
1/16" = 1'-0"
140
0.0625
141
12.0
290
     0
  0
SCALE
  5
5D
102
{ACAD_REACTORS
330
47
102
}
330
47
100
AcDbScale
 70
     0
300
3/32" = 1'-0"
140
0.09375
141
12.0
290
     0
  0
SCALE
  5
5E
102
{ACAD_REACTORS
330
47
102
}
330
47
100
AcDbScale
 70
     0
300
1/8" = 1'-0"
140
0.125
141
12.0
290
     0
  0
SCALE
  5
5F
102
{ACAD_REACTORS
330
47
102
}
330
47
100
AcDbScale
 70
     0
300
3/16" = 1'-0"
140
0.1875
141
12.0
290
     0
  0
SCALE
  5
60
102
{ACAD_REACTORS
330
47
102
}
330
47
100
AcDbScale
 70
     0
300
1/4" = 1'-0"
140
0.25
141
12.0
290
     0
  0
SCALE
  5
61
102
{ACAD_REACTORS
330
47
102
}
330
47
100
AcDbScale
 70
     0
300
3/8" = 1'-0"
140
0.375
141
12.0
290
     0
  0
SCALE
  5
62
102
{ACAD_REACTORS
330
47
102
}
330
47
100
AcDbScale
 70
     0
300
1/2" = 1'-0"
140
0.5
141
12.0
290
     0
  0
SCALE
  5
63
102
{ACAD_REACTORS
330
47
102
}
330
47
100
AcDbScale
 70
     0
300
3/4" = 1'-0"
140
0.75
141
12.0
290
     0
  0
SCALE
  5
64
102
{ACAD_REACTORS
330
47
102
}
330
47
100
AcDbScale
 70
     0
300
1" = 1'-0"
140
1.0
141
12.0
290
     0
  0
SCALE
  5
65
102
{ACAD_REACTORS
330
47
102
}
330
47
100
AcDbScale
 70
     0
300
1-1/2" = 1'-0"
140
1.5
141
12.0
290
     0
  0
SCALE
  5
66
102
{ACAD_REACTORS
330
47
102
}
330
47
100
AcDbScale
 70
     0
300
3" = 1'-0"
140
3.0
141
12.0
290
     0
  0
SCALE
  5
67
102
{ACAD_REACTORS
330
47
102
}
330
47
100
AcDbScale
 70
     0
300
6" = 1'-0"
140
6.0
141
12.0
290
     0
  0
SCALE
  5
68
102
{ACAD_REACTORS
330
47
102
}
330
47
100
AcDbScale
 70
     0
300
1'-0" = 1'-0"
140
12.0
141
12.0
290
     0
  0
TABLESTYLE
  5
6A
102
{ACAD_REACTORS
330
69
102
}
102
{ACAD_XDICTIONARY
360
1AA
102
}
330
69
100
AcDbTableStyle
  3
Standard
 70
     0
 71
     0
 40
0.06
 41
0.06
280
     0
281
     0
  7
Standard
140
0.18
170
     2
 62
     0
 63
   257
283
     0
 90
        4
 91
        0
  1

274
    -2
284
     1
 64
     0
275
    -2
285
     1
 65
     0
276
    -2
286
     1
 66
     0
277
    -2
287
     1
 67
     0
278
    -2
288
     1
 68
     0
279
    -2
289
     1
 69
     0
  7
Standard
140
0.25
170
     5
 62
     0
 63
   257
283
     0
 90
        4
 91
        0
  1

274
    -2
284
     1
 64
     0
275
    -2
285
     1
 65
     0
276
    -2
286
     1
 66
     0
277
    -2
287
     1
 67
     0
278
    -2
288
     1
 68
     0
279
    -2
289
     1
 69
     0
  7
Standard
140
0.18
170
     5
 62
     0
 63
   257
283
     0
 90
        4
 91
        0
  1

274
    -2
284
     1
 64
     0
275
    -2
285
     1
 65
     0
276
    -2
286
     1
 66
     0
277
    -2
287
     1
 67
     0
278
    -2
288
     1
 68
     0
279
    -2
289
     1
 69
     0
  0
VISUALSTYLE
  5
2F
102
{ACAD_REACTORS
330
2A
102
}
102
{ACAD_XDICTIONARY
360
182
102
}
330
2A
100
AcDbVisualStyle
  2
2dWireframe
 70
     4
 71
     0
 72
     2
 73
     0
 90
        0
 40
0.6
 41
30.0
 62
     5
 63
     7
421
 16777215
 74
     1
 91
        4
 64
     7
 65
   257
 75
     1
175
     1
 42
1.0
 92
        0
 66
   257
 43
1.0
 76
     1
 77
     6
 78
     2
 67
     7
 79
     5
170
     0
171
     0
290
     0
174
     0
 93
        1
 44
0.0
173
     0
291
     0
 45
0.0
  0
VISUALSTYLE
  5
32
102
{ACAD_REACTORS
330
2A
102
}
102
{ACAD_XDICTIONARY
360
188
102
}
330
2A
100
AcDbVisualStyle
  2
Basic
 70
     7
 71
     1
 72
     0
 73
     1
 90
        0
 40
0.6
 41
30.0
 62
     5
 63
     7
421
 16777215
 74
     0
 91
        4
 64
     7
 65
   257
 75
     1
175
     1
 42
1.0
 92
        8
 66
     7
 43
1.0
 76
     1
 77
     6
 78
     2
 67
     7
 79
     5
170
     0
171
     0
290
     0
174
     0
 93
        1
 44
0.0
173
     0
291
     1
 45
0.0
  0
VISUALSTYLE
  5
36
102
{ACAD_REACTORS
330
2A
102
}
102
{ACAD_XDICTIONARY
360
190
102
}
330
2A
100
AcDbVisualStyle
  2
Brighten
 70
    12
 71
     2
 72
     2
 73
     0
 90
        0
 40
0.6
 41
30.0
 62
     5
 63
     7
421
 16777215
 74
     1
 91
        4
 64
     7
 65
   257
 75
     1
175
     1
 42
1.0
 92
        8
 66
     7
 43
1.0
 76
     1
 77
     6
 78
     2
 67
     7
 79
     5
170
     0
171
     0
290
     0
174
     0
 93
        1
 44
50.0
173
     0
291
     1
 45
0.0
  0
VISUALSTYLE
  5
3A
102
{ACAD_REACTORS
330
2A
102
}
102
{ACAD_XDICTIONARY
360
198
102
}
330
2A
100
AcDbVisualStyle
  2
ColorChange
 70
    16
 71
     2
 72
     2
 73
     3
 90
        0
 40
0.6
 41
30.0
 62
     5
 63
     8
421
  8421504
 74
     1
 91
        4
 64
     7
 65
   257
 75
     1
175
     1
 42
1.0
 92
        8
 66
     8
424
  8421504
 43
1.0
 76
     1
 77
     6
 78
     2
 67
     7
 79
     5
170
     0
171
     0
290
     0
174
     0
 93
        1
 44
0.0
173
     0
291
     1
 45
0.0
  0
VISUALSTYLE
  5
34
102
{ACAD_REACTORS
330
2A
102
}
102
{ACAD_XDICTIONARY
360
18C
102
}
330
2A
100
AcDbVisualStyle
  2
Conceptual
 70
     9
 71
     3
 72
     2
 73
     0
 90
        0
 40
0.6
 41
30.0
 62
     5
 63
     7
421
 16777215
 74
     2
 91
        2
 64
     7
 65
   257
 75
     1
175
     1
 42
179.0
 92
        8
 66
     7
 43
1.0
 76
     1
 77
     6
 78
     2
 67
     7
 79
     3
170
     0
171
     0
290
     0
174
     0
 93
        1
 44
0.0
173
     0
291
     0
 45
0.0
  0
VISUALSTYLE
  5
35
102
{ACAD_REACTORS
330
2A
102
}
102
{ACAD_XDICTIONARY
360
18E
102
}
330
2A
100
AcDbVisualStyle
  2
Dim
 70
    11
 71
     2
 72
     2
 73
     0
 90
        0
 40
0.6
 41
30.0
 62
     5
 63
     7
421
 16777215
 74
     1
 91
        4
 64
     7
 65
   257
 75
     1
175
     1
 42
1.0
 92
        8
 66
     7
 43
1.0
 76
     1
 77
     6
 78
     2
 67
     7
 79
     5
170
     0
171
     0
290
     0
174
     0
 93
        1
 44
-50.0
173
     0
291
     1
 45
0.0
  0
VISUALSTYLE
  5
3D
102
{ACAD_REACTORS
330
2A
102
}
102
{ACAD_XDICTIONARY
360
19E
102
}
330
2A
100
AcDbVisualStyle
  2
EdgeColorOff
 70
    22
 71
     2
 72
     2
 73
     0
 90
        0
 40
0.6
 41
30.0
 62
     5
 63
     7
421
 16777215
 74
     1
 91
        4
 64
     7
 65
   257
 75
     1
175
     1
 42
1.0
 92
        8
 66
     7
 43
1.0
 76
     1
 77
     6
 78
     2
 67
     7
 79
     5
170
     0
171
     0
290
     0
174
     0
 93
        1
 44
0.0
173
     0
291
     1
 45
0.0
  0
VISUALSTYLE
  5
39
102
{ACAD_REACTORS
330
2A
102
}
102
{ACAD_XDICTIONARY
360
196
102
}
330
2A
100
AcDbVisualStyle
  2
Facepattern
 70
    15
 71
     2
 72
     2
 73
     0
 90
        0
 40
0.6
 41
30.0
 62
     5
 63
     7
421
 16777215
 74
     1
 91
        4
 64
     7
 65
   257
 75
     1
175
     1
 42
1.0
 92
        8
 66
     7
 43
1.0
 76
     1
 77
     6
 78
     2
 67
     7
 79
     5
170
     0
171
     0
290
     0
174
     0
 93
        1
 44
0.0
173
     0
291
     1
 45
0.0
  0
VISUALSTYLE
  5
2B
102
{ACAD_REACTORS
330
2A
102
}
102
{ACAD_XDICTIONARY
360
17A
102
}
330
2A
100
AcDbVisualStyle
  2
Flat
 70
     0
 71
     2
 72
     1
 73
     1
 90
        2
 40
0.6
 41
30.0
 62
     5
 63
     7
421
 16777215
 74
     0
 91
        0
 64
     7
 65
   257
 75
     1
175
     1
 42
1.0
 92
        8
 66
     7
 43
1.0
 76
     1
 77
     6
 78
     2
 67
     7
 79
     5
170
     0
171
     0
290
     0
174
     0
 93
       13
 44
0.0
173
     0
291
     1
 45
0.0
  0
VISUALSTYLE
  5
2C
102
{ACAD_REACTORS
330
2A
102
}
102
{ACAD_XDICTIONARY
360
17C
102
}
330
2A
100
AcDbVisualStyle
  2
FlatWithEdges
 70
     1
 71
     2
 72
     1
 73
     1
 90
        2
 40
0.6
 41
30.0
 62
     5
 63
     7
421
 16777215
 74
     1
 91
        0
 64
     7
 65
   257
 75
     1
175
     1
 42
1.0
 92
        0
 66
   257
 43
1.0
 76
     1
 77
     6
 78
     2
 67
     7
 79
     5
170
     0
171
     0
290
     0
174
     0
 93
       13
 44
0.0
173
     0
291
     1
 45
0.0
  0
VISUALSTYLE
  5
2D
102
{ACAD_REACTORS
330
2A
102
}
102
{ACAD_XDICTIONARY
360
17E
102
}
330
2A
100
AcDbVisualStyle
  2
Gouraud
 70
     2
 71
     2
 72
     2
 73
     1
 90
        2
 40
0.6
 41
30.0
 62
     5
 63
     7
421
 16777215
 74
     0
 91
        0
 64
     7
 65
   257
 75
     1
175
     1
 42
1.0
 92
        0
 66
     7
 43
1.0
 76
     1
 77
     6
 78
     2
 67
     7
 79
     5
170
     0
171
     0
290
     0
174
     0
 93
       13
 44
0.0
173
     0
291
     1
 45
0.0
  0
VISUALSTYLE
  5
2E
102
{ACAD_REACTORS
330
2A
102
}
102
{ACAD_XDICTIONARY
360
180
102
}
330
2A
100
AcDbVisualStyle
  2
GouraudWithEdges
 70
     3
 71
     2
 72
     2
 73
     1
 90
        2
 40
0.6
 41
30.0
 62
     5
 63
     7
421
 16777215
 74
     1
 91
        0
 64
     7
 65
   257
 75
     1
175
     1
 42
1.0
 92
        0
 66
   257
 43
1.0
 76
     1
 77
     6
 78
     2
 67
     7
 79
     5
170
     0
171
     0
290
     0
174
     0
 93
       13
 44
0.0
173
     0
291
     1
 45
0.0
  0
VISUALSTYLE
  5
31
102
{ACAD_REACTORS
330
2A
102
}
102
{ACAD_XDICTIONARY
360
186
102
}
330
2A
100
AcDbVisualStyle
  2
Hidden
 70
     6
 71
     1
 72
     2
 73
     2
 90
        0
 40
0.6
 41
30.0
 62
     5
 63
     7
421
 16777215
 74
     2
 91
        2
 64
     7
 65
   257
 75
     2
175
     1
 42
40.0
 92
        0
 66
   257
 43
1.0
 76
     1
 77
     6
 78
     2
 67
     7
 79
     3
170
     0
171
     0
290
     0
174
     0
 93
        1
 44
0.0
173
     0
291
     0
 45
0.0
  0
VISUALSTYLE
  5
3B
102
{ACAD_REACTORS
330
2A
102
}
102
{ACAD_XDICTIONARY
360
19A
102
}
330
2A
100
AcDbVisualStyle
  2
JitterOff
 70
    20
 71
     2
 72
     2
 73
     0
 90
        0
 40
0.6
 41
30.0
 62
     5
 63
     7
421
 16777215
 74
     1
 91
        4
 64
     7
 65
   257
 75
     1
175
     1
 42
1.0
 92
       10
 66
     7
 43
1.0
 76
     1
 77
     6
 78
     2
 67
     7
 79
     5
170
     0
171
     0
290
     0
174
     0
 93
        1
 44
0.0
173
     0
291
     1
 45
0.0
  0
VISUALSTYLE
  5
38
102
{ACAD_REACTORS
330
2A
102
}
102
{ACAD_XDICTIONARY
360
194
102
}
330
2A
100
AcDbVisualStyle
  2
Linepattern
 70
    14
 71
     2
 72
     2
 73
     0
 90
        0
 40
0.6
 41
30.0
 62
     5
 63
     7
421
 16777215
 74
     1
 91
        4
 64
     7
 65
   257
 75
     7
175
     7
 42
1.0
 92
        8
 66
     7
 43
1.0
 76
     1
 77
     6
 78
     2
 67
     7
 79
     5
170
     0
171
     0
290
     0
174
     0
 93
        1
 44
0.0
173
     0
291
     1
 45
0.0
  0
VISUALSTYLE
  5
3C
102
{ACAD_REACTORS
330
2A
102
}
102
{ACAD_XDICTIONARY
360
19C
102
}
330
2A
100
AcDbVisualStyle
  2
OverhangOff
 70
    21
 71
     2
 72
     2
 73
     0
 90
        0
 40
0.6
 41
30.0
 62
     5
 63
     7
421
 16777215
 74
     1
 91
        4
 64
     7
 65
   257
 75
     1
175
     1
 42
1.0
 92
        9
 66
     7
 43
1.0
 76
     1
 77
     6
 78
     2
 67
     7
 79
     5
170
     0
171
     0
290
     0
174
     0
 93
        1
 44
0.0
173
     0
291
     1
 45
0.0
  0
VISUALSTYLE
  5
33
102
{ACAD_REACTORS
330
2A
102
}
102
{ACAD_XDICTIONARY
360
18A
102
}
330
2A
100
AcDbVisualStyle
  2
Realistic
 70
     8
 71
     2
 72
     3
 73
     0
 90
        2
 40
0.6
 41
30.0
 62
     5
 63
     7
421
 16777215
 74
     0
 91
        0
 64
     7
 65
   257
 75
     1
175
     1
 42
1.0
 92
        8
 66
   257
 43
1.0
 76
     1
 77
     6
 78
     2
 67
     7
 79
     3
170
     0
171
     0
290
     0
174
     0
 93
       13
 44
0.0
173
     0
291
     0
 45
0.0
  0
VISUALSTYLE
  5
42
102
{ACAD_REACTORS
330
2A
102
}
102
{ACAD_XDICTIONARY
360
1A8
102
}
330
2A
100
AcDbVisualStyle
  2
Shaded
 70
    27
 71
     2
 72
     2
 73
     1
 90
        2
 40
0.6
 41
30.0
 62
     5
 63
     7
421
 16777215
 74
     0
 91
        4
 64
     7
 65
   257
 75
     1
175
     1
 42
1.0
 92
        8
 66
   257
 43
1.0
 76
     1
 77
     6
 78
     2
 67
     8
425
  7895160
 79
     3
170
     0
171
     0
290
     0
174
     0
 93
        5
 44
0.0
173
     0
291
     0
 45
0.0
  0
VISUALSTYLE
  5
41
102
{ACAD_REACTORS
330
2A
102
}
102
{ACAD_XDICTIONARY
360
1A6
102
}
330
2A
100
AcDbVisualStyle
  2
Shaded with edges
 70
    26
 71
     2
 72
     2
 73
     1
 90
        2
 40
0.6
 41
30.0
 62
     5
 63
     7
421
 16777215
 74
     1
 91
       10
 64
     7
 65
   257
 75
     2
175
     1
 42
1.0
 92
        8
 66
   257
 43
1.0
 76
     1
 77
     6
 78
     2
 67
     7
 79
     3
170
     0
171
     0
290
     0
174
     0
 93
        5
 44
0.0
173
     0
291
     0
 45
0.0
  0
VISUALSTYLE
  5
3E
102
{ACAD_REACTORS
330
2A
102
}
102
{ACAD_XDICTIONARY
360
1A0
102
}
330
2A
100
AcDbVisualStyle
  2
Shades of Gray
 70
    23
 71
     2
 72
     2
 73
     3
 90
        0
 40
0.6
 41
30.0
 62
     5
 63
     7
421
 16777215
 74
     2
 91
        2
 64
     7
 65
     7
 75
     1
175
     1
 42
40.0
 92
        8
 66
     7
 43
1.0
 76
     1
 77
     6
 78
     2
 67
     7
 79
     3
170
     0
171
     0
290
     0
174
     0
 93
        1
 44
0.0
173
     0
291
     0
 45
0.0
  0
VISUALSTYLE
  5
3F
102
{ACAD_REACTORS
330
2A
102
}
102
{ACAD_XDICTIONARY
360
1A2
102
}
330
2A
100
AcDbVisualStyle
  2
Sketchy
 70
    24
 71
     1
 72
     2
 73
     2
 90
        0
 40
0.6
 41
30.0
 62
     5
 63
     7
421
 16777215
 74
     2
 91
        2
 64
     7
 65
     7
 75
     1
175
     1
 42
40.0
 92
       11
 66
     7
 43
1.0
 76
     1
 77
     6
 78
     2
 67
     7
 79
     6
170
     0
171
     0
290
     0
174
     0
 93
        1
 44
0.0
173
     0
291
     0
 45
0.0
  0
VISUALSTYLE
  5
37
102
{ACAD_REACTORS
330
2A
102
}
102
{ACAD_XDICTIONARY
360
192
102
}
330
2A
100
AcDbVisualStyle
  2
Thicken
 70
    13
 71
     2
 72
     2
 73
     0
 90
        0
 40
0.6
 41
30.0
 62
     5
 63
     7
421
 16777215
 74
     1
 91
        4
 64
     7
 65
   257
 75
     1
175
     1
 42
1.0
 92
       12
 66
     7
 43
1.0
 76
     1
 77
     6
 78
     2
 67
     7
 79
     5
170
     0
171
     0
290
     0
174
     0
 93
        1
 44
0.0
173
     0
291
     1
 45
0.0
  0
VISUALSTYLE
  5
30
102
{ACAD_REACTORS
330
2A
102
}
102
{ACAD_XDICTIONARY
360
184
102
}
330
2A
100
AcDbVisualStyle
  2
Wireframe
 70
     5
 71
     0
 72
     2
 73
     0
 90
        0
 40
0.6
 41
30.0
 62
     5
 63
     7
421
 16777215
 74
     1
 91
        4
 64
     7
 65
   257
 75
     1
175
     1
 42
1.0
 92
        0
 66
   257
 43
1.0
 76
     1
 77
     6
 78
     2
 67
     7
 79
     3
170
     0
171
     0
290
     0
174
     0
 93
        1
 44
0.0
173
     0
291
     0
 45
0.0
  0
VISUALSTYLE
  5
40
102
{ACAD_REACTORS
330
2A
102
}
102
{ACAD_XDICTIONARY
360
1A4
102
}
330
2A
100
AcDbVisualStyle
  2
X-Ray
 70
    25
 71
     2
 72
     2
 73
     1
 90
        1
 40
0.5
 41
30.0
 62
     5
 63
     7
421
 16777215
 74
     1
 91
        0
 64
     7
 65
   257
 75
     1
175
     1
 42
1.0
 92
        8
 66
     7
 43
1.0
 76
     1
 77
     6
 78
     2
 67
     7
 79
     3
170
     0
171
     0
290
     0
174
     0
 93
       13
 44
0.0
173
     0
291
     0
 45
0.0
  0
DICTIONARYVAR
  5
178
102
{ACAD_REACTORS
330
177
102
}
330
177
100
DictionaryVariables
280
     0
  1
1:1
  0
DICTIONARYVAR
  5
1B1
102
{ACAD_REACTORS
330
177
102
}
330
177
100
DictionaryVariables
280
     0
  1
Standard
  0
DICTIONARYVAR
  5
1B0
102
{ACAD_REACTORS
330
177
102
}
330
177
100
DictionaryVariables
280
     0
  1
Standard
  0
DICTIONARYVAR
  5
179
102
{ACAD_REACTORS
330
177
102
}
330
177
100
DictionaryVariables
280
     0
  1
2
  0
DICTIONARY
  5
1AD
330
6C
100
AcDbDictionary
280
     1
281
     1
  3
ACAD_XREC_ROUNDTRIP
360
1AE
  0
DICTIONARY
  5
1AA
330
6A
100
AcDbDictionary
280
     1
281
     1
  3
ACAD_ROUNDTRIP_2008_TABLESTYLE_CELLSTYLEMAP
360
1AB
  0
DICTIONARY
  5
182
330
2F
100
AcDbDictionary
280
     1
281
     1
  3
ACAD_XREC_ROUNDTRIP
360
183
  0
DICTIONARY
  5
188
330
32
100
AcDbDictionary
280
     1
281
     1
  3
ACAD_XREC_ROUNDTRIP
360
189
  0
DICTIONARY
  5
190
330
36
100
AcDbDictionary
280
     1
281
     1
  3
ACAD_XREC_ROUNDTRIP
360
191
  0
DICTIONARY
  5
198
330
3A
100
AcDbDictionary
280
     1
281
     1
  3
ACAD_XREC_ROUNDTRIP
360
199
  0
DICTIONARY
  5
18C
330
34
100
AcDbDictionary
280
     1
281
     1
  3
ACAD_XREC_ROUNDTRIP
360
18D
  0
DICTIONARY
  5
18E
330
35
100
AcDbDictionary
280
     1
281
     1
  3
ACAD_XREC_ROUNDTRIP
360
18F
  0
DICTIONARY
  5
19E
330
3D
100
AcDbDictionary
280
     1
281
     1
  3
ACAD_XREC_ROUNDTRIP
360
19F
  0
DICTIONARY
  5
196
330
39
100
AcDbDictionary
280
     1
281
     1
  3
ACAD_XREC_ROUNDTRIP
360
197
  0
DICTIONARY
  5
17A
330
2B
100
AcDbDictionary
280
     1
281
     1
  3
ACAD_XREC_ROUNDTRIP
360
17B
  0
DICTIONARY
  5
17C
330
2C
100
AcDbDictionary
280
     1
281
     1
  3
ACAD_XREC_ROUNDTRIP
360
17D
  0
DICTIONARY
  5
17E
330
2D
100
AcDbDictionary
280
     1
281
     1
  3
ACAD_XREC_ROUNDTRIP
360
17F
  0
DICTIONARY
  5
180
330
2E
100
AcDbDictionary
280
     1
281
     1
  3
ACAD_XREC_ROUNDTRIP
360
181
  0
DICTIONARY
  5
186
330
31
100
AcDbDictionary
280
     1
281
     1
  3
ACAD_XREC_ROUNDTRIP
360
187
  0
DICTIONARY
  5
19A
330
3B
100
AcDbDictionary
280
     1
281
     1
  3
ACAD_XREC_ROUNDTRIP
360
19B
  0
DICTIONARY
  5
194
330
38
100
AcDbDictionary
280
     1
281
     1
  3
ACAD_XREC_ROUNDTRIP
360
195
  0
DICTIONARY
  5
19C
330
3C
100
AcDbDictionary
280
     1
281
     1
  3
ACAD_XREC_ROUNDTRIP
360
19D
  0
DICTIONARY
  5
18A
330
33
100
AcDbDictionary
280
     1
281
     1
  3
ACAD_XREC_ROUNDTRIP
360
18B
  0
DICTIONARY
  5
1A8
330
42
100
AcDbDictionary
280
     1
281
     1
  3
ACAD_XREC_ROUNDTRIP
360
1A9
  0
DICTIONARY
  5
1A6
330
41
100
AcDbDictionary
280
     1
281
     1
  3
ACAD_XREC_ROUNDTRIP
360
1A7
  0
DICTIONARY
  5
1A0
330
3E
100
AcDbDictionary
280
     1
281
     1
  3
ACAD_XREC_ROUNDTRIP
360
1A1
  0
DICTIONARY
  5
1A2
330
3F
100
AcDbDictionary
280
     1
281
     1
  3
ACAD_XREC_ROUNDTRIP
360
1A3
  0
DICTIONARY
  5
192
330
37
100
AcDbDictionary
280
     1
281
     1
  3
ACAD_XREC_ROUNDTRIP
360
193
  0
DICTIONARY
  5
184
330
30
100
AcDbDictionary
280
     1
281
     1
  3
ACAD_XREC_ROUNDTRIP
360
185
  0
DICTIONARY
  5
1A4
330
40
100
AcDbDictionary
280
     1
281
     1
  3
ACAD_XREC_ROUNDTRIP
360
1A5
  0
XRECORD
  5
1AE
102
{ACAD_REACTORS
330
1AD
102
}
330
1AD
100
AcDbXrecord
280
     1
102
ACAD_ROUNDTRIP_2010_MLEADER_STYLE
  0
CELLSTYLEMAP
  5
1AB
102
{ACAD_REACTORS
330
1AA
102
}
330
1AA
100
AcDbCellStyleMap
 90
        3
300
CELLSTYLE
  1
TABLEFORMAT_BEGIN
 90
        5
170
     1
 91
        0
 92
    32768
 62
   257
 93
        1
300
CONTENTFORMAT
  1
CONTENTFORMAT_BEGIN
 90
        0
 91
        0
 92
        4
 93
        0
300

 40
0.0
140
1.0
 94
        5
 62
     0
340
11
144
0.25
309
CONTENTFORMAT_END
171
     1
301
MARGIN
  1
CELLMARGIN_BEGIN
 40
0.06
 40
0.06
 40
0.06
 40
0.06
 40
0.06
 40
0.06
309
CELLMARGIN_END
 94
        6
 95
        1
302
GRIDFORMAT
  1
GRIDFORMAT_BEGIN
 90
        0
 91
        1
 62
     0
 92
       -2
340
14
 93
        0
 40
0.045
309
GRIDFORMAT_END
 95
        2
302
GRIDFORMAT
  1
GRIDFORMAT_BEGIN
 90
        0
 91
        1
 62
     0
 92
       -2
340
14
 93
        0
 40
0.045
309
GRIDFORMAT_END
 95
        4
302
GRIDFORMAT
  1
GRIDFORMAT_BEGIN
 90
        0
 91
        1
 62
     0
 92
       -2
340
14
 93
        0
 40
0.045
309
GRIDFORMAT_END
 95
        8
302
GRIDFORMAT
  1
GRIDFORMAT_BEGIN
 90
        0
 91
        1
 62
     0
 92
       -2
340
14
 93
        0
 40
0.045
309
GRIDFORMAT_END
 95
       16
302
GRIDFORMAT
  1
GRIDFORMAT_BEGIN
 90
        0
 91
        1
 62
     0
 92
       -2
340
14
 93
        0
 40
0.045
309
GRIDFORMAT_END
 95
       32
302
GRIDFORMAT
  1
GRIDFORMAT_BEGIN
 90
        0
 91
        1
 62
     0
 92
       -2
340
14
 93
        0
 40
0.045
309
GRIDFORMAT_END
309
TABLEFORMAT_END
  1
CELLSTYLE_BEGIN
 90
        1
 91
        1
300
_TITLE
309
CELLSTYLE_END
300
CELLSTYLE
  1
TABLEFORMAT_BEGIN
 90
        5
170
     1
 91
        0
 92
        0
 62
   257
 93
        1
300
CONTENTFORMAT
  1
CONTENTFORMAT_BEGIN
 90
        0
 91
        0
 92
        4
 93
        0
300

 40
0.0
140
1.0
 94
        5
 62
     0
340
11
144
0.18
309
CONTENTFORMAT_END
171
     1
301
MARGIN
  1
CELLMARGIN_BEGIN
 40
0.06
 40
0.06
 40
0.06
 40
0.06
 40
0.06
 40
0.06
309
CELLMARGIN_END
 94
        6
 95
        1
302
GRIDFORMAT
  1
GRIDFORMAT_BEGIN
 90
        0
 91
        1
 62
     0
 92
       -2
340
14
 93
        0
 40
0.045
309
GRIDFORMAT_END
 95
        2
302
GRIDFORMAT
  1
GRIDFORMAT_BEGIN
 90
        0
 91
        1
 62
     0
 92
       -2
340
14
 93
        0
 40
0.045
309
GRIDFORMAT_END
 95
        4
302
GRIDFORMAT
  1
GRIDFORMAT_BEGIN
 90
        0
 91
        1
 62
     0
 92
       -2
340
14
 93
        0
 40
0.045
309
GRIDFORMAT_END
 95
        8
302
GRIDFORMAT
  1
GRIDFORMAT_BEGIN
 90
        0
 91
        1
 62
     0
 92
       -2
340
14
 93
        0
 40
0.045
309
GRIDFORMAT_END
 95
       16
302
GRIDFORMAT
  1
GRIDFORMAT_BEGIN
 90
        0
 91
        1
 62
     0
 92
       -2
340
14
 93
        0
 40
0.045
309
GRIDFORMAT_END
 95
       32
302
GRIDFORMAT
  1
GRIDFORMAT_BEGIN
 90
        0
 91
        1
 62
     0
 92
       -2
340
14
 93
        0
 40
0.045
309
GRIDFORMAT_END
309
TABLEFORMAT_END
  1
CELLSTYLE_BEGIN
 90
        2
 91
        1
300
_HEADER
309
CELLSTYLE_END
300
CELLSTYLE
  1
TABLEFORMAT_BEGIN
 90
        5
170
     1
 91
        0
 92
        0
 62
   257
 93
        1
300
CONTENTFORMAT
  1
CONTENTFORMAT_BEGIN
 90
        0
 91
        0
 92
        4
 93
        0
300

 40
0.0
140
1.0
 94
        2
 62
     0
340
11
144
0.18
309
CONTENTFORMAT_END
171
     1
301
MARGIN
  1
CELLMARGIN_BEGIN
 40
0.06
 40
0.06
 40
0.06
 40
0.06
 40
0.06
 40
0.06
309
CELLMARGIN_END
 94
        6
 95
        1
302
GRIDFORMAT
  1
GRIDFORMAT_BEGIN
 90
        0
 91
        1
 62
     0
 92
       -2
340
14
 93
        0
 40
0.045
309
GRIDFORMAT_END
 95
        2
302
GRIDFORMAT
  1
GRIDFORMAT_BEGIN
 90
        0
 91
        1
 62
     0
 92
       -2
340
14
 93
        0
 40
0.045
309
GRIDFORMAT_END
 95
        4
302
GRIDFORMAT
  1
GRIDFORMAT_BEGIN
 90
        0
 91
        1
 62
     0
 92
       -2
340
14
 93
        0
 40
0.045
309
GRIDFORMAT_END
 95
        8
302
GRIDFORMAT
  1
GRIDFORMAT_BEGIN
 90
        0
 91
        1
 62
     0
 92
       -2
340
14
 93
        0
 40
0.045
309
GRIDFORMAT_END
 95
       16
302
GRIDFORMAT
  1
GRIDFORMAT_BEGIN
 90
        0
 91
        1
 62
     0
 92
       -2
340
14
 93
        0
 40
0.045
309
GRIDFORMAT_END
 95
       32
302
GRIDFORMAT
  1
GRIDFORMAT_BEGIN
 90
        0
 91
        1
 62
     0
 92
       -2
340
14
 93
        0
 40
0.045
309
GRIDFORMAT_END
309
TABLEFORMAT_END
  1
CELLSTYLE_BEGIN
 90
        3
 91
        2
300
_DATA
309
CELLSTYLE_END
  0
XRECORD
  5
183
102
{ACAD_REACTORS
330
182
102
}
330
182
100
AcDbXrecord
280
     1
102
RTVSPropertyOp0
 70
     1
102
RTVSPropertyOp1
 70
     1
102
RTVSPropertyOp2
 70
     1
102
RTVSPropertyOp3
 70
     1
102
RTVSPropertyOp4
 70
     1
102
RTVSPropertyOp5
 70
     1
102
RTVSPropertyOp6
 70
     1
102
RTVSPropertyOp7
 70
     1
102
RTVSPropertyOp8
 70
     1
102
RTVSPropertyOp9
 70
     1
102
RTVSPropertyOp10
 70
     1
102
RTVSPropertyOp11
 70
     1
102
RTVSPropertyOp12
 70
     1
102
RTVSPropertyOp13
 70
     1
102
RTVSPropertyOp14
 70
     1
102
RTVSPropertyOp15
 70
     1
102
RTVSPropertyOp16
 70
     1
102
RTVSPropertyOp17
 70
     1
102
RTVSPropertyOp18
 70
     1
102
RTVSPropertyOp19
 70
     1
102
RTVSPropertyOp20
 70
     1
102
RTVSPropertyOp21
 70
     1
102
RTVSPropertyOp22
 70
     1
102
RTVSPropertyOp23
 70
     1
102
RTVSPropertyOp24
 70
     1
102
RTVSPropertyOp25
 70
     1
102
RTVSPropertyOp26
 70
     1
102
RTVSPropertyOp27
 70
     1
102
RTVSPropertyOp28
 70
     1
102
RTVSPropertyOp29
 70
     1
102
RTVSPropertyOp30
 70
     1
102
RTVSPropertyOp31
 70
     1
102
RTVSPropertyOp32
 70
     1
102
RTVSPropertyOp33
 70
     1
102
RTVSPropertyOp34
 70
     1
102
RTVSPropertyOp35
 70
     1
102
RTVSPropertyOp36
 70
     1
102
RTVSPropertyOp37
 70
     1
102
RTVSPropertyOp38
 70
     1
102
RTVSPropertyOp39
 70
     1
102
RTVSPropertyOp40
 70
     1
102
RTVSPropertyOp41
 70
     1
102
RTVSPropertyOp42
 70
     1
102
RTVSPropertyOp43
 70
     1
102
RTVSPropertyOp44
 70
     1
102
RTVSPropertyOp45
 70
     1
102
RTVSPropertyOp46
 70
     1
102
RTVSPropertyOp47
 70
     1
102
RTVSPropertyOp48
 70
     1
102
RTVSPropertyOp49
 70
     1
102
RTVSPropertyOp50
 70
     1
102
RTVSPropertyOp51
 70
     0
102
RTVSPropertyOp52
 70
     0
102
RTVSPropertyOp53
 70
     1
102
RTVSPropertyOp54
 70
     1
102
RTVSPropertyOp55
 70
     1
102
RTVSPropertyOp56
 70
     1
102
RTVSPropertyOp57
 70
     1
102
RTVSPost2010Prop28
280
     1
102
RTVSPost2010PropOp28
 70
     1
102
RTVSPost2010Prop29
280
     1
102
RTVSPost2010PropOp29
 70
     1
102
RTVSPost2010Prop30
280
     0
102
RTVSPost2010PropOp30
 70
     1
102
RTVSPost2010Prop31
280
     0
102
RTVSPost2010PropOp31
 70
     1
102
RTVSPost2010Prop32
280
     0
102
RTVSPost2010PropOp32
 70
     1
102
RTVSPost2010Prop33
280
     0
102
RTVSPost2010PropOp33
 70
     1
102
RTVSPost2010Prop34
280
     0
102
RTVSPost2010PropOp34
 70
     1
102
RTVSPost2010Prop35
280
     0
102
RTVSPost2010PropOp35
 70
     1
102
RTVSPost2010Prop36
280
     0
102
RTVSPost2010PropOp36
 70
     1
102
RTVSPost2010Prop37
 90
       50
102
RTVSPost2010PropOp37
 70
     1
102
RTVSPost2010Prop38
140
0.0
102
RTVSPost2010PropOp38
 70
     1
102
RTVSPost2010Prop39
140
1.0
102
RTVSPost2010PropOp39
 70
     1
102
RTVSPost2010Prop40
 90
        0
102
RTVSPost2010PropOp40
 70
     1
102
RTVSPost2010Prop41ColorIndex
 90
       18
102
RTVSPost2010Prop41ColorRGB
 90
        0
102
RTVSPost2010PropOp41
 70
     1
102
RTVSPost2010Prop42
 90
       50
102
RTVSPost2010PropOp42
 70
     1
102
RTVSPost2010Prop43
 90
        3
102
RTVSPost2010PropOp43
 70
     1
102
RTVSPost2010Prop44ColorIndex
 90
        5
102
RTVSPost2010Prop44ColorRGB
 90
      255
102
RTVSPost2010PropOp44
 70
     1
102
RTVSPost2010Prop45
280
     0
102
RTVSPost2010PropOp45
 70
     1
102
RTVSPost2010Prop46
 90
       50
102
RTVSPost2010PropOp46
 70
     1
102
RTVSPost2010Prop47
 90
       50
102
RTVSPost2010PropOp47
 70
     1
102
RTVSPost2010Prop48
 90
       50
102
RTVSPost2010PropOp48
 70
     1
102
RTVSPost2010Prop49
280
     0
102
RTVSPost2010PropOp49
 70
     1
102
RTVSPost2010Prop50
 90
       50
102
RTVSPost2010PropOp50
 70
     1
102
RTVSPost2010Prop51ColorIndex
 90
      256
102
RTVSPost2010Prop51ColorRGB
 90
-16777216
102
RTVSPost2010PropOp51
 70
     0
102
RTVSPost2010Prop52
140
1.0
102
RTVSPost2010PropOp52
 70
     0
102
RTVSPost2010Prop53
 90
        2
102
RTVSPost2010PropOp53
 70
     1
102
RTVSPost2010Prop54
  1
strokes_ogs.tif
102
RTVSPost2010PropOp54
 70
     1
102
RTVSPost2010Prop55
280
     0
102
RTVSPost2010PropOp55
 70
     1
102
RTVSPost2010Prop56
140
1.0
102
RTVSPost2010PropOp56
 70
     1
102
RTVSPost2010Prop57
140
1.0
102
RTVSPost2010PropOp57
 70
     1
  0
XRECORD
  5
189
102
{ACAD_REACTORS
330
188
102
}
330
188
100
AcDbXrecord
280
     1
102
RTVSPropertyOp0
 70
     1
102
RTVSPropertyOp1
 70
     1
102
RTVSPropertyOp2
 70
     1
102
RTVSPropertyOp3
 70
     1
102
RTVSPropertyOp4
 70
     1
102
RTVSPropertyOp5
 70
     1
102
RTVSPropertyOp6
 70
     1
102
RTVSPropertyOp7
 70
     1
102
RTVSPropertyOp8
 70
     1
102
RTVSPropertyOp9
 70
     1
102
RTVSPropertyOp10
 70
     1
102
RTVSPropertyOp11
 70
     1
102
RTVSPropertyOp12
 70
     1
102
RTVSPropertyOp13
 70
     1
102
RTVSPropertyOp14
 70
     1
102
RTVSPropertyOp15
 70
     1
102
RTVSPropertyOp16
 70
     1
102
RTVSPropertyOp17
 70
     1
102
RTVSPropertyOp18
 70
     1
102
RTVSPropertyOp19
 70
     1
102
RTVSPropertyOp20
 70
     1
102
RTVSPropertyOp21
 70
     1
102
RTVSPropertyOp22
 70
     1
102
RTVSPropertyOp23
 70
     1
102
RTVSPropertyOp24
 70
     1
102
RTVSPropertyOp25
 70
     1
102
RTVSPropertyOp26
 70
     1
102
RTVSPropertyOp27
 70
     1
102
RTVSPropertyOp28
 70
     1
102
RTVSPropertyOp29
 70
     1
102
RTVSPropertyOp30
 70
     1
102
RTVSPropertyOp31
 70
     1
102
RTVSPropertyOp32
 70
     1
102
RTVSPropertyOp33
 70
     1
102
RTVSPropertyOp34
 70
     1
102
RTVSPropertyOp35
 70
     1
102
RTVSPropertyOp36
 70
     1
102
RTVSPropertyOp37
 70
     1
102
RTVSPropertyOp38
 70
     1
102
RTVSPropertyOp39
 70
     1
102
RTVSPropertyOp40
 70
     1
102
RTVSPropertyOp41
 70
     1
102
RTVSPropertyOp42
 70
     1
102
RTVSPropertyOp43
 70
     1
102
RTVSPropertyOp44
 70
     1
102
RTVSPropertyOp45
 70
     1
102
RTVSPropertyOp46
 70
     1
102
RTVSPropertyOp47
 70
     1
102
RTVSPropertyOp48
 70
     1
102
RTVSPropertyOp49
 70
     1
102
RTVSPropertyOp50
 70
     1
102
RTVSPropertyOp51
 70
     0
102
RTVSPropertyOp52
 70
     0
102
RTVSPropertyOp53
 70
     1
102
RTVSPropertyOp54
 70
     1
102
RTVSPropertyOp55
 70
     1
102
RTVSPropertyOp56
 70
     1
102
RTVSPropertyOp57
 70
     1
102
RTVSPost2010Prop28
280
     0
102
RTVSPost2010PropOp28
 70
     1
102
RTVSPost2010Prop29
280
     1
102
RTVSPost2010PropOp29
 70
     1
102
RTVSPost2010Prop30
280
     1
102
RTVSPost2010PropOp30
 70
     1
102
RTVSPost2010Prop31
280
     0
102
RTVSPost2010PropOp31
 70
     1
102
RTVSPost2010Prop32
280
     0
102
RTVSPost2010PropOp32
 70
     1
102
RTVSPost2010Prop33
280
     0
102
RTVSPost2010PropOp33
 70
     1
102
RTVSPost2010Prop34
280
     0
102
RTVSPost2010PropOp34
 70
     1
102
RTVSPost2010Prop35
280
     0
102
RTVSPost2010PropOp35
 70
     1
102
RTVSPost2010Prop36
280
     0
102
RTVSPost2010PropOp36
 70
     1
102
RTVSPost2010Prop37
 90
       50
102
RTVSPost2010PropOp37
 70
     1
102
RTVSPost2010Prop38
140
0.0
102
RTVSPost2010PropOp38
 70
     1
102
RTVSPost2010Prop39
140
1.0
102
RTVSPost2010PropOp39
 70
     1
102
RTVSPost2010Prop40
 90
        0
102
RTVSPost2010PropOp40
 70
     1
102
RTVSPost2010Prop41ColorIndex
 90
       18
102
RTVSPost2010Prop41ColorRGB
 90
        0
102
RTVSPost2010PropOp41
 70
     1
102
RTVSPost2010Prop42
 90
       50
102
RTVSPost2010PropOp42
 70
     1
102
RTVSPost2010Prop43
 90
        3
102
RTVSPost2010PropOp43
 70
     1
102
RTVSPost2010Prop44ColorIndex
 90
        5
102
RTVSPost2010Prop44ColorRGB
 90
      255
102
RTVSPost2010PropOp44
 70
     1
102
RTVSPost2010Prop45
280
     0
102
RTVSPost2010PropOp45
 70
     1
102
RTVSPost2010Prop46
 90
       50
102
RTVSPost2010PropOp46
 70
     1
102
RTVSPost2010Prop47
 90
       50
102
RTVSPost2010PropOp47
 70
     1
102
RTVSPost2010Prop48
 90
       50
102
RTVSPost2010PropOp48
 70
     1
102
RTVSPost2010Prop49
280
     0
102
RTVSPost2010PropOp49
 70
     1
102
RTVSPost2010Prop50
 90
       50
102
RTVSPost2010PropOp50
 70
     1
102
RTVSPost2010Prop51ColorIndex
 90
      256
102
RTVSPost2010Prop51ColorRGB
 90
-16777216
102
RTVSPost2010PropOp51
 70
     0
102
RTVSPost2010Prop52
140
1.0
102
RTVSPost2010PropOp52
 70
     0
102
RTVSPost2010Prop53
 90
        2
102
RTVSPost2010PropOp53
 70
     1
102
RTVSPost2010Prop54
  1
strokes_ogs.tif
102
RTVSPost2010PropOp54
 70
     1
102
RTVSPost2010Prop55
280
     0
102
RTVSPost2010PropOp55
 70
     1
102
RTVSPost2010Prop56
140
1.0
102
RTVSPost2010PropOp56
 70
     1
102
RTVSPost2010Prop57
140
1.0
102
RTVSPost2010PropOp57
 70
     1
  0
XRECORD
  5
191
102
{ACAD_REACTORS
330
190
102
}
330
190
100
AcDbXrecord
280
     1
102
RTVSPropertyOp0
 70
     1
102
RTVSPropertyOp1
 70
     1
102
RTVSPropertyOp2
 70
     1
102
RTVSPropertyOp3
 70
     1
102
RTVSPropertyOp4
 70
     1
102
RTVSPropertyOp5
 70
     1
102
RTVSPropertyOp6
 70
     1
102
RTVSPropertyOp7
 70
     1
102
RTVSPropertyOp8
 70
     1
102
RTVSPropertyOp9
 70
     1
102
RTVSPropertyOp10
 70
     1
102
RTVSPropertyOp11
 70
     1
102
RTVSPropertyOp12
 70
     1
102
RTVSPropertyOp13
 70
     1
102
RTVSPropertyOp14
 70
     1
102
RTVSPropertyOp15
 70
     1
102
RTVSPropertyOp16
 70
     1
102
RTVSPropertyOp17
 70
     1
102
RTVSPropertyOp18
 70
     1
102
RTVSPropertyOp19
 70
     1
102
RTVSPropertyOp20
 70
     1
102
RTVSPropertyOp21
 70
     1
102
RTVSPropertyOp22
 70
     1
102
RTVSPropertyOp23
 70
     1
102
RTVSPropertyOp24
 70
     1
102
RTVSPropertyOp25
 70
     1
102
RTVSPropertyOp26
 70
     1
102
RTVSPropertyOp27
 70
     1
102
RTVSPropertyOp28
 70
     1
102
RTVSPropertyOp29
 70
     1
102
RTVSPropertyOp30
 70
     1
102
RTVSPropertyOp31
 70
     1
102
RTVSPropertyOp32
 70
     1
102
RTVSPropertyOp33
 70
     1
102
RTVSPropertyOp34
 70
     1
102
RTVSPropertyOp35
 70
     1
102
RTVSPropertyOp36
 70
     1
102
RTVSPropertyOp37
 70
     1
102
RTVSPropertyOp38
 70
     1
102
RTVSPropertyOp39
 70
     1
102
RTVSPropertyOp40
 70
     1
102
RTVSPropertyOp41
 70
     1
102
RTVSPropertyOp42
 70
     1
102
RTVSPropertyOp43
 70
     1
102
RTVSPropertyOp44
 70
     1
102
RTVSPropertyOp45
 70
     1
102
RTVSPropertyOp46
 70
     1
102
RTVSPropertyOp47
 70
     1
102
RTVSPropertyOp48
 70
     1
102
RTVSPropertyOp49
 70
     1
102
RTVSPropertyOp50
 70
     1
102
RTVSPropertyOp51
 70
     0
102
RTVSPropertyOp52
 70
     0
102
RTVSPropertyOp53
 70
     1
102
RTVSPropertyOp54
 70
     1
102
RTVSPropertyOp55
 70
     1
102
RTVSPropertyOp56
 70
     1
102
RTVSPropertyOp57
 70
     1
102
RTVSPost2010Prop28
280
     0
102
RTVSPost2010PropOp28
 70
     1
102
RTVSPost2010Prop29
280
     1
102
RTVSPost2010PropOp29
 70
     1
102
RTVSPost2010Prop30
280
     1
102
RTVSPost2010PropOp30
 70
     1
102
RTVSPost2010Prop31
280
     0
102
RTVSPost2010PropOp31
 70
     1
102
RTVSPost2010Prop32
280
     0
102
RTVSPost2010PropOp32
 70
     1
102
RTVSPost2010Prop33
280
     0
102
RTVSPost2010PropOp33
 70
     1
102
RTVSPost2010Prop34
280
     0
102
RTVSPost2010PropOp34
 70
     1
102
RTVSPost2010Prop35
280
     0
102
RTVSPost2010PropOp35
 70
     1
102
RTVSPost2010Prop36
280
     0
102
RTVSPost2010PropOp36
 70
     1
102
RTVSPost2010Prop37
 90
       50
102
RTVSPost2010PropOp37
 70
     1
102
RTVSPost2010Prop38
140
0.0
102
RTVSPost2010PropOp38
 70
     1
102
RTVSPost2010Prop39
140
1.0
102
RTVSPost2010PropOp39
 70
     1
102
RTVSPost2010Prop40
 90
        0
102
RTVSPost2010PropOp40
 70
     1
102
RTVSPost2010Prop41ColorIndex
 90
       18
102
RTVSPost2010Prop41ColorRGB
 90
        0
102
RTVSPost2010PropOp41
 70
     1
102
RTVSPost2010Prop42
 90
       50
102
RTVSPost2010PropOp42
 70
     1
102
RTVSPost2010Prop43
 90
        3
102
RTVSPost2010PropOp43
 70
     1
102
RTVSPost2010Prop44ColorIndex
 90
        5
102
RTVSPost2010Prop44ColorRGB
 90
      255
102
RTVSPost2010PropOp44
 70
     1
102
RTVSPost2010Prop45
280
     0
102
RTVSPost2010PropOp45
 70
     1
102
RTVSPost2010Prop46
 90
       50
102
RTVSPost2010PropOp46
 70
     1
102
RTVSPost2010Prop47
 90
       50
102
RTVSPost2010PropOp47
 70
     1
102
RTVSPost2010Prop48
 90
       50
102
RTVSPost2010PropOp48
 70
     1
102
RTVSPost2010Prop49
280
     0
102
RTVSPost2010PropOp49
 70
     1
102
RTVSPost2010Prop50
 90
       50
102
RTVSPost2010PropOp50
 70
     1
102
RTVSPost2010Prop51ColorIndex
 90
      256
102
RTVSPost2010Prop51ColorRGB
 90
-16777216
102
RTVSPost2010PropOp51
 70
     0
102
RTVSPost2010Prop52
140
1.0
102
RTVSPost2010PropOp52
 70
     0
102
RTVSPost2010Prop53
 90
        2
102
RTVSPost2010PropOp53
 70
     1
102
RTVSPost2010Prop54
  1
strokes_ogs.tif
102
RTVSPost2010PropOp54
 70
     1
102
RTVSPost2010Prop55
280
     0
102
RTVSPost2010PropOp55
 70
     1
102
RTVSPost2010Prop56
140
1.0
102
RTVSPost2010PropOp56
 70
     1
102
RTVSPost2010Prop57
140
1.0
102
RTVSPost2010PropOp57
 70
     1
  0
XRECORD
  5
199
102
{ACAD_REACTORS
330
198
102
}
330
198
100
AcDbXrecord
280
     1
102
RTVSPropertyOp0
 70
     1
102
RTVSPropertyOp1
 70
     1
102
RTVSPropertyOp2
 70
     1
102
RTVSPropertyOp3
 70
     1
102
RTVSPropertyOp4
 70
     1
102
RTVSPropertyOp5
 70
     1
102
RTVSPropertyOp6
 70
     1
102
RTVSPropertyOp7
 70
     1
102
RTVSPropertyOp8
 70
     1
102
RTVSPropertyOp9
 70
     1
102
RTVSPropertyOp10
 70
     1
102
RTVSPropertyOp11
 70
     1
102
RTVSPropertyOp12
 70
     1
102
RTVSPropertyOp13
 70
     1
102
RTVSPropertyOp14
 70
     1
102
RTVSPropertyOp15
 70
     1
102
RTVSPropertyOp16
 70
     1
102
RTVSPropertyOp17
 70
     1
102
RTVSPropertyOp18
 70
     1
102
RTVSPropertyOp19
 70
     1
102
RTVSPropertyOp20
 70
     1
102
RTVSPropertyOp21
 70
     1
102
RTVSPropertyOp22
 70
     1
102
RTVSPropertyOp23
 70
     1
102
RTVSPropertyOp24
 70
     1
102
RTVSPropertyOp25
 70
     1
102
RTVSPropertyOp26
 70
     1
102
RTVSPropertyOp27
 70
     1
102
RTVSPropertyOp28
 70
     1
102
RTVSPropertyOp29
 70
     1
102
RTVSPropertyOp30
 70
     1
102
RTVSPropertyOp31
 70
     1
102
RTVSPropertyOp32
 70
     1
102
RTVSPropertyOp33
 70
     1
102
RTVSPropertyOp34
 70
     1
102
RTVSPropertyOp35
 70
     1
102
RTVSPropertyOp36
 70
     1
102
RTVSPropertyOp37
 70
     1
102
RTVSPropertyOp38
 70
     1
102
RTVSPropertyOp39
 70
     1
102
RTVSPropertyOp40
 70
     1
102
RTVSPropertyOp41
 70
     1
102
RTVSPropertyOp42
 70
     1
102
RTVSPropertyOp43
 70
     1
102
RTVSPropertyOp44
 70
     1
102
RTVSPropertyOp45
 70
     1
102
RTVSPropertyOp46
 70
     1
102
RTVSPropertyOp47
 70
     1
102
RTVSPropertyOp48
 70
     1
102
RTVSPropertyOp49
 70
     1
102
RTVSPropertyOp50
 70
     1
102
RTVSPropertyOp51
 70
     0
102
RTVSPropertyOp52
 70
     0
102
RTVSPropertyOp53
 70
     1
102
RTVSPropertyOp54
 70
     1
102
RTVSPropertyOp55
 70
     1
102
RTVSPropertyOp56
 70
     1
102
RTVSPropertyOp57
 70
     1
102
RTVSPost2010Prop28
280
     0
102
RTVSPost2010PropOp28
 70
     1
102
RTVSPost2010Prop29
280
     1
102
RTVSPost2010PropOp29
 70
     1
102
RTVSPost2010Prop30
280
     1
102
RTVSPost2010PropOp30
 70
     1
102
RTVSPost2010Prop31
280
     0
102
RTVSPost2010PropOp31
 70
     1
102
RTVSPost2010Prop32
280
     0
102
RTVSPost2010PropOp32
 70
     1
102
RTVSPost2010Prop33
280
     0
102
RTVSPost2010PropOp33
 70
     1
102
RTVSPost2010Prop34
280
     0
102
RTVSPost2010PropOp34
 70
     1
102
RTVSPost2010Prop35
280
     0
102
RTVSPost2010PropOp35
 70
     1
102
RTVSPost2010Prop36
280
     0
102
RTVSPost2010PropOp36
 70
     1
102
RTVSPost2010Prop37
 90
       50
102
RTVSPost2010PropOp37
 70
     1
102
RTVSPost2010Prop38
140
0.0
102
RTVSPost2010PropOp38
 70
     1
102
RTVSPost2010Prop39
140
1.0
102
RTVSPost2010PropOp39
 70
     1
102
RTVSPost2010Prop40
 90
        0
102
RTVSPost2010PropOp40
 70
     1
102
RTVSPost2010Prop41ColorIndex
 90
       18
102
RTVSPost2010Prop41ColorRGB
 90
        0
102
RTVSPost2010PropOp41
 70
     1
102
RTVSPost2010Prop42
 90
       50
102
RTVSPost2010PropOp42
 70
     1
102
RTVSPost2010Prop43
 90
        3
102
RTVSPost2010PropOp43
 70
     1
102
RTVSPost2010Prop44ColorIndex
 90
        5
102
RTVSPost2010Prop44ColorRGB
 90
      255
102
RTVSPost2010PropOp44
 70
     1
102
RTVSPost2010Prop45
280
     0
102
RTVSPost2010PropOp45
 70
     1
102
RTVSPost2010Prop46
 90
       50
102
RTVSPost2010PropOp46
 70
     1
102
RTVSPost2010Prop47
 90
       50
102
RTVSPost2010PropOp47
 70
     1
102
RTVSPost2010Prop48
 90
       50
102
RTVSPost2010PropOp48
 70
     1
102
RTVSPost2010Prop49
280
     0
102
RTVSPost2010PropOp49
 70
     1
102
RTVSPost2010Prop50
 90
       50
102
RTVSPost2010PropOp50
 70
     1
102
RTVSPost2010Prop51ColorIndex
 90
      256
102
RTVSPost2010Prop51ColorRGB
 90
-16777216
102
RTVSPost2010PropOp51
 70
     0
102
RTVSPost2010Prop52
140
1.0
102
RTVSPost2010PropOp52
 70
     0
102
RTVSPost2010Prop53
 90
        2
102
RTVSPost2010PropOp53
 70
     1
102
RTVSPost2010Prop54
  1
strokes_ogs.tif
102
RTVSPost2010PropOp54
 70
     1
102
RTVSPost2010Prop55
280
     0
102
RTVSPost2010PropOp55
 70
     1
102
RTVSPost2010Prop56
140
1.0
102
RTVSPost2010PropOp56
 70
     1
102
RTVSPost2010Prop57
140
1.0
102
RTVSPost2010PropOp57
 70
     1
  0
XRECORD
  5
18D
102
{ACAD_REACTORS
330
18C
102
}
330
18C
100
AcDbXrecord
280
     1
102
RTVSPropertyOp0
 70
     1
102
RTVSPropertyOp1
 70
     1
102
RTVSPropertyOp2
 70
     1
102
RTVSPropertyOp3
 70
     1
102
RTVSPropertyOp4
 70
     1
102
RTVSPropertyOp5
 70
     1
102
RTVSPropertyOp6
 70
     1
102
RTVSPropertyOp7
 70
     1
102
RTVSPropertyOp8
 70
     1
102
RTVSPropertyOp9
 70
     1
102
RTVSPropertyOp10
 70
     1
102
RTVSPropertyOp11
 70
     1
102
RTVSPropertyOp12
 70
     1
102
RTVSPropertyOp13
 70
     1
102
RTVSPropertyOp14
 70
     1
102
RTVSPropertyOp15
 70
     1
102
RTVSPropertyOp16
 70
     1
102
RTVSPropertyOp17
 70
     1
102
RTVSPropertyOp18
 70
     1
102
RTVSPropertyOp19
 70
     1
102
RTVSPropertyOp20
 70
     1
102
RTVSPropertyOp21
 70
     1
102
RTVSPropertyOp22
 70
     1
102
RTVSPropertyOp23
 70
     1
102
RTVSPropertyOp24
 70
     1
102
RTVSPropertyOp25
 70
     1
102
RTVSPropertyOp26
 70
     1
102
RTVSPropertyOp27
 70
     1
102
RTVSPropertyOp28
 70
     1
102
RTVSPropertyOp29
 70
     1
102
RTVSPropertyOp30
 70
     1
102
RTVSPropertyOp31
 70
     1
102
RTVSPropertyOp32
 70
     1
102
RTVSPropertyOp33
 70
     1
102
RTVSPropertyOp34
 70
     1
102
RTVSPropertyOp35
 70
     1
102
RTVSPropertyOp36
 70
     1
102
RTVSPropertyOp37
 70
     1
102
RTVSPropertyOp38
 70
     1
102
RTVSPropertyOp39
 70
     1
102
RTVSPropertyOp40
 70
     1
102
RTVSPropertyOp41
 70
     1
102
RTVSPropertyOp42
 70
     1
102
RTVSPropertyOp43
 70
     1
102
RTVSPropertyOp44
 70
     1
102
RTVSPropertyOp45
 70
     1
102
RTVSPropertyOp46
 70
     1
102
RTVSPropertyOp47
 70
     1
102
RTVSPropertyOp48
 70
     1
102
RTVSPropertyOp49
 70
     1
102
RTVSPropertyOp50
 70
     1
102
RTVSPropertyOp51
 70
     0
102
RTVSPropertyOp52
 70
     0
102
RTVSPropertyOp53
 70
     1
102
RTVSPropertyOp54
 70
     1
102
RTVSPropertyOp55
 70
     1
102
RTVSPropertyOp56
 70
     1
102
RTVSPropertyOp57
 70
     1
102
RTVSPost2010Prop28
280
     0
102
RTVSPost2010PropOp28
 70
     1
102
RTVSPost2010Prop29
280
     1
102
RTVSPost2010PropOp29
 70
     1
102
RTVSPost2010Prop30
280
     1
102
RTVSPost2010PropOp30
 70
     1
102
RTVSPost2010Prop31
280
     0
102
RTVSPost2010PropOp31
 70
     1
102
RTVSPost2010Prop32
280
     0
102
RTVSPost2010PropOp32
 70
     1
102
RTVSPost2010Prop33
280
     0
102
RTVSPost2010PropOp33
 70
     1
102
RTVSPost2010Prop34
280
     0
102
RTVSPost2010PropOp34
 70
     1
102
RTVSPost2010Prop35
280
     0
102
RTVSPost2010PropOp35
 70
     1
102
RTVSPost2010Prop36
280
     0
102
RTVSPost2010PropOp36
 70
     1
102
RTVSPost2010Prop37
 90
       50
102
RTVSPost2010PropOp37
 70
     1
102
RTVSPost2010Prop38
140
0.0
102
RTVSPost2010PropOp38
 70
     1
102
RTVSPost2010Prop39
140
1.0
102
RTVSPost2010PropOp39
 70
     1
102
RTVSPost2010Prop40
 90
        0
102
RTVSPost2010PropOp40
 70
     1
102
RTVSPost2010Prop41ColorIndex
 90
       18
102
RTVSPost2010Prop41ColorRGB
 90
        0
102
RTVSPost2010PropOp41
 70
     1
102
RTVSPost2010Prop42
 90
       50
102
RTVSPost2010PropOp42
 70
     1
102
RTVSPost2010Prop43
 90
        3
102
RTVSPost2010PropOp43
 70
     1
102
RTVSPost2010Prop44ColorIndex
 90
        5
102
RTVSPost2010Prop44ColorRGB
 90
      255
102
RTVSPost2010PropOp44
 70
     1
102
RTVSPost2010Prop45
280
     0
102
RTVSPost2010PropOp45
 70
     1
102
RTVSPost2010Prop46
 90
       50
102
RTVSPost2010PropOp46
 70
     1
102
RTVSPost2010Prop47
 90
       50
102
RTVSPost2010PropOp47
 70
     1
102
RTVSPost2010Prop48
 90
       50
102
RTVSPost2010PropOp48
 70
     1
102
RTVSPost2010Prop49
280
     0
102
RTVSPost2010PropOp49
 70
     1
102
RTVSPost2010Prop50
 90
       50
102
RTVSPost2010PropOp50
 70
     1
102
RTVSPost2010Prop51ColorIndex
 90
      256
102
RTVSPost2010Prop51ColorRGB
 90
-16777216
102
RTVSPost2010PropOp51
 70
     0
102
RTVSPost2010Prop52
140
1.0
102
RTVSPost2010PropOp52
 70
     0
102
RTVSPost2010Prop53
 90
        2
102
RTVSPost2010PropOp53
 70
     1
102
RTVSPost2010Prop54
  1
strokes_ogs.tif
102
RTVSPost2010PropOp54
 70
     1
102
RTVSPost2010Prop55
280
     0
102
RTVSPost2010PropOp55
 70
     1
102
RTVSPost2010Prop56
140
1.0
102
RTVSPost2010PropOp56
 70
     1
102
RTVSPost2010Prop57
140
1.0
102
RTVSPost2010PropOp57
 70
     1
  0
XRECORD
  5
18F
102
{ACAD_REACTORS
330
18E
102
}
330
18E
100
AcDbXrecord
280
     1
102
RTVSPropertyOp0
 70
     1
102
RTVSPropertyOp1
 70
     1
102
RTVSPropertyOp2
 70
     1
102
RTVSPropertyOp3
 70
     1
102
RTVSPropertyOp4
 70
     1
102
RTVSPropertyOp5
 70
     1
102
RTVSPropertyOp6
 70
     1
102
RTVSPropertyOp7
 70
     1
102
RTVSPropertyOp8
 70
     1
102
RTVSPropertyOp9
 70
     1
102
RTVSPropertyOp10
 70
     1
102
RTVSPropertyOp11
 70
     1
102
RTVSPropertyOp12
 70
     1
102
RTVSPropertyOp13
 70
     1
102
RTVSPropertyOp14
 70
     1
102
RTVSPropertyOp15
 70
     1
102
RTVSPropertyOp16
 70
     1
102
RTVSPropertyOp17
 70
     1
102
RTVSPropertyOp18
 70
     1
102
RTVSPropertyOp19
 70
     1
102
RTVSPropertyOp20
 70
     1
102
RTVSPropertyOp21
 70
     1
102
RTVSPropertyOp22
 70
     1
102
RTVSPropertyOp23
 70
     1
102
RTVSPropertyOp24
 70
     1
102
RTVSPropertyOp25
 70
     1
102
RTVSPropertyOp26
 70
     1
102
RTVSPropertyOp27
 70
     1
102
RTVSPropertyOp28
 70
     1
102
RTVSPropertyOp29
 70
     1
102
RTVSPropertyOp30
 70
     1
102
RTVSPropertyOp31
 70
     1
102
RTVSPropertyOp32
 70
     1
102
RTVSPropertyOp33
 70
     1
102
RTVSPropertyOp34
 70
     1
102
RTVSPropertyOp35
 70
     1
102
RTVSPropertyOp36
 70
     1
102
RTVSPropertyOp37
 70
     1
102
RTVSPropertyOp38
 70
     1
102
RTVSPropertyOp39
 70
     1
102
RTVSPropertyOp40
 70
     1
102
RTVSPropertyOp41
 70
     1
102
RTVSPropertyOp42
 70
     1
102
RTVSPropertyOp43
 70
     1
102
RTVSPropertyOp44
 70
     1
102
RTVSPropertyOp45
 70
     1
102
RTVSPropertyOp46
 70
     1
102
RTVSPropertyOp47
 70
     1
102
RTVSPropertyOp48
 70
     1
102
RTVSPropertyOp49
 70
     1
102
RTVSPropertyOp50
 70
     1
102
RTVSPropertyOp51
 70
     0
102
RTVSPropertyOp52
 70
     0
102
RTVSPropertyOp53
 70
     1
102
RTVSPropertyOp54
 70
     1
102
RTVSPropertyOp55
 70
     1
102
RTVSPropertyOp56
 70
     1
102
RTVSPropertyOp57
 70
     1
102
RTVSPost2010Prop28
280
     0
102
RTVSPost2010PropOp28
 70
     1
102
RTVSPost2010Prop29
280
     1
102
RTVSPost2010PropOp29
 70
     1
102
RTVSPost2010Prop30
280
     1
102
RTVSPost2010PropOp30
 70
     1
102
RTVSPost2010Prop31
280
     0
102
RTVSPost2010PropOp31
 70
     1
102
RTVSPost2010Prop32
280
     0
102
RTVSPost2010PropOp32
 70
     1
102
RTVSPost2010Prop33
280
     0
102
RTVSPost2010PropOp33
 70
     1
102
RTVSPost2010Prop34
280
     0
102
RTVSPost2010PropOp34
 70
     1
102
RTVSPost2010Prop35
280
     0
102
RTVSPost2010PropOp35
 70
     1
102
RTVSPost2010Prop36
280
     0
102
RTVSPost2010PropOp36
 70
     1
102
RTVSPost2010Prop37
 90
       50
102
RTVSPost2010PropOp37
 70
     1
102
RTVSPost2010Prop38
140
0.0
102
RTVSPost2010PropOp38
 70
     1
102
RTVSPost2010Prop39
140
1.0
102
RTVSPost2010PropOp39
 70
     1
102
RTVSPost2010Prop40
 90
        0
102
RTVSPost2010PropOp40
 70
     1
102
RTVSPost2010Prop41ColorIndex
 90
       18
102
RTVSPost2010Prop41ColorRGB
 90
        0
102
RTVSPost2010PropOp41
 70
     1
102
RTVSPost2010Prop42
 90
       50
102
RTVSPost2010PropOp42
 70
     1
102
RTVSPost2010Prop43
 90
        3
102
RTVSPost2010PropOp43
 70
     1
102
RTVSPost2010Prop44ColorIndex
 90
        5
102
RTVSPost2010Prop44ColorRGB
 90
      255
102
RTVSPost2010PropOp44
 70
     1
102
RTVSPost2010Prop45
280
     0
102
RTVSPost2010PropOp45
 70
     1
102
RTVSPost2010Prop46
 90
       50
102
RTVSPost2010PropOp46
 70
     1
102
RTVSPost2010Prop47
 90
       50
102
RTVSPost2010PropOp47
 70
     1
102
RTVSPost2010Prop48
 90
       50
102
RTVSPost2010PropOp48
 70
     1
102
RTVSPost2010Prop49
280
     0
102
RTVSPost2010PropOp49
 70
     1
102
RTVSPost2010Prop50
 90
       50
102
RTVSPost2010PropOp50
 70
     1
102
RTVSPost2010Prop51ColorIndex
 90
      256
102
RTVSPost2010Prop51ColorRGB
 90
-16777216
102
RTVSPost2010PropOp51
 70
     0
102
RTVSPost2010Prop52
140
1.0
102
RTVSPost2010PropOp52
 70
     0
102
RTVSPost2010Prop53
 90
        2
102
RTVSPost2010PropOp53
 70
     1
102
RTVSPost2010Prop54
  1
strokes_ogs.tif
102
RTVSPost2010PropOp54
 70
     1
102
RTVSPost2010Prop55
280
     0
102
RTVSPost2010PropOp55
 70
     1
102
RTVSPost2010Prop56
140
1.0
102
RTVSPost2010PropOp56
 70
     1
102
RTVSPost2010Prop57
140
1.0
102
RTVSPost2010PropOp57
 70
     1
  0
XRECORD
  5
19F
102
{ACAD_REACTORS
330
19E
102
}
330
19E
100
AcDbXrecord
280
     1
102
RTVSPropertyOp0
 70
     0
102
RTVSPropertyOp1
 70
     0
102
RTVSPropertyOp2
 70
     0
102
RTVSPropertyOp3
 70
     0
102
RTVSPropertyOp4
 70
     0
102
RTVSPropertyOp5
 70
     0
102
RTVSPropertyOp6
 70
     0
102
RTVSPropertyOp7
 70
     0
102
RTVSPropertyOp8
 70
     0
102
RTVSPropertyOp9
 70
     0
102
RTVSPropertyOp10
 70
     0
102
RTVSPropertyOp11
 70
     0
102
RTVSPropertyOp12
 70
     0
102
RTVSPropertyOp13
 70
     0
102
RTVSPropertyOp14
 70
     2
102
RTVSPropertyOp15
 70
     0
102
RTVSPropertyOp16
 70
     0
102
RTVSPropertyOp17
 70
     0
102
RTVSPropertyOp18
 70
     0
102
RTVSPropertyOp19
 70
     0
102
RTVSPropertyOp20
 70
     0
102
RTVSPropertyOp21
 70
     0
102
RTVSPropertyOp22
 70
     0
102
RTVSPropertyOp23
 70
     0
102
RTVSPropertyOp24
 70
     0
102
RTVSPropertyOp25
 70
     0
102
RTVSPropertyOp26
 70
     0
102
RTVSPropertyOp27
 70
     0
102
RTVSPropertyOp28
 70
     0
102
RTVSPropertyOp29
 70
     0
102
RTVSPropertyOp30
 70
     0
102
RTVSPropertyOp31
 70
     0
102
RTVSPropertyOp32
 70
     0
102
RTVSPropertyOp33
 70
     0
102
RTVSPropertyOp34
 70
     0
102
RTVSPropertyOp35
 70
     0
102
RTVSPropertyOp36
 70
     0
102
RTVSPropertyOp37
 70
     0
102
RTVSPropertyOp38
 70
     0
102
RTVSPropertyOp39
 70
     0
102
RTVSPropertyOp40
 70
     0
102
RTVSPropertyOp41
 70
     0
102
RTVSPropertyOp42
 70
     0
102
RTVSPropertyOp43
 70
     0
102
RTVSPropertyOp44
 70
     0
102
RTVSPropertyOp45
 70
     0
102
RTVSPropertyOp46
 70
     0
102
RTVSPropertyOp47
 70
     0
102
RTVSPropertyOp48
 70
     0
102
RTVSPropertyOp49
 70
     0
102
RTVSPropertyOp50
 70
     0
102
RTVSPropertyOp51
 70
     0
102
RTVSPropertyOp52
 70
     0
102
RTVSPropertyOp53
 70
     0
102
RTVSPropertyOp54
 70
     0
102
RTVSPropertyOp55
 70
     0
102
RTVSPropertyOp56
 70
     0
102
RTVSPropertyOp57
 70
     0
102
RTVSPost2010Prop28
280
     0
102
RTVSPost2010PropOp28
 70
     0
102
RTVSPost2010Prop29
280
     1
102
RTVSPost2010PropOp29
 70
     0
102
RTVSPost2010Prop30
280
     1
102
RTVSPost2010PropOp30
 70
     0
102
RTVSPost2010Prop31
280
     0
102
RTVSPost2010PropOp31
 70
     0
102
RTVSPost2010Prop32
280
     0
102
RTVSPost2010PropOp32
 70
     0
102
RTVSPost2010Prop33
280
     0
102
RTVSPost2010PropOp33
 70
     0
102
RTVSPost2010Prop34
280
     0
102
RTVSPost2010PropOp34
 70
     0
102
RTVSPost2010Prop35
280
     0
102
RTVSPost2010PropOp35
 70
     0
102
RTVSPost2010Prop36
280
     0
102
RTVSPost2010PropOp36
 70
     0
102
RTVSPost2010Prop37
 90
       50
102
RTVSPost2010PropOp37
 70
     0
102
RTVSPost2010Prop38
140
0.0
102
RTVSPost2010PropOp38
 70
     0
102
RTVSPost2010Prop39
140
1.0
102
RTVSPost2010PropOp39
 70
     0
102
RTVSPost2010Prop40
 90
        0
102
RTVSPost2010PropOp40
 70
     0
102
RTVSPost2010Prop41ColorIndex
 90
       18
102
RTVSPost2010Prop41ColorRGB
 90
        0
102
RTVSPost2010PropOp41
 70
     0
102
RTVSPost2010Prop42
 90
       50
102
RTVSPost2010PropOp42
 70
     0
102
RTVSPost2010Prop43
 90
        3
102
RTVSPost2010PropOp43
 70
     0
102
RTVSPost2010Prop44ColorIndex
 90
        5
102
RTVSPost2010Prop44ColorRGB
 90
      255
102
RTVSPost2010PropOp44
 70
     0
102
RTVSPost2010Prop45
280
     0
102
RTVSPost2010PropOp45
 70
     0
102
RTVSPost2010Prop46
 90
       50
102
RTVSPost2010PropOp46
 70
     0
102
RTVSPost2010Prop47
 90
       50
102
RTVSPost2010PropOp47
 70
     0
102
RTVSPost2010Prop48
 90
       50
102
RTVSPost2010PropOp48
 70
     0
102
RTVSPost2010Prop49
280
     0
102
RTVSPost2010PropOp49
 70
     0
102
RTVSPost2010Prop50
 90
       50
102
RTVSPost2010PropOp50
 70
     0
102
RTVSPost2010Prop51ColorIndex
 90
      256
102
RTVSPost2010Prop51ColorRGB
 90
-16777216
102
RTVSPost2010PropOp51
 70
     0
102
RTVSPost2010Prop52
140
1.0
102
RTVSPost2010PropOp52
 70
     0
102
RTVSPost2010Prop53
 90
        2
102
RTVSPost2010PropOp53
 70
     0
102
RTVSPost2010Prop54
  1
strokes_ogs.tif
102
RTVSPost2010PropOp54
 70
     0
102
RTVSPost2010Prop55
280
     0
102
RTVSPost2010PropOp55
 70
     0
102
RTVSPost2010Prop56
140
1.0
102
RTVSPost2010PropOp56
 70
     0
102
RTVSPost2010Prop57
140
1.0
102
RTVSPost2010PropOp57
 70
     0
  0
XRECORD
  5
197
102
{ACAD_REACTORS
330
196
102
}
330
196
100
AcDbXrecord
280
     1
102
RTVSPropertyOp0
 70
     1
102
RTVSPropertyOp1
 70
     1
102
RTVSPropertyOp2
 70
     1
102
RTVSPropertyOp3
 70
     1
102
RTVSPropertyOp4
 70
     1
102
RTVSPropertyOp5
 70
     1
102
RTVSPropertyOp6
 70
     1
102
RTVSPropertyOp7
 70
     1
102
RTVSPropertyOp8
 70
     1
102
RTVSPropertyOp9
 70
     1
102
RTVSPropertyOp10
 70
     1
102
RTVSPropertyOp11
 70
     1
102
RTVSPropertyOp12
 70
     1
102
RTVSPropertyOp13
 70
     1
102
RTVSPropertyOp14
 70
     1
102
RTVSPropertyOp15
 70
     1
102
RTVSPropertyOp16
 70
     1
102
RTVSPropertyOp17
 70
     1
102
RTVSPropertyOp18
 70
     1
102
RTVSPropertyOp19
 70
     1
102
RTVSPropertyOp20
 70
     1
102
RTVSPropertyOp21
 70
     1
102
RTVSPropertyOp22
 70
     1
102
RTVSPropertyOp23
 70
     1
102
RTVSPropertyOp24
 70
     1
102
RTVSPropertyOp25
 70
     1
102
RTVSPropertyOp26
 70
     1
102
RTVSPropertyOp27
 70
     1
102
RTVSPropertyOp28
 70
     1
102
RTVSPropertyOp29
 70
     1
102
RTVSPropertyOp30
 70
     1
102
RTVSPropertyOp31
 70
     1
102
RTVSPropertyOp32
 70
     1
102
RTVSPropertyOp33
 70
     1
102
RTVSPropertyOp34
 70
     1
102
RTVSPropertyOp35
 70
     1
102
RTVSPropertyOp36
 70
     1
102
RTVSPropertyOp37
 70
     1
102
RTVSPropertyOp38
 70
     1
102
RTVSPropertyOp39
 70
     1
102
RTVSPropertyOp40
 70
     1
102
RTVSPropertyOp41
 70
     1
102
RTVSPropertyOp42
 70
     1
102
RTVSPropertyOp43
 70
     1
102
RTVSPropertyOp44
 70
     1
102
RTVSPropertyOp45
 70
     1
102
RTVSPropertyOp46
 70
     1
102
RTVSPropertyOp47
 70
     1
102
RTVSPropertyOp48
 70
     1
102
RTVSPropertyOp49
 70
     1
102
RTVSPropertyOp50
 70
     1
102
RTVSPropertyOp51
 70
     0
102
RTVSPropertyOp52
 70
     0
102
RTVSPropertyOp53
 70
     1
102
RTVSPropertyOp54
 70
     1
102
RTVSPropertyOp55
 70
     1
102
RTVSPropertyOp56
 70
     1
102
RTVSPropertyOp57
 70
     1
102
RTVSPost2010Prop28
280
     0
102
RTVSPost2010PropOp28
 70
     1
102
RTVSPost2010Prop29
280
     1
102
RTVSPost2010PropOp29
 70
     1
102
RTVSPost2010Prop30
280
     1
102
RTVSPost2010PropOp30
 70
     1
102
RTVSPost2010Prop31
280
     0
102
RTVSPost2010PropOp31
 70
     1
102
RTVSPost2010Prop32
280
     0
102
RTVSPost2010PropOp32
 70
     1
102
RTVSPost2010Prop33
280
     0
102
RTVSPost2010PropOp33
 70
     1
102
RTVSPost2010Prop34
280
     0
102
RTVSPost2010PropOp34
 70
     1
102
RTVSPost2010Prop35
280
     0
102
RTVSPost2010PropOp35
 70
     1
102
RTVSPost2010Prop36
280
     0
102
RTVSPost2010PropOp36
 70
     1
102
RTVSPost2010Prop37
 90
       50
102
RTVSPost2010PropOp37
 70
     1
102
RTVSPost2010Prop38
140
0.0
102
RTVSPost2010PropOp38
 70
     1
102
RTVSPost2010Prop39
140
1.0
102
RTVSPost2010PropOp39
 70
     1
102
RTVSPost2010Prop40
 90
        0
102
RTVSPost2010PropOp40
 70
     1
102
RTVSPost2010Prop41ColorIndex
 90
       18
102
RTVSPost2010Prop41ColorRGB
 90
        0
102
RTVSPost2010PropOp41
 70
     1
102
RTVSPost2010Prop42
 90
       50
102
RTVSPost2010PropOp42
 70
     1
102
RTVSPost2010Prop43
 90
        3
102
RTVSPost2010PropOp43
 70
     1
102
RTVSPost2010Prop44ColorIndex
 90
        5
102
RTVSPost2010Prop44ColorRGB
 90
      255
102
RTVSPost2010PropOp44
 70
     1
102
RTVSPost2010Prop45
280
     0
102
RTVSPost2010PropOp45
 70
     1
102
RTVSPost2010Prop46
 90
       50
102
RTVSPost2010PropOp46
 70
     1
102
RTVSPost2010Prop47
 90
       50
102
RTVSPost2010PropOp47
 70
     1
102
RTVSPost2010Prop48
 90
       50
102
RTVSPost2010PropOp48
 70
     1
102
RTVSPost2010Prop49
280
     0
102
RTVSPost2010PropOp49
 70
     1
102
RTVSPost2010Prop50
 90
       50
102
RTVSPost2010PropOp50
 70
     1
102
RTVSPost2010Prop51ColorIndex
 90
      256
102
RTVSPost2010Prop51ColorRGB
 90
-16777216
102
RTVSPost2010PropOp51
 70
     0
102
RTVSPost2010Prop52
140
1.0
102
RTVSPost2010PropOp52
 70
     0
102
RTVSPost2010Prop53
 90
        2
102
RTVSPost2010PropOp53
 70
     1
102
RTVSPost2010Prop54
  1
strokes_ogs.tif
102
RTVSPost2010PropOp54
 70
     1
102
RTVSPost2010Prop55
280
     0
102
RTVSPost2010PropOp55
 70
     1
102
RTVSPost2010Prop56
140
1.0
102
RTVSPost2010PropOp56
 70
     1
102
RTVSPost2010Prop57
140
1.0
102
RTVSPost2010PropOp57
 70
     1
  0
XRECORD
  5
17B
102
{ACAD_REACTORS
330
17A
102
}
330
17A
100
AcDbXrecord
280
     1
102
RTVSPropertyOp0
 70
     1
102
RTVSPropertyOp1
 70
     1
102
RTVSPropertyOp2
 70
     1
102
RTVSPropertyOp3
 70
     1
102
RTVSPropertyOp4
 70
     1
102
RTVSPropertyOp5
 70
     1
102
RTVSPropertyOp6
 70
     1
102
RTVSPropertyOp7
 70
     1
102
RTVSPropertyOp8
 70
     1
102
RTVSPropertyOp9
 70
     1
102
RTVSPropertyOp10
 70
     1
102
RTVSPropertyOp11
 70
     1
102
RTVSPropertyOp12
 70
     1
102
RTVSPropertyOp13
 70
     1
102
RTVSPropertyOp14
 70
     1
102
RTVSPropertyOp15
 70
     1
102
RTVSPropertyOp16
 70
     1
102
RTVSPropertyOp17
 70
     1
102
RTVSPropertyOp18
 70
     1
102
RTVSPropertyOp19
 70
     1
102
RTVSPropertyOp20
 70
     1
102
RTVSPropertyOp21
 70
     1
102
RTVSPropertyOp22
 70
     1
102
RTVSPropertyOp23
 70
     1
102
RTVSPropertyOp24
 70
     1
102
RTVSPropertyOp25
 70
     1
102
RTVSPropertyOp26
 70
     1
102
RTVSPropertyOp27
 70
     1
102
RTVSPropertyOp28
 70
     1
102
RTVSPropertyOp29
 70
     1
102
RTVSPropertyOp30
 70
     1
102
RTVSPropertyOp31
 70
     1
102
RTVSPropertyOp32
 70
     1
102
RTVSPropertyOp33
 70
     1
102
RTVSPropertyOp34
 70
     1
102
RTVSPropertyOp35
 70
     1
102
RTVSPropertyOp36
 70
     1
102
RTVSPropertyOp37
 70
     1
102
RTVSPropertyOp38
 70
     1
102
RTVSPropertyOp39
 70
     1
102
RTVSPropertyOp40
 70
     1
102
RTVSPropertyOp41
 70
     1
102
RTVSPropertyOp42
 70
     1
102
RTVSPropertyOp43
 70
     1
102
RTVSPropertyOp44
 70
     1
102
RTVSPropertyOp45
 70
     1
102
RTVSPropertyOp46
 70
     1
102
RTVSPropertyOp47
 70
     1
102
RTVSPropertyOp48
 70
     1
102
RTVSPropertyOp49
 70
     1
102
RTVSPropertyOp50
 70
     1
102
RTVSPropertyOp51
 70
     0
102
RTVSPropertyOp52
 70
     0
102
RTVSPropertyOp53
 70
     1
102
RTVSPropertyOp54
 70
     1
102
RTVSPropertyOp55
 70
     1
102
RTVSPropertyOp56
 70
     1
102
RTVSPropertyOp57
 70
     1
102
RTVSPost2010Prop28
280
     0
102
RTVSPost2010PropOp28
 70
     1
102
RTVSPost2010Prop29
280
     1
102
RTVSPost2010PropOp29
 70
     1
102
RTVSPost2010Prop30
280
     1
102
RTVSPost2010PropOp30
 70
     1
102
RTVSPost2010Prop31
280
     0
102
RTVSPost2010PropOp31
 70
     1
102
RTVSPost2010Prop32
280
     0
102
RTVSPost2010PropOp32
 70
     1
102
RTVSPost2010Prop33
280
     0
102
RTVSPost2010PropOp33
 70
     1
102
RTVSPost2010Prop34
280
     0
102
RTVSPost2010PropOp34
 70
     1
102
RTVSPost2010Prop35
280
     0
102
RTVSPost2010PropOp35
 70
     1
102
RTVSPost2010Prop36
280
     0
102
RTVSPost2010PropOp36
 70
     1
102
RTVSPost2010Prop37
 90
       50
102
RTVSPost2010PropOp37
 70
     1
102
RTVSPost2010Prop38
140
0.0
102
RTVSPost2010PropOp38
 70
     1
102
RTVSPost2010Prop39
140
1.0
102
RTVSPost2010PropOp39
 70
     1
102
RTVSPost2010Prop40
 90
        0
102
RTVSPost2010PropOp40
 70
     1
102
RTVSPost2010Prop41ColorIndex
 90
       18
102
RTVSPost2010Prop41ColorRGB
 90
        0
102
RTVSPost2010PropOp41
 70
     1
102
RTVSPost2010Prop42
 90
       50
102
RTVSPost2010PropOp42
 70
     1
102
RTVSPost2010Prop43
 90
        3
102
RTVSPost2010PropOp43
 70
     1
102
RTVSPost2010Prop44ColorIndex
 90
        5
102
RTVSPost2010Prop44ColorRGB
 90
      255
102
RTVSPost2010PropOp44
 70
     1
102
RTVSPost2010Prop45
280
     0
102
RTVSPost2010PropOp45
 70
     1
102
RTVSPost2010Prop46
 90
       50
102
RTVSPost2010PropOp46
 70
     1
102
RTVSPost2010Prop47
 90
       50
102
RTVSPost2010PropOp47
 70
     1
102
RTVSPost2010Prop48
 90
       50
102
RTVSPost2010PropOp48
 70
     1
102
RTVSPost2010Prop49
280
     0
102
RTVSPost2010PropOp49
 70
     1
102
RTVSPost2010Prop50
 90
       50
102
RTVSPost2010PropOp50
 70
     1
102
RTVSPost2010Prop51ColorIndex
 90
      256
102
RTVSPost2010Prop51ColorRGB
 90
-16777216
102
RTVSPost2010PropOp51
 70
     0
102
RTVSPost2010Prop52
140
1.0
102
RTVSPost2010PropOp52
 70
     0
102
RTVSPost2010Prop53
 90
        2
102
RTVSPost2010PropOp53
 70
     1
102
RTVSPost2010Prop54
  1
strokes_ogs.tif
102
RTVSPost2010PropOp54
 70
     1
102
RTVSPost2010Prop55
280
     0
102
RTVSPost2010PropOp55
 70
     1
102
RTVSPost2010Prop56
140
1.0
102
RTVSPost2010PropOp56
 70
     1
102
RTVSPost2010Prop57
140
1.0
102
RTVSPost2010PropOp57
 70
     1
  0
XRECORD
  5
17D
102
{ACAD_REACTORS
330
17C
102
}
330
17C
100
AcDbXrecord
280
     1
102
RTVSPropertyOp0
 70
     1
102
RTVSPropertyOp1
 70
     1
102
RTVSPropertyOp2
 70
     1
102
RTVSPropertyOp3
 70
     1
102
RTVSPropertyOp4
 70
     1
102
RTVSPropertyOp5
 70
     1
102
RTVSPropertyOp6
 70
     1
102
RTVSPropertyOp7
 70
     1
102
RTVSPropertyOp8
 70
     1
102
RTVSPropertyOp9
 70
     1
102
RTVSPropertyOp10
 70
     1
102
RTVSPropertyOp11
 70
     1
102
RTVSPropertyOp12
 70
     1
102
RTVSPropertyOp13
 70
     1
102
RTVSPropertyOp14
 70
     1
102
RTVSPropertyOp15
 70
     1
102
RTVSPropertyOp16
 70
     1
102
RTVSPropertyOp17
 70
     1
102
RTVSPropertyOp18
 70
     1
102
RTVSPropertyOp19
 70
     1
102
RTVSPropertyOp20
 70
     1
102
RTVSPropertyOp21
 70
     1
102
RTVSPropertyOp22
 70
     1
102
RTVSPropertyOp23
 70
     1
102
RTVSPropertyOp24
 70
     1
102
RTVSPropertyOp25
 70
     1
102
RTVSPropertyOp26
 70
     1
102
RTVSPropertyOp27
 70
     1
102
RTVSPropertyOp28
 70
     1
102
RTVSPropertyOp29
 70
     1
102
RTVSPropertyOp30
 70
     1
102
RTVSPropertyOp31
 70
     1
102
RTVSPropertyOp32
 70
     1
102
RTVSPropertyOp33
 70
     1
102
RTVSPropertyOp34
 70
     1
102
RTVSPropertyOp35
 70
     1
102
RTVSPropertyOp36
 70
     1
102
RTVSPropertyOp37
 70
     1
102
RTVSPropertyOp38
 70
     1
102
RTVSPropertyOp39
 70
     1
102
RTVSPropertyOp40
 70
     1
102
RTVSPropertyOp41
 70
     1
102
RTVSPropertyOp42
 70
     1
102
RTVSPropertyOp43
 70
     1
102
RTVSPropertyOp44
 70
     1
102
RTVSPropertyOp45
 70
     1
102
RTVSPropertyOp46
 70
     1
102
RTVSPropertyOp47
 70
     1
102
RTVSPropertyOp48
 70
     1
102
RTVSPropertyOp49
 70
     1
102
RTVSPropertyOp50
 70
     1
102
RTVSPropertyOp51
 70
     0
102
RTVSPropertyOp52
 70
     0
102
RTVSPropertyOp53
 70
     1
102
RTVSPropertyOp54
 70
     1
102
RTVSPropertyOp55
 70
     1
102
RTVSPropertyOp56
 70
     1
102
RTVSPropertyOp57
 70
     1
102
RTVSPost2010Prop28
280
     0
102
RTVSPost2010PropOp28
 70
     1
102
RTVSPost2010Prop29
280
     1
102
RTVSPost2010PropOp29
 70
     1
102
RTVSPost2010Prop30
280
     1
102
RTVSPost2010PropOp30
 70
     1
102
RTVSPost2010Prop31
280
     0
102
RTVSPost2010PropOp31
 70
     1
102
RTVSPost2010Prop32
280
     0
102
RTVSPost2010PropOp32
 70
     1
102
RTVSPost2010Prop33
280
     0
102
RTVSPost2010PropOp33
 70
     1
102
RTVSPost2010Prop34
280
     0
102
RTVSPost2010PropOp34
 70
     1
102
RTVSPost2010Prop35
280
     0
102
RTVSPost2010PropOp35
 70
     1
102
RTVSPost2010Prop36
280
     0
102
RTVSPost2010PropOp36
 70
     1
102
RTVSPost2010Prop37
 90
       50
102
RTVSPost2010PropOp37
 70
     1
102
RTVSPost2010Prop38
140
0.0
102
RTVSPost2010PropOp38
 70
     1
102
RTVSPost2010Prop39
140
1.0
102
RTVSPost2010PropOp39
 70
     1
102
RTVSPost2010Prop40
 90
        0
102
RTVSPost2010PropOp40
 70
     1
102
RTVSPost2010Prop41ColorIndex
 90
       18
102
RTVSPost2010Prop41ColorRGB
 90
        0
102
RTVSPost2010PropOp41
 70
     1
102
RTVSPost2010Prop42
 90
       50
102
RTVSPost2010PropOp42
 70
     1
102
RTVSPost2010Prop43
 90
        3
102
RTVSPost2010PropOp43
 70
     1
102
RTVSPost2010Prop44ColorIndex
 90
        5
102
RTVSPost2010Prop44ColorRGB
 90
      255
102
RTVSPost2010PropOp44
 70
     1
102
RTVSPost2010Prop45
280
     0
102
RTVSPost2010PropOp45
 70
     1
102
RTVSPost2010Prop46
 90
       50
102
RTVSPost2010PropOp46
 70
     1
102
RTVSPost2010Prop47
 90
       50
102
RTVSPost2010PropOp47
 70
     1
102
RTVSPost2010Prop48
 90
       50
102
RTVSPost2010PropOp48
 70
     1
102
RTVSPost2010Prop49
280
     0
102
RTVSPost2010PropOp49
 70
     1
102
RTVSPost2010Prop50
 90
       50
102
RTVSPost2010PropOp50
 70
     1
102
RTVSPost2010Prop51ColorIndex
 90
      256
102
RTVSPost2010Prop51ColorRGB
 90
-16777216
102
RTVSPost2010PropOp51
 70
     0
102
RTVSPost2010Prop52
140
1.0
102
RTVSPost2010PropOp52
 70
     0
102
RTVSPost2010Prop53
 90
        2
102
RTVSPost2010PropOp53
 70
     1
102
RTVSPost2010Prop54
  1
strokes_ogs.tif
102
RTVSPost2010PropOp54
 70
     1
102
RTVSPost2010Prop55
280
     0
102
RTVSPost2010PropOp55
 70
     1
102
RTVSPost2010Prop56
140
1.0
102
RTVSPost2010PropOp56
 70
     1
102
RTVSPost2010Prop57
140
1.0
102
RTVSPost2010PropOp57
 70
     1
  0
XRECORD
  5
17F
102
{ACAD_REACTORS
330
17E
102
}
330
17E
100
AcDbXrecord
280
     1
102
RTVSPropertyOp0
 70
     1
102
RTVSPropertyOp1
 70
     1
102
RTVSPropertyOp2
 70
     1
102
RTVSPropertyOp3
 70
     1
102
RTVSPropertyOp4
 70
     1
102
RTVSPropertyOp5
 70
     1
102
RTVSPropertyOp6
 70
     1
102
RTVSPropertyOp7
 70
     1
102
RTVSPropertyOp8
 70
     1
102
RTVSPropertyOp9
 70
     1
102
RTVSPropertyOp10
 70
     1
102
RTVSPropertyOp11
 70
     1
102
RTVSPropertyOp12
 70
     1
102
RTVSPropertyOp13
 70
     1
102
RTVSPropertyOp14
 70
     1
102
RTVSPropertyOp15
 70
     1
102
RTVSPropertyOp16
 70
     1
102
RTVSPropertyOp17
 70
     1
102
RTVSPropertyOp18
 70
     1
102
RTVSPropertyOp19
 70
     1
102
RTVSPropertyOp20
 70
     1
102
RTVSPropertyOp21
 70
     1
102
RTVSPropertyOp22
 70
     1
102
RTVSPropertyOp23
 70
     1
102
RTVSPropertyOp24
 70
     1
102
RTVSPropertyOp25
 70
     1
102
RTVSPropertyOp26
 70
     1
102
RTVSPropertyOp27
 70
     1
102
RTVSPropertyOp28
 70
     1
102
RTVSPropertyOp29
 70
     1
102
RTVSPropertyOp30
 70
     1
102
RTVSPropertyOp31
 70
     1
102
RTVSPropertyOp32
 70
     1
102
RTVSPropertyOp33
 70
     1
102
RTVSPropertyOp34
 70
     1
102
RTVSPropertyOp35
 70
     1
102
RTVSPropertyOp36
 70
     1
102
RTVSPropertyOp37
 70
     1
102
RTVSPropertyOp38
 70
     1
102
RTVSPropertyOp39
 70
     1
102
RTVSPropertyOp40
 70
     1
102
RTVSPropertyOp41
 70
     1
102
RTVSPropertyOp42
 70
     1
102
RTVSPropertyOp43
 70
     1
102
RTVSPropertyOp44
 70
     1
102
RTVSPropertyOp45
 70
     1
102
RTVSPropertyOp46
 70
     1
102
RTVSPropertyOp47
 70
     1
102
RTVSPropertyOp48
 70
     1
102
RTVSPropertyOp49
 70
     1
102
RTVSPropertyOp50
 70
     1
102
RTVSPropertyOp51
 70
     0
102
RTVSPropertyOp52
 70
     0
102
RTVSPropertyOp53
 70
     1
102
RTVSPropertyOp54
 70
     1
102
RTVSPropertyOp55
 70
     1
102
RTVSPropertyOp56
 70
     1
102
RTVSPropertyOp57
 70
     1
102
RTVSPost2010Prop28
280
     0
102
RTVSPost2010PropOp28
 70
     1
102
RTVSPost2010Prop29
280
     1
102
RTVSPost2010PropOp29
 70
     1
102
RTVSPost2010Prop30
280
     1
102
RTVSPost2010PropOp30
 70
     1
102
RTVSPost2010Prop31
280
     0
102
RTVSPost2010PropOp31
 70
     1
102
RTVSPost2010Prop32
280
     0
102
RTVSPost2010PropOp32
 70
     1
102
RTVSPost2010Prop33
280
     0
102
RTVSPost2010PropOp33
 70
     1
102
RTVSPost2010Prop34
280
     0
102
RTVSPost2010PropOp34
 70
     1
102
RTVSPost2010Prop35
280
     0
102
RTVSPost2010PropOp35
 70
     1
102
RTVSPost2010Prop36
280
     0
102
RTVSPost2010PropOp36
 70
     1
102
RTVSPost2010Prop37
 90
       50
102
RTVSPost2010PropOp37
 70
     1
102
RTVSPost2010Prop38
140
0.0
102
RTVSPost2010PropOp38
 70
     1
102
RTVSPost2010Prop39
140
1.0
102
RTVSPost2010PropOp39
 70
     1
102
RTVSPost2010Prop40
 90
        0
102
RTVSPost2010PropOp40
 70
     1
102
RTVSPost2010Prop41ColorIndex
 90
       18
102
RTVSPost2010Prop41ColorRGB
 90
        0
102
RTVSPost2010PropOp41
 70
     1
102
RTVSPost2010Prop42
 90
       50
102
RTVSPost2010PropOp42
 70
     1
102
RTVSPost2010Prop43
 90
        3
102
RTVSPost2010PropOp43
 70
     1
102
RTVSPost2010Prop44ColorIndex
 90
        5
102
RTVSPost2010Prop44ColorRGB
 90
      255
102
RTVSPost2010PropOp44
 70
     1
102
RTVSPost2010Prop45
280
     0
102
RTVSPost2010PropOp45
 70
     1
102
RTVSPost2010Prop46
 90
       50
102
RTVSPost2010PropOp46
 70
     1
102
RTVSPost2010Prop47
 90
       50
102
RTVSPost2010PropOp47
 70
     1
102
RTVSPost2010Prop48
 90
       50
102
RTVSPost2010PropOp48
 70
     1
102
RTVSPost2010Prop49
280
     0
102
RTVSPost2010PropOp49
 70
     1
102
RTVSPost2010Prop50
 90
       50
102
RTVSPost2010PropOp50
 70
     1
102
RTVSPost2010Prop51ColorIndex
 90
      256
102
RTVSPost2010Prop51ColorRGB
 90
-16777216
102
RTVSPost2010PropOp51
 70
     0
102
RTVSPost2010Prop52
140
1.0
102
RTVSPost2010PropOp52
 70
     0
102
RTVSPost2010Prop53
 90
        2
102
RTVSPost2010PropOp53
 70
     1
102
RTVSPost2010Prop54
  1
strokes_ogs.tif
102
RTVSPost2010PropOp54
 70
     1
102
RTVSPost2010Prop55
280
     0
102
RTVSPost2010PropOp55
 70
     1
102
RTVSPost2010Prop56
140
1.0
102
RTVSPost2010PropOp56
 70
     1
102
RTVSPost2010Prop57
140
1.0
102
RTVSPost2010PropOp57
 70
     1
  0
XRECORD
  5
181
102
{ACAD_REACTORS
330
180
102
}
330
180
100
AcDbXrecord
280
     1
102
RTVSPropertyOp0
 70
     1
102
RTVSPropertyOp1
 70
     1
102
RTVSPropertyOp2
 70
     1
102
RTVSPropertyOp3
 70
     1
102
RTVSPropertyOp4
 70
     1
102
RTVSPropertyOp5
 70
     1
102
RTVSPropertyOp6
 70
     1
102
RTVSPropertyOp7
 70
     1
102
RTVSPropertyOp8
 70
     1
102
RTVSPropertyOp9
 70
     1
102
RTVSPropertyOp10
 70
     1
102
RTVSPropertyOp11
 70
     1
102
RTVSPropertyOp12
 70
     1
102
RTVSPropertyOp13
 70
     1
102
RTVSPropertyOp14
 70
     1
102
RTVSPropertyOp15
 70
     1
102
RTVSPropertyOp16
 70
     1
102
RTVSPropertyOp17
 70
     1
102
RTVSPropertyOp18
 70
     1
102
RTVSPropertyOp19
 70
     1
102
RTVSPropertyOp20
 70
     1
102
RTVSPropertyOp21
 70
     1
102
RTVSPropertyOp22
 70
     1
102
RTVSPropertyOp23
 70
     1
102
RTVSPropertyOp24
 70
     1
102
RTVSPropertyOp25
 70
     1
102
RTVSPropertyOp26
 70
     1
102
RTVSPropertyOp27
 70
     1
102
RTVSPropertyOp28
 70
     1
102
RTVSPropertyOp29
 70
     1
102
RTVSPropertyOp30
 70
     1
102
RTVSPropertyOp31
 70
     1
102
RTVSPropertyOp32
 70
     1
102
RTVSPropertyOp33
 70
     1
102
RTVSPropertyOp34
 70
     1
102
RTVSPropertyOp35
 70
     1
102
RTVSPropertyOp36
 70
     1
102
RTVSPropertyOp37
 70
     1
102
RTVSPropertyOp38
 70
     1
102
RTVSPropertyOp39
 70
     1
102
RTVSPropertyOp40
 70
     1
102
RTVSPropertyOp41
 70
     1
102
RTVSPropertyOp42
 70
     1
102
RTVSPropertyOp43
 70
     1
102
RTVSPropertyOp44
 70
     1
102
RTVSPropertyOp45
 70
     1
102
RTVSPropertyOp46
 70
     1
102
RTVSPropertyOp47
 70
     1
102
RTVSPropertyOp48
 70
     1
102
RTVSPropertyOp49
 70
     1
102
RTVSPropertyOp50
 70
     1
102
RTVSPropertyOp51
 70
     0
102
RTVSPropertyOp52
 70
     0
102
RTVSPropertyOp53
 70
     1
102
RTVSPropertyOp54
 70
     1
102
RTVSPropertyOp55
 70
     1
102
RTVSPropertyOp56
 70
     1
102
RTVSPropertyOp57
 70
     1
102
RTVSPost2010Prop28
280
     0
102
RTVSPost2010PropOp28
 70
     1
102
RTVSPost2010Prop29
280
     1
102
RTVSPost2010PropOp29
 70
     1
102
RTVSPost2010Prop30
280
     1
102
RTVSPost2010PropOp30
 70
     1
102
RTVSPost2010Prop31
280
     0
102
RTVSPost2010PropOp31
 70
     1
102
RTVSPost2010Prop32
280
     0
102
RTVSPost2010PropOp32
 70
     1
102
RTVSPost2010Prop33
280
     0
102
RTVSPost2010PropOp33
 70
     1
102
RTVSPost2010Prop34
280
     0
102
RTVSPost2010PropOp34
 70
     1
102
RTVSPost2010Prop35
280
     0
102
RTVSPost2010PropOp35
 70
     1
102
RTVSPost2010Prop36
280
     0
102
RTVSPost2010PropOp36
 70
     1
102
RTVSPost2010Prop37
 90
       50
102
RTVSPost2010PropOp37
 70
     1
102
RTVSPost2010Prop38
140
0.0
102
RTVSPost2010PropOp38
 70
     1
102
RTVSPost2010Prop39
140
1.0
102
RTVSPost2010PropOp39
 70
     1
102
RTVSPost2010Prop40
 90
        0
102
RTVSPost2010PropOp40
 70
     1
102
RTVSPost2010Prop41ColorIndex
 90
       18
102
RTVSPost2010Prop41ColorRGB
 90
        0
102
RTVSPost2010PropOp41
 70
     1
102
RTVSPost2010Prop42
 90
       50
102
RTVSPost2010PropOp42
 70
     1
102
RTVSPost2010Prop43
 90
        3
102
RTVSPost2010PropOp43
 70
     1
102
RTVSPost2010Prop44ColorIndex
 90
        5
102
RTVSPost2010Prop44ColorRGB
 90
      255
102
RTVSPost2010PropOp44
 70
     1
102
RTVSPost2010Prop45
280
     0
102
RTVSPost2010PropOp45
 70
     1
102
RTVSPost2010Prop46
 90
       50
102
RTVSPost2010PropOp46
 70
     1
102
RTVSPost2010Prop47
 90
       50
102
RTVSPost2010PropOp47
 70
     1
102
RTVSPost2010Prop48
 90
       50
102
RTVSPost2010PropOp48
 70
     1
102
RTVSPost2010Prop49
280
     0
102
RTVSPost2010PropOp49
 70
     1
102
RTVSPost2010Prop50
 90
       50
102
RTVSPost2010PropOp50
 70
     1
102
RTVSPost2010Prop51ColorIndex
 90
      256
102
RTVSPost2010Prop51ColorRGB
 90
-16777216
102
RTVSPost2010PropOp51
 70
     0
102
RTVSPost2010Prop52
140
1.0
102
RTVSPost2010PropOp52
 70
     0
102
RTVSPost2010Prop53
 90
        2
102
RTVSPost2010PropOp53
 70
     1
102
RTVSPost2010Prop54
  1
strokes_ogs.tif
102
RTVSPost2010PropOp54
 70
     1
102
RTVSPost2010Prop55
280
     0
102
RTVSPost2010PropOp55
 70
     1
102
RTVSPost2010Prop56
140
1.0
102
RTVSPost2010PropOp56
 70
     1
102
RTVSPost2010Prop57
140
1.0
102
RTVSPost2010PropOp57
 70
     1
  0
XRECORD
  5
187
102
{ACAD_REACTORS
330
186
102
}
330
186
100
AcDbXrecord
280
     1
102
RTVSPropertyOp0
 70
     1
102
RTVSPropertyOp1
 70
     1
102
RTVSPropertyOp2
 70
     1
102
RTVSPropertyOp3
 70
     1
102
RTVSPropertyOp4
 70
     1
102
RTVSPropertyOp5
 70
     1
102
RTVSPropertyOp6
 70
     1
102
RTVSPropertyOp7
 70
     1
102
RTVSPropertyOp8
 70
     1
102
RTVSPropertyOp9
 70
     1
102
RTVSPropertyOp10
 70
     1
102
RTVSPropertyOp11
 70
     1
102
RTVSPropertyOp12
 70
     1
102
RTVSPropertyOp13
 70
     1
102
RTVSPropertyOp14
 70
     1
102
RTVSPropertyOp15
 70
     1
102
RTVSPropertyOp16
 70
     1
102
RTVSPropertyOp17
 70
     1
102
RTVSPropertyOp18
 70
     1
102
RTVSPropertyOp19
 70
     1
102
RTVSPropertyOp20
 70
     1
102
RTVSPropertyOp21
 70
     1
102
RTVSPropertyOp22
 70
     1
102
RTVSPropertyOp23
 70
     1
102
RTVSPropertyOp24
 70
     1
102
RTVSPropertyOp25
 70
     1
102
RTVSPropertyOp26
 70
     1
102
RTVSPropertyOp27
 70
     1
102
RTVSPropertyOp28
 70
     1
102
RTVSPropertyOp29
 70
     1
102
RTVSPropertyOp30
 70
     1
102
RTVSPropertyOp31
 70
     1
102
RTVSPropertyOp32
 70
     1
102
RTVSPropertyOp33
 70
     1
102
RTVSPropertyOp34
 70
     1
102
RTVSPropertyOp35
 70
     1
102
RTVSPropertyOp36
 70
     1
102
RTVSPropertyOp37
 70
     1
102
RTVSPropertyOp38
 70
     1
102
RTVSPropertyOp39
 70
     1
102
RTVSPropertyOp40
 70
     1
102
RTVSPropertyOp41
 70
     1
102
RTVSPropertyOp42
 70
     1
102
RTVSPropertyOp43
 70
     1
102
RTVSPropertyOp44
 70
     1
102
RTVSPropertyOp45
 70
     1
102
RTVSPropertyOp46
 70
     1
102
RTVSPropertyOp47
 70
     1
102
RTVSPropertyOp48
 70
     1
102
RTVSPropertyOp49
 70
     1
102
RTVSPropertyOp50
 70
     1
102
RTVSPropertyOp51
 70
     0
102
RTVSPropertyOp52
 70
     0
102
RTVSPropertyOp53
 70
     1
102
RTVSPropertyOp54
 70
     1
102
RTVSPropertyOp55
 70
     1
102
RTVSPropertyOp56
 70
     1
102
RTVSPropertyOp57
 70
     1
102
RTVSPost2010Prop28
280
     0
102
RTVSPost2010PropOp28
 70
     1
102
RTVSPost2010Prop29
280
     1
102
RTVSPost2010PropOp29
 70
     1
102
RTVSPost2010Prop30
280
     1
102
RTVSPost2010PropOp30
 70
     1
102
RTVSPost2010Prop31
280
     0
102
RTVSPost2010PropOp31
 70
     1
102
RTVSPost2010Prop32
280
     0
102
RTVSPost2010PropOp32
 70
     1
102
RTVSPost2010Prop33
280
     0
102
RTVSPost2010PropOp33
 70
     1
102
RTVSPost2010Prop34
280
     0
102
RTVSPost2010PropOp34
 70
     1
102
RTVSPost2010Prop35
280
     0
102
RTVSPost2010PropOp35
 70
     1
102
RTVSPost2010Prop36
280
     0
102
RTVSPost2010PropOp36
 70
     1
102
RTVSPost2010Prop37
 90
       50
102
RTVSPost2010PropOp37
 70
     1
102
RTVSPost2010Prop38
140
0.0
102
RTVSPost2010PropOp38
 70
     1
102
RTVSPost2010Prop39
140
1.0
102
RTVSPost2010PropOp39
 70
     1
102
RTVSPost2010Prop40
 90
        0
102
RTVSPost2010PropOp40
 70
     1
102
RTVSPost2010Prop41ColorIndex
 90
       18
102
RTVSPost2010Prop41ColorRGB
 90
        0
102
RTVSPost2010PropOp41
 70
     1
102
RTVSPost2010Prop42
 90
       50
102
RTVSPost2010PropOp42
 70
     1
102
RTVSPost2010Prop43
 90
        3
102
RTVSPost2010PropOp43
 70
     1
102
RTVSPost2010Prop44ColorIndex
 90
        5
102
RTVSPost2010Prop44ColorRGB
 90
      255
102
RTVSPost2010PropOp44
 70
     1
102
RTVSPost2010Prop45
280
     0
102
RTVSPost2010PropOp45
 70
     1
102
RTVSPost2010Prop46
 90
       50
102
RTVSPost2010PropOp46
 70
     1
102
RTVSPost2010Prop47
 90
       50
102
RTVSPost2010PropOp47
 70
     1
102
RTVSPost2010Prop48
 90
       50
102
RTVSPost2010PropOp48
 70
     1
102
RTVSPost2010Prop49
280
     0
102
RTVSPost2010PropOp49
 70
     1
102
RTVSPost2010Prop50
 90
       50
102
RTVSPost2010PropOp50
 70
     1
102
RTVSPost2010Prop51ColorIndex
 90
      256
102
RTVSPost2010Prop51ColorRGB
 90
-16777216
102
RTVSPost2010PropOp51
 70
     0
102
RTVSPost2010Prop52
140
1.0
102
RTVSPost2010PropOp52
 70
     0
102
RTVSPost2010Prop53
 90
        2
102
RTVSPost2010PropOp53
 70
     1
102
RTVSPost2010Prop54
  1
strokes_ogs.tif
102
RTVSPost2010PropOp54
 70
     1
102
RTVSPost2010Prop55
280
     0
102
RTVSPost2010PropOp55
 70
     1
102
RTVSPost2010Prop56
140
1.0
102
RTVSPost2010PropOp56
 70
     1
102
RTVSPost2010Prop57
140
1.0
102
RTVSPost2010PropOp57
 70
     1
  0
XRECORD
  5
19B
102
{ACAD_REACTORS
330
19A
102
}
330
19A
100
AcDbXrecord
280
     1
102
RTVSPropertyOp0
 70
     0
102
RTVSPropertyOp1
 70
     0
102
RTVSPropertyOp2
 70
     0
102
RTVSPropertyOp3
 70
     0
102
RTVSPropertyOp4
 70
     0
102
RTVSPropertyOp5
 70
     0
102
RTVSPropertyOp6
 70
     0
102
RTVSPropertyOp7
 70
     0
102
RTVSPropertyOp8
 70
     0
102
RTVSPropertyOp9
 70
     0
102
RTVSPropertyOp10
 70
     0
102
RTVSPropertyOp11
 70
     0
102
RTVSPropertyOp12
 70
     0
102
RTVSPropertyOp13
 70
     0
102
RTVSPropertyOp14
 70
     2
102
RTVSPropertyOp15
 70
     0
102
RTVSPropertyOp16
 70
     0
102
RTVSPropertyOp17
 70
     0
102
RTVSPropertyOp18
 70
     0
102
RTVSPropertyOp19
 70
     0
102
RTVSPropertyOp20
 70
     0
102
RTVSPropertyOp21
 70
     0
102
RTVSPropertyOp22
 70
     0
102
RTVSPropertyOp23
 70
     0
102
RTVSPropertyOp24
 70
     0
102
RTVSPropertyOp25
 70
     0
102
RTVSPropertyOp26
 70
     0
102
RTVSPropertyOp27
 70
     0
102
RTVSPropertyOp28
 70
     0
102
RTVSPropertyOp29
 70
     0
102
RTVSPropertyOp30
 70
     0
102
RTVSPropertyOp31
 70
     0
102
RTVSPropertyOp32
 70
     0
102
RTVSPropertyOp33
 70
     0
102
RTVSPropertyOp34
 70
     0
102
RTVSPropertyOp35
 70
     0
102
RTVSPropertyOp36
 70
     0
102
RTVSPropertyOp37
 70
     0
102
RTVSPropertyOp38
 70
     0
102
RTVSPropertyOp39
 70
     0
102
RTVSPropertyOp40
 70
     0
102
RTVSPropertyOp41
 70
     0
102
RTVSPropertyOp42
 70
     0
102
RTVSPropertyOp43
 70
     0
102
RTVSPropertyOp44
 70
     0
102
RTVSPropertyOp45
 70
     0
102
RTVSPropertyOp46
 70
     0
102
RTVSPropertyOp47
 70
     0
102
RTVSPropertyOp48
 70
     0
102
RTVSPropertyOp49
 70
     0
102
RTVSPropertyOp50
 70
     0
102
RTVSPropertyOp51
 70
     0
102
RTVSPropertyOp52
 70
     0
102
RTVSPropertyOp53
 70
     0
102
RTVSPropertyOp54
 70
     0
102
RTVSPropertyOp55
 70
     0
102
RTVSPropertyOp56
 70
     0
102
RTVSPropertyOp57
 70
     0
102
RTVSPost2010Prop28
280
     0
102
RTVSPost2010PropOp28
 70
     0
102
RTVSPost2010Prop29
280
     1
102
RTVSPost2010PropOp29
 70
     0
102
RTVSPost2010Prop30
280
     1
102
RTVSPost2010PropOp30
 70
     0
102
RTVSPost2010Prop31
280
     0
102
RTVSPost2010PropOp31
 70
     0
102
RTVSPost2010Prop32
280
     0
102
RTVSPost2010PropOp32
 70
     0
102
RTVSPost2010Prop33
280
     0
102
RTVSPost2010PropOp33
 70
     0
102
RTVSPost2010Prop34
280
     0
102
RTVSPost2010PropOp34
 70
     0
102
RTVSPost2010Prop35
280
     0
102
RTVSPost2010PropOp35
 70
     0
102
RTVSPost2010Prop36
280
     0
102
RTVSPost2010PropOp36
 70
     0
102
RTVSPost2010Prop37
 90
       50
102
RTVSPost2010PropOp37
 70
     0
102
RTVSPost2010Prop38
140
0.0
102
RTVSPost2010PropOp38
 70
     0
102
RTVSPost2010Prop39
140
1.0
102
RTVSPost2010PropOp39
 70
     0
102
RTVSPost2010Prop40
 90
        0
102
RTVSPost2010PropOp40
 70
     0
102
RTVSPost2010Prop41ColorIndex
 90
       18
102
RTVSPost2010Prop41ColorRGB
 90
        0
102
RTVSPost2010PropOp41
 70
     0
102
RTVSPost2010Prop42
 90
       50
102
RTVSPost2010PropOp42
 70
     0
102
RTVSPost2010Prop43
 90
        3
102
RTVSPost2010PropOp43
 70
     0
102
RTVSPost2010Prop44ColorIndex
 90
        5
102
RTVSPost2010Prop44ColorRGB
 90
      255
102
RTVSPost2010PropOp44
 70
     0
102
RTVSPost2010Prop45
280
     0
102
RTVSPost2010PropOp45
 70
     0
102
RTVSPost2010Prop46
 90
       50
102
RTVSPost2010PropOp46
 70
     0
102
RTVSPost2010Prop47
 90
       50
102
RTVSPost2010PropOp47
 70
     0
102
RTVSPost2010Prop48
 90
       50
102
RTVSPost2010PropOp48
 70
     0
102
RTVSPost2010Prop49
280
     0
102
RTVSPost2010PropOp49
 70
     0
102
RTVSPost2010Prop50
 90
       50
102
RTVSPost2010PropOp50
 70
     0
102
RTVSPost2010Prop51ColorIndex
 90
      256
102
RTVSPost2010Prop51ColorRGB
 90
-16777216
102
RTVSPost2010PropOp51
 70
     0
102
RTVSPost2010Prop52
140
1.0
102
RTVSPost2010PropOp52
 70
     0
102
RTVSPost2010Prop53
 90
        2
102
RTVSPost2010PropOp53
 70
     0
102
RTVSPost2010Prop54
  1
strokes_ogs.tif
102
RTVSPost2010PropOp54
 70
     0
102
RTVSPost2010Prop55
280
     0
102
RTVSPost2010PropOp55
 70
     0
102
RTVSPost2010Prop56
140
1.0
102
RTVSPost2010PropOp56
 70
     0
102
RTVSPost2010Prop57
140
1.0
102
RTVSPost2010PropOp57
 70
     0
  0
XRECORD
  5
195
102
{ACAD_REACTORS
330
194
102
}
330
194
100
AcDbXrecord
280
     1
102
RTVSPropertyOp0
 70
     1
102
RTVSPropertyOp1
 70
     1
102
RTVSPropertyOp2
 70
     1
102
RTVSPropertyOp3
 70
     1
102
RTVSPropertyOp4
 70
     1
102
RTVSPropertyOp5
 70
     1
102
RTVSPropertyOp6
 70
     1
102
RTVSPropertyOp7
 70
     1
102
RTVSPropertyOp8
 70
     1
102
RTVSPropertyOp9
 70
     1
102
RTVSPropertyOp10
 70
     1
102
RTVSPropertyOp11
 70
     1
102
RTVSPropertyOp12
 70
     1
102
RTVSPropertyOp13
 70
     1
102
RTVSPropertyOp14
 70
     1
102
RTVSPropertyOp15
 70
     1
102
RTVSPropertyOp16
 70
     1
102
RTVSPropertyOp17
 70
     1
102
RTVSPropertyOp18
 70
     1
102
RTVSPropertyOp19
 70
     1
102
RTVSPropertyOp20
 70
     1
102
RTVSPropertyOp21
 70
     1
102
RTVSPropertyOp22
 70
     1
102
RTVSPropertyOp23
 70
     1
102
RTVSPropertyOp24
 70
     1
102
RTVSPropertyOp25
 70
     1
102
RTVSPropertyOp26
 70
     1
102
RTVSPropertyOp27
 70
     1
102
RTVSPropertyOp28
 70
     1
102
RTVSPropertyOp29
 70
     1
102
RTVSPropertyOp30
 70
     1
102
RTVSPropertyOp31
 70
     1
102
RTVSPropertyOp32
 70
     1
102
RTVSPropertyOp33
 70
     1
102
RTVSPropertyOp34
 70
     1
102
RTVSPropertyOp35
 70
     1
102
RTVSPropertyOp36
 70
     1
102
RTVSPropertyOp37
 70
     1
102
RTVSPropertyOp38
 70
     1
102
RTVSPropertyOp39
 70
     1
102
RTVSPropertyOp40
 70
     1
102
RTVSPropertyOp41
 70
     1
102
RTVSPropertyOp42
 70
     1
102
RTVSPropertyOp43
 70
     1
102
RTVSPropertyOp44
 70
     1
102
RTVSPropertyOp45
 70
     1
102
RTVSPropertyOp46
 70
     1
102
RTVSPropertyOp47
 70
     1
102
RTVSPropertyOp48
 70
     1
102
RTVSPropertyOp49
 70
     1
102
RTVSPropertyOp50
 70
     1
102
RTVSPropertyOp51
 70
     0
102
RTVSPropertyOp52
 70
     0
102
RTVSPropertyOp53
 70
     1
102
RTVSPropertyOp54
 70
     1
102
RTVSPropertyOp55
 70
     1
102
RTVSPropertyOp56
 70
     1
102
RTVSPropertyOp57
 70
     1
102
RTVSPost2010Prop28
280
     0
102
RTVSPost2010PropOp28
 70
     1
102
RTVSPost2010Prop29
280
     1
102
RTVSPost2010PropOp29
 70
     1
102
RTVSPost2010Prop30
280
     1
102
RTVSPost2010PropOp30
 70
     1
102
RTVSPost2010Prop31
280
     0
102
RTVSPost2010PropOp31
 70
     1
102
RTVSPost2010Prop32
280
     0
102
RTVSPost2010PropOp32
 70
     1
102
RTVSPost2010Prop33
280
     0
102
RTVSPost2010PropOp33
 70
     1
102
RTVSPost2010Prop34
280
     0
102
RTVSPost2010PropOp34
 70
     1
102
RTVSPost2010Prop35
280
     0
102
RTVSPost2010PropOp35
 70
     1
102
RTVSPost2010Prop36
280
     0
102
RTVSPost2010PropOp36
 70
     1
102
RTVSPost2010Prop37
 90
       50
102
RTVSPost2010PropOp37
 70
     1
102
RTVSPost2010Prop38
140
0.0
102
RTVSPost2010PropOp38
 70
     1
102
RTVSPost2010Prop39
140
1.0
102
RTVSPost2010PropOp39
 70
     1
102
RTVSPost2010Prop40
 90
        0
102
RTVSPost2010PropOp40
 70
     1
102
RTVSPost2010Prop41ColorIndex
 90
       18
102
RTVSPost2010Prop41ColorRGB
 90
        0
102
RTVSPost2010PropOp41
 70
     1
102
RTVSPost2010Prop42
 90
       50
102
RTVSPost2010PropOp42
 70
     1
102
RTVSPost2010Prop43
 90
        3
102
RTVSPost2010PropOp43
 70
     1
102
RTVSPost2010Prop44ColorIndex
 90
        5
102
RTVSPost2010Prop44ColorRGB
 90
      255
102
RTVSPost2010PropOp44
 70
     1
102
RTVSPost2010Prop45
280
     0
102
RTVSPost2010PropOp45
 70
     1
102
RTVSPost2010Prop46
 90
       50
102
RTVSPost2010PropOp46
 70
     1
102
RTVSPost2010Prop47
 90
       50
102
RTVSPost2010PropOp47
 70
     1
102
RTVSPost2010Prop48
 90
       50
102
RTVSPost2010PropOp48
 70
     1
102
RTVSPost2010Prop49
280
     0
102
RTVSPost2010PropOp49
 70
     1
102
RTVSPost2010Prop50
 90
       50
102
RTVSPost2010PropOp50
 70
     1
102
RTVSPost2010Prop51ColorIndex
 90
      256
102
RTVSPost2010Prop51ColorRGB
 90
-16777216
102
RTVSPost2010PropOp51
 70
     0
102
RTVSPost2010Prop52
140
1.0
102
RTVSPost2010PropOp52
 70
     0
102
RTVSPost2010Prop53
 90
        2
102
RTVSPost2010PropOp53
 70
     1
102
RTVSPost2010Prop54
  1
strokes_ogs.tif
102
RTVSPost2010PropOp54
 70
     1
102
RTVSPost2010Prop55
280
     0
102
RTVSPost2010PropOp55
 70
     1
102
RTVSPost2010Prop56
140
1.0
102
RTVSPost2010PropOp56
 70
     1
102
RTVSPost2010Prop57
140
1.0
102
RTVSPost2010PropOp57
 70
     1
  0
XRECORD
  5
19D
102
{ACAD_REACTORS
330
19C
102
}
330
19C
100
AcDbXrecord
280
     1
102
RTVSPropertyOp0
 70
     0
102
RTVSPropertyOp1
 70
     0
102
RTVSPropertyOp2
 70
     0
102
RTVSPropertyOp3
 70
     0
102
RTVSPropertyOp4
 70
     0
102
RTVSPropertyOp5
 70
     0
102
RTVSPropertyOp6
 70
     0
102
RTVSPropertyOp7
 70
     0
102
RTVSPropertyOp8
 70
     0
102
RTVSPropertyOp9
 70
     0
102
RTVSPropertyOp10
 70
     0
102
RTVSPropertyOp11
 70
     0
102
RTVSPropertyOp12
 70
     0
102
RTVSPropertyOp13
 70
     0
102
RTVSPropertyOp14
 70
     2
102
RTVSPropertyOp15
 70
     0
102
RTVSPropertyOp16
 70
     0
102
RTVSPropertyOp17
 70
     0
102
RTVSPropertyOp18
 70
     0
102
RTVSPropertyOp19
 70
     0
102
RTVSPropertyOp20
 70
     0
102
RTVSPropertyOp21
 70
     0
102
RTVSPropertyOp22
 70
     0
102
RTVSPropertyOp23
 70
     0
102
RTVSPropertyOp24
 70
     0
102
RTVSPropertyOp25
 70
     0
102
RTVSPropertyOp26
 70
     0
102
RTVSPropertyOp27
 70
     0
102
RTVSPropertyOp28
 70
     0
102
RTVSPropertyOp29
 70
     0
102
RTVSPropertyOp30
 70
     0
102
RTVSPropertyOp31
 70
     0
102
RTVSPropertyOp32
 70
     0
102
RTVSPropertyOp33
 70
     0
102
RTVSPropertyOp34
 70
     0
102
RTVSPropertyOp35
 70
     0
102
RTVSPropertyOp36
 70
     0
102
RTVSPropertyOp37
 70
     0
102
RTVSPropertyOp38
 70
     0
102
RTVSPropertyOp39
 70
     0
102
RTVSPropertyOp40
 70
     0
102
RTVSPropertyOp41
 70
     0
102
RTVSPropertyOp42
 70
     0
102
RTVSPropertyOp43
 70
     0
102
RTVSPropertyOp44
 70
     0
102
RTVSPropertyOp45
 70
     0
102
RTVSPropertyOp46
 70
     0
102
RTVSPropertyOp47
 70
     0
102
RTVSPropertyOp48
 70
     0
102
RTVSPropertyOp49
 70
     0
102
RTVSPropertyOp50
 70
     0
102
RTVSPropertyOp51
 70
     0
102
RTVSPropertyOp52
 70
     0
102
RTVSPropertyOp53
 70
     0
102
RTVSPropertyOp54
 70
     0
102
RTVSPropertyOp55
 70
     0
102
RTVSPropertyOp56
 70
     0
102
RTVSPropertyOp57
 70
     0
102
RTVSPost2010Prop28
280
     0
102
RTVSPost2010PropOp28
 70
     0
102
RTVSPost2010Prop29
280
     1
102
RTVSPost2010PropOp29
 70
     0
102
RTVSPost2010Prop30
280
     1
102
RTVSPost2010PropOp30
 70
     0
102
RTVSPost2010Prop31
280
     0
102
RTVSPost2010PropOp31
 70
     0
102
RTVSPost2010Prop32
280
     0
102
RTVSPost2010PropOp32
 70
     0
102
RTVSPost2010Prop33
280
     0
102
RTVSPost2010PropOp33
 70
     0
102
RTVSPost2010Prop34
280
     0
102
RTVSPost2010PropOp34
 70
     0
102
RTVSPost2010Prop35
280
     0
102
RTVSPost2010PropOp35
 70
     0
102
RTVSPost2010Prop36
280
     0
102
RTVSPost2010PropOp36
 70
     0
102
RTVSPost2010Prop37
 90
       50
102
RTVSPost2010PropOp37
 70
     0
102
RTVSPost2010Prop38
140
0.0
102
RTVSPost2010PropOp38
 70
     0
102
RTVSPost2010Prop39
140
1.0
102
RTVSPost2010PropOp39
 70
     0
102
RTVSPost2010Prop40
 90
        0
102
RTVSPost2010PropOp40
 70
     0
102
RTVSPost2010Prop41ColorIndex
 90
       18
102
RTVSPost2010Prop41ColorRGB
 90
        0
102
RTVSPost2010PropOp41
 70
     0
102
RTVSPost2010Prop42
 90
       50
102
RTVSPost2010PropOp42
 70
     0
102
RTVSPost2010Prop43
 90
        3
102
RTVSPost2010PropOp43
 70
     0
102
RTVSPost2010Prop44ColorIndex
 90
        5
102
RTVSPost2010Prop44ColorRGB
 90
      255
102
RTVSPost2010PropOp44
 70
     0
102
RTVSPost2010Prop45
280
     0
102
RTVSPost2010PropOp45
 70
     0
102
RTVSPost2010Prop46
 90
       50
102
RTVSPost2010PropOp46
 70
     0
102
RTVSPost2010Prop47
 90
       50
102
RTVSPost2010PropOp47
 70
     0
102
RTVSPost2010Prop48
 90
       50
102
RTVSPost2010PropOp48
 70
     0
102
RTVSPost2010Prop49
280
     0
102
RTVSPost2010PropOp49
 70
     0
102
RTVSPost2010Prop50
 90
       50
102
RTVSPost2010PropOp50
 70
     0
102
RTVSPost2010Prop51ColorIndex
 90
      256
102
RTVSPost2010Prop51ColorRGB
 90
-16777216
102
RTVSPost2010PropOp51
 70
     0
102
RTVSPost2010Prop52
140
1.0
102
RTVSPost2010PropOp52
 70
     0
102
RTVSPost2010Prop53
 90
        2
102
RTVSPost2010PropOp53
 70
     0
102
RTVSPost2010Prop54
  1
strokes_ogs.tif
102
RTVSPost2010PropOp54
 70
     0
102
RTVSPost2010Prop55
280
     0
102
RTVSPost2010PropOp55
 70
     0
102
RTVSPost2010Prop56
140
1.0
102
RTVSPost2010PropOp56
 70
     0
102
RTVSPost2010Prop57
140
1.0
102
RTVSPost2010PropOp57
 70
     0
  0
XRECORD
  5
18B
102
{ACAD_REACTORS
330
18A
102
}
330
18A
100
AcDbXrecord
280
     1
102
RTVSPropertyOp0
 70
     1
102
RTVSPropertyOp1
 70
     1
102
RTVSPropertyOp2
 70
     1
102
RTVSPropertyOp3
 70
     1
102
RTVSPropertyOp4
 70
     1
102
RTVSPropertyOp5
 70
     1
102
RTVSPropertyOp6
 70
     1
102
RTVSPropertyOp7
 70
     1
102
RTVSPropertyOp8
 70
     1
102
RTVSPropertyOp9
 70
     1
102
RTVSPropertyOp10
 70
     1
102
RTVSPropertyOp11
 70
     1
102
RTVSPropertyOp12
 70
     1
102
RTVSPropertyOp13
 70
     1
102
RTVSPropertyOp14
 70
     1
102
RTVSPropertyOp15
 70
     1
102
RTVSPropertyOp16
 70
     1
102
RTVSPropertyOp17
 70
     1
102
RTVSPropertyOp18
 70
     1
102
RTVSPropertyOp19
 70
     1
102
RTVSPropertyOp20
 70
     1
102
RTVSPropertyOp21
 70
     1
102
RTVSPropertyOp22
 70
     1
102
RTVSPropertyOp23
 70
     1
102
RTVSPropertyOp24
 70
     1
102
RTVSPropertyOp25
 70
     1
102
RTVSPropertyOp26
 70
     1
102
RTVSPropertyOp27
 70
     1
102
RTVSPropertyOp28
 70
     1
102
RTVSPropertyOp29
 70
     1
102
RTVSPropertyOp30
 70
     1
102
RTVSPropertyOp31
 70
     1
102
RTVSPropertyOp32
 70
     1
102
RTVSPropertyOp33
 70
     1
102
RTVSPropertyOp34
 70
     1
102
RTVSPropertyOp35
 70
     1
102
RTVSPropertyOp36
 70
     1
102
RTVSPropertyOp37
 70
     1
102
RTVSPropertyOp38
 70
     1
102
RTVSPropertyOp39
 70
     1
102
RTVSPropertyOp40
 70
     1
102
RTVSPropertyOp41
 70
     1
102
RTVSPropertyOp42
 70
     1
102
RTVSPropertyOp43
 70
     1
102
RTVSPropertyOp44
 70
     1
102
RTVSPropertyOp45
 70
     1
102
RTVSPropertyOp46
 70
     1
102
RTVSPropertyOp47
 70
     1
102
RTVSPropertyOp48
 70
     1
102
RTVSPropertyOp49
 70
     1
102
RTVSPropertyOp50
 70
     1
102
RTVSPropertyOp51
 70
     0
102
RTVSPropertyOp52
 70
     0
102
RTVSPropertyOp53
 70
     1
102
RTVSPropertyOp54
 70
     1
102
RTVSPropertyOp55
 70
     1
102
RTVSPropertyOp56
 70
     1
102
RTVSPropertyOp57
 70
     1
102
RTVSPost2010Prop28
280
     0
102
RTVSPost2010PropOp28
 70
     1
102
RTVSPost2010Prop29
280
     1
102
RTVSPost2010PropOp29
 70
     1
102
RTVSPost2010Prop30
280
     1
102
RTVSPost2010PropOp30
 70
     1
102
RTVSPost2010Prop31
280
     0
102
RTVSPost2010PropOp31
 70
     1
102
RTVSPost2010Prop32
280
     0
102
RTVSPost2010PropOp32
 70
     1
102
RTVSPost2010Prop33
280
     0
102
RTVSPost2010PropOp33
 70
     1
102
RTVSPost2010Prop34
280
     0
102
RTVSPost2010PropOp34
 70
     1
102
RTVSPost2010Prop35
280
     0
102
RTVSPost2010PropOp35
 70
     1
102
RTVSPost2010Prop36
280
     0
102
RTVSPost2010PropOp36
 70
     1
102
RTVSPost2010Prop37
 90
       50
102
RTVSPost2010PropOp37
 70
     1
102
RTVSPost2010Prop38
140
0.0
102
RTVSPost2010PropOp38
 70
     1
102
RTVSPost2010Prop39
140
1.0
102
RTVSPost2010PropOp39
 70
     1
102
RTVSPost2010Prop40
 90
        0
102
RTVSPost2010PropOp40
 70
     1
102
RTVSPost2010Prop41ColorIndex
 90
       18
102
RTVSPost2010Prop41ColorRGB
 90
        0
102
RTVSPost2010PropOp41
 70
     1
102
RTVSPost2010Prop42
 90
       50
102
RTVSPost2010PropOp42
 70
     1
102
RTVSPost2010Prop43
 90
        3
102
RTVSPost2010PropOp43
 70
     1
102
RTVSPost2010Prop44ColorIndex
 90
        5
102
RTVSPost2010Prop44ColorRGB
 90
      255
102
RTVSPost2010PropOp44
 70
     1
102
RTVSPost2010Prop45
280
     0
102
RTVSPost2010PropOp45
 70
     1
102
RTVSPost2010Prop46
 90
       50
102
RTVSPost2010PropOp46
 70
     1
102
RTVSPost2010Prop47
 90
       50
102
RTVSPost2010PropOp47
 70
     1
102
RTVSPost2010Prop48
 90
       50
102
RTVSPost2010PropOp48
 70
     1
102
RTVSPost2010Prop49
280
     0
102
RTVSPost2010PropOp49
 70
     1
102
RTVSPost2010Prop50
 90
       50
102
RTVSPost2010PropOp50
 70
     1
102
RTVSPost2010Prop51ColorIndex
 90
      256
102
RTVSPost2010Prop51ColorRGB
 90
-16777216
102
RTVSPost2010PropOp51
 70
     0
102
RTVSPost2010Prop52
140
1.0
102
RTVSPost2010PropOp52
 70
     0
102
RTVSPost2010Prop53
 90
        2
102
RTVSPost2010PropOp53
 70
     1
102
RTVSPost2010Prop54
  1
strokes_ogs.tif
102
RTVSPost2010PropOp54
 70
     1
102
RTVSPost2010Prop55
280
     0
102
RTVSPost2010PropOp55
 70
     1
102
RTVSPost2010Prop56
140
1.0
102
RTVSPost2010PropOp56
 70
     1
102
RTVSPost2010Prop57
140
1.0
102
RTVSPost2010PropOp57
 70
     1
  0
XRECORD
  5
1A9
102
{ACAD_REACTORS
330
1A8
102
}
330
1A8
100
AcDbXrecord
280
     1
102
RTVSPropertyOp0
 70
     1
102
RTVSPropertyOp1
 70
     1
102
RTVSPropertyOp2
 70
     1
102
RTVSPropertyOp3
 70
     1
102
RTVSPropertyOp4
 70
     1
102
RTVSPropertyOp5
 70
     1
102
RTVSPropertyOp6
 70
     1
102
RTVSPropertyOp7
 70
     1
102
RTVSPropertyOp8
 70
     1
102
RTVSPropertyOp9
 70
     1
102
RTVSPropertyOp10
 70
     1
102
RTVSPropertyOp11
 70
     1
102
RTVSPropertyOp12
 70
     1
102
RTVSPropertyOp13
 70
     1
102
RTVSPropertyOp14
 70
     1
102
RTVSPropertyOp15
 70
     1
102
RTVSPropertyOp16
 70
     1
102
RTVSPropertyOp17
 70
     1
102
RTVSPropertyOp18
 70
     1
102
RTVSPropertyOp19
 70
     1
102
RTVSPropertyOp20
 70
     1
102
RTVSPropertyOp21
 70
     1
102
RTVSPropertyOp22
 70
     1
102
RTVSPropertyOp23
 70
     1
102
RTVSPropertyOp24
 70
     1
102
RTVSPropertyOp25
 70
     1
102
RTVSPropertyOp26
 70
     1
102
RTVSPropertyOp27
 70
     1
102
RTVSPropertyOp28
 70
     1
102
RTVSPropertyOp29
 70
     1
102
RTVSPropertyOp30
 70
     1
102
RTVSPropertyOp31
 70
     1
102
RTVSPropertyOp32
 70
     1
102
RTVSPropertyOp33
 70
     1
102
RTVSPropertyOp34
 70
     1
102
RTVSPropertyOp35
 70
     1
102
RTVSPropertyOp36
 70
     1
102
RTVSPropertyOp37
 70
     1
102
RTVSPropertyOp38
 70
     1
102
RTVSPropertyOp39
 70
     1
102
RTVSPropertyOp40
 70
     1
102
RTVSPropertyOp41
 70
     1
102
RTVSPropertyOp42
 70
     1
102
RTVSPropertyOp43
 70
     1
102
RTVSPropertyOp44
 70
     1
102
RTVSPropertyOp45
 70
     1
102
RTVSPropertyOp46
 70
     1
102
RTVSPropertyOp47
 70
     1
102
RTVSPropertyOp48
 70
     1
102
RTVSPropertyOp49
 70
     1
102
RTVSPropertyOp50
 70
     1
102
RTVSPropertyOp51
 70
     0
102
RTVSPropertyOp52
 70
     0
102
RTVSPropertyOp53
 70
     1
102
RTVSPropertyOp54
 70
     1
102
RTVSPropertyOp55
 70
     1
102
RTVSPropertyOp56
 70
     1
102
RTVSPropertyOp57
 70
     1
102
RTVSPost2010Prop28
280
     0
102
RTVSPost2010PropOp28
 70
     1
102
RTVSPost2010Prop29
280
     1
102
RTVSPost2010PropOp29
 70
     1
102
RTVSPost2010Prop30
280
     1
102
RTVSPost2010PropOp30
 70
     1
102
RTVSPost2010Prop31
280
     0
102
RTVSPost2010PropOp31
 70
     1
102
RTVSPost2010Prop32
280
     0
102
RTVSPost2010PropOp32
 70
     1
102
RTVSPost2010Prop33
280
     0
102
RTVSPost2010PropOp33
 70
     1
102
RTVSPost2010Prop34
280
     0
102
RTVSPost2010PropOp34
 70
     1
102
RTVSPost2010Prop35
280
     0
102
RTVSPost2010PropOp35
 70
     1
102
RTVSPost2010Prop36
280
     0
102
RTVSPost2010PropOp36
 70
     1
102
RTVSPost2010Prop37
 90
       50
102
RTVSPost2010PropOp37
 70
     1
102
RTVSPost2010Prop38
140
0.0
102
RTVSPost2010PropOp38
 70
     1
102
RTVSPost2010Prop39
140
1.0
102
RTVSPost2010PropOp39
 70
     1
102
RTVSPost2010Prop40
 90
        0
102
RTVSPost2010PropOp40
 70
     1
102
RTVSPost2010Prop41ColorIndex
 90
       18
102
RTVSPost2010Prop41ColorRGB
 90
        0
102
RTVSPost2010PropOp41
 70
     1
102
RTVSPost2010Prop42
 90
       50
102
RTVSPost2010PropOp42
 70
     1
102
RTVSPost2010Prop43
 90
        3
102
RTVSPost2010PropOp43
 70
     1
102
RTVSPost2010Prop44ColorIndex
 90
        5
102
RTVSPost2010Prop44ColorRGB
 90
      255
102
RTVSPost2010PropOp44
 70
     1
102
RTVSPost2010Prop45
280
     0
102
RTVSPost2010PropOp45
 70
     1
102
RTVSPost2010Prop46
 90
       50
102
RTVSPost2010PropOp46
 70
     1
102
RTVSPost2010Prop47
 90
       50
102
RTVSPost2010PropOp47
 70
     1
102
RTVSPost2010Prop48
 90
       50
102
RTVSPost2010PropOp48
 70
     1
102
RTVSPost2010Prop49
280
     0
102
RTVSPost2010PropOp49
 70
     1
102
RTVSPost2010Prop50
 90
       50
102
RTVSPost2010PropOp50
 70
     1
102
RTVSPost2010Prop51ColorIndex
 90
      256
102
RTVSPost2010Prop51ColorRGB
 90
-16777216
102
RTVSPost2010PropOp51
 70
     0
102
RTVSPost2010Prop52
140
1.0
102
RTVSPost2010PropOp52
 70
     0
102
RTVSPost2010Prop53
 90
        2
102
RTVSPost2010PropOp53
 70
     1
102
RTVSPost2010Prop54
  1
strokes_ogs.tif
102
RTVSPost2010PropOp54
 70
     1
102
RTVSPost2010Prop55
280
     0
102
RTVSPost2010PropOp55
 70
     1
102
RTVSPost2010Prop56
140
1.0
102
RTVSPost2010PropOp56
 70
     1
102
RTVSPost2010Prop57
140
1.0
102
RTVSPost2010PropOp57
 70
     1
  0
XRECORD
  5
1A7
102
{ACAD_REACTORS
330
1A6
102
}
330
1A6
100
AcDbXrecord
280
     1
102
RTVSPropertyOp0
 70
     1
102
RTVSPropertyOp1
 70
     1
102
RTVSPropertyOp2
 70
     1
102
RTVSPropertyOp3
 70
     1
102
RTVSPropertyOp4
 70
     1
102
RTVSPropertyOp5
 70
     1
102
RTVSPropertyOp6
 70
     1
102
RTVSPropertyOp7
 70
     1
102
RTVSPropertyOp8
 70
     1
102
RTVSPropertyOp9
 70
     1
102
RTVSPropertyOp10
 70
     1
102
RTVSPropertyOp11
 70
     1
102
RTVSPropertyOp12
 70
     1
102
RTVSPropertyOp13
 70
     1
102
RTVSPropertyOp14
 70
     1
102
RTVSPropertyOp15
 70
     1
102
RTVSPropertyOp16
 70
     1
102
RTVSPropertyOp17
 70
     1
102
RTVSPropertyOp18
 70
     1
102
RTVSPropertyOp19
 70
     1
102
RTVSPropertyOp20
 70
     1
102
RTVSPropertyOp21
 70
     1
102
RTVSPropertyOp22
 70
     1
102
RTVSPropertyOp23
 70
     1
102
RTVSPropertyOp24
 70
     1
102
RTVSPropertyOp25
 70
     1
102
RTVSPropertyOp26
 70
     1
102
RTVSPropertyOp27
 70
     1
102
RTVSPropertyOp28
 70
     1
102
RTVSPropertyOp29
 70
     1
102
RTVSPropertyOp30
 70
     1
102
RTVSPropertyOp31
 70
     1
102
RTVSPropertyOp32
 70
     1
102
RTVSPropertyOp33
 70
     1
102
RTVSPropertyOp34
 70
     1
102
RTVSPropertyOp35
 70
     1
102
RTVSPropertyOp36
 70
     1
102
RTVSPropertyOp37
 70
     1
102
RTVSPropertyOp38
 70
     1
102
RTVSPropertyOp39
 70
     1
102
RTVSPropertyOp40
 70
     1
102
RTVSPropertyOp41
 70
     1
102
RTVSPropertyOp42
 70
     1
102
RTVSPropertyOp43
 70
     1
102
RTVSPropertyOp44
 70
     1
102
RTVSPropertyOp45
 70
     1
102
RTVSPropertyOp46
 70
     1
102
RTVSPropertyOp47
 70
     1
102
RTVSPropertyOp48
 70
     1
102
RTVSPropertyOp49
 70
     1
102
RTVSPropertyOp50
 70
     1
102
RTVSPropertyOp51
 70
     0
102
RTVSPropertyOp52
 70
     0
102
RTVSPropertyOp53
 70
     1
102
RTVSPropertyOp54
 70
     1
102
RTVSPropertyOp55
 70
     1
102
RTVSPropertyOp56
 70
     1
102
RTVSPropertyOp57
 70
     1
102
RTVSPost2010Prop28
280
     0
102
RTVSPost2010PropOp28
 70
     1
102
RTVSPost2010Prop29
280
     1
102
RTVSPost2010PropOp29
 70
     1
102
RTVSPost2010Prop30
280
     1
102
RTVSPost2010PropOp30
 70
     1
102
RTVSPost2010Prop31
280
     0
102
RTVSPost2010PropOp31
 70
     1
102
RTVSPost2010Prop32
280
     0
102
RTVSPost2010PropOp32
 70
     1
102
RTVSPost2010Prop33
280
     0
102
RTVSPost2010PropOp33
 70
     1
102
RTVSPost2010Prop34
280
     0
102
RTVSPost2010PropOp34
 70
     1
102
RTVSPost2010Prop35
280
     0
102
RTVSPost2010PropOp35
 70
     1
102
RTVSPost2010Prop36
280
     0
102
RTVSPost2010PropOp36
 70
     1
102
RTVSPost2010Prop37
 90
       50
102
RTVSPost2010PropOp37
 70
     1
102
RTVSPost2010Prop38
140
0.0
102
RTVSPost2010PropOp38
 70
     1
102
RTVSPost2010Prop39
140
1.0
102
RTVSPost2010PropOp39
 70
     1
102
RTVSPost2010Prop40
 90
        0
102
RTVSPost2010PropOp40
 70
     1
102
RTVSPost2010Prop41ColorIndex
 90
       18
102
RTVSPost2010Prop41ColorRGB
 90
        0
102
RTVSPost2010PropOp41
 70
     1
102
RTVSPost2010Prop42
 90
       50
102
RTVSPost2010PropOp42
 70
     1
102
RTVSPost2010Prop43
 90
        3
102
RTVSPost2010PropOp43
 70
     1
102
RTVSPost2010Prop44ColorIndex
 90
        5
102
RTVSPost2010Prop44ColorRGB
 90
      255
102
RTVSPost2010PropOp44
 70
     1
102
RTVSPost2010Prop45
280
     0
102
RTVSPost2010PropOp45
 70
     1
102
RTVSPost2010Prop46
 90
       50
102
RTVSPost2010PropOp46
 70
     1
102
RTVSPost2010Prop47
 90
       50
102
RTVSPost2010PropOp47
 70
     1
102
RTVSPost2010Prop48
 90
       50
102
RTVSPost2010PropOp48
 70
     1
102
RTVSPost2010Prop49
280
     0
102
RTVSPost2010PropOp49
 70
     1
102
RTVSPost2010Prop50
 90
       50
102
RTVSPost2010PropOp50
 70
     1
102
RTVSPost2010Prop51ColorIndex
 90
      256
102
RTVSPost2010Prop51ColorRGB
 90
-16777216
102
RTVSPost2010PropOp51
 70
     0
102
RTVSPost2010Prop52
140
1.0
102
RTVSPost2010PropOp52
 70
     0
102
RTVSPost2010Prop53
 90
        2
102
RTVSPost2010PropOp53
 70
     1
102
RTVSPost2010Prop54
  1
strokes_ogs.tif
102
RTVSPost2010PropOp54
 70
     1
102
RTVSPost2010Prop55
280
     0
102
RTVSPost2010PropOp55
 70
     1
102
RTVSPost2010Prop56
140
1.0
102
RTVSPost2010PropOp56
 70
     1
102
RTVSPost2010Prop57
140
1.0
102
RTVSPost2010PropOp57
 70
     1
  0
XRECORD
  5
1A1
102
{ACAD_REACTORS
330
1A0
102
}
330
1A0
100
AcDbXrecord
280
     1
102
RTVSPropertyOp0
 70
     1
102
RTVSPropertyOp1
 70
     1
102
RTVSPropertyOp2
 70
     1
102
RTVSPropertyOp3
 70
     1
102
RTVSPropertyOp4
 70
     1
102
RTVSPropertyOp5
 70
     1
102
RTVSPropertyOp6
 70
     1
102
RTVSPropertyOp7
 70
     1
102
RTVSPropertyOp8
 70
     1
102
RTVSPropertyOp9
 70
     1
102
RTVSPropertyOp10
 70
     1
102
RTVSPropertyOp11
 70
     1
102
RTVSPropertyOp12
 70
     1
102
RTVSPropertyOp13
 70
     1
102
RTVSPropertyOp14
 70
     1
102
RTVSPropertyOp15
 70
     1
102
RTVSPropertyOp16
 70
     1
102
RTVSPropertyOp17
 70
     1
102
RTVSPropertyOp18
 70
     1
102
RTVSPropertyOp19
 70
     1
102
RTVSPropertyOp20
 70
     1
102
RTVSPropertyOp21
 70
     1
102
RTVSPropertyOp22
 70
     1
102
RTVSPropertyOp23
 70
     1
102
RTVSPropertyOp24
 70
     1
102
RTVSPropertyOp25
 70
     1
102
RTVSPropertyOp26
 70
     1
102
RTVSPropertyOp27
 70
     1
102
RTVSPropertyOp28
 70
     1
102
RTVSPropertyOp29
 70
     1
102
RTVSPropertyOp30
 70
     1
102
RTVSPropertyOp31
 70
     1
102
RTVSPropertyOp32
 70
     1
102
RTVSPropertyOp33
 70
     1
102
RTVSPropertyOp34
 70
     1
102
RTVSPropertyOp35
 70
     1
102
RTVSPropertyOp36
 70
     1
102
RTVSPropertyOp37
 70
     1
102
RTVSPropertyOp38
 70
     1
102
RTVSPropertyOp39
 70
     1
102
RTVSPropertyOp40
 70
     1
102
RTVSPropertyOp41
 70
     1
102
RTVSPropertyOp42
 70
     1
102
RTVSPropertyOp43
 70
     1
102
RTVSPropertyOp44
 70
     1
102
RTVSPropertyOp45
 70
     1
102
RTVSPropertyOp46
 70
     1
102
RTVSPropertyOp47
 70
     1
102
RTVSPropertyOp48
 70
     1
102
RTVSPropertyOp49
 70
     1
102
RTVSPropertyOp50
 70
     1
102
RTVSPropertyOp51
 70
     0
102
RTVSPropertyOp52
 70
     0
102
RTVSPropertyOp53
 70
     1
102
RTVSPropertyOp54
 70
     1
102
RTVSPropertyOp55
 70
     1
102
RTVSPropertyOp56
 70
     1
102
RTVSPropertyOp57
 70
     1
102
RTVSPost2010Prop28
280
     0
102
RTVSPost2010PropOp28
 70
     1
102
RTVSPost2010Prop29
280
     1
102
RTVSPost2010PropOp29
 70
     1
102
RTVSPost2010Prop30
280
     1
102
RTVSPost2010PropOp30
 70
     1
102
RTVSPost2010Prop31
280
     0
102
RTVSPost2010PropOp31
 70
     1
102
RTVSPost2010Prop32
280
     0
102
RTVSPost2010PropOp32
 70
     1
102
RTVSPost2010Prop33
280
     0
102
RTVSPost2010PropOp33
 70
     1
102
RTVSPost2010Prop34
280
     0
102
RTVSPost2010PropOp34
 70
     1
102
RTVSPost2010Prop35
280
     0
102
RTVSPost2010PropOp35
 70
     1
102
RTVSPost2010Prop36
280
     0
102
RTVSPost2010PropOp36
 70
     1
102
RTVSPost2010Prop37
 90
       50
102
RTVSPost2010PropOp37
 70
     1
102
RTVSPost2010Prop38
140
0.0
102
RTVSPost2010PropOp38
 70
     1
102
RTVSPost2010Prop39
140
1.0
102
RTVSPost2010PropOp39
 70
     1
102
RTVSPost2010Prop40
 90
        0
102
RTVSPost2010PropOp40
 70
     1
102
RTVSPost2010Prop41ColorIndex
 90
       18
102
RTVSPost2010Prop41ColorRGB
 90
        0
102
RTVSPost2010PropOp41
 70
     1
102
RTVSPost2010Prop42
 90
       50
102
RTVSPost2010PropOp42
 70
     1
102
RTVSPost2010Prop43
 90
        3
102
RTVSPost2010PropOp43
 70
     1
102
RTVSPost2010Prop44ColorIndex
 90
        5
102
RTVSPost2010Prop44ColorRGB
 90
      255
102
RTVSPost2010PropOp44
 70
     1
102
RTVSPost2010Prop45
280
     0
102
RTVSPost2010PropOp45
 70
     1
102
RTVSPost2010Prop46
 90
       50
102
RTVSPost2010PropOp46
 70
     1
102
RTVSPost2010Prop47
 90
       50
102
RTVSPost2010PropOp47
 70
     1
102
RTVSPost2010Prop48
 90
       50
102
RTVSPost2010PropOp48
 70
     1
102
RTVSPost2010Prop49
280
     0
102
RTVSPost2010PropOp49
 70
     1
102
RTVSPost2010Prop50
 90
       50
102
RTVSPost2010PropOp50
 70
     1
102
RTVSPost2010Prop51ColorIndex
 90
      256
102
RTVSPost2010Prop51ColorRGB
 90
-16777216
102
RTVSPost2010PropOp51
 70
     0
102
RTVSPost2010Prop52
140
1.0
102
RTVSPost2010PropOp52
 70
     0
102
RTVSPost2010Prop53
 90
        2
102
RTVSPost2010PropOp53
 70
     1
102
RTVSPost2010Prop54
  1
strokes_ogs.tif
102
RTVSPost2010PropOp54
 70
     1
102
RTVSPost2010Prop55
280
     0
102
RTVSPost2010PropOp55
 70
     1
102
RTVSPost2010Prop56
140
1.0
102
RTVSPost2010PropOp56
 70
     1
102
RTVSPost2010Prop57
140
1.0
102
RTVSPost2010PropOp57
 70
     1
  0
XRECORD
  5
1A3
102
{ACAD_REACTORS
330
1A2
102
}
330
1A2
100
AcDbXrecord
280
     1
102
RTVSPropertyOp0
 70
     1
102
RTVSPropertyOp1
 70
     1
102
RTVSPropertyOp2
 70
     1
102
RTVSPropertyOp3
 70
     1
102
RTVSPropertyOp4
 70
     1
102
RTVSPropertyOp5
 70
     1
102
RTVSPropertyOp6
 70
     1
102
RTVSPropertyOp7
 70
     1
102
RTVSPropertyOp8
 70
     1
102
RTVSPropertyOp9
 70
     1
102
RTVSPropertyOp10
 70
     1
102
RTVSPropertyOp11
 70
     1
102
RTVSPropertyOp12
 70
     1
102
RTVSPropertyOp13
 70
     1
102
RTVSPropertyOp14
 70
     1
102
RTVSPropertyOp15
 70
     1
102
RTVSPropertyOp16
 70
     1
102
RTVSPropertyOp17
 70
     1
102
RTVSPropertyOp18
 70
     1
102
RTVSPropertyOp19
 70
     1
102
RTVSPropertyOp20
 70
     1
102
RTVSPropertyOp21
 70
     1
102
RTVSPropertyOp22
 70
     1
102
RTVSPropertyOp23
 70
     1
102
RTVSPropertyOp24
 70
     1
102
RTVSPropertyOp25
 70
     1
102
RTVSPropertyOp26
 70
     1
102
RTVSPropertyOp27
 70
     1
102
RTVSPropertyOp28
 70
     1
102
RTVSPropertyOp29
 70
     1
102
RTVSPropertyOp30
 70
     1
102
RTVSPropertyOp31
 70
     1
102
RTVSPropertyOp32
 70
     1
102
RTVSPropertyOp33
 70
     1
102
RTVSPropertyOp34
 70
     1
102
RTVSPropertyOp35
 70
     1
102
RTVSPropertyOp36
 70
     1
102
RTVSPropertyOp37
 70
     1
102
RTVSPropertyOp38
 70
     1
102
RTVSPropertyOp39
 70
     1
102
RTVSPropertyOp40
 70
     1
102
RTVSPropertyOp41
 70
     1
102
RTVSPropertyOp42
 70
     1
102
RTVSPropertyOp43
 70
     1
102
RTVSPropertyOp44
 70
     1
102
RTVSPropertyOp45
 70
     1
102
RTVSPropertyOp46
 70
     1
102
RTVSPropertyOp47
 70
     1
102
RTVSPropertyOp48
 70
     1
102
RTVSPropertyOp49
 70
     1
102
RTVSPropertyOp50
 70
     1
102
RTVSPropertyOp51
 70
     0
102
RTVSPropertyOp52
 70
     0
102
RTVSPropertyOp53
 70
     1
102
RTVSPropertyOp54
 70
     1
102
RTVSPropertyOp55
 70
     1
102
RTVSPropertyOp56
 70
     1
102
RTVSPropertyOp57
 70
     1
102
RTVSPost2010Prop28
280
     0
102
RTVSPost2010PropOp28
 70
     1
102
RTVSPost2010Prop29
280
     1
102
RTVSPost2010PropOp29
 70
     1
102
RTVSPost2010Prop30
280
     1
102
RTVSPost2010PropOp30
 70
     1
102
RTVSPost2010Prop31
280
     0
102
RTVSPost2010PropOp31
 70
     1
102
RTVSPost2010Prop32
280
     0
102
RTVSPost2010PropOp32
 70
     1
102
RTVSPost2010Prop33
280
     0
102
RTVSPost2010PropOp33
 70
     1
102
RTVSPost2010Prop34
280
     0
102
RTVSPost2010PropOp34
 70
     1
102
RTVSPost2010Prop35
280
     0
102
RTVSPost2010PropOp35
 70
     1
102
RTVSPost2010Prop36
280
     0
102
RTVSPost2010PropOp36
 70
     1
102
RTVSPost2010Prop37
 90
       50
102
RTVSPost2010PropOp37
 70
     1
102
RTVSPost2010Prop38
140
0.0
102
RTVSPost2010PropOp38
 70
     1
102
RTVSPost2010Prop39
140
1.0
102
RTVSPost2010PropOp39
 70
     1
102
RTVSPost2010Prop40
 90
        0
102
RTVSPost2010PropOp40
 70
     1
102
RTVSPost2010Prop41ColorIndex
 90
       18
102
RTVSPost2010Prop41ColorRGB
 90
        0
102
RTVSPost2010PropOp41
 70
     1
102
RTVSPost2010Prop42
 90
       50
102
RTVSPost2010PropOp42
 70
     1
102
RTVSPost2010Prop43
 90
        3
102
RTVSPost2010PropOp43
 70
     1
102
RTVSPost2010Prop44ColorIndex
 90
        5
102
RTVSPost2010Prop44ColorRGB
 90
      255
102
RTVSPost2010PropOp44
 70
     1
102
RTVSPost2010Prop45
280
     0
102
RTVSPost2010PropOp45
 70
     1
102
RTVSPost2010Prop46
 90
       50
102
RTVSPost2010PropOp46
 70
     1
102
RTVSPost2010Prop47
 90
       50
102
RTVSPost2010PropOp47
 70
     1
102
RTVSPost2010Prop48
 90
       50
102
RTVSPost2010PropOp48
 70
     1
102
RTVSPost2010Prop49
280
     0
102
RTVSPost2010PropOp49
 70
     1
102
RTVSPost2010Prop50
 90
       50
102
RTVSPost2010PropOp50
 70
     1
102
RTVSPost2010Prop51ColorIndex
 90
      256
102
RTVSPost2010Prop51ColorRGB
 90
-16777216
102
RTVSPost2010PropOp51
 70
     0
102
RTVSPost2010Prop52
140
1.0
102
RTVSPost2010PropOp52
 70
     0
102
RTVSPost2010Prop53
 90
        2
102
RTVSPost2010PropOp53
 70
     1
102
RTVSPost2010Prop54
  1
strokes_ogs.tif
102
RTVSPost2010PropOp54
 70
     1
102
RTVSPost2010Prop55
280
     0
102
RTVSPost2010PropOp55
 70
     1
102
RTVSPost2010Prop56
140
1.0
102
RTVSPost2010PropOp56
 70
     1
102
RTVSPost2010Prop57
140
1.0
102
RTVSPost2010PropOp57
 70
     1
  0
XRECORD
  5
193
102
{ACAD_REACTORS
330
192
102
}
330
192
100
AcDbXrecord
280
     1
102
RTVSPropertyOp0
 70
     1
102
RTVSPropertyOp1
 70
     1
102
RTVSPropertyOp2
 70
     1
102
RTVSPropertyOp3
 70
     1
102
RTVSPropertyOp4
 70
     1
102
RTVSPropertyOp5
 70
     1
102
RTVSPropertyOp6
 70
     1
102
RTVSPropertyOp7
 70
     1
102
RTVSPropertyOp8
 70
     1
102
RTVSPropertyOp9
 70
     1
102
RTVSPropertyOp10
 70
     1
102
RTVSPropertyOp11
 70
     1
102
RTVSPropertyOp12
 70
     1
102
RTVSPropertyOp13
 70
     1
102
RTVSPropertyOp14
 70
     1
102
RTVSPropertyOp15
 70
     1
102
RTVSPropertyOp16
 70
     1
102
RTVSPropertyOp17
 70
     1
102
RTVSPropertyOp18
 70
     1
102
RTVSPropertyOp19
 70
     1
102
RTVSPropertyOp20
 70
     1
102
RTVSPropertyOp21
 70
     1
102
RTVSPropertyOp22
 70
     1
102
RTVSPropertyOp23
 70
     1
102
RTVSPropertyOp24
 70
     1
102
RTVSPropertyOp25
 70
     1
102
RTVSPropertyOp26
 70
     1
102
RTVSPropertyOp27
 70
     1
102
RTVSPropertyOp28
 70
     1
102
RTVSPropertyOp29
 70
     1
102
RTVSPropertyOp30
 70
     1
102
RTVSPropertyOp31
 70
     1
102
RTVSPropertyOp32
 70
     1
102
RTVSPropertyOp33
 70
     1
102
RTVSPropertyOp34
 70
     1
102
RTVSPropertyOp35
 70
     1
102
RTVSPropertyOp36
 70
     1
102
RTVSPropertyOp37
 70
     1
102
RTVSPropertyOp38
 70
     1
102
RTVSPropertyOp39
 70
     1
102
RTVSPropertyOp40
 70
     1
102
RTVSPropertyOp41
 70
     1
102
RTVSPropertyOp42
 70
     1
102
RTVSPropertyOp43
 70
     1
102
RTVSPropertyOp44
 70
     1
102
RTVSPropertyOp45
 70
     1
102
RTVSPropertyOp46
 70
     1
102
RTVSPropertyOp47
 70
     1
102
RTVSPropertyOp48
 70
     1
102
RTVSPropertyOp49
 70
     1
102
RTVSPropertyOp50
 70
     1
102
RTVSPropertyOp51
 70
     0
102
RTVSPropertyOp52
 70
     0
102
RTVSPropertyOp53
 70
     1
102
RTVSPropertyOp54
 70
     1
102
RTVSPropertyOp55
 70
     1
102
RTVSPropertyOp56
 70
     1
102
RTVSPropertyOp57
 70
     1
102
RTVSPost2010Prop28
280
     0
102
RTVSPost2010PropOp28
 70
     1
102
RTVSPost2010Prop29
280
     1
102
RTVSPost2010PropOp29
 70
     1
102
RTVSPost2010Prop30
280
     1
102
RTVSPost2010PropOp30
 70
     1
102
RTVSPost2010Prop31
280
     0
102
RTVSPost2010PropOp31
 70
     1
102
RTVSPost2010Prop32
280
     0
102
RTVSPost2010PropOp32
 70
     1
102
RTVSPost2010Prop33
280
     0
102
RTVSPost2010PropOp33
 70
     1
102
RTVSPost2010Prop34
280
     0
102
RTVSPost2010PropOp34
 70
     1
102
RTVSPost2010Prop35
280
     0
102
RTVSPost2010PropOp35
 70
     1
102
RTVSPost2010Prop36
280
     0
102
RTVSPost2010PropOp36
 70
     1
102
RTVSPost2010Prop37
 90
       50
102
RTVSPost2010PropOp37
 70
     1
102
RTVSPost2010Prop38
140
0.0
102
RTVSPost2010PropOp38
 70
     1
102
RTVSPost2010Prop39
140
1.0
102
RTVSPost2010PropOp39
 70
     1
102
RTVSPost2010Prop40
 90
        0
102
RTVSPost2010PropOp40
 70
     1
102
RTVSPost2010Prop41ColorIndex
 90
       18
102
RTVSPost2010Prop41ColorRGB
 90
        0
102
RTVSPost2010PropOp41
 70
     1
102
RTVSPost2010Prop42
 90
       50
102
RTVSPost2010PropOp42
 70
     1
102
RTVSPost2010Prop43
 90
        3
102
RTVSPost2010PropOp43
 70
     1
102
RTVSPost2010Prop44ColorIndex
 90
        5
102
RTVSPost2010Prop44ColorRGB
 90
      255
102
RTVSPost2010PropOp44
 70
     1
102
RTVSPost2010Prop45
280
     0
102
RTVSPost2010PropOp45
 70
     1
102
RTVSPost2010Prop46
 90
       50
102
RTVSPost2010PropOp46
 70
     1
102
RTVSPost2010Prop47
 90
       50
102
RTVSPost2010PropOp47
 70
     1
102
RTVSPost2010Prop48
 90
       50
102
RTVSPost2010PropOp48
 70
     1
102
RTVSPost2010Prop49
280
     0
102
RTVSPost2010PropOp49
 70
     1
102
RTVSPost2010Prop50
 90
       50
102
RTVSPost2010PropOp50
 70
     1
102
RTVSPost2010Prop51ColorIndex
 90
      256
102
RTVSPost2010Prop51ColorRGB
 90
-16777216
102
RTVSPost2010PropOp51
 70
     0
102
RTVSPost2010Prop52
140
1.0
102
RTVSPost2010PropOp52
 70
     0
102
RTVSPost2010Prop53
 90
        2
102
RTVSPost2010PropOp53
 70
     1
102
RTVSPost2010Prop54
  1
strokes_ogs.tif
102
RTVSPost2010PropOp54
 70
     1
102
RTVSPost2010Prop55
280
     0
102
RTVSPost2010PropOp55
 70
     1
102
RTVSPost2010Prop56
140
1.0
102
RTVSPost2010PropOp56
 70
     1
102
RTVSPost2010Prop57
140
1.0
102
RTVSPost2010PropOp57
 70
     1
  0
XRECORD
  5
185
102
{ACAD_REACTORS
330
184
102
}
330
184
100
AcDbXrecord
280
     1
102
RTVSPropertyOp0
 70
     1
102
RTVSPropertyOp1
 70
     1
102
RTVSPropertyOp2
 70
     1
102
RTVSPropertyOp3
 70
     1
102
RTVSPropertyOp4
 70
     1
102
RTVSPropertyOp5
 70
     1
102
RTVSPropertyOp6
 70
     1
102
RTVSPropertyOp7
 70
     1
102
RTVSPropertyOp8
 70
     1
102
RTVSPropertyOp9
 70
     1
102
RTVSPropertyOp10
 70
     1
102
RTVSPropertyOp11
 70
     1
102
RTVSPropertyOp12
 70
     1
102
RTVSPropertyOp13
 70
     1
102
RTVSPropertyOp14
 70
     1
102
RTVSPropertyOp15
 70
     1
102
RTVSPropertyOp16
 70
     1
102
RTVSPropertyOp17
 70
     1
102
RTVSPropertyOp18
 70
     1
102
RTVSPropertyOp19
 70
     1
102
RTVSPropertyOp20
 70
     1
102
RTVSPropertyOp21
 70
     1
102
RTVSPropertyOp22
 70
     1
102
RTVSPropertyOp23
 70
     1
102
RTVSPropertyOp24
 70
     1
102
RTVSPropertyOp25
 70
     1
102
RTVSPropertyOp26
 70
     1
102
RTVSPropertyOp27
 70
     1
102
RTVSPropertyOp28
 70
     1
102
RTVSPropertyOp29
 70
     1
102
RTVSPropertyOp30
 70
     1
102
RTVSPropertyOp31
 70
     1
102
RTVSPropertyOp32
 70
     1
102
RTVSPropertyOp33
 70
     1
102
RTVSPropertyOp34
 70
     1
102
RTVSPropertyOp35
 70
     1
102
RTVSPropertyOp36
 70
     1
102
RTVSPropertyOp37
 70
     1
102
RTVSPropertyOp38
 70
     1
102
RTVSPropertyOp39
 70
     1
102
RTVSPropertyOp40
 70
     1
102
RTVSPropertyOp41
 70
     1
102
RTVSPropertyOp42
 70
     1
102
RTVSPropertyOp43
 70
     1
102
RTVSPropertyOp44
 70
     1
102
RTVSPropertyOp45
 70
     1
102
RTVSPropertyOp46
 70
     1
102
RTVSPropertyOp47
 70
     1
102
RTVSPropertyOp48
 70
     1
102
RTVSPropertyOp49
 70
     1
102
RTVSPropertyOp50
 70
     1
102
RTVSPropertyOp51
 70
     0
102
RTVSPropertyOp52
 70
     0
102
RTVSPropertyOp53
 70
     1
102
RTVSPropertyOp54
 70
     1
102
RTVSPropertyOp55
 70
     1
102
RTVSPropertyOp56
 70
     1
102
RTVSPropertyOp57
 70
     1
102
RTVSPost2010Prop28
280
     0
102
RTVSPost2010PropOp28
 70
     1
102
RTVSPost2010Prop29
280
     1
102
RTVSPost2010PropOp29
 70
     1
102
RTVSPost2010Prop30
280
     1
102
RTVSPost2010PropOp30
 70
     1
102
RTVSPost2010Prop31
280
     0
102
RTVSPost2010PropOp31
 70
     1
102
RTVSPost2010Prop32
280
     0
102
RTVSPost2010PropOp32
 70
     1
102
RTVSPost2010Prop33
280
     0
102
RTVSPost2010PropOp33
 70
     1
102
RTVSPost2010Prop34
280
     0
102
RTVSPost2010PropOp34
 70
     1
102
RTVSPost2010Prop35
280
     0
102
RTVSPost2010PropOp35
 70
     1
102
RTVSPost2010Prop36
280
     0
102
RTVSPost2010PropOp36
 70
     1
102
RTVSPost2010Prop37
 90
       50
102
RTVSPost2010PropOp37
 70
     1
102
RTVSPost2010Prop38
140
0.0
102
RTVSPost2010PropOp38
 70
     1
102
RTVSPost2010Prop39
140
1.0
102
RTVSPost2010PropOp39
 70
     1
102
RTVSPost2010Prop40
 90
        0
102
RTVSPost2010PropOp40
 70
     1
102
RTVSPost2010Prop41ColorIndex
 90
       18
102
RTVSPost2010Prop41ColorRGB
 90
        0
102
RTVSPost2010PropOp41
 70
     1
102
RTVSPost2010Prop42
 90
       50
102
RTVSPost2010PropOp42
 70
     1
102
RTVSPost2010Prop43
 90
        3
102
RTVSPost2010PropOp43
 70
     1
102
RTVSPost2010Prop44ColorIndex
 90
        5
102
RTVSPost2010Prop44ColorRGB
 90
      255
102
RTVSPost2010PropOp44
 70
     1
102
RTVSPost2010Prop45
280
     0
102
RTVSPost2010PropOp45
 70
     1
102
RTVSPost2010Prop46
 90
       50
102
RTVSPost2010PropOp46
 70
     1
102
RTVSPost2010Prop47
 90
       50
102
RTVSPost2010PropOp47
 70
     1
102
RTVSPost2010Prop48
 90
       50
102
RTVSPost2010PropOp48
 70
     1
102
RTVSPost2010Prop49
280
     0
102
RTVSPost2010PropOp49
 70
     1
102
RTVSPost2010Prop50
 90
       50
102
RTVSPost2010PropOp50
 70
     1
102
RTVSPost2010Prop51ColorIndex
 90
      256
102
RTVSPost2010Prop51ColorRGB
 90
-16777216
102
RTVSPost2010PropOp51
 70
     0
102
RTVSPost2010Prop52
140
1.0
102
RTVSPost2010PropOp52
 70
     0
102
RTVSPost2010Prop53
 90
        2
102
RTVSPost2010PropOp53
 70
     1
102
RTVSPost2010Prop54
  1
strokes_ogs.tif
102
RTVSPost2010PropOp54
 70
     1
102
RTVSPost2010Prop55
280
     0
102
RTVSPost2010PropOp55
 70
     1
102
RTVSPost2010Prop56
140
1.0
102
RTVSPost2010PropOp56
 70
     1
102
RTVSPost2010Prop57
140
1.0
102
RTVSPost2010PropOp57
 70
     1
  0
XRECORD
  5
1A5
102
{ACAD_REACTORS
330
1A4
102
}
330
1A4
100
AcDbXrecord
280
     1
102
RTVSPropertyOp0
 70
     1
102
RTVSPropertyOp1
 70
     1
102
RTVSPropertyOp2
 70
     1
102
RTVSPropertyOp3
 70
     1
102
RTVSPropertyOp4
 70
     1
102
RTVSPropertyOp5
 70
     1
102
RTVSPropertyOp6
 70
     1
102
RTVSPropertyOp7
 70
     1
102
RTVSPropertyOp8
 70
     1
102
RTVSPropertyOp9
 70
     1
102
RTVSPropertyOp10
 70
     1
102
RTVSPropertyOp11
 70
     1
102
RTVSPropertyOp12
 70
     1
102
RTVSPropertyOp13
 70
     1
102
RTVSPropertyOp14
 70
     1
102
RTVSPropertyOp15
 70
     1
102
RTVSPropertyOp16
 70
     1
102
RTVSPropertyOp17
 70
     1
102
RTVSPropertyOp18
 70
     1
102
RTVSPropertyOp19
 70
     1
102
RTVSPropertyOp20
 70
     1
102
RTVSPropertyOp21
 70
     1
102
RTVSPropertyOp22
 70
     1
102
RTVSPropertyOp23
 70
     1
102
RTVSPropertyOp24
 70
     1
102
RTVSPropertyOp25
 70
     1
102
RTVSPropertyOp26
 70
     1
102
RTVSPropertyOp27
 70
     1
102
RTVSPropertyOp28
 70
     1
102
RTVSPropertyOp29
 70
     1
102
RTVSPropertyOp30
 70
     1
102
RTVSPropertyOp31
 70
     1
102
RTVSPropertyOp32
 70
     1
102
RTVSPropertyOp33
 70
     1
102
RTVSPropertyOp34
 70
     1
102
RTVSPropertyOp35
 70
     1
102
RTVSPropertyOp36
 70
     1
102
RTVSPropertyOp37
 70
     1
102
RTVSPropertyOp38
 70
     1
102
RTVSPropertyOp39
 70
     1
102
RTVSPropertyOp40
 70
     1
102
RTVSPropertyOp41
 70
     1
102
RTVSPropertyOp42
 70
     1
102
RTVSPropertyOp43
 70
     1
102
RTVSPropertyOp44
 70
     1
102
RTVSPropertyOp45
 70
     1
102
RTVSPropertyOp46
 70
     1
102
RTVSPropertyOp47
 70
     1
102
RTVSPropertyOp48
 70
     1
102
RTVSPropertyOp49
 70
     1
102
RTVSPropertyOp50
 70
     1
102
RTVSPropertyOp51
 70
     0
102
RTVSPropertyOp52
 70
     0
102
RTVSPropertyOp53
 70
     1
102
RTVSPropertyOp54
 70
     1
102
RTVSPropertyOp55
 70
     1
102
RTVSPropertyOp56
 70
     1
102
RTVSPropertyOp57
 70
     1
102
RTVSPost2010Prop28
280
     0
102
RTVSPost2010PropOp28
 70
     1
102
RTVSPost2010Prop29
280
     1
102
RTVSPost2010PropOp29
 70
     1
102
RTVSPost2010Prop30
280
     1
102
RTVSPost2010PropOp30
 70
     1
102
RTVSPost2010Prop31
280
     0
102
RTVSPost2010PropOp31
 70
     1
102
RTVSPost2010Prop32
280
     0
102
RTVSPost2010PropOp32
 70
     1
102
RTVSPost2010Prop33
280
     0
102
RTVSPost2010PropOp33
 70
     1
102
RTVSPost2010Prop34
280
     0
102
RTVSPost2010PropOp34
 70
     1
102
RTVSPost2010Prop35
280
     0
102
RTVSPost2010PropOp35
 70
     1
102
RTVSPost2010Prop36
280
     0
102
RTVSPost2010PropOp36
 70
     1
102
RTVSPost2010Prop37
 90
       50
102
RTVSPost2010PropOp37
 70
     1
102
RTVSPost2010Prop38
140
0.0
102
RTVSPost2010PropOp38
 70
     1
102
RTVSPost2010Prop39
140
1.0
102
RTVSPost2010PropOp39
 70
     1
102
RTVSPost2010Prop40
 90
        0
102
RTVSPost2010PropOp40
 70
     1
102
RTVSPost2010Prop41ColorIndex
 90
       18
102
RTVSPost2010Prop41ColorRGB
 90
        0
102
RTVSPost2010PropOp41
 70
     1
102
RTVSPost2010Prop42
 90
       50
102
RTVSPost2010PropOp42
 70
     1
102
RTVSPost2010Prop43
 90
        3
102
RTVSPost2010PropOp43
 70
     1
102
RTVSPost2010Prop44ColorIndex
 90
        5
102
RTVSPost2010Prop44ColorRGB
 90
      255
102
RTVSPost2010PropOp44
 70
     1
102
RTVSPost2010Prop45
280
     0
102
RTVSPost2010PropOp45
 70
     1
102
RTVSPost2010Prop46
 90
       50
102
RTVSPost2010PropOp46
 70
     1
102
RTVSPost2010Prop47
 90
       50
102
RTVSPost2010PropOp47
 70
     1
102
RTVSPost2010Prop48
 90
       50
102
RTVSPost2010PropOp48
 70
     1
102
RTVSPost2010Prop49
280
     0
102
RTVSPost2010PropOp49
 70
     1
102
RTVSPost2010Prop50
 90
       50
102
RTVSPost2010PropOp50
 70
     1
102
RTVSPost2010Prop51ColorIndex
 90
      256
102
RTVSPost2010Prop51ColorRGB
 90
-16777216
102
RTVSPost2010PropOp51
 70
     0
102
RTVSPost2010Prop52
140
1.0
102
RTVSPost2010PropOp52
 70
     0
102
RTVSPost2010Prop53
 90
        2
102
RTVSPost2010PropOp53
 70
     1
102
RTVSPost2010Prop54
  1
strokes_ogs.tif
102
RTVSPost2010PropOp54
 70
     1
102
RTVSPost2010Prop55
280
     0
102
RTVSPost2010PropOp55
 70
     1
102
RTVSPost2010Prop56
140
1.0
102
RTVSPost2010PropOp56
 70
     1
102
RTVSPost2010Prop57
140
1.0
102
RTVSPost2010PropOp57
 70
     1
  0
ENDSEC
  0
EOF
