  0
SECTION
  2
HEADER
  9
$ACADVER
  1
AC1021
  9
$ACADMAINTVER
 70
    25
  9
$DWGCODEPAGE
  3
ANSI_1252
  9
$LASTSAVEDBY
  1
User
  9
$INSBASE
 10
0.0
 20
0.0
 30
0.0
  9
$EXTMIN
 10
1.000000000000000E+20
 20
1.000000000000000E+20
 30
1.000000000000000E+20
  9
$EXTMAX
 10
-1.000000000000000E+20
 20
-1.000000000000000E+20
 30
-1.000000000000000E+20
  9
$LIMMIN
 10
0.0
 20
0.0
  9
$LIMMAX
 10
12.0
 20
9.0
  9
$ORTHOMODE
 70
     0
  9
$REGENMODE
 70
     1
  9
$FILLMODE
 70
     1
  9
$QTEXTMODE
 70
     0
  9
$MIRRTEXT
 70
     1
  9
$LTSCALE
 40
1.0
  9
$ATTMODE
 70
     1
  9
$TEXTSIZE
 40
0.2
  9
$TRACEWID
 40
0.05
  9
$TEXTSTYLE
  7
Standard
  9
$CLAYER
  8
0
  9
$CELTYPE
  6
ByLayer
  9
$CECOLOR
 62
   256
  9
$CELTSCALE
 40
1.0
  9
$DISPSILH
 70
     0
  9
$DIMSCALE
 40
1.0
  9
$DIMASZ
 40
0.18
  9
$DIMEXO
 40
0.0625
  9
$DIMDLI
 40
0.38
  9
$DIMRND
 40
0.0
  9
$DIMDLE
 40
0.0
  9
$DIMEXE
 40
0.18
  9
$DIMTP
 40
0.0
  9
$DIMTM
 40
0.0
  9
$DIMTXT
 40
0.18
  9
$DIMCEN
 40
0.09
  9
$DIMTSZ
 40
0.0
  9
$DIMTOL
 70
     0
  9
$DIMLIM
 70
     0
  9
$DIMTIH
 70
     1
  9
$DIMTOH
 70
     1
  9
$DIMSE1
 70
     0
  9
$DIMSE2
 70
     0
  9
$DIMTAD
 70
     0
  9
$DIMZIN
 70
     0
  9
$DIMBLK
  1

  9
$DIMASO
 70
     1
  9
$DIMSHO
 70
     1
  9
$DIMPOST
  1

  9
$DIMAPOST
  1

  9
$DIMALT
 70
     0
  9
$DIMALTD
 70
     2
  9
$DIMALTF
 40
25.4
  9
$DIMLFAC
 40
1.0
  9
$DIMTOFL
 70
     0
  9
$DIMTVP
 40
0.0
  9
$DIMTIX
 70
     0
  9
$DIMSOXD
 70
     0
  9
$DIMSAH
 70
     0
  9
$DIMBLK1
  1

  9
$DIMBLK2
  1

  9
$DIMSTYLE
  2
STANDARD_ACAD
  9
$DIMCLRD
 70
     0
  9
$DIMCLRE
 70
     0
  9
$DIMCLRT
 70
     0
  9
$DIMTFAC
 40
1.0
  9
$DIMGAP
 40
0.09
  9
$DIMJUST
 70
     0
  9
$DIMSD1
 70
     0
  9
$DIMSD2
 70
     0
  9
$DIMTOLJ
 70
     1
  9
$DIMTZIN
 70
     0
  9
$DIMALTZ
 70
     0
  9
$DIMALTTZ
 70
     0
  9
$DIMUPT
 70
     0
  9
$DIMDEC
 70
     4
  9
$DIMTDEC
 70
     4
  9
$DIMALTU
 70
     2
  9
$DIMALTTD
 70
     2
  9
$DIMTXSTY
  7
Standard
  9
$DIMAUNIT
 70
     0
  9
$DIMADEC
 70
     0
  9
$DIMALTRND
 40
0.0
  9
$DIMAZIN
 70
     0
  9
$DIMDSEP
 70
    46
  9
$DIMATFIT
 70
     3
  9
$DIMFRAC
 70
     0
  9
$DIMLDRBLK
  1

  9
$DIMLUNIT
 70
     2
  9
$DIMLWD
 70
    -2
  9
$DIMLWE
 70
    -2
  9
$DIMTMOVE
 70
     2
  9
$DIMFXL
 40
1.0
  9
$DIMFXLON
 70
     0
  9
$DIMJOGANG
 40
0.7853981633974483
  9
$DIMTFILL
 70
     0
  9
$DIMTFILLCLR
 70
     0
  9
$DIMARCSYM
 70
     0
  9
$DIMLTYPE
  6

  9
$DIMLTEX1
  6

  9
$DIMLTEX2
  6

  9
$LUNITS
 70
     2
  9
$LUPREC
 70
     3
  9
$SKETCHINC
 40
0.1
  9
$FILLETRAD
 40
0.0
  9
$AUNITS
 70
     0
  9
$AUPREC
 70
     0
  9
$MENU
  1
.
  9
$ELEVATION
 40
0.0
  9
$PELEVATION
 40
0.0
  9
$THICKNESS
 40
0.0
  9
$LIMCHECK
 70
     0
  9
$CHAMFERA
 40
0.0
  9
$CHAMFERB
 40
0.0
  9
$CHAMFERC
 40
0.0
  9
$CHAMFERD
 40
0.0
  9
$SKPOLY
 70
     0
  9
$TDCREATE
 40
2459551.88854294
  9
$TDUCREATE
 40
2459552.096876273
  9
$TDUPDATE
 40
2459551.888557975
  9
$TDUUPDATE
 40
2459552.096891308
  9
$TDINDWG
 40
0.0000000116
  9
$TDUSRTIMER
 40
0.0000000116
  9
$USRTIMER
 70
     1
  9
$ANGBASE
 50
0.0
  9
$ANGDIR
 70
     0
  9
$PDMODE
 70
     0
  9
$PDSIZE
 40
0.0
  9
$PLINEWID
 40
0.0
  9
$SPLFRAME
 70
     0
  9
$SPLINETYPE
 70
     6
  9
$SPLINESEGS
 70
     8
  9
$HANDSEED
  5
177
  9
$SURFTAB1
 70
     6
  9
$SURFTAB2
 70
     6
  9
$SURFTYPE
 70
     6
  9
$SURFU
 70
     6
  9
$SURFV
 70
     6
  9
$UCSBASE
  2

  9
$UCSNAME
  2

  9
$UCSORG
 10
0.0
 20
0.0
 30
0.0
  9
$UCSXDIR
 10
1.0
 20
0.0
 30
0.0
  9
$UCSYDIR
 10
0.0
 20
1.0
 30
0.0
  9
$UCSORTHOREF
  2

  9
$UCSORTHOVIEW
 70
     0
  9
$UCSORGTOP
 10
0.0
 20
0.0
 30
0.0
  9
$UCSORGBOTTOM
 10
0.0
 20
0.0
 30
0.0
  9
$UCSORGLEFT
 10
0.0
 20
0.0
 30
0.0
  9
$UCSORGRIGHT
 10
0.0
 20
0.0
 30
0.0
  9
$UCSORGFRONT
 10
0.0
 20
0.0
 30
0.0
  9
$UCSORGBACK
 10
0.0
 20
0.0
 30
0.0
  9
$PUCSBASE
  2

  9
$PUCSNAME
  2

  9
$PUCSORG
 10
0.0
 20
0.0
 30
0.0
  9
$PUCSXDIR
 10
1.0
 20
0.0
 30
0.0
  9
$PUCSYDIR
 10
0.0
 20
1.0
 30
0.0
  9
$PUCSORTHOREF
  2

  9
$PUCSORTHOVIEW
 70
     0
  9
$PUCSORGTOP
 10
0.0
 20
0.0
 30
0.0
  9
$PUCSORGBOTTOM
 10
0.0
 20
0.0
 30
0.0
  9
$PUCSORGLEFT
 10
0.0
 20
0.0
 30
0.0
  9
$PUCSORGRIGHT
 10
0.0
 20
0.0
 30
0.0
  9
$PUCSORGFRONT
 10
0.0
 20
0.0
 30
0.0
  9
$PUCSORGBACK
 10
0.0
 20
0.0
 30
0.0
  9
$USERI1
 70
     0
  9
$USERI2
 70
     0
  9
$USERI3
 70
     0
  9
$USERI4
 70
     0
  9
$USERI5
 70
     0
  9
$USERR1
 40
0.0
  9
$USERR2
 40
0.0
  9
$USERR3
 40
0.0
  9
$USERR4
 40
0.0
  9
$USERR5
 40
0.0
  9
$WORLDVIEW
 70
     1
  9
$SHADEDGE
 70
     3
  9
$SHADEDIF
 70
    70
  9
$TILEMODE
 70
     1
  9
$MAXACTVP
 70
    64
  9
$PINSBASE
 10
0.0
 20
0.0
 30
0.0
  9
$PLIMCHECK
 70
     0
  9
$PEXTMIN
 10
1.000000000000000E+20
 20
1.000000000000000E+20
 30
1.000000000000000E+20
  9
$PEXTMAX
 10
-1.000000000000000E+20
 20
-1.000000000000000E+20
 30
-1.000000000000000E+20
  9
$PLIMMIN
 10
0.0
 20
0.0
  9
$PLIMMAX
 10
12.0
 20
9.0
  9
$UNITMODE
 70
     0
  9
$VISRETAIN
 70
     1
  9
$PLINEGEN
 70
     0
  9
$PSLTSCALE
 70
     1
  9
$TREEDEPTH
 70
  3020
  9
$CMLSTYLE
  2
Standard
  9
$CMLJUST
 70
     0
  9
$CMLSCALE
 40
1.0
  9
$PROXYGRAPHICS
 70
     1
  9
$MEASUREMENT
 70
     0
  9
$CELWEIGHT
370
    -1
  9
$ENDCAPS
280
     0
  9
$JOINSTYLE
280
     0
  9
$LWDISPLAY
290
     0
  9
$INSUNITS
 70
     1
  9
$HYPERLINKBASE
  1

  9
$STYLESHEET
  1

  9
$XEDIT
290
     1
  9
$CEPSNTYPE
380
     0
  9
$PSTYLEMODE
290
     1
  9
$FINGERPRINTGUID
  2
{c40de753-d75d-45c6-9e98-f754af890e57}
  9
$VERSIONGUID
  2
{FAEB1C32-E019-11D5-929B-00C0DF256EC4}
  9
$EXTNAMES
290
     1
  9
$PSVPSCALE
 40
0.0
  9
$OLESTARTUP
290
     0
  9
$SORTENTS
280
   127
  9
$INDEXCTL
280
     0
  9
$HIDETEXT
280
     1
  9
$XCLIPFRAME
290
     0
  9
$HALOGAP
280
     0
  9
$OBSCOLOR
 70
   257
  9
$OBSLTYPE
280
     0
  9
$INTERSECTIONDISPLAY
280
     0
  9
$INTERSECTIONCOLOR
 70
   257
  9
$DIMASSOC
280
     2
  9
$PROJECTNAME
  1

  9
$CAMERADISPLAY
290
     0
  9
$LENSLENGTH
 40
50.0
  9
$CAMERAHEIGHT
 40
0.0
  9
$STEPSPERSEC
 40
2.0
  9
$STEPSIZE
 40
6.0
  9
$3DDWFPREC
 40
2.0
  9
$PSOLWIDTH
 40
0.25
  9
$PSOLHEIGHT
 40
4.0
  9
$LOFTANG1
 40
1.570796326794897
  9
$LOFTANG2
 40
1.570796326794897
  9
$LOFTMAG1
 40
0.0
  9
$LOFTMAG2
 40
0.0
  9
$LOFTPARAM
 70
     7
  9
$LOFTNORMALS
280
     1
  9
$LATITUDE
 40
37.795
  9
$LONGITUDE
 40
-122.394
  9
$NORTHDIRECTION
 40
0.0
  9
$TIMEZONE
 70
 -8000
  9
$LIGHTGLYPHDISPLAY
280
     1
  9
$TILEMODELIGHTSYNCH
280
     1
  9
$CMATERIAL
347
44
  9
$SOLIDHIST
280
     0
  9
$SHOWHIST
280
     1
  9
$DWFFRAME
280
     2
  9
$DGNFRAME
280
     2
  9
$REALWORLDSCALE
290
     1
  9
$INTERFERECOLOR
 62
   256
  9
$CSHADOW
280
     0
  9
$SHADOWPLANELOCATION
 40
0.0
  0
ENDSEC
  0
SECTION
  2
CLASSES
  0
CLASS
  1
ACDBDICTIONARYWDFLT
  2
AcDbDictionaryWithDefault
  3
ObjectDBX Classes
 90
        0
 91
        3
280
     0
281
     0
  0
CLASS
  1
VISUALSTYLE
  2
AcDbVisualStyle
  3
ObjectDBX Classes
 90
     4095
 91
        3
280
     0
281
     0
  0
CLASS
  1
MATERIAL
  2
AcDbMaterial
  3
ObjectDBX Classes
 90
     1153
 91
        3
280
     0
281
     0
  0
CLASS
  1
SCALE
  2
AcDbScale
  3
ObjectDBX Classes
 90
     1153
 91
        3
280
     0
281
     0
  0
CLASS
  1
TABLESTYLE
  2
AcDbTableStyle
  3
ObjectDBX Classes
 90
     4095
 91
        3
280
     0
281
     0
  0
CLASS
  1
MLEADERSTYLE
  2
AcDbMLeaderStyle
  3
ACDB_MLEADERSTYLE_CLASS
 90
     4095
 91
        3
280
     0
281
     0
  0
CLASS
  1
SUN
  2
AcDbSun
  3
SCENEOE
 90
     1153
 91
        3
280
     0
281
     0
  0
CLASS
  1
DICTIONARYVAR
  2
AcDbDictionaryVar
  3
ObjectDBX Classes
 90
        0
 91
        3
280
     0
281
     0
  0
CLASS
  1
CELLSTYLEMAP
  2
AcDbCellStyleMap
  3
ObjectDBX Classes
 90
     1152
 91
        3
280
     0
281
     0
  0
ENDSEC
  0
SECTION
  2
TABLES
  0
TABLE
  2
VPORT
  5
8
330
0
100
AcDbSymbolTable
 70
     1
  0
VPORT
  5
29
330
8
100
AcDbSymbolTableRecord
100
AcDbViewportTableRecord
  2
*Active
 70
     0
 10
0.0
 20
0.0
 11
1.0
 21
1.0
 12
10.42990654205607
 22
4.5
 13
0.0
 23
0.0
 14
0.5
 24
0.5
 15
0.5
 25
0.5
 16
0.0
 26
0.0
 36
1.0
 17
0.0
 27
0.0
 37
0.0
 40
9.0
 41
1.972972972850329
 42
50.0
 43
0.0
 44
0.0
 50
0.0
 51
0.0
 71
     0
 72
   100
 73
     1
 74
     3
 75
     0
 76
     0
 77
     0
 78
     0
281
     0
 65
     1
110
0.0
120
0.0
130
0.0
111
1.0
121
0.0
131
0.0
112
0.0
122
1.0
132
0.0
 79
     0
146
0.0
348
2F
 60
     3
 61
     5
292
     1
282
     1
141
0.0
142
0.0
 63
   250
361
5D
  0
ENDTAB
  0
TABLE
  2
LTYPE
  5
5
330
0
100
AcDbSymbolTable
 70
     1
  0
LTYPE
  5
14
330
5
100
AcDbSymbolTableRecord
100
AcDbLinetypeTableRecord
  2
ByBlock
 70
     0
  3

 72
    65
 73
     0
 40
0.0
  0
LTYPE
  5
15
330
5
100
AcDbSymbolTableRecord
100
AcDbLinetypeTableRecord
  2
ByLayer
 70
     0
  3

 72
    65
 73
     0
 40
0.0
  0
LTYPE
  5
16
330
5
100
AcDbSymbolTableRecord
100
AcDbLinetypeTableRecord
  2
Continuous
 70
     0
  3
Solid line
 72
    65
 73
     0
 40
0.0
  0
ENDTAB
  0
TABLE
  2
LAYER
  5
2
330
0
100
AcDbSymbolTable
 70
     3
  0
LAYER
  5
10
330
2
100
AcDbSymbolTableRecord
100
AcDbLayerTableRecord
  2
0
 70
     0
 62
     7
  6
Continuous
370
    -3
390
F
347
46
  0
LAYER
  5
5F
330
2
100
AcDbSymbolTableRecord
100
AcDbLayerTableRecord
  2
2D DXF
 70
     0
 62
    18
420
        0
  6
Continuous
370
    -3
390
F
347
46
  0
LAYER
  5
62
330
2
100
AcDbSymbolTableRecord
100
AcDbLayerTableRecord
  2
Make2D$Visible$Curves
 70
     0
 62
    18
420
        0
  6
Continuous
370
    -3
390
F
347
46
  0
ENDTAB
  0
TABLE
  2
STYLE
  5
3
330
0
100
AcDbSymbolTable
 70
     1
  0
STYLE
  5
11
330
3
100
AcDbSymbolTableRecord
100
AcDbTextStyleTableRecord
  2
Standard
 70
     0
 40
0.0
 41
1.0
 50
0.0
 71
     0
 42
0.2
  3
txt
  4

  0
ENDTAB
  0
TABLE
  2
VIEW
  5
6
330
0
100
AcDbSymbolTable
 70
     0
  0
ENDTAB
  0
TABLE
  2
UCS
  5
7
330
0
100
AcDbSymbolTable
 70
     0
  0
ENDTAB
  0
TABLE
  2
APPID
  5
9
330
0
100
AcDbSymbolTable
 70
     3
  0
APPID
  5
12
330
9
100
AcDbSymbolTableRecord
100
AcDbRegAppTableRecord
  2
ACAD
 70
     0
  0
APPID
  5
5E
330
9
100
AcDbSymbolTableRecord
100
AcDbRegAppTableRecord
  2
Rhino
 70
     0
  0
APPID
  5
16F
330
9
100
AcDbSymbolTableRecord
100
AcDbRegAppTableRecord
  2
ACAD_MLEADERVER
 70
     0
  0
ENDTAB
  0
TABLE
  2
DIMSTYLE
  5
A
330
0
100
AcDbSymbolTable
 70
     1
100
AcDbDimStyleTable
  0
DIMSTYLE
105
27
330
A
100
AcDbSymbolTableRecord
100
AcDbDimStyleTableRecord
  2
STANDARD_ACAD
 70
     0
178
     0
340
11
  0
ENDTAB
  0
TABLE
  2
BLOCK_RECORD
  5
1
330
0
100
AcDbSymbolTable
 70
     1
  0
BLOCK_RECORD
  5
1F
330
1
100
AcDbSymbolTableRecord
100
AcDbBlockTableRecord
  2
*Model_Space
340
22
 70
     0
280
     1
281
     0
  0
BLOCK_RECORD
  5
1B
330
1
100
AcDbSymbolTableRecord
100
AcDbBlockTableRecord
  2
*Paper_Space
340
1E
 70
     0
280
     1
281
     0
  0
BLOCK_RECORD
  5
23
330
1
100
AcDbSymbolTableRecord
100
AcDbBlockTableRecord
  2
*Paper_Space0
340
26
 70
     0
280
     1
281
     0
  0
ENDTAB
  0
ENDSEC
  0
SECTION
  2
BLOCKS
  0
BLOCK
  5
20
330
1F
100
AcDbEntity
  8
0
100
AcDbBlockBegin
  2
*Model_Space
 70
     0
 10
0.0
 20
0.0
 30
0.0
  3
*Model_Space
  1

  0
ENDBLK
  5
21
330
1F
100
AcDbEntity
  8
0
100
AcDbBlockEnd
  0
BLOCK
  5
1C
330
1B
100
AcDbEntity
 67
     1
  8
0
100
AcDbBlockBegin
  2
*Paper_Space
 70
     0
 10
0.0
 20
0.0
 30
0.0
  3
*Paper_Space
  1

  0
ENDBLK
  5
1D
330
1B
100
AcDbEntity
 67
     1
  8
0
100
AcDbBlockEnd
  0
BLOCK
  5
24
330
23
100
AcDbEntity
  8
0
100
AcDbBlockBegin
  2
*Paper_Space0
 70
     0
 10
0.0
 20
0.0
 30
0.0
  3
*Paper_Space0
  1

  0
ENDBLK
  5
25
330
23
100
AcDbEntity
  8
0
100
AcDbBlockEnd
  0
ENDSEC
  0
SECTION
  2
ENTITIES
  0
SPLINE
  5
60
330
1F
100
AcDbEntity
  8
2D DXF
370
    -3
100
AcDbSpline
210
0.0
220
0.0
230
1.0
 70
     8
 71
     3
 72
    10
 73
     6
 74
     0
 42
0.0000000001
 43
0.0000000001
 40
0.0
 40
0.0
 40
0.0
 40
0.0
 40
1.0
 40
2.0
 40
2.181381022353569
 40
2.181381022353569
 40
2.181381022353569
 40
2.181381022353569
 10
-4.180139548928707
 20
19.90331910531148
 30
0.0
 10
-4.218459309088246
 20
19.69039297342651
 30
0.0
 10
-4.297225926309409
 20
19.26482722662085
 30
0.0
 10
-4.390196437035049
 20
18.80226826935744
 30
0.0
 10
-4.447310322243014
 20
18.5529391227538
 30
0.0
 10
-4.456370581478412
 20
18.51473362942038
 30
0.0
  0
SPLINE
  5
61
330
1F
100
AcDbEntity
  8
2D DXF
370
    -3
100
AcDbSpline
210
0.0
220
0.0
230
1.0
 70
     8
 71
     3
 72
    10
 73
     6
 74
     0
 42
0.0000000001
 43
0.0000000001
 40
0.0
 40
0.0
 40
0.0
 40
0.0
 40
1.0
 40
2.0
 40
2.181047703234908
 40
2.181047703234908
 40
2.181047703234908
 40
2.181047703234908
 10
4.183365335105407
 20
19.90331910531148
 30
0.0
 10
4.221685095264945
 20
19.69039297342651
 30
0.0
 10
4.300451712486108
 20
19.26482722662085
 30
0.0
 10
4.393408017143035
 20
18.80233894923518
 30
0.0
 10
4.450503880321424
 20
18.55307981610399
 30
0.0
 10
4.45954642120844
 20
18.51494425785848
 30
0.0
  0
SPLINE
  5
63
330
1F
100
AcDbEntity
  8
Make2D$Visible$Curves
 62
    18
420
        0
370
    -3
100
AcDbSpline
210
0.0
220
0.0
230
1.0
 70
    11
 71
     2
 72
    34
 73
    31
 74
     0
 42
0.0000000001
 43
0.0000000001
 40
0.0
 40
0.0
 40
0.0
 40
1.000000040306232
 40
2.000000080612463
 40
3.000000120918695
 40
4.000000161224927
 40
5.000000201531158
 40
6.00000024183739
 40
7.00000028214362
 40
8.000000322449853
 40
9.000000362756083
 40
10.00000040306232
 40
11.00000044336855
 40
12.00000048367478
 40
13.00000052398101
 40
14.0
 40
14.0
 40
14.99999947601899
 40
15.99999951632522
 40
16.99999955663145
 40
17.99999959693768
 40
18.99999963724391
 40
19.99999967755015
 40
20.99999971785638
 40
21.99999975816261
 40
22.99999979846884
 40
23.99999983877507
 40
24.9999998790813
 40
25.99999991938754
 40
26.99999995969377
 40
28.0
 40
28.0
 40
28.0
 10
0.0000218787922961
 20
56.4715024734669
 30
0.0
 10
0.9490190548003881
 20
56.47666228706426
 30
0.0
 10
2.836796712553294
 20
56.28181937486666
 30
0.0
 10
4.676191284432917
 20
55.77551409196435
 30
0.0
 10
6.250910135708722
 20
54.68212878798754
 30
0.0
 10
7.319981766719721
 20
53.09642803330944
 30
0.0
 10
7.926530277768791
 20
51.29196545053706
 30
0.0
 10
8.260226872564601
 20
49.42241183025949
 30
0.0
 10
8.274018381073788
 20
47.52163543575769
 30
0.0
 10
7.965328567075971
 20
45.64574070495421
 30
0.0
 10
7.284263362456173
 20
43.86606563291038
 30
0.0
 10
6.145654007001895
 20
42.33382720305791
 30
0.0
 10
4.607430470576944
 20
41.20437122165809
 30
0.0
 10
2.828188663835292
 20
40.52261645028859
 30
0.0
 10
0.9498569687686427
 20
40.22792929225349
 30
0.0
 10
0.0000218787922961
 20
40.23080664577386
 30
0.0
 10
-0.9498132111840505
 20
40.22792929225349
 30
0.0
 10
-2.828144906250699
 20
40.52261645028859
 30
0.0
 10
-4.607386712992351
 20
41.20437122165809
 30
0.0
 10
-6.145610249417302
 20
42.33382720305791
 30
0.0
 10
-7.284219604871581
 20
43.86606563291038
 30
0.0
 10
-7.965284809491379
 20
45.64574070495421
 30
0.0
 10
-8.273974623489195
 20
47.52163543575769
 30
0.0
 10
-8.26018311498001
 20
49.42241183025949
 30
0.0
 10
-7.926486520184199
 20
51.29196545053706
 30
0.0
 10
-7.319938009135129
 20
53.09642803330944
 30
0.0
 10
-6.25086637812413
 20
54.68212878798754
 30
0.0
 10
-4.676147526848325
 20
55.77551409196435
 30
0.0
 10
-2.836752954968702
 20
56.28181937486666
 30
0.0
 10
-0.9489752972157959
 20
56.47666228706426
 30
0.0
 10
0.0000218787922961
 20
56.4715024734669
 30
0.0
  0
SPLINE
  5
64
330
1F
100
AcDbEntity
  8
Make2D$Visible$Curves
 62
    18
420
        0
370
    -3
100
AcDbSpline
210
0.0
220
0.0
230
1.0
 70
    12
 71
     3
 72
    48
 73
    44
 74
     0
 42
0.0000000001
 43
0.0000000001
 40
0.0
 40
0.0
 40
0.0
 40
0.0
 40
1.0
 40
1.0
 40
1.0
 40
2.0
 40
3.0
 40
4.0
 40
5.0
 40
6.0
 40
7.0
 40
7.0
 40
7.0
 40
8.0
 40
8.0
 40
9.0
 40
9.0
 40
10.0
 40
10.0
 40
11.0
 40
11.0
 40
12.0
 40
12.0
 40
13.0
 40
13.0
 40
14.0
 40
14.0
 40
15.0
 40
15.0
 40
16.0
 40
16.0
 40
17.0
 40
17.0
 40
18.0
 40
18.0
 40
19.0
 40
19.0
 40
20.0
 40
20.0
 40
21.0
 40
21.0
 40
21.0
 40
21.40578199946958
 40
21.40578199946958
 40
21.40578199946958
 40
21.40578199946958
 10
39.33314599152308
 20
17.0207439833693
 30
0.0
 41
1.0
 10
39.37667879194723
 20
17.00049851569802
 30
0.0
 41
1.0
 10
39.43546236305578
 20
17.03302742667431
 30
0.0
 41
1.0
 10
39.45539688731365
 20
17.07670348860004
 30
0.0
 41
1.0
 10
39.47802447876215
 20
17.12627999579678
 30
0.0
 41
1.0
 10
39.48744692619472
 20
17.2404900684762
 30
0.0
 41
1.0
 10
39.4049870054906
 20
17.38646029097848
 30
0.0
 41
1.0
 10
39.28803591358906
 20
17.50073230935145
 30
0.0
 41
1.0
 10
39.15535546497642
 20
17.59629121922596
 30
0.0
 41
1.0
 10
39.01425739117606
 20
17.67840091371622
 30
0.0
 41
1.0
 10
38.91582262401302
 20
17.72479093725596
 30
0.0
 41
1.0
 10
38.86707301389349
 20
17.74888651344437
 30
0.0
 41
1.0
 10
38.54715456561188
 20
17.90701330308941
 30
0.0
 41
1.0
 10
38.22272801477991
 20
18.05573269315171
 30
0.0
 41
1.0
 10
37.56485870801529
 20
18.33435667411083
 30
0.0
 41
1.0
 10
37.22743958919586
 20
18.44898872769805
 30
0.0
 41
1.0
 10
36.53563242068282
 20
18.62889296108781
 30
0.0
 41
1.0
 10
36.18558279952837
 20
18.69692366474965
 30
0.0
 41
1.0
 10
35.47719148342361
 20
18.78914224600725
 30
0.0
 41
1.0
 10
35.12178637259341
 20
18.82031262984014
 30
0.0
 41
1.0
 10
34.40855724537736
 20
18.8527755839141
 30
0.0
 41
1.0
 10
34.05180941014256
 20
18.85818809355402
 30
0.0
 41
1.0
 10
33.33804719641937
 20
18.84737517803978
 30
0.0
 41
1.0
 10
32.98147153968732
 20
18.83421973302175
 30
0.0
 41
1.0
 10
32.26893112648229
 20
18.79241086846386
 30
0.0
 41
1.0
 10
31.91310458541021
 20
18.76572565966029
 30
0.0
 41
1.0
 10
31.20233883432696
 20
18.70079368900388
 30
0.0
 41
1.0
 10
30.84735231248289
 20
18.66451356136315
 30
0.0
 41
1.0
 10
30.1381719761899
 20
18.58432502145663
 30
0.0
 41
1.0
 10
29.78385033315862
 20
18.5420051671507
 30
0.0
 41
1.0
 10
29.07574409732652
 20
18.4529142898335
 30
0.0
 41
1.0
 10
28.72192864727647
 20
18.40655279324795
 30
0.0
 41
1.0
 10
28.01477308290835
 20
18.31019768422291
 30
0.0
 41
1.0
 10
27.66144669819262
 20
18.2602544309555
 30
0.0
 41
1.0
 10
26.95529672369785
 20
18.1568365269109
 30
0.0
 41
1.0
 10
26.60293663521528
 20
18.10035510603369
 30
0.0
 41
1.0
 10
25.8996462557798
 20
17.97784732656944
 30
0.0
 41
1.0
 10
25.55038578752665
 20
17.90526348898174
 30
0.0
 41
1.0
 10
24.85663429394956
 20
17.73743591809519
 30
0.0
 41
1.0
 10
24.51059492350646
 20
17.65033903469163
 30
0.0
 41
1.0
 10
24.16539192940883
 20
17.56005905332778
 30
0.0
 41
1.0
 10
24.0253144411904
 20
17.52342497644524
 30
0.0
 41
0.9999953304417449
 10
23.8853750485064
 20
17.48626687275501
 30
0.0
 41
0.9999953304417449
 10
23.74557571172227
 20
17.44858526279288
 30
0.0
 41
1.0
  0
SPLINE
  5
65
330
1F
100
AcDbEntity
  8
Make2D$Visible$Curves
 62
    18
420
        0
370
    -3
100
AcDbSpline
210
0.0
220
0.0
230
1.0
 70
    12
 71
     3
 72
    41
 73
    37
 74
     0
 42
0.0000000001
 43
0.0000000001
 40
-0.0671572777863575
 40
-0.0671572777863575
 40
-0.0671572777863575
 40
-0.0671572777863575
 40
0.0
 40
0.0
 40
0.0
 40
1.000000150794276
 40
2.000000301588552
 40
3.000000452382829
 40
4.000000603177105
 40
5.000000753971381
 40
6.000000904765657
 40
7.000001055559935
 40
8.00000120635421
 40
9.000001357148488
 40
10.00000150794276
 40
11.00000165873704
 40
12.00000180953132
 40
13.0
 40
13.0
 40
13.0
 40
13.99999819046868
 40
14.99999834126296
 40
15.99999849205724
 40
16.99999864285151
 40
17.99999879364579
 40
18.99999894444007
 40
19.99999909523434
 40
20.99999924602862
 40
21.99999939682289
 40
22.99999954761717
 40
23.99999969841145
 40
24.99999984920573
 40
26.0
 40
26.0
 40
26.0
 40
26.06715727778636
 40
26.06715727778636
 40
26.06715727778636
 40
26.06715727778636
 10
-8.268399184316042
 20
18.37896070033134
 30
0.0
 41
1.0
 10
-8.267015765916097
 20
18.3949463484801
 30
0.0
 41
0.9989377936654854
 10
-8.26473251907421
 20
18.41082846348611
 30
0.0
 41
0.9989377936654854
 10
-8.26155671962815
 20
18.42655643509989
 30
0.0
 41
1.0
 10
-8.214292861465765
 20
18.66062808608464
 30
0.0
 41
1.0
 10
-7.769349329698997
 20
18.83564591011589
 30
0.0
 41
1.0
 10
-7.126549028531684
 20
18.82931646061935
 30
0.0
 41
1.0
 10
-6.478783055966176
 20
18.75321420325922
 30
0.0
 41
1.0
 10
-5.836000983495779
 20
18.66258313266271
 30
0.0
 41
1.0
 10
-5.190565860853923
 20
18.58591106127618
 30
0.0
 41
1.0
 10
-4.544173304046225
 20
18.52001264518199
 30
0.0
 41
1.0
 10
-3.896355409080485
 20
18.46905508656851
 30
0.0
 41
1.0
 10
-3.24766207592674
 20
18.43136052541445
 30
0.0
 41
1.0
 10
-2.598397836133557
 20
18.40534178600634
 30
0.0
 41
1.0
 10
-1.948832334287445
 20
18.38882770104835
 30
0.0
 41
1.0
 10
-1.299131272318803
 20
18.37945783976412
 30
0.0
 41
1.0
 10
-0.649381436061347
 20
18.37500698980455
 30
0.0
 41
1.0
 10
-0.2162066514170391
 20
18.37429100176049
 30
0.0
 41
1.0
 10
0.0003803076129998
 20
18.37429907396487
 30
0.0
 41
1.0
 10
0.2169672666430387
 20
18.37429100176049
 30
0.0
 41
1.0
 10
0.6501420512873466
 20
18.37500698980455
 30
0.0
 41
1.0
 10
1.299891887544803
 20
18.37945783976412
 30
0.0
 41
1.0
 10
1.949592949513445
 20
18.38882770104835
 30
0.0
 41
1.0
 10
2.599158451359557
 20
18.40534178600634
 30
0.0
 41
1.0
 10
3.24842269115274
 20
18.43136052541445
 30
0.0
 41
1.0
 10
3.897116024306484
 20
18.46905508656851
 30
0.0
 41
1.0
 10
4.544933919272225
 20
18.52001264518199
 30
0.0
 41
1.0
 10
5.191326476079922
 20
18.58591106127618
 30
0.0
 41
1.0
 10
5.836761598721779
 20
18.66258313266271
 30
0.0
 41
1.0
 10
6.479543671192175
 20
18.75321420325922
 30
0.0
 41
1.0
 10
7.127309643757684
 20
18.82931646061935
 30
0.0
 41
1.0
 10
7.770109944924997
 20
18.83564591011589
 30
0.0
 41
1.0
 10
8.215053476691764
 20
18.66062808608464
 30
0.0
 41
1.0
 10
8.26231733485415
 20
18.42655643509989
 30
0.0
 41
1.0
 10
8.265493134300208
 20
18.41082846348611
 30
0.0
 41
0.9989377936654854
 10
8.267776381142097
 20
18.3949463484801
 30
0.0
 41
0.9989377936654854
 10
8.269159799542042
 20
18.37896070033134
 30
0.0
 41
1.0
  0
SPLINE
  5
66
330
1F
100
AcDbEntity
  8
Make2D$Visible$Curves
 62
    18
420
        0
370
    -3
100
AcDbSpline
210
0.0
220
0.0
230
1.0
 70
     8
 71
     3
 72
    27
 73
    23
 74
     0
 42
0.0000000001
 43
0.0000000001
 40
0.0
 40
0.0
 40
0.0
 40
0.0
 40
1.0
 40
2.0
 40
3.0
 40
4.0
 40
5.0
 40
6.0
 40
7.0
 40
8.0
 40
9.0
 40
9.0
 40
9.0
 40
10.0
 40
11.0
 40
12.0
 40
13.0
 40
14.0
 40
15.0
 40
16.0
 40
17.0
 40
18.0
 40
18.0
 40
18.0
 40
18.0
 10
-8.514400236998199
 20
18.12745822349023
 30
0.0
 10
-8.377438061159651
 20
18.4775742628903
 30
0.0
 10
-7.628724970717357
 20
18.41488397345434
 30
0.0
 10
-6.71464945294106
 20
18.18684457239384
 30
0.0
 10
-5.775709158657136
 20
17.87584788686062
 30
0.0
 10
-4.844121797268599
 20
17.58423578113192
 30
0.0
 10
-3.894668574771728
 20
17.34113474148288
 30
0.0
 10
-2.931973186879119
 20
17.16219377364408
 30
0.0
 10
-1.959178240149981
 20
17.04894154983015
 30
0.0
 10
-0.9818831277324307
 20
16.98982417080287
 30
0.0
 10
-0.3293261762336073
 20
16.97774584710895
 30
0.0
 10
-0.0030543644897563
 20
16.97775569404464
 30
0.0
 10
0.3232154888846139
 20
16.97662520094913
 30
0.0
 10
0.9758100766426168
 20
16.98646211518425
 30
0.0
 10
1.953302474922339
 20
17.04222242870255
 30
0.0
 10
2.926480671080427
 20
17.15213272441248
 30
0.0
 10
3.889784989190161
 20
17.32776606564331
 30
0.0
 10
4.84006759069689
 20
17.56760458311232
 30
0.0
 10
5.772651057500951
 20
17.85601524440989
 30
0.0
 10
6.712653994069925
 20
18.16378511604181
 30
0.0
 10
7.627507367305441
 20
18.38868359561351
 30
0.0
 10
8.376431363804741
 20
18.44880190943473
 30
0.0
 10
8.51219018773989
 20
18.09821751106628
 30
0.0
  0
SPLINE
  5
67
330
1F
100
AcDbEntity
  8
2D DXF
370
    -3
100
AcDbSpline
210
0.0
220
0.0
230
1.0
 70
     8
 71
     2
 72
     7
 73
     4
 74
     0
 42
0.0000000001
 43
0.0000000001
 40
13.40106775401131
 40
13.40106775401131
 40
13.40106775401131
 40
14.40106775401131
 40
15.40106775401131
 40
15.40106775401131
 40
15.40106775401131
 10
26.88566898093555
 20
16.13733728532297
 30
0.0
 10
26.89649489743746
 20
16.04219602377408
 30
0.0
 10
26.83204399607027
 20
15.85079425713602
 30
0.0
 10
26.73250624321076
 20
15.82458849341332
 30
0.0
  0
LINE
  5
68
330
1F
100
AcDbEntity
  8
2D DXF
370
    -3
100
AcDbLine
 10
26.83191278411593
 20
16.64871239179601
 30
0.0
 11
26.88566898093555
 21
16.13733728532297
 31
0.0
  0
SPLINE
  5
69
330
1F
100
AcDbEntity
  8
2D DXF
370
    -3
100
AcDbSpline
210
0.0
220
0.0
230
1.0
 70
     8
 71
     2
 72
     7
 73
     4
 74
     0
 42
0.0000000001
 43
0.0000000001
 40
10.88546531432997
 40
10.88546531432997
 40
10.88546531432997
 40
11.88546531432997
 40
12.88546531432997
 40
12.88546531432997
 40
12.88546531432997
 10
26.90311212108293
 20
16.73663772956921
 30
0.0
 10
26.87027551540245
 20
16.73283020888853
 30
0.0
 10
26.82880944558883
 20
16.6816230157314
 30
0.0
 10
26.83191278411596
 20
16.64871239179601
 30
0.0
  0
LINE
  5
6A
330
1F
100
AcDbEntity
  8
2D DXF
370
    -3
100
AcDbLine
 10
27.18607170176793
 20
16.76637797990821
 30
0.0
 11
26.90311212108293
 21
16.73663772956921
 31
0.0
  0
LINE
  5
6B
330
1F
100
AcDbEntity
  8
2D DXF
370
    -3
100
AcDbLine
 10
27.74906108097684
 20
16.82555054807267
 30
0.0
 11
27.18607170176793
 21
16.76637797990821
 31
0.0
  0
ARC
  5
6C
330
1F
100
AcDbEntity
  8
2D DXF
370
    -3
100
AcDbCircle
 10
27.75765122954527
 20
16.75035043459154
 30
0.0
 40
0.0756891519307933
100
AcDbArc
 50
77.5019814014356
 51
96.51668048199421
  0
SPLINE
  5
6D
330
1F
100
AcDbEntity
  8
2D DXF
370
    -3
100
AcDbSpline
210
0.0
220
0.0
230
1.0
 70
     8
 71
     2
 72
     7
 73
     4
 74
     0
 42
0.0000000001
 43
0.0000000001
 40
7.657492393997497
 40
7.657492393997497
 40
7.657492393997497
 40
8.657492393997497
 40
9.657492393997497
 40
9.657492393997497
 40
9.657492393997497
 10
27.83681229603141
 20
16.73611982870035
 30
0.0
 10
27.84036956580616
 20
16.76700842546403
 30
0.0
 10
27.80438677285662
 20
16.8175173631715
 30
0.0
 10
27.77403080492277
 20
16.82424601788618
 30
0.0
  0
SPLINE
  5
6E
330
1F
100
AcDbEntity
  8
2D DXF
370
    -3
100
AcDbSpline
210
0.0
220
0.0
230
1.0
 70
    28
 71
     2
 72
     6
 73
     3
 74
     0
 42
0.0000000001
 43
0.0000000001
 40
6.50481871282868
 40
6.50481871282868
 40
6.50481871282868
 40
7.657492393997497
 40
7.657492393997497
 40
7.657492393997497
 10
27.6962806937338
 20
15.60564201113893
 30
0.0
 41
0.856073142531669
 10
27.76654649488258
 20
16.17088091991964
 30
0.0
 41
0.8560731425316691
 10
27.83681229603138
 20
16.73611982870036
 30
0.0
 41
0.8560731425316692
  0
SPLINE
  5
6F
330
1F
100
AcDbEntity
  8
2D DXF
370
    -3
100
AcDbSpline
210
0.0
220
0.0
230
1.0
 70
     8
 71
     2
 72
     7
 73
     4
 74
     0
 42
0.0000000001
 43
0.0000000001
 40
4.50481871282868
 40
4.50481871282868
 40
4.50481871282868
 40
5.504850921676796
 40
6.50481871282868
 40
6.50481871282868
 40
6.50481871282868
 10
27.48860314357205
 20
15.35927550101727
 30
0.0
 10
27.58000161726039
 20
15.37357715765233
 30
0.0
 10
27.68685341474435
 20
15.51803015921179
 30
0.0
 10
27.6962806937338
 20
15.60564201113893
 30
0.0
  0
LINE
  5
70
330
1F
100
AcDbEntity
  8
2D DXF
370
    -3
100
AcDbLine
 10
27.01968870315056
 20
15.31000807402192
 30
0.0
 11
27.48860314357205
 21
15.35927550101727
 31
0.0
  0
LINE
  5
71
330
1F
100
AcDbEntity
  8
2D DXF
370
    -3
100
AcDbLine
 10
26.5883018858101
 20
15.26466640827331
 30
0.0
 11
27.01968870315056
 21
15.31000807402192
 31
0.0
  0
SPLINE
  5
72
330
1F
100
AcDbEntity
  8
2D DXF
370
    -3
100
AcDbSpline
210
0.0
220
0.0
230
1.0
 70
     8
 71
     2
 72
     7
 73
     4
 74
     0
 42
0.0000000001
 43
0.0000000001
 40
1.232673681168816
 40
1.232673681168816
 40
1.232673681168816
 40
2.232666359644853
 40
3.232673681168816
 40
3.232673681168816
 40
3.232673681168816
 10
26.33281793688053
 20
15.46232771244232
 30
0.0
 10
26.36064747862679
 20
15.37804095367839
 30
0.0
 10
26.49635610368802
 20
15.25894236620054
 30
0.0
 10
26.5883018858101
 20
15.26466640827331
 30
0.0
  0
LINE
  5
73
330
1F
100
AcDbEntity
  8
2D DXF
370
    -3
100
AcDbLine
 10
26.18004274617468
 20
15.9038605581962
 30
0.0
 11
26.3328179368805
 21
15.46232771244233
 31
0.0
  0
LINE
  5
74
330
1F
100
AcDbEntity
  8
2D DXF
370
    -3
100
AcDbLine
 10
34.3426029393934
 20
16.30441117829743
 30
0.0
 11
34.3809956960275
 21
16.61325403508022
 31
0.0
  0
SPLINE
  5
75
330
1F
100
AcDbEntity
  8
2D DXF
370
    -3
100
AcDbSpline
210
0.0
220
0.0
230
1.0
 70
     8
 71
     2
 72
     7
 73
     4
 74
     0
 42
0.0000000001
 43
0.0000000001
 40
7.306249570421159
 40
7.306249570421159
 40
7.306249570421159
 40
8.306256891946019
 40
9.306249570421159
 40
9.306249570421159
 40
9.306249570421159
 10
34.13379802822436
 20
16.05795114747583
 30
0.0
 10
34.22492467037043
 20
16.07146879497149
 30
0.0
 10
34.33290574313037
 20
16.21618020033465
 30
0.0
 10
34.34260293939343
 20
16.30441117829743
 30
0.0
  0
LINE
  5
76
330
1F
100
AcDbEntity
  8
2D DXF
370
    -3
100
AcDbLine
 10
33.70126209150396
 20
16.01249087275208
 30
0.0
 11
34.13379802822436
 21
16.05795114747583
 31
0.0
  0
LINE
  5
77
330
1F
100
AcDbEntity
  8
2D DXF
370
    -3
100
AcDbLine
 10
33.23350017767302
 20
15.9633096363623
 30
0.0
 11
33.70126209150396
 21
16.01249087275208
 31
0.0
  0
SPLINE
  5
78
330
1F
100
AcDbEntity
  8
2D DXF
370
    -3
100
AcDbSpline
210
0.0
220
0.0
230
1.0
 70
     8
 71
     2
 72
     7
 73
     4
 74
     0
 42
0.0000000001
 43
0.0000000001
 40
4.037371271146342
 40
4.037371271146342
 40
4.037371271146342
 40
5.037339062304119
 40
6.037371271146342
 40
6.037371271146342
 40
6.037371271146342
 10
32.97913839835121
 20
16.16111385502494
 30
0.0
 10
33.00657519890248
 20
16.07737657211432
 30
0.0
 10
33.14112549885868
 20
15.95829595449105
 30
0.0
 10
33.23350017767302
 20
15.9633096363623
 30
0.0
  0
SPLINE
  5
79
330
1F
100
AcDbEntity
  8
2D DXF
370
    -3
100
AcDbSpline
210
0.0
220
0.0
230
1.0
 70
    28
 71
     2
 72
     6
 73
     3
 74
     0
 42
0.0000000001
 43
0.0000000001
 40
2.884697589977524
 40
2.884697589977524
 40
2.884697589977524
 40
4.037371271146342
 40
4.037371271146342
 40
4.037371271146342
 10
32.60631593542374
 20
17.23864120877612
 30
0.0
 41
0.8560731425110866
 10
32.79272716688749
 20
16.69987753190053
 30
0.0
 41
0.8560731425110863
 10
32.97913839835122
 20
16.16111385502493
 30
0.0
 41
0.8560731425110862
  0
SPLINE
  5
7A
330
1F
100
AcDbEntity
  8
2D DXF
370
    -3
100
AcDbSpline
210
0.0
220
0.0
230
1.0
 70
     8
 71
     2
 72
     7
 73
     4
 74
     0
 42
0.0000000001
 43
0.0000000001
 40
0.8846975899775236
 40
0.8846975899775236
 40
0.8846975899775236
 40
1.884697589977524
 40
2.884697589977524
 40
2.884697589977524
 40
2.884697589977524
 10
32.67387812755044
 20
17.34339080318485
 30
0.0
 10
32.6363137086845
 20
17.33884883274713
 30
0.0
 10
32.59510410957174
 20
17.27584973498226
 30
0.0
 10
32.60631593542377
 20
17.23864120877613
 30
0.0
  0
SPLINE
  5
7B
330
1F
100
AcDbEntity
  8
2D DXF
370
    -3
100
AcDbSpline
210
0.0
220
0.0
230
1.0
 70
    24
 71
     2
 72
     6
 73
     3
 74
     0
 42
0.0000000001
 43
0.0000000001
 40
0.0843024100224767
 40
0.0843024100224767
 40
0.0843024100224767
 40
0.8846975899775236
 40
0.8846975899775236
 40
0.8846975899775236
 10
33.23686750579384
 20
17.40256338424031
 30
0.0
 10
32.95537281667214
 20
17.37297709371258
 30
0.0
 10
32.67387812755044
 20
17.34339080318485
 30
0.0
  0
SPLINE
  5
7C
330
1F
100
AcDbEntity
  8
2D DXF
370
    -3
100
AcDbSpline
210
0.0
220
0.0
230
1.0
 70
    28
 71
     2
 72
     6
 73
     3
 74
     0
 42
0.0000000001
 43
0.0000000001
 40
5.58027268840272
 40
5.58027268840272
 40
5.58027268840272
 40
5.764182542701008
 40
5.764182542701008
 40
5.764182542701008
 10
34.06418028944256
 20
17.41328673836961
 30
0.0
 41
1.0
 10
34.06700647005356
 20
17.3213752520755
 30
0.0
 41
1.0
 10
34.06983265066455
 20
17.22946376578139
 30
0.0
 41
1.0
  0
SPLINE
  5
7D
330
1F
100
AcDbEntity
  8
2D DXF
370
    -3
100
AcDbSpline
210
0.0
220
0.0
230
1.0
 70
     8
 71
     2
 72
     7
 73
     4
 74
     0
 42
0.0000000001
 43
0.0000000001
 40
3.58027268840272
 40
3.58027268840272
 40
3.58027268840272
 40
4.58027268840272
 40
5.58027268840272
 40
5.58027268840272
 40
5.58027268840272
 10
34.11242474604916
 20
17.49458815841574
 30
0.0
 10
34.08503710243335
 20
17.48911519076277
 30
0.0
 10
34.06207298188536
 20
17.43951304869319
 30
0.0
 10
34.06418028944256
 20
17.41328673836961
 30
0.0
  0
SPLINE
  5
7E
330
1F
100
AcDbEntity
  8
2D DXF
370
    -3
100
AcDbSpline
210
0.0
220
0.0
230
1.0
 70
    24
 71
     2
 72
     6
 73
     3
 74
     0
 42
0.0000000001
 43
0.0000000001
 40
3.177813839152324
 40
3.177813839152324
 40
3.177813839152324
 40
3.58027268840272
 40
3.58027268840272
 40
3.58027268840272
 10
34.39538432673362
 20
17.52432840875693
 30
0.0
 10
34.25390453639139
 20
17.50945828358633
 30
0.0
 10
34.11242474604916
 20
17.49458815841574
 30
0.0
  0
ARC
  5
7F
330
1F
100
AcDbEntity
  8
2D DXF
370
    -3
100
AcDbCircle
 10
34.40398151498698
 20
17.44925095332475
 30
0.0
 40
0.0755680882385853
100
AcDbArc
 50
77.47125213979278
 51
96.53253822394014
  0
SPLINE
  5
80
330
1F
100
AcDbEntity
  8
2D DXF
370
    -3
100
AcDbSpline
210
0.0
220
0.0
230
1.0
 70
     8
 71
     2
 72
     7
 73
     4
 74
     0
 42
0.0000000001
 43
0.0000000001
 40
1.152673681168807
 40
1.152673681168807
 40
1.152673681168807
 40
2.152673681168807
 40
3.152673681168807
 40
3.152673681168807
 40
3.152673681168807
 10
34.48313554837642
 20
17.43489768973389
 30
0.0
 10
34.4866941095836
 20
17.46577999191931
 30
0.0
 10
34.45071612686371
 20
17.51627700050742
 30
0.0
 10
34.42037445790925
 20
17.52301956034957
 30
0.0
  0
LINE
  5
81
330
1F
100
AcDbEntity
  8
2D DXF
370
    -3
100
AcDbLine
 10
34.45872451362953
 20
17.23852803595862
 30
0.0
 11
34.48313554837642
 21
17.43489768973389
 31
0.0
  0
SPLINE
  5
82
330
1F
100
AcDbEntity
  8
2D DXF
370
    -3
100
AcDbSpline
210
0.0
220
0.0
230
1.0
 70
     8
 71
     2
 72
     7
 73
     4
 74
     0
 42
0.0000000001
 43
0.0000000001
 40
-77.0
 40
-77.0
 40
-77.0
 40
-76.0
 40
-75.91881111300634
 40
-75.91881111300634
 40
-75.91881111300634
 10
26.32019604860514
 20
16.69989063809561
 30
0.0
 10
26.10403018629589
 20
16.68003106561412
 30
0.0
 10
25.87001353051485
 20
16.66211623941712
 30
0.0
 10
25.8524389241104
 20
16.66079699556069
 30
0.0
  0
LINE
  5
83
330
1F
100
AcDbEntity
  8
2D DXF
370
    -3
100
AcDbLine
 10
26.3402314921891
 20
16.66654606041905
 30
0.0
 11
26.32019604860517
 21
16.6998906380956
 31
0.0
  0
LINE
  5
84
330
1F
100
AcDbEntity
  8
2D DXF
370
    -3
100
AcDbLine
 10
26.43534371556049
 20
16.50825273854132
 30
0.0
 11
26.37357203294795
 21
16.61105808250366
 31
0.0
  0
ARC
  5
85
330
1F
100
AcDbEntity
  8
2D DXF
370
    -3
100
AcDbCircle
 10
-26.526933313368
 20
16.56328532097649
 30
0.0
 40
0.1068514836397989
210
0.0
220
0.0
230
-1.0
100
AcDbArc
 50
294.6443848349465
 51
328.9999999999692
  0
SPLINE
  5
86
330
1F
100
AcDbEntity
  8
2D DXF
370
    -3
100
AcDbSpline
210
0.0
220
0.0
230
1.0
 70
     8
 71
     2
 72
     6
 73
     3
 74
     0
 42
0.0000000001
 43
0.0000000001
 40
2.32223942419359
 40
2.32223942419359
 40
2.32223942419359
 40
2.883370325416598
 40
2.883370325416598
 40
2.883370325416598
 10
26.02755488082795
 20
16.64461295540089
 30
0.0
 10
26.00668004965948
 20
16.64209771959864
 30
0.0
 10
25.99101784941533
 20
16.63121995308342
 30
0.0
  0
SPLINE
  5
87
330
1F
100
AcDbEntity
  8
2D DXF
370
    -3
100
AcDbSpline
210
0.0
220
0.0
230
1.0
 70
    24
 71
     2
 72
     6
 73
     3
 74
     0
 42
0.0000000001
 43
0.0000000001
 40
1.919780574943195
 40
1.919780574943195
 40
1.919780574943195
 40
2.32223942419359
 40
2.32223942419359
 40
2.32223942419359
 10
26.3105144615125
 20
16.67435320573983
 30
0.0
 10
26.16903467117022
 20
16.65948308057036
 30
0.0
 10
26.02755488082795
 20
16.64461295540089
 30
0.0
  0
SPLINE
  5
88
330
1F
100
AcDbEntity
  8
2D DXF
370
    -3
100
AcDbSpline
210
0.0
220
0.0
230
1.0
 70
     8
 71
     2
 72
     7
 73
     4
 74
     0
 42
0.0000000001
 43
0.0000000001
 40
-0.0802194250568052
 40
-0.0802194250568052
 40
-0.0802194250568052
 40
0.9197805749431949
 40
1.919780574943195
 40
1.919780574943195
 40
1.919780574943195
 10
26.37450205758819
 20
16.6055701873162
 30
0.0
 10
26.37073375676906
 20
16.63196690706933
 30
0.0
 10
26.33802935482649
 20
16.67475923266615
 30
0.0
 10
26.3105144615125
 20
16.67435320573983
 30
0.0
  0
SPLINE
  5
89
330
1F
100
AcDbEntity
  8
2D DXF
370
    -3
100
AcDbSpline
210
0.0
220
0.0
230
1.0
 70
    28
 71
     2
 72
     6
 73
     3
 74
     0
 42
0.0000000001
 43
0.0000000001
 40
-0.1905776913670985
 40
-0.1905776913670985
 40
-0.1905776913670985
 40
-0.0802194250568052
 40
-0.0802194250568052
 40
-0.0802194250568052
 10
26.39418207127679
 20
16.49654204515068
 30
0.0
 41
1.0
 10
26.38434206443249
 20
16.55105611623344
 30
0.0
 41
1.0
 10
26.37450205758819
 20
16.6055701873162
 30
0.0
 41
1.0
  0
SPLINE
  5
8A
330
1F
100
AcDbEntity
  8
2D DXF
370
    -3
100
AcDbSpline
210
0.0
220
0.0
230
1.0
 70
     8
 71
     2
 72
    53
 73
    50
 74
     0
 42
0.0000000001
 43
0.0000000001
 40
-48.0
 40
-48.0
 40
-48.0
 40
-47.0
 40
-46.0
 40
-45.0
 40
-44.0
 40
-43.0
 40
-42.0
 40
-41.0
 40
-40.0
 40
-39.0
 40
-38.0
 40
-37.0
 40
-36.0
 40
-35.0
 40
-34.0
 40
-33.0
 40
-32.0
 40
-31.0
 40
-30.0
 40
-29.0
 40
-28.0
 40
-27.0
 40
-26.0
 40
-25.0
 40
-24.0
 40
-23.0
 40
-22.0
 40
-21.0
 40
-20.0
 40
-19.0
 40
-18.0
 40
-17.0
 40
-16.0
 40
-15.0
 40
-14.0
 40
-13.0
 40
-12.0
 40
-11.0
 40
-10.0
 40
-9.0
 40
-8.0
 40
-7.0
 40
-6.0
 40
-5.0
 40
-4.0
 40
-3.0
 40
-2.0
 40
-1.0
 40
0.0
 40
0.0
 40
0.0
 10
20.76468727569207
 20
24.67770589163337
 30
0.0
 10
21.01283769026318
 20
24.59647430121865
 30
0.0
 10
21.4025268718058
 20
24.2626670129343
 30
0.0
 10
21.59632780953237
 20
23.77847190372951
 30
0.0
 10
21.72243280606958
 20
23.28223590111183
 30
0.0
 10
21.79845689238172
 20
22.77445048524535
 30
0.0
 10
21.866493791154
 20
22.26614257432213
 30
0.0
 10
21.91867272460186
 20
21.75583755630292
 30
0.0
 10
21.9585108250802
 20
21.24446095445768
 30
0.0
 10
21.98933457212453
 20
20.73246877219063
 30
0.0
 10
22.01682492858905
 20
20.22029494017974
 30
0.0
 10
22.04893590341092
 20
19.70837254340759
 30
0.0
 10
22.1010582947408
 20
19.19792063747758
 30
0.0
 10
22.197165464184
 20
18.69374859569432
 30
0.0
 10
22.3595499278143
 20
18.20460198248236
 30
0.0
 10
22.6655181913836
 20
17.78651028693243
 30
0.0
 10
23.10870650369199
 20
17.51603959673987
 30
0.0
 10
23.61506657106057
 20
17.41471900832516
 30
0.0
 10
24.12869857695702
 20
17.41307599257468
 30
0.0
 10
24.64006201259056
 20
17.45444306302102
 30
0.0
 10
25.14980387790055
 20
17.51149096802473
 30
0.0
 10
25.6586178154557
 20
17.57624101322558
 30
0.0
 10
26.16696744095307
 20
17.64450044887738
 30
0.0
 10
26.67512550374207
 20
17.71416569019034
 30
0.0
 10
27.1832731836308
 20
17.78391111160961
 30
0.0
 10
27.6915359185106
 20
17.85281146640371
 30
0.0
 10
28.20001321367292
 20
17.92011335328701
 30
0.0
 10
28.7087764342584
 20
17.98522146888665
 30
0.0
 10
29.21787483303004
 20
18.04765747416171
 30
0.0
 10
29.72732897774088
 20
18.10712283651056
 30
0.0
 10
30.23712574543933
 20
18.16357245128926
 30
0.0
 10
30.7472331405493
 20
18.21714767380992
 30
0.0
 10
31.25771444370227
 20
18.26704731818401
 30
0.0
 10
31.76864993385809
 20
18.31208460136141
 30
0.0
 10
32.28011595334314
 20
18.35067443885031
 30
0.0
 10
32.79211524910451
 20
18.38144255961853
 30
0.0
 10
33.30457970136044
 20
18.40320374775354
 30
0.0
 10
33.81738050390507
 20
18.41476559747078
 30
0.0
 10
34.33031932325767
 20
18.41437656865736
 30
0.0
 10
34.84306211292622
 20
18.39978239297979
 30
0.0
 10
35.3550639313041
 20
18.36833096644202
 30
0.0
 10
35.8654560018575
 20
18.31675729516125
 30
0.0
 10
36.37284891347619
 20
18.24089611002998
 30
0.0
 10
36.87492371396601
 20
18.13510879278074
 30
0.0
 10
37.36764320340589
 20
17.99131475281708
 30
0.0
 10
37.84393077132759
 20
17.80025789966626
 30
0.0
 10
38.30819971412126
 20
17.58191042682525
 30
0.0
 10
38.75937389616789
 20
17.33782071238042
 30
0.0
 10
39.20437998136876
 20
17.08260821649408
 30
0.0
 10
39.43346615490506
 20
16.96720969994209
 30
0.0
  0
SPLINE
  5
8B
330
1F
100
AcDbEntity
  8
2D DXF
370
    -3
100
AcDbSpline
210
0.0
220
0.0
230
1.0
 70
     8
 71
     3
 72
     8
 73
     4
 74
     0
 42
0.0000000001
 43
0.0000000001
 40
-49.0
 40
-49.0
 40
-49.0
 40
-49.0
 40
-48.0
 40
-48.0
 40
-48.0
 40
-48.0
 10
20.57908540685881
 20
24.61256164312408
 30
0.0
 10
20.55838309308822
 20
24.69960532573749
 30
0.0
 10
20.6824994029632
 20
24.7046099434606
 30
0.0
 10
20.76468727569207
 20
24.67770589163337
 30
0.0
  0
SPLINE
  5
8C
330
1F
100
AcDbEntity
  8
2D DXF
370
    -3
100
AcDbSpline
210
0.0
220
0.0
230
1.0
 70
     8
 71
     2
 72
    32
 73
    29
 74
     0
 42
0.0000000001
 43
0.0000000001
 40
-75.27948194726402
 40
-75.27948194726402
 40
-75.27948194726402
 40
-75.0
 40
-74.0
 40
-73.0
 40
-72.0
 40
-71.0
 40
-70.0
 40
-69.0
 40
-68.0
 40
-67.0
 40
-66.0
 40
-65.0
 40
-64.0
 40
-63.0
 40
-62.0
 40
-61.0
 40
-60.0
 40
-59.0
 40
-58.0
 40
-57.0
 40
-56.0
 40
-55.0
 40
-54.0
 40
-53.0
 40
-52.0
 40
-51.0
 40
-50.0
 40
-49.0
 40
-49.0
 40
-49.0
 10
25.57554333481528
 20
16.64163349285943
 30
0.0
 10
25.51499701891041
 20
16.63779751310672
 30
0.0
 10
25.23771683734938
 20
16.62164780348068
 30
0.0
 10
24.80380755500542
 20
16.60659399937647
 30
0.0
 10
24.36962979629075
 20
16.60447640535328
 30
0.0
 10
23.93564452344205
 20
16.61903622866792
 30
0.0
 10
23.50308946888535
 20
16.65790669564797
 30
0.0
 10
23.07465156724012
 20
16.72973630092406
 30
0.0
 10
22.65513973830062
 20
16.84333683027974
 30
0.0
 10
22.25390211600424
 20
17.01127748647708
 30
0.0
 10
21.88772326072288
 20
17.24756161202545
 30
0.0
 10
21.58801789922066
 20
17.56500776297212
 30
0.0
 10
21.38394450875617
 20
17.95057200057747
 30
0.0
 10
21.25957470067388
 20
18.3674762534587
 30
0.0
 10
21.18710360630521
 20
18.79585058547484
 30
0.0
 10
21.14474548882495
 20
19.22802715031769
 30
0.0
 10
21.11786858053412
 20
19.66136527084149
 30
0.0
 10
21.10252548008046
 20
20.09525464480274
 30
0.0
 10
21.09209708800736
 20
20.52927412229469
 30
0.0
 10
21.08022953002168
 20
20.96325999847447
 30
0.0
 10
21.0617972938808
 20
21.39702663740206
 30
0.0
 10
21.03351169911505
 20
21.83027129661744
 30
0.0
 10
20.9937594510603
 20
22.26261888042183
 30
0.0
 10
20.94217355551385
 20
22.69371463903384
 30
0.0
 10
20.87911272127641
 20
23.12327934350152
 30
0.0
 10
20.80535024751052
 20
23.55113293415651
 30
0.0
 10
20.72176667378213
 20
23.97717330283579
 30
0.0
 10
20.62931390832367
 20
24.40137395714369
 30
0.0
 10
20.57908540685881
 20
24.61256164312408
 30
0.0
  0
SPLINE
  5
8D
330
1F
100
AcDbEntity
  8
2D DXF
370
    -3
100
AcDbSpline
210
0.0
220
0.0
230
1.0
 70
    12
 71
     3
 72
     8
 73
     4
 74
     0
 42
0.0000000001
 43
0.0000000001
 40
55.02666686578567
 40
55.02666686578567
 40
55.02666686578567
 40
55.02666686578567
 40
55.84219450825106
 40
55.84219450825106
 40
55.84219450825106
 40
55.84219450825106
 10
34.19911764099331
 20
17.24305214956122
 30
0.0
 41
0.8537101292836784
 10
34.00792323654758
 20
17.22295682415691
 30
0.0
 41
0.8537101292836784
 10
33.81672883379236
 20
17.20286148266817
 30
0.0
 41
0.8537101292836784
 10
33.62553443103714
 20
17.18276614117943
 30
0.0
 41
0.8537101292836784
  0
SPLINE
  5
8E
330
1F
100
AcDbEntity
  8
2D DXF
370
    -3
100
AcDbSpline
210
0.0
220
0.0
230
1.0
 70
     8
 71
     2
 72
    11
 73
     8
 74
     0
 42
0.0000000001
 43
0.0000000001
 40
49.02666686578567
 40
49.02666686578567
 40
49.02666686578567
 40
50.02668929264278
 40
51.02671171949989
 40
52.02673414635699
 40
53.02675657321409
 40
54.0267790000712
 40
55.02666686578567
 40
55.02666686578567
 40
55.02666686578567
 10
35.67980232615943
 20
15.8529445651547
 30
0.0
 10
35.64359691251491
 20
16.0353808254867
 30
0.0
 10
35.51325807264257
 20
16.38390408398207
 30
0.0
 10
35.32195216204926
 20
16.7034132967833
 30
0.0
 10
35.06674354668135
 20
16.97532551158056
 30
0.0
 10
34.74924112852523
 20
17.17262230359954
 30
0.0
 10
34.38559280946509
 20
17.26236886731434
 30
0.0
 10
34.19911764099331
 20
17.24305214956122
 30
0.0
  0
LINE
  5
8F
330
1F
100
AcDbEntity
  8
2D DXF
370
    -3
100
AcDbLine
 10
38.75076804286923
 20
0.4562940350316751
 30
0.0
 11
35.67980232615943
 21
15.8529445651547
 31
0.0
  0
LINE
  5
90
330
1F
100
AcDbEntity
  8
2D DXF
370
    -3
100
AcDbLine
 10
38.1318238308163
 20
0.3386484100728211
 30
0.0
 11
38.75076804286923
 21
0.4562940350316751
 31
0.0
  0
LINE
  5
91
330
1F
100
AcDbEntity
  8
2D DXF
370
    -3
100
AcDbLine
 10
35.06139677799487
 20
15.73257766383783
 30
0.0
 11
38.1318238308163
 21
0.3386484100728211
 31
0.0
  0
SPLINE
  5
92
330
1F
100
AcDbEntity
  8
2D DXF
370
    -3
100
AcDbSpline
210
0.0
220
0.0
230
1.0
 70
     8
 71
     2
 72
    11
 73
     8
 74
     0
 42
0.0000000001
 43
0.0000000001
 40
10.67814378418416
 40
10.67814378418416
 40
10.67814378418416
 40
11.67814378418416
 40
12.67814378418416
 40
13.67814378418416
 40
14.67814378418416
 40
15.67814378418416
 40
16.67814378418416
 40
16.67814378418416
 40
16.67814378418416
 10
34.26512111573228
 20
16.61651922695981
 30
0.0
 10
34.37417186870593
 20
16.62699767501272
 30
0.0
 10
34.57731220882712
 20
16.54824396138311
 30
0.0
 10
34.74277157966452
 20
16.40893570512119
 30
0.0
 10
34.87229954134074
 20
16.23655311864188
 30
0.0
 10
34.97023986707552
 20
16.04474055891045
 30
0.0
 10
35.03947981954116
 20
15.84091245193338
 30
0.0
 10
35.06139677799487
 20
15.73257766383783
 30
0.0
  0
SPLINE
  5
93
330
1F
100
AcDbEntity
  8
2D DXF
370
    -3
100
AcDbSpline
210
0.0
220
0.0
230
1.0
 70
    12
 71
     3
 72
     8
 73
     4
 74
     0
 42
0.0000000001
 43
0.0000000001
 40
10.15069138359446
 40
10.15069138359446
 40
10.15069138359446
 40
10.15069138359446
 40
10.67814378418416
 40
10.67814378418416
 40
10.67814378418416
 40
10.67814378418416
 10
33.87760571180888
 20
16.57578968425243
 30
0.0
 41
0.8537101292836782
 10
34.00677751311602
 20
16.58936619848853
 30
0.0
 41
0.8537101292836782
 10
34.11118274494878
 20
16.60033959259295
 30
0.0
 41
0.8537101292836782
 10
34.26512111573231
 20
16.61651922695981
 30
0.0
 41
0.8537101292836783
  0
SPLINE
  5
94
330
1F
100
AcDbEntity
  8
2D DXF
370
    -3
100
AcDbSpline
210
0.0
220
0.0
230
1.0
 70
     8
 71
     2
 72
    11
 73
     8
 74
     0
 42
0.0000000001
 43
0.0000000001
 40
44.92596112850195
 40
44.92596112850195
 40
44.92596112850195
 40
45.9252792909757
 40
46.92541565848096
 40
47.92555202598621
 40
48.92568839349146
 40
49.9258247609967
 40
50.92596112850195
 40
50.92596112850195
 40
50.92596112850195
 10
26.29470237891414
 20
15.86550721896263
 30
0.0
 10
26.32971312246309
 20
15.85380092234216
 30
0.0
 10
26.4015248715136
 20
15.83653542166637
 30
0.0
 10
26.47450689709152
 20
15.82504509784624
 30
0.0
 10
26.54812736134608
 20
15.81891377168471
 30
0.0
 10
26.62198838528596
 20
15.81772709204256
 30
0.0
 10
26.69577878855154
 20
15.82107386228549
 30
0.0
 10
26.73252044534971
 20
15.82481938182076
 30
0.0
  0
SPLINE
  5
95
330
1F
100
AcDbEntity
  8
2D DXF
370
    -3
100
AcDbSpline
210
0.0
220
0.0
230
1.0
 70
    12
 71
     3
 72
     8
 73
     4
 74
     0
 42
0.0000000001
 43
0.0000000001
 40
43.99312017529963
 40
43.99312017529963
 40
43.99312017529963
 40
43.99312017529963
 40
44.92596112850195
 40
44.92596112850195
 40
44.92596112850195
 40
44.92596112850195
 10
25.80612152098029
 20
16.02893628592945
 30
0.0
 41
0.8740614809312288
 10
25.96905333287292
 20
15.97443595805723
 30
0.0
 41
0.8740614809312284
 10
26.13187785954034
 20
15.91997157848651
 30
0.0
 41
0.8740614809312286
 10
26.29470237891417
 20
15.86550721896264
 30
0.0
 41
0.8740614809312288
  0
SPLINE
  5
96
330
1F
100
AcDbEntity
  8
2D DXF
370
    -3
100
AcDbSpline
210
0.0
220
0.0
230
1.0
 70
     8
 71
     2
 72
    11
 73
     8
 74
     0
 42
0.0000000001
 43
0.0000000001
 40
37.99312017529963
 40
37.99312017529963
 40
37.99312017529963
 40
38.99312017529963
 40
39.99312017529963
 40
40.99312017529963
 40
41.99312017529963
 40
42.99312017529963
 40
43.99312017529963
 40
43.99312017529963
 40
43.99312017529963
 10
25.18992515831485
 20
15.10942879572853
 30
0.0
 10
25.208172599579
 20
15.20674795337072
 30
0.0
 10
25.26131800568311
 20
15.39752786396046
 30
0.0
 10
25.33242450335598
 20
15.58240108500121
 30
0.0
 10
25.4251228802091
 20
15.75770939024645
 30
0.0
 10
25.54324007821529
 20
15.91637550885586
 30
0.0
 10
25.70362539402126
 20
16.04322917150228
 30
0.0
 10
25.80612152098027
 20
16.02893628592946
 30
0.0
  0
LINE
  5
97
330
1F
100
AcDbEntity
  8
2D DXF
370
    -3
100
AcDbLine
 10
22.40411211221848
 20
0.287958244188701
 30
0.0
 11
25.18992515831482
 21
15.10942879572855
 31
0.0
  0
LINE
  5
98
330
1F
100
AcDbEntity
  8
2D DXF
370
    -3
100
AcDbLine
 10
21.78505958902133
 20
0.4048954065115424
 30
0.0
 11
22.40411211221848
 21
0.287958244188701
 31
0.0
  0
SPLINE
  5
99
330
1F
100
AcDbEntity
  8
2D DXF
370
    -3
100
AcDbSpline
210
0.0
220
0.0
230
1.0
 70
    12
 71
     3
 72
     8
 73
     4
 74
     0
 42
0.0000000001
 43
0.0000000001
 40
6.948012384623016
 40
6.948012384623016
 40
6.948012384623016
 40
6.948012384623016
 40
22.15430112710326
 40
22.15430112710326
 40
22.15430112710326
 40
22.15430112710326
 10
24.57087164344832
 20
15.22635999447271
 30
0.0
 41
0.9677243016978201
 10
23.64206473455863
 20
10.28479280877153
 30
0.0
 41
0.9677243016978205
 10
22.71361493004043
 20
5.345124852636841
 30
0.0
 41
0.96772430169782
 10
21.78505958902132
 20
0.4048954065115308
 30
0.0
 41
0.9677243016978201
  0
SPLINE
  5
9A
330
1F
100
AcDbEntity
  8
2D DXF
370
    -3
100
AcDbSpline
210
0.0
220
0.0
230
1.0
 70
     8
 71
     2
 72
    11
 73
     8
 74
     0
 42
0.0000000001
 43
0.0000000001
 40
0.9480123846230162
 40
0.9480123846230162
 40
0.9480123846230162
 40
1.948012384623016
 40
2.948012384623016
 40
3.948012384623016
 40
4.948012384623016
 40
5.948012384623016
 40
6.948012384623016
 40
6.948012384623016
 40
6.948012384623016
 10
26.00629276813751
 20
16.6262899215175
 30
0.0
 10
25.82370744501554
 20
16.68723118099487
 30
0.0
 10
25.44558387343145
 20
16.6208253978395
 30
0.0
 10
25.131414314165
 20
16.40506428506579
 30
0.0
 10
24.89499667558138
 20
16.10919298593549
 30
0.0
 10
24.72355267295873
 20
15.77247465752332
 30
0.0
 10
24.60602647725008
 20
15.41372767322082
 30
0.0
 10
24.57087164344833
 20
15.22635999447272
 30
0.0
  0
LINE
  5
9B
330
1F
100
AcDbEntity
  8
2D DXF
370
    -3
100
AcDbLine
 10
26.49466634161016
 20
16.46293034052643
 30
0.0
 11
26.00629276813751
 21
16.6262899215175
 31
0.0
  0
SPLINE
  5
9C
330
1F
100
AcDbEntity
  8
2D DXF
370
    -3
100
AcDbSpline
210
0.0
220
0.0
230
1.0
 70
     8
 71
     3
 72
    11
 73
     7
 74
     0
 42
0.0000000001
 43
0.0000000001
 40
0.0
 40
0.0
 40
0.0
 40
0.0
 40
0.0484024614707266
 40
0.0484024614707266
 40
0.0484024614707266
 40
0.4331018655948884
 40
0.4331018655948884
 40
0.4331018655948884
 40
0.4331018655948884
 10
26.67181272217027
 20
16.4519005297546
 30
0.0
 10
26.66256990557446
 20
16.45092592600155
 30
0.0
 10
26.65357590936179
 20
16.45015154579588
 30
0.0
 10
26.64484413954568
 20
16.44956660524574
 30
0.0
 10
26.57470135226004
 20
16.44486774562768
 30
0.0
 10
26.52447142229744
 20
16.45294233264693
 30
0.0
 10
26.49466634161016
 20
16.46293034052643
 30
0.0
  0
LINE
  5
9D
330
1F
100
AcDbEntity
  8
2D DXF
370
    -3
100
AcDbLine
 10
26.8506232453249
 20
16.47069427638863
 30
0.0
 11
26.67181272217027
 21
16.4519005297546
 31
0.0
  0
SPLINE
  5
9E
330
1F
100
AcDbEntity
  8
2D DXF
370
    -3
100
AcDbSpline
210
0.0
220
0.0
230
1.0
 70
     8
 71
     3
 72
     8
 73
     4
 74
     0
 42
0.0000000001
 43
0.0000000001
 40
30.24920543449504
 40
30.24920543449504
 40
30.24920543449504
 40
30.24920543449504
 40
31.24920543449504
 40
31.24920543449504
 40
31.24920543449504
 40
31.24920543449504
 10
39.37294815685053
 20
16.67037403699864
 30
0.0
 10
39.58839327223211
 20
16.57535294824353
 30
0.0
 10
39.62382858999484
 20
16.87131765077351
 30
0.0
 10
39.43346615490506
 20
16.96720969994209
 30
0.0
  0
SPLINE
  5
9F
330
1F
100
AcDbEntity
  8
2D DXF
370
    -3
100
AcDbSpline
210
0.0
220
0.0
230
1.0
 70
     8
 71
     2
 72
    11
 73
     8
 74
     0
 42
0.0000000001
 43
0.0000000001
 40
24.58515055566001
 40
24.58515055566001
 40
24.58515055566001
 40
25.24920543449504
 40
26.24920543449504
 40
27.24920543449504
 40
28.24920543449504
 40
29.24920543449504
 40
30.24920543449504
 40
30.24920543449504
 40
30.24920543449504
 10
34.40034399656497
 20
17.52886571312526
 30
0.0
 10
34.69957472482
 20
17.54253726459663
 30
0.0
 10
35.44972228801052
 20
17.56255946387415
 30
0.0
 10
36.35146994420418
 20
17.53152130859863
 30
0.0
 10
37.24574674029438
 20
17.40795088035109
 30
0.0
 10
38.11830424701085
 20
17.17649418184845
 30
0.0
 10
38.9603832184101
 20
16.85233392763416
 30
0.0
 10
39.37294815685053
 20
16.67037403699864
 30
0.0
  0
SPLINE
  5
A0
330
1F
100
AcDbEntity
  8
2D DXF
370
    -3
100
AcDbSpline
210
0.0
220
0.0
230
1.0
 70
     8
 71
     2
 72
     6
 73
     3
 74
     0
 42
0.0000000001
 43
0.0000000001
 40
24.24920543449504
 40
24.24920543449504
 40
24.24920543449504
 40
24.58515055566001
 40
24.58515055566001
 40
24.58515055566001
 10
34.09761375420217
 20
17.51357874886109
 30
0.0
 10
34.24896328020569
 20
17.52194928021896
 30
0.0
 10
34.40034399656497
 20
17.52886571312526
 30
0.0
  0
SPLINE
  5
A1
330
1F
100
AcDbEntity
  8
2D DXF
370
    -3
100
AcDbSpline
210
0.0
220
0.0
230
1.0
 70
    12
 71
     3
 72
     8
 73
     4
 74
     0
 42
0.0000000001
 43
0.0000000001
 40
24.21627622710411
 40
24.21627622710411
 40
24.21627622710411
 40
24.21627622710411
 40
24.24920543449504
 40
24.24920543449504
 40
24.24920543449504
 40
24.24920543449504
 10
34.08678447663424
 20
17.48243756667691
 30
0.0
 41
0.9998948912510897
 10
34.09038915228938
 20
17.49281767958855
 30
0.0
 41
0.9998948912510897
 10
34.09399866117157
 20
17.50319805980647
 30
0.0
 41
0.9998948912510897
 10
34.09761375420215
 20
17.5135787488611
 30
0.0
 41
0.9998948912510898
  0
SPLINE
  5
A2
330
1F
100
AcDbEntity
  8
2D DXF
370
    -3
100
AcDbSpline
210
0.0
220
0.0
230
1.0
 70
    12
 71
     3
 72
     8
 73
     4
 74
     0
 42
0.0000000001
 43
0.0000000001
 40
24.0043308142028
 40
24.0043308142028
 40
24.0043308142028
 40
24.0043308142028
 40
24.14662680869747
 40
24.14662680869747
 40
24.14662680869747
 40
24.14662680869747
 10
34.01758157268889
 20
17.28202816801734
 30
0.0
 41
0.9998948912510895
 10
34.03302392079365
 20
17.32687600336006
 30
0.0
 41
0.9998948912510894
 10
34.04846626889844
 20
17.37172383870274
 30
0.0
 41
0.9998948912510897
 10
34.06396921086717
 20
17.41657502524747
 30
0.0
 41
0.9998948912510897
  0
SPLINE
  5
A3
330
1F
100
AcDbEntity
  8
2D DXF
370
    -3
100
AcDbSpline
210
0.0
220
0.0
230
1.0
 70
     8
 71
     2
 72
     7
 73
     4
 74
     0
 42
0.0000000001
 43
0.0000000001
 40
22.0043308142028
 40
22.0043308142028
 40
22.0043308142028
 40
23.0043308142028
 40
24.0043308142028
 40
24.0043308142028
 40
24.0043308142028
 10
33.93348256145569
 20
17.21513279392617
 30
0.0
 10
33.96159000945326
 20
17.22101618374002
 30
0.0
 10
34.00826854078761
 20
17.2541326338815
 30
0.0
 10
34.0175815726889
 20
17.28202816801733
 30
0.0
  0
LINE
  5
A4
330
1F
100
AcDbEntity
  8
2D DXF
370
    -3
100
AcDbLine
 10
33.62648176947607
 20
17.1828657104592
 30
0.0
 11
33.93348256145569
 21
17.21513279392617
 31
0.0
  0
SPLINE
  5
A5
330
1F
100
AcDbEntity
  8
2D DXF
370
    -3
100
AcDbSpline
210
0.0
220
0.0
230
1.0
 70
    12
 71
     3
 72
     8
 73
     4
 74
     0
 42
0.0000000001
 43
0.0000000001
 40
18.96393641439282
 40
18.96393641439282
 40
18.96393641439282
 40
18.96393641439282
 40
19.03468092327298
 40
19.03468092327298
 40
19.03468092327298
 40
19.03468092327298
 10
32.94247977322053
 20
17.4363818808308
 30
0.0
 41
0.9998948912511187
 10
32.95475443291561
 20
17.41605771792317
 30
0.0
 41
0.9998948912511187
 10
32.96699785579919
 20
17.39576034187986
 30
0.0
 41
0.9998948912511187
 10
32.97921758889692
 20
17.37548328081268
 30
0.0
 41
0.9998948912511187
  0
SPLINE
  5
A6
330
1F
100
AcDbEntity
  8
2D DXF
370
    -3
100
AcDbSpline
210
0.0
220
0.0
230
1.0
 70
     8
 71
     3
 72
    10
 73
     6
 74
     0
 42
0.0000000001
 43
0.0000000001
 40
16.79483486452972
 40
16.79483486452972
 40
16.79483486452972
 40
16.79483486452972
 40
17.24447515632863
 40
18.17147567688618
 40
18.96393641439282
 40
18.96393641439282
 40
18.96393641439282
 40
18.96393641439282
 10
30.70319592260014
 20
17.22266175482979
 30
0.0
 10
30.85888896075804
 20
17.24041201299424
 30
0.0
 10
31.33575185261159
 20
17.29297816361748
 30
0.0
 10
32.0867021570065
 20
17.36603301855655
 30
0.0
 10
32.67377352353017
 20
17.41597245296562
 30
0.0
 10
32.94247977322053
 20
17.43638188083081
 30
0.0
  0
SPLINE
  5
A7
330
1F
100
AcDbEntity
  8
2D DXF
370
    -3
100
AcDbSpline
210
0.0
220
0.0
230
1.0
 70
     8
 71
     3
 72
     8
 73
     4
 74
     0
 42
0.0000000001
 43
0.0000000001
 40
16.31747463577107
 40
16.31747463577107
 40
16.31747463577107
 40
16.31747463577107
 40
16.79483486452972
 40
16.79483486452972
 40
16.79483486452972
 40
16.79483486452972
 10
30.20764284108131
 20
17.16424765157996
 30
0.0
 10
30.3726869902541
 20
17.18431843967139
 30
0.0
 10
30.53790732495034
 20
17.20381752573236
 30
0.0
 10
30.70319592260014
 20
17.22266175482979
 30
0.0
  0
SPLINE
  5
A8
330
1F
100
AcDbEntity
  8
2D DXF
370
    -3
100
AcDbSpline
210
0.0
220
0.0
230
1.0
 70
     8
 71
     3
 72
    44
 73
    40
 74
     0
 42
0.0000000001
 43
0.0000000001
 40
3.568124814608516
 40
3.568124814608516
 40
3.568124814608516
 40
3.568124814608516
 40
4.788183826542491
 40
4.788183826542491
 40
4.788183826542491
 40
5.788188722156311
 40
5.788188722156311
 40
5.788188722156311
 40
6.78819361777013
 40
6.78819361777013
 40
6.78819361777013
 40
7.78819851338395
 40
7.78819851338395
 40
7.78819851338395
 40
8.78820340899777
 40
8.78820340899777
 40
8.78820340899777
 40
9.788208304611588
 40
9.788208304611588
 40
9.788208304611588
 40
10.78821320022541
 40
10.78821320022541
 40
10.78821320022541
 40
11.78821809583923
 40
11.78821809583923
 40
11.78821809583923
 40
12.78822299145305
 40
12.78822299145305
 40
12.78822299145305
 40
13.78822788706687
 40
13.78822788706687
 40
13.78822788706687
 40
14.78823278268069
 40
14.78823278268069
 40
14.78823278268069
 40
15.78823767829451
 40
15.78823767829451
 40
15.78823767829451
 40
16.31747463577107
 40
16.31747463577107
 40
16.31747463577107
 40
16.31747463577107
 10
27.45349321356255
 20
16.81970089350936
 30
0.0
 10
27.85734610718501
 20
16.86672091089969
 30
0.0
 10
28.2609510645523
 20
16.91726050056316
 30
0.0
 10
28.66448578149348
 20
16.96879867842364
 30
0.0
 10
28.70918941091716
 20
16.97451890087682
 30
0.0
 10
28.75389304034084
 20
16.98023912332999
 30
0.0
 10
28.79859666976452
 20
16.98595934578317
 30
0.0
 10
28.8432843795172
 20
16.99169351042447
 30
0.0
 10
28.88797208926999
 20
16.99742767506578
 30
0.0
 10
28.93265979902267
 20
17.00316183970708
 30
0.0
 10
28.97733126836013
 20
17.00890142012409
 30
0.0
 10
29.0220027376977
 20
17.0146410005411
 30
0.0
 10
29.06667420703516
 20
17.02038058095812
 30
0.0
 10
29.11132914285699
 20
17.02611705467396
 30
0.0
 10
29.15598407867881
 20
17.03185352838982
 30
0.0
 10
29.20063901450058
 20
17.03759000210566
 30
0.0
 10
29.24527715891091
 20
17.04331485147613
 30
0.0
 10
29.28991530332112
 20
17.04903970084659
 30
0.0
 10
29.33455344773145
 20
17.05476455021706
 30
0.0
 10
29.37917458866482
 20
17.06046926358472
 30
0.0
 10
29.42379572959831
 20
17.0661739769524
 30
0.0
 10
29.46841687053168
 20
17.07187869032008
 30
0.0
 10
29.51302085584555
 20
17.07755476342746
 30
0.0
 10
29.55762484115942
 20
17.08323083653485
 30
0.0
 10
29.60222882647341
 20
17.08890690964223
 30
0.0
 10
29.64681558139333
 20
17.09454584722752
 30
0.0
 10
29.69140233631325
 20
17.10018478481281
 30
0.0
 10
29.73598909123317
 20
17.1058237223981
 30
0.0
 10
29.78055863781245
 20
17.11141703974027
 30
0.0
 10
29.82512818439184
 20
17.11701035708245
 30
0.0
 10
29.86969773097113
 20
17.12260367442462
 30
0.0
 10
29.91425020582042
 20
17.12814289832993
 30
0.0
 10
29.95880268066972
 20
17.13368212223524
 30
0.0
 10
30.00335515551902
 20
17.13922134614054
 30
0.0
 10
30.04789081805498
 20
17.14469801445001
 30
0.0
 10
30.09242648059094
 20
17.1501746827595
 30
0.0
 10
30.13696214312691
 20
17.15565135106898
 30
0.0
 10
30.1605229097257
 20
17.15851238749143
 30
0.0
 10
30.18408367632466
 20
17.1613734239139
 30
0.0
 10
30.20764284108131
 20
17.16424765157996
 30
0.0
  0
SPLINE
  5
A9
330
1F
100
AcDbEntity
  8
2D DXF
370
    -3
100
AcDbSpline
210
0.0
220
0.0
230
1.0
 70
    28
 71
     3
 72
     8
 73
     4
 74
     0
 42
0.0000000001
 43
0.0000000001
 40
2.222067854936725
 40
2.222067854936725
 40
2.222067854936725
 40
2.222067854936725
 40
2.249737975162182
 40
2.249737975162182
 40
2.249737975162182
 40
2.249737975162182
 10
27.44448470358714
 20
16.79353828084711
 30
0.0
 41
0.9998948912511111
 10
27.44748754024565
 20
16.80225915173454
 30
0.0
 41
0.999894891251111
 10
27.45049037690409
 20
16.81098002262195
 30
0.0
 41
0.9998948912511109
 10
27.45349321356253
 20
16.81970089350937
 30
0.0
 41
0.9998948912511108
  0
SPLINE
  5
AA
330
1F
100
AcDbEntity
  8
2D DXF
370
    -3
100
AcDbSpline
210
0.0
220
0.0
230
1.0
 70
     8
 71
     2
 72
     8
 73
     5
 74
     0
 42
0.0000000001
 43
0.0000000001
 40
0.0
 40
0.0
 40
0.0
 40
1.0
 40
2.0
 40
3.0
 40
3.0
 40
3.0
 10
33.8750727480718
 20
16.57553080228257
 30
0.0
 10
33.80803686014042
 20
16.57412820242007
 30
0.0
 10
33.71543292114774
 20
16.66758268165474
 30
0.0
 10
33.66814127189267
 20
16.78625982889749
 30
0.0
 10
33.66149069865102
 20
16.84972529415619
 30
0.0
  0
ARC
  5
AB
330
1F
100
AcDbEntity
  8
2D DXF
370
    -3
100
AcDbCircle
 10
33.52832886537777
 20
17.35540498354716
 30
0.0
 40
0.0773671944389988
100
AcDbArc
 50
77.69484845802657
 51
96.30889852110818
  0
SPLINE
  5
AC
330
1F
100
AcDbEntity
  8
2D DXF
370
    -3
100
AcDbSpline
210
0.0
220
0.0
230
1.0
 70
     8
 71
     2
 72
     7
 73
     4
 74
     0
 42
0.0000000001
 43
0.0000000001
 40
0.0
 40
0.0
 40
0.0
 40
1.0
 40
2.0
 40
2.0
 40
2.0
 10
33.60775125363813
 20
17.36110285188438
 30
0.0
 10
33.6048977781511
 20
17.38691664222547
 30
0.0
 10
33.57019160030691
 20
17.42545987784743
 30
0.0
 10
33.54481722514251
 20
17.4309947762948
 30
0.0
  0
SPLINE
  5
AD
330
1F
100
AcDbEntity
  8
2D DXF
370
    -3
100
AcDbSpline
210
0.0
220
0.0
230
1.0
 70
     8
 71
     2
 72
     7
 73
     4
 74
     0
 42
0.0000000001
 43
0.0000000001
 40
3.152673681168819
 40
3.152673681168819
 40
3.152673681168819
 40
4.152673681168819
 40
5.152673681168819
 40
5.152673681168819
 40
5.152673681168819
 10
27.25087531142262
 20
16.67131962066347
 30
0.0
 10
27.25380559791074
 20
16.70408170883003
 30
0.0
 10
27.22133242837739
 20
16.76515003540486
 30
0.0
 10
27.18607170176793
 20
16.76637797990821
 30
0.0
  0
SPLINE
  5
AE
330
1F
100
AcDbEntity
  8
2D DXF
370
    -3
100
AcDbSpline
210
0.0
220
0.0
230
1.0
 70
    28
 71
     2
 72
     6
 73
     3
 74
     0
 42
0.0000000001
 43
0.0000000001
 40
2.0
 40
2.0
 40
2.0
 40
3.152673681168819
 40
3.152673681168819
 40
3.152673681168819
 10
27.19214937760242
 20
15.54942879001185
 30
0.0
 41
1.0
 10
27.22151234451252
 20
16.11037420533766
 30
0.0
 41
1.0
 10
27.25087531142262
 20
16.67131962066347
 30
0.0
 41
1.0
  0
SPLINE
  5
AF
330
1F
100
AcDbEntity
  8
2D DXF
370
    -3
100
AcDbSpline
210
0.0
220
0.0
230
1.0
 70
     8
 71
     2
 72
     7
 73
     4
 74
     0
 42
0.0000000001
 43
0.0000000001
 40
0.0
 40
0.0
 40
0.0
 40
1.0
 40
2.0
 40
2.0
 40
2.0
 10
27.01780238049972
 20
15.30980981352225
 30
0.0
 10
27.1022363403178
 20
15.32373259483113
 30
0.0
 10
27.18886367560305
 20
15.46795341700978
 30
0.0
 10
27.19214937760242
 20
15.54942879001185
 30
0.0
  0
SPLINE
  5
B0
330
1F
100
AcDbEntity
  8
2D DXF
370
    -3
100
AcDbSpline
210
0.0
220
0.0
230
1.0
 70
     8
 71
     2
 72
     7
 73
     4
 74
     0
 42
0.0000000001
 43
0.0000000001
 40
0.0
 40
0.0
 40
0.0
 40
1.0
 40
2.0
 40
2.0
 40
2.0
 10
33.70429730639648
 20
16.01280988676696
 30
0.0
 10
33.61881372189711
 20
16.00887361466111
 30
0.0
 10
33.5040942054207
 20
16.13193202977706
 30
0.0
 10
33.48394062024894
 20
16.21094383461686
 30
0.0
  0
SPLINE
  5
B1
330
1F
100
AcDbEntity
  8
2D DXF
370
    -3
100
AcDbSpline
210
0.0
220
0.0
230
1.0
 70
     8
 71
     2
 72
     7
 73
     4
 74
     0
 42
0.0000000001
 43
0.0000000001
 40
0.0
 40
0.0
 40
0.0
 40
1.0
 40
2.0
 40
2.0
 40
2.0
 10
33.19324375591597
 20
17.29610885028957
 30
0.0
 10
33.18356588168979
 20
17.32754576718405
 30
0.0
 10
33.20263261470427
 20
17.39403115598954
 30
0.0
 10
33.23686750579384
 20
17.40256338424031
 30
0.0
  0
LINE
  5
B2
330
1F
100
AcDbEntity
  8
2D DXF
370
    -3
100
AcDbLine
 10
27.73608118338049
 20
15.93028944532425
 30
0.0
 11
32.87221906674324
 21
16.4701192897745
 31
0.0
  0
LINE
  5
B3
330
1F
100
AcDbEntity
  8
2D DXF
370
    -3
100
AcDbLine
 10
32.66072297106368
 20
17.08136037050141
 30
0.0
 11
27.81628959204591
 21
16.57218990490392
 31
0.0
  0
SPLINE
  5
B4
330
1F
100
AcDbEntity
  8
2D DXF
370
    -3
100
AcDbSpline
210
0.0
220
0.0
230
1.0
 70
    28
 71
     2
 72
     6
 73
     3
 74
     0
 42
0.0000000001
 43
0.0000000001
 40
0.0
 40
0.0
 40
0.0
 40
0.5156024396811688
 40
0.5156024396811688
 40
0.5156024396811688
 10
33.66149055731297
 20
16.84972665974375
 30
0.0
 41
0.8530688685202268
 10
33.63462090545888
 20
17.10541475592817
 30
0.0
 41
0.8530688685202321
 10
33.60775125360479
 20
17.36110285211258
 30
0.0
 41
0.8530688685202376
  0
SPLINE
  5
B5
330
1F
100
AcDbEntity
  8
2D DXF
370
    -3
100
AcDbSpline
210
0.0
220
0.0
230
1.0
 70
    28
 71
     2
 72
     6
 73
     3
 74
     0
 42
0.0000000001
 43
0.0000000001
 40
0.1092288140722163
 40
0.1092288140722163
 40
0.1092288140722163
 40
1.26190249524103
 40
1.26190249524103
 40
1.26190249524103
 10
33.19324375591597
 20
17.29610885028957
 30
0.0
 41
1.0
 10
33.33859218808246
 20
16.75352634245321
 30
0.0
 41
1.0
 10
33.48394062024894
 20
16.21094383461686
 30
0.0
 41
1.0
  0
SPLINE
  5
B6
330
1F
100
AcDbEntity
  8
2D DXF
370
    -3
100
AcDbSpline
210
0.0
220
0.0
230
1.0
 70
    24
 71
     3
 72
    14
 73
    10
 74
     0
 42
0.0000000001
 43
0.0000000001
 40
0.0
 40
0.0
 40
0.0
 40
0.0
 40
0.6041693560049914
 40
0.6041693560049914
 40
0.6041693560049914
 40
0.6510228588170114
 40
0.6510228588170114
 40
0.6510228588170114
 40
1.255192214822014
 40
1.255192214822014
 40
1.255192214822014
 40
1.255192214822014
 10
30.30432147175262
 20
16.20109311986718
 30
0.0
 10
30.30347138155201
 20
16.20918118785414
 30
0.0
 10
30.29457896749119
 20
16.29378685610705
 30
0.0
 10
30.27392534774404
 20
16.49029292168024
 30
0.0
 10
30.27230103788401
 20
16.50574719767515
 30
0.0
 10
30.27067001142336
 20
16.52126537785625
 30
0.0
 10
30.26904570156333
 20
16.53671965385116
 30
0.0
 10
30.24839208181618
 20
16.73322571942437
 30
0.0
 10
30.2394996677553
 20
16.81783138767726
 30
0.0
 10
30.23864957755478
 20
16.82591945566422
 30
0.0
  0
SPLINE
  5
B7
330
1F
100
AcDbEntity
  8
2D DXF
370
    -3
100
AcDbSpline
210
0.0
220
0.0
230
1.0
 70
    24
 71
     2
 72
     6
 73
     3
 74
     0
 42
0.0000000001
 43
0.0000000001
 40
0.0759171652887041
 40
0.0759171652887041
 40
0.0759171652887041
 40
0.4783760145391238
 40
0.4783760145391238
 40
0.4783760145391238
 10
33.51982708647895
 20
17.43230363458159
 30
0.0
 10
33.3783472961364
 20
17.41743350941095
 30
0.0
 10
33.23686750579384
 20
17.40256338424031
 30
0.0
  0
ARC
  5
B8
330
1F
100
AcDbEntity
  8
2D DXF
370
    -3
100
AcDbCircle
 10
-0.4427874136548837
 20
41.13390348692215
 30
0.0
 40
24.6845296803502
210
0.0
220
0.0
230
-1.0
100
AcDbArc
 50
256.2922916864438
 51
259.571267688757
  0
SPLINE
  5
B9
330
1F
100
AcDbEntity
  8
2D DXF
370
    -3
100
AcDbSpline
210
0.0
220
0.0
230
1.0
 70
     8
 71
     3
 72
    34
 73
    30
 74
     0
 42
0.0000000001
 43
0.0000000001
 40
41.0
 40
41.0
 40
41.0
 40
41.0
 40
42.0
 40
43.0
 40
44.0
 40
45.0
 40
46.0
 40
47.0
 40
48.0
 40
49.0
 40
50.0
 40
51.0
 40
52.0
 40
53.0
 40
54.0
 40
55.0
 40
56.0
 40
57.0
 40
58.0
 40
59.0
 40
60.0
 40
61.0
 40
62.0
 40
63.0
 40
64.0
 40
65.0
 40
66.0
 40
67.0
 40
68.0
 40
68.0
 40
68.0
 40
68.0
 10
7.620391557643131
 20
18.38640550185424
 30
0.0
 10
7.663658090705781
 20
18.39271796510477
 30
0.0
 10
7.763843652727303
 20
18.40577781478585
 30
0.0
 10
7.894644263218879
 20
18.41631310096227
 30
0.0
 10
8.02588722742695
 20
18.41844394884512
 30
0.0
 10
8.156910707771488
 20
18.40821737882085
 30
0.0
 10
8.285178841038089
 20
18.37874872107012
 30
0.0
 10
8.403625528786904
 20
18.31732201091639
 30
0.0
 10
8.489282451826625
 20
18.21651322284282
 30
0.0
 10
8.536171778773905
 20
18.08705199637322
 30
0.0
 10
8.492423314434518
 20
17.95777511938751
 30
0.0
 10
8.392502538517192
 20
17.86898471617863
 30
0.0
 10
8.283857299887018
 20
17.7961346065207
 30
0.0
 10
8.168305265506604
 20
17.73354399296717
 30
0.0
 10
8.049864075299695
 20
17.67720035413767
 30
0.0
 10
7.929198423302523
 20
17.62566861686267
 30
0.0
 10
7.806988979812161
 20
17.57797902757086
 30
0.0
 10
7.683540559326218
 20
17.53359054204657
 30
0.0
 10
7.559093416296719
 20
17.49209765252019
 30
0.0
 10
7.433825537954988
 20
17.45315298005669
 30
0.0
 10
7.307786934170281
 20
17.41678393262804
 30
0.0
 10
7.181151771226212
 20
17.38256349768643
 30
0.0
 10
7.054524988792934
 20
17.34832354283543
 30
0.0
 10
6.927762949740895
 20
17.3145837933688
 30
0.0
 10
6.800904189665005
 20
17.2812109750632
 30
0.0
 10
6.67393423408862
 20
17.24826318834884
 30
0.0
 10
6.546848638240533
 20
17.21576427814897
 30
0.0
 10
6.419635686813706
 20
17.18376724682736
 30
0.0
 10
6.334731651698746
 20
17.16281860302831
 30
0.0
 10
6.292252067285716
 20
17.15245714175744
 30
0.0
  0
SPLINE
  5
BA
330
1F
100
AcDbEntity
  8
2D DXF
370
    -3
100
AcDbSpline
210
0.0
220
0.0
230
1.0
 70
     8
 71
     3
 72
    34
 73
    30
 74
     0
 42
0.0000000001
 43
0.0000000001
 40
-0.0000000000000036
 40
-0.0000000000000036
 40
-0.0000000000000036
 40
-0.0000000000000036
 40
0.9999999999999967
 40
1.999999999999997
 40
2.999999999999997
 40
3.999999999999997
 40
4.999999999999997
 40
5.999999999999998
 40
6.999999999999998
 40
7.999999999999998
 40
8.999999999999998
 40
9.999999999999998
 40
11.0
 40
12.0
 40
13.0
 40
14.0
 40
15.0
 40
16.0
 40
17.0
 40
18.0
 40
19.0
 40
20.0
 40
21.0
 40
22.0
 40
23.0
 40
24.0
 40
25.0
 40
26.0
 40
27.0
 40
27.0
 40
27.0
 40
27.0
 10
-6.289026281108988
 20
17.15245714175745
 30
0.0
 10
-6.331505865522047
 20
17.16281860302833
 30
0.0
 10
-6.416409900637007
 20
17.18376724682736
 30
0.0
 10
-6.543622852063834
 20
17.21576427814897
 30
0.0
 10
-6.67070844791192
 20
17.24826318834884
 30
0.0
 10
-6.797678403488305
 20
17.2812109750632
 30
0.0
 10
-6.924537163564196
 20
17.3145837933688
 30
0.0
 10
-7.051299202616235
 20
17.34832354283543
 30
0.0
 10
-7.177925985049512
 20
17.38256349768643
 30
0.0
 10
-7.304561147993581
 20
17.41678393262804
 30
0.0
 10
-7.430599751778288
 20
17.45315298005669
 30
0.0
 10
-7.555867630120019
 20
17.49209765252019
 30
0.0
 10
-7.680314773149519
 20
17.53359054204657
 30
0.0
 10
-7.803763193635461
 20
17.57797902757086
 30
0.0
 10
-7.925972637125824
 20
17.62566861686267
 30
0.0
 10
-8.046638289122996
 20
17.67720035413767
 30
0.0
 10
-8.165079479329904
 20
17.73354399296717
 30
0.0
 10
-8.280631513710318
 20
17.7961346065207
 30
0.0
 10
-8.389276752340493
 20
17.86898471617863
 30
0.0
 10
-8.489197528257819
 20
17.95777511938751
 30
0.0
 10
-8.532945992597206
 20
18.08705199637322
 30
0.0
 10
-8.486056665649926
 20
18.21651322284282
 30
0.0
 10
-8.400399742610205
 20
18.31732201091639
 30
0.0
 10
-8.28195305486139
 20
18.37874872107012
 30
0.0
 10
-8.153684921594788
 20
18.40821737882085
 30
0.0
 10
-8.02266144125025
 20
18.41844394884512
 30
0.0
 10
-7.89141847704218
 20
18.41631310096227
 30
0.0
 10
-7.760617866550604
 20
18.40577781478585
 30
0.0
 10
-7.660432304529081
 20
18.39271796510477
 30
0.0
 10
-7.617165771466432
 20
18.38640550185424
 30
0.0
  0
ARC
  5
BB
330
1F
100
AcDbEntity
  8
2D DXF
370
    -3
100
AcDbCircle
 10
0.4395616277042507
 20
41.13390348599533
 30
0.0
 40
24.6845296793962
210
0.0
220
0.0
230
-1.0
100
AcDbArc
 50
280.4309720936023
 51
283.7077083135562
  0
SPLINE
  5
BC
330
1F
100
AcDbEntity
  8
2D DXF
370
    -3
100
AcDbSpline
210
0.0
220
0.0
230
1.0
 70
    12
 71
     3
 72
     8
 73
     4
 74
     0
 42
0.0000000001
 43
0.0000000001
 40
0.0
 40
0.0
 40
0.0
 40
0.0
 40
4.323967219719583
 40
4.323967219719583
 40
4.323967219719583
 40
4.323967219719583
 10
-3.05642412139141
 20
15.87700090504076
 30
0.0
 41
0.8566589076371499
 10
-2.036827736371638
 20
15.98366413427872
 30
0.0
 41
0.85665890763715
 10
-1.017885155846439
 20
16.09021993382134
 30
0.0
 41
0.85665890763715
 10
0.0010574246786435
 20
16.19677573336397
 30
0.0
 41
0.8566589076371499
  0
SPLINE
  5
BD
330
1F
100
AcDbEntity
  8
2D DXF
370
    -3
100
AcDbSpline
210
0.0
220
0.0
230
1.0
 70
     8
 71
     2
 72
     7
 73
     4
 74
     0
 42
0.0000000001
 43
0.0000000001
 40
-2.0
 40
-2.0
 40
-2.0
 40
-1.0
 40
0.0
 40
0.0
 40
0.0
 10
-3.213696781831032
 20
15.97473258375685
 30
0.0
 10
-3.188122170912692
 20
15.9329763349823
 30
0.0
 10
-3.107576751628585
 20
15.87391519345566
 30
0.0
 10
-3.056424121391359
 20
15.87700090504076
 30
0.0
  0
SPLINE
  5
BE
330
1F
100
AcDbEntity
  8
2D DXF
370
    -3
100
AcDbSpline
210
0.0
220
0.0
230
1.0
 70
     8
 71
     2
 72
     9
 73
     6
 74
     0
 42
0.0000000001
 43
0.0000000001
 40
11.39378376017069
 40
11.39378376017069
 40
11.39378376017069
 40
12.39378376017069
 40
13.39378376017069
 40
14.39378376017069
 40
15.39378376017069
 40
15.39378376017069
 40
15.39378376017069
 10
-3.620798888439282
 20
16.57567133674701
 30
0.0
 10
-3.564739824869122
 20
16.5729947120581
 30
0.0
 10
-3.479191606292005
 20
16.64320018097617
 30
0.0
 10
-3.428586694761805
 20
16.73859195390949
 30
0.0
 10
-3.403967125872725
 20
16.84353234861557
 30
0.0
 10
-3.403796713370355
 20
16.89738462907889
 30
0.0
  0
LINE
  5
BF
330
1F
100
AcDbEntity
  8
2D DXF
370
    -3
100
AcDbLine
 10
-4.01246147522761
 20
16.61648883158003
 30
0.0
 11
-3.620798888439282
 21
16.57567133674701
 31
0.0
  0
SPLINE
  5
C0
330
1F
100
AcDbEntity
  8
2D DXF
370
    -3
100
AcDbSpline
210
0.0
220
0.0
230
1.0
 70
     8
 71
     2
 72
     9
 73
     6
 74
     0
 42
0.0000000001
 43
0.0000000001
 40
7.0
 40
7.0
 40
7.0
 40
8.0
 40
9.0
 40
10.0
 40
11.0
 40
11.0
 40
11.0
 10
-4.746560920745452
 20
15.74551978500172
 30
0.0
 10
-4.724128895712994
 20
15.9004512433646
 30
0.0
 10
-4.618947262521402
 20
16.19558218932487
 30
0.0
 10
-4.442731447697923
 20
16.45633601292926
 30
0.0
 10
-4.17409349015216
 20
16.63015908044001
 30
0.0
 10
-4.01246147522761
 20
16.61648883158003
 30
0.0
  0
LINE
  5
C1
330
1F
100
AcDbEntity
  8
2D DXF
370
    -3
100
AcDbLine
 10
-7.009158604948681
 20
0.3488673062440597
 30
0.0
 11
-4.746560920745452
 21
15.74551978500172
 31
0.0
  0
LINE
  5
C2
330
1F
100
AcDbEntity
  8
2D DXF
370
    -3
100
AcDbLine
 10
-7.632216927680105
 20
0.442147639961604
 30
0.0
 11
-7.009158604948681
 21
0.3488673062440597
 31
0.0
  0
LINE
  5
C3
330
1F
100
AcDbEntity
  8
2D DXF
370
    -3
100
AcDbLine
 10
-5.369390895092067
 20
15.8403297882231
 30
0.0
 11
-7.632216927680105
 21
0.442147639961604
 31
0.0
  0
SPLINE
  5
C4
330
1F
100
AcDbEntity
  8
2D DXF
370
    -3
100
AcDbSpline
210
0.0
220
0.0
230
1.0
 70
     8
 71
     2
 72
     9
 73
     6
 74
     0
 42
0.0000000001
 43
0.0000000001
 40
0.0
 40
0.0
 40
0.0
 40
1.0
 40
2.0
 40
3.0
 40
4.0
 40
4.0
 40
4.0
 10
-4.506391424925795
 20
17.15086875907235
 30
0.0
 10
-4.693307854159315
 20
17.06473018124282
 30
0.0
 10
-4.991978930878787
 20
16.78251640587227
 30
0.0
 10
-5.205411199695561
 20
16.43264245254097
 30
0.0
 10
-5.338929859402612
 20
16.04583493493598
 30
0.0
 10
-5.369390895092067
 20
15.8403297882231
 30
0.0
  0
SPLINE
  5
C5
330
1F
100
AcDbEntity
  8
2D DXF
370
    -3
100
AcDbSpline
210
0.0
220
0.0
230
1.0
 70
    28
 71
     2
 72
     6
 73
     3
 74
     0
 42
0.0000000001
 43
0.0000000001
 40
10.17314974777304
 40
10.17314974777304
 40
10.17314974777304
 40
11.2251296580876
 40
11.2251296580876
 40
11.2251296580876
 10
-4.024526578164786
 20
15.54698353172428
 30
0.0
 41
0.8560172248609055
 10
-4.142261722397761
 20
16.05892604718878
 30
0.0
 41
0.8560172248609056
 10
-4.259996866630735
 20
16.57086856265329
 30
0.0
 41
0.8560172248609057
  0
SPLINE
  5
C6
330
1F
100
AcDbEntity
  8
2D DXF
370
    -3
100
AcDbSpline
210
0.0
220
0.0
230
1.0
 70
     8
 71
     2
 72
     9
 73
     6
 74
     0
 42
0.0000000001
 43
0.0000000001
 40
6.173149747773035
 40
6.173149747773035
 40
6.173149747773035
 40
7.173153238922044
 40
8.173156730071053
 40
9.173160221220064
 40
10.17314974777304
 40
10.17314974777304
 40
10.17314974777304
 10
-3.798038795286431
 20
15.30970965147922
 30
0.0
 10
-3.842288980230165
 20
15.31388982798289
 30
0.0
 10
-3.918522414726709
 20
15.3588726772842
 30
0.0
 10
-3.976237189368533
 20
15.42530405249686
 30
0.0
 10
-4.015141565664379
 20
15.50407700664785
 30
0.0
 10
-4.024526578164767
 20
15.54698353172428
 30
0.0
  0
LINE
  5
C7
330
1F
100
AcDbEntity
  8
2D DXF
370
    -3
100
AcDbLine
 10
-3.358939455672243
 20
15.26469541570728
 30
0.0
 11
-3.798038795286431
 21
15.30970965147922
 31
0.0
  0
LINE
  5
C8
330
1F
100
AcDbEntity
  8
2D DXF
370
    -3
100
AcDbLine
 10
-2.85622471425927
 20
15.31394863094451
 30
0.0
 11
-3.358939455672243
 21
15.26469541570728
 31
0.0
  0
SPLINE
  5
C9
330
1F
100
AcDbEntity
  8
2D DXF
370
    -3
100
AcDbSpline
210
0.0
220
0.0
230
1.0
 70
     8
 71
     2
 72
     9
 73
     6
 74
     0
 42
0.0000000001
 43
0.0000000001
 40
1.22662736504897
 40
1.22662736504897
 40
1.22662736504897
 40
2.22662736504897
 40
3.226627365048969
 40
4.226627365048969
 40
5.226627365048969
 40
5.226627365048969
 40
5.226627365048969
 10
-2.653491739735841
 20
15.52055530478994
 30
0.0
 10
-2.66230282908424
 20
15.48281211251951
 30
0.0
 10
-2.696724966312615
 20
15.41327739649599
 30
0.0
 10
-2.748740593478033
 20
15.35542614592937
 30
0.0
 10
-2.817364708322771
 20
15.31820881619812
 30
0.0
 10
-2.85622471425927
 20
15.31394863094451
 30
0.0
  0
SPLINE
  5
CA
330
1F
100
AcDbEntity
  8
2D DXF
370
    -3
100
AcDbSpline
210
0.0
220
0.0
230
1.0
 70
    28
 71
     2
 72
     6
 73
     3
 74
     0
 42
0.0000000001
 43
0.0000000001
 40
0.7984423683647881
 40
0.7984423683647881
 40
0.7984423683647881
 40
1.22662736504897
 40
1.22662736504897
 40
1.22662736504897
 10
-2.556298737175302
 20
15.92934051596309
 30
0.0
 41
0.8563898439284926
 10
-2.604895238455575
 20
15.72494791037651
 30
0.0
 41
0.8563898439284932
 10
-2.653491739735848
 20
15.52055530478993
 30
0.0
 41
0.8563898439284937
  0
SPLINE
  5
CB
330
1F
100
AcDbEntity
  8
2D DXF
370
    -3
100
AcDbSpline
210
0.0
220
0.0
230
1.0
 70
    28
 71
     2
 72
     6
 73
     3
 74
     0
 42
0.0000000001
 43
0.0000000001
 40
10.18033768239874
 40
10.18033768239874
 40
10.18033768239874
 40
10.59986979928274
 40
10.59986979928274
 40
10.59986979928274
 10
-4.024388957133319
 20
16.21935029516153
 30
0.0
 41
0.8563898439579778
 10
-4.071338534848128
 20
16.41681570902866
 30
0.0
 41
0.8563898439579778
 10
-4.118288112562936
 20
16.6142811228958
 30
0.0
 41
0.8563898439579779
  0
SPLINE
  5
CC
330
1F
100
AcDbEntity
  8
2D DXF
370
    -3
100
AcDbSpline
210
0.0
220
0.0
230
1.0
 70
     8
 71
     2
 72
     9
 73
     6
 74
     0
 42
0.0000000001
 43
0.0000000001
 40
6.180337682398743
 40
6.180337682398743
 40
6.180337682398743
 40
7.180442332011739
 40
8.180546981624735
 40
9.18065163123773
 40
10.18033768239874
 40
10.18033768239874
 40
10.18033768239874
 10
-3.822152755746686
 20
16.01245643365621
 30
0.0
 10
-3.860988750827943
 20
16.0167878865617
 30
0.0
 10
-3.929090233182222
 20
16.05472156432417
 30
0.0
 10
-3.981247070783155
 20
16.1122678039267
 30
0.0
 10
-4.015949716790402
 20
16.18156151022804
 30
0.0
 10
-4.024388957133368
 20
16.21935029516153
 30
0.0
  0
LINE
  5
CD
330
1F
100
AcDbEntity
  8
2D DXF
370
    -3
100
AcDbLine
 10
-3.318937361590713
 20
15.9634732656385
 30
0.0
 11
-3.822152755746686
 21
16.01245643365621
 31
0.0
  0
LINE
  5
CE
330
1F
100
AcDbEntity
  8
2D DXF
370
    -3
100
AcDbLine
 10
-2.879171112688937
 20
16.00854781727229
 30
0.0
 11
-3.318937361590713
 21
15.9634732656385
 31
0.0
  0
SPLINE
  5
CF
330
1F
100
AcDbEntity
  8
2D DXF
370
    -3
100
AcDbSpline
210
0.0
220
0.0
230
1.0
 70
     8
 71
     2
 72
     9
 73
     6
 74
     0
 42
0.0000000001
 43
0.0000000001
 40
1.232673681168818
 40
1.232673681168818
 40
1.232673681168818
 40
2.232671278259504
 40
3.232672079229276
 40
4.232672880199047
 40
5.232673681168818
 40
5.232673681168818
 40
5.232673681168818
 10
-2.65335044172096
 20
16.24576045673662
 30
0.0
 10
-2.663084928304471
 20
16.20306394834084
 30
0.0
 10
-2.701365659957247
 20
16.1242085809134
 30
0.0
 10
-2.758862747528752
 20
16.05780793349273
 30
0.0
 10
-2.835169074820641
 20
16.01339870701543
 30
0.0
 10
-2.879171112688937
 20
16.00854781727229
 30
0.0
  0
SPLINE
  5
D0
330
1F
100
AcDbEntity
  8
2D DXF
370
    -3
100
AcDbSpline
210
0.0
220
0.0
230
1.0
 70
    28
 71
     2
 72
     6
 73
     3
 74
     0
 42
0.0000000001
 43
0.0000000001
 40
0.6892278622060378
 40
0.6892278622060378
 40
0.6892278622060378
 40
1.232673681168818
 40
1.232673681168818
 40
1.232673681168818
 10
-2.531707985168446
 20
16.77469295045204
 30
0.0
 41
0.8560172248711451
 10
-2.592529213444704
 20
16.51022670359433
 30
0.0
 41
0.8560172248711454
 10
-2.653350441720963
 20
16.24576045673663
 30
0.0
 41
0.8560172248711457
  0
SPLINE
  5
D1
330
1F
100
AcDbEntity
  8
2D DXF
370
    -3
100
AcDbSpline
210
0.0
220
0.0
230
1.0
 70
     8
 71
     2
 72
     9
 73
     6
 74
     0
 42
0.0000000001
 43
0.0000000001
 40
7.0
 40
7.0
 40
7.0
 40
8.0
 40
9.0
 40
10.0
 40
11.0
 40
11.0
 40
11.0
 10
-5.836243844759196
 20
15.12492149738831
 30
0.0
 10
-5.820216174580906
 20
15.24660458411724
 30
0.0
 10
-5.74556774326112
 20
15.47794693776274
 30
0.0
 10
-5.625496226323975
 20
15.6895492970024
 30
0.0
 10
-5.459049401094546
 20
15.86758755617029
 30
0.0
 10
-5.354272617997907
 20
15.93007998990625
 30
0.0
  0
LINE
  5
D2
330
1F
100
AcDbEntity
  8
2D DXF
370
    -3
100
AcDbLine
 10
-7.803683057334126
 20
0.3046794763990022
 30
0.0
 11
-5.836243844759196
 21
15.12492149738831
 31
0.0
  0
LINE
  5
D3
330
1F
100
AcDbEntity
  8
2D DXF
370
    -3
100
AcDbLine
 10
-8.428203971276076
 20
0.387586822570043
 30
0.0
 11
-7.803683057334126
 21
0.3046794763990022
 31
0.0
  0
LINE
  5
D4
330
1F
100
AcDbEntity
  8
2D DXF
370
    -3
100
AcDbLine
 10
-6.460602119866422
 20
15.20905395252741
 30
0.0
 11
-8.428203971276076
 21
0.387586822570043
 31
0.0
  0
SPLINE
  5
D5
330
1F
100
AcDbEntity
  8
2D DXF
370
    -3
100
AcDbSpline
210
0.0
220
0.0
230
1.0
 70
     8
 71
     2
 72
     9
 73
     6
 74
     0
 42
0.0000000001
 43
0.0000000001
 40
0.0
 40
0.0
 40
0.0
 40
1.00000119212835
 40
2.0000023842567
 40
3.00000357638505
 40
4.0
 40
4.0
 40
4.0
 10
-5.063000612595715
 20
16.66292241743487
 30
0.0
 10
-5.339351574462512
 20
16.64423290296708
 30
0.0
 10
-5.833801384471172
 20
16.395796484168
 30
0.0
 10
-6.203826863583345
 20
15.98607734793451
 30
0.0
 10
-6.424908921959911
 20
15.4817828147403
 30
0.0
 10
-6.460602119866422
 20
15.20905395252741
 30
0.0
  0
LINE
  5
D6
330
1F
100
AcDbEntity
  8
2D DXF
370
    -3
100
AcDbLine
 10
-7.041745861433924
 20
0.1318630923362889
 30
0.0
 11
-7.009273204544854
 21
0.3480908352103143
 31
0.0
  0
SPLINE
  5
D7
330
1F
100
AcDbEntity
  8
2D DXF
370
    -3
100
AcDbSpline
210
0.0
220
0.0
230
1.0
 70
     8
 71
     2
 72
    11
 73
     8
 74
     0
 42
0.0000000001
 43
0.0000000001
 40
0.2100281833390025
 40
0.2100281833390025
 40
0.2100281833390025
 40
1.210028183339003
 40
2.210028183339003
 40
3.210028183339003
 40
4.210028183339002
 40
5.210028183339002
 40
6.210028183339002
 40
6.210028183339002
 40
6.210028183339002
 10
-7.663259623192261
 20
0.2327062520915888
 30
0.0
 10
-7.666729430097348
 20
0.16461266155342
 30
0.0
 10
-7.553513301300853
 20
0.1013031460506539
 30
0.0
 10
-7.435052878939047
 20
0.0722934374878434
 30
0.0
 10
-7.313585916758512
 20
0.0538288552440065
 30
0.0
 10
-7.191931002902493
 20
0.0466842425193619
 30
0.0
 10
-7.064578236963399
 20
0.0684956632195082
 30
0.0
 10
-7.041745861433924
 20
0.1318630923362889
 30
0.0
  0
LINE
  5
D8
330
1F
100
AcDbEntity
  8
2D DXF
370
    -3
100
AcDbLine
 10
-7.632464273501739
 20
0.440464487148887
 30
0.0
 11
-7.663259623192261
 21
0.2327062520915888
 31
0.0
  0
LINE
  5
D9
330
1F
100
AcDbEntity
  8
2D DXF
370
    -3
100
AcDbLine
 10
-7.832871154642248
 20
0.0879839175858308
 30
0.0
 11
-7.803683057334126
 21
0.3046794763990022
 31
0.0
  0
SPLINE
  5
DA
330
1F
100
AcDbEntity
  8
2D DXF
370
    -3
100
AcDbSpline
210
0.0
220
0.0
230
1.0
 70
     8
 71
     2
 72
    11
 73
     8
 74
     0
 42
0.0000000001
 43
0.0000000001
 40
0.2100281833390025
 40
0.2100281833390025
 40
0.2100281833390025
 40
1.210028183339003
 40
2.210028183339003
 40
3.210028183339003
 40
4.210028183339002
 40
5.210028183339002
 40
6.210028183339002
 40
6.210028183339002
 40
6.210028183339002
 10
-8.455843462231257
 20
0.1793852463598569
 30
0.0
 10
-8.458279686316132
 20
0.1112468471671093
 30
0.0
 10
-8.34411599589339
 20
0.0496624468540574
 30
0.0
 10
-8.225229046247534
 20
0.0224534766245768
 30
0.0
 10
-8.10349590398448
 20
0.0058340369961059
 30
0.0
 10
-7.981746589469935
 20
0.0005361155611467
 30
0.0
 10
-7.854739428402866
 20
0.0242773476897753
 30
0.0
 10
-7.832871154642248
 20
0.0879839175858308
 30
0.0
  0
LINE
  5
DB
330
1F
100
AcDbEntity
  8
2D DXF
370
    -3
100
AcDbLine
 10
-8.428203971276133
 20
0.3875868225700572
 30
0.0
 11
-8.455843462231257
 21
0.1793852463598569
 31
0.0
  0
SPLINE
  5
DC
330
1F
100
AcDbEntity
  8
2D DXF
370
    -3
100
AcDbSpline
210
0.0
220
0.0
230
1.0
 70
    28
 71
     2
 72
     6
 73
     3
 74
     0
 42
0.0000000001
 43
0.0000000001
 40
4.610333950763096
 40
4.610333950763096
 40
4.610333950763096
 40
5.008596212091838
 40
5.008596212091838
 40
5.008596212091838
 10
-3.517479915395541
 20
15.59999016509846
 30
0.0
 41
1.0
 10
-3.547848371116132
 20
15.79528877817734
 30
0.0
 41
1.0
 10
-3.578216826836723
 20
15.99058739125621
 30
0.0
 41
1.0
  0
SPLINE
  5
DD
330
1F
100
AcDbEntity
  8
2D DXF
370
    -3
100
AcDbSpline
210
0.0
220
0.0
230
1.0
 70
     8
 71
     2
 72
     9
 73
     6
 74
     0
 42
0.0000000001
 43
0.0000000001
 40
0.6103339507630958
 40
0.6103339507630958
 40
0.6103339507630958
 40
1.610333950763096
 40
2.610333950763096
 40
3.610333950763096
 40
4.610333950763096
 40
4.610333950763096
 40
4.610333950763096
 10
-3.318947572937958
 20
15.35912056148176
 30
0.0
 10
-3.361438249313466
 20
15.3635686458996
 30
0.0
 10
-3.430844928067557
 20
15.41242789647735
 30
0.0
 10
-3.480149997138597
 20
15.48052691024837
 30
0.0
 10
-3.511122266599983
 20
15.55852877685318
 30
0.0
 10
-3.517479915395541
 20
15.59999016509846
 30
0.0
  0
SPLINE
  5
DE
330
1F
100
AcDbEntity
  8
2D DXF
370
    -3
100
AcDbSpline
210
0.0
220
0.0
230
1.0
 70
    24
 71
     2
 72
     6
 73
     3
 74
     0
 42
0.0000000001
 43
0.0000000001
 40
-0.0000000000000012
 40
-0.0000000000000012
 40
-0.0000000000000012
 40
0.6103339507630958
 40
0.6103339507630958
 40
0.6103339507630958
 10
-2.887280505115996
 20
15.31401909453704
 30
0.0
 10
-3.103114039026977
 20
15.3365698280094
 30
0.0
 10
-3.318947572937958
 20
15.35912056148176
 30
0.0
  0
SPLINE
  5
DF
330
1F
100
AcDbEntity
  8
2D DXF
370
    -3
100
AcDbSpline
210
0.0
220
0.0
230
1.0
 70
    24
 71
     2
 72
     6
 73
     3
 74
     0
 42
0.0000000001
 43
0.0000000001
 40
4.003985166117586
 40
4.003985166117586
 40
4.003985166117586
 40
4.614319116880683
 40
4.614319116880683
 40
4.614319116880683
 10
-3.358929244325623
 20
16.05789842284487
 30
0.0
 10
-3.574762778236448
 20
16.03534768937079
 30
0.0
 10
-3.790596312147272
 20
16.0127969558967
 30
0.0
  0
SPLINE
  5
E0
330
1F
100
AcDbEntity
  8
2D DXF
370
    -3
100
AcDbSpline
210
0.0
220
0.0
230
1.0
 70
     8
 71
     2
 72
     9
 73
     6
 74
     0
 42
0.0000000001
 43
0.0000000001
 40
0.0039851661175855
 40
0.0039851661175855
 40
0.0039851661175855
 40
1.003985166117586
 40
2.003985166117586
 40
3.003985166117586
 40
4.003985166117586
 40
4.003985166117586
 40
4.003985166117586
 10
-3.160396899189237
 20
16.29876802632778
 30
0.0
 10
-3.167120983817313
 20
16.25740048444632
 30
0.0
 10
-3.197692064048454
 20
16.17928644799697
 30
0.0
 10
-3.24672817042088
 20
16.11095880271078
 30
0.0
 10
-3.316608246047537
 20
16.0629024092287
 30
0.0
 10
-3.358929244325623
 20
16.05789842284487
 30
0.0
  0
SPLINE
  5
E1
330
1F
100
AcDbEntity
  8
2D DXF
370
    -3
100
AcDbSpline
210
0.0
220
0.0
230
1.0
 70
    28
 71
     2
 72
     6
 73
     3
 74
     0
 42
0.0000000001
 43
0.0000000001
 40
-0.5528646837850709
 40
-0.5528646837850709
 40
-0.5528646837850709
 40
0.0039851661175855
 40
0.0039851661175855
 40
0.0039851661175855
 10
-3.075474610782143
 20
16.84490063239675
 30
0.0
 41
1.0
 10
-3.1179357549857
 20
16.57183432936227
 30
0.0
 41
1.0
 10
-3.160396899189257
 20
16.29876802632779
 30
0.0
 41
1.0
  0
SPLINE
  5
E2
330
1F
100
AcDbEntity
  8
2D DXF
370
    -3
100
AcDbSpline
210
0.0
220
0.0
230
1.0
 70
    24
 71
     2
 72
     6
 73
     3
 74
     0
 42
0.0000000001
 43
0.0000000001
 40
0.000000000000001
 40
0.000000000000001
 40
0.000000000000001
 40
0.6103339507630969
 40
0.6103339507630969
 40
0.6103339507630969
 10
-2.887270293769063
 20
16.00857473258665
 30
0.0
 10
-3.103103827679888
 20
15.98602399911258
 30
0.0
 10
-3.318937361590713
 20
15.9634732656385
 30
0.0
  0
SPLINE
  5
E3
330
1F
100
AcDbEntity
  8
2D DXF
370
    -3
100
AcDbSpline
210
0.0
220
0.0
230
1.0
 70
    12
 71
     2
 72
     6
 73
     3
 74
     0
 42
0.0000000001
 43
0.0000000001
 40
0.0931404683516954
 40
0.0931404683516954
 40
0.0931404683516954
 40
0.1158637182037069
 40
0.1158637182037069
 40
0.1158637182037069
 10
-3.381565927694856
 20
15.26897396123583
 30
0.0
 41
0.8892833237614565
 10
-3.374682200381038
 20
15.26546652698203
 30
0.0
 41
0.9105152908287699
 10
-3.367252767953529
 20
15.2646902845342
 30
0.0
 41
0.9486969526683089
  0
SPLINE
  5
E4
330
1F
100
AcDbEntity
  8
2D DXF
370
    -3
100
AcDbSpline
210
0.0
220
0.0
230
1.0
 70
     8
 71
     3
 72
     8
 73
     4
 74
     0
 42
0.0000000001
 43
0.0000000001
 40
2.044911702315788
 40
2.044911702315788
 40
2.044911702315788
 40
2.044911702315788
 40
2.115874797478824
 40
2.115874797478824
 40
2.115874797478824
 40
2.115874797478824
 10
-2.69074843906543
 20
16.78980002231084
 30
0.0
 10
-2.687022868928381
 20
16.79247634006086
 30
0.0
 10
-2.685110675969355
 20
16.79532115338925
 30
0.0
 10
-2.685159110923422
 20
16.79834372399741
 30
0.0
  0
SPLINE
  5
E5
330
1F
100
AcDbEntity
  8
2D DXF
370
    -3
100
AcDbSpline
210
0.0
220
0.0
230
1.0
 70
    28
 71
     3
 72
     8
 73
     4
 74
     0
 42
0.0000000001
 43
0.0000000001
 40
1.99450461069922
 40
1.99450461069922
 40
1.99450461069922
 40
1.99450461069922
 40
5.584448213357721
 40
5.584448213357721
 40
5.584448213357721
 40
5.584448213357721
 10
-2.602348524250368
 20
16.46902640539975
 30
0.0
 41
0.8566589076371487
 10
-1.756378559040905
 20
16.38055919659442
 30
0.0
 41
0.8566589076371486
 10
-0.9104085938315748
 20
16.29209198778913
 30
0.0
 41
0.8566589076371487
 10
-0.0644386286222445
 20
16.20362477898384
 30
0.0
 41
0.8566589076371488
  0
SPLINE
  5
E6
330
1F
100
AcDbEntity
  8
2D DXF
370
    -3
100
AcDbSpline
210
0.0
220
0.0
230
1.0
 70
    28
 71
     3
 72
     8
 73
     4
 74
     0
 42
0.0000000001
 43
0.0000000001
 40
0.1480224217458351
 40
0.1480224217458351
 40
0.1480224217458351
 40
0.1480224217458351
 40
0.8593290760227089
 40
0.8593290760227089
 40
0.8593290760227089
 40
0.8593290760227089
 10
-4.692113515024714
 20
15.99341967598208
 30
0.0
 41
0.8547228508968872
 10
-4.494442346709266
 20
15.95188481494588
 30
0.0
 41
0.8547228508968868
 10
-4.296771178394911
 20
15.91034995390987
 30
0.0
 41
0.854722850896887
 10
-4.099100010079201
 20
15.86881509287362
 30
0.0
 41
0.8547228508968873
  0
SPLINE
  5
E7
330
1F
100
AcDbEntity
  8
2D DXF
370
    -3
100
AcDbSpline
210
0.0
220
0.0
230
1.0
 70
     8
 71
     3
 72
     8
 73
     4
 74
     0
 42
0.0000000001
 43
0.0000000001
 40
2.705597747790026
 40
2.705597747790026
 40
2.705597747790026
 40
2.705597747790026
 40
2.723204868881017
 40
2.723204868881017
 40
2.723204868881017
 40
2.723204868881017
 10
-5.458405045520436
 20
17.42308374370009
 30
0.0
 10
-5.461766262970656
 20
17.42274367479617
 30
0.0
 10
-5.465125457838326
 20
17.42241373065298
 30
0.0
 10
-5.468482432167264
 20
17.42209379808209
 30
0.0
  0
SPLINE
  5
E8
330
1F
100
AcDbEntity
  8
2D DXF
370
    -3
100
AcDbSpline
210
0.0
220
0.0
230
1.0
 70
    24
 71
     3
 72
    11
 73
     7
 74
     0
 42
0.0000000001
 43
0.0000000001
 40
0.0
 40
0.0
 40
0.0
 40
0.0
 40
0.3276515494938902
 40
0.3276515494938902
 40
0.3276515494938902
 40
0.7499992541381634
 40
0.7499992541381634
 40
0.7499992541381634
 40
0.7499992541381634
 10
0.0010564856949031
 20
16.20021895985533
 30
0.0
 10
0.0010564856949031
 20
16.21124474172947
 30
0.0
 10
0.0010564856949031
 20
16.249707021398
 30
0.0
 10
0.0010564856949031
 20
16.31808301052341
 30
0.0
 10
0.0010564856949031
 20
16.40843330838302
 30
0.0
 10
0.0010564856949031
 20
16.52882774512831
 30
0.0
 10
0.0010564856949031
 20
16.63163682712019
 30
0.0
  0
SPLINE
  5
E9
330
1F
100
AcDbEntity
  8
2D DXF
370
    -3
100
AcDbSpline
210
0.0
220
0.0
230
1.0
 70
    12
 71
     3
 72
     8
 73
     4
 74
     0
 42
0.0000000001
 43
0.0000000001
 40
0.0
 40
0.0
 40
0.0
 40
0.0
 40
4.323967219719583
 40
4.323967219719583
 40
4.323967219719583
 40
4.323967219719583
 10
3.058537092781171
 20
15.87700090504076
 30
0.0
 41
0.8566589076371499
 10
2.038940707761498
 20
15.98366413427872
 30
0.0
 41
0.85665890763715
 10
1.0199981272363
 20
16.09021993382134
 30
0.0
 41
0.85665890763715
 10
0.0010555467111181
 20
16.19677573336397
 30
0.0
 41
0.8566589076371499
  0
SPLINE
  5
EA
330
1F
100
AcDbEntity
  8
2D DXF
370
    -3
100
AcDbSpline
210
0.0
220
0.0
230
1.0
 70
     8
 71
     2
 72
     7
 73
     4
 74
     0
 42
0.0000000001
 43
0.0000000001
 40
-2.0
 40
-2.0
 40
-2.0
 40
-1.0
 40
0.0
 40
0.0
 40
0.0
 10
3.215809753220839
 20
15.97473258375685
 30
0.0
 10
3.190235142302498
 20
15.9329763349823
 30
0.0
 10
3.109689723018391
 20
15.87391519345566
 30
0.0
 10
3.058537092781165
 20
15.87700090504076
 30
0.0
  0
SPLINE
  5
EB
330
1F
100
AcDbEntity
  8
2D DXF
370
    -3
100
AcDbSpline
210
0.0
220
0.0
230
1.0
 70
     8
 71
     2
 72
     9
 73
     6
 74
     0
 42
0.0000000001
 43
0.0000000001
 40
11.39378376017069
 40
11.39378376017069
 40
11.39378376017069
 40
12.39378376017069
 40
13.39378376017069
 40
14.39378376017069
 40
15.39378376017069
 40
15.39378376017069
 40
15.39378376017069
 10
3.622911859829088
 20
16.57567133674701
 30
0.0
 10
3.566852796258928
 20
16.5729947120581
 30
0.0
 10
3.481304577681811
 20
16.64320018097617
 30
0.0
 10
3.430699666151611
 20
16.73859195390949
 30
0.0
 10
3.406080097262532
 20
16.84353234861557
 30
0.0
 10
3.405909684760161
 20
16.89738462907889
 30
0.0
  0
LINE
  5
EC
330
1F
100
AcDbEntity
  8
2D DXF
370
    -3
100
AcDbLine
 10
4.014574446617416
 20
16.61648883158003
 30
0.0
 11
3.622911859829088
 21
16.57567133674701
 31
0.0
  0
SPLINE
  5
ED
330
1F
100
AcDbEntity
  8
2D DXF
370
    -3
100
AcDbSpline
210
0.0
220
0.0
230
1.0
 70
     8
 71
     2
 72
     9
 73
     6
 74
     0
 42
0.0000000001
 43
0.0000000001
 40
7.0
 40
7.0
 40
7.0
 40
8.0
 40
9.0
 40
10.0
 40
11.0
 40
11.0
 40
11.0
 10
4.748673892135258
 20
15.74551978500172
 30
0.0
 10
4.7262418671028
 20
15.9004512433646
 30
0.0
 10
4.621060233911209
 20
16.19558218932487
 30
0.0
 10
4.44484441908773
 20
16.45633601292926
 30
0.0
 10
4.176206461541966
 20
16.63015908044001
 30
0.0
 10
4.014574446617416
 20
16.61648883158003
 30
0.0
  0
LINE
  5
EE
330
1F
100
AcDbEntity
  8
2D DXF
370
    -3
100
AcDbLine
 10
7.011271576338487
 20
0.3488673062440597
 30
0.0
 11
4.748673892135258
 21
15.74551978500172
 31
0.0
  0
LINE
  5
EF
330
1F
100
AcDbEntity
  8
2D DXF
370
    -3
100
AcDbLine
 10
7.634329899069911
 20
0.442147639961604
 30
0.0
 11
7.011271576338487
 21
0.3488673062440597
 31
0.0
  0
LINE
  5
F0
330
1F
100
AcDbEntity
  8
2D DXF
370
    -3
100
AcDbLine
 10
5.371503866481874
 20
15.8403297882231
 30
0.0
 11
7.634329899069911
 21
0.442147639961604
 31
0.0
  0
SPLINE
  5
F1
330
1F
100
AcDbEntity
  8
2D DXF
370
    -3
100
AcDbSpline
210
0.0
220
0.0
230
1.0
 70
     8
 71
     2
 72
     9
 73
     6
 74
     0
 42
0.0000000001
 43
0.0000000001
 40
0.0
 40
0.0
 40
0.0
 40
1.0
 40
2.0
 40
3.0
 40
4.0
 40
4.0
 40
4.0
 10
4.508504396315601
 20
17.15086875907235
 30
0.0
 10
4.695420825549121
 20
17.06473018124282
 30
0.0
 10
4.994091902268593
 20
16.78251640587227
 30
0.0
 10
5.207524171085367
 20
16.43264245254097
 30
0.0
 10
5.341042830792418
 20
16.04583493493598
 30
0.0
 10
5.371503866481874
 20
15.8403297882231
 30
0.0
  0
SPLINE
  5
F2
330
1F
100
AcDbEntity
  8
2D DXF
370
    -3
100
AcDbSpline
210
0.0
220
0.0
230
1.0
 70
    28
 71
     2
 72
     6
 73
     3
 74
     0
 42
0.0000000001
 43
0.0000000001
 40
10.17314974777304
 40
10.17314974777304
 40
10.17314974777304
 40
11.2251296580876
 40
11.2251296580876
 40
11.2251296580876
 10
4.026639549554578
 20
15.54698353172428
 30
0.0
 41
0.8560172248609055
 10
4.144374693787586
 20
16.05892604718878
 30
0.0
 41
0.8560172248609056
 10
4.262109838020595
 20
16.57086856265329
 30
0.0
 41
0.8560172248609057
  0
SPLINE
  5
F3
330
1F
100
AcDbEntity
  8
2D DXF
370
    -3
100
AcDbSpline
210
0.0
220
0.0
230
1.0
 70
     8
 71
     2
 72
     9
 73
     6
 74
     0
 42
0.0000000001
 43
0.0000000001
 40
6.173149747773035
 40
6.173149747773035
 40
6.173149747773035
 40
7.173153238922044
 40
8.173156730071053
 40
9.173160221220064
 40
10.17314974777304
 40
10.17314974777304
 40
10.17314974777304
 10
3.800151766676237
 20
15.30970965147922
 30
0.0
 10
3.844401951619972
 20
15.31388982798289
 30
0.0
 10
3.920635386116516
 20
15.3588726772842
 30
0.0
 10
3.978350160758339
 20
15.42530405249686
 30
0.0
 10
4.017254537054185
 20
15.50407700664785
 30
0.0
 10
4.026639549554574
 20
15.54698353172428
 30
0.0
  0
LINE
  5
F4
330
1F
100
AcDbEntity
  8
2D DXF
370
    -3
100
AcDbLine
 10
3.361052427062049
 20
15.26469541570728
 30
0.0
 11
3.800151766676237
 21
15.30970965147922
 31
0.0
  0
LINE
  5
F5
330
1F
100
AcDbEntity
  8
2D DXF
370
    -3
100
AcDbLine
 10
2.858337685649076
 20
15.31394863094451
 30
0.0
 11
3.361052427062049
 21
15.26469541570728
 31
0.0
  0
SPLINE
  5
F6
330
1F
100
AcDbEntity
  8
2D DXF
370
    -3
100
AcDbSpline
210
0.0
220
0.0
230
1.0
 70
     8
 71
     2
 72
     9
 73
     6
 74
     0
 42
0.0000000001
 43
0.0000000001
 40
1.22662736504897
 40
1.22662736504897
 40
1.22662736504897
 40
2.22662736504897
 40
3.226627365048969
 40
4.226627365048969
 40
5.226627365048969
 40
5.226627365048969
 40
5.226627365048969
 10
2.655604711125648
 20
15.52055530478994
 30
0.0
 10
2.664415800474046
 20
15.48281211251951
 30
0.0
 10
2.698837937702422
 20
15.41327739649599
 30
0.0
 10
2.750853564867839
 20
15.35542614592937
 30
0.0
 10
2.819477679712577
 20
15.31820881619812
 30
0.0
 10
2.858337685649076
 20
15.31394863094451
 30
0.0
  0
SPLINE
  5
F7
330
1F
100
AcDbEntity
  8
2D DXF
370
    -3
100
AcDbSpline
210
0.0
220
0.0
230
1.0
 70
    28
 71
     2
 72
     6
 73
     3
 74
     0
 42
0.0000000001
 43
0.0000000001
 40
0.7984423683647881
 40
0.7984423683647881
 40
0.7984423683647881
 40
1.22662736504897
 40
1.22662736504897
 40
1.22662736504897
 10
2.558411708565134
 20
15.92934051596309
 30
0.0
 41
0.8563898439284926
 10
2.607008209845397
 20
15.72494791037651
 30
0.0
 41
0.8563898439284932
 10
2.655604711125662
 20
15.52055530478993
 30
0.0
 41
0.8563898439284937
  0
SPLINE
  5
F8
330
1F
100
AcDbEntity
  8
2D DXF
370
    -3
100
AcDbSpline
210
0.0
220
0.0
230
1.0
 70
    28
 71
     2
 72
     6
 73
     3
 74
     0
 42
0.0000000001
 43
0.0000000001
 40
10.18033768239874
 40
10.18033768239874
 40
10.18033768239874
 40
10.59986979928274
 40
10.59986979928274
 40
10.59986979928274
 10
4.026501928523161
 20
16.21935029516153
 30
0.0
 41
0.8563898439579778
 10
4.073451506237961
 20
16.41681570902866
 30
0.0
 41
0.8563898439579778
 10
4.120401083952761
 20
16.6142811228958
 30
0.0
 41
0.8563898439579779
  0
SPLINE
  5
F9
330
1F
100
AcDbEntity
  8
2D DXF
370
    -3
100
AcDbSpline
210
0.0
220
0.0
230
1.0
 70
     8
 71
     2
 72
     9
 73
     6
 74
     0
 42
0.0000000001
 43
0.0000000001
 40
6.180337682398743
 40
6.180337682398743
 40
6.180337682398743
 40
7.180442332011739
 40
8.180546981624735
 40
9.18065163123773
 40
10.18033768239874
 40
10.18033768239874
 40
10.18033768239874
 10
3.824265727136492
 20
16.01245643365621
 30
0.0
 10
3.863101722217749
 20
16.0167878865617
 30
0.0
 10
3.931203204572029
 20
16.05472156432417
 30
0.0
 10
3.983360042172961
 20
16.1122678039267
 30
0.0
 10
4.018062688180208
 20
16.18156151022804
 30
0.0
 10
4.026501928523174
 20
16.21935029516153
 30
0.0
  0
LINE
  5
FA
330
1F
100
AcDbEntity
  8
2D DXF
370
    -3
100
AcDbLine
 10
3.321050332980519
 20
15.9634732656385
 30
0.0
 11
3.824265727136492
 21
16.01245643365621
 31
0.0
  0
LINE
  5
FB
330
1F
100
AcDbEntity
  8
2D DXF
370
    -3
100
AcDbLine
 10
2.881284084078743
 20
16.00854781727229
 30
0.0
 11
3.321050332980519
 21
15.9634732656385
 31
0.0
  0
SPLINE
  5
FC
330
1F
100
AcDbEntity
  8
2D DXF
370
    -3
100
AcDbSpline
210
0.0
220
0.0
230
1.0
 70
     8
 71
     2
 72
     9
 73
     6
 74
     0
 42
0.0000000001
 43
0.0000000001
 40
1.232673681168818
 40
1.232673681168818
 40
1.232673681168818
 40
2.232671278259504
 40
3.232672079229276
 40
4.232672880199047
 40
5.232673681168818
 40
5.232673681168818
 40
5.232673681168818
 10
2.655463413110766
 20
16.24576045673662
 30
0.0
 10
2.665197899694277
 20
16.20306394834084
 30
0.0
 10
2.703478631347053
 20
16.1242085809134
 30
0.0
 10
2.760975718918559
 20
16.05780793349273
 30
0.0
 10
2.837282046210447
 20
16.01339870701543
 30
0.0
 10
2.881284084078743
 20
16.00854781727229
 30
0.0
  0
SPLINE
  5
FD
330
1F
100
AcDbEntity
  8
2D DXF
370
    -3
100
AcDbSpline
210
0.0
220
0.0
230
1.0
 70
    28
 71
     2
 72
     6
 73
     3
 74
     0
 42
0.0000000001
 43
0.0000000001
 40
0.6892278622060378
 40
0.6892278622060378
 40
0.6892278622060378
 40
1.232673681168818
 40
1.232673681168818
 40
1.232673681168818
 10
2.533820956558246
 20
16.77469295045204
 30
0.0
 41
0.8560172248711451
 10
2.594642184834521
 20
16.51022670359433
 30
0.0
 41
0.8560172248711454
 10
2.655463413110796
 20
16.24576045673663
 30
0.0
 41
0.8560172248711457
  0
SPLINE
  5
FE
330
1F
100
AcDbEntity
  8
2D DXF
370
    -3
100
AcDbSpline
210
0.0
220
0.0
230
1.0
 70
     8
 71
     2
 72
     9
 73
     6
 74
     0
 42
0.0000000001
 43
0.0000000001
 40
7.0
 40
7.0
 40
7.0
 40
8.0
 40
9.0
 40
10.0
 40
11.0
 40
11.0
 40
11.0
 10
5.838356816149002
 20
15.12492149738831
 30
0.0
 10
5.822329145970713
 20
15.24660458411724
 30
0.0
 10
5.747680714650926
 20
15.47794693776274
 30
0.0
 10
5.627609197713781
 20
15.6895492970024
 30
0.0
 10
5.461162372484353
 20
15.86758755617029
 30
0.0
 10
5.356385589387713
 20
15.93007998990625
 30
0.0
  0
LINE
  5
FF
330
1F
100
AcDbEntity
  8
2D DXF
370
    -3
100
AcDbLine
 10
7.805796028723933
 20
0.3046794763990022
 30
0.0
 11
5.838356816149002
 21
15.12492149738831
 31
0.0
  0
LINE
  5
100
330
1F
100
AcDbEntity
  8
2D DXF
370
    -3
100
AcDbLine
 10
8.430316942665883
 20
0.387586822570043
 30
0.0
 11
7.805796028723933
 21
0.3046794763990022
 31
0.0
  0
LINE
  5
101
330
1F
100
AcDbEntity
  8
2D DXF
370
    -3
100
AcDbLine
 10
6.462715091256229
 20
15.20905395252741
 30
0.0
 11
8.430316942665883
 21
0.387586822570043
 31
0.0
  0
SPLINE
  5
102
330
1F
100
AcDbEntity
  8
2D DXF
370
    -3
100
AcDbSpline
210
0.0
220
0.0
230
1.0
 70
     8
 71
     2
 72
     9
 73
     6
 74
     0
 42
0.0000000001
 43
0.0000000001
 40
0.0
 40
0.0
 40
0.0
 40
1.00000119212835
 40
2.0000023842567
 40
3.00000357638505
 40
4.0
 40
4.0
 40
4.0
 10
5.065113583985521
 20
16.66292241743487
 30
0.0
 10
5.341464545852318
 20
16.64423290296708
 30
0.0
 10
5.835914355860979
 20
16.395796484168
 30
0.0
 10
6.205939834973151
 20
15.98607734793451
 30
0.0
 10
6.427021893349718
 20
15.4817828147403
 30
0.0
 10
6.462715091256229
 20
15.20905395252741
 30
0.0
  0
LINE
  5
103
330
1F
100
AcDbEntity
  8
2D DXF
370
    -3
100
AcDbLine
 10
7.04385883282373
 20
0.1318630923362889
 30
0.0
 11
7.011386175934661
 21
0.3480908352103143
 31
0.0
  0
SPLINE
  5
104
330
1F
100
AcDbEntity
  8
2D DXF
370
    -3
100
AcDbSpline
210
0.0
220
0.0
230
1.0
 70
     8
 71
     2
 72
    11
 73
     8
 74
     0
 42
0.0000000001
 43
0.0000000001
 40
0.2100281833390025
 40
0.2100281833390025
 40
0.2100281833390025
 40
1.210028183339003
 40
2.210028183339003
 40
3.210028183339003
 40
4.210028183339002
 40
5.210028183339002
 40
6.210028183339002
 40
6.210028183339002
 40
6.210028183339002
 10
7.665372594582067
 20
0.2327062520915888
 30
0.0
 10
7.668842401487154
 20
0.16461266155342
 30
0.0
 10
7.55562627269066
 20
0.1013031460506539
 30
0.0
 10
7.437165850328853
 20
0.0722934374878434
 30
0.0
 10
7.315698888148319
 20
0.0538288552440065
 30
0.0
 10
7.194043974292299
 20
0.0466842425193619
 30
0.0
 10
7.066691208353205
 20
0.0684956632195082
 30
0.0
 10
7.04385883282373
 20
0.1318630923362889
 30
0.0
  0
LINE
  5
105
330
1F
100
AcDbEntity
  8
2D DXF
370
    -3
100
AcDbLine
 10
7.634577244891545
 20
0.440464487148887
 30
0.0
 11
7.665372594582067
 21
0.2327062520915888
 31
0.0
  0
LINE
  5
106
330
1F
100
AcDbEntity
  8
2D DXF
370
    -3
100
AcDbLine
 10
7.834984126032055
 20
0.0879839175858308
 30
0.0
 11
7.805796028723933
 21
0.3046794763990022
 31
0.0
  0
SPLINE
  5
107
330
1F
100
AcDbEntity
  8
2D DXF
370
    -3
100
AcDbSpline
210
0.0
220
0.0
230
1.0
 70
     8
 71
     2
 72
    11
 73
     8
 74
     0
 42
0.0000000001
 43
0.0000000001
 40
0.2100281833390025
 40
0.2100281833390025
 40
0.2100281833390025
 40
1.210028183339003
 40
2.210028183339003
 40
3.210028183339003
 40
4.210028183339002
 40
5.210028183339002
 40
6.210028183339002
 40
6.210028183339002
 40
6.210028183339002
 10
8.457956433621064
 20
0.1793852463598569
 30
0.0
 10
8.460392657705938
 20
0.1112468471671093
 30
0.0
 10
8.346228967283196
 20
0.0496624468540574
 30
0.0
 10
8.22734201763734
 20
0.0224534766245768
 30
0.0
 10
8.105608875374287
 20
0.0058340369961059
 30
0.0
 10
7.983859560859742
 20
0.0005361155611467
 30
0.0
 10
7.856852399792672
 20
0.0242773476897753
 30
0.0
 10
7.834984126032055
 20
0.0879839175858308
 30
0.0
  0
LINE
  5
108
330
1F
100
AcDbEntity
  8
2D DXF
370
    -3
100
AcDbLine
 10
8.43031694266594
 20
0.3875868225700572
 30
0.0
 11
8.457956433621064
 21
0.1793852463598569
 31
0.0
  0
SPLINE
  5
109
330
1F
100
AcDbEntity
  8
2D DXF
370
    -3
100
AcDbSpline
210
0.0
220
0.0
230
1.0
 70
    28
 71
     2
 72
     6
 73
     3
 74
     0
 42
0.0000000001
 43
0.0000000001
 40
4.610333950763096
 40
4.610333950763096
 40
4.610333950763096
 40
5.008596212091838
 40
5.008596212091838
 40
5.008596212091838
 10
3.519592886785347
 20
15.59999016509846
 30
0.0
 41
1.0
 10
3.549961342505938
 20
15.79528877817734
 30
0.0
 41
1.0
 10
3.580329798226529
 20
15.99058739125621
 30
0.0
 41
1.0
  0
SPLINE
  5
10A
330
1F
100
AcDbEntity
  8
2D DXF
370
    -3
100
AcDbSpline
210
0.0
220
0.0
230
1.0
 70
     8
 71
     2
 72
     9
 73
     6
 74
     0
 42
0.0000000001
 43
0.0000000001
 40
0.6103339507630958
 40
0.6103339507630958
 40
0.6103339507630958
 40
1.610333950763096
 40
2.610333950763096
 40
3.610333950763096
 40
4.610333950763096
 40
4.610333950763096
 40
4.610333950763096
 10
3.321060544327764
 20
15.35912056148176
 30
0.0
 10
3.363551220703272
 20
15.3635686458996
 30
0.0
 10
3.432957899457364
 20
15.41242789647735
 30
0.0
 10
3.482262968528403
 20
15.48052691024837
 30
0.0
 10
3.51323523798979
 20
15.55852877685318
 30
0.0
 10
3.519592886785347
 20
15.59999016509846
 30
0.0
  0
SPLINE
  5
10B
330
1F
100
AcDbEntity
  8
2D DXF
370
    -3
100
AcDbSpline
210
0.0
220
0.0
230
1.0
 70
    24
 71
     2
 72
     6
 73
     3
 74
     0
 42
0.0000000001
 43
0.0000000001
 40
-0.0000000000000012
 40
-0.0000000000000012
 40
-0.0000000000000012
 40
0.6103339507630958
 40
0.6103339507630958
 40
0.6103339507630958
 10
2.889393476505802
 20
15.31401909453704
 30
0.0
 10
3.105227010416783
 20
15.3365698280094
 30
0.0
 10
3.321060544327764
 20
15.35912056148176
 30
0.0
  0
SPLINE
  5
10C
330
1F
100
AcDbEntity
  8
2D DXF
370
    -3
100
AcDbSpline
210
0.0
220
0.0
230
1.0
 70
    24
 71
     2
 72
     6
 73
     3
 74
     0
 42
0.0000000001
 43
0.0000000001
 40
4.003985166117586
 40
4.003985166117586
 40
4.003985166117586
 40
4.614319116880683
 40
4.614319116880683
 40
4.614319116880683
 10
3.361042215715429
 20
16.05789842284487
 30
0.0
 10
3.576875749626254
 20
16.03534768937079
 30
0.0
 10
3.792709283537079
 20
16.0127969558967
 30
0.0
  0
SPLINE
  5
10D
330
1F
100
AcDbEntity
  8
2D DXF
370
    -3
100
AcDbSpline
210
0.0
220
0.0
230
1.0
 70
     8
 71
     2
 72
     9
 73
     6
 74
     0
 42
0.0000000001
 43
0.0000000001
 40
0.0039851661175855
 40
0.0039851661175855
 40
0.0039851661175855
 40
1.003985166117586
 40
2.003985166117586
 40
3.003985166117586
 40
4.003985166117586
 40
4.003985166117586
 40
4.003985166117586
 10
3.162509870579044
 20
16.29876802632778
 30
0.0
 10
3.169233955207119
 20
16.25740048444632
 30
0.0
 10
3.19980503543826
 20
16.17928644799697
 30
0.0
 10
3.248841141810686
 20
16.11095880271078
 30
0.0
 10
3.318721217437343
 20
16.0629024092287
 30
0.0
 10
3.361042215715429
 20
16.05789842284487
 30
0.0
  0
SPLINE
  5
10E
330
1F
100
AcDbEntity
  8
2D DXF
370
    -3
100
AcDbSpline
210
0.0
220
0.0
230
1.0
 70
    28
 71
     2
 72
     6
 73
     3
 74
     0
 42
0.0000000001
 43
0.0000000001
 40
-0.5528646837850709
 40
-0.5528646837850709
 40
-0.5528646837850709
 40
0.0039851661175855
 40
0.0039851661175855
 40
0.0039851661175855
 10
3.077587582171907
 20
16.84490063239675
 30
0.0
 41
1.0
 10
3.120048726375464
 20
16.57183432936227
 30
0.0
 41
1.0
 10
3.162509870579021
 20
16.29876802632779
 30
0.0
 41
1.0
  0
SPLINE
  5
10F
330
1F
100
AcDbEntity
  8
2D DXF
370
    -3
100
AcDbSpline
210
0.0
220
0.0
230
1.0
 70
    24
 71
     2
 72
     6
 73
     3
 74
     0
 42
0.0000000001
 43
0.0000000001
 40
0.000000000000001
 40
0.000000000000001
 40
0.000000000000001
 40
0.6103339507630969
 40
0.6103339507630969
 40
0.6103339507630969
 10
2.88938326515887
 20
16.00857473258665
 30
0.0
 10
3.105216799069694
 20
15.98602399911258
 30
0.0
 10
3.321050332980519
 20
15.9634732656385
 30
0.0
  0
SPLINE
  5
110
330
1F
100
AcDbEntity
  8
2D DXF
370
    -3
100
AcDbSpline
210
0.0
220
0.0
230
1.0
 70
    12
 71
     2
 72
     6
 73
     3
 74
     0
 42
0.0000000001
 43
0.0000000001
 40
0.0931404683516954
 40
0.0931404683516954
 40
0.0931404683516954
 40
0.1158637182037069
 40
0.1158637182037069
 40
0.1158637182037069
 10
3.383678899084642
 20
15.26897396123583
 30
0.0
 41
0.8892833237614565
 10
3.376795171770833
 20
15.26546652698203
 30
0.0
 41
0.9105152908287699
 10
3.369365739343326
 20
15.2646902845342
 30
0.0
 41
0.9486969526683089
  0
SPLINE
  5
111
330
1F
100
AcDbEntity
  8
2D DXF
370
    -3
100
AcDbSpline
210
0.0
220
0.0
230
1.0
 70
     8
 71
     3
 72
     8
 73
     4
 74
     0
 42
0.0000000001
 43
0.0000000001
 40
2.044911702315788
 40
2.044911702315788
 40
2.044911702315788
 40
2.044911702315788
 40
2.115874797478824
 40
2.115874797478824
 40
2.115874797478824
 40
2.115874797478824
 10
2.692861410455237
 20
16.78980002231084
 30
0.0
 10
2.689135840318187
 20
16.79247634006086
 30
0.0
 10
2.687223647359161
 20
16.79532115338925
 30
0.0
 10
2.687272082313228
 20
16.79834372399741
 30
0.0
  0
SPLINE
  5
112
330
1F
100
AcDbEntity
  8
2D DXF
370
    -3
100
AcDbSpline
210
0.0
220
0.0
230
1.0
 70
    28
 71
     3
 72
     8
 73
     4
 74
     0
 42
0.0000000001
 43
0.0000000001
 40
1.99450461069922
 40
1.99450461069922
 40
1.99450461069922
 40
1.99450461069922
 40
5.584448213357721
 40
5.584448213357721
 40
5.584448213357721
 40
5.584448213357721
 10
2.604461495640181
 20
16.46902640539975
 30
0.0
 41
0.8566589076371487
 10
1.75849153043075
 20
16.38055919659442
 30
0.0
 41
0.8566589076371486
 10
0.9125215652213863
 20
16.29209198778913
 30
0.0
 41
0.8566589076371487
 10
0.0665516000120226
 20
16.20362477898384
 30
0.0
 41
0.8566589076371488
  0
SPLINE
  5
113
330
1F
100
AcDbEntity
  8
2D DXF
370
    -3
100
AcDbSpline
210
0.0
220
0.0
230
1.0
 70
    28
 71
     3
 72
     8
 73
     4
 74
     0
 42
0.0000000001
 43
0.0000000001
 40
0.1480224217458351
 40
0.1480224217458351
 40
0.1480224217458351
 40
0.1480224217458351
 40
0.8593290760227089
 40
0.8593290760227089
 40
0.8593290760227089
 40
0.8593290760227089
 10
4.694226486414556
 20
15.99341967598208
 30
0.0
 41
0.8547228508968872
 10
4.496555318099122
 20
15.95188481494588
 30
0.0
 41
0.8547228508968868
 10
4.298884149784718
 20
15.91034995390987
 30
0.0
 41
0.854722850896887
 10
4.101212981469008
 20
15.86881509287362
 30
0.0
 41
0.8547228508968873
  0
SPLINE
  5
114
330
1F
100
AcDbEntity
  8
2D DXF
370
    -3
100
AcDbSpline
210
0.0
220
0.0
230
1.0
 70
     8
 71
     3
 72
     8
 73
     4
 74
     0
 42
0.0000000001
 43
0.0000000001
 40
2.705597747790026
 40
2.705597747790026
 40
2.705597747790026
 40
2.705597747790026
 40
2.723204868881017
 40
2.723204868881017
 40
2.723204868881017
 40
2.723204868881017
 10
5.460518016910243
 20
17.42308374370009
 30
0.0
 10
5.463879234360462
 20
17.42274367479617
 30
0.0
 10
5.467238429228132
 20
17.42241373065298
 30
0.0
 10
5.47059540355707
 20
17.42209379808209
 30
0.0
  0
LINE
  5
115
330
1F
100
AcDbEntity
  8
2D DXF
370
    -3
100
AcDbLine
 10
38.79312795248617
 20
0.2417840159392028
 30
0.0
 11
38.75076804286928
 21
0.4562940350317035
 31
0.0
  0
SPLINE
  5
116
330
1F
100
AcDbEntity
  8
2D DXF
370
    -3
100
AcDbSpline
210
0.0
220
0.0
230
1.0
 70
     8
 71
     2
 72
    11
 73
     8
 74
     0
 42
0.0000000001
 43
0.0000000001
 40
0.2100281833390025
 40
0.2100281833390025
 40
0.2100281833390025
 40
1.210028183339003
 40
2.210028183339003
 40
3.210028183339003
 40
4.210028183339002
 40
5.210028183339002
 40
6.210028183339002
 40
6.210028183339002
 40
6.210028183339002
 10
38.17402007256155
 20
0.1270925518292785
 30
0.0
 10
38.19372034494396
 20
0.0618186987148874
 30
0.0
 10
38.3216555892576
 20
0.0404046884584801
 30
0.0
 10
38.44295911338517
 20
0.0530494459204078
 30
0.0
 10
38.56353632064094
 20
0.076635475454907
 30
0.0
 10
38.68047244122855
 20
0.1109415573970409
 30
0.0
 10
38.79300618331015
 20
0.1744287368776725
 30
0.0
 10
38.79312795248617
 20
0.2417840159392028
 30
0.0
  0
LINE
  5
117
330
1F
100
AcDbEntity
  8
2D DXF
370
    -3
100
AcDbLine
 10
38.13293775481571
 20
0.3330636201017825
 30
0.0
 11
38.17402007256155
 21
0.1270925518292785
 31
0.0
  0
LINE
  5
118
330
1F
100
AcDbEntity
  8
2D DXF
370
    -3
100
AcDbLine
 10
22.36331182236168
 20
0.0731461249276606
 30
0.0
 11
22.40411211221866
 21
0.2879582441886726
 31
0.0
  0
SPLINE
  5
119
330
1F
100
AcDbEntity
  8
2D DXF
370
    -3
100
AcDbSpline
210
0.0
220
0.0
230
1.0
 70
     8
 71
     2
 72
    11
 73
     8
 74
     0
 42
0.0000000001
 43
0.0000000001
 40
0.2100281833390025
 40
0.2100281833390025
 40
0.2100281833390025
 40
1.210028183339003
 40
2.210028183339003
 40
3.210028183339003
 40
4.210028183339002
 40
5.210028183339002
 40
6.210028183339002
 40
6.210028183339002
 40
6.210028183339002
 10
21.74615695562395
 20
0.1979201983015741
 30
0.0
 10
21.74005960145541
 20
0.1300114440464455
 30
0.0
 10
21.85074589415848
 20
0.0623761634563493
 30
0.0
 10
21.96799740788151
 20
0.0288125315507557
 30
0.0
 10
22.08866052668773
 20
0.0056700282558211
 30
0.0
 10
22.20994869433062
 20
-0.0061682125819971
 30
0.0
 10
22.33804889810048
 20
0.0107078906239906
 30
0.0
 10
22.36331182236168
 20
0.0731461249276606
 30
0.0
  0
LINE
  5
11A
330
1F
100
AcDbEntity
  8
2D DXF
370
    -3
100
AcDbLine
 10
21.78495405252033
 20
0.4043339165208124
 30
0.0
 11
21.74615695562395
 21
0.1979201983015741
 31
0.0
  0
SPLINE
  5
11B
330
1F
100
AcDbEntity
  8
2D DXF
370
    -3
100
AcDbSpline
210
0.0
220
0.0
230
1.0
 70
     8
 71
     2
 72
    11
 73
     8
 74
     0
 42
0.0000000001
 43
0.0000000001
 40
1.632577816608413
 40
1.632577816608413
 40
1.632577816608413
 40
2.632577427346236
 40
3.632577505198671
 40
4.632577583051106
 40
5.632577660903541
 40
6.632577738755977
 40
7.632577816608412
 40
7.632577816608412
 40
7.632577816608412
 10
22.14098062733447
 20
22.15608507065471
 30
0.0
 10
22.15820839966855
 20
22.20369537056213
 30
0.0
 10
22.1651955013439
 20
22.30466706029011
 30
0.0
 10
22.1642316178243
 20
22.40538590665317
 30
0.0
 10
22.15733999146508
 20
22.50593834819041
 30
0.0
 10
22.14586795407766
 20
22.60604937284178
 30
0.0
 10
22.13041136913515
 20
22.70562350252594
 30
0.0
 10
22.12080208837764
 20
22.75508127297222
 30
0.0
  0
SPLINE
  5
11C
330
1F
100
AcDbEntity
  8
2D DXF
370
    -3
100
AcDbSpline
210
0.0
220
0.0
230
1.0
 70
     8
 71
     3
 72
    11
 73
     7
 74
     0
 42
0.0000000001
 43
0.0000000001
 40
1.106384034209326
 40
1.106384034209326
 40
1.106384034209326
 40
1.106384034209326
 40
1.617990370078946
 40
1.617990370078946
 40
1.617990370078946
 40
1.632577816608413
 40
1.632577816608413
 40
1.632577816608413
 40
1.632577816608413
 10
21.92393625423742
 20
21.67855976156238
 30
0.0
 10
21.99429621182239
 20
21.83338570079769
 30
0.0
 10
22.06464246626544
 20
21.98816466767107
 30
0.0
 10
22.1349629510544
 20
22.14284946234913
 30
0.0
 10
22.13696869546916
 20
22.14726152184927
 30
0.0
 10
22.1389744077218
 20
22.15167347640983
 30
0.0
 10
22.14098062733447
 20
22.15608507065471
 30
0.0
  0
SPLINE
  5
11D
330
1F
100
AcDbEntity
  8
2D DXF
370
    -3
100
AcDbSpline
210
0.0
220
0.0
230
1.0
 70
     8
 71
     3
 72
     8
 73
     4
 74
     0
 42
0.0000000001
 43
0.0000000001
 40
2.942255389416193
 40
2.942255389416193
 40
2.942255389416193
 40
2.942255389416193
 40
3.256087856163177
 40
3.256087856163177
 40
3.256087856163177
 40
3.256087856163177
 10
21.76264698546416
 20
24.18221059833412
 30
0.0
 10
21.67782995290858
 20
24.12087658448334
 30
0.0
 10
21.59302675284587
 20
24.05960633315463
 30
0.0
 10
21.50820769490437
 20
23.99844354844663
 30
0.0
  0
SPLINE
  5
11E
330
1F
100
AcDbEntity
  8
2D DXF
370
    -3
100
AcDbSpline
210
0.0
220
0.0
230
1.0
 70
     8
 71
     3
 72
     8
 73
     4
 74
     0
 42
0.0000000001
 43
0.0000000001
 40
2.868978274657099
 40
2.868978274657099
 40
2.868978274657099
 40
2.868978274657099
 40
2.942255389416193
 40
2.942255389416193
 40
2.942255389416193
 40
2.942255389416193
 10
21.77354074423616
 20
24.18595264183514
 30
0.0
 10
21.76962948814875
 20
24.18587535713012
 30
0.0
 10
21.76599391712691
 20
24.18463079015673
 30
0.0
 10
21.76264698546416
 20
24.18221059833412
 30
0.0
  0
SPLINE
  5
11F
330
1F
100
AcDbEntity
  8
2D DXF
370
    -3
100
AcDbSpline
210
0.0
220
0.0
230
1.0
 70
     8
 71
     3
 72
    11
 73
     7
 74
     0
 42
0.0000000001
 43
0.0000000001
 40
2.0
 40
2.0
 40
2.0
 40
2.0
 40
2.50156835232133
 40
2.50156835232133
 40
2.50156835232133
 40
2.868978274657099
 40
2.868978274657099
 40
2.868978274657099
 40
2.868978274657099
 10
21.96438857753233
 20
23.60485769282523
 30
0.0
 10
21.93369392652855
 20
23.75301534722496
 30
0.0
 10
21.89243706375785
 20
23.93481572517051
 30
0.0
 10
21.85193992514294
 20
24.053277624834
 30
0.0
 10
21.81941638590175
 20
24.14841521662592
 30
0.0
 10
21.79356629092544
 20
24.18647686527652
 30
0.0
 10
21.77354074423616
 20
24.18595264183514
 30
0.0
  0
SPLINE
  5
120
330
1F
100
AcDbEntity
  8
2D DXF
370
    -3
100
AcDbSpline
210
0.0
220
0.0
230
1.0
 70
     8
 71
     2
 72
     7
 73
     4
 74
     0
 42
0.0000000001
 43
0.0000000001
 40
0.0
 40
0.0
 40
0.0
 40
1.0
 40
2.0
 40
2.0
 40
2.0
 10
22.12080208837759
 20
22.75508127297223
 30
0.0
 10
22.11525724584138
 20
22.78359937771002
 30
0.0
 10
21.97454493617963
 20
23.57751831652847
 30
0.0
 10
21.96438857753233
 20
23.60485769282523
 30
0.0
  0
SPLINE
  5
121
330
1F
100
AcDbEntity
  8
2D DXF
370
    -3
100
AcDbSpline
210
0.0
220
0.0
230
1.0
 70
     8
 71
     2
 72
    18
 73
    15
 74
     0
 42
0.0000000001
 43
0.0000000001
 40
0.0
 40
0.0
 40
0.0
 40
1.0
 40
2.0
 40
3.0
 40
4.0
 40
5.0
 40
6.0
 40
7.0
 40
8.0
 40
9.0
 40
10.0
 40
11.0
 40
12.0
 40
12.99112390467558
 40
12.99112390467558
 40
12.99112390467558
 10
18.61382487169092
 20
29.26041752665243
 30
0.0
 10
18.85450918679001
 20
29.19571168920231
 30
0.0
 10
19.32887044780355
 20
29.04195503592111
 30
0.0
 10
19.78212114030825
 20
28.83144112572968
 30
0.0
 10
20.17772087716187
 20
28.52399879773643
 30
0.0
 10
20.47779005573594
 20
28.12293206734286
 30
0.0
 10
20.68796207505775
 20
27.66977755087716
 30
0.0
 10
20.84244760884454
 20
27.19564717586418
 30
0.0
 10
20.98675179063005
 20
26.71861932448012
 30
0.0
 10
21.11693684291302
 20
26.23748292826379
 30
0.0
 10
21.23517091320608
 20
25.75329181778666
 30
0.0
 10
21.34215052976745
 20
25.26649157455338
 30
0.0
 10
21.43935252497656
 20
24.77765519761191
 30
0.0
 10
21.53186777703414
 20
24.2901699321593
 30
0.0
 10
21.57563760361975
 20
24.04709090746303
 30
0.0
  0
SPLINE
  5
122
330
1F
100
AcDbEntity
  8
2D DXF
370
    -3
100
AcDbSpline
210
0.0
220
0.0
230
1.0
 70
     8
 71
     2
 72
    53
 73
    50
 74
     0
 42
0.0000000001
 43
0.0000000001
 40
0.0854334264385601
 40
0.0854334264385601
 40
0.0854334264385601
 40
1.0
 40
2.0
 40
3.0
 40
4.0
 40
5.0
 40
6.0
 40
7.0
 40
8.0
 40
9.0
 40
10.0
 40
11.0
 40
12.0
 40
13.0
 40
14.0
 40
15.0
 40
16.0
 40
17.0
 40
18.0
 40
19.0
 40
20.0
 40
21.0
 40
22.0
 40
23.0
 40
24.0
 40
25.0
 40
26.0
 40
27.0
 40
28.0
 40
29.0
 40
30.0
 40
31.0
 40
32.0
 40
33.0
 40
34.0
 40
35.0
 40
36.0
 40
37.0
 40
38.0
 40
39.0
 40
40.0
 40
41.0
 40
42.0
 40
43.0
 40
44.0
 40
45.0
 40
46.0
 40
47.0
 40
48.0
 40
48.0
 40
48.0
 10
39.40722823314215
 20
16.65804318938856
 30
0.0
 10
39.1950957451526
 20
16.765247554016
 30
0.0
 10
38.76680602858383
 20
17.01855921271169
 30
0.0
 10
38.31479605531609
 20
17.27505992925585
 30
0.0
 10
37.8485793984045
 20
17.50490870272525
 30
0.0
 10
37.36992631017395
 20
17.70813258196898
 30
0.0
 10
36.87233679150361
 20
17.85947706845971
 30
0.0
 10
36.3640730727233
 20
17.96880416266973
 30
0.0
 10
35.8501092400555
 20
18.04646474184921
 30
0.0
 10
35.33298633821951
 20
18.09868652172135
 30
0.0
 10
34.81421862479763
 20
18.1302027794501
 30
0.0
 10
34.29471057695733
 20
18.14456542973235
 30
0.0
 10
33.77501455630582
 20
18.14452202209846
 30
0.0
 10
33.25546707934259
 20
18.13245744085576
 30
0.0
 10
32.73626785823748
 20
18.1100496145017
 30
0.0
 10
32.21754021204251
 20
18.07862157340104
 30
0.0
 10
31.69934728585011
 20
18.03939691797413
 30
0.0
 10
31.18166499159943
 20
17.99395977941109
 30
0.0
 10
30.6643961794567
 20
17.94406614681519
 30
0.0
 10
30.14746852475665
 20
17.89075664775552
 30
0.0
 10
29.63085854444594
 20
17.83445447502417
 30
0.0
 10
29.11459891276868
 20
17.77502788825572
 30
0.0
 10
28.59865405297089
 20
17.71292627245879
 30
0.0
 10
28.08303350779855
 20
17.6481907671976
 30
0.0
 10
27.56766615114597
 20
17.58147342024304
 30
0.0
 10
27.05246624994729
 20
17.51347703735969
 30
0.0
 10
26.53733156426202
 20
17.44498977155504
 30
0.0
 10
26.02207107175175
 20
17.37744798707375
 30
0.0
 10
25.50640127332278
 20
17.31309868902044
 30
0.0
 10
24.99008935253531
 20
17.25401638704876
 30
0.0
 10
24.47257122280379
 20
17.20650556196041
 30
0.0
 10
23.95312411330448
 20
17.18312828310302
 30
0.0
 10
23.43390292457914
 20
17.21700278096061
 30
0.0
 10
22.92484942513116
 20
17.33593812623725
 30
0.0
 10
22.48080133668694
 20
17.6155245585278
 30
0.0
 10
22.1603745616093
 20
18.03085916273638
 30
0.0
 10
21.97893223066572
 20
18.52036101907588
 30
0.0
 10
21.87372259880286
 20
19.02983115374715
 30
0.0
 10
21.81171034414919
 20
19.54592388344911
 30
0.0
 10
21.77815870440762
 20
20.06458793597282
 30
0.0
 10
21.75229912152085
 20
20.58360453226238
 30
0.0
 10
21.72432945083139
 20
21.10252620517053
 30
0.0
 10
21.68749349619375
 20
21.62090191555816
 30
0.0
 10
21.63797628681633
 20
22.13825670735383
 30
0.0
 10
21.5717373800359
 20
22.65365246681765
 30
0.0
 10
21.49432312886054
 20
23.16789501576611
 30
0.0
 10
21.37856415912219
 20
23.67367201423291
 30
0.0
 10
21.1971478955559
 20
24.16805929435661
 30
0.0
 10
20.83906417707541
 20
24.54207813736413
 30
0.0
 10
20.57908540685881
 20
24.61256164312408
 30
0.0
  0
SPLINE
  5
123
330
1F
100
AcDbEntity
  8
2D DXF
370
    -3
100
AcDbSpline
210
0.0
220
0.0
230
1.0
 70
     8
 71
     2
 72
    11
 73
     8
 74
     0
 42
0.0000000001
 43
0.0000000001
 40
21.0
 40
21.0
 40
21.0
 40
22.0
 40
23.0
 40
24.0
 40
25.0
 40
26.0
 40
27.0
 40
27.0
 40
27.0
 10
18.62888783909469
 20
29.53075931125194
 30
0.0
 10
18.59453544744267
 20
29.5377902833426
 30
0.0
 10
18.53250652456475
 20
29.50685797057659
 30
0.0
 10
18.50524029549453
 20
29.44324418676241
 30
0.0
 10
18.50243668021321
 20
29.37600377736983
 30
0.0
 10
18.52979824501168
 20
29.31376902886824
 30
0.0
 10
18.5811233358996
 20
29.26945338362313
 30
0.0
 10
18.61382487169092
 20
29.26041752665243
 30
0.0
  0
SPLINE
  5
124
330
1F
100
AcDbEntity
  8
2D DXF
370
    -3
100
AcDbSpline
210
0.0
220
0.0
230
1.0
 70
     8
 71
     2
 72
    19
 73
    16
 74
     0
 42
0.0000000001
 43
0.0000000001
 40
7.0
 40
7.0
 40
7.0
 40
8.0
 40
9.0
 40
10.0
 40
11.0
 40
12.0
 40
13.0
 40
14.0
 40
15.0
 40
16.0
 40
17.0
 40
18.0
 40
19.0
 40
20.0
 40
21.0
 40
21.0
 40
21.0
 10
22.4660075553405
 20
19.11118238138536
 30
0.0
 10
22.77597487757245
 20
19.46659464816052
 30
0.0
 10
23.20505532908177
 20
20.30518230046597
 30
0.0
 10
23.42337447785891
 20
21.22099103312219
 30
0.0
 10
23.51175306451145
 20
22.15581723213954
 30
0.0
 10
23.5043780846257
 20
23.09457047067416
 30
0.0
 10
23.42186595763931
 20
24.0293747647665
 30
0.0
 10
23.27786065020902
 20
24.95690108067477
 30
0.0
 10
23.05231414609554
 20
25.86825086538087
 30
0.0
 10
22.71620227557375
 20
26.74591171421244
 30
0.0
 10
22.25173426404493
 20
27.56282180530982
 30
0.0
 10
21.64434186692071
 20
28.28391760408122
 30
0.0
 10
20.85701838236892
 20
28.80460002333029
 30
0.0
 10
19.97931315044312
 20
29.13978676687317
 30
0.0
 10
19.08874313509492
 20
29.43663981632207
 30
0.0
 10
18.62888783909469
 20
29.53075931125194
 30
0.0
  0
SPLINE
  5
125
330
1F
100
AcDbEntity
  8
2D DXF
370
    -3
100
AcDbSpline
210
0.0
220
0.0
230
1.0
 70
     8
 71
     2
 72
     9
 73
     6
 74
     0
 42
0.0000000001
 43
0.0000000001
 40
3.0
 40
3.0
 40
3.0
 40
4.0
 40
5.0
 40
6.0
 40
7.0
 40
7.0
 40
7.0
 10
22.22015741628914
 20
19.21483133300495
 30
0.0
 10
22.2239135856685
 20
19.17311643458677
 30
0.0
 10
22.2733012391366
 20
19.10536787166561
 30
0.0
 10
22.35059629113655
 20
19.07361325881681
 30
0.0
 10
22.4385787784253
 20
19.07973221525785
 30
0.0
 10
22.4660075553405
 20
19.11118238138536
 30
0.0
  0
SPLINE
  5
126
330
1F
100
AcDbEntity
  8
2D DXF
370
    -3
100
AcDbSpline
210
0.0
220
0.0
230
1.0
 70
     8
 71
     2
 72
     8
 73
     5
 74
     0
 42
0.0000000001
 43
0.0000000001
 40
0.0
 40
0.0
 40
0.0
 40
1.0
 40
2.0
 40
3.0
 40
3.0
 40
3.0
 10
21.94069472953569
 20
21.71543618476797
 30
0.0
 10
21.99594241268815
 20
21.29968981008078
 30
0.0
 10
22.09725770837568
 20
20.46700781044019
 30
0.0
 10
22.18383461294175
 20
19.63266614356817
 30
0.0
 10
22.22015741628914
 20
19.21483133300495
 30
0.0
  0
SPLINE
  5
127
330
1F
100
AcDbEntity
  8
2D DXF
370
    -3
100
AcDbSpline
210
0.0
220
0.0
230
1.0
 70
     8
 71
     2
 72
    19
 73
    16
 74
     0
 42
0.0000000001
 43
0.0000000001
 40
0.0
 40
0.0
 40
0.0
 40
1.0
 40
2.0
 40
3.0
 40
4.0
 40
5.0
 40
6.0
 40
7.0
 40
8.0
 40
9.0
 40
10.0
 40
11.0
 40
12.0
 40
13.0
 40
14.0
 40
14.0
 40
14.0
 10
18.61832681120958
 20
29.25977103339936
 30
0.0
 10
19.05834734354639
 20
29.16313721839047
 30
0.0
 10
19.91173471844323
 20
28.87300796098148
 30
0.0
 10
20.74379755851194
 20
28.52636359735938
 30
0.0
 10
21.51026483943068
 20
28.04481703248264
 30
0.0
 10
22.081847181146
 20
27.33997563438622
 30
0.0
 10
22.50667614741232
 20
26.54444339954253
 30
0.0
 10
22.81932838093584
 20
25.6983624657897
 30
0.0
 10
23.02409037339984
 20
24.82077091251374
 30
0.0
 10
23.15964016919392
 20
23.93008852489656
 30
0.0
 10
23.23441157208109
 20
23.03229163381064
 30
0.0
 10
23.23771551088234
 20
22.1311167613362
 30
0.0
 10
23.14972643170492
 20
21.23406778292102
 30
0.0
 10
22.93818233411506
 20
20.35527256087848
 30
0.0
 10
22.52097177284375
 20
19.55282105782759
 30
0.0
 10
22.2201559880277
 20
19.21483123580816
 30
0.0
  0
SPLINE
  5
128
330
1F
100
AcDbEntity
  8
2D DXF
370
    -3
100
AcDbSpline
210
0.0
220
0.0
230
1.0
 70
    24
 71
     2
 72
     6
 73
     3
 74
     0
 42
0.0000000001
 43
0.0000000001
 40
0.0000269165430604
 40
0.0000269165430604
 40
0.0000269165430604
 40
0.3195090605941237
 40
0.3195090605941237
 40
0.3195090605941237
 10
22.12080208837759
 20
22.75508127297223
 30
0.0
 10
21.96236676669164
 20
22.74013510345871
 30
0.0
 10
21.8039314450057
 20
22.72518893394518
 30
0.0
  0
SPLINE
  5
129
330
1F
100
AcDbEntity
  8
2D DXF
370
    -3
100
AcDbSpline
210
0.0
220
0.0
230
1.0
 70
     8
 71
     3
 72
    29
 73
    25
 74
     0
 42
0.0000000001
 43
0.0000000001
 40
0.0
 40
0.0
 40
0.0
 40
0.0
 40
1.0
 40
2.0
 40
3.0
 40
4.0
 40
5.0
 40
6.0
 40
7.0
 40
8.0
 40
9.0
 40
10.0
 40
11.0
 40
12.0
 40
13.0
 40
14.0
 40
15.0
 40
16.0
 40
17.0
 40
18.0
 40
19.0
 40
20.0
 40
21.0
 40
22.0
 40
22.0
 40
22.0
 40
22.0
 10
0.0016128930883497
 20
16.63519216132703
 30
0.0
 10
-0.1316191078635143
 20
16.63519037814575
 30
0.0
 10
-0.3961060591122987
 20
16.63710835762458
 30
0.0
 10
-0.7927478102751024
 20
16.64603672353516
 30
0.0
 10
-1.189192417729714
 20
16.66145355710988
 30
0.0
 10
-1.585300580736885
 20
16.68396029310342
 30
0.0
 10
-1.980895275307319
 20
16.71423502039524
 30
0.0
 10
-2.375734203312106
 20
16.75318681246723
 30
0.0
 10
-2.769536886223477
 20
16.80154985232029
 30
0.0
 10
-3.161947763731973
 20
16.86016967624006
 30
0.0
 10
-3.552608554292419
 20
16.92952106594028
 30
0.0
 10
-3.94114876289342
 20
17.00991760720129
 30
0.0
 10
-4.327312305691521
 20
17.10101104530494
 30
0.0
 10
-4.711186830407257
 20
17.20128159099285
 30
0.0
 10
-5.092906757850471
 20
17.30944859573485
 30
0.0
 10
-5.472448616926613
 20
17.42501741166775
 30
0.0
 10
-5.849830278033437
 20
17.54745038072491
 30
0.0
 10
-6.224967052455554
 20
17.67661751655261
 30
0.0
 10
-6.6007611469322
 20
17.80360582955011
 30
0.0
 10
-6.979309525009171
 20
17.92324347607571
 30
0.0
 10
-7.36039754679382
 20
18.0305306724586
 30
0.0
 10
-7.749981794428948
 20
18.12205051420602
 30
0.0
 10
-8.132667947384846
 20
18.17012619335487
 30
0.0
 10
-8.426137819202722
 20
18.17411346467976
 30
0.0
 10
-8.497387849837423
 20
18.05234820661333
 30
0.0
  0
SPLINE
  5
12A
330
1F
100
AcDbEntity
  8
2D DXF
370
    -3
100
AcDbSpline
210
0.0
220
0.0
230
1.0
 70
     8
 71
     3
 72
    29
 73
    25
 74
     0
 42
0.0000000001
 43
0.0000000001
 40
-22.0
 40
-22.0
 40
-22.0
 40
-22.0
 40
-21.0
 40
-20.0
 40
-19.0
 40
-18.0
 40
-17.0
 40
-16.0
 40
-15.0
 40
-14.0
 40
-13.0
 40
-12.0
 40
-11.0
 40
-10.0
 40
-9.0
 40
-8.0
 40
-7.0
 40
-6.0
 40
-5.0
 40
-4.0
 40
-3.0
 40
-2.0
 40
-1.0
 40
0.0
 40
0.0
 40
0.0
 40
0.0
 10
8.500613636014123
 20
18.05234820661333
 30
0.0
 10
8.429363605379422
 20
18.17411346467976
 30
0.0
 10
8.135893733561545
 20
18.17012619335487
 30
0.0
 10
7.753207580605647
 20
18.12205051420602
 30
0.0
 10
7.363623332970519
 20
18.0305306724586
 30
0.0
 10
6.98253531118587
 20
17.92324347607571
 30
0.0
 10
6.603986933108899
 20
17.80360582955011
 30
0.0
 10
6.228192838632253
 20
17.67661751655261
 30
0.0
 10
5.853056064210136
 20
17.54745038072491
 30
0.0
 10
5.475674403103312
 20
17.42501741166775
 30
0.0
 10
5.096132544027171
 20
17.30944859573485
 30
0.0
 10
4.714412616583957
 20
17.20128159099285
 30
0.0
 10
4.33053809186822
 20
17.10101104530494
 30
0.0
 10
3.944374549070119
 20
17.00991760720129
 30
0.0
 10
3.555834340469119
 20
16.92952106594028
 30
0.0
 10
3.165173549908673
 20
16.86016967624006
 30
0.0
 10
2.772762672400177
 20
16.80154985232029
 30
0.0
 10
2.378959989488806
 20
16.75318681246723
 30
0.0
 10
1.984121061484018
 20
16.71423502039524
 30
0.0
 10
1.588526366913584
 20
16.68396029310342
 30
0.0
 10
1.192418203906414
 20
16.66145355710988
 30
0.0
 10
0.7959735964518018
 20
16.64603672353516
 30
0.0
 10
0.399331845288998
 20
16.63710835762458
 30
0.0
 10
0.1348448940402136
 20
16.63519037814575
 30
0.0
 10
0.0016128930883497
 20
16.63519216132703
 30
0.0
  0
SPLINE
  5
12B
330
1F
100
AcDbEntity
  8
2D DXF
370
    -3
100
AcDbSpline
210
0.0
220
0.0
230
1.0
 70
    11
 71
     3
 72
    65
 73
    61
 74
     0
 42
0.0000000001
 43
0.0000000001
 40
0.0
 40
0.0
 40
0.0
 40
0.0
 40
1.0
 40
2.0
 40
3.0
 40
4.0
 40
5.0
 40
6.0
 40
7.0
 40
8.0
 40
9.0
 40
10.0
 40
11.0
 40
12.0
 40
13.0
 40
13.0
 40
13.0
 40
14.0
 40
15.0
 40
16.0
 40
17.0
 40
18.0
 40
19.0
 40
20.0
 40
21.0
 40
22.0
 40
23.0
 40
24.0
 40
25.0
 40
26.0
 40
26.0
 40
26.0
 40
27.0
 40
28.0
 40
29.0
 40
30.0
 40
31.0
 40
32.0
 40
33.0
 40
34.0
 40
35.0
 40
36.0
 40
37.0
 40
38.0
 40
39.0
 40
39.0
 40
39.0
 40
40.0
 40
41.0
 40
42.0
 40
43.0
 40
44.0
 40
45.0
 40
46.0
 40
47.0
 40
48.0
 40
49.0
 40
50.0
 40
51.0
 40
52.0
 40
52.0
 40
52.0
 40
52.0
 10
0.0010564856949031
 20
19.08099259887329
 30
0.0
 10
-0.2838437846627357
 20
19.08099259887329
 30
0.0
 10
-0.9584964654818577
 20
19.10671054852055
 30
0.0
 10
-1.808377658844108
 20
19.20301218934601
 30
0.0
 10
-2.647838271463513
 20
19.36790014246249
 30
0.0
 10
-3.469184288430483
 20
19.60759048428955
 30
0.0
 10
-4.264408044368224
 20
19.92374343424972
 30
0.0
 10
-5.02183477384159
 20
20.32269786481798
 30
0.0
 10
-5.726372787487946
 20
20.80960874693646
 30
0.0
 10
-6.360055217312947
 20
21.38627738665842
 30
0.0
 10
-6.903240394177203
 20
22.04942791570078
 30
0.0
 10
-7.336493715203119
 20
22.78926785929492
 30
0.0
 10
-7.648588572016308
 20
23.58779626963312
 30
0.0
 10
-7.832917347837281
 20
24.42493145402211
 30
0.0
 10
-7.872185154157648
 20
24.99914863555013
 30
0.0
 10
-7.873302663609877
 20
25.28402485760698
 30
0.0
 10
-7.874352121513937
 20
25.55155333561268
 30
0.0
 10
-7.843064169399383
 20
26.09039885913684
 30
0.0
 10
-7.701423374126591
 20
26.88300977664987
 30
0.0
 10
-7.437922432499306
 20
27.64034493884097
 30
0.0
 10
-7.022648201255379
 20
28.34736211977898
 30
0.0
 10
-6.34119772203502
 20
28.79125866460207
 30
0.0
 10
-5.580974606212123
 20
29.05656049831391
 30
0.0
 10
-4.798701422417537
 20
29.23674551951147
 30
0.0
 10
-4.004852353142894
 20
29.35648653417498
 30
0.0
 10
-3.206525370233635
 20
29.43777169066077
 30
0.0
 10
-2.405771345065091
 20
29.48988886007139
 30
0.0
 10
-1.60394079363806
 20
29.51973677153764
 30
0.0
 10
-0.801700761481527
 20
29.5336676723541
 30
0.0
 10
-0.2668068326962612
 20
29.53560427524586
 30
0.0
 10
0.0010564856949031
 20
29.53560145052708
 30
0.0
 10
0.2689198040860674
 20
29.53560427524586
 30
0.0
 10
0.8038137328713333
 20
29.5336676723541
 30
0.0
 10
1.606053765027866
 20
29.51973677153764
 30
0.0
 10
2.407884316454897
 20
29.48988886007139
 30
0.0
 10
3.208638341623441
 20
29.43777169066077
 30
0.0
 10
4.0069653245327
 20
29.35648653417498
 30
0.0
 10
4.800814393807343
 20
29.23674551951147
 30
0.0
 10
5.58308757760193
 20
29.05656049831391
 30
0.0
 10
6.343310693424826
 20
28.79125866460207
 30
0.0
 10
7.024761172645185
 20
28.34736211977898
 30
0.0
 10
7.440035403889112
 20
27.64034493884097
 30
0.0
 10
7.703536345516397
 20
26.88300977664987
 30
0.0
 10
7.84517714078919
 20
26.09039885913684
 30
0.0
 10
7.876465092903686
 20
25.55155333561268
 30
0.0
 10
7.875415634999683
 20
25.28402485760698
 30
0.0
 10
7.874298125547512
 20
24.99914863555013
 30
0.0
 10
7.835030319227087
 20
24.42493145402211
 30
0.0
 10
7.650701543406115
 20
23.58779626963312
 30
0.0
 10
7.338606686592925
 20
22.78926785929492
 30
0.0
 10
6.905353365567009
 20
22.04942791570078
 30
0.0
 10
6.362168188702753
 20
21.38627738665842
 30
0.0
 10
5.728485758877753
 20
20.80960874693646
 30
0.0
 10
5.023947745231396
 20
20.32269786481798
 30
0.0
 10
4.26652101575803
 20
19.92374343424972
 30
0.0
 10
3.47129725982029
 20
19.60759048428955
 30
0.0
 10
2.649951242853319
 20
19.36790014246249
 30
0.0
 10
1.810490630233915
 20
19.20301218934601
 30
0.0
 10
0.960609436871664
 20
19.10671054852055
 30
0.0
 10
0.285956756052542
 20
19.08099259887329
 30
0.0
 10
0.0010564856949031
 20
19.08099259887329
 30
0.0
  0
SPLINE
  5
12C
330
1F
100
AcDbEntity
  8
2D DXF
370
    -3
100
AcDbSpline
210
0.0
220
0.0
230
1.0
 70
    12
 71
     3
 72
    20
 73
    16
 74
     0
 42
0.0000000001
 43
0.0000000001
 40
11.3394179682136
 40
11.3394179682136
 40
11.3394179682136
 40
11.3394179682136
 40
15.20881904819654
 40
15.20881904819654
 40
15.20881904819654
 40
15.3760903849171
 40
15.3760903849171
 40
15.3760903849171
 40
15.87089122785749
 40
15.87089122785749
 40
15.87089122785749
 40
16.19842073407742
 40
16.19842073407742
 40
16.19842073407742
 40
18.2924898338427
 40
18.2924898338427
 40
18.2924898338427
 40
18.2924898338427
 10
7.869980620485055
 20
56.79524727363511
 30
0.0
 41
0.8689157816187645
 10
8.036845254264618
 20
57.03150115103761
 30
0.0
 41
0.8689157816187645
 10
8.20370988804408
 20
57.26775502844011
 30
0.0
 41
0.8689157816187645
 10
8.37057452182361
 20
57.50400890584252
 30
0.0
 41
0.8689157816187645
 10
8.402274810315188
 20
57.5488914906137
 30
0.0
 41
0.8902953484354894
 10
8.420046906695946
 20
57.59968377303772
 30
0.0
 41
0.9339900878959144
 10
8.424526814945311
 20
57.65221076936315
 30
0.0
 41
1.00000000000004
 10
8.439907152229598
 20
57.83254547156051
 30
0.0
 41
0.8047378541243967
 10
8.321859843197483
 20
57.97394745076776
 30
0.0
 41
0.8047378541243967
 10
8.139535400478307
 20
57.99358534531173
 30
0.0
 41
1.00000000000004
 10
8.027996346663357
 20
58.00559905089992
 30
0.0
 41
0.8707477662284852
 10
7.922802429792998
 20
57.96206416578453
 30
0.0
 41
0.8270530267680719
 10
7.855984522983096
 20
57.86746059877219
 30
0.0
 41
0.8689157816188001
 10
7.765679572367127
 20
57.73960309986165
 30
0.0
 41
0.8689157816188
 10
7.675374621751136
 20
57.61174560095117
 30
0.0
 41
0.8689157816187999
 10
7.58506967113512
 20
57.48388810204067
 30
0.0
 41
0.8689157816187998
  0
SPLINE
  5
12D
330
1F
100
AcDbEntity
  8
2D DXF
370
    -3
100
AcDbSpline
210
0.0
220
0.0
230
1.0
 70
    12
 71
     3
 72
    20
 73
    16
 74
     0
 42
0.0000000001
 43
0.0000000001
 40
11.33941796821382
 40
11.33941796821382
 40
11.33941796821382
 40
11.33941796821382
 40
15.20881904819654
 40
15.20881904819654
 40
15.20881904819654
 40
15.3760903849171
 40
15.3760903849171
 40
15.3760903849171
 40
15.87089122785749
 40
15.87089122785749
 40
15.87089122785749
 40
16.19842073407742
 40
16.19842073407742
 40
16.19842073407742
 40
18.2924898338428
 40
18.2924898338428
 40
18.2924898338428
 40
18.2924898338428
 10
-7.872644595067748
 20
56.79524727363518
 30
0.0
 41
0.8689157816187645
 10
-8.039509228847244
 20
57.03150115103765
 30
0.0
 41
0.8689157816187645
 10
-8.206373862626773
 20
57.26775502844011
 30
0.0
 41
0.8689157816187645
 10
-8.373238496406302
 20
57.50400890584252
 30
0.0
 41
0.8689157816187645
 10
-8.404938784897903
 20
57.5488914906137
 30
0.0
 41
0.8902953484354894
 10
-8.422710881278714
 20
57.59968377303772
 30
0.0
 41
0.9339900878959144
 10
-8.42719078952804
 20
57.65221076936315
 30
0.0
 41
1.00000000000004
 10
-8.442571126812295
 20
57.83254547156051
 30
0.0
 41
0.8047378541243967
 10
-8.324523817780198
 20
57.97394745076776
 30
0.0
 41
0.8047378541243967
 10
-8.142199375061038
 20
57.99358534531173
 30
0.0
 41
1.00000000000004
 10
-8.030660321246133
 20
58.00559905089992
 30
0.0
 41
0.8707477662284852
 10
-7.925466404375732
 20
57.96206416578453
 30
0.0
 41
0.8270530267680719
 10
-7.858648497565855
 20
57.86746059877219
 30
0.0
 41
0.8689157816188001
 10
-7.768343546949853
 20
57.73960309986164
 30
0.0
 41
0.8689157816188
 10
-7.678038596333812
 20
57.61174560095115
 30
0.0
 41
0.8689157816187999
 10
-7.587733645717828
 20
57.48388810204064
 30
0.0
 41
0.8689157816187998
  0
SPLINE
  5
12E
330
1F
100
AcDbEntity
  8
2D DXF
370
    -3
100
AcDbSpline
210
0.0
220
0.0
230
1.0
 70
     8
 71
     2
 72
    11
 73
     8
 74
     0
 42
0.0000000001
 43
0.0000000001
 40
0.0
 40
0.0
 40
0.0
 40
1.0
 40
2.0
 40
3.0
 40
4.0
 40
5.0
 40
6.0
 40
6.0
 40
6.0
 10
8.395302527824128
 20
57.53901984354542
 30
0.0
 10
8.445789602854319
 20
57.60869785460343
 30
0.0
 10
8.458566104081143
 20
57.7800685232521
 30
0.0
 10
8.381636511389132
 20
57.93349806695792
 30
0.0
 10
8.238760190262013
 20
58.02830159246147
 30
0.0
 10
8.067448849149145
 20
58.03934646501585
 30
0.0
 10
7.91478954607021
 20
57.9603656236914
 30
0.0
 10
7.870620092160294
 20
57.88651047761002
 30
0.0
  0
SPLINE
  5
12F
330
1F
100
AcDbEntity
  8
2D DXF
370
    -3
100
AcDbSpline
210
0.0
220
0.0
230
1.0
 70
     8
 71
     2
 72
    11
 73
     8
 74
     0
 42
0.0000000001
 43
0.0000000001
 40
0.0
 40
0.0
 40
0.0
 40
1.0
 40
2.0
 40
3.0
 40
4.0
 40
5.0
 40
6.0
 40
6.0
 40
6.0
 10
7.60115583584772
 20
41.48533711731037
 30
0.0
 10
7.652138941091323
 20
41.41637437978441
 30
0.0
 10
7.66609681279698
 20
41.24568496242956
 30
0.0
 10
7.590678557016673
 20
41.0922544297776
 30
0.0
 10
7.449595962995517
 20
40.99595001235271
 30
0.0
 10
7.279111498017699
 20
40.98221079354074
 30
0.0
 10
7.125739449325778
 20
41.05850399262609
 30
0.0
 10
7.080714526788739
 20
41.1315093111987
 30
0.0
  0
SPLINE
  5
130
330
1F
100
AcDbEntity
  8
2D DXF
370
    -3
100
AcDbSpline
210
0.0
220
0.0
230
1.0
 70
    12
 71
     3
 72
    20
 73
    16
 74
     0
 42
0.0000000001
 43
0.0000000001
 40
10.06415249325743
 40
10.06415249325743
 40
10.06415249325743
 40
10.06415249325743
 40
15.86212548702655
 40
15.86212548702655
 40
15.86212548702655
 40
16.15878608118745
 40
16.15878608118745
 40
16.15878608118745
 40
16.65358692412784
 40
16.65358692412784
 40
16.65358692412784
 40
16.85172717290732
 40
16.85172717290732
 40
16.85172717290732
 40
23.04309097898885
 40
23.04309097898885
 40
23.04309097898885
 40
23.04309097898885
 10
6.237514630450543
 20
42.2740778373493
 30
0.0
 41
0.8593593007471623
 10
6.51319182182328
 20
41.89990821960513
 30
0.0
 41
0.8593593007471623
 10
6.788869013196017
 20
41.5257386018609
 30
0.0
 41
0.8593593007471624
 10
7.064546204568728
 20
41.1515689841167
 30
0.0
 41
0.8593593007471625
 10
7.125857412153348
 20
41.06835284646258
 30
0.0
 41
0.8360492626126872
 10
7.21834437094299
 20
41.02668639515547
 30
0.0
 41
0.8829294956969671
 10
7.318147447323437
 20
41.02949979180767
 30
0.0
 41
1.000000000000002
 10
7.500783323216843
 20
41.03464820186122
 30
0.0
 41
0.804737854124367
 10
7.629926389549036
 20
41.16624551980073
 30
0.0
 41
0.804737854124367
 10
7.629926389549037
 20
41.34720382154912
 30
0.0
 41
1.000000000000002
 10
7.62992638954906
 20
41.41046460612677
 30
0.0
 41
0.9218083584274066
 10
7.61087890222287
 20
41.47215044904412
 30
0.0
 41
0.8749281253431274
 10
7.571748690078079
 20
41.52526088755205
 30
0.0
 41
0.8593593007471649
 10
7.277366879976281
 20
41.92481780703519
 30
0.0
 41
0.8593593007471647
 10
6.982985069874445
 20
42.32437472651834
 30
0.0
 41
0.8593593007471645
 10
6.688603259772527
 20
42.72393164600145
 30
0.0
 41
0.8593593007471644
  0
SPLINE
  5
131
330
1F
100
AcDbEntity
  8
2D DXF
370
    -3
100
AcDbSpline
210
0.0
220
0.0
230
1.0
 70
    28
 71
     3
 72
     8
 73
     4
 74
     0
 42
0.0000000001
 43
0.0000000001
 40
1.096513440296276
 40
1.096513440296276
 40
1.096513440296276
 40
1.096513440296276
 40
8.742393638717676
 40
8.742393638717676
 40
8.742393638717676
 40
8.742393638717676
 10
6.544830957092833
 20
54.9190453546075
 30
0.0
 41
0.8689157816187647
 10
6.874553044015243
 20
55.38587957667266
 30
0.0
 41
0.8689157816187646
 10
7.204275130937649
 20
55.85271379873781
 30
0.0
 41
0.8689157816187645
 10
7.533997217860008
 20
56.31954802080294
 30
0.0
 41
0.8689157816187645
  0
SPLINE
  5
132
330
1F
100
AcDbEntity
  8
2D DXF
370
    -3
100
AcDbSpline
210
0.0
220
0.0
230
1.0
 70
    24
 71
     3
 72
     8
 73
     4
 74
     0
 42
0.0000000001
 43
0.0000000001
 40
8.629947423803616
 40
8.629947423803616
 40
8.629947423803616
 40
8.629947423803616
 40
13.04943539406968
 40
13.04943539406968
 40
13.04943539406968
 40
13.04943539406968
 10
6.739507073390925
 20
56.28670546496054
 30
0.0
 10
6.548920409871741
 20
56.01686495281762
 30
0.0
 10
6.358333746352557
 20
55.7470244406747
 30
0.0
 10
6.167747082833358
 20
55.47718392853177
 30
0.0
  0
SPLINE
  5
133
330
1F
100
AcDbEntity
  8
2D DXF
370
    -3
100
AcDbSpline
210
0.0
220
0.0
230
1.0
 70
     8
 71
     2
 72
    11
 73
     8
 74
     0
 42
0.0000000001
 43
0.0000000001
 40
0.0
 40
0.0
 40
0.0
 40
1.0
 40
2.0
 40
3.0
 40
4.0
 40
5.0
 40
6.0
 40
6.0
 40
6.0
 10
-8.39796650240686
 20
57.53901984354542
 30
0.0
 10
-8.44845357743705
 20
57.60869785460343
 30
0.0
 10
-8.461230078663874
 20
57.7800685232521
 30
0.0
 10
-8.384300485971863
 20
57.93349806695792
 30
0.0
 10
-8.241424164844744
 20
58.02830159246147
 30
0.0
 10
-8.070112823731876
 20
58.03934646501585
 30
0.0
 10
-7.917453520652941
 20
57.9603656236914
 30
0.0
 10
-7.873284066743025
 20
57.88651047761002
 30
0.0
  0
SPLINE
  5
134
330
1F
100
AcDbEntity
  8
2D DXF
370
    -3
100
AcDbSpline
210
0.0
220
0.0
230
1.0
 70
     8
 71
     2
 72
    11
 73
     8
 74
     0
 42
0.0000000001
 43
0.0000000001
 40
0.0
 40
0.0
 40
0.0
 40
1.0
 40
2.0
 40
3.0
 40
4.0
 40
5.0
 40
6.0
 40
6.0
 40
6.0
 10
-7.603819810430451
 20
41.48533711731037
 30
0.0
 10
-7.654802915674054
 20
41.41637437978441
 30
0.0
 10
-7.668760787379711
 20
41.24568496242956
 30
0.0
 10
-7.593342531599404
 20
41.0922544297776
 30
0.0
 10
-7.452259937578248
 20
40.99595001235271
 30
0.0
 10
-7.28177547260043
 20
40.98221079354074
 30
0.0
 10
-7.128403423908509
 20
41.05850399262609
 30
0.0
 10
-7.08337850137147
 20
41.1315093111987
 30
0.0
  0
SPLINE
  5
135
330
1F
100
AcDbEntity
  8
2D DXF
370
    -3
100
AcDbSpline
210
0.0
220
0.0
230
1.0
 70
    12
 71
     3
 72
    20
 73
    16
 74
     0
 42
0.0000000001
 43
0.0000000001
 40
10.06415249325743
 40
10.06415249325743
 40
10.06415249325743
 40
10.06415249325743
 40
15.86212548702655
 40
15.86212548702655
 40
15.86212548702655
 40
16.15878608118745
 40
16.15878608118745
 40
16.15878608118745
 40
16.65358692412784
 40
16.65358692412784
 40
16.65358692412784
 40
16.85172717290732
 40
16.85172717290732
 40
16.85172717290732
 40
23.04309097898885
 40
23.04309097898885
 40
23.04309097898885
 40
23.04309097898885
 10
-6.24017860503327
 20
42.2740778373493
 30
0.0
 41
0.8593593007471623
 10
-6.515855796405991
 20
41.89990821960513
 30
0.0
 41
0.8593593007471623
 10
-6.791532987778728
 20
41.5257386018609
 30
0.0
 41
0.8593593007471624
 10
-7.067210179151473
 20
41.1515689841167
 30
0.0
 41
0.8593593007471625
 10
-7.128521386736124
 20
41.06835284646258
 30
0.0
 41
0.8360492626126872
 10
-7.221008345525727
 20
41.02668639515547
 30
0.0
 41
0.8829294956969671
 10
-7.320811421906168
 20
41.02949979180767
 30
0.0
 41
1.000000000000002
 10
-7.503447297799591
 20
41.03464820186122
 30
0.0
 41
0.804737854124367
 10
-7.632590364131766
 20
41.16624551980073
 30
0.0
 41
0.804737854124367
 10
-7.632590364131768
 20
41.34720382154912
 30
0.0
 41
1.000000000000002
 10
-7.632590364131785
 20
41.41046460612677
 30
0.0
 41
0.9218083584274066
 10
-7.613542876805551
 20
41.47215044904412
 30
0.0
 41
0.8749281253431274
 10
-7.574412664660843
 20
41.52526088755205
 30
0.0
 41
0.8593593007471649
 10
-7.28003085455896
 20
41.92481780703519
 30
0.0
 41
0.8593593007471647
 10
-6.985649044457189
 20
42.32437472651834
 30
0.0
 41
0.8593593007471645
 10
-6.691267234355306
 20
42.72393164600145
 30
0.0
 41
0.8593593007471644
  0
SPLINE
  5
136
330
1F
100
AcDbEntity
  8
2D DXF
370
    -3
100
AcDbSpline
210
0.0
220
0.0
230
1.0
 70
    11
 71
     3
 72
   123
 73
   119
 74
     0
 42
0.0000000001
 43
0.0000000001
 40
0.0
 40
0.0
 40
0.0
 40
0.0
 40
1.0
 40
2.0
 40
3.0
 40
4.0
 40
5.0
 40
6.0
 40
7.0
 40
8.0
 40
9.0
 40
10.0
 40
11.0
 40
12.0
 40
13.0
 40
14.0
 40
15.0
 40
16.0
 40
17.0
 40
18.0
 40
19.0
 40
20.0
 40
21.0
 40
22.0
 40
23.0
 40
24.0
 40
25.0
 40
26.0
 40
27.0
 40
28.0
 40
29.0
 40
30.0
 40
31.0
 40
32.0
 40
33.0
 40
34.0
 40
35.0
 40
36.0
 40
37.0
 40
38.0
 40
39.0
 40
40.0
 40
41.0
 40
42.0
 40
43.0
 40
44.0
 40
45.0
 40
46.0
 40
47.0
 40
48.0
 40
49.0
 40
50.0
 40
51.0
 40
52.0
 40
53.0
 40
54.0
 40
55.0
 40
56.0
 40
57.0
 40
57.0
 40
57.0
 40
58.0
 40
59.0
 40
60.0
 40
61.0
 40
62.0
 40
63.0
 40
64.0
 40
65.0
 40
66.0
 40
67.0
 40
68.0
 40
69.0
 40
70.0
 40
71.0
 40
72.0
 40
73.0
 40
74.0
 40
75.0
 40
76.0
 40
77.0
 40
78.0
 40
79.0
 40
80.0
 40
81.0
 40
82.0
 40
83.0
 40
84.0
 40
85.0
 40
86.0
 40
87.0
 40
88.0
 40
89.0
 40
90.0
 40
91.0
 40
92.0
 40
93.0
 40
94.0
 40
95.0
 40
96.0
 40
97.0
 40
98.0
 40
99.0
 40
100.0
 40
101.0
 40
102.0
 40
103.0
 40
104.0
 40
105.0
 40
106.0
 40
107.0
 40
108.0
 40
109.0
 40
110.0
 40
111.0
 40
112.0
 40
113.0
 40
114.0
 40
114.0
 40
114.0
 40
114.0
 10
-0.0013319872913655
 20
57.29119425175381
 30
0.0
 10
-0.1061982649796107
 20
57.29119150414022
 30
0.0
 10
-0.3159298963309141
 20
57.28880209776939
 30
0.0
 10
-0.6303693868156586
 20
57.27823368775384
 30
0.0
 10
-0.9445047190044704
 20
57.26083497280082
 30
0.0
 10
-1.258194103328123
 20
57.23671317863766
 30
0.0
 10
-1.571310160378488
 20
57.20603923650476
 30
0.0
 10
-1.883742893257107
 20
57.16906019807924
 30
0.0
 10
-2.195397210316202
 20
57.12601768286983
 30
0.0
 10
-2.506179728870592
 20
57.07707494297991
 30
0.0
 10
-2.815980433503711
 20
57.0222852781494
 30
0.0
 10
-3.124938974173432
 20
56.96291691388447
 30
0.0
 10
-3.432771334938565
 20
56.89799330204421
 30
0.0
 10
-3.74010593197815
 20
56.83078004861382
 30
0.0
 10
-4.047484826804379
 20
56.76377164818076
 30
0.0
 10
-4.3548882484682
 20
56.69687279260646
 30
0.0
 10
-4.662545931702567
 20
56.63115253233269
 30
0.0
 10
-4.970552167459829
 20
56.56708091200836
 30
0.0
 10
-5.279062148424686
 20
56.50546863878415
 30
0.0
 10
-5.588219374554143
 20
56.44718767091585
 30
0.0
 10
-5.898186981084763
 20
56.39332148273887
 30
0.0
 10
-6.209099236345168
 20
56.3452967603527
 30
0.0
 10
-6.521275006478419
 20
56.3054989192657
 30
0.0
 10
-6.834418317076342
 20
56.27719547136185
 30
0.0
 10
-7.150059822559882
 20
56.26759216664135
 30
0.0
 10
-7.460873142213615
 20
56.28953210922872
 30
0.0
 10
-7.779016982563206
 20
56.38816372677384
 30
0.0
 10
-7.912015996543943
 20
56.70336460392268
 30
0.0
 10
-7.823257660428027
 20
57.01412705090426
 30
0.0
 10
-7.694502354152718
 20
57.2995162841877
 30
0.0
 10
-7.537829688702601
 20
57.57322068257601
 30
0.0
 10
-7.36667316231555
 20
57.83707401126206
 30
0.0
 10
-7.18760024112575
 20
58.09580639084116
 30
0.0
 10
-7.003044735931638
 20
58.35059614089251
 30
0.0
 10
-6.808595215586223
 20
58.59808571884032
 30
0.0
 10
-6.596604860387316
 20
58.83082041368989
 30
0.0
 10
-6.371007264883389
 20
59.0501889039365
 30
0.0
 10
-6.140994248368798
 20
59.26484057422063
 30
0.0
 10
-5.902635455591707
 20
59.47029492614168
 30
0.0
 10
-5.655014865207391
 20
59.66447962917381
 30
0.0
 10
-5.398959327874735
 20
59.84737428546761
 30
0.0
 10
-5.135763027861884
 20
60.01984183856736
 30
0.0
 10
-4.864570579536036
 20
60.17950697304003
 30
0.0
 10
-4.585467765651202
 20
60.32487996430662
 30
0.0
 10
-4.300105358959144
 20
60.45748782127255
 30
0.0
 10
-4.009520809885345
 20
60.57820342242083
 30
0.0
 10
-3.714492036169048
 20
60.68758652258198
 30
0.0
 10
-3.41567883190973
 20
60.7861460932515
 30
0.0
 10
-3.113686912086592
 20
60.87446056675925
 30
0.0
 10
-2.808993174296262
 20
60.95294158341132
 30
0.0
 10
-2.501990763419457
 20
61.02182223943983
 30
0.0
 10
-2.193077746107264
 20
61.08153897639541
 30
0.0
 10
-1.882576424201119
 20
61.1323359693949
 30
0.0
 10
-1.570799821010354
 20
61.17458866593684
 30
0.0
 10
-1.258013935953699
 20
61.20855966068292
 30
0.0
 10
-0.9444630759871018
 20
61.23450874855065
 30
0.0
 10
-0.6303680428111136
 20
61.25270233334813
 30
0.0
 10
-0.315930798181256
 20
61.26340961378192
 30
0.0
 10
-0.10619796832529
 20
61.26572732402379
 30
0.0
 10
-0.0013319872913655
 20
61.26572475764614
 30
0.0
 10
0.103533993742559
 20
61.26572732402379
 30
0.0
 10
0.313266823598525
 20
61.26340961378192
 30
0.0
 10
0.6277040682283825
 20
61.25270233334813
 30
0.0
 10
0.9417991014043707
 20
61.23450874855065
 30
0.0
 10
1.255349961370968
 20
61.20855966068292
 30
0.0
 10
1.568135846427623
 20
61.17458866593684
 30
0.0
 10
1.879912449618388
 20
61.1323359693949
 30
0.0
 10
2.190413771524533
 20
61.08153897639541
 30
0.0
 10
2.499326788836726
 20
61.02182223943983
 30
0.0
 10
2.806329199713531
 20
60.95294158341132
 30
0.0
 10
3.111022937503861
 20
60.87446056675925
 30
0.0
 10
3.413014857326999
 20
60.7861460932515
 30
0.0
 10
3.711828061586317
 20
60.68758652258198
 30
0.0
 10
4.006856835302614
 20
60.57820342242083
 30
0.0
 10
4.297441384376413
 20
60.45748782127255
 30
0.0
 10
4.582803791068471
 20
60.32487996430662
 30
0.0
 10
4.861906604953305
 20
60.17950697304003
 30
0.0
 10
5.133099053279153
 20
60.01984183856736
 30
0.0
 10
5.396295353292004
 20
59.84737428546761
 30
0.0
 10
5.65235089062466
 20
59.66447962917381
 30
0.0
 10
5.899971481008976
 20
59.47029492614168
 30
0.0
 10
6.138330273786067
 20
59.26484057422063
 30
0.0
 10
6.368343290300658
 20
59.0501889039365
 30
0.0
 10
6.593940885804585
 20
58.83082041368989
 30
0.0
 10
6.805931241003492
 20
58.59808571884032
 30
0.0
 10
7.000380761348907
 20
58.35059614089251
 30
0.0
 10
7.184936266543019
 20
58.09580639084116
 30
0.0
 10
7.364009187732819
 20
57.83707401126206
 30
0.0
 10
7.53516571411987
 20
57.57322068257601
 30
0.0
 10
7.691838379569987
 20
57.2995162841877
 30
0.0
 10
7.820593685845296
 20
57.01412705090426
 30
0.0
 10
7.909352021961212
 20
56.70336460392268
 30
0.0
 10
7.776353007980475
 20
56.38816372677384
 30
0.0
 10
7.458209167630883
 20
56.28953210922872
 30
0.0
 10
7.147395847977151
 20
56.26759216664135
 30
0.0
 10
6.83175434249361
 20
56.27719547136185
 30
0.0
 10
6.518611031895688
 20
56.3054989192657
 30
0.0
 10
6.206435261762437
 20
56.3452967603527
 30
0.0
 10
5.895523006502032
 20
56.39332148273887
 30
0.0
 10
5.585555399971412
 20
56.44718767091585
 30
0.0
 10
5.276398173841955
 20
56.50546863878415
 30
0.0
 10
4.967888192877098
 20
56.56708091200836
 30
0.0
 10
4.659881957119836
 20
56.63115253233269
 30
0.0
 10
4.352224273885469
 20
56.69687279260646
 30
0.0
 10
4.044820852221648
 20
56.76377164818076
 30
0.0
 10
3.737441957395419
 20
56.83078004861382
 30
0.0
 10
3.430107360355834
 20
56.89799330204421
 30
0.0
 10
3.122274999590701
 20
56.96291691388447
 30
0.0
 10
2.81331645892098
 20
57.0222852781494
 30
0.0
 10
2.503515754287861
 20
57.07707494297991
 30
0.0
 10
2.192733235733471
 20
57.12601768286983
 30
0.0
 10
1.881078918674376
 20
57.16906019807924
 30
0.0
 10
1.568646185795757
 20
57.20603923650476
 30
0.0
 10
1.255530128745391
 20
57.23671317863766
 30
0.0
 10
0.9418407444217394
 20
57.26083497280082
 30
0.0
 10
0.6277054122329275
 20
57.27823368775384
 30
0.0
 10
0.313265921748183
 20
57.28880209776939
 30
0.0
 10
0.1035342903968797
 20
57.29119150414022
 30
0.0
 10
-0.0013319872913655
 20
57.29119425175381
 30
0.0
  0
SPLINE
  5
137
330
1F
100
AcDbEntity
  8
2D DXF
370
    -3
100
AcDbSpline
210
0.0
220
0.0
230
1.0
 70
     8
 71
     3
 72
    43
 73
    39
 74
     0
 42
0.0000000001
 43
0.0000000001
 40
0.0
 40
0.0
 40
0.0
 40
0.0
 40
1.0
 40
2.0
 40
3.0
 40
4.0
 40
5.0
 40
6.0
 40
7.0
 40
8.0
 40
9.0
 40
10.0
 40
11.0
 40
12.0
 40
13.0
 40
14.0
 40
15.0
 40
16.0
 40
17.0
 40
17.0
 40
17.0
 40
18.0
 40
19.0
 40
20.0
 40
21.0
 40
22.0
 40
23.0
 40
24.0
 40
25.0
 40
26.0
 40
27.0
 40
28.0
 40
29.0
 40
30.0
 40
31.0
 40
32.0
 40
33.0
 40
34.0
 40
34.0
 40
34.0
 40
34.0
 10
-5.389249174312198
 20
56.48492697929096
 30
0.0
 10
-5.672260025123109
 20
56.15192195991123
 30
0.0
 10
-6.206226055736153
 20
55.45906819559721
 30
0.0
 10
-6.915462698030041
 20
54.35481275087713
 30
0.0
 10
-7.504139978838822
 20
53.18133112240994
 30
0.0
 10
-7.968327990502502
 20
51.95348971961212
 30
0.0
 10
-8.301167887055527
 20
50.68355283012357
 30
0.0
 10
-8.493423955699342
 20
49.38469356993338
 30
0.0
 10
-8.536662498051413
 20
48.07239841748157
 30
0.0
 10
-8.432408461386075
 20
46.76341691227196
 30
0.0
 10
-8.166648640805732
 20
45.47658308713586
 30
0.0
 10
-7.718478410331585
 20
44.24085287048116
 30
0.0
 10
-7.061264782701045
 20
43.09766934821349
 30
0.0
 10
-6.155319286188472
 20
42.13847364462912
 30
0.0
 10
-5.065855985902061
 20
41.39795303183622
 30
0.0
 10
-3.870381508874544
 20
40.85106809221374
 30
0.0
 10
-2.608788517331021
 20
40.48371826396074
 30
0.0
 10
-1.312384009177407
 20
40.27518740818756
 30
0.0
 10
-0.4383351682501768
 20
40.23080664577387
 30
0.0
 10
-0.0013684180966891
 20
40.23080664577387
 30
0.0
 10
0.4355983320567987
 20
40.23080664577387
 30
0.0
 10
1.309647172984029
 20
40.27518740818756
 30
0.0
 10
2.606051681137643
 20
40.48371826396074
 30
0.0
 10
3.867644672681166
 20
40.85106809221374
 30
0.0
 10
5.063119149708683
 20
41.39795303183622
 30
0.0
 10
6.152582449995094
 20
42.13847364462912
 30
0.0
 10
7.058527946507667
 20
43.09766934821349
 30
0.0
 10
7.715741574138207
 20
44.24085287048116
 30
0.0
 10
8.163911804612354
 20
45.47658308713586
 30
0.0
 10
8.429671625192697
 20
46.76341691227196
 30
0.0
 10
8.533925661858035
 20
48.07239841748157
 30
0.0
 10
8.490687119505964
 20
49.38469356993338
 30
0.0
 10
8.298431050862149
 20
50.68355283012357
 30
0.0
 10
7.965591154309124
 20
51.95348971961212
 30
0.0
 10
7.501403142645444
 20
53.18133112240994
 30
0.0
 10
6.912725861836662
 20
54.35481275087713
 30
0.0
 10
6.203489219542774
 20
55.45906819559721
 30
0.0
 10
5.66952318892973
 20
56.15192195991123
 30
0.0
 10
5.38651233811882
 20
56.48492697929096
 30
0.0
  0
SPLINE
  5
138
330
1F
100
AcDbEntity
  8
2D DXF
370
    -3
100
AcDbSpline
210
0.0
220
0.0
230
1.0
 70
    28
 71
     3
 72
     8
 73
     4
 74
     0
 42
0.0000000001
 43
0.0000000001
 40
1.096513440296276
 40
1.096513440296276
 40
1.096513440296276
 40
1.096513440296276
 40
8.742393638717676
 40
8.742393638717676
 40
8.742393638717676
 40
8.742393638717676
 10
-6.547494931675558
 20
54.9190453546075
 30
0.0
 41
0.8689157816187647
 10
-6.877217018597936
 20
55.38587957667266
 30
0.0
 41
0.8689157816187646
 10
-7.206939105520309
 20
55.85271379873781
 30
0.0
 41
0.8689157816187645
 10
-7.536661192442668
 20
56.31954802080294
 30
0.0
 41
0.8689157816187645
  0
SPLINE
  5
139
330
1F
100
AcDbEntity
  8
2D DXF
370
    -3
100
AcDbSpline
210
0.0
220
0.0
230
1.0
 70
    24
 71
     3
 72
     8
 73
     4
 74
     0
 42
0.0000000001
 43
0.0000000001
 40
8.629947423803616
 40
8.629947423803616
 40
8.629947423803616
 40
8.629947423803616
 40
13.04943539406968
 40
13.04943539406968
 40
13.04943539406968
 40
13.04943539406968
 10
-6.742171047973713
 20
56.28670546496054
 30
0.0
 10
-6.551584384454515
 20
56.01686495281762
 30
0.0
 10
-6.36099772093533
 20
55.7470244406747
 30
0.0
 10
-6.170411057416146
 20
55.47718392853177
 30
0.0
  0
ENDSEC
  0
SECTION
  2
OBJECTS
  0
DICTIONARY
  5
C
330
0
100
AcDbDictionary
281
     1
  3
ACAD_DETAILVIEWSTYLE
350
175
  3
ACAD_GROUP
350
D
  3
ACAD_LAYOUT
350
1A
  3
ACAD_MATERIAL
350
43
  3
ACAD_MLEADERSTYLE
350
5B
  3
ACAD_MLINESTYLE
350
17
  3
ACAD_PLOTSETTINGS
350
19
  3
ACAD_PLOTSTYLENAME
350
E
  3
ACAD_SCALELIST
350
47
  3
ACAD_SECTIONVIEWSTYLE
350
176
  3
ACAD_TABLESTYLE
350
59
  3
ACAD_VISUALSTYLE
350
2A
  3
ACDB_RECOMPOSE_DATA
350
172
  3
AcDbVariableDictionary
350
13A
  0
SUN
  5
5D
330
29
100
AcDbSun
 90
        1
290
     0
 63
     7
421
 16777215
 40
1.0
291
     1
 91
  2455826
 92
 54000000
292
     0
 70
     2
 71
   256
280
     1
  0
DICTIONARY
  5
175
102
{ACAD_REACTORS
330
C
102
}
330
C
100
AcDbDictionary
281
     1
  0
DICTIONARY
  5
D
102
{ACAD_REACTORS
330
C
102
}
330
C
100
AcDbDictionary
281
     1
  0
DICTIONARY
  5
1A
102
{ACAD_REACTORS
330
C
102
}
330
C
100
AcDbDictionary
281
     1
  3
Layout1
350
1E
  3
Layout2
350
26
  3
Model
350
22
  0
DICTIONARY
  5
43
102
{ACAD_REACTORS
330
C
102
}
330
C
100
AcDbDictionary
281
     1
  3
ByBlock
350
45
  3
ByLayer
350
44
  3
Global
350
46
  0
DICTIONARY
  5
5B
102
{ACAD_REACTORS
330
C
102
}
330
C
100
AcDbDictionary
281
     1
  3
Standard
350
5C
  0
DICTIONARY
  5
17
102
{ACAD_REACTORS
330
C
102
}
330
C
100
AcDbDictionary
281
     1
  3
Standard
350
18
  0
DICTIONARY
  5
19
102
{ACAD_REACTORS
330
C
102
}
330
C
100
AcDbDictionary
281
     1
  0
ACDBDICTIONARYWDFLT
  5
E
102
{ACAD_REACTORS
330
C
102
}
330
C
100
AcDbDictionary
281
     1
  3
Normal
350
F
100
AcDbDictionaryWithDefault
340
F
  0
DICTIONARY
  5
47
102
{ACAD_REACTORS
330
C
102
}
330
C
100
AcDbDictionary
281
     1
  3
A0
350
48
  3
A1
350
49
  3
A2
350
4A
  3
A3
350
4B
  3
A4
350
4C
  3
A5
350
4D
  3
A6
350
4E
  3
A7
350
4F
  3
A8
350
50
  3
A9
350
51
  3
B1
350
52
  3
B2
350
53
  3
B3
350
54
  3
B4
350
55
  3
B5
350
56
  3
B6
350
57
  3
B7
350
58
  0
DICTIONARY
  5
176
102
{ACAD_REACTORS
330
C
102
}
330
C
100
AcDbDictionary
281
     1
  0
DICTIONARY
  5
59
102
{ACAD_REACTORS
330
C
102
}
330
C
100
AcDbDictionary
281
     1
  3
Standard
350
5A
  0
DICTIONARY
  5
2A
102
{ACAD_REACTORS
330
C
102
}
330
C
100
AcDbDictionary
281
     1
  3
2dWireframe
350
2F
  3
Basic
350
32
  3
Brighten
350
36
  3
ColorChange
350
3A
  3
Conceptual
350
34
  3
Dim
350
35
  3
EdgeColorOff
350
3D
  3
Facepattern
350
39
  3
Flat
350
2B
  3
FlatWithEdges
350
2C
  3
Gouraud
350
2D
  3
GouraudWithEdges
350
2E
  3
Hidden
350
31
  3
JitterOff
350
3B
  3
Linepattern
350
38
  3
OverhangOff
350
3C
  3
Realistic
350
33
  3
Shaded
350
42
  3
Shaded with edges
350
41
  3
Shades of Gray
350
3E
  3
Sketchy
350
3F
  3
Thicken
350
37
  3
Wireframe
350
30
  3
X-Ray
350
40
  0
XRECORD
  5
172
102
{ACAD_REACTORS
330
C
102
}
330
C
100
AcDbXrecord
280
     1
 90
        1
330
5A
  0
DICTIONARY
  5
13A
102
{ACAD_REACTORS
330
C
102
}
330
C
100
AcDbDictionary
281
     1
  3
CANNOSCALE
350
13B
  3
CMLEADERSTYLE
350
174
  3
CTABLESTYLE
350
173
  3
XCLIPFRAME
350
13C
  0
LAYOUT
  5
1E
102
{ACAD_REACTORS
330
1A
102
}
330
1A
100
AcDbPlotSettings
  1

  2
none_device
  4

  6

 40
0.0
 41
0.0
 42
0.0
 43
0.0
 44
0.0
 45
0.0
 46
0.0
 47
0.0
 48
0.0
 49
0.0
140
0.0
141
0.0
142
1.0
143
1.0
 70
   688
 72
     0
 73
     0
 74
     5
  7

 75
    16
 76
     0
 77
     2
 78
   300
147
1.0
148
0.0
149
0.0
100
AcDbLayout
  1
Layout1
 70
     1
 71
     1
 10
0.0
 20
0.0
 11
12.0
 21
9.0
 12
0.0
 22
0.0
 32
0.0
 14
1.000000000000000E+20
 24
1.000000000000000E+20
 34
1.000000000000000E+20
 15
-1.000000000000000E+20
 25
-1.000000000000000E+20
 35
-1.000000000000000E+20
146
0.0
 13
0.0
 23
0.0
 33
0.0
 16
1.0
 26
0.0
 36
0.0
 17
0.0
 27
1.0
 37
0.0
 76
     0
330
1B
  0
LAYOUT
  5
26
102
{ACAD_REACTORS
330
1A
102
}
330
1A
100
AcDbPlotSettings
  1

  2
none_device
  4

  6

 40
0.0
 41
0.0
 42
0.0
 43
0.0
 44
0.0
 45
0.0
 46
0.0
 47
0.0
 48
0.0
 49
0.0
140
0.0
141
0.0
142
1.0
143
1.0
 70
   688
 72
     0
 73
     0
 74
     5
  7

 75
    16
 76
     0
 77
     2
 78
   300
147
1.0
148
0.0
149
0.0
100
AcDbLayout
  1
Layout2
 70
     1
 71
     2
 10
0.0
 20
0.0
 11
0.0
 21
0.0
 12
0.0
 22
0.0
 32
0.0
 14
0.0
 24
0.0
 34
0.0
 15
0.0
 25
0.0
 35
0.0
146
0.0
 13
0.0
 23
0.0
 33
0.0
 16
1.0
 26
0.0
 36
0.0
 17
0.0
 27
1.0
 37
0.0
 76
     0
330
23
  0
LAYOUT
  5
22
102
{ACAD_REACTORS
330
1A
102
}
330
1A
100
AcDbPlotSettings
  1

  2
none_device
  4
Letter_(8.50_x_11.00_Inches)
  6

 40
6.35
 41
6.35
 42
6.35000508
 43
6.35000508
 44
215.9
 45
279.4
 46
0.0
 47
0.0
 48
0.0
 49
0.0
140
0.0
141
0.0
142
1.0
143
1.0
 70
  1712
 72
     0
 73
     0
 74
     0
  7

 75
     0
 76
     0
 77
     2
 78
   300
147
1.0
148
0.0
149
0.0
100
AcDbLayout
  1
Model
 70
     1
 71
     0
 10
0.0
 20
0.0
 11
12.0
 21
9.0
 12
0.0
 22
0.0
 32
0.0
 14
1.000000000000000E+20
 24
1.000000000000000E+20
 34
1.000000000000000E+20
 15
-1.000000000000000E+20
 25
-1.000000000000000E+20
 35
-1.000000000000000E+20
146
0.0
 13
0.0
 23
0.0
 33
0.0
 16
1.0
 26
0.0
 36
0.0
 17
0.0
 27
1.0
 37
0.0
 76
     0
330
1F
331
29
  0
MATERIAL
  5
45
102
{ACAD_REACTORS
330
43
102
}
330
43
100
AcDbMaterial
  1
ByBlock
 72
     1
 94
      127
  0
MATERIAL
  5
44
102
{ACAD_REACTORS
330
43
102
}
330
43
100
AcDbMaterial
  1
ByLayer
 72
     1
 94
      127
  0
MATERIAL
  5
46
102
{ACAD_REACTORS
330
43
102
}
330
43
100
AcDbMaterial
  1
Global
 72
     1
 94
      127
  0
MLEADERSTYLE
  5
5C
102
{ACAD_REACTORS
330
5B
102
}
102
{ACAD_XDICTIONARY
360
170
102
}
330
5B
100
AcDbMLeaderStyle
170
     2
171
     1
172
     0
 90
        2
 40
0.0
 41
0.0
173
     1
 91
-1056964608
340
14
 92
       -2
290
     1
 42
0.09
291
     1
 43
0.36
  3
Standard
341
0
 44
0.18
300

342
11
174
     1
178
     6
175
     1
176
     0
 93
-1056964608
 45
0.18
292
     0
297
     0
 46
0.18
343
0
 94
-1056964608
 47
1.0
 49
1.0
140
1.0
293
     1
141
0.0
294
     1
177
     0
142
1.0
295
     0
296
     0
143
0.125
1001
ACAD_MLEADERVER
1070
     2
  0
MLINESTYLE
  5
18
102
{ACAD_REACTORS
330
17
102
}
330
17
100
AcDbMlineStyle
  2
Standard
 70
     0
  3

 62
   256
 51
90.0
 52
90.0
 71
     2
 49
0.5
 62
   256
  6
BYLAYER
 49
-0.5
 62
   256
  6
BYLAYER
  0
ACDBPLACEHOLDER
  5
F
102
{ACAD_REACTORS
330
E
102
}
330
E
  0
SCALE
  5
48
102
{ACAD_REACTORS
330
47
102
}
330
47
100
AcDbScale
 70
     0
300
1:1
140
1.0
141
1.0
290
     1
  0
SCALE
  5
49
102
{ACAD_REACTORS
330
47
102
}
330
47
100
AcDbScale
 70
     0
300
1/128" = 1'-0"
140
0.0078125
141
12.0
290
     0
  0
SCALE
  5
4A
102
{ACAD_REACTORS
330
47
102
}
330
47
100
AcDbScale
 70
     0
300
1/64" = 1'-0"
140
0.015625
141
12.0
290
     0
  0
SCALE
  5
4B
102
{ACAD_REACTORS
330
47
102
}
330
47
100
AcDbScale
 70
     0
300
1/32" = 1'-0"
140
0.03125
141
12.0
290
     0
  0
SCALE
  5
4C
102
{ACAD_REACTORS
330
47
102
}
330
47
100
AcDbScale
 70
     0
300
1/16" = 1'-0"
140
0.0625
141
12.0
290
     0
  0
SCALE
  5
4D
102
{ACAD_REACTORS
330
47
102
}
330
47
100
AcDbScale
 70
     0
300
3/32" = 1'-0"
140
0.09375
141
12.0
290
     0
  0
SCALE
  5
4E
102
{ACAD_REACTORS
330
47
102
}
330
47
100
AcDbScale
 70
     0
300
1/8" = 1'-0"
140
0.125
141
12.0
290
     0
  0
SCALE
  5
4F
102
{ACAD_REACTORS
330
47
102
}
330
47
100
AcDbScale
 70
     0
300
3/16" = 1'-0"
140
0.1875
141
12.0
290
     0
  0
SCALE
  5
50
102
{ACAD_REACTORS
330
47
102
}
330
47
100
AcDbScale
 70
     0
300
1/4" = 1'-0"
140
0.25
141
12.0
290
     0
  0
SCALE
  5
51
102
{ACAD_REACTORS
330
47
102
}
330
47
100
AcDbScale
 70
     0
300
3/8" = 1'-0"
140
0.375
141
12.0
290
     0
  0
SCALE
  5
52
102
{ACAD_REACTORS
330
47
102
}
330
47
100
AcDbScale
 70
     0
300
1/2" = 1'-0"
140
0.5
141
12.0
290
     0
  0
SCALE
  5
53
102
{ACAD_REACTORS
330
47
102
}
330
47
100
AcDbScale
 70
     0
300
3/4" = 1'-0"
140
0.75
141
12.0
290
     0
  0
SCALE
  5
54
102
{ACAD_REACTORS
330
47
102
}
330
47
100
AcDbScale
 70
     0
300
1" = 1'-0"
140
1.0
141
12.0
290
     0
  0
SCALE
  5
55
102
{ACAD_REACTORS
330
47
102
}
330
47
100
AcDbScale
 70
     0
300
1-1/2" = 1'-0"
140
1.5
141
12.0
290
     0
  0
SCALE
  5
56
102
{ACAD_REACTORS
330
47
102
}
330
47
100
AcDbScale
 70
     0
300
3" = 1'-0"
140
3.0
141
12.0
290
     0
  0
SCALE
  5
57
102
{ACAD_REACTORS
330
47
102
}
330
47
100
AcDbScale
 70
     0
300
6" = 1'-0"
140
6.0
141
12.0
290
     0
  0
SCALE
  5
58
102
{ACAD_REACTORS
330
47
102
}
330
47
100
AcDbScale
 70
     0
300
1'-0" = 1'-0"
140
12.0
141
12.0
290
     0
  0
TABLESTYLE
  5
5A
102
{ACAD_REACTORS
330
59
102
}
102
{ACAD_XDICTIONARY
360
16D
102
}
330
59
100
AcDbTableStyle
  3
Standard
 70
     0
 71
     0
 40
0.06
 41
0.06
280
     0
281
     0
  7
Standard
140
0.18
170
     2
 62
     0
 63
   257
283
     0
 90
        4
 91
        0
  1

274
    -2
284
     1
 64
     0
275
    -2
285
     1
 65
     0
276
    -2
286
     1
 66
     0
277
    -2
287
     1
 67
     0
278
    -2
288
     1
 68
     0
279
    -2
289
     1
 69
     0
  7
Standard
140
0.25
170
     5
 62
     0
 63
   257
283
     0
 90
        4
 91
        0
  1

274
    -2
284
     1
 64
     0
275
    -2
285
     1
 65
     0
276
    -2
286
     1
 66
     0
277
    -2
287
     1
 67
     0
278
    -2
288
     1
 68
     0
279
    -2
289
     1
 69
     0
  7
Standard
140
0.18
170
     5
 62
     0
 63
   257
283
     0
 90
        4
 91
        0
  1

274
    -2
284
     1
 64
     0
275
    -2
285
     1
 65
     0
276
    -2
286
     1
 66
     0
277
    -2
287
     1
 67
     0
278
    -2
288
     1
 68
     0
279
    -2
289
     1
 69
     0
  0
VISUALSTYLE
  5
2F
102
{ACAD_REACTORS
330
2A
102
}
102
{ACAD_XDICTIONARY
360
145
102
}
330
2A
100
AcDbVisualStyle
  2
2dWireframe
 70
     4
 71
     0
 72
     2
 73
     0
 90
        0
 40
0.6
 41
30.0
 62
     5
 63
     7
421
 16777215
 74
     1
 91
        4
 64
     7
 65
   257
 75
     1
175
     1
 42
1.0
 92
        0
 66
   257
 43
1.0
 76
     1
 77
     6
 78
     2
 67
     7
 79
     5
170
     0
171
     0
290
     0
174
     0
 93
        1
 44
0.0
173
     0
291
     0
 45
0.0
  0
VISUALSTYLE
  5
32
102
{ACAD_REACTORS
330
2A
102
}
102
{ACAD_XDICTIONARY
360
14B
102
}
330
2A
100
AcDbVisualStyle
  2
Basic
 70
     7
 71
     1
 72
     0
 73
     1
 90
        0
 40
0.6
 41
30.0
 62
     5
 63
     7
421
 16777215
 74
     0
 91
        4
 64
     7
 65
   257
 75
     1
175
     1
 42
1.0
 92
        8
 66
     7
 43
1.0
 76
     1
 77
     6
 78
     2
 67
     7
 79
     5
170
     0
171
     0
290
     0
174
     0
 93
        1
 44
0.0
173
     0
291
     1
 45
0.0
  0
VISUALSTYLE
  5
36
102
{ACAD_REACTORS
330
2A
102
}
102
{ACAD_XDICTIONARY
360
153
102
}
330
2A
100
AcDbVisualStyle
  2
Brighten
 70
    12
 71
     2
 72
     2
 73
     0
 90
        0
 40
0.6
 41
30.0
 62
     5
 63
     7
421
 16777215
 74
     1
 91
        4
 64
     7
 65
   257
 75
     1
175
     1
 42
1.0
 92
        8
 66
     7
 43
1.0
 76
     1
 77
     6
 78
     2
 67
     7
 79
     5
170
     0
171
     0
290
     0
174
     0
 93
        1
 44
50.0
173
     0
291
     1
 45
0.0
  0
VISUALSTYLE
  5
3A
102
{ACAD_REACTORS
330
2A
102
}
102
{ACAD_XDICTIONARY
360
15B
102
}
330
2A
100
AcDbVisualStyle
  2
ColorChange
 70
    16
 71
     2
 72
     2
 73
     3
 90
        0
 40
0.6
 41
30.0
 62
     5
 63
     8
421
  8421504
 74
     1
 91
        4
 64
     7
 65
   257
 75
     1
175
     1
 42
1.0
 92
        8
 66
     8
424
  8421504
 43
1.0
 76
     1
 77
     6
 78
     2
 67
     7
 79
     5
170
     0
171
     0
290
     0
174
     0
 93
        1
 44
0.0
173
     0
291
     1
 45
0.0
  0
VISUALSTYLE
  5
34
102
{ACAD_REACTORS
330
2A
102
}
102
{ACAD_XDICTIONARY
360
14F
102
}
330
2A
100
AcDbVisualStyle
  2
Conceptual
 70
     9
 71
     3
 72
     2
 73
     0
 90
        0
 40
0.6
 41
30.0
 62
     5
 63
     7
421
 16777215
 74
     2
 91
        2
 64
     7
 65
   257
 75
     1
175
     1
 42
179.0
 92
        8
 66
     7
 43
1.0
 76
     1
 77
     6
 78
     2
 67
     7
 79
     3
170
     0
171
     0
290
     0
174
     0
 93
        1
 44
0.0
173
     0
291
     0
 45
0.0
  0
VISUALSTYLE
  5
35
102
{ACAD_REACTORS
330
2A
102
}
102
{ACAD_XDICTIONARY
360
151
102
}
330
2A
100
AcDbVisualStyle
  2
Dim
 70
    11
 71
     2
 72
     2
 73
     0
 90
        0
 40
0.6
 41
30.0
 62
     5
 63
     7
421
 16777215
 74
     1
 91
        4
 64
     7
 65
   257
 75
     1
175
     1
 42
1.0
 92
        8
 66
     7
 43
1.0
 76
     1
 77
     6
 78
     2
 67
     7
 79
     5
170
     0
171
     0
290
     0
174
     0
 93
        1
 44
-50.0
173
     0
291
     1
 45
0.0
  0
VISUALSTYLE
  5
3D
102
{ACAD_REACTORS
330
2A
102
}
102
{ACAD_XDICTIONARY
360
161
102
}
330
2A
100
AcDbVisualStyle
  2
EdgeColorOff
 70
    22
 71
     2
 72
     2
 73
     0
 90
        0
 40
0.6
 41
30.0
 62
     5
 63
     7
421
 16777215
 74
     1
 91
        4
 64
     7
 65
   257
 75
     1
175
     1
 42
1.0
 92
        8
 66
     7
 43
1.0
 76
     1
 77
     6
 78
     2
 67
     7
 79
     5
170
     0
171
     0
290
     0
174
     0
 93
        1
 44
0.0
173
     0
291
     1
 45
0.0
  0
VISUALSTYLE
  5
39
102
{ACAD_REACTORS
330
2A
102
}
102
{ACAD_XDICTIONARY
360
159
102
}
330
2A
100
AcDbVisualStyle
  2
Facepattern
 70
    15
 71
     2
 72
     2
 73
     0
 90
        0
 40
0.6
 41
30.0
 62
     5
 63
     7
421
 16777215
 74
     1
 91
        4
 64
     7
 65
   257
 75
     1
175
     1
 42
1.0
 92
        8
 66
     7
 43
1.0
 76
     1
 77
     6
 78
     2
 67
     7
 79
     5
170
     0
171
     0
290
     0
174
     0
 93
        1
 44
0.0
173
     0
291
     1
 45
0.0
  0
VISUALSTYLE
  5
2B
102
{ACAD_REACTORS
330
2A
102
}
102
{ACAD_XDICTIONARY
360
13D
102
}
330
2A
100
AcDbVisualStyle
  2
Flat
 70
     0
 71
     2
 72
     1
 73
     1
 90
        2
 40
0.6
 41
30.0
 62
     5
 63
     7
421
 16777215
 74
     0
 91
        0
 64
     7
 65
   257
 75
     1
175
     1
 42
1.0
 92
        8
 66
     7
 43
1.0
 76
     1
 77
     6
 78
     2
 67
     7
 79
     5
170
     0
171
     0
290
     0
174
     0
 93
       13
 44
0.0
173
     0
291
     1
 45
0.0
  0
VISUALSTYLE
  5
2C
102
{ACAD_REACTORS
330
2A
102
}
102
{ACAD_XDICTIONARY
360
13F
102
}
330
2A
100
AcDbVisualStyle
  2
FlatWithEdges
 70
     1
 71
     2
 72
     1
 73
     1
 90
        2
 40
0.6
 41
30.0
 62
     5
 63
     7
421
 16777215
 74
     1
 91
        0
 64
     7
 65
   257
 75
     1
175
     1
 42
1.0
 92
        0
 66
   257
 43
1.0
 76
     1
 77
     6
 78
     2
 67
     7
 79
     5
170
     0
171
     0
290
     0
174
     0
 93
       13
 44
0.0
173
     0
291
     1
 45
0.0
  0
VISUALSTYLE
  5
2D
102
{ACAD_REACTORS
330
2A
102
}
102
{ACAD_XDICTIONARY
360
141
102
}
330
2A
100
AcDbVisualStyle
  2
Gouraud
 70
     2
 71
     2
 72
     2
 73
     1
 90
        2
 40
0.6
 41
30.0
 62
     5
 63
     7
421
 16777215
 74
     0
 91
        0
 64
     7
 65
   257
 75
     1
175
     1
 42
1.0
 92
        0
 66
     7
 43
1.0
 76
     1
 77
     6
 78
     2
 67
     7
 79
     5
170
     0
171
     0
290
     0
174
     0
 93
       13
 44
0.0
173
     0
291
     1
 45
0.0
  0
VISUALSTYLE
  5
2E
102
{ACAD_REACTORS
330
2A
102
}
102
{ACAD_XDICTIONARY
360
143
102
}
330
2A
100
AcDbVisualStyle
  2
GouraudWithEdges
 70
     3
 71
     2
 72
     2
 73
     1
 90
        2
 40
0.6
 41
30.0
 62
     5
 63
     7
421
 16777215
 74
     1
 91
        0
 64
     7
 65
   257
 75
     1
175
     1
 42
1.0
 92
        0
 66
   257
 43
1.0
 76
     1
 77
     6
 78
     2
 67
     7
 79
     5
170
     0
171
     0
290
     0
174
     0
 93
       13
 44
0.0
173
     0
291
     1
 45
0.0
  0
VISUALSTYLE
  5
31
102
{ACAD_REACTORS
330
2A
102
}
102
{ACAD_XDICTIONARY
360
149
102
}
330
2A
100
AcDbVisualStyle
  2
Hidden
 70
     6
 71
     1
 72
     2
 73
     2
 90
        0
 40
0.6
 41
30.0
 62
     5
 63
     7
421
 16777215
 74
     2
 91
        2
 64
     7
 65
   257
 75
     2
175
     1
 42
40.0
 92
        0
 66
   257
 43
1.0
 76
     1
 77
     6
 78
     2
 67
     7
 79
     3
170
     0
171
     0
290
     0
174
     0
 93
        1
 44
0.0
173
     0
291
     0
 45
0.0
  0
VISUALSTYLE
  5
3B
102
{ACAD_REACTORS
330
2A
102
}
102
{ACAD_XDICTIONARY
360
15D
102
}
330
2A
100
AcDbVisualStyle
  2
JitterOff
 70
    20
 71
     2
 72
     2
 73
     0
 90
        0
 40
0.6
 41
30.0
 62
     5
 63
     7
421
 16777215
 74
     1
 91
        4
 64
     7
 65
   257
 75
     1
175
     1
 42
1.0
 92
       10
 66
     7
 43
1.0
 76
     1
 77
     6
 78
     2
 67
     7
 79
     5
170
     0
171
     0
290
     0
174
     0
 93
        1
 44
0.0
173
     0
291
     1
 45
0.0
  0
VISUALSTYLE
  5
38
102
{ACAD_REACTORS
330
2A
102
}
102
{ACAD_XDICTIONARY
360
157
102
}
330
2A
100
AcDbVisualStyle
  2
Linepattern
 70
    14
 71
     2
 72
     2
 73
     0
 90
        0
 40
0.6
 41
30.0
 62
     5
 63
     7
421
 16777215
 74
     1
 91
        4
 64
     7
 65
   257
 75
     7
175
     7
 42
1.0
 92
        8
 66
     7
 43
1.0
 76
     1
 77
     6
 78
     2
 67
     7
 79
     5
170
     0
171
     0
290
     0
174
     0
 93
        1
 44
0.0
173
     0
291
     1
 45
0.0
  0
VISUALSTYLE
  5
3C
102
{ACAD_REACTORS
330
2A
102
}
102
{ACAD_XDICTIONARY
360
15F
102
}
330
2A
100
AcDbVisualStyle
  2
OverhangOff
 70
    21
 71
     2
 72
     2
 73
     0
 90
        0
 40
0.6
 41
30.0
 62
     5
 63
     7
421
 16777215
 74
     1
 91
        4
 64
     7
 65
   257
 75
     1
175
     1
 42
1.0
 92
        9
 66
     7
 43
1.0
 76
     1
 77
     6
 78
     2
 67
     7
 79
     5
170
     0
171
     0
290
     0
174
     0
 93
        1
 44
0.0
173
     0
291
     1
 45
0.0
  0
VISUALSTYLE
  5
33
102
{ACAD_REACTORS
330
2A
102
}
102
{ACAD_XDICTIONARY
360
14D
102
}
330
2A
100
AcDbVisualStyle
  2
Realistic
 70
     8
 71
     2
 72
     3
 73
     0
 90
        2
 40
0.6
 41
30.0
 62
     5
 63
     7
421
 16777215
 74
     0
 91
        0
 64
     7
 65
   257
 75
     1
175
     1
 42
1.0
 92
        8
 66
   257
 43
1.0
 76
     1
 77
     6
 78
     2
 67
     7
 79
     3
170
     0
171
     0
290
     0
174
     0
 93
       13
 44
0.0
173
     0
291
     0
 45
0.0
  0
VISUALSTYLE
  5
42
102
{ACAD_REACTORS
330
2A
102
}
102
{ACAD_XDICTIONARY
360
16B
102
}
330
2A
100
AcDbVisualStyle
  2
Shaded
 70
    27
 71
     2
 72
     2
 73
     1
 90
        2
 40
0.6
 41
30.0
 62
     5
 63
     7
421
 16777215
 74
     0
 91
        4
 64
     7
 65
   257
 75
     1
175
     1
 42
1.0
 92
        8
 66
   257
 43
1.0
 76
     1
 77
     6
 78
     2
 67
     8
425
  7895160
 79
     3
170
     0
171
     0
290
     0
174
     0
 93
        5
 44
0.0
173
     0
291
     0
 45
0.0
  0
VISUALSTYLE
  5
41
102
{ACAD_REACTORS
330
2A
102
}
102
{ACAD_XDICTIONARY
360
169
102
}
330
2A
100
AcDbVisualStyle
  2
Shaded with edges
 70
    26
 71
     2
 72
     2
 73
     1
 90
        2
 40
0.6
 41
30.0
 62
     5
 63
     7
421
 16777215
 74
     1
 91
       10
 64
     7
 65
   257
 75
     2
175
     1
 42
1.0
 92
        8
 66
   257
 43
1.0
 76
     1
 77
     6
 78
     2
 67
     7
 79
     3
170
     0
171
     0
290
     0
174
     0
 93
        5
 44
0.0
173
     0
291
     0
 45
0.0
  0
VISUALSTYLE
  5
3E
102
{ACAD_REACTORS
330
2A
102
}
102
{ACAD_XDICTIONARY
360
163
102
}
330
2A
100
AcDbVisualStyle
  2
Shades of Gray
 70
    23
 71
     2
 72
     2
 73
     3
 90
        0
 40
0.6
 41
30.0
 62
     5
 63
     7
421
 16777215
 74
     2
 91
        2
 64
     7
 65
     7
 75
     1
175
     1
 42
40.0
 92
        8
 66
     7
 43
1.0
 76
     1
 77
     6
 78
     2
 67
     7
 79
     3
170
     0
171
     0
290
     0
174
     0
 93
        1
 44
0.0
173
     0
291
     0
 45
0.0
  0
VISUALSTYLE
  5
3F
102
{ACAD_REACTORS
330
2A
102
}
102
{ACAD_XDICTIONARY
360
165
102
}
330
2A
100
AcDbVisualStyle
  2
Sketchy
 70
    24
 71
     1
 72
     2
 73
     2
 90
        0
 40
0.6
 41
30.0
 62
     5
 63
     7
421
 16777215
 74
     2
 91
        2
 64
     7
 65
     7
 75
     1
175
     1
 42
40.0
 92
       11
 66
     7
 43
1.0
 76
     1
 77
     6
 78
     2
 67
     7
 79
     6
170
     0
171
     0
290
     0
174
     0
 93
        1
 44
0.0
173
     0
291
     0
 45
0.0
  0
VISUALSTYLE
  5
37
102
{ACAD_REACTORS
330
2A
102
}
102
{ACAD_XDICTIONARY
360
155
102
}
330
2A
100
AcDbVisualStyle
  2
Thicken
 70
    13
 71
     2
 72
     2
 73
     0
 90
        0
 40
0.6
 41
30.0
 62
     5
 63
     7
421
 16777215
 74
     1
 91
        4
 64
     7
 65
   257
 75
     1
175
     1
 42
1.0
 92
       12
 66
     7
 43
1.0
 76
     1
 77
     6
 78
     2
 67
     7
 79
     5
170
     0
171
     0
290
     0
174
     0
 93
        1
 44
0.0
173
     0
291
     1
 45
0.0
  0
VISUALSTYLE
  5
30
102
{ACAD_REACTORS
330
2A
102
}
102
{ACAD_XDICTIONARY
360
147
102
}
330
2A
100
AcDbVisualStyle
  2
Wireframe
 70
     5
 71
     0
 72
     2
 73
     0
 90
        0
 40
0.6
 41
30.0
 62
     5
 63
     7
421
 16777215
 74
     1
 91
        4
 64
     7
 65
   257
 75
     1
175
     1
 42
1.0
 92
        0
 66
   257
 43
1.0
 76
     1
 77
     6
 78
     2
 67
     7
 79
     3
170
     0
171
     0
290
     0
174
     0
 93
        1
 44
0.0
173
     0
291
     0
 45
0.0
  0
VISUALSTYLE
  5
40
102
{ACAD_REACTORS
330
2A
102
}
102
{ACAD_XDICTIONARY
360
167
102
}
330
2A
100
AcDbVisualStyle
  2
X-Ray
 70
    25
 71
     2
 72
     2
 73
     1
 90
        1
 40
0.5
 41
30.0
 62
     5
 63
     7
421
 16777215
 74
     1
 91
        0
 64
     7
 65
   257
 75
     1
175
     1
 42
1.0
 92
        8
 66
     7
 43
1.0
 76
     1
 77
     6
 78
     2
 67
     7
 79
     3
170
     0
171
     0
290
     0
174
     0
 93
       13
 44
0.0
173
     0
291
     0
 45
0.0
  0
DICTIONARYVAR
  5
13B
102
{ACAD_REACTORS
330
13A
102
}
330
13A
100
DictionaryVariables
280
     0
  1
1:1
  0
DICTIONARYVAR
  5
174
102
{ACAD_REACTORS
330
13A
102
}
330
13A
100
DictionaryVariables
280
     0
  1
Standard
  0
DICTIONARYVAR
  5
173
102
{ACAD_REACTORS
330
13A
102
}
330
13A
100
DictionaryVariables
280
     0
  1
Standard
  0
DICTIONARYVAR
  5
13C
102
{ACAD_REACTORS
330
13A
102
}
330
13A
100
DictionaryVariables
280
     0
  1
2
  0
DICTIONARY
  5
170
330
5C
100
AcDbDictionary
280
     1
281
     1
  3
ACAD_XREC_ROUNDTRIP
360
171
  0
DICTIONARY
  5
16D
330
5A
100
AcDbDictionary
280
     1
281
     1
  3
ACAD_ROUNDTRIP_2008_TABLESTYLE_CELLSTYLEMAP
360
16E
  0
DICTIONARY
  5
145
330
2F
100
AcDbDictionary
280
     1
281
     1
  3
ACAD_XREC_ROUNDTRIP
360
146
  0
DICTIONARY
  5
14B
330
32
100
AcDbDictionary
280
     1
281
     1
  3
ACAD_XREC_ROUNDTRIP
360
14C
  0
DICTIONARY
  5
153
330
36
100
AcDbDictionary
280
     1
281
     1
  3
ACAD_XREC_ROUNDTRIP
360
154
  0
DICTIONARY
  5
15B
330
3A
100
AcDbDictionary
280
     1
281
     1
  3
ACAD_XREC_ROUNDTRIP
360
15C
  0
DICTIONARY
  5
14F
330
34
100
AcDbDictionary
280
     1
281
     1
  3
ACAD_XREC_ROUNDTRIP
360
150
  0
DICTIONARY
  5
151
330
35
100
AcDbDictionary
280
     1
281
     1
  3
ACAD_XREC_ROUNDTRIP
360
152
  0
DICTIONARY
  5
161
330
3D
100
AcDbDictionary
280
     1
281
     1
  3
ACAD_XREC_ROUNDTRIP
360
162
  0
DICTIONARY
  5
159
330
39
100
AcDbDictionary
280
     1
281
     1
  3
ACAD_XREC_ROUNDTRIP
360
15A
  0
DICTIONARY
  5
13D
330
2B
100
AcDbDictionary
280
     1
281
     1
  3
ACAD_XREC_ROUNDTRIP
360
13E
  0
DICTIONARY
  5
13F
330
2C
100
AcDbDictionary
280
     1
281
     1
  3
ACAD_XREC_ROUNDTRIP
360
140
  0
DICTIONARY
  5
141
330
2D
100
AcDbDictionary
280
     1
281
     1
  3
ACAD_XREC_ROUNDTRIP
360
142
  0
DICTIONARY
  5
143
330
2E
100
AcDbDictionary
280
     1
281
     1
  3
ACAD_XREC_ROUNDTRIP
360
144
  0
DICTIONARY
  5
149
330
31
100
AcDbDictionary
280
     1
281
     1
  3
ACAD_XREC_ROUNDTRIP
360
14A
  0
DICTIONARY
  5
15D
330
3B
100
AcDbDictionary
280
     1
281
     1
  3
ACAD_XREC_ROUNDTRIP
360
15E
  0
DICTIONARY
  5
157
330
38
100
AcDbDictionary
280
     1
281
     1
  3
ACAD_XREC_ROUNDTRIP
360
158
  0
DICTIONARY
  5
15F
330
3C
100
AcDbDictionary
280
     1
281
     1
  3
ACAD_XREC_ROUNDTRIP
360
160
  0
DICTIONARY
  5
14D
330
33
100
AcDbDictionary
280
     1
281
     1
  3
ACAD_XREC_ROUNDTRIP
360
14E
  0
DICTIONARY
  5
16B
330
42
100
AcDbDictionary
280
     1
281
     1
  3
ACAD_XREC_ROUNDTRIP
360
16C
  0
DICTIONARY
  5
169
330
41
100
AcDbDictionary
280
     1
281
     1
  3
ACAD_XREC_ROUNDTRIP
360
16A
  0
DICTIONARY
  5
163
330
3E
100
AcDbDictionary
280
     1
281
     1
  3
ACAD_XREC_ROUNDTRIP
360
164
  0
DICTIONARY
  5
165
330
3F
100
AcDbDictionary
280
     1
281
     1
  3
ACAD_XREC_ROUNDTRIP
360
166
  0
DICTIONARY
  5
155
330
37
100
AcDbDictionary
280
     1
281
     1
  3
ACAD_XREC_ROUNDTRIP
360
156
  0
DICTIONARY
  5
147
330
30
100
AcDbDictionary
280
     1
281
     1
  3
ACAD_XREC_ROUNDTRIP
360
148
  0
DICTIONARY
  5
167
330
40
100
AcDbDictionary
280
     1
281
     1
  3
ACAD_XREC_ROUNDTRIP
360
168
  0
XRECORD
  5
171
102
{ACAD_REACTORS
330
170
102
}
330
170
100
AcDbXrecord
280
     1
102
ACAD_ROUNDTRIP_2010_MLEADER_STYLE
  0
CELLSTYLEMAP
  5
16E
102
{ACAD_REACTORS
330
16D
102
}
330
16D
100
AcDbCellStyleMap
 90
        3
300
CELLSTYLE
  1
TABLEFORMAT_BEGIN
 90
        5
170
     1
 91
        0
 92
    32768
 62
   257
 93
        1
300
CONTENTFORMAT
  1
CONTENTFORMAT_BEGIN
 90
        0
 91
        0
 92
        4
 93
        0
300

 40
0.0
140
1.0
 94
        5
 62
     0
340
11
144
0.25
309
CONTENTFORMAT_END
171
     1
301
MARGIN
  1
CELLMARGIN_BEGIN
 40
0.06
 40
0.06
 40
0.06
 40
0.06
 40
0.06
 40
0.06
309
CELLMARGIN_END
 94
        6
 95
        1
302
GRIDFORMAT
  1
GRIDFORMAT_BEGIN
 90
        0
 91
        1
 62
     0
 92
       -2
340
14
 93
        0
 40
0.045
309
GRIDFORMAT_END
 95
        2
302
GRIDFORMAT
  1
GRIDFORMAT_BEGIN
 90
        0
 91
        1
 62
     0
 92
       -2
340
14
 93
        0
 40
0.045
309
GRIDFORMAT_END
 95
        4
302
GRIDFORMAT
  1
GRIDFORMAT_BEGIN
 90
        0
 91
        1
 62
     0
 92
       -2
340
14
 93
        0
 40
0.045
309
GRIDFORMAT_END
 95
        8
302
GRIDFORMAT
  1
GRIDFORMAT_BEGIN
 90
        0
 91
        1
 62
     0
 92
       -2
340
14
 93
        0
 40
0.045
309
GRIDFORMAT_END
 95
       16
302
GRIDFORMAT
  1
GRIDFORMAT_BEGIN
 90
        0
 91
        1
 62
     0
 92
       -2
340
14
 93
        0
 40
0.045
309
GRIDFORMAT_END
 95
       32
302
GRIDFORMAT
  1
GRIDFORMAT_BEGIN
 90
        0
 91
        1
 62
     0
 92
       -2
340
14
 93
        0
 40
0.045
309
GRIDFORMAT_END
309
TABLEFORMAT_END
  1
CELLSTYLE_BEGIN
 90
        1
 91
        1
300
_TITLE
309
CELLSTYLE_END
300
CELLSTYLE
  1
TABLEFORMAT_BEGIN
 90
        5
170
     1
 91
        0
 92
        0
 62
   257
 93
        1
300
CONTENTFORMAT
  1
CONTENTFORMAT_BEGIN
 90
        0
 91
        0
 92
        4
 93
        0
300

 40
0.0
140
1.0
 94
        5
 62
     0
340
11
144
0.18
309
CONTENTFORMAT_END
171
     1
301
MARGIN
  1
CELLMARGIN_BEGIN
 40
0.06
 40
0.06
 40
0.06
 40
0.06
 40
0.06
 40
0.06
309
CELLMARGIN_END
 94
        6
 95
        1
302
GRIDFORMAT
  1
GRIDFORMAT_BEGIN
 90
        0
 91
        1
 62
     0
 92
       -2
340
14
 93
        0
 40
0.045
309
GRIDFORMAT_END
 95
        2
302
GRIDFORMAT
  1
GRIDFORMAT_BEGIN
 90
        0
 91
        1
 62
     0
 92
       -2
340
14
 93
        0
 40
0.045
309
GRIDFORMAT_END
 95
        4
302
GRIDFORMAT
  1
GRIDFORMAT_BEGIN
 90
        0
 91
        1
 62
     0
 92
       -2
340
14
 93
        0
 40
0.045
309
GRIDFORMAT_END
 95
        8
302
GRIDFORMAT
  1
GRIDFORMAT_BEGIN
 90
        0
 91
        1
 62
     0
 92
       -2
340
14
 93
        0
 40
0.045
309
GRIDFORMAT_END
 95
       16
302
GRIDFORMAT
  1
GRIDFORMAT_BEGIN
 90
        0
 91
        1
 62
     0
 92
       -2
340
14
 93
        0
 40
0.045
309
GRIDFORMAT_END
 95
       32
302
GRIDFORMAT
  1
GRIDFORMAT_BEGIN
 90
        0
 91
        1
 62
     0
 92
       -2
340
14
 93
        0
 40
0.045
309
GRIDFORMAT_END
309
TABLEFORMAT_END
  1
CELLSTYLE_BEGIN
 90
        2
 91
        1
300
_HEADER
309
CELLSTYLE_END
300
CELLSTYLE
  1
TABLEFORMAT_BEGIN
 90
        5
170
     1
 91
        0
 92
        0
 62
   257
 93
        1
300
CONTENTFORMAT
  1
CONTENTFORMAT_BEGIN
 90
        0
 91
        0
 92
        4
 93
        0
300

 40
0.0
140
1.0
 94
        2
 62
     0
340
11
144
0.18
309
CONTENTFORMAT_END
171
     1
301
MARGIN
  1
CELLMARGIN_BEGIN
 40
0.06
 40
0.06
 40
0.06
 40
0.06
 40
0.06
 40
0.06
309
CELLMARGIN_END
 94
        6
 95
        1
302
GRIDFORMAT
  1
GRIDFORMAT_BEGIN
 90
        0
 91
        1
 62
     0
 92
       -2
340
14
 93
        0
 40
0.045
309
GRIDFORMAT_END
 95
        2
302
GRIDFORMAT
  1
GRIDFORMAT_BEGIN
 90
        0
 91
        1
 62
     0
 92
       -2
340
14
 93
        0
 40
0.045
309
GRIDFORMAT_END
 95
        4
302
GRIDFORMAT
  1
GRIDFORMAT_BEGIN
 90
        0
 91
        1
 62
     0
 92
       -2
340
14
 93
        0
 40
0.045
309
GRIDFORMAT_END
 95
        8
302
GRIDFORMAT
  1
GRIDFORMAT_BEGIN
 90
        0
 91
        1
 62
     0
 92
       -2
340
14
 93
        0
 40
0.045
309
GRIDFORMAT_END
 95
       16
302
GRIDFORMAT
  1
GRIDFORMAT_BEGIN
 90
        0
 91
        1
 62
     0
 92
       -2
340
14
 93
        0
 40
0.045
309
GRIDFORMAT_END
 95
       32
302
GRIDFORMAT
  1
GRIDFORMAT_BEGIN
 90
        0
 91
        1
 62
     0
 92
       -2
340
14
 93
        0
 40
0.045
309
GRIDFORMAT_END
309
TABLEFORMAT_END
  1
CELLSTYLE_BEGIN
 90
        3
 91
        2
300
_DATA
309
CELLSTYLE_END
  0
XRECORD
  5
146
102
{ACAD_REACTORS
330
145
102
}
330
145
100
AcDbXrecord
280
     1
102
RTVSPropertyOp0
 70
     1
102
RTVSPropertyOp1
 70
     1
102
RTVSPropertyOp2
 70
     1
102
RTVSPropertyOp3
 70
     1
102
RTVSPropertyOp4
 70
     1
102
RTVSPropertyOp5
 70
     1
102
RTVSPropertyOp6
 70
     1
102
RTVSPropertyOp7
 70
     1
102
RTVSPropertyOp8
 70
     1
102
RTVSPropertyOp9
 70
     1
102
RTVSPropertyOp10
 70
     1
102
RTVSPropertyOp11
 70
     1
102
RTVSPropertyOp12
 70
     1
102
RTVSPropertyOp13
 70
     1
102
RTVSPropertyOp14
 70
     1
102
RTVSPropertyOp15
 70
     1
102
RTVSPropertyOp16
 70
     1
102
RTVSPropertyOp17
 70
     1
102
RTVSPropertyOp18
 70
     1
102
RTVSPropertyOp19
 70
     1
102
RTVSPropertyOp20
 70
     1
102
RTVSPropertyOp21
 70
     1
102
RTVSPropertyOp22
 70
     1
102
RTVSPropertyOp23
 70
     1
102
RTVSPropertyOp24
 70
     1
102
RTVSPropertyOp25
 70
     1
102
RTVSPropertyOp26
 70
     1
102
RTVSPropertyOp27
 70
     1
102
RTVSPropertyOp28
 70
     1
102
RTVSPropertyOp29
 70
     1
102
RTVSPropertyOp30
 70
     1
102
RTVSPropertyOp31
 70
     1
102
RTVSPropertyOp32
 70
     1
102
RTVSPropertyOp33
 70
     1
102
RTVSPropertyOp34
 70
     1
102
RTVSPropertyOp35
 70
     1
102
RTVSPropertyOp36
 70
     1
102
RTVSPropertyOp37
 70
     1
102
RTVSPropertyOp38
 70
     1
102
RTVSPropertyOp39
 70
     1
102
RTVSPropertyOp40
 70
     1
102
RTVSPropertyOp41
 70
     1
102
RTVSPropertyOp42
 70
     1
102
RTVSPropertyOp43
 70
     1
102
RTVSPropertyOp44
 70
     1
102
RTVSPropertyOp45
 70
     1
102
RTVSPropertyOp46
 70
     1
102
RTVSPropertyOp47
 70
     1
102
RTVSPropertyOp48
 70
     1
102
RTVSPropertyOp49
 70
     1
102
RTVSPropertyOp50
 70
     1
102
RTVSPropertyOp51
 70
     0
102
RTVSPropertyOp52
 70
     0
102
RTVSPropertyOp53
 70
     1
102
RTVSPropertyOp54
 70
     1
102
RTVSPropertyOp55
 70
     1
102
RTVSPropertyOp56
 70
     1
102
RTVSPropertyOp57
 70
     1
102
RTVSPost2010Prop28
280
     1
102
RTVSPost2010PropOp28
 70
     1
102
RTVSPost2010Prop29
280
     1
102
RTVSPost2010PropOp29
 70
     1
102
RTVSPost2010Prop30
280
     0
102
RTVSPost2010PropOp30
 70
     1
102
RTVSPost2010Prop31
280
     0
102
RTVSPost2010PropOp31
 70
     1
102
RTVSPost2010Prop32
280
     0
102
RTVSPost2010PropOp32
 70
     1
102
RTVSPost2010Prop33
280
     0
102
RTVSPost2010PropOp33
 70
     1
102
RTVSPost2010Prop34
280
     0
102
RTVSPost2010PropOp34
 70
     1
102
RTVSPost2010Prop35
280
     0
102
RTVSPost2010PropOp35
 70
     1
102
RTVSPost2010Prop36
280
     0
102
RTVSPost2010PropOp36
 70
     1
102
RTVSPost2010Prop37
 90
       50
102
RTVSPost2010PropOp37
 70
     1
102
RTVSPost2010Prop38
140
0.0
102
RTVSPost2010PropOp38
 70
     1
102
RTVSPost2010Prop39
140
1.0
102
RTVSPost2010PropOp39
 70
     1
102
RTVSPost2010Prop40
 90
        0
102
RTVSPost2010PropOp40
 70
     1
102
RTVSPost2010Prop41ColorIndex
 90
       18
102
RTVSPost2010Prop41ColorRGB
 90
        0
102
RTVSPost2010PropOp41
 70
     1
102
RTVSPost2010Prop42
 90
       50
102
RTVSPost2010PropOp42
 70
     1
102
RTVSPost2010Prop43
 90
        3
102
RTVSPost2010PropOp43
 70
     1
102
RTVSPost2010Prop44ColorIndex
 90
        5
102
RTVSPost2010Prop44ColorRGB
 90
      255
102
RTVSPost2010PropOp44
 70
     1
102
RTVSPost2010Prop45
280
     0
102
RTVSPost2010PropOp45
 70
     1
102
RTVSPost2010Prop46
 90
       50
102
RTVSPost2010PropOp46
 70
     1
102
RTVSPost2010Prop47
 90
       50
102
RTVSPost2010PropOp47
 70
     1
102
RTVSPost2010Prop48
 90
       50
102
RTVSPost2010PropOp48
 70
     1
102
RTVSPost2010Prop49
280
     0
102
RTVSPost2010PropOp49
 70
     1
102
RTVSPost2010Prop50
 90
       50
102
RTVSPost2010PropOp50
 70
     1
102
RTVSPost2010Prop51ColorIndex
 90
      256
102
RTVSPost2010Prop51ColorRGB
 90
-16777216
102
RTVSPost2010PropOp51
 70
     0
102
RTVSPost2010Prop52
140
1.0
102
RTVSPost2010PropOp52
 70
     0
102
RTVSPost2010Prop53
 90
        2
102
RTVSPost2010PropOp53
 70
     1
102
RTVSPost2010Prop54
  1
strokes_ogs.tif
102
RTVSPost2010PropOp54
 70
     1
102
RTVSPost2010Prop55
280
     0
102
RTVSPost2010PropOp55
 70
     1
102
RTVSPost2010Prop56
140
1.0
102
RTVSPost2010PropOp56
 70
     1
102
RTVSPost2010Prop57
140
1.0
102
RTVSPost2010PropOp57
 70
     1
  0
XRECORD
  5
14C
102
{ACAD_REACTORS
330
14B
102
}
330
14B
100
AcDbXrecord
280
     1
102
RTVSPropertyOp0
 70
     1
102
RTVSPropertyOp1
 70
     1
102
RTVSPropertyOp2
 70
     1
102
RTVSPropertyOp3
 70
     1
102
RTVSPropertyOp4
 70
     1
102
RTVSPropertyOp5
 70
     1
102
RTVSPropertyOp6
 70
     1
102
RTVSPropertyOp7
 70
     1
102
RTVSPropertyOp8
 70
     1
102
RTVSPropertyOp9
 70
     1
102
RTVSPropertyOp10
 70
     1
102
RTVSPropertyOp11
 70
     1
102
RTVSPropertyOp12
 70
     1
102
RTVSPropertyOp13
 70
     1
102
RTVSPropertyOp14
 70
     1
102
RTVSPropertyOp15
 70
     1
102
RTVSPropertyOp16
 70
     1
102
RTVSPropertyOp17
 70
     1
102
RTVSPropertyOp18
 70
     1
102
RTVSPropertyOp19
 70
     1
102
RTVSPropertyOp20
 70
     1
102
RTVSPropertyOp21
 70
     1
102
RTVSPropertyOp22
 70
     1
102
RTVSPropertyOp23
 70
     1
102
RTVSPropertyOp24
 70
     1
102
RTVSPropertyOp25
 70
     1
102
RTVSPropertyOp26
 70
     1
102
RTVSPropertyOp27
 70
     1
102
RTVSPropertyOp28
 70
     1
102
RTVSPropertyOp29
 70
     1
102
RTVSPropertyOp30
 70
     1
102
RTVSPropertyOp31
 70
     1
102
RTVSPropertyOp32
 70
     1
102
RTVSPropertyOp33
 70
     1
102
RTVSPropertyOp34
 70
     1
102
RTVSPropertyOp35
 70
     1
102
RTVSPropertyOp36
 70
     1
102
RTVSPropertyOp37
 70
     1
102
RTVSPropertyOp38
 70
     1
102
RTVSPropertyOp39
 70
     1
102
RTVSPropertyOp40
 70
     1
102
RTVSPropertyOp41
 70
     1
102
RTVSPropertyOp42
 70
     1
102
RTVSPropertyOp43
 70
     1
102
RTVSPropertyOp44
 70
     1
102
RTVSPropertyOp45
 70
     1
102
RTVSPropertyOp46
 70
     1
102
RTVSPropertyOp47
 70
     1
102
RTVSPropertyOp48
 70
     1
102
RTVSPropertyOp49
 70
     1
102
RTVSPropertyOp50
 70
     1
102
RTVSPropertyOp51
 70
     0
102
RTVSPropertyOp52
 70
     0
102
RTVSPropertyOp53
 70
     1
102
RTVSPropertyOp54
 70
     1
102
RTVSPropertyOp55
 70
     1
102
RTVSPropertyOp56
 70
     1
102
RTVSPropertyOp57
 70
     1
102
RTVSPost2010Prop28
280
     0
102
RTVSPost2010PropOp28
 70
     1
102
RTVSPost2010Prop29
280
     1
102
RTVSPost2010PropOp29
 70
     1
102
RTVSPost2010Prop30
280
     1
102
RTVSPost2010PropOp30
 70
     1
102
RTVSPost2010Prop31
280
     0
102
RTVSPost2010PropOp31
 70
     1
102
RTVSPost2010Prop32
280
     0
102
RTVSPost2010PropOp32
 70
     1
102
RTVSPost2010Prop33
280
     0
102
RTVSPost2010PropOp33
 70
     1
102
RTVSPost2010Prop34
280
     0
102
RTVSPost2010PropOp34
 70
     1
102
RTVSPost2010Prop35
280
     0
102
RTVSPost2010PropOp35
 70
     1
102
RTVSPost2010Prop36
280
     0
102
RTVSPost2010PropOp36
 70
     1
102
RTVSPost2010Prop37
 90
       50
102
RTVSPost2010PropOp37
 70
     1
102
RTVSPost2010Prop38
140
0.0
102
RTVSPost2010PropOp38
 70
     1
102
RTVSPost2010Prop39
140
1.0
102
RTVSPost2010PropOp39
 70
     1
102
RTVSPost2010Prop40
 90
        0
102
RTVSPost2010PropOp40
 70
     1
102
RTVSPost2010Prop41ColorIndex
 90
       18
102
RTVSPost2010Prop41ColorRGB
 90
        0
102
RTVSPost2010PropOp41
 70
     1
102
RTVSPost2010Prop42
 90
       50
102
RTVSPost2010PropOp42
 70
     1
102
RTVSPost2010Prop43
 90
        3
102
RTVSPost2010PropOp43
 70
     1
102
RTVSPost2010Prop44ColorIndex
 90
        5
102
RTVSPost2010Prop44ColorRGB
 90
      255
102
RTVSPost2010PropOp44
 70
     1
102
RTVSPost2010Prop45
280
     0
102
RTVSPost2010PropOp45
 70
     1
102
RTVSPost2010Prop46
 90
       50
102
RTVSPost2010PropOp46
 70
     1
102
RTVSPost2010Prop47
 90
       50
102
RTVSPost2010PropOp47
 70
     1
102
RTVSPost2010Prop48
 90
       50
102
RTVSPost2010PropOp48
 70
     1
102
RTVSPost2010Prop49
280
     0
102
RTVSPost2010PropOp49
 70
     1
102
RTVSPost2010Prop50
 90
       50
102
RTVSPost2010PropOp50
 70
     1
102
RTVSPost2010Prop51ColorIndex
 90
      256
102
RTVSPost2010Prop51ColorRGB
 90
-16777216
102
RTVSPost2010PropOp51
 70
     0
102
RTVSPost2010Prop52
140
1.0
102
RTVSPost2010PropOp52
 70
     0
102
RTVSPost2010Prop53
 90
        2
102
RTVSPost2010PropOp53
 70
     1
102
RTVSPost2010Prop54
  1
strokes_ogs.tif
102
RTVSPost2010PropOp54
 70
     1
102
RTVSPost2010Prop55
280
     0
102
RTVSPost2010PropOp55
 70
     1
102
RTVSPost2010Prop56
140
1.0
102
RTVSPost2010PropOp56
 70
     1
102
RTVSPost2010Prop57
140
1.0
102
RTVSPost2010PropOp57
 70
     1
  0
XRECORD
  5
154
102
{ACAD_REACTORS
330
153
102
}
330
153
100
AcDbXrecord
280
     1
102
RTVSPropertyOp0
 70
     1
102
RTVSPropertyOp1
 70
     1
102
RTVSPropertyOp2
 70
     1
102
RTVSPropertyOp3
 70
     1
102
RTVSPropertyOp4
 70
     1
102
RTVSPropertyOp5
 70
     1
102
RTVSPropertyOp6
 70
     1
102
RTVSPropertyOp7
 70
     1
102
RTVSPropertyOp8
 70
     1
102
RTVSPropertyOp9
 70
     1
102
RTVSPropertyOp10
 70
     1
102
RTVSPropertyOp11
 70
     1
102
RTVSPropertyOp12
 70
     1
102
RTVSPropertyOp13
 70
     1
102
RTVSPropertyOp14
 70
     1
102
RTVSPropertyOp15
 70
     1
102
RTVSPropertyOp16
 70
     1
102
RTVSPropertyOp17
 70
     1
102
RTVSPropertyOp18
 70
     1
102
RTVSPropertyOp19
 70
     1
102
RTVSPropertyOp20
 70
     1
102
RTVSPropertyOp21
 70
     1
102
RTVSPropertyOp22
 70
     1
102
RTVSPropertyOp23
 70
     1
102
RTVSPropertyOp24
 70
     1
102
RTVSPropertyOp25
 70
     1
102
RTVSPropertyOp26
 70
     1
102
RTVSPropertyOp27
 70
     1
102
RTVSPropertyOp28
 70
     1
102
RTVSPropertyOp29
 70
     1
102
RTVSPropertyOp30
 70
     1
102
RTVSPropertyOp31
 70
     1
102
RTVSPropertyOp32
 70
     1
102
RTVSPropertyOp33
 70
     1
102
RTVSPropertyOp34
 70
     1
102
RTVSPropertyOp35
 70
     1
102
RTVSPropertyOp36
 70
     1
102
RTVSPropertyOp37
 70
     1
102
RTVSPropertyOp38
 70
     1
102
RTVSPropertyOp39
 70
     1
102
RTVSPropertyOp40
 70
     1
102
RTVSPropertyOp41
 70
     1
102
RTVSPropertyOp42
 70
     1
102
RTVSPropertyOp43
 70
     1
102
RTVSPropertyOp44
 70
     1
102
RTVSPropertyOp45
 70
     1
102
RTVSPropertyOp46
 70
     1
102
RTVSPropertyOp47
 70
     1
102
RTVSPropertyOp48
 70
     1
102
RTVSPropertyOp49
 70
     1
102
RTVSPropertyOp50
 70
     1
102
RTVSPropertyOp51
 70
     0
102
RTVSPropertyOp52
 70
     0
102
RTVSPropertyOp53
 70
     1
102
RTVSPropertyOp54
 70
     1
102
RTVSPropertyOp55
 70
     1
102
RTVSPropertyOp56
 70
     1
102
RTVSPropertyOp57
 70
     1
102
RTVSPost2010Prop28
280
     0
102
RTVSPost2010PropOp28
 70
     1
102
RTVSPost2010Prop29
280
     1
102
RTVSPost2010PropOp29
 70
     1
102
RTVSPost2010Prop30
280
     1
102
RTVSPost2010PropOp30
 70
     1
102
RTVSPost2010Prop31
280
     0
102
RTVSPost2010PropOp31
 70
     1
102
RTVSPost2010Prop32
280
     0
102
RTVSPost2010PropOp32
 70
     1
102
RTVSPost2010Prop33
280
     0
102
RTVSPost2010PropOp33
 70
     1
102
RTVSPost2010Prop34
280
     0
102
RTVSPost2010PropOp34
 70
     1
102
RTVSPost2010Prop35
280
     0
102
RTVSPost2010PropOp35
 70
     1
102
RTVSPost2010Prop36
280
     0
102
RTVSPost2010PropOp36
 70
     1
102
RTVSPost2010Prop37
 90
       50
102
RTVSPost2010PropOp37
 70
     1
102
RTVSPost2010Prop38
140
0.0
102
RTVSPost2010PropOp38
 70
     1
102
RTVSPost2010Prop39
140
1.0
102
RTVSPost2010PropOp39
 70
     1
102
RTVSPost2010Prop40
 90
        0
102
RTVSPost2010PropOp40
 70
     1
102
RTVSPost2010Prop41ColorIndex
 90
       18
102
RTVSPost2010Prop41ColorRGB
 90
        0
102
RTVSPost2010PropOp41
 70
     1
102
RTVSPost2010Prop42
 90
       50
102
RTVSPost2010PropOp42
 70
     1
102
RTVSPost2010Prop43
 90
        3
102
RTVSPost2010PropOp43
 70
     1
102
RTVSPost2010Prop44ColorIndex
 90
        5
102
RTVSPost2010Prop44ColorRGB
 90
      255
102
RTVSPost2010PropOp44
 70
     1
102
RTVSPost2010Prop45
280
     0
102
RTVSPost2010PropOp45
 70
     1
102
RTVSPost2010Prop46
 90
       50
102
RTVSPost2010PropOp46
 70
     1
102
RTVSPost2010Prop47
 90
       50
102
RTVSPost2010PropOp47
 70
     1
102
RTVSPost2010Prop48
 90
       50
102
RTVSPost2010PropOp48
 70
     1
102
RTVSPost2010Prop49
280
     0
102
RTVSPost2010PropOp49
 70
     1
102
RTVSPost2010Prop50
 90
       50
102
RTVSPost2010PropOp50
 70
     1
102
RTVSPost2010Prop51ColorIndex
 90
      256
102
RTVSPost2010Prop51ColorRGB
 90
-16777216
102
RTVSPost2010PropOp51
 70
     0
102
RTVSPost2010Prop52
140
1.0
102
RTVSPost2010PropOp52
 70
     0
102
RTVSPost2010Prop53
 90
        2
102
RTVSPost2010PropOp53
 70
     1
102
RTVSPost2010Prop54
  1
strokes_ogs.tif
102
RTVSPost2010PropOp54
 70
     1
102
RTVSPost2010Prop55
280
     0
102
RTVSPost2010PropOp55
 70
     1
102
RTVSPost2010Prop56
140
1.0
102
RTVSPost2010PropOp56
 70
     1
102
RTVSPost2010Prop57
140
1.0
102
RTVSPost2010PropOp57
 70
     1
  0
XRECORD
  5
15C
102
{ACAD_REACTORS
330
15B
102
}
330
15B
100
AcDbXrecord
280
     1
102
RTVSPropertyOp0
 70
     1
102
RTVSPropertyOp1
 70
     1
102
RTVSPropertyOp2
 70
     1
102
RTVSPropertyOp3
 70
     1
102
RTVSPropertyOp4
 70
     1
102
RTVSPropertyOp5
 70
     1
102
RTVSPropertyOp6
 70
     1
102
RTVSPropertyOp7
 70
     1
102
RTVSPropertyOp8
 70
     1
102
RTVSPropertyOp9
 70
     1
102
RTVSPropertyOp10
 70
     1
102
RTVSPropertyOp11
 70
     1
102
RTVSPropertyOp12
 70
     1
102
RTVSPropertyOp13
 70
     1
102
RTVSPropertyOp14
 70
     1
102
RTVSPropertyOp15
 70
     1
102
RTVSPropertyOp16
 70
     1
102
RTVSPropertyOp17
 70
     1
102
RTVSPropertyOp18
 70
     1
102
RTVSPropertyOp19
 70
     1
102
RTVSPropertyOp20
 70
     1
102
RTVSPropertyOp21
 70
     1
102
RTVSPropertyOp22
 70
     1
102
RTVSPropertyOp23
 70
     1
102
RTVSPropertyOp24
 70
     1
102
RTVSPropertyOp25
 70
     1
102
RTVSPropertyOp26
 70
     1
102
RTVSPropertyOp27
 70
     1
102
RTVSPropertyOp28
 70
     1
102
RTVSPropertyOp29
 70
     1
102
RTVSPropertyOp30
 70
     1
102
RTVSPropertyOp31
 70
     1
102
RTVSPropertyOp32
 70
     1
102
RTVSPropertyOp33
 70
     1
102
RTVSPropertyOp34
 70
     1
102
RTVSPropertyOp35
 70
     1
102
RTVSPropertyOp36
 70
     1
102
RTVSPropertyOp37
 70
     1
102
RTVSPropertyOp38
 70
     1
102
RTVSPropertyOp39
 70
     1
102
RTVSPropertyOp40
 70
     1
102
RTVSPropertyOp41
 70
     1
102
RTVSPropertyOp42
 70
     1
102
RTVSPropertyOp43
 70
     1
102
RTVSPropertyOp44
 70
     1
102
RTVSPropertyOp45
 70
     1
102
RTVSPropertyOp46
 70
     1
102
RTVSPropertyOp47
 70
     1
102
RTVSPropertyOp48
 70
     1
102
RTVSPropertyOp49
 70
     1
102
RTVSPropertyOp50
 70
     1
102
RTVSPropertyOp51
 70
     0
102
RTVSPropertyOp52
 70
     0
102
RTVSPropertyOp53
 70
     1
102
RTVSPropertyOp54
 70
     1
102
RTVSPropertyOp55
 70
     1
102
RTVSPropertyOp56
 70
     1
102
RTVSPropertyOp57
 70
     1
102
RTVSPost2010Prop28
280
     0
102
RTVSPost2010PropOp28
 70
     1
102
RTVSPost2010Prop29
280
     1
102
RTVSPost2010PropOp29
 70
     1
102
RTVSPost2010Prop30
280
     1
102
RTVSPost2010PropOp30
 70
     1
102
RTVSPost2010Prop31
280
     0
102
RTVSPost2010PropOp31
 70
     1
102
RTVSPost2010Prop32
280
     0
102
RTVSPost2010PropOp32
 70
     1
102
RTVSPost2010Prop33
280
     0
102
RTVSPost2010PropOp33
 70
     1
102
RTVSPost2010Prop34
280
     0
102
RTVSPost2010PropOp34
 70
     1
102
RTVSPost2010Prop35
280
     0
102
RTVSPost2010PropOp35
 70
     1
102
RTVSPost2010Prop36
280
     0
102
RTVSPost2010PropOp36
 70
     1
102
RTVSPost2010Prop37
 90
       50
102
RTVSPost2010PropOp37
 70
     1
102
RTVSPost2010Prop38
140
0.0
102
RTVSPost2010PropOp38
 70
     1
102
RTVSPost2010Prop39
140
1.0
102
RTVSPost2010PropOp39
 70
     1
102
RTVSPost2010Prop40
 90
        0
102
RTVSPost2010PropOp40
 70
     1
102
RTVSPost2010Prop41ColorIndex
 90
       18
102
RTVSPost2010Prop41ColorRGB
 90
        0
102
RTVSPost2010PropOp41
 70
     1
102
RTVSPost2010Prop42
 90
       50
102
RTVSPost2010PropOp42
 70
     1
102
RTVSPost2010Prop43
 90
        3
102
RTVSPost2010PropOp43
 70
     1
102
RTVSPost2010Prop44ColorIndex
 90
        5
102
RTVSPost2010Prop44ColorRGB
 90
      255
102
RTVSPost2010PropOp44
 70
     1
102
RTVSPost2010Prop45
280
     0
102
RTVSPost2010PropOp45
 70
     1
102
RTVSPost2010Prop46
 90
       50
102
RTVSPost2010PropOp46
 70
     1
102
RTVSPost2010Prop47
 90
       50
102
RTVSPost2010PropOp47
 70
     1
102
RTVSPost2010Prop48
 90
       50
102
RTVSPost2010PropOp48
 70
     1
102
RTVSPost2010Prop49
280
     0
102
RTVSPost2010PropOp49
 70
     1
102
RTVSPost2010Prop50
 90
       50
102
RTVSPost2010PropOp50
 70
     1
102
RTVSPost2010Prop51ColorIndex
 90
      256
102
RTVSPost2010Prop51ColorRGB
 90
-16777216
102
RTVSPost2010PropOp51
 70
     0
102
RTVSPost2010Prop52
140
1.0
102
RTVSPost2010PropOp52
 70
     0
102
RTVSPost2010Prop53
 90
        2
102
RTVSPost2010PropOp53
 70
     1
102
RTVSPost2010Prop54
  1
strokes_ogs.tif
102
RTVSPost2010PropOp54
 70
     1
102
RTVSPost2010Prop55
280
     0
102
RTVSPost2010PropOp55
 70
     1
102
RTVSPost2010Prop56
140
1.0
102
RTVSPost2010PropOp56
 70
     1
102
RTVSPost2010Prop57
140
1.0
102
RTVSPost2010PropOp57
 70
     1
  0
XRECORD
  5
150
102
{ACAD_REACTORS
330
14F
102
}
330
14F
100
AcDbXrecord
280
     1
102
RTVSPropertyOp0
 70
     1
102
RTVSPropertyOp1
 70
     1
102
RTVSPropertyOp2
 70
     1
102
RTVSPropertyOp3
 70
     1
102
RTVSPropertyOp4
 70
     1
102
RTVSPropertyOp5
 70
     1
102
RTVSPropertyOp6
 70
     1
102
RTVSPropertyOp7
 70
     1
102
RTVSPropertyOp8
 70
     1
102
RTVSPropertyOp9
 70
     1
102
RTVSPropertyOp10
 70
     1
102
RTVSPropertyOp11
 70
     1
102
RTVSPropertyOp12
 70
     1
102
RTVSPropertyOp13
 70
     1
102
RTVSPropertyOp14
 70
     1
102
RTVSPropertyOp15
 70
     1
102
RTVSPropertyOp16
 70
     1
102
RTVSPropertyOp17
 70
     1
102
RTVSPropertyOp18
 70
     1
102
RTVSPropertyOp19
 70
     1
102
RTVSPropertyOp20
 70
     1
102
RTVSPropertyOp21
 70
     1
102
RTVSPropertyOp22
 70
     1
102
RTVSPropertyOp23
 70
     1
102
RTVSPropertyOp24
 70
     1
102
RTVSPropertyOp25
 70
     1
102
RTVSPropertyOp26
 70
     1
102
RTVSPropertyOp27
 70
     1
102
RTVSPropertyOp28
 70
     1
102
RTVSPropertyOp29
 70
     1
102
RTVSPropertyOp30
 70
     1
102
RTVSPropertyOp31
 70
     1
102
RTVSPropertyOp32
 70
     1
102
RTVSPropertyOp33
 70
     1
102
RTVSPropertyOp34
 70
     1
102
RTVSPropertyOp35
 70
     1
102
RTVSPropertyOp36
 70
     1
102
RTVSPropertyOp37
 70
     1
102
RTVSPropertyOp38
 70
     1
102
RTVSPropertyOp39
 70
     1
102
RTVSPropertyOp40
 70
     1
102
RTVSPropertyOp41
 70
     1
102
RTVSPropertyOp42
 70
     1
102
RTVSPropertyOp43
 70
     1
102
RTVSPropertyOp44
 70
     1
102
RTVSPropertyOp45
 70
     1
102
RTVSPropertyOp46
 70
     1
102
RTVSPropertyOp47
 70
     1
102
RTVSPropertyOp48
 70
     1
102
RTVSPropertyOp49
 70
     1
102
RTVSPropertyOp50
 70
     1
102
RTVSPropertyOp51
 70
     0
102
RTVSPropertyOp52
 70
     0
102
RTVSPropertyOp53
 70
     1
102
RTVSPropertyOp54
 70
     1
102
RTVSPropertyOp55
 70
     1
102
RTVSPropertyOp56
 70
     1
102
RTVSPropertyOp57
 70
     1
102
RTVSPost2010Prop28
280
     0
102
RTVSPost2010PropOp28
 70
     1
102
RTVSPost2010Prop29
280
     1
102
RTVSPost2010PropOp29
 70
     1
102
RTVSPost2010Prop30
280
     1
102
RTVSPost2010PropOp30
 70
     1
102
RTVSPost2010Prop31
280
     0
102
RTVSPost2010PropOp31
 70
     1
102
RTVSPost2010Prop32
280
     0
102
RTVSPost2010PropOp32
 70
     1
102
RTVSPost2010Prop33
280
     0
102
RTVSPost2010PropOp33
 70
     1
102
RTVSPost2010Prop34
280
     0
102
RTVSPost2010PropOp34
 70
     1
102
RTVSPost2010Prop35
280
     0
102
RTVSPost2010PropOp35
 70
     1
102
RTVSPost2010Prop36
280
     0
102
RTVSPost2010PropOp36
 70
     1
102
RTVSPost2010Prop37
 90
       50
102
RTVSPost2010PropOp37
 70
     1
102
RTVSPost2010Prop38
140
0.0
102
RTVSPost2010PropOp38
 70
     1
102
RTVSPost2010Prop39
140
1.0
102
RTVSPost2010PropOp39
 70
     1
102
RTVSPost2010Prop40
 90
        0
102
RTVSPost2010PropOp40
 70
     1
102
RTVSPost2010Prop41ColorIndex
 90
       18
102
RTVSPost2010Prop41ColorRGB
 90
        0
102
RTVSPost2010PropOp41
 70
     1
102
RTVSPost2010Prop42
 90
       50
102
RTVSPost2010PropOp42
 70
     1
102
RTVSPost2010Prop43
 90
        3
102
RTVSPost2010PropOp43
 70
     1
102
RTVSPost2010Prop44ColorIndex
 90
        5
102
RTVSPost2010Prop44ColorRGB
 90
      255
102
RTVSPost2010PropOp44
 70
     1
102
RTVSPost2010Prop45
280
     0
102
RTVSPost2010PropOp45
 70
     1
102
RTVSPost2010Prop46
 90
       50
102
RTVSPost2010PropOp46
 70
     1
102
RTVSPost2010Prop47
 90
       50
102
RTVSPost2010PropOp47
 70
     1
102
RTVSPost2010Prop48
 90
       50
102
RTVSPost2010PropOp48
 70
     1
102
RTVSPost2010Prop49
280
     0
102
RTVSPost2010PropOp49
 70
     1
102
RTVSPost2010Prop50
 90
       50
102
RTVSPost2010PropOp50
 70
     1
102
RTVSPost2010Prop51ColorIndex
 90
      256
102
RTVSPost2010Prop51ColorRGB
 90
-16777216
102
RTVSPost2010PropOp51
 70
     0
102
RTVSPost2010Prop52
140
1.0
102
RTVSPost2010PropOp52
 70
     0
102
RTVSPost2010Prop53
 90
        2
102
RTVSPost2010PropOp53
 70
     1
102
RTVSPost2010Prop54
  1
strokes_ogs.tif
102
RTVSPost2010PropOp54
 70
     1
102
RTVSPost2010Prop55
280
     0
102
RTVSPost2010PropOp55
 70
     1
102
RTVSPost2010Prop56
140
1.0
102
RTVSPost2010PropOp56
 70
     1
102
RTVSPost2010Prop57
140
1.0
102
RTVSPost2010PropOp57
 70
     1
  0
XRECORD
  5
152
102
{ACAD_REACTORS
330
151
102
}
330
151
100
AcDbXrecord
280
     1
102
RTVSPropertyOp0
 70
     1
102
RTVSPropertyOp1
 70
     1
102
RTVSPropertyOp2
 70
     1
102
RTVSPropertyOp3
 70
     1
102
RTVSPropertyOp4
 70
     1
102
RTVSPropertyOp5
 70
     1
102
RTVSPropertyOp6
 70
     1
102
RTVSPropertyOp7
 70
     1
102
RTVSPropertyOp8
 70
     1
102
RTVSPropertyOp9
 70
     1
102
RTVSPropertyOp10
 70
     1
102
RTVSPropertyOp11
 70
     1
102
RTVSPropertyOp12
 70
     1
102
RTVSPropertyOp13
 70
     1
102
RTVSPropertyOp14
 70
     1
102
RTVSPropertyOp15
 70
     1
102
RTVSPropertyOp16
 70
     1
102
RTVSPropertyOp17
 70
     1
102
RTVSPropertyOp18
 70
     1
102
RTVSPropertyOp19
 70
     1
102
RTVSPropertyOp20
 70
     1
102
RTVSPropertyOp21
 70
     1
102
RTVSPropertyOp22
 70
     1
102
RTVSPropertyOp23
 70
     1
102
RTVSPropertyOp24
 70
     1
102
RTVSPropertyOp25
 70
     1
102
RTVSPropertyOp26
 70
     1
102
RTVSPropertyOp27
 70
     1
102
RTVSPropertyOp28
 70
     1
102
RTVSPropertyOp29
 70
     1
102
RTVSPropertyOp30
 70
     1
102
RTVSPropertyOp31
 70
     1
102
RTVSPropertyOp32
 70
     1
102
RTVSPropertyOp33
 70
     1
102
RTVSPropertyOp34
 70
     1
102
RTVSPropertyOp35
 70
     1
102
RTVSPropertyOp36
 70
     1
102
RTVSPropertyOp37
 70
     1
102
RTVSPropertyOp38
 70
     1
102
RTVSPropertyOp39
 70
     1
102
RTVSPropertyOp40
 70
     1
102
RTVSPropertyOp41
 70
     1
102
RTVSPropertyOp42
 70
     1
102
RTVSPropertyOp43
 70
     1
102
RTVSPropertyOp44
 70
     1
102
RTVSPropertyOp45
 70
     1
102
RTVSPropertyOp46
 70
     1
102
RTVSPropertyOp47
 70
     1
102
RTVSPropertyOp48
 70
     1
102
RTVSPropertyOp49
 70
     1
102
RTVSPropertyOp50
 70
     1
102
RTVSPropertyOp51
 70
     0
102
RTVSPropertyOp52
 70
     0
102
RTVSPropertyOp53
 70
     1
102
RTVSPropertyOp54
 70
     1
102
RTVSPropertyOp55
 70
     1
102
RTVSPropertyOp56
 70
     1
102
RTVSPropertyOp57
 70
     1
102
RTVSPost2010Prop28
280
     0
102
RTVSPost2010PropOp28
 70
     1
102
RTVSPost2010Prop29
280
     1
102
RTVSPost2010PropOp29
 70
     1
102
RTVSPost2010Prop30
280
     1
102
RTVSPost2010PropOp30
 70
     1
102
RTVSPost2010Prop31
280
     0
102
RTVSPost2010PropOp31
 70
     1
102
RTVSPost2010Prop32
280
     0
102
RTVSPost2010PropOp32
 70
     1
102
RTVSPost2010Prop33
280
     0
102
RTVSPost2010PropOp33
 70
     1
102
RTVSPost2010Prop34
280
     0
102
RTVSPost2010PropOp34
 70
     1
102
RTVSPost2010Prop35
280
     0
102
RTVSPost2010PropOp35
 70
     1
102
RTVSPost2010Prop36
280
     0
102
RTVSPost2010PropOp36
 70
     1
102
RTVSPost2010Prop37
 90
       50
102
RTVSPost2010PropOp37
 70
     1
102
RTVSPost2010Prop38
140
0.0
102
RTVSPost2010PropOp38
 70
     1
102
RTVSPost2010Prop39
140
1.0
102
RTVSPost2010PropOp39
 70
     1
102
RTVSPost2010Prop40
 90
        0
102
RTVSPost2010PropOp40
 70
     1
102
RTVSPost2010Prop41ColorIndex
 90
       18
102
RTVSPost2010Prop41ColorRGB
 90
        0
102
RTVSPost2010PropOp41
 70
     1
102
RTVSPost2010Prop42
 90
       50
102
RTVSPost2010PropOp42
 70
     1
102
RTVSPost2010Prop43
 90
        3
102
RTVSPost2010PropOp43
 70
     1
102
RTVSPost2010Prop44ColorIndex
 90
        5
102
RTVSPost2010Prop44ColorRGB
 90
      255
102
RTVSPost2010PropOp44
 70
     1
102
RTVSPost2010Prop45
280
     0
102
RTVSPost2010PropOp45
 70
     1
102
RTVSPost2010Prop46
 90
       50
102
RTVSPost2010PropOp46
 70
     1
102
RTVSPost2010Prop47
 90
       50
102
RTVSPost2010PropOp47
 70
     1
102
RTVSPost2010Prop48
 90
       50
102
RTVSPost2010PropOp48
 70
     1
102
RTVSPost2010Prop49
280
     0
102
RTVSPost2010PropOp49
 70
     1
102
RTVSPost2010Prop50
 90
       50
102
RTVSPost2010PropOp50
 70
     1
102
RTVSPost2010Prop51ColorIndex
 90
      256
102
RTVSPost2010Prop51ColorRGB
 90
-16777216
102
RTVSPost2010PropOp51
 70
     0
102
RTVSPost2010Prop52
140
1.0
102
RTVSPost2010PropOp52
 70
     0
102
RTVSPost2010Prop53
 90
        2
102
RTVSPost2010PropOp53
 70
     1
102
RTVSPost2010Prop54
  1
strokes_ogs.tif
102
RTVSPost2010PropOp54
 70
     1
102
RTVSPost2010Prop55
280
     0
102
RTVSPost2010PropOp55
 70
     1
102
RTVSPost2010Prop56
140
1.0
102
RTVSPost2010PropOp56
 70
     1
102
RTVSPost2010Prop57
140
1.0
102
RTVSPost2010PropOp57
 70
     1
  0
XRECORD
  5
162
102
{ACAD_REACTORS
330
161
102
}
330
161
100
AcDbXrecord
280
     1
102
RTVSPropertyOp0
 70
     0
102
RTVSPropertyOp1
 70
     0
102
RTVSPropertyOp2
 70
     0
102
RTVSPropertyOp3
 70
     0
102
RTVSPropertyOp4
 70
     0
102
RTVSPropertyOp5
 70
     0
102
RTVSPropertyOp6
 70
     0
102
RTVSPropertyOp7
 70
     0
102
RTVSPropertyOp8
 70
     0
102
RTVSPropertyOp9
 70
     0
102
RTVSPropertyOp10
 70
     0
102
RTVSPropertyOp11
 70
     0
102
RTVSPropertyOp12
 70
     0
102
RTVSPropertyOp13
 70
     0
102
RTVSPropertyOp14
 70
     2
102
RTVSPropertyOp15
 70
     0
102
RTVSPropertyOp16
 70
     0
102
RTVSPropertyOp17
 70
     0
102
RTVSPropertyOp18
 70
     0
102
RTVSPropertyOp19
 70
     0
102
RTVSPropertyOp20
 70
     0
102
RTVSPropertyOp21
 70
     0
102
RTVSPropertyOp22
 70
     0
102
RTVSPropertyOp23
 70
     0
102
RTVSPropertyOp24
 70
     0
102
RTVSPropertyOp25
 70
     0
102
RTVSPropertyOp26
 70
     0
102
RTVSPropertyOp27
 70
     0
102
RTVSPropertyOp28
 70
     0
102
RTVSPropertyOp29
 70
     0
102
RTVSPropertyOp30
 70
     0
102
RTVSPropertyOp31
 70
     0
102
RTVSPropertyOp32
 70
     0
102
RTVSPropertyOp33
 70
     0
102
RTVSPropertyOp34
 70
     0
102
RTVSPropertyOp35
 70
     0
102
RTVSPropertyOp36
 70
     0
102
RTVSPropertyOp37
 70
     0
102
RTVSPropertyOp38
 70
     0
102
RTVSPropertyOp39
 70
     0
102
RTVSPropertyOp40
 70
     0
102
RTVSPropertyOp41
 70
     0
102
RTVSPropertyOp42
 70
     0
102
RTVSPropertyOp43
 70
     0
102
RTVSPropertyOp44
 70
     0
102
RTVSPropertyOp45
 70
     0
102
RTVSPropertyOp46
 70
     0
102
RTVSPropertyOp47
 70
     0
102
RTVSPropertyOp48
 70
     0
102
RTVSPropertyOp49
 70
     0
102
RTVSPropertyOp50
 70
     0
102
RTVSPropertyOp51
 70
     0
102
RTVSPropertyOp52
 70
     0
102
RTVSPropertyOp53
 70
     0
102
RTVSPropertyOp54
 70
     0
102
RTVSPropertyOp55
 70
     0
102
RTVSPropertyOp56
 70
     0
102
RTVSPropertyOp57
 70
     0
102
RTVSPost2010Prop28
280
     0
102
RTVSPost2010PropOp28
 70
     0
102
RTVSPost2010Prop29
280
     1
102
RTVSPost2010PropOp29
 70
     0
102
RTVSPost2010Prop30
280
     1
102
RTVSPost2010PropOp30
 70
     0
102
RTVSPost2010Prop31
280
     0
102
RTVSPost2010PropOp31
 70
     0
102
RTVSPost2010Prop32
280
     0
102
RTVSPost2010PropOp32
 70
     0
102
RTVSPost2010Prop33
280
     0
102
RTVSPost2010PropOp33
 70
     0
102
RTVSPost2010Prop34
280
     0
102
RTVSPost2010PropOp34
 70
     0
102
RTVSPost2010Prop35
280
     0
102
RTVSPost2010PropOp35
 70
     0
102
RTVSPost2010Prop36
280
     0
102
RTVSPost2010PropOp36
 70
     0
102
RTVSPost2010Prop37
 90
       50
102
RTVSPost2010PropOp37
 70
     0
102
RTVSPost2010Prop38
140
0.0
102
RTVSPost2010PropOp38
 70
     0
102
RTVSPost2010Prop39
140
1.0
102
RTVSPost2010PropOp39
 70
     0
102
RTVSPost2010Prop40
 90
        0
102
RTVSPost2010PropOp40
 70
     0
102
RTVSPost2010Prop41ColorIndex
 90
       18
102
RTVSPost2010Prop41ColorRGB
 90
        0
102
RTVSPost2010PropOp41
 70
     0
102
RTVSPost2010Prop42
 90
       50
102
RTVSPost2010PropOp42
 70
     0
102
RTVSPost2010Prop43
 90
        3
102
RTVSPost2010PropOp43
 70
     0
102
RTVSPost2010Prop44ColorIndex
 90
        5
102
RTVSPost2010Prop44ColorRGB
 90
      255
102
RTVSPost2010PropOp44
 70
     0
102
RTVSPost2010Prop45
280
     0
102
RTVSPost2010PropOp45
 70
     0
102
RTVSPost2010Prop46
 90
       50
102
RTVSPost2010PropOp46
 70
     0
102
RTVSPost2010Prop47
 90
       50
102
RTVSPost2010PropOp47
 70
     0
102
RTVSPost2010Prop48
 90
       50
102
RTVSPost2010PropOp48
 70
     0
102
RTVSPost2010Prop49
280
     0
102
RTVSPost2010PropOp49
 70
     0
102
RTVSPost2010Prop50
 90
       50
102
RTVSPost2010PropOp50
 70
     0
102
RTVSPost2010Prop51ColorIndex
 90
      256
102
RTVSPost2010Prop51ColorRGB
 90
-16777216
102
RTVSPost2010PropOp51
 70
     0
102
RTVSPost2010Prop52
140
1.0
102
RTVSPost2010PropOp52
 70
     0
102
RTVSPost2010Prop53
 90
        2
102
RTVSPost2010PropOp53
 70
     0
102
RTVSPost2010Prop54
  1
strokes_ogs.tif
102
RTVSPost2010PropOp54
 70
     0
102
RTVSPost2010Prop55
280
     0
102
RTVSPost2010PropOp55
 70
     0
102
RTVSPost2010Prop56
140
1.0
102
RTVSPost2010PropOp56
 70
     0
102
RTVSPost2010Prop57
140
1.0
102
RTVSPost2010PropOp57
 70
     0
  0
XRECORD
  5
15A
102
{ACAD_REACTORS
330
159
102
}
330
159
100
AcDbXrecord
280
     1
102
RTVSPropertyOp0
 70
     1
102
RTVSPropertyOp1
 70
     1
102
RTVSPropertyOp2
 70
     1
102
RTVSPropertyOp3
 70
     1
102
RTVSPropertyOp4
 70
     1
102
RTVSPropertyOp5
 70
     1
102
RTVSPropertyOp6
 70
     1
102
RTVSPropertyOp7
 70
     1
102
RTVSPropertyOp8
 70
     1
102
RTVSPropertyOp9
 70
     1
102
RTVSPropertyOp10
 70
     1
102
RTVSPropertyOp11
 70
     1
102
RTVSPropertyOp12
 70
     1
102
RTVSPropertyOp13
 70
     1
102
RTVSPropertyOp14
 70
     1
102
RTVSPropertyOp15
 70
     1
102
RTVSPropertyOp16
 70
     1
102
RTVSPropertyOp17
 70
     1
102
RTVSPropertyOp18
 70
     1
102
RTVSPropertyOp19
 70
     1
102
RTVSPropertyOp20
 70
     1
102
RTVSPropertyOp21
 70
     1
102
RTVSPropertyOp22
 70
     1
102
RTVSPropertyOp23
 70
     1
102
RTVSPropertyOp24
 70
     1
102
RTVSPropertyOp25
 70
     1
102
RTVSPropertyOp26
 70
     1
102
RTVSPropertyOp27
 70
     1
102
RTVSPropertyOp28
 70
     1
102
RTVSPropertyOp29
 70
     1
102
RTVSPropertyOp30
 70
     1
102
RTVSPropertyOp31
 70
     1
102
RTVSPropertyOp32
 70
     1
102
RTVSPropertyOp33
 70
     1
102
RTVSPropertyOp34
 70
     1
102
RTVSPropertyOp35
 70
     1
102
RTVSPropertyOp36
 70
     1
102
RTVSPropertyOp37
 70
     1
102
RTVSPropertyOp38
 70
     1
102
RTVSPropertyOp39
 70
     1
102
RTVSPropertyOp40
 70
     1
102
RTVSPropertyOp41
 70
     1
102
RTVSPropertyOp42
 70
     1
102
RTVSPropertyOp43
 70
     1
102
RTVSPropertyOp44
 70
     1
102
RTVSPropertyOp45
 70
     1
102
RTVSPropertyOp46
 70
     1
102
RTVSPropertyOp47
 70
     1
102
RTVSPropertyOp48
 70
     1
102
RTVSPropertyOp49
 70
     1
102
RTVSPropertyOp50
 70
     1
102
RTVSPropertyOp51
 70
     0
102
RTVSPropertyOp52
 70
     0
102
RTVSPropertyOp53
 70
     1
102
RTVSPropertyOp54
 70
     1
102
RTVSPropertyOp55
 70
     1
102
RTVSPropertyOp56
 70
     1
102
RTVSPropertyOp57
 70
     1
102
RTVSPost2010Prop28
280
     0
102
RTVSPost2010PropOp28
 70
     1
102
RTVSPost2010Prop29
280
     1
102
RTVSPost2010PropOp29
 70
     1
102
RTVSPost2010Prop30
280
     1
102
RTVSPost2010PropOp30
 70
     1
102
RTVSPost2010Prop31
280
     0
102
RTVSPost2010PropOp31
 70
     1
102
RTVSPost2010Prop32
280
     0
102
RTVSPost2010PropOp32
 70
     1
102
RTVSPost2010Prop33
280
     0
102
RTVSPost2010PropOp33
 70
     1
102
RTVSPost2010Prop34
280
     0
102
RTVSPost2010PropOp34
 70
     1
102
RTVSPost2010Prop35
280
     0
102
RTVSPost2010PropOp35
 70
     1
102
RTVSPost2010Prop36
280
     0
102
RTVSPost2010PropOp36
 70
     1
102
RTVSPost2010Prop37
 90
       50
102
RTVSPost2010PropOp37
 70
     1
102
RTVSPost2010Prop38
140
0.0
102
RTVSPost2010PropOp38
 70
     1
102
RTVSPost2010Prop39
140
1.0
102
RTVSPost2010PropOp39
 70
     1
102
RTVSPost2010Prop40
 90
        0
102
RTVSPost2010PropOp40
 70
     1
102
RTVSPost2010Prop41ColorIndex
 90
       18
102
RTVSPost2010Prop41ColorRGB
 90
        0
102
RTVSPost2010PropOp41
 70
     1
102
RTVSPost2010Prop42
 90
       50
102
RTVSPost2010PropOp42
 70
     1
102
RTVSPost2010Prop43
 90
        3
102
RTVSPost2010PropOp43
 70
     1
102
RTVSPost2010Prop44ColorIndex
 90
        5
102
RTVSPost2010Prop44ColorRGB
 90
      255
102
RTVSPost2010PropOp44
 70
     1
102
RTVSPost2010Prop45
280
     0
102
RTVSPost2010PropOp45
 70
     1
102
RTVSPost2010Prop46
 90
       50
102
RTVSPost2010PropOp46
 70
     1
102
RTVSPost2010Prop47
 90
       50
102
RTVSPost2010PropOp47
 70
     1
102
RTVSPost2010Prop48
 90
       50
102
RTVSPost2010PropOp48
 70
     1
102
RTVSPost2010Prop49
280
     0
102
RTVSPost2010PropOp49
 70
     1
102
RTVSPost2010Prop50
 90
       50
102
RTVSPost2010PropOp50
 70
     1
102
RTVSPost2010Prop51ColorIndex
 90
      256
102
RTVSPost2010Prop51ColorRGB
 90
-16777216
102
RTVSPost2010PropOp51
 70
     0
102
RTVSPost2010Prop52
140
1.0
102
RTVSPost2010PropOp52
 70
     0
102
RTVSPost2010Prop53
 90
        2
102
RTVSPost2010PropOp53
 70
     1
102
RTVSPost2010Prop54
  1
strokes_ogs.tif
102
RTVSPost2010PropOp54
 70
     1
102
RTVSPost2010Prop55
280
     0
102
RTVSPost2010PropOp55
 70
     1
102
RTVSPost2010Prop56
140
1.0
102
RTVSPost2010PropOp56
 70
     1
102
RTVSPost2010Prop57
140
1.0
102
RTVSPost2010PropOp57
 70
     1
  0
XRECORD
  5
13E
102
{ACAD_REACTORS
330
13D
102
}
330
13D
100
AcDbXrecord
280
     1
102
RTVSPropertyOp0
 70
     1
102
RTVSPropertyOp1
 70
     1
102
RTVSPropertyOp2
 70
     1
102
RTVSPropertyOp3
 70
     1
102
RTVSPropertyOp4
 70
     1
102
RTVSPropertyOp5
 70
     1
102
RTVSPropertyOp6
 70
     1
102
RTVSPropertyOp7
 70
     1
102
RTVSPropertyOp8
 70
     1
102
RTVSPropertyOp9
 70
     1
102
RTVSPropertyOp10
 70
     1
102
RTVSPropertyOp11
 70
     1
102
RTVSPropertyOp12
 70
     1
102
RTVSPropertyOp13
 70
     1
102
RTVSPropertyOp14
 70
     1
102
RTVSPropertyOp15
 70
     1
102
RTVSPropertyOp16
 70
     1
102
RTVSPropertyOp17
 70
     1
102
RTVSPropertyOp18
 70
     1
102
RTVSPropertyOp19
 70
     1
102
RTVSPropertyOp20
 70
     1
102
RTVSPropertyOp21
 70
     1
102
RTVSPropertyOp22
 70
     1
102
RTVSPropertyOp23
 70
     1
102
RTVSPropertyOp24
 70
     1
102
RTVSPropertyOp25
 70
     1
102
RTVSPropertyOp26
 70
     1
102
RTVSPropertyOp27
 70
     1
102
RTVSPropertyOp28
 70
     1
102
RTVSPropertyOp29
 70
     1
102
RTVSPropertyOp30
 70
     1
102
RTVSPropertyOp31
 70
     1
102
RTVSPropertyOp32
 70
     1
102
RTVSPropertyOp33
 70
     1
102
RTVSPropertyOp34
 70
     1
102
RTVSPropertyOp35
 70
     1
102
RTVSPropertyOp36
 70
     1
102
RTVSPropertyOp37
 70
     1
102
RTVSPropertyOp38
 70
     1
102
RTVSPropertyOp39
 70
     1
102
RTVSPropertyOp40
 70
     1
102
RTVSPropertyOp41
 70
     1
102
RTVSPropertyOp42
 70
     1
102
RTVSPropertyOp43
 70
     1
102
RTVSPropertyOp44
 70
     1
102
RTVSPropertyOp45
 70
     1
102
RTVSPropertyOp46
 70
     1
102
RTVSPropertyOp47
 70
     1
102
RTVSPropertyOp48
 70
     1
102
RTVSPropertyOp49
 70
     1
102
RTVSPropertyOp50
 70
     1
102
RTVSPropertyOp51
 70
     0
102
RTVSPropertyOp52
 70
     0
102
RTVSPropertyOp53
 70
     1
102
RTVSPropertyOp54
 70
     1
102
RTVSPropertyOp55
 70
     1
102
RTVSPropertyOp56
 70
     1
102
RTVSPropertyOp57
 70
     1
102
RTVSPost2010Prop28
280
     0
102
RTVSPost2010PropOp28
 70
     1
102
RTVSPost2010Prop29
280
     1
102
RTVSPost2010PropOp29
 70
     1
102
RTVSPost2010Prop30
280
     1
102
RTVSPost2010PropOp30
 70
     1
102
RTVSPost2010Prop31
280
     0
102
RTVSPost2010PropOp31
 70
     1
102
RTVSPost2010Prop32
280
     0
102
RTVSPost2010PropOp32
 70
     1
102
RTVSPost2010Prop33
280
     0
102
RTVSPost2010PropOp33
 70
     1
102
RTVSPost2010Prop34
280
     0
102
RTVSPost2010PropOp34
 70
     1
102
RTVSPost2010Prop35
280
     0
102
RTVSPost2010PropOp35
 70
     1
102
RTVSPost2010Prop36
280
     0
102
RTVSPost2010PropOp36
 70
     1
102
RTVSPost2010Prop37
 90
       50
102
RTVSPost2010PropOp37
 70
     1
102
RTVSPost2010Prop38
140
0.0
102
RTVSPost2010PropOp38
 70
     1
102
RTVSPost2010Prop39
140
1.0
102
RTVSPost2010PropOp39
 70
     1
102
RTVSPost2010Prop40
 90
        0
102
RTVSPost2010PropOp40
 70
     1
102
RTVSPost2010Prop41ColorIndex
 90
       18
102
RTVSPost2010Prop41ColorRGB
 90
        0
102
RTVSPost2010PropOp41
 70
     1
102
RTVSPost2010Prop42
 90
       50
102
RTVSPost2010PropOp42
 70
     1
102
RTVSPost2010Prop43
 90
        3
102
RTVSPost2010PropOp43
 70
     1
102
RTVSPost2010Prop44ColorIndex
 90
        5
102
RTVSPost2010Prop44ColorRGB
 90
      255
102
RTVSPost2010PropOp44
 70
     1
102
RTVSPost2010Prop45
280
     0
102
RTVSPost2010PropOp45
 70
     1
102
RTVSPost2010Prop46
 90
       50
102
RTVSPost2010PropOp46
 70
     1
102
RTVSPost2010Prop47
 90
       50
102
RTVSPost2010PropOp47
 70
     1
102
RTVSPost2010Prop48
 90
       50
102
RTVSPost2010PropOp48
 70
     1
102
RTVSPost2010Prop49
280
     0
102
RTVSPost2010PropOp49
 70
     1
102
RTVSPost2010Prop50
 90
       50
102
RTVSPost2010PropOp50
 70
     1
102
RTVSPost2010Prop51ColorIndex
 90
      256
102
RTVSPost2010Prop51ColorRGB
 90
-16777216
102
RTVSPost2010PropOp51
 70
     0
102
RTVSPost2010Prop52
140
1.0
102
RTVSPost2010PropOp52
 70
     0
102
RTVSPost2010Prop53
 90
        2
102
RTVSPost2010PropOp53
 70
     1
102
RTVSPost2010Prop54
  1
strokes_ogs.tif
102
RTVSPost2010PropOp54
 70
     1
102
RTVSPost2010Prop55
280
     0
102
RTVSPost2010PropOp55
 70
     1
102
RTVSPost2010Prop56
140
1.0
102
RTVSPost2010PropOp56
 70
     1
102
RTVSPost2010Prop57
140
1.0
102
RTVSPost2010PropOp57
 70
     1
  0
XRECORD
  5
140
102
{ACAD_REACTORS
330
13F
102
}
330
13F
100
AcDbXrecord
280
     1
102
RTVSPropertyOp0
 70
     1
102
RTVSPropertyOp1
 70
     1
102
RTVSPropertyOp2
 70
     1
102
RTVSPropertyOp3
 70
     1
102
RTVSPropertyOp4
 70
     1
102
RTVSPropertyOp5
 70
     1
102
RTVSPropertyOp6
 70
     1
102
RTVSPropertyOp7
 70
     1
102
RTVSPropertyOp8
 70
     1
102
RTVSPropertyOp9
 70
     1
102
RTVSPropertyOp10
 70
     1
102
RTVSPropertyOp11
 70
     1
102
RTVSPropertyOp12
 70
     1
102
RTVSPropertyOp13
 70
     1
102
RTVSPropertyOp14
 70
     1
102
RTVSPropertyOp15
 70
     1
102
RTVSPropertyOp16
 70
     1
102
RTVSPropertyOp17
 70
     1
102
RTVSPropertyOp18
 70
     1
102
RTVSPropertyOp19
 70
     1
102
RTVSPropertyOp20
 70
     1
102
RTVSPropertyOp21
 70
     1
102
RTVSPropertyOp22
 70
     1
102
RTVSPropertyOp23
 70
     1
102
RTVSPropertyOp24
 70
     1
102
RTVSPropertyOp25
 70
     1
102
RTVSPropertyOp26
 70
     1
102
RTVSPropertyOp27
 70
     1
102
RTVSPropertyOp28
 70
     1
102
RTVSPropertyOp29
 70
     1
102
RTVSPropertyOp30
 70
     1
102
RTVSPropertyOp31
 70
     1
102
RTVSPropertyOp32
 70
     1
102
RTVSPropertyOp33
 70
     1
102
RTVSPropertyOp34
 70
     1
102
RTVSPropertyOp35
 70
     1
102
RTVSPropertyOp36
 70
     1
102
RTVSPropertyOp37
 70
     1
102
RTVSPropertyOp38
 70
     1
102
RTVSPropertyOp39
 70
     1
102
RTVSPropertyOp40
 70
     1
102
RTVSPropertyOp41
 70
     1
102
RTVSPropertyOp42
 70
     1
102
RTVSPropertyOp43
 70
     1
102
RTVSPropertyOp44
 70
     1
102
RTVSPropertyOp45
 70
     1
102
RTVSPropertyOp46
 70
     1
102
RTVSPropertyOp47
 70
     1
102
RTVSPropertyOp48
 70
     1
102
RTVSPropertyOp49
 70
     1
102
RTVSPropertyOp50
 70
     1
102
RTVSPropertyOp51
 70
     0
102
RTVSPropertyOp52
 70
     0
102
RTVSPropertyOp53
 70
     1
102
RTVSPropertyOp54
 70
     1
102
RTVSPropertyOp55
 70
     1
102
RTVSPropertyOp56
 70
     1
102
RTVSPropertyOp57
 70
     1
102
RTVSPost2010Prop28
280
     0
102
RTVSPost2010PropOp28
 70
     1
102
RTVSPost2010Prop29
280
     1
102
RTVSPost2010PropOp29
 70
     1
102
RTVSPost2010Prop30
280
     1
102
RTVSPost2010PropOp30
 70
     1
102
RTVSPost2010Prop31
280
     0
102
RTVSPost2010PropOp31
 70
     1
102
RTVSPost2010Prop32
280
     0
102
RTVSPost2010PropOp32
 70
     1
102
RTVSPost2010Prop33
280
     0
102
RTVSPost2010PropOp33
 70
     1
102
RTVSPost2010Prop34
280
     0
102
RTVSPost2010PropOp34
 70
     1
102
RTVSPost2010Prop35
280
     0
102
RTVSPost2010PropOp35
 70
     1
102
RTVSPost2010Prop36
280
     0
102
RTVSPost2010PropOp36
 70
     1
102
RTVSPost2010Prop37
 90
       50
102
RTVSPost2010PropOp37
 70
     1
102
RTVSPost2010Prop38
140
0.0
102
RTVSPost2010PropOp38
 70
     1
102
RTVSPost2010Prop39
140
1.0
102
RTVSPost2010PropOp39
 70
     1
102
RTVSPost2010Prop40
 90
        0
102
RTVSPost2010PropOp40
 70
     1
102
RTVSPost2010Prop41ColorIndex
 90
       18
102
RTVSPost2010Prop41ColorRGB
 90
        0
102
RTVSPost2010PropOp41
 70
     1
102
RTVSPost2010Prop42
 90
       50
102
RTVSPost2010PropOp42
 70
     1
102
RTVSPost2010Prop43
 90
        3
102
RTVSPost2010PropOp43
 70
     1
102
RTVSPost2010Prop44ColorIndex
 90
        5
102
RTVSPost2010Prop44ColorRGB
 90
      255
102
RTVSPost2010PropOp44
 70
     1
102
RTVSPost2010Prop45
280
     0
102
RTVSPost2010PropOp45
 70
     1
102
RTVSPost2010Prop46
 90
       50
102
RTVSPost2010PropOp46
 70
     1
102
RTVSPost2010Prop47
 90
       50
102
RTVSPost2010PropOp47
 70
     1
102
RTVSPost2010Prop48
 90
       50
102
RTVSPost2010PropOp48
 70
     1
102
RTVSPost2010Prop49
280
     0
102
RTVSPost2010PropOp49
 70
     1
102
RTVSPost2010Prop50
 90
       50
102
RTVSPost2010PropOp50
 70
     1
102
RTVSPost2010Prop51ColorIndex
 90
      256
102
RTVSPost2010Prop51ColorRGB
 90
-16777216
102
RTVSPost2010PropOp51
 70
     0
102
RTVSPost2010Prop52
140
1.0
102
RTVSPost2010PropOp52
 70
     0
102
RTVSPost2010Prop53
 90
        2
102
RTVSPost2010PropOp53
 70
     1
102
RTVSPost2010Prop54
  1
strokes_ogs.tif
102
RTVSPost2010PropOp54
 70
     1
102
RTVSPost2010Prop55
280
     0
102
RTVSPost2010PropOp55
 70
     1
102
RTVSPost2010Prop56
140
1.0
102
RTVSPost2010PropOp56
 70
     1
102
RTVSPost2010Prop57
140
1.0
102
RTVSPost2010PropOp57
 70
     1
  0
XRECORD
  5
142
102
{ACAD_REACTORS
330
141
102
}
330
141
100
AcDbXrecord
280
     1
102
RTVSPropertyOp0
 70
     1
102
RTVSPropertyOp1
 70
     1
102
RTVSPropertyOp2
 70
     1
102
RTVSPropertyOp3
 70
     1
102
RTVSPropertyOp4
 70
     1
102
RTVSPropertyOp5
 70
     1
102
RTVSPropertyOp6
 70
     1
102
RTVSPropertyOp7
 70
     1
102
RTVSPropertyOp8
 70
     1
102
RTVSPropertyOp9
 70
     1
102
RTVSPropertyOp10
 70
     1
102
RTVSPropertyOp11
 70
     1
102
RTVSPropertyOp12
 70
     1
102
RTVSPropertyOp13
 70
     1
102
RTVSPropertyOp14
 70
     1
102
RTVSPropertyOp15
 70
     1
102
RTVSPropertyOp16
 70
     1
102
RTVSPropertyOp17
 70
     1
102
RTVSPropertyOp18
 70
     1
102
RTVSPropertyOp19
 70
     1
102
RTVSPropertyOp20
 70
     1
102
RTVSPropertyOp21
 70
     1
102
RTVSPropertyOp22
 70
     1
102
RTVSPropertyOp23
 70
     1
102
RTVSPropertyOp24
 70
     1
102
RTVSPropertyOp25
 70
     1
102
RTVSPropertyOp26
 70
     1
102
RTVSPropertyOp27
 70
     1
102
RTVSPropertyOp28
 70
     1
102
RTVSPropertyOp29
 70
     1
102
RTVSPropertyOp30
 70
     1
102
RTVSPropertyOp31
 70
     1
102
RTVSPropertyOp32
 70
     1
102
RTVSPropertyOp33
 70
     1
102
RTVSPropertyOp34
 70
     1
102
RTVSPropertyOp35
 70
     1
102
RTVSPropertyOp36
 70
     1
102
RTVSPropertyOp37
 70
     1
102
RTVSPropertyOp38
 70
     1
102
RTVSPropertyOp39
 70
     1
102
RTVSPropertyOp40
 70
     1
102
RTVSPropertyOp41
 70
     1
102
RTVSPropertyOp42
 70
     1
102
RTVSPropertyOp43
 70
     1
102
RTVSPropertyOp44
 70
     1
102
RTVSPropertyOp45
 70
     1
102
RTVSPropertyOp46
 70
     1
102
RTVSPropertyOp47
 70
     1
102
RTVSPropertyOp48
 70
     1
102
RTVSPropertyOp49
 70
     1
102
RTVSPropertyOp50
 70
     1
102
RTVSPropertyOp51
 70
     0
102
RTVSPropertyOp52
 70
     0
102
RTVSPropertyOp53
 70
     1
102
RTVSPropertyOp54
 70
     1
102
RTVSPropertyOp55
 70
     1
102
RTVSPropertyOp56
 70
     1
102
RTVSPropertyOp57
 70
     1
102
RTVSPost2010Prop28
280
     0
102
RTVSPost2010PropOp28
 70
     1
102
RTVSPost2010Prop29
280
     1
102
RTVSPost2010PropOp29
 70
     1
102
RTVSPost2010Prop30
280
     1
102
RTVSPost2010PropOp30
 70
     1
102
RTVSPost2010Prop31
280
     0
102
RTVSPost2010PropOp31
 70
     1
102
RTVSPost2010Prop32
280
     0
102
RTVSPost2010PropOp32
 70
     1
102
RTVSPost2010Prop33
280
     0
102
RTVSPost2010PropOp33
 70
     1
102
RTVSPost2010Prop34
280
     0
102
RTVSPost2010PropOp34
 70
     1
102
RTVSPost2010Prop35
280
     0
102
RTVSPost2010PropOp35
 70
     1
102
RTVSPost2010Prop36
280
     0
102
RTVSPost2010PropOp36
 70
     1
102
RTVSPost2010Prop37
 90
       50
102
RTVSPost2010PropOp37
 70
     1
102
RTVSPost2010Prop38
140
0.0
102
RTVSPost2010PropOp38
 70
     1
102
RTVSPost2010Prop39
140
1.0
102
RTVSPost2010PropOp39
 70
     1
102
RTVSPost2010Prop40
 90
        0
102
RTVSPost2010PropOp40
 70
     1
102
RTVSPost2010Prop41ColorIndex
 90
       18
102
RTVSPost2010Prop41ColorRGB
 90
        0
102
RTVSPost2010PropOp41
 70
     1
102
RTVSPost2010Prop42
 90
       50
102
RTVSPost2010PropOp42
 70
     1
102
RTVSPost2010Prop43
 90
        3
102
RTVSPost2010PropOp43
 70
     1
102
RTVSPost2010Prop44ColorIndex
 90
        5
102
RTVSPost2010Prop44ColorRGB
 90
      255
102
RTVSPost2010PropOp44
 70
     1
102
RTVSPost2010Prop45
280
     0
102
RTVSPost2010PropOp45
 70
     1
102
RTVSPost2010Prop46
 90
       50
102
RTVSPost2010PropOp46
 70
     1
102
RTVSPost2010Prop47
 90
       50
102
RTVSPost2010PropOp47
 70
     1
102
RTVSPost2010Prop48
 90
       50
102
RTVSPost2010PropOp48
 70
     1
102
RTVSPost2010Prop49
280
     0
102
RTVSPost2010PropOp49
 70
     1
102
RTVSPost2010Prop50
 90
       50
102
RTVSPost2010PropOp50
 70
     1
102
RTVSPost2010Prop51ColorIndex
 90
      256
102
RTVSPost2010Prop51ColorRGB
 90
-16777216
102
RTVSPost2010PropOp51
 70
     0
102
RTVSPost2010Prop52
140
1.0
102
RTVSPost2010PropOp52
 70
     0
102
RTVSPost2010Prop53
 90
        2
102
RTVSPost2010PropOp53
 70
     1
102
RTVSPost2010Prop54
  1
strokes_ogs.tif
102
RTVSPost2010PropOp54
 70
     1
102
RTVSPost2010Prop55
280
     0
102
RTVSPost2010PropOp55
 70
     1
102
RTVSPost2010Prop56
140
1.0
102
RTVSPost2010PropOp56
 70
     1
102
RTVSPost2010Prop57
140
1.0
102
RTVSPost2010PropOp57
 70
     1
  0
XRECORD
  5
144
102
{ACAD_REACTORS
330
143
102
}
330
143
100
AcDbXrecord
280
     1
102
RTVSPropertyOp0
 70
     1
102
RTVSPropertyOp1
 70
     1
102
RTVSPropertyOp2
 70
     1
102
RTVSPropertyOp3
 70
     1
102
RTVSPropertyOp4
 70
     1
102
RTVSPropertyOp5
 70
     1
102
RTVSPropertyOp6
 70
     1
102
RTVSPropertyOp7
 70
     1
102
RTVSPropertyOp8
 70
     1
102
RTVSPropertyOp9
 70
     1
102
RTVSPropertyOp10
 70
     1
102
RTVSPropertyOp11
 70
     1
102
RTVSPropertyOp12
 70
     1
102
RTVSPropertyOp13
 70
     1
102
RTVSPropertyOp14
 70
     1
102
RTVSPropertyOp15
 70
     1
102
RTVSPropertyOp16
 70
     1
102
RTVSPropertyOp17
 70
     1
102
RTVSPropertyOp18
 70
     1
102
RTVSPropertyOp19
 70
     1
102
RTVSPropertyOp20
 70
     1
102
RTVSPropertyOp21
 70
     1
102
RTVSPropertyOp22
 70
     1
102
RTVSPropertyOp23
 70
     1
102
RTVSPropertyOp24
 70
     1
102
RTVSPropertyOp25
 70
     1
102
RTVSPropertyOp26
 70
     1
102
RTVSPropertyOp27
 70
     1
102
RTVSPropertyOp28
 70
     1
102
RTVSPropertyOp29
 70
     1
102
RTVSPropertyOp30
 70
     1
102
RTVSPropertyOp31
 70
     1
102
RTVSPropertyOp32
 70
     1
102
RTVSPropertyOp33
 70
     1
102
RTVSPropertyOp34
 70
     1
102
RTVSPropertyOp35
 70
     1
102
RTVSPropertyOp36
 70
     1
102
RTVSPropertyOp37
 70
     1
102
RTVSPropertyOp38
 70
     1
102
RTVSPropertyOp39
 70
     1
102
RTVSPropertyOp40
 70
     1
102
RTVSPropertyOp41
 70
     1
102
RTVSPropertyOp42
 70
     1
102
RTVSPropertyOp43
 70
     1
102
RTVSPropertyOp44
 70
     1
102
RTVSPropertyOp45
 70
     1
102
RTVSPropertyOp46
 70
     1
102
RTVSPropertyOp47
 70
     1
102
RTVSPropertyOp48
 70
     1
102
RTVSPropertyOp49
 70
     1
102
RTVSPropertyOp50
 70
     1
102
RTVSPropertyOp51
 70
     0
102
RTVSPropertyOp52
 70
     0
102
RTVSPropertyOp53
 70
     1
102
RTVSPropertyOp54
 70
     1
102
RTVSPropertyOp55
 70
     1
102
RTVSPropertyOp56
 70
     1
102
RTVSPropertyOp57
 70
     1
102
RTVSPost2010Prop28
280
     0
102
RTVSPost2010PropOp28
 70
     1
102
RTVSPost2010Prop29
280
     1
102
RTVSPost2010PropOp29
 70
     1
102
RTVSPost2010Prop30
280
     1
102
RTVSPost2010PropOp30
 70
     1
102
RTVSPost2010Prop31
280
     0
102
RTVSPost2010PropOp31
 70
     1
102
RTVSPost2010Prop32
280
     0
102
RTVSPost2010PropOp32
 70
     1
102
RTVSPost2010Prop33
280
     0
102
RTVSPost2010PropOp33
 70
     1
102
RTVSPost2010Prop34
280
     0
102
RTVSPost2010PropOp34
 70
     1
102
RTVSPost2010Prop35
280
     0
102
RTVSPost2010PropOp35
 70
     1
102
RTVSPost2010Prop36
280
     0
102
RTVSPost2010PropOp36
 70
     1
102
RTVSPost2010Prop37
 90
       50
102
RTVSPost2010PropOp37
 70
     1
102
RTVSPost2010Prop38
140
0.0
102
RTVSPost2010PropOp38
 70
     1
102
RTVSPost2010Prop39
140
1.0
102
RTVSPost2010PropOp39
 70
     1
102
RTVSPost2010Prop40
 90
        0
102
RTVSPost2010PropOp40
 70
     1
102
RTVSPost2010Prop41ColorIndex
 90
       18
102
RTVSPost2010Prop41ColorRGB
 90
        0
102
RTVSPost2010PropOp41
 70
     1
102
RTVSPost2010Prop42
 90
       50
102
RTVSPost2010PropOp42
 70
     1
102
RTVSPost2010Prop43
 90
        3
102
RTVSPost2010PropOp43
 70
     1
102
RTVSPost2010Prop44ColorIndex
 90
        5
102
RTVSPost2010Prop44ColorRGB
 90
      255
102
RTVSPost2010PropOp44
 70
     1
102
RTVSPost2010Prop45
280
     0
102
RTVSPost2010PropOp45
 70
     1
102
RTVSPost2010Prop46
 90
       50
102
RTVSPost2010PropOp46
 70
     1
102
RTVSPost2010Prop47
 90
       50
102
RTVSPost2010PropOp47
 70
     1
102
RTVSPost2010Prop48
 90
       50
102
RTVSPost2010PropOp48
 70
     1
102
RTVSPost2010Prop49
280
     0
102
RTVSPost2010PropOp49
 70
     1
102
RTVSPost2010Prop50
 90
       50
102
RTVSPost2010PropOp50
 70
     1
102
RTVSPost2010Prop51ColorIndex
 90
      256
102
RTVSPost2010Prop51ColorRGB
 90
-16777216
102
RTVSPost2010PropOp51
 70
     0
102
RTVSPost2010Prop52
140
1.0
102
RTVSPost2010PropOp52
 70
     0
102
RTVSPost2010Prop53
 90
        2
102
RTVSPost2010PropOp53
 70
     1
102
RTVSPost2010Prop54
  1
strokes_ogs.tif
102
RTVSPost2010PropOp54
 70
     1
102
RTVSPost2010Prop55
280
     0
102
RTVSPost2010PropOp55
 70
     1
102
RTVSPost2010Prop56
140
1.0
102
RTVSPost2010PropOp56
 70
     1
102
RTVSPost2010Prop57
140
1.0
102
RTVSPost2010PropOp57
 70
     1
  0
XRECORD
  5
14A
102
{ACAD_REACTORS
330
149
102
}
330
149
100
AcDbXrecord
280
     1
102
RTVSPropertyOp0
 70
     1
102
RTVSPropertyOp1
 70
     1
102
RTVSPropertyOp2
 70
     1
102
RTVSPropertyOp3
 70
     1
102
RTVSPropertyOp4
 70
     1
102
RTVSPropertyOp5
 70
     1
102
RTVSPropertyOp6
 70
     1
102
RTVSPropertyOp7
 70
     1
102
RTVSPropertyOp8
 70
     1
102
RTVSPropertyOp9
 70
     1
102
RTVSPropertyOp10
 70
     1
102
RTVSPropertyOp11
 70
     1
102
RTVSPropertyOp12
 70
     1
102
RTVSPropertyOp13
 70
     1
102
RTVSPropertyOp14
 70
     1
102
RTVSPropertyOp15
 70
     1
102
RTVSPropertyOp16
 70
     1
102
RTVSPropertyOp17
 70
     1
102
RTVSPropertyOp18
 70
     1
102
RTVSPropertyOp19
 70
     1
102
RTVSPropertyOp20
 70
     1
102
RTVSPropertyOp21
 70
     1
102
RTVSPropertyOp22
 70
     1
102
RTVSPropertyOp23
 70
     1
102
RTVSPropertyOp24
 70
     1
102
RTVSPropertyOp25
 70
     1
102
RTVSPropertyOp26
 70
     1
102
RTVSPropertyOp27
 70
     1
102
RTVSPropertyOp28
 70
     1
102
RTVSPropertyOp29
 70
     1
102
RTVSPropertyOp30
 70
     1
102
RTVSPropertyOp31
 70
     1
102
RTVSPropertyOp32
 70
     1
102
RTVSPropertyOp33
 70
     1
102
RTVSPropertyOp34
 70
     1
102
RTVSPropertyOp35
 70
     1
102
RTVSPropertyOp36
 70
     1
102
RTVSPropertyOp37
 70
     1
102
RTVSPropertyOp38
 70
     1
102
RTVSPropertyOp39
 70
     1
102
RTVSPropertyOp40
 70
     1
102
RTVSPropertyOp41
 70
     1
102
RTVSPropertyOp42
 70
     1
102
RTVSPropertyOp43
 70
     1
102
RTVSPropertyOp44
 70
     1
102
RTVSPropertyOp45
 70
     1
102
RTVSPropertyOp46
 70
     1
102
RTVSPropertyOp47
 70
     1
102
RTVSPropertyOp48
 70
     1
102
RTVSPropertyOp49
 70
     1
102
RTVSPropertyOp50
 70
     1
102
RTVSPropertyOp51
 70
     0
102
RTVSPropertyOp52
 70
     0
102
RTVSPropertyOp53
 70
     1
102
RTVSPropertyOp54
 70
     1
102
RTVSPropertyOp55
 70
     1
102
RTVSPropertyOp56
 70
     1
102
RTVSPropertyOp57
 70
     1
102
RTVSPost2010Prop28
280
     0
102
RTVSPost2010PropOp28
 70
     1
102
RTVSPost2010Prop29
280
     1
102
RTVSPost2010PropOp29
 70
     1
102
RTVSPost2010Prop30
280
     1
102
RTVSPost2010PropOp30
 70
     1
102
RTVSPost2010Prop31
280
     0
102
RTVSPost2010PropOp31
 70
     1
102
RTVSPost2010Prop32
280
     0
102
RTVSPost2010PropOp32
 70
     1
102
RTVSPost2010Prop33
280
     0
102
RTVSPost2010PropOp33
 70
     1
102
RTVSPost2010Prop34
280
     0
102
RTVSPost2010PropOp34
 70
     1
102
RTVSPost2010Prop35
280
     0
102
RTVSPost2010PropOp35
 70
     1
102
RTVSPost2010Prop36
280
     0
102
RTVSPost2010PropOp36
 70
     1
102
RTVSPost2010Prop37
 90
       50
102
RTVSPost2010PropOp37
 70
     1
102
RTVSPost2010Prop38
140
0.0
102
RTVSPost2010PropOp38
 70
     1
102
RTVSPost2010Prop39
140
1.0
102
RTVSPost2010PropOp39
 70
     1
102
RTVSPost2010Prop40
 90
        0
102
RTVSPost2010PropOp40
 70
     1
102
RTVSPost2010Prop41ColorIndex
 90
       18
102
RTVSPost2010Prop41ColorRGB
 90
        0
102
RTVSPost2010PropOp41
 70
     1
102
RTVSPost2010Prop42
 90
       50
102
RTVSPost2010PropOp42
 70
     1
102
RTVSPost2010Prop43
 90
        3
102
RTVSPost2010PropOp43
 70
     1
102
RTVSPost2010Prop44ColorIndex
 90
        5
102
RTVSPost2010Prop44ColorRGB
 90
      255
102
RTVSPost2010PropOp44
 70
     1
102
RTVSPost2010Prop45
280
     0
102
RTVSPost2010PropOp45
 70
     1
102
RTVSPost2010Prop46
 90
       50
102
RTVSPost2010PropOp46
 70
     1
102
RTVSPost2010Prop47
 90
       50
102
RTVSPost2010PropOp47
 70
     1
102
RTVSPost2010Prop48
 90
       50
102
RTVSPost2010PropOp48
 70
     1
102
RTVSPost2010Prop49
280
     0
102
RTVSPost2010PropOp49
 70
     1
102
RTVSPost2010Prop50
 90
       50
102
RTVSPost2010PropOp50
 70
     1
102
RTVSPost2010Prop51ColorIndex
 90
      256
102
RTVSPost2010Prop51ColorRGB
 90
-16777216
102
RTVSPost2010PropOp51
 70
     0
102
RTVSPost2010Prop52
140
1.0
102
RTVSPost2010PropOp52
 70
     0
102
RTVSPost2010Prop53
 90
        2
102
RTVSPost2010PropOp53
 70
     1
102
RTVSPost2010Prop54
  1
strokes_ogs.tif
102
RTVSPost2010PropOp54
 70
     1
102
RTVSPost2010Prop55
280
     0
102
RTVSPost2010PropOp55
 70
     1
102
RTVSPost2010Prop56
140
1.0
102
RTVSPost2010PropOp56
 70
     1
102
RTVSPost2010Prop57
140
1.0
102
RTVSPost2010PropOp57
 70
     1
  0
XRECORD
  5
15E
102
{ACAD_REACTORS
330
15D
102
}
330
15D
100
AcDbXrecord
280
     1
102
RTVSPropertyOp0
 70
     0
102
RTVSPropertyOp1
 70
     0
102
RTVSPropertyOp2
 70
     0
102
RTVSPropertyOp3
 70
     0
102
RTVSPropertyOp4
 70
     0
102
RTVSPropertyOp5
 70
     0
102
RTVSPropertyOp6
 70
     0
102
RTVSPropertyOp7
 70
     0
102
RTVSPropertyOp8
 70
     0
102
RTVSPropertyOp9
 70
     0
102
RTVSPropertyOp10
 70
     0
102
RTVSPropertyOp11
 70
     0
102
RTVSPropertyOp12
 70
     0
102
RTVSPropertyOp13
 70
     0
102
RTVSPropertyOp14
 70
     2
102
RTVSPropertyOp15
 70
     0
102
RTVSPropertyOp16
 70
     0
102
RTVSPropertyOp17
 70
     0
102
RTVSPropertyOp18
 70
     0
102
RTVSPropertyOp19
 70
     0
102
RTVSPropertyOp20
 70
     0
102
RTVSPropertyOp21
 70
     0
102
RTVSPropertyOp22
 70
     0
102
RTVSPropertyOp23
 70
     0
102
RTVSPropertyOp24
 70
     0
102
RTVSPropertyOp25
 70
     0
102
RTVSPropertyOp26
 70
     0
102
RTVSPropertyOp27
 70
     0
102
RTVSPropertyOp28
 70
     0
102
RTVSPropertyOp29
 70
     0
102
RTVSPropertyOp30
 70
     0
102
RTVSPropertyOp31
 70
     0
102
RTVSPropertyOp32
 70
     0
102
RTVSPropertyOp33
 70
     0
102
RTVSPropertyOp34
 70
     0
102
RTVSPropertyOp35
 70
     0
102
RTVSPropertyOp36
 70
     0
102
RTVSPropertyOp37
 70
     0
102
RTVSPropertyOp38
 70
     0
102
RTVSPropertyOp39
 70
     0
102
RTVSPropertyOp40
 70
     0
102
RTVSPropertyOp41
 70
     0
102
RTVSPropertyOp42
 70
     0
102
RTVSPropertyOp43
 70
     0
102
RTVSPropertyOp44
 70
     0
102
RTVSPropertyOp45
 70
     0
102
RTVSPropertyOp46
 70
     0
102
RTVSPropertyOp47
 70
     0
102
RTVSPropertyOp48
 70
     0
102
RTVSPropertyOp49
 70
     0
102
RTVSPropertyOp50
 70
     0
102
RTVSPropertyOp51
 70
     0
102
RTVSPropertyOp52
 70
     0
102
RTVSPropertyOp53
 70
     0
102
RTVSPropertyOp54
 70
     0
102
RTVSPropertyOp55
 70
     0
102
RTVSPropertyOp56
 70
     0
102
RTVSPropertyOp57
 70
     0
102
RTVSPost2010Prop28
280
     0
102
RTVSPost2010PropOp28
 70
     0
102
RTVSPost2010Prop29
280
     1
102
RTVSPost2010PropOp29
 70
     0
102
RTVSPost2010Prop30
280
     1
102
RTVSPost2010PropOp30
 70
     0
102
RTVSPost2010Prop31
280
     0
102
RTVSPost2010PropOp31
 70
     0
102
RTVSPost2010Prop32
280
     0
102
RTVSPost2010PropOp32
 70
     0
102
RTVSPost2010Prop33
280
     0
102
RTVSPost2010PropOp33
 70
     0
102
RTVSPost2010Prop34
280
     0
102
RTVSPost2010PropOp34
 70
     0
102
RTVSPost2010Prop35
280
     0
102
RTVSPost2010PropOp35
 70
     0
102
RTVSPost2010Prop36
280
     0
102
RTVSPost2010PropOp36
 70
     0
102
RTVSPost2010Prop37
 90
       50
102
RTVSPost2010PropOp37
 70
     0
102
RTVSPost2010Prop38
140
0.0
102
RTVSPost2010PropOp38
 70
     0
102
RTVSPost2010Prop39
140
1.0
102
RTVSPost2010PropOp39
 70
     0
102
RTVSPost2010Prop40
 90
        0
102
RTVSPost2010PropOp40
 70
     0
102
RTVSPost2010Prop41ColorIndex
 90
       18
102
RTVSPost2010Prop41ColorRGB
 90
        0
102
RTVSPost2010PropOp41
 70
     0
102
RTVSPost2010Prop42
 90
       50
102
RTVSPost2010PropOp42
 70
     0
102
RTVSPost2010Prop43
 90
        3
102
RTVSPost2010PropOp43
 70
     0
102
RTVSPost2010Prop44ColorIndex
 90
        5
102
RTVSPost2010Prop44ColorRGB
 90
      255
102
RTVSPost2010PropOp44
 70
     0
102
RTVSPost2010Prop45
280
     0
102
RTVSPost2010PropOp45
 70
     0
102
RTVSPost2010Prop46
 90
       50
102
RTVSPost2010PropOp46
 70
     0
102
RTVSPost2010Prop47
 90
       50
102
RTVSPost2010PropOp47
 70
     0
102
RTVSPost2010Prop48
 90
       50
102
RTVSPost2010PropOp48
 70
     0
102
RTVSPost2010Prop49
280
     0
102
RTVSPost2010PropOp49
 70
     0
102
RTVSPost2010Prop50
 90
       50
102
RTVSPost2010PropOp50
 70
     0
102
RTVSPost2010Prop51ColorIndex
 90
      256
102
RTVSPost2010Prop51ColorRGB
 90
-16777216
102
RTVSPost2010PropOp51
 70
     0
102
RTVSPost2010Prop52
140
1.0
102
RTVSPost2010PropOp52
 70
     0
102
RTVSPost2010Prop53
 90
        2
102
RTVSPost2010PropOp53
 70
     0
102
RTVSPost2010Prop54
  1
strokes_ogs.tif
102
RTVSPost2010PropOp54
 70
     0
102
RTVSPost2010Prop55
280
     0
102
RTVSPost2010PropOp55
 70
     0
102
RTVSPost2010Prop56
140
1.0
102
RTVSPost2010PropOp56
 70
     0
102
RTVSPost2010Prop57
140
1.0
102
RTVSPost2010PropOp57
 70
     0
  0
XRECORD
  5
158
102
{ACAD_REACTORS
330
157
102
}
330
157
100
AcDbXrecord
280
     1
102
RTVSPropertyOp0
 70
     1
102
RTVSPropertyOp1
 70
     1
102
RTVSPropertyOp2
 70
     1
102
RTVSPropertyOp3
 70
     1
102
RTVSPropertyOp4
 70
     1
102
RTVSPropertyOp5
 70
     1
102
RTVSPropertyOp6
 70
     1
102
RTVSPropertyOp7
 70
     1
102
RTVSPropertyOp8
 70
     1
102
RTVSPropertyOp9
 70
     1
102
RTVSPropertyOp10
 70
     1
102
RTVSPropertyOp11
 70
     1
102
RTVSPropertyOp12
 70
     1
102
RTVSPropertyOp13
 70
     1
102
RTVSPropertyOp14
 70
     1
102
RTVSPropertyOp15
 70
     1
102
RTVSPropertyOp16
 70
     1
102
RTVSPropertyOp17
 70
     1
102
RTVSPropertyOp18
 70
     1
102
RTVSPropertyOp19
 70
     1
102
RTVSPropertyOp20
 70
     1
102
RTVSPropertyOp21
 70
     1
102
RTVSPropertyOp22
 70
     1
102
RTVSPropertyOp23
 70
     1
102
RTVSPropertyOp24
 70
     1
102
RTVSPropertyOp25
 70
     1
102
RTVSPropertyOp26
 70
     1
102
RTVSPropertyOp27
 70
     1
102
RTVSPropertyOp28
 70
     1
102
RTVSPropertyOp29
 70
     1
102
RTVSPropertyOp30
 70
     1
102
RTVSPropertyOp31
 70
     1
102
RTVSPropertyOp32
 70
     1
102
RTVSPropertyOp33
 70
     1
102
RTVSPropertyOp34
 70
     1
102
RTVSPropertyOp35
 70
     1
102
RTVSPropertyOp36
 70
     1
102
RTVSPropertyOp37
 70
     1
102
RTVSPropertyOp38
 70
     1
102
RTVSPropertyOp39
 70
     1
102
RTVSPropertyOp40
 70
     1
102
RTVSPropertyOp41
 70
     1
102
RTVSPropertyOp42
 70
     1
102
RTVSPropertyOp43
 70
     1
102
RTVSPropertyOp44
 70
     1
102
RTVSPropertyOp45
 70
     1
102
RTVSPropertyOp46
 70
     1
102
RTVSPropertyOp47
 70
     1
102
RTVSPropertyOp48
 70
     1
102
RTVSPropertyOp49
 70
     1
102
RTVSPropertyOp50
 70
     1
102
RTVSPropertyOp51
 70
     0
102
RTVSPropertyOp52
 70
     0
102
RTVSPropertyOp53
 70
     1
102
RTVSPropertyOp54
 70
     1
102
RTVSPropertyOp55
 70
     1
102
RTVSPropertyOp56
 70
     1
102
RTVSPropertyOp57
 70
     1
102
RTVSPost2010Prop28
280
     0
102
RTVSPost2010PropOp28
 70
     1
102
RTVSPost2010Prop29
280
     1
102
RTVSPost2010PropOp29
 70
     1
102
RTVSPost2010Prop30
280
     1
102
RTVSPost2010PropOp30
 70
     1
102
RTVSPost2010Prop31
280
     0
102
RTVSPost2010PropOp31
 70
     1
102
RTVSPost2010Prop32
280
     0
102
RTVSPost2010PropOp32
 70
     1
102
RTVSPost2010Prop33
280
     0
102
RTVSPost2010PropOp33
 70
     1
102
RTVSPost2010Prop34
280
     0
102
RTVSPost2010PropOp34
 70
     1
102
RTVSPost2010Prop35
280
     0
102
RTVSPost2010PropOp35
 70
     1
102
RTVSPost2010Prop36
280
     0
102
RTVSPost2010PropOp36
 70
     1
102
RTVSPost2010Prop37
 90
       50
102
RTVSPost2010PropOp37
 70
     1
102
RTVSPost2010Prop38
140
0.0
102
RTVSPost2010PropOp38
 70
     1
102
RTVSPost2010Prop39
140
1.0
102
RTVSPost2010PropOp39
 70
     1
102
RTVSPost2010Prop40
 90
        0
102
RTVSPost2010PropOp40
 70
     1
102
RTVSPost2010Prop41ColorIndex
 90
       18
102
RTVSPost2010Prop41ColorRGB
 90
        0
102
RTVSPost2010PropOp41
 70
     1
102
RTVSPost2010Prop42
 90
       50
102
RTVSPost2010PropOp42
 70
     1
102
RTVSPost2010Prop43
 90
        3
102
RTVSPost2010PropOp43
 70
     1
102
RTVSPost2010Prop44ColorIndex
 90
        5
102
RTVSPost2010Prop44ColorRGB
 90
      255
102
RTVSPost2010PropOp44
 70
     1
102
RTVSPost2010Prop45
280
     0
102
RTVSPost2010PropOp45
 70
     1
102
RTVSPost2010Prop46
 90
       50
102
RTVSPost2010PropOp46
 70
     1
102
RTVSPost2010Prop47
 90
       50
102
RTVSPost2010PropOp47
 70
     1
102
RTVSPost2010Prop48
 90
       50
102
RTVSPost2010PropOp48
 70
     1
102
RTVSPost2010Prop49
280
     0
102
RTVSPost2010PropOp49
 70
     1
102
RTVSPost2010Prop50
 90
       50
102
RTVSPost2010PropOp50
 70
     1
102
RTVSPost2010Prop51ColorIndex
 90
      256
102
RTVSPost2010Prop51ColorRGB
 90
-16777216
102
RTVSPost2010PropOp51
 70
     0
102
RTVSPost2010Prop52
140
1.0
102
RTVSPost2010PropOp52
 70
     0
102
RTVSPost2010Prop53
 90
        2
102
RTVSPost2010PropOp53
 70
     1
102
RTVSPost2010Prop54
  1
strokes_ogs.tif
102
RTVSPost2010PropOp54
 70
     1
102
RTVSPost2010Prop55
280
     0
102
RTVSPost2010PropOp55
 70
     1
102
RTVSPost2010Prop56
140
1.0
102
RTVSPost2010PropOp56
 70
     1
102
RTVSPost2010Prop57
140
1.0
102
RTVSPost2010PropOp57
 70
     1
  0
XRECORD
  5
160
102
{ACAD_REACTORS
330
15F
102
}
330
15F
100
AcDbXrecord
280
     1
102
RTVSPropertyOp0
 70
     0
102
RTVSPropertyOp1
 70
     0
102
RTVSPropertyOp2
 70
     0
102
RTVSPropertyOp3
 70
     0
102
RTVSPropertyOp4
 70
     0
102
RTVSPropertyOp5
 70
     0
102
RTVSPropertyOp6
 70
     0
102
RTVSPropertyOp7
 70
     0
102
RTVSPropertyOp8
 70
     0
102
RTVSPropertyOp9
 70
     0
102
RTVSPropertyOp10
 70
     0
102
RTVSPropertyOp11
 70
     0
102
RTVSPropertyOp12
 70
     0
102
RTVSPropertyOp13
 70
     0
102
RTVSPropertyOp14
 70
     2
102
RTVSPropertyOp15
 70
     0
102
RTVSPropertyOp16
 70
     0
102
RTVSPropertyOp17
 70
     0
102
RTVSPropertyOp18
 70
     0
102
RTVSPropertyOp19
 70
     0
102
RTVSPropertyOp20
 70
     0
102
RTVSPropertyOp21
 70
     0
102
RTVSPropertyOp22
 70
     0
102
RTVSPropertyOp23
 70
     0
102
RTVSPropertyOp24
 70
     0
102
RTVSPropertyOp25
 70
     0
102
RTVSPropertyOp26
 70
     0
102
RTVSPropertyOp27
 70
     0
102
RTVSPropertyOp28
 70
     0
102
RTVSPropertyOp29
 70
     0
102
RTVSPropertyOp30
 70
     0
102
RTVSPropertyOp31
 70
     0
102
RTVSPropertyOp32
 70
     0
102
RTVSPropertyOp33
 70
     0
102
RTVSPropertyOp34
 70
     0
102
RTVSPropertyOp35
 70
     0
102
RTVSPropertyOp36
 70
     0
102
RTVSPropertyOp37
 70
     0
102
RTVSPropertyOp38
 70
     0
102
RTVSPropertyOp39
 70
     0
102
RTVSPropertyOp40
 70
     0
102
RTVSPropertyOp41
 70
     0
102
RTVSPropertyOp42
 70
     0
102
RTVSPropertyOp43
 70
     0
102
RTVSPropertyOp44
 70
     0
102
RTVSPropertyOp45
 70
     0
102
RTVSPropertyOp46
 70
     0
102
RTVSPropertyOp47
 70
     0
102
RTVSPropertyOp48
 70
     0
102
RTVSPropertyOp49
 70
     0
102
RTVSPropertyOp50
 70
     0
102
RTVSPropertyOp51
 70
     0
102
RTVSPropertyOp52
 70
     0
102
RTVSPropertyOp53
 70
     0
102
RTVSPropertyOp54
 70
     0
102
RTVSPropertyOp55
 70
     0
102
RTVSPropertyOp56
 70
     0
102
RTVSPropertyOp57
 70
     0
102
RTVSPost2010Prop28
280
     0
102
RTVSPost2010PropOp28
 70
     0
102
RTVSPost2010Prop29
280
     1
102
RTVSPost2010PropOp29
 70
     0
102
RTVSPost2010Prop30
280
     1
102
RTVSPost2010PropOp30
 70
     0
102
RTVSPost2010Prop31
280
     0
102
RTVSPost2010PropOp31
 70
     0
102
RTVSPost2010Prop32
280
     0
102
RTVSPost2010PropOp32
 70
     0
102
RTVSPost2010Prop33
280
     0
102
RTVSPost2010PropOp33
 70
     0
102
RTVSPost2010Prop34
280
     0
102
RTVSPost2010PropOp34
 70
     0
102
RTVSPost2010Prop35
280
     0
102
RTVSPost2010PropOp35
 70
     0
102
RTVSPost2010Prop36
280
     0
102
RTVSPost2010PropOp36
 70
     0
102
RTVSPost2010Prop37
 90
       50
102
RTVSPost2010PropOp37
 70
     0
102
RTVSPost2010Prop38
140
0.0
102
RTVSPost2010PropOp38
 70
     0
102
RTVSPost2010Prop39
140
1.0
102
RTVSPost2010PropOp39
 70
     0
102
RTVSPost2010Prop40
 90
        0
102
RTVSPost2010PropOp40
 70
     0
102
RTVSPost2010Prop41ColorIndex
 90
       18
102
RTVSPost2010Prop41ColorRGB
 90
        0
102
RTVSPost2010PropOp41
 70
     0
102
RTVSPost2010Prop42
 90
       50
102
RTVSPost2010PropOp42
 70
     0
102
RTVSPost2010Prop43
 90
        3
102
RTVSPost2010PropOp43
 70
     0
102
RTVSPost2010Prop44ColorIndex
 90
        5
102
RTVSPost2010Prop44ColorRGB
 90
      255
102
RTVSPost2010PropOp44
 70
     0
102
RTVSPost2010Prop45
280
     0
102
RTVSPost2010PropOp45
 70
     0
102
RTVSPost2010Prop46
 90
       50
102
RTVSPost2010PropOp46
 70
     0
102
RTVSPost2010Prop47
 90
       50
102
RTVSPost2010PropOp47
 70
     0
102
RTVSPost2010Prop48
 90
       50
102
RTVSPost2010PropOp48
 70
     0
102
RTVSPost2010Prop49
280
     0
102
RTVSPost2010PropOp49
 70
     0
102
RTVSPost2010Prop50
 90
       50
102
RTVSPost2010PropOp50
 70
     0
102
RTVSPost2010Prop51ColorIndex
 90
      256
102
RTVSPost2010Prop51ColorRGB
 90
-16777216
102
RTVSPost2010PropOp51
 70
     0
102
RTVSPost2010Prop52
140
1.0
102
RTVSPost2010PropOp52
 70
     0
102
RTVSPost2010Prop53
 90
        2
102
RTVSPost2010PropOp53
 70
     0
102
RTVSPost2010Prop54
  1
strokes_ogs.tif
102
RTVSPost2010PropOp54
 70
     0
102
RTVSPost2010Prop55
280
     0
102
RTVSPost2010PropOp55
 70
     0
102
RTVSPost2010Prop56
140
1.0
102
RTVSPost2010PropOp56
 70
     0
102
RTVSPost2010Prop57
140
1.0
102
RTVSPost2010PropOp57
 70
     0
  0
XRECORD
  5
14E
102
{ACAD_REACTORS
330
14D
102
}
330
14D
100
AcDbXrecord
280
     1
102
RTVSPropertyOp0
 70
     1
102
RTVSPropertyOp1
 70
     1
102
RTVSPropertyOp2
 70
     1
102
RTVSPropertyOp3
 70
     1
102
RTVSPropertyOp4
 70
     1
102
RTVSPropertyOp5
 70
     1
102
RTVSPropertyOp6
 70
     1
102
RTVSPropertyOp7
 70
     1
102
RTVSPropertyOp8
 70
     1
102
RTVSPropertyOp9
 70
     1
102
RTVSPropertyOp10
 70
     1
102
RTVSPropertyOp11
 70
     1
102
RTVSPropertyOp12
 70
     1
102
RTVSPropertyOp13
 70
     1
102
RTVSPropertyOp14
 70
     1
102
RTVSPropertyOp15
 70
     1
102
RTVSPropertyOp16
 70
     1
102
RTVSPropertyOp17
 70
     1
102
RTVSPropertyOp18
 70
     1
102
RTVSPropertyOp19
 70
     1
102
RTVSPropertyOp20
 70
     1
102
RTVSPropertyOp21
 70
     1
102
RTVSPropertyOp22
 70
     1
102
RTVSPropertyOp23
 70
     1
102
RTVSPropertyOp24
 70
     1
102
RTVSPropertyOp25
 70
     1
102
RTVSPropertyOp26
 70
     1
102
RTVSPropertyOp27
 70
     1
102
RTVSPropertyOp28
 70
     1
102
RTVSPropertyOp29
 70
     1
102
RTVSPropertyOp30
 70
     1
102
RTVSPropertyOp31
 70
     1
102
RTVSPropertyOp32
 70
     1
102
RTVSPropertyOp33
 70
     1
102
RTVSPropertyOp34
 70
     1
102
RTVSPropertyOp35
 70
     1
102
RTVSPropertyOp36
 70
     1
102
RTVSPropertyOp37
 70
     1
102
RTVSPropertyOp38
 70
     1
102
RTVSPropertyOp39
 70
     1
102
RTVSPropertyOp40
 70
     1
102
RTVSPropertyOp41
 70
     1
102
RTVSPropertyOp42
 70
     1
102
RTVSPropertyOp43
 70
     1
102
RTVSPropertyOp44
 70
     1
102
RTVSPropertyOp45
 70
     1
102
RTVSPropertyOp46
 70
     1
102
RTVSPropertyOp47
 70
     1
102
RTVSPropertyOp48
 70
     1
102
RTVSPropertyOp49
 70
     1
102
RTVSPropertyOp50
 70
     1
102
RTVSPropertyOp51
 70
     0
102
RTVSPropertyOp52
 70
     0
102
RTVSPropertyOp53
 70
     1
102
RTVSPropertyOp54
 70
     1
102
RTVSPropertyOp55
 70
     1
102
RTVSPropertyOp56
 70
     1
102
RTVSPropertyOp57
 70
     1
102
RTVSPost2010Prop28
280
     0
102
RTVSPost2010PropOp28
 70
     1
102
RTVSPost2010Prop29
280
     1
102
RTVSPost2010PropOp29
 70
     1
102
RTVSPost2010Prop30
280
     1
102
RTVSPost2010PropOp30
 70
     1
102
RTVSPost2010Prop31
280
     0
102
RTVSPost2010PropOp31
 70
     1
102
RTVSPost2010Prop32
280
     0
102
RTVSPost2010PropOp32
 70
     1
102
RTVSPost2010Prop33
280
     0
102
RTVSPost2010PropOp33
 70
     1
102
RTVSPost2010Prop34
280
     0
102
RTVSPost2010PropOp34
 70
     1
102
RTVSPost2010Prop35
280
     0
102
RTVSPost2010PropOp35
 70
     1
102
RTVSPost2010Prop36
280
     0
102
RTVSPost2010PropOp36
 70
     1
102
RTVSPost2010Prop37
 90
       50
102
RTVSPost2010PropOp37
 70
     1
102
RTVSPost2010Prop38
140
0.0
102
RTVSPost2010PropOp38
 70
     1
102
RTVSPost2010Prop39
140
1.0
102
RTVSPost2010PropOp39
 70
     1
102
RTVSPost2010Prop40
 90
        0
102
RTVSPost2010PropOp40
 70
     1
102
RTVSPost2010Prop41ColorIndex
 90
       18
102
RTVSPost2010Prop41ColorRGB
 90
        0
102
RTVSPost2010PropOp41
 70
     1
102
RTVSPost2010Prop42
 90
       50
102
RTVSPost2010PropOp42
 70
     1
102
RTVSPost2010Prop43
 90
        3
102
RTVSPost2010PropOp43
 70
     1
102
RTVSPost2010Prop44ColorIndex
 90
        5
102
RTVSPost2010Prop44ColorRGB
 90
      255
102
RTVSPost2010PropOp44
 70
     1
102
RTVSPost2010Prop45
280
     0
102
RTVSPost2010PropOp45
 70
     1
102
RTVSPost2010Prop46
 90
       50
102
RTVSPost2010PropOp46
 70
     1
102
RTVSPost2010Prop47
 90
       50
102
RTVSPost2010PropOp47
 70
     1
102
RTVSPost2010Prop48
 90
       50
102
RTVSPost2010PropOp48
 70
     1
102
RTVSPost2010Prop49
280
     0
102
RTVSPost2010PropOp49
 70
     1
102
RTVSPost2010Prop50
 90
       50
102
RTVSPost2010PropOp50
 70
     1
102
RTVSPost2010Prop51ColorIndex
 90
      256
102
RTVSPost2010Prop51ColorRGB
 90
-16777216
102
RTVSPost2010PropOp51
 70
     0
102
RTVSPost2010Prop52
140
1.0
102
RTVSPost2010PropOp52
 70
     0
102
RTVSPost2010Prop53
 90
        2
102
RTVSPost2010PropOp53
 70
     1
102
RTVSPost2010Prop54
  1
strokes_ogs.tif
102
RTVSPost2010PropOp54
 70
     1
102
RTVSPost2010Prop55
280
     0
102
RTVSPost2010PropOp55
 70
     1
102
RTVSPost2010Prop56
140
1.0
102
RTVSPost2010PropOp56
 70
     1
102
RTVSPost2010Prop57
140
1.0
102
RTVSPost2010PropOp57
 70
     1
  0
XRECORD
  5
16C
102
{ACAD_REACTORS
330
16B
102
}
330
16B
100
AcDbXrecord
280
     1
102
RTVSPropertyOp0
 70
     1
102
RTVSPropertyOp1
 70
     1
102
RTVSPropertyOp2
 70
     1
102
RTVSPropertyOp3
 70
     1
102
RTVSPropertyOp4
 70
     1
102
RTVSPropertyOp5
 70
     1
102
RTVSPropertyOp6
 70
     1
102
RTVSPropertyOp7
 70
     1
102
RTVSPropertyOp8
 70
     1
102
RTVSPropertyOp9
 70
     1
102
RTVSPropertyOp10
 70
     1
102
RTVSPropertyOp11
 70
     1
102
RTVSPropertyOp12
 70
     1
102
RTVSPropertyOp13
 70
     1
102
RTVSPropertyOp14
 70
     1
102
RTVSPropertyOp15
 70
     1
102
RTVSPropertyOp16
 70
     1
102
RTVSPropertyOp17
 70
     1
102
RTVSPropertyOp18
 70
     1
102
RTVSPropertyOp19
 70
     1
102
RTVSPropertyOp20
 70
     1
102
RTVSPropertyOp21
 70
     1
102
RTVSPropertyOp22
 70
     1
102
RTVSPropertyOp23
 70
     1
102
RTVSPropertyOp24
 70
     1
102
RTVSPropertyOp25
 70
     1
102
RTVSPropertyOp26
 70
     1
102
RTVSPropertyOp27
 70
     1
102
RTVSPropertyOp28
 70
     1
102
RTVSPropertyOp29
 70
     1
102
RTVSPropertyOp30
 70
     1
102
RTVSPropertyOp31
 70
     1
102
RTVSPropertyOp32
 70
     1
102
RTVSPropertyOp33
 70
     1
102
RTVSPropertyOp34
 70
     1
102
RTVSPropertyOp35
 70
     1
102
RTVSPropertyOp36
 70
     1
102
RTVSPropertyOp37
 70
     1
102
RTVSPropertyOp38
 70
     1
102
RTVSPropertyOp39
 70
     1
102
RTVSPropertyOp40
 70
     1
102
RTVSPropertyOp41
 70
     1
102
RTVSPropertyOp42
 70
     1
102
RTVSPropertyOp43
 70
     1
102
RTVSPropertyOp44
 70
     1
102
RTVSPropertyOp45
 70
     1
102
RTVSPropertyOp46
 70
     1
102
RTVSPropertyOp47
 70
     1
102
RTVSPropertyOp48
 70
     1
102
RTVSPropertyOp49
 70
     1
102
RTVSPropertyOp50
 70
     1
102
RTVSPropertyOp51
 70
     0
102
RTVSPropertyOp52
 70
     0
102
RTVSPropertyOp53
 70
     1
102
RTVSPropertyOp54
 70
     1
102
RTVSPropertyOp55
 70
     1
102
RTVSPropertyOp56
 70
     1
102
RTVSPropertyOp57
 70
     1
102
RTVSPost2010Prop28
280
     0
102
RTVSPost2010PropOp28
 70
     1
102
RTVSPost2010Prop29
280
     1
102
RTVSPost2010PropOp29
 70
     1
102
RTVSPost2010Prop30
280
     1
102
RTVSPost2010PropOp30
 70
     1
102
RTVSPost2010Prop31
280
     0
102
RTVSPost2010PropOp31
 70
     1
102
RTVSPost2010Prop32
280
     0
102
RTVSPost2010PropOp32
 70
     1
102
RTVSPost2010Prop33
280
     0
102
RTVSPost2010PropOp33
 70
     1
102
RTVSPost2010Prop34
280
     0
102
RTVSPost2010PropOp34
 70
     1
102
RTVSPost2010Prop35
280
     0
102
RTVSPost2010PropOp35
 70
     1
102
RTVSPost2010Prop36
280
     0
102
RTVSPost2010PropOp36
 70
     1
102
RTVSPost2010Prop37
 90
       50
102
RTVSPost2010PropOp37
 70
     1
102
RTVSPost2010Prop38
140
0.0
102
RTVSPost2010PropOp38
 70
     1
102
RTVSPost2010Prop39
140
1.0
102
RTVSPost2010PropOp39
 70
     1
102
RTVSPost2010Prop40
 90
        0
102
RTVSPost2010PropOp40
 70
     1
102
RTVSPost2010Prop41ColorIndex
 90
       18
102
RTVSPost2010Prop41ColorRGB
 90
        0
102
RTVSPost2010PropOp41
 70
     1
102
RTVSPost2010Prop42
 90
       50
102
RTVSPost2010PropOp42
 70
     1
102
RTVSPost2010Prop43
 90
        3
102
RTVSPost2010PropOp43
 70
     1
102
RTVSPost2010Prop44ColorIndex
 90
        5
102
RTVSPost2010Prop44ColorRGB
 90
      255
102
RTVSPost2010PropOp44
 70
     1
102
RTVSPost2010Prop45
280
     0
102
RTVSPost2010PropOp45
 70
     1
102
RTVSPost2010Prop46
 90
       50
102
RTVSPost2010PropOp46
 70
     1
102
RTVSPost2010Prop47
 90
       50
102
RTVSPost2010PropOp47
 70
     1
102
RTVSPost2010Prop48
 90
       50
102
RTVSPost2010PropOp48
 70
     1
102
RTVSPost2010Prop49
280
     0
102
RTVSPost2010PropOp49
 70
     1
102
RTVSPost2010Prop50
 90
       50
102
RTVSPost2010PropOp50
 70
     1
102
RTVSPost2010Prop51ColorIndex
 90
      256
102
RTVSPost2010Prop51ColorRGB
 90
-16777216
102
RTVSPost2010PropOp51
 70
     0
102
RTVSPost2010Prop52
140
1.0
102
RTVSPost2010PropOp52
 70
     0
102
RTVSPost2010Prop53
 90
        2
102
RTVSPost2010PropOp53
 70
     1
102
RTVSPost2010Prop54
  1
strokes_ogs.tif
102
RTVSPost2010PropOp54
 70
     1
102
RTVSPost2010Prop55
280
     0
102
RTVSPost2010PropOp55
 70
     1
102
RTVSPost2010Prop56
140
1.0
102
RTVSPost2010PropOp56
 70
     1
102
RTVSPost2010Prop57
140
1.0
102
RTVSPost2010PropOp57
 70
     1
  0
XRECORD
  5
16A
102
{ACAD_REACTORS
330
169
102
}
330
169
100
AcDbXrecord
280
     1
102
RTVSPropertyOp0
 70
     1
102
RTVSPropertyOp1
 70
     1
102
RTVSPropertyOp2
 70
     1
102
RTVSPropertyOp3
 70
     1
102
RTVSPropertyOp4
 70
     1
102
RTVSPropertyOp5
 70
     1
102
RTVSPropertyOp6
 70
     1
102
RTVSPropertyOp7
 70
     1
102
RTVSPropertyOp8
 70
     1
102
RTVSPropertyOp9
 70
     1
102
RTVSPropertyOp10
 70
     1
102
RTVSPropertyOp11
 70
     1
102
RTVSPropertyOp12
 70
     1
102
RTVSPropertyOp13
 70
     1
102
RTVSPropertyOp14
 70
     1
102
RTVSPropertyOp15
 70
     1
102
RTVSPropertyOp16
 70
     1
102
RTVSPropertyOp17
 70
     1
102
RTVSPropertyOp18
 70
     1
102
RTVSPropertyOp19
 70
     1
102
RTVSPropertyOp20
 70
     1
102
RTVSPropertyOp21
 70
     1
102
RTVSPropertyOp22
 70
     1
102
RTVSPropertyOp23
 70
     1
102
RTVSPropertyOp24
 70
     1
102
RTVSPropertyOp25
 70
     1
102
RTVSPropertyOp26
 70
     1
102
RTVSPropertyOp27
 70
     1
102
RTVSPropertyOp28
 70
     1
102
RTVSPropertyOp29
 70
     1
102
RTVSPropertyOp30
 70
     1
102
RTVSPropertyOp31
 70
     1
102
RTVSPropertyOp32
 70
     1
102
RTVSPropertyOp33
 70
     1
102
RTVSPropertyOp34
 70
     1
102
RTVSPropertyOp35
 70
     1
102
RTVSPropertyOp36
 70
     1
102
RTVSPropertyOp37
 70
     1
102
RTVSPropertyOp38
 70
     1
102
RTVSPropertyOp39
 70
     1
102
RTVSPropertyOp40
 70
     1
102
RTVSPropertyOp41
 70
     1
102
RTVSPropertyOp42
 70
     1
102
RTVSPropertyOp43
 70
     1
102
RTVSPropertyOp44
 70
     1
102
RTVSPropertyOp45
 70
     1
102
RTVSPropertyOp46
 70
     1
102
RTVSPropertyOp47
 70
     1
102
RTVSPropertyOp48
 70
     1
102
RTVSPropertyOp49
 70
     1
102
RTVSPropertyOp50
 70
     1
102
RTVSPropertyOp51
 70
     0
102
RTVSPropertyOp52
 70
     0
102
RTVSPropertyOp53
 70
     1
102
RTVSPropertyOp54
 70
     1
102
RTVSPropertyOp55
 70
     1
102
RTVSPropertyOp56
 70
     1
102
RTVSPropertyOp57
 70
     1
102
RTVSPost2010Prop28
280
     0
102
RTVSPost2010PropOp28
 70
     1
102
RTVSPost2010Prop29
280
     1
102
RTVSPost2010PropOp29
 70
     1
102
RTVSPost2010Prop30
280
     1
102
RTVSPost2010PropOp30
 70
     1
102
RTVSPost2010Prop31
280
     0
102
RTVSPost2010PropOp31
 70
     1
102
RTVSPost2010Prop32
280
     0
102
RTVSPost2010PropOp32
 70
     1
102
RTVSPost2010Prop33
280
     0
102
RTVSPost2010PropOp33
 70
     1
102
RTVSPost2010Prop34
280
     0
102
RTVSPost2010PropOp34
 70
     1
102
RTVSPost2010Prop35
280
     0
102
RTVSPost2010PropOp35
 70
     1
102
RTVSPost2010Prop36
280
     0
102
RTVSPost2010PropOp36
 70
     1
102
RTVSPost2010Prop37
 90
       50
102
RTVSPost2010PropOp37
 70
     1
102
RTVSPost2010Prop38
140
0.0
102
RTVSPost2010PropOp38
 70
     1
102
RTVSPost2010Prop39
140
1.0
102
RTVSPost2010PropOp39
 70
     1
102
RTVSPost2010Prop40
 90
        0
102
RTVSPost2010PropOp40
 70
     1
102
RTVSPost2010Prop41ColorIndex
 90
       18
102
RTVSPost2010Prop41ColorRGB
 90
        0
102
RTVSPost2010PropOp41
 70
     1
102
RTVSPost2010Prop42
 90
       50
102
RTVSPost2010PropOp42
 70
     1
102
RTVSPost2010Prop43
 90
        3
102
RTVSPost2010PropOp43
 70
     1
102
RTVSPost2010Prop44ColorIndex
 90
        5
102
RTVSPost2010Prop44ColorRGB
 90
      255
102
RTVSPost2010PropOp44
 70
     1
102
RTVSPost2010Prop45
280
     0
102
RTVSPost2010PropOp45
 70
     1
102
RTVSPost2010Prop46
 90
       50
102
RTVSPost2010PropOp46
 70
     1
102
RTVSPost2010Prop47
 90
       50
102
RTVSPost2010PropOp47
 70
     1
102
RTVSPost2010Prop48
 90
       50
102
RTVSPost2010PropOp48
 70
     1
102
RTVSPost2010Prop49
280
     0
102
RTVSPost2010PropOp49
 70
     1
102
RTVSPost2010Prop50
 90
       50
102
RTVSPost2010PropOp50
 70
     1
102
RTVSPost2010Prop51ColorIndex
 90
      256
102
RTVSPost2010Prop51ColorRGB
 90
-16777216
102
RTVSPost2010PropOp51
 70
     0
102
RTVSPost2010Prop52
140
1.0
102
RTVSPost2010PropOp52
 70
     0
102
RTVSPost2010Prop53
 90
        2
102
RTVSPost2010PropOp53
 70
     1
102
RTVSPost2010Prop54
  1
strokes_ogs.tif
102
RTVSPost2010PropOp54
 70
     1
102
RTVSPost2010Prop55
280
     0
102
RTVSPost2010PropOp55
 70
     1
102
RTVSPost2010Prop56
140
1.0
102
RTVSPost2010PropOp56
 70
     1
102
RTVSPost2010Prop57
140
1.0
102
RTVSPost2010PropOp57
 70
     1
  0
XRECORD
  5
164
102
{ACAD_REACTORS
330
163
102
}
330
163
100
AcDbXrecord
280
     1
102
RTVSPropertyOp0
 70
     1
102
RTVSPropertyOp1
 70
     1
102
RTVSPropertyOp2
 70
     1
102
RTVSPropertyOp3
 70
     1
102
RTVSPropertyOp4
 70
     1
102
RTVSPropertyOp5
 70
     1
102
RTVSPropertyOp6
 70
     1
102
RTVSPropertyOp7
 70
     1
102
RTVSPropertyOp8
 70
     1
102
RTVSPropertyOp9
 70
     1
102
RTVSPropertyOp10
 70
     1
102
RTVSPropertyOp11
 70
     1
102
RTVSPropertyOp12
 70
     1
102
RTVSPropertyOp13
 70
     1
102
RTVSPropertyOp14
 70
     1
102
RTVSPropertyOp15
 70
     1
102
RTVSPropertyOp16
 70
     1
102
RTVSPropertyOp17
 70
     1
102
RTVSPropertyOp18
 70
     1
102
RTVSPropertyOp19
 70
     1
102
RTVSPropertyOp20
 70
     1
102
RTVSPropertyOp21
 70
     1
102
RTVSPropertyOp22
 70
     1
102
RTVSPropertyOp23
 70
     1
102
RTVSPropertyOp24
 70
     1
102
RTVSPropertyOp25
 70
     1
102
RTVSPropertyOp26
 70
     1
102
RTVSPropertyOp27
 70
     1
102
RTVSPropertyOp28
 70
     1
102
RTVSPropertyOp29
 70
     1
102
RTVSPropertyOp30
 70
     1
102
RTVSPropertyOp31
 70
     1
102
RTVSPropertyOp32
 70
     1
102
RTVSPropertyOp33
 70
     1
102
RTVSPropertyOp34
 70
     1
102
RTVSPropertyOp35
 70
     1
102
RTVSPropertyOp36
 70
     1
102
RTVSPropertyOp37
 70
     1
102
RTVSPropertyOp38
 70
     1
102
RTVSPropertyOp39
 70
     1
102
RTVSPropertyOp40
 70
     1
102
RTVSPropertyOp41
 70
     1
102
RTVSPropertyOp42
 70
     1
102
RTVSPropertyOp43
 70
     1
102
RTVSPropertyOp44
 70
     1
102
RTVSPropertyOp45
 70
     1
102
RTVSPropertyOp46
 70
     1
102
RTVSPropertyOp47
 70
     1
102
RTVSPropertyOp48
 70
     1
102
RTVSPropertyOp49
 70
     1
102
RTVSPropertyOp50
 70
     1
102
RTVSPropertyOp51
 70
     0
102
RTVSPropertyOp52
 70
     0
102
RTVSPropertyOp53
 70
     1
102
RTVSPropertyOp54
 70
     1
102
RTVSPropertyOp55
 70
     1
102
RTVSPropertyOp56
 70
     1
102
RTVSPropertyOp57
 70
     1
102
RTVSPost2010Prop28
280
     0
102
RTVSPost2010PropOp28
 70
     1
102
RTVSPost2010Prop29
280
     1
102
RTVSPost2010PropOp29
 70
     1
102
RTVSPost2010Prop30
280
     1
102
RTVSPost2010PropOp30
 70
     1
102
RTVSPost2010Prop31
280
     0
102
RTVSPost2010PropOp31
 70
     1
102
RTVSPost2010Prop32
280
     0
102
RTVSPost2010PropOp32
 70
     1
102
RTVSPost2010Prop33
280
     0
102
RTVSPost2010PropOp33
 70
     1
102
RTVSPost2010Prop34
280
     0
102
RTVSPost2010PropOp34
 70
     1
102
RTVSPost2010Prop35
280
     0
102
RTVSPost2010PropOp35
 70
     1
102
RTVSPost2010Prop36
280
     0
102
RTVSPost2010PropOp36
 70
     1
102
RTVSPost2010Prop37
 90
       50
102
RTVSPost2010PropOp37
 70
     1
102
RTVSPost2010Prop38
140
0.0
102
RTVSPost2010PropOp38
 70
     1
102
RTVSPost2010Prop39
140
1.0
102
RTVSPost2010PropOp39
 70
     1
102
RTVSPost2010Prop40
 90
        0
102
RTVSPost2010PropOp40
 70
     1
102
RTVSPost2010Prop41ColorIndex
 90
       18
102
RTVSPost2010Prop41ColorRGB
 90
        0
102
RTVSPost2010PropOp41
 70
     1
102
RTVSPost2010Prop42
 90
       50
102
RTVSPost2010PropOp42
 70
     1
102
RTVSPost2010Prop43
 90
        3
102
RTVSPost2010PropOp43
 70
     1
102
RTVSPost2010Prop44ColorIndex
 90
        5
102
RTVSPost2010Prop44ColorRGB
 90
      255
102
RTVSPost2010PropOp44
 70
     1
102
RTVSPost2010Prop45
280
     0
102
RTVSPost2010PropOp45
 70
     1
102
RTVSPost2010Prop46
 90
       50
102
RTVSPost2010PropOp46
 70
     1
102
RTVSPost2010Prop47
 90
       50
102
RTVSPost2010PropOp47
 70
     1
102
RTVSPost2010Prop48
 90
       50
102
RTVSPost2010PropOp48
 70
     1
102
RTVSPost2010Prop49
280
     0
102
RTVSPost2010PropOp49
 70
     1
102
RTVSPost2010Prop50
 90
       50
102
RTVSPost2010PropOp50
 70
     1
102
RTVSPost2010Prop51ColorIndex
 90
      256
102
RTVSPost2010Prop51ColorRGB
 90
-16777216
102
RTVSPost2010PropOp51
 70
     0
102
RTVSPost2010Prop52
140
1.0
102
RTVSPost2010PropOp52
 70
     0
102
RTVSPost2010Prop53
 90
        2
102
RTVSPost2010PropOp53
 70
     1
102
RTVSPost2010Prop54
  1
strokes_ogs.tif
102
RTVSPost2010PropOp54
 70
     1
102
RTVSPost2010Prop55
280
     0
102
RTVSPost2010PropOp55
 70
     1
102
RTVSPost2010Prop56
140
1.0
102
RTVSPost2010PropOp56
 70
     1
102
RTVSPost2010Prop57
140
1.0
102
RTVSPost2010PropOp57
 70
     1
  0
XRECORD
  5
166
102
{ACAD_REACTORS
330
165
102
}
330
165
100
AcDbXrecord
280
     1
102
RTVSPropertyOp0
 70
     1
102
RTVSPropertyOp1
 70
     1
102
RTVSPropertyOp2
 70
     1
102
RTVSPropertyOp3
 70
     1
102
RTVSPropertyOp4
 70
     1
102
RTVSPropertyOp5
 70
     1
102
RTVSPropertyOp6
 70
     1
102
RTVSPropertyOp7
 70
     1
102
RTVSPropertyOp8
 70
     1
102
RTVSPropertyOp9
 70
     1
102
RTVSPropertyOp10
 70
     1
102
RTVSPropertyOp11
 70
     1
102
RTVSPropertyOp12
 70
     1
102
RTVSPropertyOp13
 70
     1
102
RTVSPropertyOp14
 70
     1
102
RTVSPropertyOp15
 70
     1
102
RTVSPropertyOp16
 70
     1
102
RTVSPropertyOp17
 70
     1
102
RTVSPropertyOp18
 70
     1
102
RTVSPropertyOp19
 70
     1
102
RTVSPropertyOp20
 70
     1
102
RTVSPropertyOp21
 70
     1
102
RTVSPropertyOp22
 70
     1
102
RTVSPropertyOp23
 70
     1
102
RTVSPropertyOp24
 70
     1
102
RTVSPropertyOp25
 70
     1
102
RTVSPropertyOp26
 70
     1
102
RTVSPropertyOp27
 70
     1
102
RTVSPropertyOp28
 70
     1
102
RTVSPropertyOp29
 70
     1
102
RTVSPropertyOp30
 70
     1
102
RTVSPropertyOp31
 70
     1
102
RTVSPropertyOp32
 70
     1
102
RTVSPropertyOp33
 70
     1
102
RTVSPropertyOp34
 70
     1
102
RTVSPropertyOp35
 70
     1
102
RTVSPropertyOp36
 70
     1
102
RTVSPropertyOp37
 70
     1
102
RTVSPropertyOp38
 70
     1
102
RTVSPropertyOp39
 70
     1
102
RTVSPropertyOp40
 70
     1
102
RTVSPropertyOp41
 70
     1
102
RTVSPropertyOp42
 70
     1
102
RTVSPropertyOp43
 70
     1
102
RTVSPropertyOp44
 70
     1
102
RTVSPropertyOp45
 70
     1
102
RTVSPropertyOp46
 70
     1
102
RTVSPropertyOp47
 70
     1
102
RTVSPropertyOp48
 70
     1
102
RTVSPropertyOp49
 70
     1
102
RTVSPropertyOp50
 70
     1
102
RTVSPropertyOp51
 70
     0
102
RTVSPropertyOp52
 70
     0
102
RTVSPropertyOp53
 70
     1
102
RTVSPropertyOp54
 70
     1
102
RTVSPropertyOp55
 70
     1
102
RTVSPropertyOp56
 70
     1
102
RTVSPropertyOp57
 70
     1
102
RTVSPost2010Prop28
280
     0
102
RTVSPost2010PropOp28
 70
     1
102
RTVSPost2010Prop29
280
     1
102
RTVSPost2010PropOp29
 70
     1
102
RTVSPost2010Prop30
280
     1
102
RTVSPost2010PropOp30
 70
     1
102
RTVSPost2010Prop31
280
     0
102
RTVSPost2010PropOp31
 70
     1
102
RTVSPost2010Prop32
280
     0
102
RTVSPost2010PropOp32
 70
     1
102
RTVSPost2010Prop33
280
     0
102
RTVSPost2010PropOp33
 70
     1
102
RTVSPost2010Prop34
280
     0
102
RTVSPost2010PropOp34
 70
     1
102
RTVSPost2010Prop35
280
     0
102
RTVSPost2010PropOp35
 70
     1
102
RTVSPost2010Prop36
280
     0
102
RTVSPost2010PropOp36
 70
     1
102
RTVSPost2010Prop37
 90
       50
102
RTVSPost2010PropOp37
 70
     1
102
RTVSPost2010Prop38
140
0.0
102
RTVSPost2010PropOp38
 70
     1
102
RTVSPost2010Prop39
140
1.0
102
RTVSPost2010PropOp39
 70
     1
102
RTVSPost2010Prop40
 90
        0
102
RTVSPost2010PropOp40
 70
     1
102
RTVSPost2010Prop41ColorIndex
 90
       18
102
RTVSPost2010Prop41ColorRGB
 90
        0
102
RTVSPost2010PropOp41
 70
     1
102
RTVSPost2010Prop42
 90
       50
102
RTVSPost2010PropOp42
 70
     1
102
RTVSPost2010Prop43
 90
        3
102
RTVSPost2010PropOp43
 70
     1
102
RTVSPost2010Prop44ColorIndex
 90
        5
102
RTVSPost2010Prop44ColorRGB
 90
      255
102
RTVSPost2010PropOp44
 70
     1
102
RTVSPost2010Prop45
280
     0
102
RTVSPost2010PropOp45
 70
     1
102
RTVSPost2010Prop46
 90
       50
102
RTVSPost2010PropOp46
 70
     1
102
RTVSPost2010Prop47
 90
       50
102
RTVSPost2010PropOp47
 70
     1
102
RTVSPost2010Prop48
 90
       50
102
RTVSPost2010PropOp48
 70
     1
102
RTVSPost2010Prop49
280
     0
102
RTVSPost2010PropOp49
 70
     1
102
RTVSPost2010Prop50
 90
       50
102
RTVSPost2010PropOp50
 70
     1
102
RTVSPost2010Prop51ColorIndex
 90
      256
102
RTVSPost2010Prop51ColorRGB
 90
-16777216
102
RTVSPost2010PropOp51
 70
     0
102
RTVSPost2010Prop52
140
1.0
102
RTVSPost2010PropOp52
 70
     0
102
RTVSPost2010Prop53
 90
        2
102
RTVSPost2010PropOp53
 70
     1
102
RTVSPost2010Prop54
  1
strokes_ogs.tif
102
RTVSPost2010PropOp54
 70
     1
102
RTVSPost2010Prop55
280
     0
102
RTVSPost2010PropOp55
 70
     1
102
RTVSPost2010Prop56
140
1.0
102
RTVSPost2010PropOp56
 70
     1
102
RTVSPost2010Prop57
140
1.0
102
RTVSPost2010PropOp57
 70
     1
  0
XRECORD
  5
156
102
{ACAD_REACTORS
330
155
102
}
330
155
100
AcDbXrecord
280
     1
102
RTVSPropertyOp0
 70
     1
102
RTVSPropertyOp1
 70
     1
102
RTVSPropertyOp2
 70
     1
102
RTVSPropertyOp3
 70
     1
102
RTVSPropertyOp4
 70
     1
102
RTVSPropertyOp5
 70
     1
102
RTVSPropertyOp6
 70
     1
102
RTVSPropertyOp7
 70
     1
102
RTVSPropertyOp8
 70
     1
102
RTVSPropertyOp9
 70
     1
102
RTVSPropertyOp10
 70
     1
102
RTVSPropertyOp11
 70
     1
102
RTVSPropertyOp12
 70
     1
102
RTVSPropertyOp13
 70
     1
102
RTVSPropertyOp14
 70
     1
102
RTVSPropertyOp15
 70
     1
102
RTVSPropertyOp16
 70
     1
102
RTVSPropertyOp17
 70
     1
102
RTVSPropertyOp18
 70
     1
102
RTVSPropertyOp19
 70
     1
102
RTVSPropertyOp20
 70
     1
102
RTVSPropertyOp21
 70
     1
102
RTVSPropertyOp22
 70
     1
102
RTVSPropertyOp23
 70
     1
102
RTVSPropertyOp24
 70
     1
102
RTVSPropertyOp25
 70
     1
102
RTVSPropertyOp26
 70
     1
102
RTVSPropertyOp27
 70
     1
102
RTVSPropertyOp28
 70
     1
102
RTVSPropertyOp29
 70
     1
102
RTVSPropertyOp30
 70
     1
102
RTVSPropertyOp31
 70
     1
102
RTVSPropertyOp32
 70
     1
102
RTVSPropertyOp33
 70
     1
102
RTVSPropertyOp34
 70
     1
102
RTVSPropertyOp35
 70
     1
102
RTVSPropertyOp36
 70
     1
102
RTVSPropertyOp37
 70
     1
102
RTVSPropertyOp38
 70
     1
102
RTVSPropertyOp39
 70
     1
102
RTVSPropertyOp40
 70
     1
102
RTVSPropertyOp41
 70
     1
102
RTVSPropertyOp42
 70
     1
102
RTVSPropertyOp43
 70
     1
102
RTVSPropertyOp44
 70
     1
102
RTVSPropertyOp45
 70
     1
102
RTVSPropertyOp46
 70
     1
102
RTVSPropertyOp47
 70
     1
102
RTVSPropertyOp48
 70
     1
102
RTVSPropertyOp49
 70
     1
102
RTVSPropertyOp50
 70
     1
102
RTVSPropertyOp51
 70
     0
102
RTVSPropertyOp52
 70
     0
102
RTVSPropertyOp53
 70
     1
102
RTVSPropertyOp54
 70
     1
102
RTVSPropertyOp55
 70
     1
102
RTVSPropertyOp56
 70
     1
102
RTVSPropertyOp57
 70
     1
102
RTVSPost2010Prop28
280
     0
102
RTVSPost2010PropOp28
 70
     1
102
RTVSPost2010Prop29
280
     1
102
RTVSPost2010PropOp29
 70
     1
102
RTVSPost2010Prop30
280
     1
102
RTVSPost2010PropOp30
 70
     1
102
RTVSPost2010Prop31
280
     0
102
RTVSPost2010PropOp31
 70
     1
102
RTVSPost2010Prop32
280
     0
102
RTVSPost2010PropOp32
 70
     1
102
RTVSPost2010Prop33
280
     0
102
RTVSPost2010PropOp33
 70
     1
102
RTVSPost2010Prop34
280
     0
102
RTVSPost2010PropOp34
 70
     1
102
RTVSPost2010Prop35
280
     0
102
RTVSPost2010PropOp35
 70
     1
102
RTVSPost2010Prop36
280
     0
102
RTVSPost2010PropOp36
 70
     1
102
RTVSPost2010Prop37
 90
       50
102
RTVSPost2010PropOp37
 70
     1
102
RTVSPost2010Prop38
140
0.0
102
RTVSPost2010PropOp38
 70
     1
102
RTVSPost2010Prop39
140
1.0
102
RTVSPost2010PropOp39
 70
     1
102
RTVSPost2010Prop40
 90
        0
102
RTVSPost2010PropOp40
 70
     1
102
RTVSPost2010Prop41ColorIndex
 90
       18
102
RTVSPost2010Prop41ColorRGB
 90
        0
102
RTVSPost2010PropOp41
 70
     1
102
RTVSPost2010Prop42
 90
       50
102
RTVSPost2010PropOp42
 70
     1
102
RTVSPost2010Prop43
 90
        3
102
RTVSPost2010PropOp43
 70
     1
102
RTVSPost2010Prop44ColorIndex
 90
        5
102
RTVSPost2010Prop44ColorRGB
 90
      255
102
RTVSPost2010PropOp44
 70
     1
102
RTVSPost2010Prop45
280
     0
102
RTVSPost2010PropOp45
 70
     1
102
RTVSPost2010Prop46
 90
       50
102
RTVSPost2010PropOp46
 70
     1
102
RTVSPost2010Prop47
 90
       50
102
RTVSPost2010PropOp47
 70
     1
102
RTVSPost2010Prop48
 90
       50
102
RTVSPost2010PropOp48
 70
     1
102
RTVSPost2010Prop49
280
     0
102
RTVSPost2010PropOp49
 70
     1
102
RTVSPost2010Prop50
 90
       50
102
RTVSPost2010PropOp50
 70
     1
102
RTVSPost2010Prop51ColorIndex
 90
      256
102
RTVSPost2010Prop51ColorRGB
 90
-16777216
102
RTVSPost2010PropOp51
 70
     0
102
RTVSPost2010Prop52
140
1.0
102
RTVSPost2010PropOp52
 70
     0
102
RTVSPost2010Prop53
 90
        2
102
RTVSPost2010PropOp53
 70
     1
102
RTVSPost2010Prop54
  1
strokes_ogs.tif
102
RTVSPost2010PropOp54
 70
     1
102
RTVSPost2010Prop55
280
     0
102
RTVSPost2010PropOp55
 70
     1
102
RTVSPost2010Prop56
140
1.0
102
RTVSPost2010PropOp56
 70
     1
102
RTVSPost2010Prop57
140
1.0
102
RTVSPost2010PropOp57
 70
     1
  0
XRECORD
  5
148
102
{ACAD_REACTORS
330
147
102
}
330
147
100
AcDbXrecord
280
     1
102
RTVSPropertyOp0
 70
     1
102
RTVSPropertyOp1
 70
     1
102
RTVSPropertyOp2
 70
     1
102
RTVSPropertyOp3
 70
     1
102
RTVSPropertyOp4
 70
     1
102
RTVSPropertyOp5
 70
     1
102
RTVSPropertyOp6
 70
     1
102
RTVSPropertyOp7
 70
     1
102
RTVSPropertyOp8
 70
     1
102
RTVSPropertyOp9
 70
     1
102
RTVSPropertyOp10
 70
     1
102
RTVSPropertyOp11
 70
     1
102
RTVSPropertyOp12
 70
     1
102
RTVSPropertyOp13
 70
     1
102
RTVSPropertyOp14
 70
     1
102
RTVSPropertyOp15
 70
     1
102
RTVSPropertyOp16
 70
     1
102
RTVSPropertyOp17
 70
     1
102
RTVSPropertyOp18
 70
     1
102
RTVSPropertyOp19
 70
     1
102
RTVSPropertyOp20
 70
     1
102
RTVSPropertyOp21
 70
     1
102
RTVSPropertyOp22
 70
     1
102
RTVSPropertyOp23
 70
     1
102
RTVSPropertyOp24
 70
     1
102
RTVSPropertyOp25
 70
     1
102
RTVSPropertyOp26
 70
     1
102
RTVSPropertyOp27
 70
     1
102
RTVSPropertyOp28
 70
     1
102
RTVSPropertyOp29
 70
     1
102
RTVSPropertyOp30
 70
     1
102
RTVSPropertyOp31
 70
     1
102
RTVSPropertyOp32
 70
     1
102
RTVSPropertyOp33
 70
     1
102
RTVSPropertyOp34
 70
     1
102
RTVSPropertyOp35
 70
     1
102
RTVSPropertyOp36
 70
     1
102
RTVSPropertyOp37
 70
     1
102
RTVSPropertyOp38
 70
     1
102
RTVSPropertyOp39
 70
     1
102
RTVSPropertyOp40
 70
     1
102
RTVSPropertyOp41
 70
     1
102
RTVSPropertyOp42
 70
     1
102
RTVSPropertyOp43
 70
     1
102
RTVSPropertyOp44
 70
     1
102
RTVSPropertyOp45
 70
     1
102
RTVSPropertyOp46
 70
     1
102
RTVSPropertyOp47
 70
     1
102
RTVSPropertyOp48
 70
     1
102
RTVSPropertyOp49
 70
     1
102
RTVSPropertyOp50
 70
     1
102
RTVSPropertyOp51
 70
     0
102
RTVSPropertyOp52
 70
     0
102
RTVSPropertyOp53
 70
     1
102
RTVSPropertyOp54
 70
     1
102
RTVSPropertyOp55
 70
     1
102
RTVSPropertyOp56
 70
     1
102
RTVSPropertyOp57
 70
     1
102
RTVSPost2010Prop28
280
     0
102
RTVSPost2010PropOp28
 70
     1
102
RTVSPost2010Prop29
280
     1
102
RTVSPost2010PropOp29
 70
     1
102
RTVSPost2010Prop30
280
     1
102
RTVSPost2010PropOp30
 70
     1
102
RTVSPost2010Prop31
280
     0
102
RTVSPost2010PropOp31
 70
     1
102
RTVSPost2010Prop32
280
     0
102
RTVSPost2010PropOp32
 70
     1
102
RTVSPost2010Prop33
280
     0
102
RTVSPost2010PropOp33
 70
     1
102
RTVSPost2010Prop34
280
     0
102
RTVSPost2010PropOp34
 70
     1
102
RTVSPost2010Prop35
280
     0
102
RTVSPost2010PropOp35
 70
     1
102
RTVSPost2010Prop36
280
     0
102
RTVSPost2010PropOp36
 70
     1
102
RTVSPost2010Prop37
 90
       50
102
RTVSPost2010PropOp37
 70
     1
102
RTVSPost2010Prop38
140
0.0
102
RTVSPost2010PropOp38
 70
     1
102
RTVSPost2010Prop39
140
1.0
102
RTVSPost2010PropOp39
 70
     1
102
RTVSPost2010Prop40
 90
        0
102
RTVSPost2010PropOp40
 70
     1
102
RTVSPost2010Prop41ColorIndex
 90
       18
102
RTVSPost2010Prop41ColorRGB
 90
        0
102
RTVSPost2010PropOp41
 70
     1
102
RTVSPost2010Prop42
 90
       50
102
RTVSPost2010PropOp42
 70
     1
102
RTVSPost2010Prop43
 90
        3
102
RTVSPost2010PropOp43
 70
     1
102
RTVSPost2010Prop44ColorIndex
 90
        5
102
RTVSPost2010Prop44ColorRGB
 90
      255
102
RTVSPost2010PropOp44
 70
     1
102
RTVSPost2010Prop45
280
     0
102
RTVSPost2010PropOp45
 70
     1
102
RTVSPost2010Prop46
 90
       50
102
RTVSPost2010PropOp46
 70
     1
102
RTVSPost2010Prop47
 90
       50
102
RTVSPost2010PropOp47
 70
     1
102
RTVSPost2010Prop48
 90
       50
102
RTVSPost2010PropOp48
 70
     1
102
RTVSPost2010Prop49
280
     0
102
RTVSPost2010PropOp49
 70
     1
102
RTVSPost2010Prop50
 90
       50
102
RTVSPost2010PropOp50
 70
     1
102
RTVSPost2010Prop51ColorIndex
 90
      256
102
RTVSPost2010Prop51ColorRGB
 90
-16777216
102
RTVSPost2010PropOp51
 70
     0
102
RTVSPost2010Prop52
140
1.0
102
RTVSPost2010PropOp52
 70
     0
102
RTVSPost2010Prop53
 90
        2
102
RTVSPost2010PropOp53
 70
     1
102
RTVSPost2010Prop54
  1
strokes_ogs.tif
102
RTVSPost2010PropOp54
 70
     1
102
RTVSPost2010Prop55
280
     0
102
RTVSPost2010PropOp55
 70
     1
102
RTVSPost2010Prop56
140
1.0
102
RTVSPost2010PropOp56
 70
     1
102
RTVSPost2010Prop57
140
1.0
102
RTVSPost2010PropOp57
 70
     1
  0
XRECORD
  5
168
102
{ACAD_REACTORS
330
167
102
}
330
167
100
AcDbXrecord
280
     1
102
RTVSPropertyOp0
 70
     1
102
RTVSPropertyOp1
 70
     1
102
RTVSPropertyOp2
 70
     1
102
RTVSPropertyOp3
 70
     1
102
RTVSPropertyOp4
 70
     1
102
RTVSPropertyOp5
 70
     1
102
RTVSPropertyOp6
 70
     1
102
RTVSPropertyOp7
 70
     1
102
RTVSPropertyOp8
 70
     1
102
RTVSPropertyOp9
 70
     1
102
RTVSPropertyOp10
 70
     1
102
RTVSPropertyOp11
 70
     1
102
RTVSPropertyOp12
 70
     1
102
RTVSPropertyOp13
 70
     1
102
RTVSPropertyOp14
 70
     1
102
RTVSPropertyOp15
 70
     1
102
RTVSPropertyOp16
 70
     1
102
RTVSPropertyOp17
 70
     1
102
RTVSPropertyOp18
 70
     1
102
RTVSPropertyOp19
 70
     1
102
RTVSPropertyOp20
 70
     1
102
RTVSPropertyOp21
 70
     1
102
RTVSPropertyOp22
 70
     1
102
RTVSPropertyOp23
 70
     1
102
RTVSPropertyOp24
 70
     1
102
RTVSPropertyOp25
 70
     1
102
RTVSPropertyOp26
 70
     1
102
RTVSPropertyOp27
 70
     1
102
RTVSPropertyOp28
 70
     1
102
RTVSPropertyOp29
 70
     1
102
RTVSPropertyOp30
 70
     1
102
RTVSPropertyOp31
 70
     1
102
RTVSPropertyOp32
 70
     1
102
RTVSPropertyOp33
 70
     1
102
RTVSPropertyOp34
 70
     1
102
RTVSPropertyOp35
 70
     1
102
RTVSPropertyOp36
 70
     1
102
RTVSPropertyOp37
 70
     1
102
RTVSPropertyOp38
 70
     1
102
RTVSPropertyOp39
 70
     1
102
RTVSPropertyOp40
 70
     1
102
RTVSPropertyOp41
 70
     1
102
RTVSPropertyOp42
 70
     1
102
RTVSPropertyOp43
 70
     1
102
RTVSPropertyOp44
 70
     1
102
RTVSPropertyOp45
 70
     1
102
RTVSPropertyOp46
 70
     1
102
RTVSPropertyOp47
 70
     1
102
RTVSPropertyOp48
 70
     1
102
RTVSPropertyOp49
 70
     1
102
RTVSPropertyOp50
 70
     1
102
RTVSPropertyOp51
 70
     0
102
RTVSPropertyOp52
 70
     0
102
RTVSPropertyOp53
 70
     1
102
RTVSPropertyOp54
 70
     1
102
RTVSPropertyOp55
 70
     1
102
RTVSPropertyOp56
 70
     1
102
RTVSPropertyOp57
 70
     1
102
RTVSPost2010Prop28
280
     0
102
RTVSPost2010PropOp28
 70
     1
102
RTVSPost2010Prop29
280
     1
102
RTVSPost2010PropOp29
 70
     1
102
RTVSPost2010Prop30
280
     1
102
RTVSPost2010PropOp30
 70
     1
102
RTVSPost2010Prop31
280
     0
102
RTVSPost2010PropOp31
 70
     1
102
RTVSPost2010Prop32
280
     0
102
RTVSPost2010PropOp32
 70
     1
102
RTVSPost2010Prop33
280
     0
102
RTVSPost2010PropOp33
 70
     1
102
RTVSPost2010Prop34
280
     0
102
RTVSPost2010PropOp34
 70
     1
102
RTVSPost2010Prop35
280
     0
102
RTVSPost2010PropOp35
 70
     1
102
RTVSPost2010Prop36
280
     0
102
RTVSPost2010PropOp36
 70
     1
102
RTVSPost2010Prop37
 90
       50
102
RTVSPost2010PropOp37
 70
     1
102
RTVSPost2010Prop38
140
0.0
102
RTVSPost2010PropOp38
 70
     1
102
RTVSPost2010Prop39
140
1.0
102
RTVSPost2010PropOp39
 70
     1
102
RTVSPost2010Prop40
 90
        0
102
RTVSPost2010PropOp40
 70
     1
102
RTVSPost2010Prop41ColorIndex
 90
       18
102
RTVSPost2010Prop41ColorRGB
 90
        0
102
RTVSPost2010PropOp41
 70
     1
102
RTVSPost2010Prop42
 90
       50
102
RTVSPost2010PropOp42
 70
     1
102
RTVSPost2010Prop43
 90
        3
102
RTVSPost2010PropOp43
 70
     1
102
RTVSPost2010Prop44ColorIndex
 90
        5
102
RTVSPost2010Prop44ColorRGB
 90
      255
102
RTVSPost2010PropOp44
 70
     1
102
RTVSPost2010Prop45
280
     0
102
RTVSPost2010PropOp45
 70
     1
102
RTVSPost2010Prop46
 90
       50
102
RTVSPost2010PropOp46
 70
     1
102
RTVSPost2010Prop47
 90
       50
102
RTVSPost2010PropOp47
 70
     1
102
RTVSPost2010Prop48
 90
       50
102
RTVSPost2010PropOp48
 70
     1
102
RTVSPost2010Prop49
280
     0
102
RTVSPost2010PropOp49
 70
     1
102
RTVSPost2010Prop50
 90
       50
102
RTVSPost2010PropOp50
 70
     1
102
RTVSPost2010Prop51ColorIndex
 90
      256
102
RTVSPost2010Prop51ColorRGB
 90
-16777216
102
RTVSPost2010PropOp51
 70
     0
102
RTVSPost2010Prop52
140
1.0
102
RTVSPost2010PropOp52
 70
     0
102
RTVSPost2010Prop53
 90
        2
102
RTVSPost2010PropOp53
 70
     1
102
RTVSPost2010Prop54
  1
strokes_ogs.tif
102
RTVSPost2010PropOp54
 70
     1
102
RTVSPost2010Prop55
280
     0
102
RTVSPost2010PropOp55
 70
     1
102
RTVSPost2010Prop56
140
1.0
102
RTVSPost2010PropOp56
 70
     1
102
RTVSPost2010Prop57
140
1.0
102
RTVSPost2010PropOp57
 70
     1
  0
ENDSEC
  0
EOF
