  0
SECTION
  2
HEADER
  9
$ACADVER
  1
AC1021
  9
$ACADMAINTVER
 70
    25
  9
$DWGCODEPAGE
  3
ANSI_1252
  9
$LASTSAVEDBY
  1
User
  9
$INSBASE
 10
0.0
 20
0.0
 30
0.0
  9
$EXTMIN
 10
1.000000000000000E+20
 20
1.000000000000000E+20
 30
1.000000000000000E+20
  9
$EXTMAX
 10
-1.000000000000000E+20
 20
-1.000000000000000E+20
 30
-1.000000000000000E+20
  9
$LIMMIN
 10
0.0
 20
0.0
  9
$LIMMAX
 10
12.0
 20
9.0
  9
$ORTHOMODE
 70
     0
  9
$REGENMODE
 70
     1
  9
$FILLMODE
 70
     1
  9
$QTEXTMODE
 70
     0
  9
$MIRRTEXT
 70
     1
  9
$LTSCALE
 40
1.0
  9
$ATTMODE
 70
     1
  9
$TEXTSIZE
 40
0.2
  9
$TRACEWID
 40
0.05
  9
$TEXTSTYLE
  7
Standard
  9
$CLAYER
  8
0
  9
$CELTYPE
  6
ByLayer
  9
$CECOLOR
 62
   256
  9
$CELTSCALE
 40
1.0
  9
$DISPSILH
 70
     0
  9
$DIMSCALE
 40
1.0
  9
$DIMASZ
 40
0.18
  9
$DIMEXO
 40
0.0625
  9
$DIMDLI
 40
0.38
  9
$DIMRND
 40
0.0
  9
$DIMDLE
 40
0.0
  9
$DIMEXE
 40
0.18
  9
$DIMTP
 40
0.0
  9
$DIMTM
 40
0.0
  9
$DIMTXT
 40
0.18
  9
$DIMCEN
 40
0.09
  9
$DIMTSZ
 40
0.0
  9
$DIMTOL
 70
     0
  9
$DIMLIM
 70
     0
  9
$DIMTIH
 70
     1
  9
$DIMTOH
 70
     1
  9
$DIMSE1
 70
     0
  9
$DIMSE2
 70
     0
  9
$DIMTAD
 70
     0
  9
$DIMZIN
 70
     0
  9
$DIMBLK
  1

  9
$DIMASO
 70
     1
  9
$DIMSHO
 70
     1
  9
$DIMPOST
  1

  9
$DIMAPOST
  1

  9
$DIMALT
 70
     0
  9
$DIMALTD
 70
     2
  9
$DIMALTF
 40
25.4
  9
$DIMLFAC
 40
1.0
  9
$DIMTOFL
 70
     0
  9
$DIMTVP
 40
0.0
  9
$DIMTIX
 70
     0
  9
$DIMSOXD
 70
     0
  9
$DIMSAH
 70
     0
  9
$DIMBLK1
  1

  9
$DIMBLK2
  1

  9
$DIMSTYLE
  2
STANDARD_ACAD
  9
$DIMCLRD
 70
     0
  9
$DIMCLRE
 70
     0
  9
$DIMCLRT
 70
     0
  9
$DIMTFAC
 40
1.0
  9
$DIMGAP
 40
0.09
  9
$DIMJUST
 70
     0
  9
$DIMSD1
 70
     0
  9
$DIMSD2
 70
     0
  9
$DIMTOLJ
 70
     1
  9
$DIMTZIN
 70
     0
  9
$DIMALTZ
 70
     0
  9
$DIMALTTZ
 70
     0
  9
$DIMUPT
 70
     0
  9
$DIMDEC
 70
     4
  9
$DIMTDEC
 70
     4
  9
$DIMALTU
 70
     2
  9
$DIMALTTD
 70
     2
  9
$DIMTXSTY
  7
Standard
  9
$DIMAUNIT
 70
     0
  9
$DIMADEC
 70
     0
  9
$DIMALTRND
 40
0.0
  9
$DIMAZIN
 70
     0
  9
$DIMDSEP
 70
    46
  9
$DIMATFIT
 70
     3
  9
$DIMFRAC
 70
     0
  9
$DIMLDRBLK
  1

  9
$DIMLUNIT
 70
     2
  9
$DIMLWD
 70
    -2
  9
$DIMLWE
 70
    -2
  9
$DIMTMOVE
 70
     2
  9
$DIMFXL
 40
1.0
  9
$DIMFXLON
 70
     0
  9
$DIMJOGANG
 40
0.7853981633974483
  9
$DIMTFILL
 70
     0
  9
$DIMTFILLCLR
 70
     0
  9
$DIMARCSYM
 70
     0
  9
$DIMLTYPE
  6

  9
$DIMLTEX1
  6

  9
$DIMLTEX2
  6

  9
$LUNITS
 70
     2
  9
$LUPREC
 70
     3
  9
$SKETCHINC
 40
0.1
  9
$FILLETRAD
 40
0.0
  9
$AUNITS
 70
     0
  9
$AUPREC
 70
     0
  9
$MENU
  1
.
  9
$ELEVATION
 40
0.0
  9
$PELEVATION
 40
0.0
  9
$THICKNESS
 40
0.0
  9
$LIMCHECK
 70
     0
  9
$CHAMFERA
 40
0.0
  9
$CHAMFERB
 40
0.0
  9
$CHAMFERC
 40
0.0
  9
$CHAMFERD
 40
0.0
  9
$SKPOLY
 70
     0
  9
$TDCREATE
 40
2459551.886790371
  9
$TDUCREATE
 40
2459552.095123704
  9
$TDUPDATE
 40
2459551.886816701
  9
$TDUUPDATE
 40
2459552.095150035
  9
$TDINDWG
 40
0.0000000116
  9
$TDUSRTIMER
 40
0.0000000116
  9
$USRTIMER
 70
     1
  9
$ANGBASE
 50
0.0
  9
$ANGDIR
 70
     0
  9
$PDMODE
 70
     0
  9
$PDSIZE
 40
0.0
  9
$PLINEWID
 40
0.0
  9
$SPLFRAME
 70
     0
  9
$SPLINETYPE
 70
     6
  9
$SPLINESEGS
 70
     8
  9
$HANDSEED
  5
137
  9
$SURFTAB1
 70
     6
  9
$SURFTAB2
 70
     6
  9
$SURFTYPE
 70
     6
  9
$SURFU
 70
     6
  9
$SURFV
 70
     6
  9
$UCSBASE
  2

  9
$UCSNAME
  2

  9
$UCSORG
 10
0.0
 20
0.0
 30
0.0
  9
$UCSXDIR
 10
1.0
 20
0.0
 30
0.0
  9
$UCSYDIR
 10
0.0
 20
1.0
 30
0.0
  9
$UCSORTHOREF
  2

  9
$UCSORTHOVIEW
 70
     0
  9
$UCSORGTOP
 10
0.0
 20
0.0
 30
0.0
  9
$UCSORGBOTTOM
 10
0.0
 20
0.0
 30
0.0
  9
$UCSORGLEFT
 10
0.0
 20
0.0
 30
0.0
  9
$UCSORGRIGHT
 10
0.0
 20
0.0
 30
0.0
  9
$UCSORGFRONT
 10
0.0
 20
0.0
 30
0.0
  9
$UCSORGBACK
 10
0.0
 20
0.0
 30
0.0
  9
$PUCSBASE
  2

  9
$PUCSNAME
  2

  9
$PUCSORG
 10
0.0
 20
0.0
 30
0.0
  9
$PUCSXDIR
 10
1.0
 20
0.0
 30
0.0
  9
$PUCSYDIR
 10
0.0
 20
1.0
 30
0.0
  9
$PUCSORTHOREF
  2

  9
$PUCSORTHOVIEW
 70
     0
  9
$PUCSORGTOP
 10
0.0
 20
0.0
 30
0.0
  9
$PUCSORGBOTTOM
 10
0.0
 20
0.0
 30
0.0
  9
$PUCSORGLEFT
 10
0.0
 20
0.0
 30
0.0
  9
$PUCSORGRIGHT
 10
0.0
 20
0.0
 30
0.0
  9
$PUCSORGFRONT
 10
0.0
 20
0.0
 30
0.0
  9
$PUCSORGBACK
 10
0.0
 20
0.0
 30
0.0
  9
$USERI1
 70
     0
  9
$USERI2
 70
     0
  9
$USERI3
 70
     0
  9
$USERI4
 70
     0
  9
$USERI5
 70
     0
  9
$USERR1
 40
0.0
  9
$USERR2
 40
0.0
  9
$USERR3
 40
0.0
  9
$USERR4
 40
0.0
  9
$USERR5
 40
0.0
  9
$WORLDVIEW
 70
     1
  9
$SHADEDGE
 70
     3
  9
$SHADEDIF
 70
    70
  9
$TILEMODE
 70
     1
  9
$MAXACTVP
 70
    64
  9
$PINSBASE
 10
0.0
 20
0.0
 30
0.0
  9
$PLIMCHECK
 70
     0
  9
$PEXTMIN
 10
1.000000000000000E+20
 20
1.000000000000000E+20
 30
1.000000000000000E+20
  9
$PEXTMAX
 10
-1.000000000000000E+20
 20
-1.000000000000000E+20
 30
-1.000000000000000E+20
  9
$PLIMMIN
 10
0.0
 20
0.0
  9
$PLIMMAX
 10
12.0
 20
9.0
  9
$UNITMODE
 70
     0
  9
$VISRETAIN
 70
     1
  9
$PLINEGEN
 70
     0
  9
$PSLTSCALE
 70
     1
  9
$TREEDEPTH
 70
  3020
  9
$CMLSTYLE
  2
Standard
  9
$CMLJUST
 70
     0
  9
$CMLSCALE
 40
1.0
  9
$PROXYGRAPHICS
 70
     1
  9
$MEASUREMENT
 70
     0
  9
$CELWEIGHT
370
    -1
  9
$ENDCAPS
280
     0
  9
$JOINSTYLE
280
     0
  9
$LWDISPLAY
290
     0
  9
$INSUNITS
 70
     1
  9
$HYPERLINKBASE
  1

  9
$STYLESHEET
  1

  9
$XEDIT
290
     1
  9
$CEPSNTYPE
380
     0
  9
$PSTYLEMODE
290
     1
  9
$FINGERPRINTGUID
  2
{b76ec07b-002e-44e1-95ac-61871b681ff3}
  9
$VERSIONGUID
  2
{FAEB1C32-E019-11D5-929B-00C0DF256EC4}
  9
$EXTNAMES
290
     1
  9
$PSVPSCALE
 40
0.0
  9
$OLESTARTUP
290
     0
  9
$SORTENTS
280
   127
  9
$INDEXCTL
280
     0
  9
$HIDETEXT
280
     1
  9
$XCLIPFRAME
290
     0
  9
$HALOGAP
280
     0
  9
$OBSCOLOR
 70
   257
  9
$OBSLTYPE
280
     0
  9
$INTERSECTIONDISPLAY
280
     0
  9
$INTERSECTIONCOLOR
 70
   257
  9
$DIMASSOC
280
     2
  9
$PROJECTNAME
  1

  9
$CAMERADISPLAY
290
     0
  9
$LENSLENGTH
 40
50.0
  9
$CAMERAHEIGHT
 40
0.0
  9
$STEPSPERSEC
 40
2.0
  9
$STEPSIZE
 40
6.0
  9
$3DDWFPREC
 40
2.0
  9
$PSOLWIDTH
 40
0.25
  9
$PSOLHEIGHT
 40
4.0
  9
$LOFTANG1
 40
1.570796326794897
  9
$LOFTANG2
 40
1.570796326794897
  9
$LOFTMAG1
 40
0.0
  9
$LOFTMAG2
 40
0.0
  9
$LOFTPARAM
 70
     7
  9
$LOFTNORMALS
280
     1
  9
$LATITUDE
 40
37.795
  9
$LONGITUDE
 40
-122.394
  9
$NORTHDIRECTION
 40
0.0
  9
$TIMEZONE
 70
 -8000
  9
$LIGHTGLYPHDISPLAY
280
     1
  9
$TILEMODELIGHTSYNCH
280
     1
  9
$CMATERIAL
347
44
  9
$SOLIDHIST
280
     0
  9
$SHOWHIST
280
     1
  9
$DWFFRAME
280
     2
  9
$DGNFRAME
280
     2
  9
$REALWORLDSCALE
290
     1
  9
$INTERFERECOLOR
 62
   256
  9
$CSHADOW
280
     0
  9
$SHADOWPLANELOCATION
 40
0.0
  0
ENDSEC
  0
SECTION
  2
CLASSES
  0
CLASS
  1
ACDBDICTIONARYWDFLT
  2
AcDbDictionaryWithDefault
  3
ObjectDBX Classes
 90
        0
 91
        3
280
     0
281
     0
  0
CLASS
  1
VISUALSTYLE
  2
AcDbVisualStyle
  3
ObjectDBX Classes
 90
     4095
 91
        3
280
     0
281
     0
  0
CLASS
  1
MATERIAL
  2
AcDbMaterial
  3
ObjectDBX Classes
 90
     1153
 91
        3
280
     0
281
     0
  0
CLASS
  1
SCALE
  2
AcDbScale
  3
ObjectDBX Classes
 90
     1153
 91
        3
280
     0
281
     0
  0
CLASS
  1
TABLESTYLE
  2
AcDbTableStyle
  3
ObjectDBX Classes
 90
     4095
 91
        3
280
     0
281
     0
  0
CLASS
  1
MLEADERSTYLE
  2
AcDbMLeaderStyle
  3
ACDB_MLEADERSTYLE_CLASS
 90
     4095
 91
        3
280
     0
281
     0
  0
CLASS
  1
SUN
  2
AcDbSun
  3
SCENEOE
 90
     1153
 91
        3
280
     0
281
     0
  0
CLASS
  1
DICTIONARYVAR
  2
AcDbDictionaryVar
  3
ObjectDBX Classes
 90
        0
 91
        3
280
     0
281
     0
  0
CLASS
  1
CELLSTYLEMAP
  2
AcDbCellStyleMap
  3
ObjectDBX Classes
 90
     1152
 91
        3
280
     0
281
     0
  0
ENDSEC
  0
SECTION
  2
TABLES
  0
TABLE
  2
VPORT
  5
8
330
0
100
AcDbSymbolTable
 70
     1
  0
VPORT
  5
29
330
8
100
AcDbSymbolTableRecord
100
AcDbViewportTableRecord
  2
*Active
 70
     0
 10
0.0
 20
0.0
 11
1.0
 21
1.0
 12
10.42990654205607
 22
4.5
 13
0.0
 23
0.0
 14
0.5
 24
0.5
 15
0.5
 25
0.5
 16
0.0
 26
0.0
 36
1.0
 17
0.0
 27
0.0
 37
0.0
 40
9.0
 41
1.972972972850329
 42
50.0
 43
0.0
 44
0.0
 50
0.0
 51
0.0
 71
     0
 72
   100
 73
     1
 74
     3
 75
     0
 76
     0
 77
     0
 78
     0
281
     0
 65
     1
110
0.0
120
0.0
130
0.0
111
1.0
121
0.0
131
0.0
112
0.0
122
1.0
132
0.0
 79
     0
146
0.0
348
2F
 60
     3
 61
     5
292
     1
282
     1
141
0.0
142
0.0
 63
   250
361
5D
  0
ENDTAB
  0
TABLE
  2
LTYPE
  5
5
330
0
100
AcDbSymbolTable
 70
     1
  0
LTYPE
  5
14
330
5
100
AcDbSymbolTableRecord
100
AcDbLinetypeTableRecord
  2
ByBlock
 70
     0
  3

 72
    65
 73
     0
 40
0.0
  0
LTYPE
  5
15
330
5
100
AcDbSymbolTableRecord
100
AcDbLinetypeTableRecord
  2
ByLayer
 70
     0
  3

 72
    65
 73
     0
 40
0.0
  0
LTYPE
  5
16
330
5
100
AcDbSymbolTableRecord
100
AcDbLinetypeTableRecord
  2
Continuous
 70
     0
  3
Solid line
 72
    65
 73
     0
 40
0.0
  0
ENDTAB
  0
TABLE
  2
LAYER
  5
2
330
0
100
AcDbSymbolTable
 70
     3
  0
LAYER
  5
10
330
2
100
AcDbSymbolTableRecord
100
AcDbLayerTableRecord
  2
0
 70
     0
 62
     7
  6
Continuous
370
    -3
390
F
347
46
  0
LAYER
  5
5F
330
2
100
AcDbSymbolTableRecord
100
AcDbLayerTableRecord
  2
2D DXF
 70
     0
 62
    18
420
        0
  6
Continuous
370
    -3
390
F
347
46
  0
LAYER
  5
62
330
2
100
AcDbSymbolTableRecord
100
AcDbLayerTableRecord
  2
Make2D$Visible$Curves
 70
     0
 62
    18
420
        0
  6
Continuous
370
    -3
390
F
347
46
  0
ENDTAB
  0
TABLE
  2
STYLE
  5
3
330
0
100
AcDbSymbolTable
 70
     1
  0
STYLE
  5
11
330
3
100
AcDbSymbolTableRecord
100
AcDbTextStyleTableRecord
  2
Standard
 70
     0
 40
0.0
 41
1.0
 50
0.0
 71
     0
 42
0.2
  3
txt
  4

  0
ENDTAB
  0
TABLE
  2
VIEW
  5
6
330
0
100
AcDbSymbolTable
 70
     0
  0
ENDTAB
  0
TABLE
  2
UCS
  5
7
330
0
100
AcDbSymbolTable
 70
     0
  0
ENDTAB
  0
TABLE
  2
APPID
  5
9
330
0
100
AcDbSymbolTable
 70
     3
  0
APPID
  5
12
330
9
100
AcDbSymbolTableRecord
100
AcDbRegAppTableRecord
  2
ACAD
 70
     0
  0
APPID
  5
5E
330
9
100
AcDbSymbolTableRecord
100
AcDbRegAppTableRecord
  2
Rhino
 70
     0
  0
APPID
  5
12F
330
9
100
AcDbSymbolTableRecord
100
AcDbRegAppTableRecord
  2
ACAD_MLEADERVER
 70
     0
  0
ENDTAB
  0
TABLE
  2
DIMSTYLE
  5
A
330
0
100
AcDbSymbolTable
 70
     1
100
AcDbDimStyleTable
  0
DIMSTYLE
105
27
330
A
100
AcDbSymbolTableRecord
100
AcDbDimStyleTableRecord
  2
STANDARD_ACAD
 70
     0
178
     0
340
11
  0
ENDTAB
  0
TABLE
  2
BLOCK_RECORD
  5
1
330
0
100
AcDbSymbolTable
 70
     1
  0
BLOCK_RECORD
  5
1F
330
1
100
AcDbSymbolTableRecord
100
AcDbBlockTableRecord
  2
*Model_Space
340
22
 70
     0
280
     1
281
     0
  0
BLOCK_RECORD
  5
1B
330
1
100
AcDbSymbolTableRecord
100
AcDbBlockTableRecord
  2
*Paper_Space
340
1E
 70
     0
280
     1
281
     0
  0
BLOCK_RECORD
  5
23
330
1
100
AcDbSymbolTableRecord
100
AcDbBlockTableRecord
  2
*Paper_Space0
340
26
 70
     0
280
     1
281
     0
  0
ENDTAB
  0
ENDSEC
  0
SECTION
  2
BLOCKS
  0
BLOCK
  5
20
330
1F
100
AcDbEntity
  8
0
100
AcDbBlockBegin
  2
*Model_Space
 70
     0
 10
0.0
 20
0.0
 30
0.0
  3
*Model_Space
  1

  0
ENDBLK
  5
21
330
1F
100
AcDbEntity
  8
0
100
AcDbBlockEnd
  0
BLOCK
  5
1C
330
1B
100
AcDbEntity
 67
     1
  8
0
100
AcDbBlockBegin
  2
*Paper_Space
 70
     0
 10
0.0
 20
0.0
 30
0.0
  3
*Paper_Space
  1

  0
ENDBLK
  5
1D
330
1B
100
AcDbEntity
 67
     1
  8
0
100
AcDbBlockEnd
  0
BLOCK
  5
24
330
23
100
AcDbEntity
  8
0
100
AcDbBlockBegin
  2
*Paper_Space0
 70
     0
 10
0.0
 20
0.0
 30
0.0
  3
*Paper_Space0
  1

  0
ENDBLK
  5
25
330
23
100
AcDbEntity
  8
0
100
AcDbBlockEnd
  0
ENDSEC
  0
SECTION
  2
ENTITIES
  0
SPLINE
  5
60
330
1F
100
AcDbEntity
  8
2D DXF
370
    -3
100
AcDbSpline
210
0.0
220
0.0
230
1.0
 70
     8
 71
     3
 72
    10
 73
     6
 74
     0
 42
0.0000000001
 43
0.0000000001
 40
0.0
 40
0.0
 40
0.0
 40
0.0
 40
1.0
 40
2.0
 40
2.180749075502983
 40
2.180749075502983
 40
2.180749075502983
 40
2.180749075502983
 10
-4.18074026117074
 20
20.04335643734434
 30
0.0
 10
-4.219060021330279
 20
19.83043030545937
 30
0.0
 10
-4.297826638551442
 20
19.40486455865371
 30
0.0
 10
-4.390770215687375
 20
18.94243960488316
 30
0.0
 10
-4.447849933458296
 20
18.69324319848004
 30
0.0
 10
-4.456876604193703
 20
18.65517029770204
 30
0.0
  0
SPLINE
  5
61
330
1F
100
AcDbEntity
  8
2D DXF
370
    -3
100
AcDbSpline
210
0.0
220
0.0
230
1.0
 70
     8
 71
     3
 72
    10
 73
     6
 74
     0
 42
0.0000000001
 43
0.0000000001
 40
0.0
 40
0.0
 40
0.0
 40
0.0
 40
1.0
 40
2.0
 40
2.181679109507166
 40
2.181679109507166
 40
2.181679109507166
 40
2.181679109507166
 10
4.182764622863374
 20
20.04335643734434
 30
0.0
 10
4.221084383022912
 20
19.83043030545937
 30
0.0
 10
4.299851000244075
 20
19.40486455865371
 30
0.0
 10
4.392834215451249
 20
18.9422423924041
 30
0.0
 10
4.449964218665092
 20
18.69285063293953
 30
0.0
 10
4.459040327501174
 20
18.65458259780906
 30
0.0
  0
SPLINE
  5
63
330
1F
100
AcDbEntity
  8
Make2D$Visible$Curves
 62
    18
420
        0
370
    -3
100
AcDbSpline
210
0.0
220
0.0
230
1.0
 70
     8
 71
     3
 72
    27
 73
    23
 74
     0
 42
0.0000000001
 43
0.0000000001
 40
0.0
 40
0.0
 40
0.0
 40
0.0
 40
1.0
 40
2.0
 40
3.0
 40
4.0
 40
5.0
 40
6.0
 40
7.0
 40
8.0
 40
9.0
 40
9.0
 40
9.0
 40
10.0
 40
11.0
 40
12.0
 40
13.0
 40
14.0
 40
15.0
 40
16.0
 40
17.0
 40
18.0
 40
18.0
 40
18.0
 40
18.0
 10
-8.51032917826052
 20
18.26749555552308
 30
0.0
 10
-8.373367002421965
 20
18.61761159492315
 30
0.0
 10
-7.624653911979685
 20
18.55492130548718
 30
0.0
 10
-6.710578394203374
 20
18.32688190442669
 30
0.0
 10
-5.771638099919453
 20
18.01588521889347
 30
0.0
 10
-4.84005073853092
 20
17.72427311316477
 30
0.0
 10
-3.890597516034056
 20
17.48117207351572
 30
0.0
 10
-2.927902128141447
 20
17.30223110567693
 30
0.0
 10
-1.955107181412306
 20
17.18897888186299
 30
0.0
 10
-0.9778120689947549
 20
17.12986150283571
 30
0.0
 10
-0.3252551174959208
 20
17.1177831791418
 30
0.0
 10
0.0010166942479231
 20
17.11779302607749
 30
0.0
 10
0.3272865476222933
 20
17.11666253298197
 30
0.0
 10
0.9798811353802996
 20
17.12649944721709
 30
0.0
 10
1.957373533660014
 20
17.1822597607354
 30
0.0
 10
2.930551729818099
 20
17.29217005644533
 30
0.0
 10
3.893856047927844
 20
17.46780339767616
 30
0.0
 10
4.844138649434573
 20
17.70764191514516
 30
0.0
 10
5.776722116238631
 20
17.99605257644273
 30
0.0
 10
6.716725052807607
 20
18.30382244807466
 30
0.0
 10
7.631578426043117
 20
18.52872092764636
 30
0.0
 10
8.38050242254242
 20
18.58883924146758
 30
0.0
 10
8.516261246477566
 20
18.23825484309913
 30
0.0
  0
SPLINE
  5
64
330
1F
100
AcDbEntity
  8
Make2D$Visible$Curves
 62
    18
420
        0
370
    -3
100
AcDbSpline
210
0.0
220
0.0
230
1.0
 70
    12
 71
     3
 72
    41
 73
    37
 74
     0
 42
0.0000000001
 43
0.0000000001
 40
-0.0671572777863575
 40
-0.0671572777863575
 40
-0.0671572777863575
 40
-0.0671572777863575
 40
0.0
 40
0.0
 40
0.0
 40
1.000000150794276
 40
2.000000301588552
 40
3.000000452382829
 40
4.000000603177105
 40
5.000000753971381
 40
6.000000904765657
 40
7.000001055559935
 40
8.00000120635421
 40
9.000001357148488
 40
10.00000150794276
 40
11.00000165873704
 40
12.00000180953132
 40
13.0
 40
13.0
 40
13.0
 40
13.99999819046868
 40
14.99999834126296
 40
15.99999849205724
 40
16.99999864285151
 40
17.99999879364579
 40
18.99999894444007
 40
19.99999909523434
 40
20.99999924602862
 40
21.99999939682289
 40
22.99999954761717
 40
23.99999969841145
 40
24.99999984920573
 40
26.0
 40
26.0
 40
26.0
 40
26.06715727778636
 40
26.06715727778636
 40
26.06715727778636
 40
26.06715727778636
 10
-8.264328125578363
 20
18.51899803236419
 30
0.0
 41
1.0
 10
-8.262944707178418
 20
18.53498368051295
 30
0.0
 41
0.9989377936654854
 10
-8.260661460336529
 20
18.55086579551896
 30
0.0
 41
0.9989377936654854
 10
-8.25748566089047
 20
18.56659376713273
 30
0.0
 41
1.0
 10
-8.210221802728086
 20
18.80066541811748
 30
0.0
 41
1.0
 10
-7.765278270961318
 20
18.97568324214873
 30
0.0
 41
1.0
 10
-7.122477969794005
 20
18.9693537926522
 30
0.0
 41
1.0
 10
-6.474711997228496
 20
18.89325153529207
 30
0.0
 41
1.0
 10
-5.8319299247581
 20
18.80262046469556
 30
0.0
 41
1.0
 10
-5.186494802116243
 20
18.72594839330903
 30
0.0
 41
1.0
 10
-4.540102245308546
 20
18.66004997721484
 30
0.0
 41
1.0
 10
-3.892284350342806
 20
18.60909241860136
 30
0.0
 41
1.0
 10
-3.243591017189061
 20
18.5713978574473
 30
0.0
 41
1.0
 10
-2.594326777395878
 20
18.54537911803919
 30
0.0
 41
1.0
 10
-1.944761275549766
 20
18.5288650330812
 30
0.0
 41
1.0
 10
-1.295060213581124
 20
18.51949517179697
 30
0.0
 41
1.0
 10
-0.6453103773236677
 20
18.5150443218374
 30
0.0
 41
1.0
 10
-0.2121355926793598
 20
18.51432833379333
 30
0.0
 41
1.0
 10
0.0044513663506791
 20
18.51433640599772
 30
0.0
 41
1.0
 10
0.221038325380718
 20
18.51432833379333
 30
0.0
 41
1.0
 10
0.6542131100250259
 20
18.5150443218374
 30
0.0
 41
1.0
 10
1.303962946282482
 20
18.51949517179697
 30
0.0
 41
1.0
 10
1.953664008251124
 20
18.5288650330812
 30
0.0
 41
1.0
 10
2.603229510097236
 20
18.54537911803919
 30
0.0
 41
1.0
 10
3.252493749890419
 20
18.5713978574473
 30
0.0
 41
1.0
 10
3.901187083044164
 20
18.60909241860136
 30
0.0
 41
1.0
 10
4.549004978009904
 20
18.66004997721484
 30
0.0
 41
1.0
 10
5.195397534817602
 20
18.72594839330903
 30
0.0
 41
1.0
 10
5.840832657459458
 20
18.80262046469556
 30
0.0
 41
1.0
 10
6.483614729929855
 20
18.89325153529207
 30
0.0
 41
1.0
 10
7.131380702495363
 20
18.9693537926522
 30
0.0
 41
1.0
 10
7.774181003662676
 20
18.97568324214873
 30
0.0
 41
1.0
 10
8.219124535429444
 20
18.80066541811748
 30
0.0
 41
1.0
 10
8.266388393591829
 20
18.56659376713273
 30
0.0
 41
1.0
 10
8.269564193037889
 20
18.55086579551896
 30
0.0
 41
0.9989377936654854
 10
8.271847439879776
 20
18.53498368051294
 30
0.0
 41
0.9989377936654854
 10
8.273230858279721
 20
18.51899803236419
 30
0.0
 41
1.0
  0
SPLINE
  5
65
330
1F
100
AcDbEntity
  8
Make2D$Visible$Curves
 62
    18
420
        0
370
    -3
100
AcDbSpline
210
0.0
220
0.0
230
1.0
 70
    12
 71
     3
 72
    48
 73
    44
 74
     0
 42
0.0000000001
 43
0.0000000001
 40
0.0
 40
0.0
 40
0.0
 40
0.0
 40
1.0
 40
1.0
 40
1.0
 40
2.0
 40
3.0
 40
4.0
 40
5.0
 40
6.0
 40
7.0
 40
7.0
 40
7.0
 40
8.0
 40
8.0
 40
9.0
 40
9.0
 40
10.0
 40
10.0
 40
11.0
 40
11.0
 40
12.0
 40
12.0
 40
13.0
 40
13.0
 40
14.0
 40
14.0
 40
15.0
 40
15.0
 40
16.0
 40
16.0
 40
17.0
 40
17.0
 40
18.0
 40
18.0
 40
19.0
 40
19.0
 40
20.0
 40
20.0
 40
21.0
 40
21.0
 40
21.0
 40
21.40578199946958
 40
21.40578199946958
 40
21.40578199946958
 40
21.40578199946958
 10
38.89931237307446
 20
17.16368902132518
 30
0.0
 41
1.0
 10
38.94284517349861
 20
17.1434435536539
 30
0.0
 41
1.0
 10
39.00162874460716
 20
17.17597246463019
 30
0.0
 41
1.0
 10
39.02156326886504
 20
17.21964852655592
 30
0.0
 41
1.0
 10
39.04419086031353
 20
17.26922503375266
 30
0.0
 41
1.0
 10
39.0536133077461
 20
17.38343510643207
 30
0.0
 41
1.0
 10
38.97115338704198
 20
17.52940532893436
 30
0.0
 41
1.0
 10
38.85420229514044
 20
17.64367734730732
 30
0.0
 41
1.0
 10
38.72152184652781
 20
17.73923625718184
 30
0.0
 41
1.0
 10
38.58042377272744
 20
17.8213459516721
 30
0.0
 41
1.0
 10
38.4819890055644
 20
17.86773597521184
 30
0.0
 41
1.0
 10
38.43323939544487
 20
17.89183155140025
 30
0.0
 41
1.0
 10
38.11332094716326
 20
18.04995834104529
 30
0.0
 41
1.0
 10
37.78889439633129
 20
18.19867773110759
 30
0.0
 41
1.0
 10
37.13102508956667
 20
18.47730171206671
 30
0.0
 41
1.0
 10
36.79360597074724
 20
18.59193376565393
 30
0.0
 41
1.0
 10
36.10179880223421
 20
18.77183799904369
 30
0.0
 41
1.0
 10
35.75174918107976
 20
18.83986870270553
 30
0.0
 41
1.0
 10
35.043357864975
 20
18.93208728396312
 30
0.0
 41
1.0
 10
34.6879527541448
 20
18.96325766779601
 30
0.0
 41
1.0
 10
33.97472362692874
 20
18.99572062186997
 30
0.0
 41
1.0
 10
33.61797579169394
 20
19.0011331315099
 30
0.0
 41
1.0
 10
32.90421357797076
 20
18.99032021599566
 30
0.0
 41
1.0
 10
32.5476379212387
 20
18.97716477097762
 30
0.0
 41
1.0
 10
31.83509750803367
 20
18.93535590641974
 30
0.0
 41
1.0
 10
31.4792709669616
 20
18.90867069761617
 30
0.0
 41
1.0
 10
30.76850521587834
 20
18.84373872695976
 30
0.0
 41
1.0
 10
30.41351869403428
 20
18.80745859931902
 30
0.0
 41
1.0
 10
29.70433835774129
 20
18.7272700594125
 30
0.0
 41
1.0
 10
29.35001671471001
 20
18.68495020510657
 30
0.0
 41
1.0
 10
28.6419104788779
 20
18.59585932778938
 30
0.0
 41
1.0
 10
28.28809502882784
 20
18.54949783120383
 30
0.0
 41
1.0
 10
27.58093946445973
 20
18.45314272217878
 30
0.0
 41
1.0
 10
27.22761307974401
 20
18.40319946891137
 30
0.0
 41
1.0
 10
26.52146310524923
 20
18.29978156486677
 30
0.0
 41
1.0
 10
26.16910301676667
 20
18.24330014398956
 30
0.0
 41
1.0
 10
25.46581263733118
 20
18.12079236452531
 30
0.0
 41
1.0
 10
25.11655216907804
 20
18.04820852693762
 30
0.0
 41
1.0
 10
24.42280067550094
 20
17.88038095605107
 30
0.0
 41
1.0
 10
24.07676130505785
 20
17.79328407264751
 30
0.0
 41
1.0
 10
23.73155831096021
 20
17.70300409128366
 30
0.0
 41
1.0
 10
23.59148082274178
 20
17.66637001440112
 30
0.0
 41
0.9999953304417449
 10
23.45154143005778
 20
17.62921191071089
 30
0.0
 41
0.9999953304417449
 10
23.31174209327365
 20
17.59153030074876
 30
0.0
 41
1.0
  0
SPLINE
  5
66
330
1F
100
AcDbEntity
  8
Make2D$Visible$Curves
 62
    18
420
        0
370
    -3
100
AcDbSpline
210
0.0
220
0.0
230
1.0
 70
    11
 71
     2
 72
    34
 73
    31
 74
     0
 42
0.0000000001
 43
0.0000000001
 40
0.0
 40
0.0
 40
0.0
 40
1.000000040306232
 40
2.000000080612463
 40
3.000000120918695
 40
4.000000161224927
 40
5.000000201531158
 40
6.00000024183739
 40
7.00000028214362
 40
8.000000322449853
 40
9.000000362756083
 40
10.00000040306232
 40
11.00000044336855
 40
12.00000048367478
 40
13.00000052398101
 40
14.0
 40
14.0
 40
14.99999947601899
 40
15.99999951632522
 40
16.99999955663145
 40
17.99999959693768
 40
18.99999963724391
 40
19.99999967755015
 40
20.99999971785638
 40
21.99999975816261
 40
22.99999979846884
 40
23.99999983877507
 40
24.9999998790813
 40
25.99999991938754
 40
26.99999995969377
 40
28.0
 40
28.0
 40
28.0
 10
-0.0000000000086828
 20
56.4610186424231
 30
0.0
 10
0.9489971759994091
 20
56.46617845602047
 30
0.0
 10
2.836774833752315
 20
56.27133554382286
 30
0.0
 10
4.676169405631939
 20
55.76503026092055
 30
0.0
 10
6.250888256907743
 20
54.67164495694374
 30
0.0
 10
7.319959887918742
 20
53.08594420226564
 30
0.0
 10
7.926508398967812
 20
51.28148161949326
 30
0.0
 10
8.260204993763622
 20
49.41192799921569
 30
0.0
 10
8.273996502272809
 20
47.51115160471389
 30
0.0
 10
7.965306688274993
 20
45.63525687391041
 30
0.0
 10
7.284241483655194
 20
43.85558180186658
 30
0.0
 10
6.145632128200916
 20
42.32334337201411
 30
0.0
 10
4.607408591775965
 20
41.19388739061429
 30
0.0
 10
2.828166785034313
 20
40.51213261924479
 30
0.0
 10
0.9498350899676637
 20
40.21744546120969
 30
0.0
 10
-0.0000000000086828
 20
40.22032281473006
 30
0.0
 10
-0.9498350899850294
 20
40.21744546120969
 30
0.0
 10
-2.828166785051678
 20
40.51213261924479
 30
0.0
 10
-4.60740859179333
 20
41.19388739061429
 30
0.0
 10
-6.145632128218281
 20
42.32334337201411
 30
0.0
 10
-7.28424148367256
 20
43.85558180186658
 30
0.0
 10
-7.965306688292358
 20
45.63525687391041
 30
0.0
 10
-8.273996502290174
 20
47.51115160471389
 30
0.0
 10
-8.260204993780988
 20
49.41192799921569
 30
0.0
 10
-7.926508398985177
 20
51.28148161949326
 30
0.0
 10
-7.319959887936108
 20
53.08594420226564
 30
0.0
 10
-6.250888256925109
 20
54.67164495694374
 30
0.0
 10
-4.676169405649304
 20
55.76503026092055
 30
0.0
 10
-2.836774833769681
 20
56.27133554382286
 30
0.0
 10
-0.9489971760167748
 20
56.46617845602047
 30
0.0
 10
-0.0000000000086828
 20
56.4610186424231
 30
0.0
  0
LINE
  5
67
330
1F
100
AcDbEntity
  8
2D DXF
370
    -3
100
AcDbLine
 10
21.58943453209167
 20
20.26398275912643
 30
0.0
 11
21.68051245152219
 21
20.43901116063508
 31
0.0
  0
SPLINE
  5
68
330
1F
100
AcDbEntity
  8
2D DXF
370
    -3
100
AcDbSpline
210
0.0
220
0.0
230
1.0
 70
     8
 71
     2
 72
    11
 73
     8
 74
     0
 42
0.0000000001
 43
0.0000000001
 40
1.632577816608413
 40
1.632577816608413
 40
1.632577816608413
 40
2.632577427346236
 40
3.632577505198671
 40
4.632577583051106
 40
5.632577660903541
 40
6.632577738755977
 40
7.632577816608412
 40
7.632577816608412
 40
7.632577816608412
 10
21.70714700888584
 20
22.29903010859682
 30
0.0
 10
21.72437478121992
 20
22.34664040850424
 30
0.0
 10
21.73136188289527
 20
22.44761209823223
 30
0.0
 10
21.73039799937567
 20
22.54833094459528
 30
0.0
 10
21.72350637301645
 20
22.64888338613252
 30
0.0
 10
21.71203433562903
 20
22.74899441078389
 30
0.0
 10
21.69657775068652
 20
22.84856854046805
 30
0.0
 10
21.68696846992901
 20
22.89802631091433
 30
0.0
  0
SPLINE
  5
69
330
1F
100
AcDbEntity
  8
2D DXF
370
    -3
100
AcDbSpline
210
0.0
220
0.0
230
1.0
 70
     8
 71
     3
 72
    11
 73
     7
 74
     0
 42
0.0000000001
 43
0.0000000001
 40
1.106384034209326
 40
1.106384034209326
 40
1.106384034209326
 40
1.106384034209326
 40
1.617990370078946
 40
1.617990370078946
 40
1.617990370078946
 40
1.632577816608413
 40
1.632577816608413
 40
1.632577816608413
 40
1.632577816608413
 10
21.49010263578879
 20
21.8215047995045
 30
0.0
 10
21.56046259337376
 20
21.9763307387398
 30
0.0
 10
21.63080884781681
 20
22.13110970561318
 30
0.0
 10
21.70112933260577
 20
22.28579450029125
 30
0.0
 10
21.70313507702053
 20
22.29020655979139
 30
0.0
 10
21.70514078927317
 20
22.29461851435194
 30
0.0
 10
21.70714700888584
 20
22.29903010859682
 30
0.0
  0
SPLINE
  5
6A
330
1F
100
AcDbEntity
  8
2D DXF
370
    -3
100
AcDbSpline
210
0.0
220
0.0
230
1.0
 70
     8
 71
     3
 72
     8
 73
     4
 74
     0
 42
0.0000000001
 43
0.0000000001
 40
2.942255389416193
 40
2.942255389416193
 40
2.942255389416193
 40
2.942255389416193
 40
3.256087856163177
 40
3.256087856163177
 40
3.256087856163177
 40
3.256087856163177
 10
21.32881336701553
 20
24.32515563627624
 30
0.0
 10
21.24399633445995
 20
24.26382162242545
 30
0.0
 10
21.15919313439724
 20
24.20255137109675
 30
0.0
 10
21.07437407645574
 20
24.14138858638874
 30
0.0
  0
SPLINE
  5
6B
330
1F
100
AcDbEntity
  8
2D DXF
370
    -3
100
AcDbSpline
210
0.0
220
0.0
230
1.0
 70
     8
 71
     3
 72
     8
 73
     4
 74
     0
 42
0.0000000001
 43
0.0000000001
 40
2.868978274657099
 40
2.868978274657099
 40
2.868978274657099
 40
2.868978274657099
 40
2.942255389416193
 40
2.942255389416193
 40
2.942255389416193
 40
2.942255389416193
 10
21.33970712578753
 20
24.32889767977726
 30
0.0
 10
21.33579586970012
 20
24.32882039507223
 30
0.0
 10
21.33216029867828
 20
24.32757582809884
 30
0.0
 10
21.32881336701553
 20
24.32515563627624
 30
0.0
  0
SPLINE
  5
6C
330
1F
100
AcDbEntity
  8
2D DXF
370
    -3
100
AcDbSpline
210
0.0
220
0.0
230
1.0
 70
     8
 71
     3
 72
    11
 73
     7
 74
     0
 42
0.0000000001
 43
0.0000000001
 40
2.0
 40
2.0
 40
2.0
 40
2.0
 40
2.50156835232133
 40
2.50156835232133
 40
2.50156835232133
 40
2.868978274657099
 40
2.868978274657099
 40
2.868978274657099
 40
2.868978274657099
 10
21.5305549590837
 20
23.74780273076735
 30
0.0
 10
21.49986030807992
 20
23.89596038516707
 30
0.0
 10
21.45860344530922
 20
24.07776076311262
 30
0.0
 10
21.41810630669431
 20
24.19622266277611
 30
0.0
 10
21.38558276745312
 20
24.29136025456803
 30
0.0
 10
21.35973267247681
 20
24.32942190321863
 30
0.0
 10
21.33970712578753
 20
24.32889767977726
 30
0.0
  0
SPLINE
  5
6D
330
1F
100
AcDbEntity
  8
2D DXF
370
    -3
100
AcDbSpline
210
0.0
220
0.0
230
1.0
 70
     8
 71
     2
 72
     7
 73
     4
 74
     0
 42
0.0000000001
 43
0.0000000001
 40
0.0
 40
0.0
 40
0.0
 40
1.0
 40
2.0
 40
2.0
 40
2.0
 10
21.68696846992896
 20
22.89802631091435
 30
0.0
 10
21.68142362739275
 20
22.92654441565213
 30
0.0
 10
21.540711317731
 20
23.72046335447058
 30
0.0
 10
21.5305549590837
 20
23.74780273076735
 30
0.0
  0
SPLINE
  5
6E
330
1F
100
AcDbEntity
  8
2D DXF
370
    -3
100
AcDbSpline
210
0.0
220
0.0
230
1.0
 70
     8
 71
     2
 72
    18
 73
    15
 74
     0
 42
0.0000000001
 43
0.0000000001
 40
0.0
 40
0.0
 40
0.0
 40
1.0
 40
2.0
 40
3.0
 40
4.0
 40
5.0
 40
6.0
 40
7.0
 40
8.0
 40
9.0
 40
10.0
 40
11.0
 40
12.0
 40
12.99112390467558
 40
12.99112390467558
 40
12.99112390467558
 10
18.17999125324229
 20
29.40336256459454
 30
0.0
 10
18.42067556834138
 20
29.33865672714442
 30
0.0
 10
18.89503682935492
 20
29.18490007386322
 30
0.0
 10
19.34828752185962
 20
28.9743861636718
 30
0.0
 10
19.74388725871324
 20
28.66694383567854
 30
0.0
 10
20.04395643728731
 20
28.26587710528497
 30
0.0
 10
20.25412845660912
 20
27.81272258881927
 30
0.0
 10
20.40861399039591
 20
27.33859221380629
 30
0.0
 10
20.55291817218142
 20
26.86156436242223
 30
0.0
 10
20.68310322446439
 20
26.3804279662059
 30
0.0
 10
20.80133729475745
 20
25.89623685572877
 30
0.0
 10
20.90831691131882
 20
25.4094366124955
 30
0.0
 10
21.00551890652793
 20
24.92060023555402
 30
0.0
 10
21.09803415858551
 20
24.43311497010141
 30
0.0
 10
21.14180398517112
 20
24.19003594540514
 30
0.0
  0
SPLINE
  5
6F
330
1F
100
AcDbEntity
  8
2D DXF
370
    -3
100
AcDbSpline
210
0.0
220
0.0
230
1.0
 70
    24
 71
     2
 72
     6
 73
     3
 74
     0
 42
0.0000000001
 43
0.0000000001
 40
4.0
 40
4.0
 40
4.0
 40
19.45967090157143
 40
19.45967090157143
 40
19.45967090157143
 10
36.1928847215928
 20
15.33611396537023
 30
0.0
 10
37.68695122258453
 20
7.765279088858946
 30
0.0
 10
39.18101772357625
 20
0.194444212347662
 30
0.0
  0
SPLINE
  5
70
330
1F
100
AcDbEntity
  8
2D DXF
370
    -3
100
AcDbSpline
210
0.0
220
0.0
230
1.0
 70
     8
 71
     2
 72
     9
 73
     6
 74
     0
 42
0.0000000001
 43
0.0000000001
 40
0.0
 40
0.0
 40
0.0
 40
1.0
 40
2.0
 40
3.0
 40
4.0
 40
4.0
 40
4.0
 10
34.12626450787775
 20
17.42393778162389
 30
0.0
 10
34.53689778187845
 20
17.46022167964487
 30
0.0
 10
35.26360505685312
 20
17.08503549053144
 30
0.0
 10
35.78435553890023
 20
16.46582237135354
 30
0.0
 10
36.11552787866435
 20
15.73118057033174
 30
0.0
 10
36.1928847215928
 20
15.33611396537023
 30
0.0
  0
LINE
  5
71
330
1F
100
AcDbEntity
  8
2D DXF
370
    -3
100
AcDbLine
 10
38.69197802958274
 20
0.1350687427608364
 30
0.0
 11
38.69197802958274
 21
0.1943332114064731
 31
0.0
  0
LINE
  5
72
330
1F
100
AcDbEntity
  8
2D DXF
370
    -3
100
AcDbLine
 10
39.7394832489108
 20
0.1335023955424219
 30
0.0
 11
38.69197802958274
 21
0.1350687427608364
 31
0.0
  0
LINE
  5
73
330
1F
100
AcDbEntity
  8
2D DXF
370
    -3
100
AcDbLine
 10
39.7394832489108
 20
0.1935023955424242
 30
0.0
 11
39.7394832489108
 21
0.1335023955424219
 31
0.0
  0
LINE
  5
74
330
1F
100
AcDbEntity
  8
2D DXF
370
    -3
100
AcDbLine
 10
22.1658747280153
 20
0.1332868308177098
 30
0.0
 11
22.1658747280153
 21
0.193286830817712
 31
0.0
  0
LINE
  5
75
330
1F
100
AcDbEntity
  8
2D DXF
370
    -3
100
AcDbLine
 10
21.07235420740574
 20
0.1342037924990507
 30
0.0
 11
22.1658747280153
 21
0.1332868308177098
 31
0.0
  0
LINE
  5
76
330
1F
100
AcDbEntity
  8
2D DXF
370
    -3
100
AcDbLine
 10
21.07235420740574
 20
0.194203792499053
 30
0.0
 11
21.07235420740574
 21
0.1342037924990507
 31
0.0
  0
SPLINE
  5
77
330
1F
100
AcDbEntity
  8
2D DXF
370
    -3
100
AcDbSpline
210
0.0
220
0.0
230
1.0
 70
     8
 71
     3
 72
    11
 73
     7
 74
     0
 42
0.0000000001
 43
0.0000000001
 40
0.0
 40
0.0
 40
0.0
 40
0.0
 40
0.8875599214287285
 40
1.775119842857457
 40
2.662679764286186
 40
3.295708456099098
 40
3.295708456099098
 40
3.295708456099098
 40
3.295708456099098
 10
23.62048088796206
 20
14.73166854000927
 30
0.0
 10
23.66597452831286
 20
15.07051118077307
 30
0.0
 10
23.83420843716175
 20
15.61348434317935
 30
0.0
 10
24.21567011834566
 20
16.2027848494335
 30
0.0
 10
24.66554554124576
 20
16.55285294937508
 30
0.0
 10
25.01278145153867
 20
16.66373637078105
 30
0.0
 10
25.17449716742988
 20
16.67997258470028
 30
0.0
  0
SPLINE
  5
78
330
1F
100
AcDbEntity
  8
2D DXF
370
    -3
100
AcDbSpline
210
0.0
220
0.0
230
1.0
 70
    24
 71
     2
 72
     6
 73
     3
 74
     0
 42
0.0000000001
 43
0.0000000001
 40
-14.9803738834707
 40
-14.9803738834707
 40
-14.9803738834707
 40
0.0
 40
0.0
 40
0.0
 10
21.66851555355811
 20
0.1931729741452273
 30
0.0
 10
22.64449822076008
 20
7.462420757077247
 30
0.0
 10
23.62048088796206
 20
14.73166854000927
 30
0.0
  0
LINE
  5
79
330
1F
100
AcDbEntity
  8
2D DXF
370
    -3
100
AcDbLine
 10
23.93786769222379
 20
16.54962085615099
 30
0.0
 11
25.12530951833907
 21
16.67404922445941
 31
0.0
  0
SPLINE
  5
7A
330
1F
100
AcDbEntity
  8
2D DXF
370
    -3
100
AcDbSpline
210
0.0
220
0.0
230
1.0
 70
     8
 71
     2
 72
     8
 73
     5
 74
     0
 42
0.0000000001
 43
0.0000000001
 40
36.53637530067619
 40
36.53637530067619
 40
36.53637530067619
 40
37.53637848719183
 40
38.53638167370747
 40
39.53637530067619
 40
39.53637530067619
 40
39.53637530067619
 10
22.43829239301192
 20
14.60741552230765
 30
0.0
 10
22.4811651917654
 20
15.04996589552381
 30
0.0
 10
22.82364081905644
 20
15.8745047505634
 30
0.0
 10
23.4843145858423
 20
16.49267708482678
 30
0.0
 10
23.93786769222379
 20
16.54962085615099
 30
0.0
  0
LINE
  5
7B
330
1F
100
AcDbEntity
  8
2D DXF
370
    -3
100
AcDbLine
 10
20.93209490360471
 20
0.1943101711401454
 30
0.0
 11
22.43829239301192
 21
14.60741552230765
 31
0.0
  0
LINE
  5
7C
330
1F
100
AcDbEntity
  8
2D DXF
370
    -3
100
AcDbLine
 10
22.30584691952527
 20
0.1926848442739129
 30
0.0
 11
20.93209490360471
 21
0.1943101711401454
 31
0.0
  0
LINE
  5
7D
330
1F
100
AcDbEntity
  8
2D DXF
370
    -3
100
AcDbLine
 10
24.23023430380351
 20
14.52577619596107
 30
0.0
 11
22.30584691952527
 21
0.1926848442739129
 31
0.0
  0
SPLINE
  5
7E
330
1F
100
AcDbEntity
  8
2D DXF
370
    -3
100
AcDbSpline
210
0.0
220
0.0
230
1.0
 70
     8
 71
     2
 72
     8
 73
     5
 74
     0
 42
0.0000000001
 43
0.0000000001
 40
1.884738376821838
 40
1.884738376821838
 40
1.884738376821838
 40
2.884738376821838
 40
3.884738376821838
 40
4.884738376821838
 40
4.884738376821838
 40
4.884738376821838
 10
25.38953082967384
 20
15.5864649387093
 30
0.0
 10
25.0976078944675
 20
15.58850728458087
 30
0.0
 10
24.5985301042673
 20
15.2902694336599
 30
0.0
 10
24.27042241135098
 20
14.81322102640544
 30
0.0
 10
24.23023430380351
 20
14.52577619596107
 30
0.0
  0
SPLINE
  5
7F
330
1F
100
AcDbEntity
  8
2D DXF
370
    -3
100
AcDbSpline
210
0.0
220
0.0
230
1.0
 70
    24
 71
     2
 72
     6
 73
     3
 74
     0
 42
0.0000000001
 43
0.0000000001
 40
0.4618876472702526
 40
0.4618876472702526
 40
0.4618876472702526
 40
1.884738376821838
 40
1.884738376821838
 40
1.884738376821838
 10
26.3981437519891
 20
15.53172553703185
 30
0.0
 10
25.89383729083147
 20
15.55909523787057
 30
0.0
 10
25.38953082967384
 20
15.5864649387093
 30
0.0
  0
SPLINE
  5
80
330
1F
100
AcDbEntity
  8
2D DXF
370
    -3
100
AcDbSpline
210
0.0
220
0.0
230
1.0
 70
     8
 71
     3
 72
     8
 73
     4
 74
     0
 42
0.0000000001
 43
0.0000000001
 40
0.0
 40
0.0
 40
0.0
 40
0.0
 40
0.4618876472702526
 40
0.4618876472702526
 40
0.4618876472702526
 40
0.4618876472702526
 10
26.72443211799259
 20
15.53991474120147
 30
0.0
 10
26.61610331193458
 20
15.5285289248886
 30
0.0
 10
26.50734052206838
 20
15.52579921414018
 30
0.0
 10
26.3981437519891
 20
15.53172553703185
 30
0.0
  0
SPLINE
  5
81
330
1F
100
AcDbEntity
  8
2D DXF
370
    -3
100
AcDbSpline
210
0.0
220
0.0
230
1.0
 70
     8
 71
     3
 72
     8
 73
     4
 74
     0
 42
0.0000000001
 43
0.0000000001
 40
3.295708456099098
 40
3.295708456099098
 40
3.295708456099098
 40
3.295708456099098
 40
3.550239685714914
 40
3.550239685714914
 40
3.550239685714914
 40
3.550239685714914
 10
25.17449716742988
 20
16.67997258470028
 30
0.0
 10
25.23952060245949
 20
16.68650091990311
 30
0.0
 10
25.30731827740158
 20
16.68819119619593
 30
0.0
 10
25.37829399983968
 20
16.68433920452007
 30
0.0
  0
SPLINE
  5
82
330
1F
100
AcDbEntity
  8
2D DXF
370
    -3
100
AcDbSpline
210
0.0
220
0.0
230
1.0
 70
    24
 71
     2
 72
     6
 73
     3
 74
     0
 42
0.0000000001
 43
0.0000000001
 40
64.33013041744705
 40
64.33013041744705
 40
64.33013041744705
 40
64.85790182563049
 40
64.85790182563049
 40
64.85790182563049
 10
25.20044708858921
 20
15.40584254514494
 30
0.0
 10
25.01247720382574
 20
15.41589901943311
 30
0.0
 10
24.82450731906226
 20
15.42595549372128
 30
0.0
  0
SPLINE
  5
83
330
1F
100
AcDbEntity
  8
2D DXF
370
    -3
100
AcDbSpline
210
0.0
220
0.0
230
1.0
 70
     8
 71
     3
 72
     8
 73
     4
 74
     0
 42
0.0000000001
 43
0.0000000001
 40
63.86824267752753
 40
63.86824267752753
 40
63.86824267752753
 40
63.86824267752753
 40
64.33013041744705
 40
64.33013041744705
 40
64.33013041744705
 40
64.33013041744705
 10
25.52753221075267
 20
15.41411549176227
 30
0.0
 10
25.41920337864588
 20
15.40272967270586
 30
0.0
 10
25.31017500231701
 20
15.39997205188277
 30
0.0
 10
25.20044708858921
 20
15.40584254514494
 30
0.0
  0
LINE
  5
84
330
1F
100
AcDbEntity
  8
2D DXF
370
    -3
100
AcDbLine
 10
34.25880027003871
 20
16.33180874403072
 30
0.0
 11
25.52753221075267
 21
15.41411549176227
 31
0.0
  0
SPLINE
  5
85
330
1F
100
AcDbEntity
  8
2D DXF
370
    -3
100
AcDbSpline
210
0.0
220
0.0
230
1.0
 70
     8
 71
     2
 72
    20
 73
    17
 74
     0
 42
0.0000000001
 43
0.0000000001
 40
0.3379665711787619
 40
0.3379665711787619
 40
0.3379665711787619
 40
12.75385983975291
 40
12.75385983975291
 40
13.75385983975291
 40
14.75385983975291
 40
15.75385983975291
 40
15.75385983975291
 40
31.28766337793714
 40
31.28766337793714
 40
33.15202828514794
 40
33.15202828514794
 40
48.45234940894851
 40
48.45234940894851
 40
49.45234940894851
 40
50.45234940894851
 40
51.45234940894851
 40
51.45234940894851
 40
51.45234940894851
 10
26.6256545070388
 20
16.63559190346086
 30
0.0
 10
30.99128853667992
 20
17.09443852959748
 30
0.0
 10
35.35692256632103
 20
17.55328515573409
 30
0.0
 10
35.90752263025945
 20
17.61115555439174
 30
0.0
 10
36.77952642021131
 20
16.93632503224724
 30
0.0
 10
37.26610355868104
 20
15.98380103099208
 30
0.0
 10
37.35319057398988
 20
15.45806702466072
 30
0.0
 10
38.61747497416286
 20
7.825731704773148
 30
0.0
 10
39.88175937433584
 20
0.1933963848855598
 30
0.0
 10
39.21551945567631
 20
0.1943926214905218
 30
0.0
 10
38.54927953701679
 20
0.1953888580954839
 30
0.0
 10
37.07061305109812
 20
7.68818773611801
 30
0.0
 10
35.59194656517946
 20
15.18098661414055
 30
0.0
 10
35.52954470143283
 20
15.49719356081835
 30
0.0
 10
35.13753962286643
 20
16.00744472003157
 30
0.0
 10
34.5826419982663
 20
16.36584588122308
 30
0.0
 10
34.25880027003871
 20
16.33180874403072
 30
0.0
  0
SPLINE
  5
86
330
1F
100
AcDbEntity
  8
2D DXF
370
    -3
100
AcDbSpline
210
0.0
220
0.0
230
1.0
 70
     8
 71
     3
 72
     8
 73
     4
 74
     0
 42
0.0000000001
 43
0.0000000001
 40
0.0
 40
0.0
 40
0.0
 40
0.0
 40
0.3379665711787619
 40
0.3379665711787619
 40
0.3379665711787619
 40
0.3379665711787619
 10
26.38690692215437
 20
16.6295998028526
 30
0.0
 10
26.46680699782337
 20
16.62526346902335
 30
0.0
 10
26.54638952699497
 20
16.62726081835365
 30
0.0
 10
26.6256545070388
 20
16.63559190346086
 30
0.0
  0
SPLINE
  5
87
330
1F
100
AcDbEntity
  8
2D DXF
370
    -3
100
AcDbSpline
210
0.0
220
0.0
230
1.0
 70
    24
 71
     2
 72
     6
 73
     3
 74
     0
 42
0.0000000001
 43
0.0000000001
 40
-1.422850729551201
 40
-1.422850729551201
 40
-1.422850729551201
 40
0.0
 40
0.0
 40
0.0
 10
25.37829399983968
 20
16.68433920452007
 30
0.0
 10
25.88260046099703
 20
16.65696950368633
 30
0.0
 10
26.38690692215437
 20
16.6295998028526
 30
0.0
  0
SPLINE
  5
88
330
1F
100
AcDbEntity
  8
2D DXF
370
    -3
100
AcDbSpline
210
0.0
220
0.0
230
1.0
 70
     8
 71
     2
 72
    53
 73
    50
 74
     0
 42
0.0000000001
 43
0.0000000001
 40
-48.0
 40
-48.0
 40
-48.0
 40
-47.0
 40
-46.0
 40
-45.0
 40
-44.0
 40
-43.0
 40
-42.0
 40
-41.0
 40
-40.0
 40
-39.0
 40
-38.0
 40
-37.0
 40
-36.0
 40
-35.0
 40
-34.0
 40
-33.0
 40
-32.0
 40
-31.0
 40
-30.0
 40
-29.0
 40
-28.0
 40
-27.0
 40
-26.0
 40
-25.0
 40
-24.0
 40
-23.0
 40
-22.0
 40
-21.0
 40
-20.0
 40
-19.0
 40
-18.0
 40
-17.0
 40
-16.0
 40
-15.0
 40
-14.0
 40
-13.0
 40
-12.0
 40
-11.0
 40
-10.0
 40
-9.0
 40
-8.0
 40
-7.0
 40
-6.0
 40
-5.0
 40
-4.0
 40
-3.0
 40
-2.0
 40
-1.0
 40
0.0
 40
0.0
 40
0.0
 10
20.33085365724344
 20
24.82065092957548
 30
0.0
 10
20.57900407181455
 20
24.73941933916076
 30
0.0
 10
20.96869325335717
 20
24.40561205087641
 30
0.0
 10
21.16249419108374
 20
23.92141694167162
 30
0.0
 10
21.28859918762095
 20
23.42518093905394
 30
0.0
 10
21.36462327393309
 20
22.91739552318747
 30
0.0
 10
21.43266017270537
 20
22.40908761226424
 30
0.0
 10
21.48483910615323
 20
21.89878259424503
 30
0.0
 10
21.52467720663157
 20
21.38740599239979
 30
0.0
 10
21.5555009536759
 20
20.87541381013274
 30
0.0
 10
21.58299131014041
 20
20.36323997812185
 30
0.0
 10
21.61510228496229
 20
19.8513175813497
 30
0.0
 10
21.66722467629216
 20
19.34086567541969
 30
0.0
 10
21.76333184573537
 20
18.83669363363643
 30
0.0
 10
21.92571630936567
 20
18.34754702042447
 30
0.0
 10
22.23168457293497
 20
17.92945532487454
 30
0.0
 10
22.67487288524336
 20
17.65898463468199
 30
0.0
 10
23.18123295261194
 20
17.55766404626728
 30
0.0
 10
23.69486495850839
 20
17.55602103051679
 30
0.0
 10
24.20622839414193
 20
17.59738810096313
 30
0.0
 10
24.71597025945192
 20
17.65443600596684
 30
0.0
 10
25.22478419700707
 20
17.7191860511677
 30
0.0
 10
25.73313382250444
 20
17.78744548681949
 30
0.0
 10
26.24129188529344
 20
17.85711072813245
 30
0.0
 10
26.74943956518217
 20
17.92685614955172
 30
0.0
 10
27.25770230006196
 20
17.99575650434582
 30
0.0
 10
27.76617959522429
 20
18.06305839122912
 30
0.0
 10
28.27494281580977
 20
18.12816650682876
 30
0.0
 10
28.78404121458141
 20
18.19060251210382
 30
0.0
 10
29.29349535929225
 20
18.25006787445267
 30
0.0
 10
29.8032921269907
 20
18.30651748923137
 30
0.0
 10
30.31339952210067
 20
18.36009271175203
 30
0.0
 10
30.82388082525364
 20
18.40999235612612
 30
0.0
 10
31.33481631540946
 20
18.45502963930352
 30
0.0
 10
31.84628233489451
 20
18.49361947679242
 30
0.0
 10
32.35828163065588
 20
18.52438759756065
 30
0.0
 10
32.87074608291181
 20
18.54614878569565
 30
0.0
 10
33.38354688545644
 20
18.55771063541289
 30
0.0
 10
33.89648570480904
 20
18.55732160659947
 30
0.0
 10
34.40922849447759
 20
18.5427274309219
 30
0.0
 10
34.92123031285547
 20
18.51127600438413
 30
0.0
 10
35.43162238340886
 20
18.45970233310337
 30
0.0
 10
35.93901529502756
 20
18.38384114797209
 30
0.0
 10
36.44109009551738
 20
18.27805383072285
 30
0.0
 10
36.93380958495726
 20
18.13425979075919
 30
0.0
 10
37.41009715287896
 20
17.94320293760838
 30
0.0
 10
37.87436609567263
 20
17.72485546476736
 30
0.0
 10
38.32554027771926
 20
17.48076575032253
 30
0.0
 10
38.77054636292013
 20
17.22555325443619
 30
0.0
 10
38.99963253645643
 20
17.1101547378842
 30
0.0
  0
SPLINE
  5
89
330
1F
100
AcDbEntity
  8
2D DXF
370
    -3
100
AcDbSpline
210
0.0
220
0.0
230
1.0
 70
     8
 71
     3
 72
     8
 73
     4
 74
     0
 42
0.0000000001
 43
0.0000000001
 40
-49.0
 40
-49.0
 40
-49.0
 40
-49.0
 40
-48.0
 40
-48.0
 40
-48.0
 40
-48.0
 10
20.14525178841018
 20
24.75550668106619
 30
0.0
 10
20.12454947463959
 20
24.84255036367961
 30
0.0
 10
20.24866578451457
 20
24.84755498140271
 30
0.0
 10
20.33085365724344
 20
24.82065092957548
 30
0.0
  0
SPLINE
  5
8A
330
1F
100
AcDbEntity
  8
2D DXF
370
    -3
100
AcDbSpline
210
0.0
220
0.0
230
1.0
 70
     8
 71
     2
 72
    33
 73
    30
 74
     0
 42
0.0000000001
 43
0.0000000001
 40
-77.0
 40
-77.0
 40
-77.0
 40
-76.0
 40
-75.0
 40
-74.0
 40
-73.0
 40
-72.0
 40
-71.0
 40
-70.0
 40
-69.0
 40
-68.0
 40
-67.0
 40
-66.0
 40
-65.0
 40
-64.0
 40
-63.0
 40
-62.0
 40
-61.0
 40
-60.0
 40
-59.0
 40
-58.0
 40
-57.0
 40
-56.0
 40
-55.0
 40
-54.0
 40
-53.0
 40
-52.0
 40
-51.0
 40
-50.0
 40
-49.0
 40
-49.0
 40
-49.0
 10
25.88636243015651
 20
16.84283567603772
 30
0.0
 10
25.67019656784726
 20
16.82297610355623
 30
0.0
 10
25.23730892241139
 20
16.78983697974076
 30
0.0
 10
24.80388321890075
 20
16.7645928414228
 30
0.0
 10
24.36997393655679
 20
16.74953903731858
 30
0.0
 10
23.93579617784212
 20
16.74742144329539
 30
0.0
 10
23.50181090499342
 20
16.76198126661004
 30
0.0
 10
23.06925585043672
 20
16.80085173359008
 30
0.0
 10
22.64081794879149
 20
16.87268133886617
 30
0.0
 10
22.22130611985199
 20
16.98628186822185
 30
0.0
 10
21.82006849755561
 20
17.1542225244192
 30
0.0
 10
21.45388964227425
 20
17.39050664996756
 30
0.0
 10
21.15418428077203
 20
17.70795280091423
 30
0.0
 10
20.95011089030754
 20
18.09351703851958
 30
0.0
 10
20.82574108222525
 20
18.51042129140082
 30
0.0
 10
20.75326998785658
 20
18.93879562341695
 30
0.0
 10
20.71091187037632
 20
19.3709721882598
 30
0.0
 10
20.68403496208549
 20
19.8043103087836
 30
0.0
 10
20.66869186163183
 20
20.23819968274485
 30
0.0
 10
20.65826346955873
 20
20.67221916023681
 30
0.0
 10
20.64639591157305
 20
21.10620503641658
 30
0.0
 10
20.62796367543217
 20
21.53997167534418
 30
0.0
 10
20.59967808066642
 20
21.97321633455955
 30
0.0
 10
20.55992583261167
 20
22.40556391836394
 30
0.0
 10
20.50833993706522
 20
22.83665967697596
 30
0.0
 10
20.44527910282778
 20
23.26622438144364
 30
0.0
 10
20.37151662906189
 20
23.69407797209863
 30
0.0
 10
20.2879330553335
 20
24.12011834077791
 30
0.0
 10
20.19548028987504
 20
24.5443189950858
 30
0.0
 10
20.14525178841018
 20
24.75550668106619
 30
0.0
  0
SPLINE
  5
8B
330
1F
100
AcDbEntity
  8
2D DXF
370
    -3
100
AcDbSpline
210
0.0
220
0.0
230
1.0
 70
    28
 71
     3
 72
     8
 73
     4
 74
     0
 42
0.0000000001
 43
0.0000000001
 40
-0.4752008586069391
 40
-0.4752008586069391
 40
-0.4752008586069391
 40
-0.4752008586069391
 40
-0.251629684814577
 40
-0.251629684814577
 40
-0.251629684814577
 40
-0.251629684814577
 10
26.00151009711182
 20
16.65119777648344
 30
0.0
 41
0.9998948912510919
 10
25.96312754145999
 20
16.71507707633489
 30
0.0
 41
0.9998948912510919
 10
25.92474498580822
 20
16.77895637618638
 30
0.0
 41
0.9998948912510919
 10
25.8863624301565
 20
16.84283567603772
 30
0.0
 41
0.9998948912510919
  0
SPLINE
  5
8C
330
1F
100
AcDbEntity
  8
2D DXF
370
    -3
100
AcDbSpline
210
0.0
220
0.0
230
1.0
 70
     8
 71
     3
 72
     8
 73
     4
 74
     0
 42
0.0000000001
 43
0.0000000001
 40
30.24920543449504
 40
30.24920543449504
 40
30.24920543449504
 40
30.24920543449504
 40
31.24920543449504
 40
31.24920543449504
 40
31.24920543449504
 40
31.24920543449504
 10
38.9391145384019
 20
16.81331907494075
 30
0.0
 10
39.15455965378348
 20
16.71829798618565
 30
0.0
 10
39.18999497154621
 20
17.01426268871562
 30
0.0
 10
38.99963253645643
 20
17.1101547378842
 30
0.0
  0
SPLINE
  5
8D
330
1F
100
AcDbEntity
  8
2D DXF
370
    -3
100
AcDbSpline
210
0.0
220
0.0
230
1.0
 70
     8
 71
     2
 72
    11
 73
     8
 74
     0
 42
0.0000000001
 43
0.0000000001
 40
24.24920543449504
 40
24.24920543449504
 40
24.24920543449504
 40
25.24920543449504
 40
26.24920543449504
 40
27.24920543449504
 40
28.24920543449504
 40
29.24920543449504
 40
30.24920543449504
 40
30.24920543449504
 40
30.24920543449504
 10
33.66378013575354
 20
17.65652378680321
 30
0.0
 10
34.11429873676389
 20
17.68144015209779
 30
0.0
 10
35.01588866956189
 20
17.70550450181626
 30
0.0
 10
35.91763632575555
 20
17.67446634654074
 30
0.0
 10
36.81191312184575
 20
17.55089591829321
 30
0.0
 10
37.68447062856222
 20
17.31943921979057
 30
0.0
 10
38.52654959996147
 20
16.99527896557628
 30
0.0
 10
38.9391145384019
 20
16.81331907494075
 30
0.0
  0
SPLINE
  5
8E
330
1F
100
AcDbEntity
  8
2D DXF
370
    -3
100
AcDbSpline
210
0.0
220
0.0
230
1.0
 70
    12
 71
     3
 72
     8
 73
     4
 74
     0
 42
0.0000000001
 43
0.0000000001
 40
24.0043308142028
 40
24.0043308142028
 40
24.0043308142028
 40
24.0043308142028
 40
24.24920543449504
 40
24.24920543449504
 40
24.24920543449504
 40
24.24920543449504
 10
33.58374795424026
 20
17.42497320595946
 30
0.0
 41
0.9998948912510895
 10
33.61032241364097
 20
17.5021510400192
 30
0.0
 41
0.9998948912510895
 10
33.63689687304161
 20
17.57932887407889
 30
0.0
 41
0.9998948912510897
 10
33.66378013575352
 20
17.65652378680321
 30
0.0
 41
0.9998948912510898
  0
SPLINE
  5
8F
330
1F
100
AcDbEntity
  8
2D DXF
370
    -3
100
AcDbSpline
210
0.0
220
0.0
230
1.0
 70
     8
 71
     2
 72
     7
 73
     4
 74
     0
 42
0.0000000001
 43
0.0000000001
 40
22.0043308142028
 40
22.0043308142028
 40
22.0043308142028
 40
23.0043308142028
 40
24.0043308142028
 40
24.0043308142028
 40
24.0043308142028
 10
33.49964894300706
 20
17.35807783186829
 30
0.0
 10
33.52775639100463
 20
17.36396122168213
 30
0.0
 10
33.57443492233898
 20
17.39707767182361
 30
0.0
 10
33.58374795424027
 20
17.42497320595945
 30
0.0
  0
LINE
  5
90
330
1F
100
AcDbEntity
  8
2D DXF
370
    -3
100
AcDbLine
 10
32.75615834921189
 20
17.27993382158022
 30
0.0
 11
33.49964894300706
 21
17.35807783186829
 31
0.0
  0
SPLINE
  5
91
330
1F
100
AcDbEntity
  8
2D DXF
370
    -3
100
AcDbSpline
210
0.0
220
0.0
230
1.0
 70
     8
 71
     2
 72
     7
 73
     4
 74
     0
 42
0.0000000001
 43
0.0000000001
 40
19.25674486636416
 40
19.25674486636416
 40
19.25674486636416
 40
20.25674486636416
 40
21.25674486636416
 40
21.25674486636416
 40
21.25674486636416
 10
32.65998877281493
 20
17.32788220362609
 30
0.0
 10
32.67508853406827
 20
17.30297783986209
 30
0.0
 10
32.72715043065875
 20
17.27700677806502
 30
0.0
 10
32.75615834921189
 20
17.27993382158022
 30
0.0
  0
SPLINE
  5
92
330
1F
100
AcDbEntity
  8
2D DXF
370
    -3
100
AcDbSpline
210
0.0
220
0.0
230
1.0
 70
    12
 71
     3
 72
     8
 73
     4
 74
     0
 42
0.0000000001
 43
0.0000000001
 40
18.96393641439282
 40
18.96393641439282
 40
18.96393641439282
 40
18.96393641439282
 40
19.25674486636416
 40
19.25674486636416
 40
19.25674486636416
 40
19.25674486636416
 10
32.50864615477189
 20
17.57932691877291
 30
0.0
 41
0.9998948912511187
 10
32.55945043853444
 20
17.49520609055882
 30
0.0
 41
0.9998948912511187
 10
32.60971960567466
 20
17.41154414709248
 30
0.0
 41
0.9998948912511187
 10
32.65998877281491
 20
17.32788220362609
 30
0.0
 41
0.9998948912511187
  0
SPLINE
  5
93
330
1F
100
AcDbEntity
  8
2D DXF
370
    -3
100
AcDbSpline
210
0.0
220
0.0
230
1.0
 70
     8
 71
     3
 72
    10
 73
     6
 74
     0
 42
0.0000000001
 43
0.0000000001
 40
16.79483486452972
 40
16.79483486452972
 40
16.79483486452972
 40
16.79483486452972
 40
17.24447515632863
 40
18.17147567688618
 40
18.96393641439282
 40
18.96393641439282
 40
18.96393641439282
 40
18.96393641439282
 10
30.26936230415151
 20
17.3656067927719
 30
0.0
 10
30.42505534230941
 20
17.38335705093635
 30
0.0
 10
30.90191823416296
 20
17.43592320155959
 30
0.0
 10
31.65286853855787
 20
17.50897805649866
 30
0.0
 10
32.23993990508154
 20
17.55891749090773
 30
0.0
 10
32.5086461547719
 20
17.57932691877292
 30
0.0
  0
SPLINE
  5
94
330
1F
100
AcDbEntity
  8
2D DXF
370
    -3
100
AcDbSpline
210
0.0
220
0.0
230
1.0
 70
     8
 71
     3
 72
     8
 73
     4
 74
     0
 42
0.0000000001
 43
0.0000000001
 40
16.31747463577107
 40
16.31747463577107
 40
16.31747463577107
 40
16.31747463577107
 40
16.79483486452972
 40
16.79483486452972
 40
16.79483486452972
 40
16.79483486452972
 10
29.77380922263268
 20
17.30719268952207
 30
0.0
 10
29.93885337180546
 20
17.3272634776135
 30
0.0
 10
30.10407370650171
 20
17.34676256367447
 30
0.0
 10
30.26936230415151
 20
17.3656067927719
 30
0.0
  0
SPLINE
  5
95
330
1F
100
AcDbEntity
  8
2D DXF
370
    -3
100
AcDbSpline
210
0.0
220
0.0
230
1.0
 70
     8
 71
     3
 72
    44
 73
    40
 74
     0
 42
0.0000000001
 43
0.0000000001
 40
3.568124814608516
 40
3.568124814608516
 40
3.568124814608516
 40
3.568124814608516
 40
4.788183826542491
 40
4.788183826542491
 40
4.788183826542491
 40
5.788188722156311
 40
5.788188722156311
 40
5.788188722156311
 40
6.78819361777013
 40
6.78819361777013
 40
6.78819361777013
 40
7.78819851338395
 40
7.78819851338395
 40
7.78819851338395
 40
8.78820340899777
 40
8.78820340899777
 40
8.78820340899777
 40
9.788208304611588
 40
9.788208304611588
 40
9.788208304611588
 40
10.78821320022541
 40
10.78821320022541
 40
10.78821320022541
 40
11.78821809583923
 40
11.78821809583923
 40
11.78821809583923
 40
12.78822299145305
 40
12.78822299145305
 40
12.78822299145305
 40
13.78822788706687
 40
13.78822788706687
 40
13.78822788706687
 40
14.78823278268069
 40
14.78823278268069
 40
14.78823278268069
 40
15.78823767829451
 40
15.78823767829451
 40
15.78823767829451
 40
16.31747463577107
 40
16.31747463577107
 40
16.31747463577107
 40
16.31747463577107
 10
27.01965959511392
 20
16.96264593145148
 30
0.0
 10
27.42351248873638
 20
17.0096659488418
 30
0.0
 10
27.82711744610367
 20
17.06020553850527
 30
0.0
 10
28.23065216304485
 20
17.11174371636575
 30
0.0
 10
28.27535579246853
 20
17.11746393881893
 30
0.0
 10
28.32005942189221
 20
17.12318416127211
 30
0.0
 10
28.36476305131589
 20
17.12890438372528
 30
0.0
 10
28.40945076106857
 20
17.13463854836658
 30
0.0
 10
28.45413847082136
 20
17.14037271300789
 30
0.0
 10
28.49882618057404
 20
17.14610687764919
 30
0.0
 10
28.5434976499115
 20
17.1518464580662
 30
0.0
 10
28.58816911924907
 20
17.15758603848322
 30
0.0
 10
28.63284058858653
 20
17.16332561890023
 30
0.0
 10
28.67749552440836
 20
17.16906209261607
 30
0.0
 10
28.72215046023018
 20
17.17479856633193
 30
0.0
 10
28.76680539605195
 20
17.18053504004777
 30
0.0
 10
28.81144354046228
 20
17.18625988941824
 30
0.0
 10
28.85608168487249
 20
17.1919847387887
 30
0.0
 10
28.90071982928282
 20
17.19770958815917
 30
0.0
 10
28.94534097021619
 20
17.20341430152683
 30
0.0
 10
28.98996211114968
 20
17.20911901489451
 30
0.0
 10
29.03458325208305
 20
17.21482372826219
 30
0.0
 10
29.07918723739692
 20
17.22049980136957
 30
0.0
 10
29.12379122271079
 20
17.22617587447697
 30
0.0
 10
29.16839520802478
 20
17.23185194758435
 30
0.0
 10
29.2129819629447
 20
17.23749088516963
 30
0.0
 10
29.25756871786461
 20
17.24312982275492
 30
0.0
 10
29.30215547278453
 20
17.24876876034021
 30
0.0
 10
29.34672501936382
 20
17.25436207768239
 30
0.0
 10
29.39129456594321
 20
17.25995539502456
 30
0.0
 10
29.43586411252249
 20
17.26554871236674
 30
0.0
 10
29.48041658737179
 20
17.27108793627204
 30
0.0
 10
29.52496906222109
 20
17.27662716017736
 30
0.0
 10
29.56952153707039
 20
17.28216638408266
 30
0.0
 10
29.61405719960635
 20
17.28764305239213
 30
0.0
 10
29.65859286214231
 20
17.29311972070161
 30
0.0
 10
29.70312852467828
 20
17.2985963890111
 30
0.0
 10
29.72668929127707
 20
17.30145742543354
 30
0.0
 10
29.75025005787603
 20
17.30431846185601
 30
0.0
 10
29.77380922263268
 20
17.30719268952207
 30
0.0
  0
SPLINE
  5
96
330
1F
100
AcDbEntity
  8
2D DXF
370
    -3
100
AcDbSpline
210
0.0
220
0.0
230
1.0
 70
    28
 71
     3
 72
     8
 73
     4
 74
     0
 42
0.0000000001
 43
0.0000000001
 40
2.0
 40
2.0
 40
2.0
 40
2.0
 40
2.249737975162182
 40
2.249737975162182
 40
2.249737975162182
 40
2.249737975162182
 10
26.93835286344242
 20
16.72651403690299
 30
0.0
 41
0.9998948912511108
 10
26.96545510733295
 20
16.80522466841917
 30
0.0
 41
0.9998948912511108
 10
26.99255735122337
 20
16.8839352999353
 30
0.0
 41
0.9998948912511108
 10
27.0196595951139
 20
16.96264593145148
 30
0.0
 41
0.9998948912511108
  0
SPLINE
  5
97
330
1F
100
AcDbEntity
  8
2D DXF
370
    -3
100
AcDbSpline
210
0.0
220
0.0
230
1.0
 70
     8
 71
     2
 72
     7
 73
     4
 74
     0
 42
0.0000000001
 43
0.0000000001
 40
0.0
 40
0.0
 40
0.0
 40
1.0
 40
2.0
 40
2.0
 40
2.0
 10
26.85425385220935
 20
16.65961866281181
 30
0.0
 10
26.88277392171602
 20
16.66457119283611
 30
0.0
 10
26.92889774773153
 20
16.69872024632353
 30
0.0
 10
26.93835286344245
 20
16.72651403690298
 30
0.0
  0
SPLINE
  5
98
330
1F
100
AcDbEntity
  8
2D DXF
370
    -3
100
AcDbSpline
210
0.0
220
0.0
230
1.0
 70
     8
 71
     2
 72
    53
 73
    50
 74
     0
 42
0.0000000001
 43
0.0000000001
 40
0.0854334264385601
 40
0.0854334264385601
 40
0.0854334264385601
 40
1.0
 40
2.0
 40
3.0
 40
4.0
 40
5.0
 40
6.0
 40
7.0
 40
8.0
 40
9.0
 40
10.0
 40
11.0
 40
12.0
 40
13.0
 40
14.0
 40
15.0
 40
16.0
 40
17.0
 40
18.0
 40
19.0
 40
20.0
 40
21.0
 40
22.0
 40
23.0
 40
24.0
 40
25.0
 40
26.0
 40
27.0
 40
28.0
 40
29.0
 40
30.0
 40
31.0
 40
32.0
 40
33.0
 40
34.0
 40
35.0
 40
36.0
 40
37.0
 40
38.0
 40
39.0
 40
40.0
 40
41.0
 40
42.0
 40
43.0
 40
44.0
 40
45.0
 40
46.0
 40
47.0
 40
48.0
 40
48.0
 40
48.0
 10
38.97339461469352
 20
16.80098822733068
 30
0.0
 10
38.76126212670397
 20
16.90819259195811
 30
0.0
 10
38.3329724101352
 20
17.16150425065381
 30
0.0
 10
37.88096243686746
 20
17.41800496719796
 30
0.0
 10
37.41474577995587
 20
17.64785374066736
 30
0.0
 10
36.93609269172532
 20
17.85107761991109
 30
0.0
 10
36.43850317305498
 20
18.00242210640182
 30
0.0
 10
35.93023945427467
 20
18.11174920061184
 30
0.0
 10
35.41627562160687
 20
18.18940977979132
 30
0.0
 10
34.89915271977088
 20
18.24163155966346
 30
0.0
 10
34.380385006349
 20
18.27314781739221
 30
0.0
 10
33.8608769585087
 20
18.28751046767447
 30
0.0
 10
33.34118093785719
 20
18.28746706004057
 30
0.0
 10
32.82163346089396
 20
18.27540247879787
 30
0.0
 10
32.30243423978885
 20
18.25299465244382
 30
0.0
 10
31.78370659359388
 20
18.22156661134315
 30
0.0
 10
31.26551366740148
 20
18.18234195591624
 30
0.0
 10
30.7478313731508
 20
18.1369048173532
 30
0.0
 10
30.23056256100807
 20
18.0870111847573
 30
0.0
 10
29.71363490630802
 20
18.03370168569764
 30
0.0
 10
29.19702492599731
 20
17.97739951296629
 30
0.0
 10
28.68076529432005
 20
17.91797292619783
 30
0.0
 10
28.16482043452226
 20
17.8558713104009
 30
0.0
 10
27.64919988934992
 20
17.79113580513972
 30
0.0
 10
27.13383253269734
 20
17.72441845818516
 30
0.0
 10
26.61863263149866
 20
17.6564220753018
 30
0.0
 10
26.10349794581339
 20
17.58793480949716
 30
0.0
 10
25.58823745330312
 20
17.52039302501586
 30
0.0
 10
25.07256765487415
 20
17.45604372696255
 30
0.0
 10
24.55625573408668
 20
17.39696142499088
 30
0.0
 10
24.03873760435516
 20
17.34945059990253
 30
0.0
 10
23.51929049485585
 20
17.32607332104513
 30
0.0
 10
23.00006930613051
 20
17.35994781890273
 30
0.0
 10
22.49101580668253
 20
17.47888316417936
 30
0.0
 10
22.04696771823831
 20
17.75846959646991
 30
0.0
 10
21.72654094316067
 20
18.17380420067849
 30
0.0
 10
21.54509861221709
 20
18.66330605701799
 30
0.0
 10
21.43988898035423
 20
19.17277619168927
 30
0.0
 10
21.37787672570056
 20
19.68886892139122
 30
0.0
 10
21.34432508595899
 20
20.20753297391494
 30
0.0
 10
21.31846550307222
 20
20.7265495702045
 30
0.0
 10
21.29049583238276
 20
21.24547124311265
 30
0.0
 10
21.25365987774512
 20
21.76384695350028
 30
0.0
 10
21.20414266836769
 20
22.28120174529595
 30
0.0
 10
21.13790376158727
 20
22.79659750475976
 30
0.0
 10
21.06048951041191
 20
23.31084005370822
 30
0.0
 10
20.94473054067356
 20
23.81661705217502
 30
0.0
 10
20.76331427710727
 20
24.31100433229872
 30
0.0
 10
20.40523055862678
 20
24.68502317530624
 30
0.0
 10
20.14525178841018
 20
24.75550668106619
 30
0.0
  0
SPLINE
  5
99
330
1F
100
AcDbEntity
  8
2D DXF
370
    -3
100
AcDbSpline
210
0.0
220
0.0
230
1.0
 70
     8
 71
     2
 72
    11
 73
     8
 74
     0
 42
0.0000000001
 43
0.0000000001
 40
21.0
 40
21.0
 40
21.0
 40
22.0
 40
23.0
 40
24.0
 40
25.0
 40
26.0
 40
27.0
 40
27.0
 40
27.0
 10
18.19505422064606
 20
29.67370434919405
 30
0.0
 10
18.16070182899404
 20
29.68073532128471
 30
0.0
 10
18.09867290611612
 20
29.6498030085187
 30
0.0
 10
18.0714066770459
 20
29.58618922470453
 30
0.0
 10
18.06860306176458
 20
29.51894881531194
 30
0.0
 10
18.09596462656305
 20
29.45671406681035
 30
0.0
 10
18.14728971745097
 20
29.41239842156524
 30
0.0
 10
18.17999125324229
 20
29.40336256459454
 30
0.0
  0
SPLINE
  5
9A
330
1F
100
AcDbEntity
  8
2D DXF
370
    -3
100
AcDbSpline
210
0.0
220
0.0
230
1.0
 70
     8
 71
     2
 72
    19
 73
    16
 74
     0
 42
0.0000000001
 43
0.0000000001
 40
7.0
 40
7.0
 40
7.0
 40
8.0
 40
9.0
 40
10.0
 40
11.0
 40
12.0
 40
13.0
 40
14.0
 40
15.0
 40
16.0
 40
17.0
 40
18.0
 40
19.0
 40
20.0
 40
21.0
 40
21.0
 40
21.0
 10
22.03217393689187
 20
19.25412741932747
 30
0.0
 10
22.34214125912382
 20
19.60953968610264
 30
0.0
 10
22.77122171063314
 20
20.44812733840809
 30
0.0
 10
22.98954085941028
 20
21.3639360710643
 30
0.0
 10
23.07791944606282
 20
22.29876227008165
 30
0.0
 10
23.07054446617707
 20
23.23751550861627
 30
0.0
 10
22.98803233919068
 20
24.17231980270861
 30
0.0
 10
22.84402703176039
 20
25.09984611861688
 30
0.0
 10
22.61848052764691
 20
26.01119590332299
 30
0.0
 10
22.28236865712512
 20
26.88885675215455
 30
0.0
 10
21.8179006455963
 20
27.70576684325194
 30
0.0
 10
21.21050824847208
 20
28.42686264202334
 30
0.0
 10
20.42318476392029
 20
28.94754506127241
 30
0.0
 10
19.54547953199449
 20
29.28273180481528
 30
0.0
 10
18.65490951664628
 20
29.57958485426418
 30
0.0
 10
18.19505422064606
 20
29.67370434919405
 30
0.0
  0
SPLINE
  5
9B
330
1F
100
AcDbEntity
  8
2D DXF
370
    -3
100
AcDbSpline
210
0.0
220
0.0
230
1.0
 70
     8
 71
     2
 72
     9
 73
     6
 74
     0
 42
0.0000000001
 43
0.0000000001
 40
3.0
 40
3.0
 40
3.0
 40
4.0
 40
5.0
 40
6.0
 40
7.0
 40
7.0
 40
7.0
 10
21.78632379784051
 20
19.35777637094706
 30
0.0
 10
21.79007996721987
 20
19.31606147252889
 30
0.0
 10
21.83946762068797
 20
19.24831290960772
 30
0.0
 10
21.91676267268792
 20
19.21655829675892
 30
0.0
 10
22.00474515997666
 20
19.22267725319996
 30
0.0
 10
22.03217393689187
 20
19.25412741932747
 30
0.0
  0
SPLINE
  5
9C
330
1F
100
AcDbEntity
  8
2D DXF
370
    -3
100
AcDbSpline
210
0.0
220
0.0
230
1.0
 70
     8
 71
     2
 72
     8
 73
     5
 74
     0
 42
0.0000000001
 43
0.0000000001
 40
0.0
 40
0.0
 40
0.0
 40
1.0
 40
2.0
 40
3.0
 40
3.0
 40
3.0
 10
21.50686111108706
 20
21.85838122271008
 30
0.0
 10
21.56210879423952
 20
21.44263484802289
 30
0.0
 10
21.66342408992705
 20
20.60995284838231
 30
0.0
 10
21.75000099449312
 20
19.77561118151029
 30
0.0
 10
21.78632379784051
 20
19.35777637094706
 30
0.0
  0
SPLINE
  5
9D
330
1F
100
AcDbEntity
  8
2D DXF
370
    -3
100
AcDbSpline
210
0.0
220
0.0
230
1.0
 70
     8
 71
     2
 72
    19
 73
    16
 74
     0
 42
0.0000000001
 43
0.0000000001
 40
0.0
 40
0.0
 40
0.0
 40
1.0
 40
2.0
 40
3.0
 40
4.0
 40
5.0
 40
6.0
 40
7.0
 40
8.0
 40
9.0
 40
10.0
 40
11.0
 40
12.0
 40
13.0
 40
14.0
 40
14.0
 40
14.0
 10
18.18449319276095
 20
29.40271607134147
 30
0.0
 10
18.62451372509776
 20
29.30608225633259
 30
0.0
 10
19.4779010999946
 20
29.01595299892359
 30
0.0
 10
20.30996394006331
 20
28.66930863530149
 30
0.0
 10
21.07643122098204
 20
28.18776207042475
 30
0.0
 10
21.64801356269737
 20
27.48292067232833
 30
0.0
 10
22.07284252896369
 20
26.68738843748464
 30
0.0
 10
22.38549476248721
 20
25.84130750373181
 30
0.0
 10
22.59025675495121
 20
24.96371595045585
 30
0.0
 10
22.72580655074529
 20
24.07303356283867
 30
0.0
 10
22.80057795363246
 20
23.17523667175276
 30
0.0
 10
22.80388189243371
 20
22.27406179927831
 30
0.0
 10
22.71589281325629
 20
21.37701282086313
 30
0.0
 10
22.50434871566642
 20
20.49821759882059
 30
0.0
 10
22.08713815439512
 20
19.6957660957697
 30
0.0
 10
21.78632236957907
 20
19.35777627375028
 30
0.0
  0
SPLINE
  5
9E
330
1F
100
AcDbEntity
  8
2D DXF
370
    -3
100
AcDbSpline
210
0.0
220
0.0
230
1.0
 70
    24
 71
     2
 72
     6
 73
     3
 74
     0
 42
0.0000000001
 43
0.0000000001
 40
0.0000269165430604
 40
0.0000269165430604
 40
0.0000269165430604
 40
0.3195090605941237
 40
0.3195090605941237
 40
0.3195090605941237
 10
21.68696846992896
 20
22.89802631091435
 30
0.0
 10
21.52853314824301
 20
22.88308014140082
 30
0.0
 10
21.37009782655707
 20
22.86813397188729
 30
0.0
  0
SPLINE
  5
9F
330
1F
100
AcDbEntity
  8
2D DXF
370
    -3
100
AcDbSpline
210
0.0
220
0.0
230
1.0
 70
    24
 71
     3
 72
     8
 73
     4
 74
     0
 42
0.0000000001
 43
0.0000000001
 40
0.3746101411407468
 40
0.3746101411407468
 40
0.3746101411407468
 40
0.3746101411407468
 40
1.475134582785274
 40
1.475134582785274
 40
1.475134582785274
 40
1.475134582785274
 10
29.80620051557958
 20
16.96988075941684
 30
0.0
 10
29.84497787008752
 20
16.60527005443436
 30
0.0
 10
29.88375522459557
 20
16.24065934945185
 30
0.0
 10
29.9225325791034
 20
15.87604864446932
 30
0.0
  0
SPLINE
  5
A0
330
1F
100
AcDbEntity
  8
2D DXF
370
    -3
100
AcDbSpline
210
0.0
220
0.0
230
1.0
 70
    24
 71
     3
 72
     8
 73
     4
 74
     0
 42
0.0000000001
 43
0.0000000001
 40
0.7013819337285124
 40
0.7013819337285124
 40
0.7013819337285124
 40
0.7013819337285124
 40
1.47582158527431
 40
1.47582158527431
 40
1.47582158527431
 40
1.47582158527431
 10
0.0024249211109577
 20
16.77410436533368
 30
0.0
 10
0.0024249211109577
 20
16.51668554152516
 30
0.0
 10
0.0024249211109577
 20
16.25926671771663
 30
0.0
 10
0.0024249211109577
 20
16.00184789390809
 30
0.0
  0
SPLINE
  5
A1
330
1F
100
AcDbEntity
  8
2D DXF
370
    -3
100
AcDbSpline
210
0.0
220
0.0
230
1.0
 70
    24
 71
     2
 72
     6
 73
     3
 74
     0
 42
0.0000000001
 43
0.0000000001
 40
2.812858276155322
 40
2.812858276155322
 40
2.812858276155322
 40
14.76821565810697
 40
14.76821565810697
 40
14.76821565810697
 10
-7.551742233131677
 20
11.79588921894698
 30
0.0
 10
-8.764279138311139
 20
5.994535005831835
 30
0.0
 10
-9.9768160434906
 20
0.1931807927166886
 30
0.0
  0
SPLINE
  5
A2
330
1F
100
AcDbEntity
  8
2D DXF
370
    -3
100
AcDbSpline
210
0.0
220
0.0
230
1.0
 70
     8
 71
     3
 72
    34
 73
    30
 74
     0
 42
0.0000000001
 43
0.0000000001
 40
41.0
 40
41.0
 40
41.0
 40
41.0
 40
42.0
 40
43.0
 40
44.0
 40
45.0
 40
46.0
 40
47.0
 40
48.0
 40
49.0
 40
50.0
 40
51.0
 40
52.0
 40
53.0
 40
54.0
 40
55.0
 40
56.0
 40
57.0
 40
58.0
 40
59.0
 40
60.0
 40
61.0
 40
62.0
 40
63.0
 40
64.0
 40
65.0
 40
66.0
 40
67.0
 40
68.0
 40
68.0
 40
68.0
 40
68.0
 10
7.619790845401099
 20
18.5264428338871
 30
0.0
 10
7.663057378463748
 20
18.53275529713763
 30
0.0
 10
7.76324294048527
 20
18.54581514681871
 30
0.0
 10
7.894043550976846
 20
18.55635043299513
 30
0.0
 10
8.025286515184916
 20
18.55848128087798
 30
0.0
 10
8.156309995529455
 20
18.54825471085371
 30
0.0
 10
8.284578128796056
 20
18.51878605310299
 30
0.0
 10
8.403024816544871
 20
18.45735934294925
 30
0.0
 10
8.488681739584592
 20
18.35655055487568
 30
0.0
 10
8.535571066531872
 20
18.22708932840608
 30
0.0
 10
8.491822602192485
 20
18.09781245142037
 30
0.0
 10
8.39190182627516
 20
18.00902204821149
 30
0.0
 10
8.283256587644985
 20
17.93617193855356
 30
0.0
 10
8.16770455326457
 20
17.87358132500003
 30
0.0
 10
8.049263363057662
 20
17.81723768617053
 30
0.0
 10
7.92859771106049
 20
17.76570594889553
 30
0.0
 10
7.806388267570128
 20
17.71801635960372
 30
0.0
 10
7.682939847084185
 20
17.67362787407943
 30
0.0
 10
7.558492704054686
 20
17.63213498455305
 30
0.0
 10
7.433224825712955
 20
17.59319031208955
 30
0.0
 10
7.307186221928248
 20
17.5568212646609
 30
0.0
 10
7.180551058984179
 20
17.52260082971929
 30
0.0
 10
7.053924276550902
 20
17.48836087486829
 30
0.0
 10
6.927162237498862
 20
17.45462112540166
 30
0.0
 10
6.800303477422972
 20
17.42124830709606
 30
0.0
 10
6.673333521846587
 20
17.3883005203817
 30
0.0
 10
6.5462479259985
 20
17.35580161018183
 30
0.0
 10
6.419034974571673
 20
17.32380457886022
 30
0.0
 10
6.334130939456713
 20
17.30285593506119
 30
0.0
 10
6.291651355043655
 20
17.29249447379031
 30
0.0
  0
SPLINE
  5
A3
330
1F
100
AcDbEntity
  8
2D DXF
370
    -3
100
AcDbSpline
210
0.0
220
0.0
230
1.0
 70
     8
 71
     3
 72
    34
 73
    30
 74
     0
 42
0.0000000001
 43
0.0000000001
 40
0.0
 40
0.0
 40
0.0
 40
0.0
 40
1.0
 40
2.0
 40
3.0
 40
4.0
 40
5.0
 40
6.0
 40
7.0
 40
8.0
 40
9.0
 40
10.0
 40
11.0
 40
12.0
 40
13.0
 40
14.0
 40
15.0
 40
16.0
 40
17.0
 40
18.0
 40
19.0
 40
20.0
 40
21.0
 40
22.0
 40
23.0
 40
24.0
 40
25.0
 40
26.0
 40
27.0
 40
27.0
 40
27.0
 40
27.0
 10
-6.289626993351021
 20
17.29249447379031
 30
0.0
 10
-6.33210657776408
 20
17.30285593506119
 30
0.0
 10
-6.417010612879039
 20
17.32380457886022
 30
0.0
 10
-6.544223564305867
 20
17.35580161018183
 30
0.0
 10
-6.671309160153953
 20
17.3883005203817
 30
0.0
 10
-6.798279115730338
 20
17.42124830709606
 30
0.0
 10
-6.925137875806229
 20
17.45462112540166
 30
0.0
 10
-7.051899914858268
 20
17.48836087486829
 30
0.0
 10
-7.178526697291545
 20
17.52260082971929
 30
0.0
 10
-7.305161860235614
 20
17.5568212646609
 30
0.0
 10
-7.431200464020321
 20
17.59319031208955
 30
0.0
 10
-7.556468342362052
 20
17.63213498455305
 30
0.0
 10
-7.680915485391552
 20
17.67362787407943
 30
0.0
 10
-7.804363905877494
 20
17.71801635960372
 30
0.0
 10
-7.926573349367857
 20
17.76570594889553
 30
0.0
 10
-8.047239001365028
 20
17.81723768617053
 30
0.0
 10
-8.165680191571937
 20
17.87358132500003
 30
0.0
 10
-8.281232225952351
 20
17.93617193855356
 30
0.0
 10
-8.389877464582526
 20
18.00902204821149
 30
0.0
 10
-8.489798240499852
 20
18.09781245142037
 30
0.0
 10
-8.533546704839239
 20
18.22708932840608
 30
0.0
 10
-8.486657377891959
 20
18.35655055487568
 30
0.0
 10
-8.401000454852237
 20
18.45735934294925
 30
0.0
 10
-8.282553767103423
 20
18.51878605310299
 30
0.0
 10
-8.154285633836821
 20
18.54825471085371
 30
0.0
 10
-8.023262153492283
 20
18.55848128087798
 30
0.0
 10
-7.892019189284213
 20
18.55635043299513
 30
0.0
 10
-7.761218578792636
 20
18.54581514681871
 30
0.0
 10
-7.661033016771114
 20
18.53275529713763
 30
0.0
 10
-7.617766483708465
 20
18.5264428338871
 30
0.0
  0
SPLINE
  5
A4
330
1F
100
AcDbEntity
  8
2D DXF
370
    -3
100
AcDbSpline
210
0.0
220
0.0
230
1.0
 70
     8
 71
     3
 72
    29
 73
    25
 74
     0
 42
0.0000000001
 43
0.0000000001
 40
0.0
 40
0.0
 40
0.0
 40
0.0
 40
1.0
 40
2.0
 40
3.0
 40
4.0
 40
5.0
 40
6.0
 40
7.0
 40
8.0
 40
9.0
 40
10.0
 40
11.0
 40
12.0
 40
13.0
 40
14.0
 40
15.0
 40
16.0
 40
17.0
 40
18.0
 40
19.0
 40
20.0
 40
21.0
 40
22.0
 40
22.0
 40
22.0
 40
22.0
 10
0.0010121808463168
 20
16.77522949335989
 30
0.0
 10
-0.1322198201055471
 20
16.77522771017861
 30
0.0
 10
-0.3967067713543315
 20
16.77714568965744
 30
0.0
 10
-0.7933485225171353
 20
16.78607405556802
 30
0.0
 10
-1.189793129971747
 20
16.80149088914274
 30
0.0
 10
-1.585901292978917
 20
16.82399762513629
 30
0.0
 10
-1.981495987549351
 20
16.8542723524281
 30
0.0
 10
-2.376334915554139
 20
16.8932241445001
 30
0.0
 10
-2.77013759846551
 20
16.94158718435315
 30
0.0
 10
-3.162548475974006
 20
17.00020700827292
 30
0.0
 10
-3.553209266534452
 20
17.06955839797314
 30
0.0
 10
-3.941749475135452
 20
17.14995493923415
 30
0.0
 10
-4.327913017933554
 20
17.2410483773378
 30
0.0
 10
-4.71178754264929
 20
17.34131892302571
 30
0.0
 10
-5.093507470092504
 20
17.44948592776771
 30
0.0
 10
-5.473049329168646
 20
17.56505474370061
 30
0.0
 10
-5.85043099027547
 20
17.68748771275777
 30
0.0
 10
-6.225567764697587
 20
17.81665484858547
 30
0.0
 10
-6.601361859174233
 20
17.94364316158297
 30
0.0
 10
-6.979910237251204
 20
18.06328080810857
 30
0.0
 10
-7.360998259035853
 20
18.17056800449146
 30
0.0
 10
-7.75058250667098
 20
18.26208784623888
 30
0.0
 10
-8.133268659626879
 20
18.31016352538774
 30
0.0
 10
-8.426738531444755
 20
18.31415079671262
 30
0.0
 10
-8.497988562079456
 20
18.19238553864619
 30
0.0
  0
SPLINE
  5
A5
330
1F
100
AcDbEntity
  8
2D DXF
370
    -3
100
AcDbSpline
210
0.0
220
0.0
230
1.0
 70
     8
 71
     3
 72
    29
 73
    25
 74
     0
 42
0.0000000001
 43
0.0000000001
 40
-22.0
 40
-22.0
 40
-22.0
 40
-22.0
 40
-21.0
 40
-20.0
 40
-19.0
 40
-18.0
 40
-17.0
 40
-16.0
 40
-15.0
 40
-14.0
 40
-13.0
 40
-12.0
 40
-11.0
 40
-10.0
 40
-9.0
 40
-8.0
 40
-7.0
 40
-6.0
 40
-5.0
 40
-4.0
 40
-3.0
 40
-2.0
 40
-1.0
 40
0.0
 40
0.0
 40
0.0
 40
0.0
 10
8.50001292377209
 20
18.19238553864619
 30
0.0
 10
8.428762893137389
 20
18.31415079671262
 30
0.0
 10
8.135293021319512
 20
18.31016352538774
 30
0.0
 10
7.752606868363614
 20
18.26208784623888
 30
0.0
 10
7.363022620728486
 20
18.17056800449146
 30
0.0
 10
6.981934598943837
 20
18.06328080810857
 30
0.0
 10
6.603386220866867
 20
17.94364316158297
 30
0.0
 10
6.227592126390221
 20
17.81665484858547
 30
0.0
 10
5.852455351968104
 20
17.68748771275777
 30
0.0
 10
5.475073690861279
 20
17.56505474370061
 30
0.0
 10
5.095531831785138
 20
17.44948592776771
 30
0.0
 10
4.713811904341924
 20
17.34131892302571
 30
0.0
 10
4.329937379626188
 20
17.2410483773378
 30
0.0
 10
3.943773836828086
 20
17.14995493923415
 30
0.0
 10
3.555233628227086
 20
17.06955839797314
 30
0.0
 10
3.16457283766664
 20
17.00020700827292
 30
0.0
 10
2.772161960158144
 20
16.94158718435315
 30
0.0
 10
2.378359277246773
 20
16.8932241445001
 30
0.0
 10
1.983520349241985
 20
16.8542723524281
 30
0.0
 10
1.587925654671551
 20
16.82399762513629
 30
0.0
 10
1.191817491664381
 20
16.80149088914274
 30
0.0
 10
0.7953728842097689
 20
16.78607405556802
 30
0.0
 10
0.3987311330469652
 20
16.77714568965744
 30
0.0
 10
0.1342441817981808
 20
16.77522771017861
 30
0.0
 10
0.0010121808463168
 20
16.77522949335989
 30
0.0
  0
LINE
  5
A6
330
1F
100
AcDbEntity
  8
2D DXF
370
    -3
100
AcDbLine
 10
5.846603085984952
 20
17.42421084562275
 30
0.0
 11
5.213312591829322
 21
17.4903322428131
 31
0.0
  0
SPLINE
  5
A7
330
1F
100
AcDbEntity
  8
2D DXF
370
    -3
100
AcDbSpline
210
0.0
220
0.0
230
1.0
 70
     8
 71
     3
 72
    13
 73
     9
 74
     0
 42
0.0000000001
 43
0.0000000001
 40
66.42155015705318
 40
66.42155015705318
 40
66.42155015705318
 40
66.42155015705318
 40
66.8944163837624
 40
67.36728261047163
 40
68.31301506389008
 40
69.25874751730854
 40
69.73161374401775
 40
69.87520050921145
 40
69.87520050921145
 40
69.87520050921145
 40
69.87520050921145
 10
7.34438824571123
 20
15.33611396537023
 30
0.0
 10
7.333257462443271
 20
15.52427295539
 30
0.0
 10
7.283935735162231
 20
15.85668294639964
 30
0.0
 10
7.115606183136265
 20
16.40842982321541
 30
0.0
 10
6.803931211597387
 20
16.93380337989367
 30
0.0
 10
6.380843646693108
 20
17.27839815358178
 30
0.0
 10
6.03437433250042
 20
17.39749352029156
 30
0.0
 10
5.882844512169527
 20
17.42045921072543
 30
0.0
 10
5.846603085984952
 20
17.42421084562275
 30
0.0
  0
LINE
  5
A8
330
1F
100
AcDbEntity
  8
2D DXF
370
    -3
100
AcDbLine
 10
8.240112889646525
 20
0.194444212347662
 30
0.0
 11
7.34438824571123
 21
15.33611396537023
 31
0.0
  0
LINE
  5
A9
330
1F
100
AcDbEntity
  8
2D DXF
370
    -3
100
AcDbLine
 10
6.926414155119403
 20
0.1929128048581106
 30
0.0
 11
8.240112889646525
 21
0.194444212347662
 31
0.0
  0
LINE
  5
AA
330
1F
100
AcDbEntity
  8
2D DXF
370
    -3
100
AcDbLine
 10
5.563716795700884
 20
15.30264465523423
 30
0.0
 11
6.926414155119403
 21
0.1929128048581106
 31
0.0
  0
SPLINE
  5
AB
330
1F
100
AcDbEntity
  8
2D DXF
370
    -3
100
AcDbSpline
210
0.0
220
0.0
230
1.0
 70
     8
 71
     3
 72
    10
 73
     6
 74
     0
 42
0.0000000001
 43
0.0000000001
 40
30.70802395838704
 40
30.70802395838704
 40
30.70802395838704
 40
30.70802395838704
 40
31.70802395838704
 40
32.70802395838705
 40
33.70802395838705
 40
33.70802395838705
 40
33.70802395838705
 40
33.70802395838705
 10
4.359752506221071
 20
16.45760799347075
 30
0.0
 10
4.564370612337598
 20
16.47899640965983
 30
0.0
 10
4.964750888785773
 20
16.340344318109
 30
0.0
 10
5.403764429084447
 20
15.89784516462754
 30
0.0
 10
5.545421559436193
 20
15.50550416192355
 30
0.0
 10
5.563716795700884
 20
15.30264465523423
 30
0.0
  0
LINE
  5
AC
330
1F
100
AcDbEntity
  8
2D DXF
370
    -3
100
AcDbLine
 10
0.0010121808463168
 20
16.00184789390809
 30
0.0
 11
4.359752506221071
 21
16.45760799347075
 31
0.0
  0
LINE
  5
AD
330
1F
100
AcDbEntity
  8
2D DXF
370
    -3
100
AcDbLine
 10
-4.357728144528437
 20
16.45760799347075
 30
0.0
 11
0.0010121808463168
 21
16.00184789390809
 31
0.0
  0
SPLINE
  5
AE
330
1F
100
AcDbEntity
  8
2D DXF
370
    -3
100
AcDbSpline
210
0.0
220
0.0
230
1.0
 70
     8
 71
     3
 72
    10
 73
     6
 74
     0
 42
0.0000000001
 43
0.0000000001
 40
15.37564875948766
 40
15.37564875948766
 40
15.37564875948766
 40
15.37564875948766
 40
16.37564875948766
 40
17.37564875948766
 40
18.37564875948766
 40
18.37564875948766
 40
18.37564875948766
 40
18.37564875948766
 10
-5.561692434008251
 20
15.30264465523423
 30
0.0
 10
-5.543397197743559
 20
15.50550416192355
 30
0.0
 10
-5.401740067391813
 20
15.89784516462754
 30
0.0
 10
-4.962726527093139
 20
16.340344318109
 30
0.0
 10
-4.562346250644964
 20
16.47899640965983
 30
0.0
 10
-4.357728144528437
 20
16.45760799347075
 30
0.0
  0
LINE
  5
AF
330
1F
100
AcDbEntity
  8
2D DXF
370
    -3
100
AcDbLine
 10
-6.924389793426769
 20
0.1929128048581106
 30
0.0
 11
-5.561692434008251
 21
15.30264465523423
 31
0.0
  0
LINE
  5
B0
330
1F
100
AcDbEntity
  8
2D DXF
370
    -3
100
AcDbLine
 10
-8.238088527953892
 20
0.194444212347662
 30
0.0
 11
-6.924389793426769
 21
0.1929128048581106
 31
0.0
  0
LINE
  5
B1
330
1F
100
AcDbEntity
  8
2D DXF
370
    -3
100
AcDbLine
 10
-7.342363884018596
 20
15.33611396537023
 30
0.0
 11
-8.238088527953892
 21
0.194444212347662
 31
0.0
  0
SPLINE
  5
B2
330
1F
100
AcDbEntity
  8
2D DXF
370
    -3
100
AcDbSpline
210
0.0
220
0.0
230
1.0
 70
     8
 71
     3
 72
    13
 73
     9
 74
     0
 42
0.0000000001
 43
0.0000000001
 40
-20.79152779133674
 40
-20.79152779133674
 40
-20.79152779133674
 40
-20.79152779133674
 40
-20.64794102614304
 40
-20.17507479943382
 40
-19.22934234601536
 40
-18.28360989259691
 40
-17.81074366588769
 40
-17.33787743917846
 40
-17.33787743917846
 40
-17.33787743917846
 40
-17.33787743917846
 10
-5.844578724292319
 20
17.42421084562275
 30
0.0
 10
-5.880820150476893
 20
17.42045921072543
 30
0.0
 10
-6.032349970807786
 20
17.39749352029156
 30
0.0
 10
-6.378819285000475
 20
17.27839815358178
 30
0.0
 10
-6.801906849904753
 20
16.93380337989367
 30
0.0
 10
-7.113581821443631
 20
16.40842982321541
 30
0.0
 10
-7.281911373469597
 20
15.85668294639964
 30
0.0
 10
-7.331233100750637
 20
15.52427295539
 30
0.0
 10
-7.342363884018596
 20
15.33611396537023
 30
0.0
  0
LINE
  5
B3
330
1F
100
AcDbEntity
  8
2D DXF
370
    -3
100
AcDbLine
 10
-5.211288230136688
 20
17.4903322428131
 30
0.0
 11
-5.844578724292319
 21
17.42421084562275
 31
0.0
  0
SPLINE
  5
B4
330
1F
100
AcDbEntity
  8
2D DXF
370
    -3
100
AcDbSpline
210
0.0
220
0.0
230
1.0
 70
    24
 71
     2
 72
     6
 73
     3
 74
     0
 42
0.0000000001
 43
0.0000000001
 40
3.782862635165047
 40
3.782862635165047
 40
3.782862635165047
 40
19.31666617334927
 40
19.31666617334927
 40
19.31666617334927
 10
6.18051658482932
 20
15.45806702466072
 30
0.0
 10
6.868851976191706
 20
7.825731704773141
 30
0.0
 10
7.557187367554093
 20
0.1933963848855598
 30
0.0
  0
SPLINE
  5
B5
330
1F
100
AcDbEntity
  8
2D DXF
370
    -3
100
AcDbSpline
210
0.0
220
0.0
230
1.0
 70
     8
 71
     3
 72
    12
 73
     8
 74
     0
 42
0.0000000001
 43
0.0000000001
 40
0.9413904695100092
 40
0.9413904695100092
 40
0.9413904695100092
 40
0.9413904695100092
 40
0.9457156587912617
 40
1.891431317582523
 40
2.837146976373785
 40
3.310004805769416
 40
3.782862635165047
 40
3.782862635165047
 40
3.782862635165047
 40
3.782862635165047
 10
5.037844609201329
 20
17.43350831770144
 30
0.0
 10
5.038759505899861
 20
17.43307850253687
 30
0.0
 10
5.239600784176901
 20
17.33846580582914
 30
0.0
 10
5.588551568775074
 20
17.06114866550949
 30
0.0
 10
5.917600521051327
 20
16.53396098461104
 30
0.0
 10
6.103658626219499
 20
15.98035827905687
 30
0.0
 10
6.163491254184123
 20
15.64684568408616
 30
0.0
 10
6.18051658482932
 20
15.45806702466072
 30
0.0
  0
LINE
  5
B6
330
1F
100
AcDbEntity
  8
2D DXF
370
    -3
100
AcDbLine
 10
8.102583672695573
 20
0.1339229583659289
 30
0.0
 11
8.102583672695573
 21
0.1943368067662732
 31
0.0
  0
LINE
  5
B7
330
1F
100
AcDbEntity
  8
2D DXF
370
    -3
100
AcDbLine
 10
7.069775236490955
 20
0.1334964109027368
 30
0.0
 11
8.102583672695573
 21
0.1339229583659289
 31
0.0
  0
LINE
  5
B8
330
1F
100
AcDbEntity
  8
2D DXF
370
    -3
100
AcDbLine
 10
7.069775236490955
 20
0.1934964109027391
 30
0.0
 11
7.069775236490955
 21
0.1334964109027368
 31
0.0
  0
SPLINE
  5
B9
330
1F
100
AcDbEntity
  8
2D DXF
370
    -3
100
AcDbSpline
210
0.0
220
0.0
230
1.0
 70
     8
 71
     3
 72
     8
 73
     4
 74
     0
 42
0.0000000001
 43
0.0000000001
 40
3.0
 40
3.0
 40
3.0
 40
3.0
 40
3.749373648723633
 40
3.749373648723633
 40
3.749373648723633
 40
3.749373648723633
 10
-7.574015970229652
 20
14.73166854000927
 30
0.0
 10
-7.514221038437881
 20
15.01775598032944
 30
0.0
 10
-7.430563200589859
 20
15.25582828713272
 30
0.0
 10
-7.331965102593244
 20
15.46383893321004
 30
0.0
  0
LINE
  5
BA
330
1F
100
AcDbEntity
  8
2D DXF
370
    -3
100
AcDbLine
 10
-10.61279418228401
 20
0.192705884178082
 30
0.0
 11
-7.574015970229652
 21
14.73166854000927
 31
0.0
  0
LINE
  5
BB
330
1F
100
AcDbEntity
  8
2D DXF
370
    -3
100
AcDbLine
 10
-9.21104236373344
 20
0.1943148677779476
 30
0.0
 11
-10.61279418228401
 21
0.192705884178082
 31
0.0
  0
LINE
  5
BC
330
1F
100
AcDbEntity
  8
2D DXF
370
    -3
100
AcDbLine
 10
-7.919876417109208
 20
5.573622653451395
 30
0.0
 11
-9.21104236373344
 21
0.1943148677779476
 31
0.0
  0
LINE
  5
BD
330
1F
100
AcDbEntity
  8
2D DXF
370
    -3
100
AcDbLine
 10
-8.097733830473658
 20
0.1339229583659289
 30
0.0
 11
-8.097733830473658
 21
0.1943368067662732
 31
0.0
  0
LINE
  5
BE
330
1F
100
AcDbEntity
  8
2D DXF
370
    -3
100
AcDbLine
 10
-7.064925394269039
 20
0.1334964109027368
 30
0.0
 11
-8.097733830473658
 21
0.1339229583659289
 31
0.0
  0
LINE
  5
BF
330
1F
100
AcDbEntity
  8
2D DXF
370
    -3
100
AcDbLine
 10
-7.064925394269039
 20
0.1934964109027391
 30
0.0
 11
-7.064925394269039
 21
0.1334964109027368
 31
0.0
  0
LINE
  5
C0
330
1F
100
AcDbEntity
  8
2D DXF
370
    -3
100
AcDbLine
 10
-10.41123776215323
 20
0.1339229583659289
 30
0.0
 11
-10.41123776215323
 21
0.1943368067662732
 31
0.0
  0
LINE
  5
C1
330
1F
100
AcDbEntity
  8
2D DXF
370
    -3
100
AcDbLine
 10
-9.378429325948616
 20
0.1334964109027368
 30
0.0
 11
-10.41123776215323
 21
0.1339229583659289
 31
0.0
  0
LINE
  5
C2
330
1F
100
AcDbEntity
  8
2D DXF
370
    -3
100
AcDbLine
 10
-9.378429325948616
 20
0.1934964109027391
 30
0.0
 11
-9.378429325948616
 21
0.1334964109027368
 31
0.0
  0
SPLINE
  5
C3
330
1F
100
AcDbEntity
  8
2D DXF
370
    -3
100
AcDbSpline
210
0.0
220
0.0
230
1.0
 70
    24
 71
     2
 72
     6
 73
     3
 74
     0
 42
0.0000000001
 43
0.0000000001
 40
2.812858276155322
 40
2.812858276155322
 40
2.812858276155322
 40
14.76821565810697
 40
14.76821565810697
 40
14.76821565810697
 10
7.55376659482431
 20
11.79588921894698
 30
0.0
 10
8.766303500003772
 20
5.994535005831835
 30
0.0
 10
9.978840405183234
 20
0.1931807927166886
 30
0.0
  0
SPLINE
  5
C4
330
1F
100
AcDbEntity
  8
2D DXF
370
    -3
100
AcDbSpline
210
0.0
220
0.0
230
1.0
 70
     8
 71
     3
 72
     8
 73
     4
 74
     0
 42
0.0000000001
 43
0.0000000001
 40
3.0
 40
3.0
 40
3.0
 40
3.0
 40
3.749373648723633
 40
3.749373648723633
 40
3.749373648723633
 40
3.749373648723633
 10
7.576040331922286
 20
14.73166854000927
 30
0.0
 10
7.516245400130515
 20
15.01775598032944
 30
0.0
 10
7.432587562282492
 20
15.25582828713272
 30
0.0
 10
7.333989464285878
 20
15.46383893321004
 30
0.0
  0
LINE
  5
C5
330
1F
100
AcDbEntity
  8
2D DXF
370
    -3
100
AcDbLine
 10
10.61481854397664
 20
0.192705884178082
 30
0.0
 11
7.576040331922286
 21
14.73166854000927
 31
0.0
  0
LINE
  5
C6
330
1F
100
AcDbEntity
  8
2D DXF
370
    -3
100
AcDbLine
 10
9.213066725426074
 20
0.1943148677779476
 30
0.0
 11
10.61481854397664
 21
0.192705884178082
 31
0.0
  0
LINE
  5
C7
330
1F
100
AcDbEntity
  8
2D DXF
370
    -3
100
AcDbLine
 10
7.921900778801842
 20
5.573622653451395
 30
0.0
 11
9.213066725426074
 21
0.1943148677779476
 31
0.0
  0
LINE
  5
C8
330
1F
100
AcDbEntity
  8
2D DXF
370
    -3
100
AcDbLine
 10
10.41326212384587
 20
0.1339229583659289
 30
0.0
 11
10.41326212384587
 21
0.1943368067662732
 31
0.0
  0
LINE
  5
C9
330
1F
100
AcDbEntity
  8
2D DXF
370
    -3
100
AcDbLine
 10
9.38045368764125
 20
0.1334964109027368
 30
0.0
 11
10.41326212384587
 21
0.1339229583659289
 31
0.0
  0
LINE
  5
CA
330
1F
100
AcDbEntity
  8
2D DXF
370
    -3
100
AcDbLine
 10
9.38045368764125
 20
0.1934964109027391
 30
0.0
 11
9.38045368764125
 21
0.1334964109027368
 31
0.0
  0
SPLINE
  5
CB
330
1F
100
AcDbEntity
  8
2D DXF
370
    -3
100
AcDbSpline
210
0.0
220
0.0
230
1.0
 70
    24
 71
     2
 72
     6
 73
     3
 74
     0
 42
0.0000000001
 43
0.0000000001
 40
2.461887647270252
 40
2.461887647270252
 40
2.461887647270252
 40
3.542517947822134
 40
3.542517947822134
 40
3.542517947822134
 10
-4.742910356036759
 20
15.53172553703185
 30
0.0
 10
-5.123449724305146
 20
15.55251234722147
 30
0.0
 10
-5.503989092573534
 20
15.5732991574111
 30
0.0
  0
SPLINE
  5
CC
330
1F
100
AcDbEntity
  8
2D DXF
370
    -3
100
AcDbSpline
210
0.0
220
0.0
230
1.0
 70
     8
 71
     3
 72
     8
 73
     4
 74
     0
 42
0.0000000001
 43
0.0000000001
 40
2.0
 40
2.0
 40
2.0
 40
2.0
 40
2.461887647270252
 40
2.461887647270252
 40
2.461887647270252
 40
2.461887647270252
 10
-4.416784337950503
 20
15.53991474120147
 30
0.0
 10
-4.525709849356531
 20
15.5285289248886
 30
0.0
 10
-4.634418521447628
 20
15.52579921414018
 30
0.0
 10
-4.742910356036759
 20
15.53172553703185
 30
0.0
  0
LINE
  5
CD
330
1F
100
AcDbEntity
  8
2D DXF
370
    -3
100
AcDbLine
 10
-1.201067845427531
 20
15.87604864446809
 30
0.0
 11
-4.416784337950503
 21
15.53991474120147
 31
0.0
  0
LINE
  5
CE
330
1F
100
AcDbEntity
  8
2D DXF
370
    -3
100
AcDbLine
 10
-4.980176510194383
 20
16.2710730657173
 30
0.0
 11
-1.201067845427531
 21
15.87604864446809
 31
0.0
  0
SPLINE
  5
CF
330
1F
100
AcDbEntity
  8
2D DXF
370
    -3
100
AcDbSpline
210
0.0
220
0.0
230
1.0
 70
    24
 71
     2
 72
     6
 73
     3
 74
     0
 42
0.0000000001
 43
0.0000000001
 40
2.461887647270252
 40
2.461887647270252
 40
2.461887647270252
 40
3.542517947822134
 40
3.542517947822134
 40
3.542517947822134
 10
4.744934717729393
 20
15.53172553703185
 30
0.0
 10
5.12547408599778
 20
15.55251234722147
 30
0.0
 10
5.506013454266167
 20
15.5732991574111
 30
0.0
  0
SPLINE
  5
D0
330
1F
100
AcDbEntity
  8
2D DXF
370
    -3
100
AcDbSpline
210
0.0
220
0.0
230
1.0
 70
     8
 71
     3
 72
     8
 73
     4
 74
     0
 42
0.0000000001
 43
0.0000000001
 40
2.0
 40
2.0
 40
2.0
 40
2.0
 40
2.461887647270252
 40
2.461887647270252
 40
2.461887647270252
 40
2.461887647270252
 10
4.418808699643137
 20
15.53991474120147
 30
0.0
 10
4.527734211049165
 20
15.5285289248886
 30
0.0
 10
4.636442883140262
 20
15.52579921414018
 30
0.0
 10
4.744934717729393
 20
15.53172553703185
 30
0.0
  0
LINE
  5
D1
330
1F
100
AcDbEntity
  8
2D DXF
370
    -3
100
AcDbLine
 10
1.203092207120164
 20
15.87604864446809
 30
0.0
 11
4.418808699643137
 21
15.53991474120147
 31
0.0
  0
LINE
  5
D2
330
1F
100
AcDbEntity
  8
2D DXF
370
    -3
100
AcDbLine
 10
4.982200871887017
 20
16.2710730657173
 30
0.0
 11
1.203092207120164
 21
15.87604864446809
 31
0.0
  0
SPLINE
  5
D3
330
1F
100
AcDbEntity
  8
2D DXF
370
    -3
100
AcDbSpline
210
0.0
220
0.0
230
1.0
 70
     8
 71
     3
 72
    10
 73
     6
 74
     0
 42
0.0000000001
 43
0.0000000001
 40
5.042438224052052
 40
5.042438224052052
 40
5.042438224052052
 40
5.042438224052052
 40
6.042438224052052
 40
7.042438224052052
 40
8.042438224052052
 40
8.042438224052052
 40
8.042438224052052
 40
8.042438224052052
 10
-4.535784861332786
 20
15.46006628079397
 30
0.0
 10
-4.67873088254828
 20
15.46712561989605
 30
0.0
 10
-4.961327602639244
 20
15.40053149737454
 30
0.0
 10
-5.328013831649514
 20
15.17322522954709
 30
0.0
 10
-5.522768192151943
 20
14.9617575984845
 30
0.0
 10
-5.602975246561243
 20
14.84400820414358
 30
0.0
  0
SPLINE
  5
D4
330
1F
100
AcDbEntity
  8
2D DXF
370
    -3
100
AcDbSpline
210
0.0
220
0.0
230
1.0
 70
    24
 71
     2
 72
     6
 73
     3
 74
     0
 42
0.0000000001
 43
0.0000000001
 40
3.61958681010669
 40
3.61958681010669
 40
3.61958681010669
 40
5.042438224052052
 40
5.042438224052052
 40
5.042438224052052
 10
-3.538616444582658
 20
15.40584254514494
 30
0.0
 10
-4.037200652957722
 20
15.43295441296945
 30
0.0
 10
-4.535784861332786
 20
15.46006628079397
 30
0.0
  0
SPLINE
  5
D5
330
1F
100
AcDbEntity
  8
2D DXF
370
    -3
100
AcDbSpline
210
0.0
220
0.0
230
1.0
 70
     8
 71
     3
 72
     8
 73
     4
 74
     0
 42
0.0000000001
 43
0.0000000001
 40
3.157699070187173
 40
3.157699070187173
 40
3.157699070187173
 40
3.157699070187173
 40
3.61958681010669
 40
3.61958681010669
 40
3.61958681010669
 40
3.61958681010669
 10
-3.213291571412071
 20
15.41411549176146
 30
0.0
 10
-3.322217109010921
 20
15.40272967270586
 30
0.0
 10
-3.430658731828316
 20
15.39997205188277
 30
0.0
 10
-3.538616444582658
 20
15.40584254514494
 30
0.0
  0
LINE
  5
D6
330
1F
100
AcDbEntity
  8
2D DXF
370
    -3
100
AcDbLine
 10
0.0010121808463168
 20
15.75024939502931
 30
0.0
 11
-3.213291571412071
 21
15.41411549176146
 31
0.0
  0
LINE
  5
D7
330
1F
100
AcDbEntity
  8
2D DXF
370
    -3
100
AcDbLine
 10
3.215315933104705
 20
15.41411549176146
 30
0.0
 11
0.0010121808463168
 21
15.75024939502931
 31
0.0
  0
SPLINE
  5
D8
330
1F
100
AcDbEntity
  8
2D DXF
370
    -3
100
AcDbSpline
210
0.0
220
0.0
230
1.0
 70
     8
 71
     3
 72
     8
 73
     4
 74
     0
 42
0.0000000001
 43
0.0000000001
 40
-6.399608422677967
 40
-6.399608422677967
 40
-6.399608422677967
 40
-6.399608422677967
 40
-5.93772068275845
 40
-5.93772068275845
 40
-5.93772068275845
 40
-5.93772068275845
 10
3.540640806275292
 20
15.40584254514494
 30
0.0
 10
3.43268309352095
 20
15.39997205188277
 30
0.0
 10
3.324241470703555
 20
15.40272967270586
 30
0.0
 10
3.215315933104705
 20
15.41411549176146
 30
0.0
  0
SPLINE
  5
D9
330
1F
100
AcDbEntity
  8
2D DXF
370
    -3
100
AcDbSpline
210
0.0
220
0.0
230
1.0
 70
    24
 71
     2
 72
     6
 73
     3
 74
     0
 42
0.0000000001
 43
0.0000000001
 40
-7.822459836623329
 40
-7.822459836623329
 40
-7.822459836623329
 40
-6.399608422677967
 40
-6.399608422677967
 40
-6.399608422677967
 10
4.53780922302542
 20
15.46006628079397
 30
0.0
 10
4.039225014650356
 20
15.43295441296945
 30
0.0
 10
3.540640806275292
 20
15.40584254514494
 30
0.0
  0
SPLINE
  5
DA
330
1F
100
AcDbEntity
  8
2D DXF
370
    -3
100
AcDbSpline
210
0.0
220
0.0
230
1.0
 70
     8
 71
     3
 72
    10
 73
     6
 74
     0
 42
0.0000000001
 43
0.0000000001
 40
-10.82245983662333
 40
-10.82245983662333
 40
-10.82245983662333
 40
-10.82245983662333
 40
-9.822459836623329
 40
-8.822459836623329
 40
-7.822459836623329
 40
-7.822459836623329
 40
-7.822459836623329
 40
-7.822459836623329
 10
5.604999608253877
 20
14.84400820414358
 30
0.0
 10
5.524792553844577
 20
14.9617575984845
 30
0.0
 10
5.330038193342148
 20
15.17322522954709
 30
0.0
 10
4.963351964331878
 20
15.40053149737454
 30
0.0
 10
4.680755244240913
 20
15.46712561989605
 30
0.0
 10
4.53780922302542
 20
15.46006628079397
 30
0.0
  0
SPLINE
  5
DB
330
1F
100
AcDbEntity
  8
2D DXF
370
    -3
100
AcDbSpline
210
0.0
220
0.0
230
1.0
 70
    11
 71
     3
 72
    65
 73
    61
 74
     0
 42
0.0000000001
 43
0.0000000001
 40
0.0
 40
0.0
 40
0.0
 40
0.0
 40
1.0
 40
2.0
 40
3.0
 40
4.0
 40
5.0
 40
6.0
 40
7.0
 40
8.0
 40
9.0
 40
10.0
 40
11.0
 40
12.0
 40
13.0
 40
13.0
 40
13.0
 40
14.0
 40
15.0
 40
16.0
 40
17.0
 40
18.0
 40
19.0
 40
20.0
 40
21.0
 40
22.0
 40
23.0
 40
24.0
 40
25.0
 40
26.0
 40
26.0
 40
26.0
 40
27.0
 40
28.0
 40
29.0
 40
30.0
 40
31.0
 40
32.0
 40
33.0
 40
34.0
 40
35.0
 40
36.0
 40
37.0
 40
38.0
 40
39.0
 40
39.0
 40
39.0
 40
40.0
 40
41.0
 40
42.0
 40
43.0
 40
44.0
 40
45.0
 40
46.0
 40
47.0
 40
48.0
 40
49.0
 40
50.0
 40
51.0
 40
52.0
 40
52.0
 40
52.0
 40
52.0
 10
0.0004557734528703
 20
19.22102993090616
 30
0.0
 10
-0.2844444969047686
 20
19.22102993090616
 30
0.0
 10
-0.9590971777238906
 20
19.24674788055341
 30
0.0
 10
-1.808978371086141
 20
19.34304952137887
 30
0.0
 10
-2.648438983705546
 20
19.50793747449535
 30
0.0
 10
-3.469785000672516
 20
19.74762781632241
 30
0.0
 10
-4.265008756610257
 20
20.06378076628258
 30
0.0
 10
-5.022435486083623
 20
20.46273519685084
 30
0.0
 10
-5.726973499729979
 20
20.94964607896932
 30
0.0
 10
-6.36065592955498
 20
21.52631471869128
 30
0.0
 10
-6.903841106419236
 20
22.18946524773364
 30
0.0
 10
-7.337094427445152
 20
22.92930519132778
 30
0.0
 10
-7.649189284258341
 20
23.72783360166598
 30
0.0
 10
-7.833518060079314
 20
24.56496878605498
 30
0.0
 10
-7.872785866399681
 20
25.13918596758299
 30
0.0
 10
-7.87390337585191
 20
25.42406218963984
 30
0.0
 10
-7.87495283375597
 20
25.69159066764554
 30
0.0
 10
-7.843664881641416
 20
26.2304361911697
 30
0.0
 10
-7.702024086368624
 20
27.02304710868273
 30
0.0
 10
-7.438523144741339
 20
27.78038227087383
 30
0.0
 10
-7.023248913497412
 20
28.48739945181184
 30
0.0
 10
-6.341798434277052
 20
28.93129599663493
 30
0.0
 10
-5.581575318454156
 20
29.19659783034678
 30
0.0
 10
-4.79930213465957
 20
29.37678285154433
 30
0.0
 10
-4.005453065384927
 20
29.49652386620784
 30
0.0
 10
-3.207126082475668
 20
29.57780902269363
 30
0.0
 10
-2.406372057307124
 20
29.62992619210425
 30
0.0
 10
-1.604541505880093
 20
29.6597741035705
 30
0.0
 10
-0.8023014737235599
 20
29.67370500438696
 30
0.0
 10
-0.267407544938294
 20
29.67564160727872
 30
0.0
 10
0.0004557734528703
 20
29.67563878255994
 30
0.0
 10
0.2683190918440346
 20
29.67564160727872
 30
0.0
 10
0.8032130206293004
 20
29.67370500438696
 30
0.0
 10
1.605453052785833
 20
29.6597741035705
 30
0.0
 10
2.407283604212864
 20
29.62992619210425
 30
0.0
 10
3.208037629381408
 20
29.57780902269363
 30
0.0
 10
4.006364612290668
 20
29.49652386620784
 30
0.0
 10
4.80021368156531
 20
29.37678285154433
 30
0.0
 10
5.582486865359897
 20
29.19659783034678
 30
0.0
 10
6.342709981182793
 20
28.93129599663493
 30
0.0
 10
7.024160460403152
 20
28.48739945181184
 30
0.0
 10
7.439434691647079
 20
27.78038227087383
 30
0.0
 10
7.702935633274365
 20
27.02304710868273
 30
0.0
 10
7.844576428547157
 20
26.2304361911697
 30
0.0
 10
7.875864380661653
 20
25.69159066764554
 30
0.0
 10
7.87481492275765
 20
25.42406218963984
 30
0.0
 10
7.873697413305479
 20
25.13918596758299
 30
0.0
 10
7.834429606985054
 20
24.56496878605498
 30
0.0
 10
7.650100831164082
 20
23.72783360166598
 30
0.0
 10
7.338005974350892
 20
22.92930519132778
 30
0.0
 10
6.904752653324977
 20
22.18946524773364
 30
0.0
 10
6.361567476460721
 20
21.52631471869128
 30
0.0
 10
5.72788504663572
 20
20.94964607896932
 30
0.0
 10
5.023347032989363
 20
20.46273519685084
 30
0.0
 10
4.265920303515998
 20
20.06378076628258
 30
0.0
 10
3.470696547578257
 20
19.74762781632241
 30
0.0
 10
2.649350530611287
 20
19.50793747449535
 30
0.0
 10
1.809889917991882
 20
19.34304952137887
 30
0.0
 10
0.9600087246296312
 20
19.24674788055341
 30
0.0
 10
0.2853560438105092
 20
19.22102993090616
 30
0.0
 10
0.0004557734528703
 20
19.22102993090616
 30
0.0
  0
SPLINE
  5
DC
330
1F
100
AcDbEntity
  8
2D DXF
370
    -3
100
AcDbSpline
210
0.0
220
0.0
230
1.0
 70
     8
 71
     3
 72
    43
 73
    39
 74
     0
 42
0.0000000001
 43
0.0000000001
 40
0.0
 40
0.0
 40
0.0
 40
0.0
 40
1.0
 40
2.0
 40
3.0
 40
4.0
 40
5.0
 40
6.0
 40
7.0
 40
8.0
 40
9.0
 40
10.0
 40
11.0
 40
12.0
 40
13.0
 40
14.0
 40
15.0
 40
16.0
 40
17.0
 40
17.0
 40
17.0
 40
18.0
 40
19.0
 40
20.0
 40
21.0
 40
22.0
 40
23.0
 40
24.0
 40
25.0
 40
26.0
 40
27.0
 40
28.0
 40
29.0
 40
30.0
 40
31.0
 40
32.0
 40
33.0
 40
34.0
 40
34.0
 40
34.0
 40
34.0
 10
-5.387880756215509
 20
56.47444314824715
 30
0.0
 10
-5.670891607026419
 20
56.14143812886743
 30
0.0
 10
-6.204857637639464
 20
55.4485843645534
 30
0.0
 10
-6.914094279933352
 20
54.34432891983332
 30
0.0
 10
-7.502771560742133
 20
53.17084729136614
 30
0.0
 10
-7.966959572405813
 20
51.94300588856832
 30
0.0
 10
-8.299799468958838
 20
50.67306899907977
 30
0.0
 10
-8.492055537602653
 20
49.37420973888957
 30
0.0
 10
-8.535294079954724
 20
48.06191458643776
 30
0.0
 10
-8.431040043289386
 20
46.75293308122816
 30
0.0
 10
-8.165280222709043
 20
45.46609925609206
 30
0.0
 10
-7.717109992234896
 20
44.23036903943736
 30
0.0
 10
-7.059896364604356
 20
43.08718551716968
 30
0.0
 10
-6.153950868091783
 20
42.12798981358531
 30
0.0
 10
-5.064487567805372
 20
41.38746920079242
 30
0.0
 10
-3.869013090777855
 20
40.84058426116993
 30
0.0
 10
-2.607420099234332
 20
40.47323443291693
 30
0.0
 10
-1.311015591080718
 20
40.26470357714376
 30
0.0
 10
-0.4369667501534877
 20
40.22032281473006
 30
0.0
 10
0.0
 20
40.22032281473006
 30
0.0
 10
0.4369667501534877
 20
40.22032281473006
 30
0.0
 10
1.311015591080718
 20
40.26470357714376
 30
0.0
 10
2.607420099234332
 20
40.47323443291693
 30
0.0
 10
3.869013090777855
 20
40.84058426116993
 30
0.0
 10
5.064487567805372
 20
41.38746920079242
 30
0.0
 10
6.153950868091783
 20
42.12798981358531
 30
0.0
 10
7.059896364604356
 20
43.08718551716968
 30
0.0
 10
7.717109992234896
 20
44.23036903943736
 30
0.0
 10
8.165280222709043
 20
45.46609925609206
 30
0.0
 10
8.431040043289386
 20
46.75293308122816
 30
0.0
 10
8.535294079954724
 20
48.06191458643776
 30
0.0
 10
8.492055537602653
 20
49.37420973888957
 30
0.0
 10
8.299799468958838
 20
50.67306899907977
 30
0.0
 10
7.966959572405813
 20
51.94300588856832
 30
0.0
 10
7.502771560742133
 20
53.17084729136614
 30
0.0
 10
6.914094279933352
 20
54.34432891983332
 30
0.0
 10
6.204857637639464
 20
55.4485843645534
 30
0.0
 10
5.670891607026419
 20
56.14143812886743
 30
0.0
 10
5.387880756215509
 20
56.47444314824715
 30
0.0
  0
SPLINE
  5
DD
330
1F
100
AcDbEntity
  8
2D DXF
370
    -3
100
AcDbSpline
210
0.0
220
0.0
230
1.0
 70
    11
 71
     3
 72
   123
 73
   119
 74
     0
 42
0.0000000001
 43
0.0000000001
 40
0.0
 40
0.0
 40
0.0
 40
0.0
 40
1.0
 40
2.0
 40
3.0
 40
4.0
 40
5.0
 40
6.0
 40
7.0
 40
8.0
 40
9.0
 40
10.0
 40
11.0
 40
12.0
 40
13.0
 40
14.0
 40
15.0
 40
16.0
 40
17.0
 40
18.0
 40
19.0
 40
20.0
 40
21.0
 40
22.0
 40
23.0
 40
24.0
 40
25.0
 40
26.0
 40
27.0
 40
28.0
 40
29.0
 40
30.0
 40
31.0
 40
32.0
 40
33.0
 40
34.0
 40
35.0
 40
36.0
 40
37.0
 40
38.0
 40
39.0
 40
40.0
 40
41.0
 40
42.0
 40
43.0
 40
44.0
 40
45.0
 40
46.0
 40
47.0
 40
48.0
 40
49.0
 40
50.0
 40
51.0
 40
52.0
 40
53.0
 40
54.0
 40
55.0
 40
56.0
 40
57.0
 40
57.0
 40
57.0
 40
58.0
 40
59.0
 40
60.0
 40
61.0
 40
62.0
 40
63.0
 40
64.0
 40
65.0
 40
66.0
 40
67.0
 40
68.0
 40
69.0
 40
70.0
 40
71.0
 40
72.0
 40
73.0
 40
74.0
 40
75.0
 40
76.0
 40
77.0
 40
78.0
 40
79.0
 40
80.0
 40
81.0
 40
82.0
 40
83.0
 40
84.0
 40
85.0
 40
86.0
 40
87.0
 40
88.0
 40
89.0
 40
90.0
 40
91.0
 40
92.0
 40
93.0
 40
94.0
 40
95.0
 40
96.0
 40
97.0
 40
98.0
 40
99.0
 40
100.0
 40
101.0
 40
102.0
 40
103.0
 40
104.0
 40
105.0
 40
106.0
 40
107.0
 40
108.0
 40
109.0
 40
110.0
 40
111.0
 40
112.0
 40
113.0
 40
114.0
 40
114.0
 40
114.0
 40
114.0
 10
0.0000364308053236
 20
57.28071042071
 30
0.0
 10
-0.1048298468829216
 20
57.28070767309641
 30
0.0
 10
-0.314561478234225
 20
57.27831826672558
 30
0.0
 10
-0.6290009687189695
 20
57.26774985671003
 30
0.0
 10
-0.9431363009077813
 20
57.25035114175702
 30
0.0
 10
-1.256825685231433
 20
57.22622934759385
 30
0.0
 10
-1.569941742281799
 20
57.19555540546096
 30
0.0
 10
-1.882374475160418
 20
57.15857636703543
 30
0.0
 10
-2.194028792219513
 20
57.11553385182602
 30
0.0
 10
-2.504811310773903
 20
57.0665911119361
 30
0.0
 10
-2.814612015407022
 20
57.01180144710559
 30
0.0
 10
-3.123570556076743
 20
56.95243308284066
 30
0.0
 10
-3.431402916841876
 20
56.88750947100041
 30
0.0
 10
-3.73873751388146
 20
56.82029621757001
 30
0.0
 10
-4.04611640870769
 20
56.75328781713696
 30
0.0
 10
-4.353519830371511
 20
56.68638896156265
 30
0.0
 10
-4.661177513605878
 20
56.62066870128888
 30
0.0
 10
-4.96918374936314
 20
56.55659708096456
 30
0.0
 10
-5.277693730327996
 20
56.49498480774034
 30
0.0
 10
-5.586850956457454
 20
56.43670383987205
 30
0.0
 10
-5.896818562988074
 20
56.38283765169506
 30
0.0
 10
-6.207730818248478
 20
56.33481292930889
 30
0.0
 10
-6.51990658838173
 20
56.29501508822189
 30
0.0
 10
-6.833049898979652
 20
56.26671164031804
 30
0.0
 10
-7.148691404463193
 20
56.25710833559754
 30
0.0
 10
-7.459504724116925
 20
56.27904827818491
 30
0.0
 10
-7.777648564466517
 20
56.37767989573003
 30
0.0
 10
-7.910647578447254
 20
56.69288077287887
 30
0.0
 10
-7.821889242331338
 20
57.00364321986046
 30
0.0
 10
-7.693133936056029
 20
57.2890324531439
 30
0.0
 10
-7.536461270605912
 20
57.5627368515322
 30
0.0
 10
-7.365304744218861
 20
57.82659018021825
 30
0.0
 10
-7.186231823029061
 20
58.08532255979735
 30
0.0
 10
-7.001676317834949
 20
58.3401123098487
 30
0.0
 10
-6.807226797489534
 20
58.58760188779652
 30
0.0
 10
-6.595236442290627
 20
58.82033658264609
 30
0.0
 10
-6.3696388467867
 20
59.03970507289269
 30
0.0
 10
-6.139625830272109
 20
59.25435674317682
 30
0.0
 10
-5.901267037495018
 20
59.4598110950979
 30
0.0
 10
-5.653646447110702
 20
59.65399579813
 30
0.0
 10
-5.397590909778046
 20
59.8368904544238
 30
0.0
 10
-5.134394609765195
 20
60.00935800752355
 30
0.0
 10
-4.863202161439347
 20
60.16902314199623
 30
0.0
 10
-4.584099347554513
 20
60.31439613326284
 30
0.0
 10
-4.298736940862455
 20
60.44700399022874
 30
0.0
 10
-4.008152391788656
 20
60.56771959137705
 30
0.0
 10
-3.713123618072359
 20
60.67710269153817
 30
0.0
 10
-3.414310413813041
 20
60.77566226220772
 30
0.0
 10
-3.112318493989903
 20
60.86397673571545
 30
0.0
 10
-2.807624756199573
 20
60.94245775236751
 30
0.0
 10
-2.500622345322768
 20
61.01133840839605
 30
0.0
 10
-2.191709328010575
 20
61.0710551453516
 30
0.0
 10
-1.88120800610443
 20
61.12185213835109
 30
0.0
 10
-1.569431402913665
 20
61.16410483489303
 30
0.0
 10
-1.25664551785701
 20
61.19807582963912
 30
0.0
 10
-0.9430946578904127
 20
61.22402491750685
 30
0.0
 10
-0.6289996247144245
 20
61.24221850230435
 30
0.0
 10
-0.3145623800845669
 20
61.25292578273814
 30
0.0
 10
-0.104829550228601
 20
61.25524349297998
 30
0.0
 10
0.0000364308053236
 20
61.25524092660233
 30
0.0
 10
0.1049024118392481
 20
61.25524349297998
 30
0.0
 10
0.3146352416952141
 20
61.25292578273814
 30
0.0
 10
0.6290724863250716
 20
61.24221850230435
 30
0.0
 10
0.9431675195010598
 20
61.22402491750685
 30
0.0
 10
1.256718379467657
 20
61.19807582963912
 30
0.0
 10
1.569504264524312
 20
61.16410483489303
 30
0.0
 10
1.881280867715077
 20
61.12185213835109
 30
0.0
 10
2.191782189621222
 20
61.0710551453516
 30
0.0
 10
2.500695206933415
 20
61.01133840839605
 30
0.0
 10
2.80769761781022
 20
60.94245775236751
 30
0.0
 10
3.11239135560055
 20
60.86397673571545
 30
0.0
 10
3.414383275423688
 20
60.77566226220772
 30
0.0
 10
3.713196479683006
 20
60.67710269153817
 30
0.0
 10
4.008225253399303
 20
60.56771959137705
 30
0.0
 10
4.298809802473102
 20
60.44700399022874
 30
0.0
 10
4.58417220916516
 20
60.31439613326284
 30
0.0
 10
4.863275023049994
 20
60.16902314199623
 30
0.0
 10
5.134467471375842
 20
60.00935800752355
 30
0.0
 10
5.397663771388693
 20
59.8368904544238
 30
0.0
 10
5.65371930872135
 20
59.65399579813
 30
0.0
 10
5.901339899105665
 20
59.4598110950979
 30
0.0
 10
6.139698691882757
 20
59.25435674317682
 30
0.0
 10
6.369711708397347
 20
59.03970507289269
 30
0.0
 10
6.595309303901274
 20
58.82033658264609
 30
0.0
 10
6.807299659100181
 20
58.58760188779652
 30
0.0
 10
7.001749179445596
 20
58.3401123098487
 30
0.0
 10
7.186304684639708
 20
58.08532255979735
 30
0.0
 10
7.365377605829508
 20
57.82659018021825
 30
0.0
 10
7.536534132216559
 20
57.5627368515322
 30
0.0
 10
7.693206797666676
 20
57.2890324531439
 30
0.0
 10
7.821962103941985
 20
57.00364321986046
 30
0.0
 10
7.910720440057901
 20
56.69288077287887
 30
0.0
 10
7.777721426077164
 20
56.37767989573003
 30
0.0
 10
7.459577585727573
 20
56.27904827818491
 30
0.0
 10
7.14876426607384
 20
56.25710833559754
 30
0.0
 10
6.8331227605903
 20
56.26671164031804
 30
0.0
 10
6.519979449992377
 20
56.29501508822189
 30
0.0
 10
6.207803679859126
 20
56.33481292930889
 30
0.0
 10
5.896891424598721
 20
56.38283765169506
 30
0.0
 10
5.586923818068101
 20
56.43670383987205
 30
0.0
 10
5.277766591938644
 20
56.49498480774034
 30
0.0
 10
4.969256610973787
 20
56.55659708096456
 30
0.0
 10
4.661250375216525
 20
56.62066870128888
 30
0.0
 10
4.353592691982158
 20
56.68638896156265
 30
0.0
 10
4.046189270318337
 20
56.75328781713696
 30
0.0
 10
3.738810375492108
 20
56.82029621757001
 30
0.0
 10
3.431475778452523
 20
56.88750947100041
 30
0.0
 10
3.12364341768739
 20
56.95243308284066
 30
0.0
 10
2.814684877017669
 20
57.01180144710559
 30
0.0
 10
2.50488417238455
 20
57.0665911119361
 30
0.0
 10
2.19410165383016
 20
57.11553385182602
 30
0.0
 10
1.882447336771065
 20
57.15857636703543
 30
0.0
 10
1.570014603892446
 20
57.19555540546096
 30
0.0
 10
1.256898546842081
 20
57.22622934759385
 30
0.0
 10
0.9432091625184285
 20
57.25035114175702
 30
0.0
 10
0.6290738303296166
 20
57.26774985671003
 30
0.0
 10
0.3146343398448721
 20
57.27831826672558
 30
0.0
 10
0.1049027084935688
 20
57.28070767309641
 30
0.0
 10
0.0000364308053236
 20
57.28071042071
 30
0.0
  0
SPLINE
  5
DE
330
1F
100
AcDbEntity
  8
2D DXF
370
    -3
100
AcDbSpline
210
0.0
220
0.0
230
1.0
 70
    24
 71
     2
 72
     6
 73
     3
 74
     0
 42
0.0000000001
 43
0.0000000001
 40
1.0
 40
1.0
 40
1.0
 40
16.53380353818423
 40
16.53380353818423
 40
16.53380353818423
 10
6.175739604218052
 20
41.98275981119445
 30
0.0
 10
6.864074995580438
 20
40.71847541102147
 30
0.0
 10
7.552410386942825
 20
39.4541910108485
 30
0.0
  0
SPLINE
  5
DF
330
1F
100
AcDbEntity
  8
2D DXF
370
    -3
100
AcDbSpline
210
0.0
220
0.0
230
1.0
 70
     8
 71
     2
 72
     6
 73
     3
 74
     0
 42
0.0000000001
 43
0.0000000001
 40
0.0
 40
0.0
 40
0.0
 40
1.0
 40
1.0
 40
1.0
 10
6.076199034288607
 20
42.1249347875717
 30
0.0
 10
6.130915646918709
 20
42.05725425001356
 30
0.0
 10
6.175739604218052
 20
41.98275981119445
 30
0.0
  0
SPLINE
  5
E0
330
1F
100
AcDbEntity
  8
2D DXF
370
    -3
100
AcDbSpline
210
0.0
220
0.0
230
1.0
 70
    24
 71
     2
 72
     6
 73
     3
 74
     0
 42
0.0000000001
 43
0.0000000001
 40
4.0
 40
4.0
 40
4.0
 40
5.0
 40
5.0
 40
5.0
 10
6.924419738916697
 20
40.08368027108266
 30
0.0
 10
6.408079573345702
 20
41.032056345749
 30
0.0
 10
5.891739407774708
 20
41.98043242041533
 30
0.0
  0
LINE
  5
E1
330
1F
100
AcDbEntity
  8
2D DXF
370
    -3
100
AcDbLine
 10
7.552410386942825
 20
39.4541910108485
 30
0.0
 11
6.924419738916697
 21
40.08368027108266
 31
0.0
  0
LINE
  5
E2
330
1F
100
AcDbEntity
  8
2D DXF
370
    -3
100
AcDbLine
 10
8.238161389564539
 20
40.15493266160802
 30
0.0
 11
7.552410386942825
 21
39.4541910108485
 31
0.0
  0
LINE
  5
E3
330
1F
100
AcDbEntity
  8
2D DXF
370
    -3
100
AcDbLine
 10
7.342436745629243
 20
43.14306566359155
 30
0.0
 11
8.238161389564539
 21
40.15493266160802
 31
0.0
  0
SPLINE
  5
E4
330
1F
100
AcDbEntity
  8
2D DXF
370
    -3
100
AcDbSpline
210
0.0
220
0.0
230
1.0
 70
     8
 71
     2
 72
     6
 73
     3
 74
     0
 42
0.0000000001
 43
0.0000000001
 40
0.0
 40
0.0
 40
0.0
 40
1.0
 40
1.0
 40
1.0
 10
7.205280177512691
 20
43.38637398191523
 30
0.0
 10
7.289214827934757
 20
43.27304140144258
 30
0.0
 10
7.342436745629243
 20
43.14306566359155
 30
0.0
  0
SPLINE
  5
E5
330
1F
100
AcDbEntity
  8
2D DXF
370
    -3
100
AcDbSpline
210
0.0
220
0.0
230
1.0
 70
     8
 71
     3
 72
    12
 73
     8
 74
     0
 42
0.0000000001
 43
0.0000000001
 40
-1.964355834436292
 40
-1.964355834436292
 40
-1.964355834436292
 40
-1.964355834436292
 40
-1.775144164182018
 40
-1.686074115715059
 40
-1.686074115715059
 40
-1.686074115715059
 40
-1.661183507881306
 40
-1.661183507881306
 40
-1.661183507881306
 40
-1.661183507881306
 10
5.72431866169876
 20
56.41304556820003
 30
0.0
 10
5.691038510679391
 20
56.3846558754313
 30
0.0
 10
5.641020333407255
 20
56.34150422154273
 30
0.0
 10
5.589463249964524
 20
56.29634539277786
 30
0.0
 10
5.572801845760296
 20
56.28168336877811
 30
0.0
 10
5.568145819574776
 20
56.27758606900441
 30
0.0
 10
5.563489793389256
 20
56.2734887692307
 30
0.0
 10
5.558833767203737
 20
56.269391469457
 30
0.0
  0
SPLINE
  5
E6
330
1F
100
AcDbEntity
  8
2D DXF
370
    -3
100
AcDbSpline
210
0.0
220
0.0
230
1.0
 70
     8
 71
     3
 72
    13
 73
     9
 74
     0
 42
0.0000000001
 43
0.0000000001
 40
-14.9803738834707
 40
-14.9803738834707
 40
-14.9803738834707
 40
-14.9803738834707
 40
0.0
 40
0.0
 40
0.0
 40
0.8875599214287285
 40
1.775119842857457
 40
2.237564335912535
 40
2.237564335912535
 40
2.237564335912535
 40
2.237564335912535
 10
10.61276941775384
 20
57.66743483162617
 30
0.0
 10
9.599875889115992
 20
57.0167797201582
 30
0.0
 10
8.586982360478146
 20
56.36612460869022
 30
0.0
 10
7.574088831840299
 20
55.71546949722224
 30
0.0
 10
7.503267573242169
 20
55.66997585687147
 30
0.0
 10
7.294674859143697
 20
55.50174194802256
 30
0.0
 10
6.937705276040333
 20
55.18118328949263
 30
0.0
 10
6.683578326711881
 20
54.94306429052616
 30
0.0
 10
6.591710600550641
 20
54.85593936020503
 30
0.0
  0
SPLINE
  5
E7
330
1F
100
AcDbEntity
  8
2D DXF
370
    -3
100
AcDbSpline
210
0.0
220
0.0
230
1.0
 70
     8
 71
     3
 72
     8
 73
     4
 74
     0
 42
0.0000000001
 43
0.0000000001
 40
4.0
 40
4.0
 40
4.0
 40
4.0
 40
5.0
 40
5.0
 40
5.0
 40
5.0
 10
6.98124336528042
 20
55.1057160813808
 30
0.0
 10
6.852708430226983
 20
55.01108032188314
 30
0.0
 10
6.737338060433558
 20
54.90013900584571
 30
0.0
 10
6.619363817373142
 20
54.79292179089051
 30
0.0
  0
LINE
  5
E8
330
1F
100
AcDbEntity
  8
2D DXF
370
    -3
100
AcDbLine
 10
9.976888905101248
 20
57.0300368787027
 30
0.0
 11
6.98124336528042
 21
55.1057160813808
 31
0.0
  0
LINE
  5
E9
330
1F
100
AcDbEntity
  8
2D DXF
370
    -3
100
AcDbLine
 10
10.61276941775384
 20
57.66743483162617
 30
0.0
 11
9.976888905101248
 21
57.0300368787027
 31
0.0
  0
LINE
  5
EA
330
1F
100
AcDbEntity
  8
2D DXF
370
    -3
100
AcDbLine
 10
9.844887681204455
 20
58.40385548157962
 30
0.0
 11
10.61276941775384
 21
57.66743483162617
 31
0.0
  0
LINE
  5
EB
330
1F
100
AcDbEntity
  8
2D DXF
370
    -3
100
AcDbLine
 10
7.610546277980916
 20
57.43106744274143
 30
0.0
 11
9.844887681204455
 21
58.40385548157962
 31
0.0
  0
SPLINE
  5
EC
330
1F
100
AcDbEntity
  8
2D DXF
370
    -3
100
AcDbSpline
210
0.0
220
0.0
230
1.0
 70
    24
 71
     2
 72
     6
 73
     3
 74
     0
 42
0.0000000001
 43
0.0000000001
 40
1.0
 40
1.0
 40
1.0
 40
16.53380353818423
 40
16.53380353818423
 40
16.53380353818423
 10
-6.175666742607405
 20
41.98275981119445
 30
0.0
 10
-6.864002133969791
 20
40.71847541102147
 30
0.0
 10
-7.552337525332177
 20
39.4541910108485
 30
0.0
  0
SPLINE
  5
ED
330
1F
100
AcDbEntity
  8
2D DXF
370
    -3
100
AcDbSpline
210
0.0
220
0.0
230
1.0
 70
     8
 71
     2
 72
     6
 73
     3
 74
     0
 42
0.0000000001
 43
0.0000000001
 40
0.0
 40
0.0
 40
0.0
 40
1.0
 40
1.0
 40
1.0
 10
-6.076126172677959
 20
42.1249347875717
 30
0.0
 10
-6.130842785308062
 20
42.05725425001356
 30
0.0
 10
-6.175666742607405
 20
41.98275981119445
 30
0.0
  0
SPLINE
  5
EE
330
1F
100
AcDbEntity
  8
2D DXF
370
    -3
100
AcDbSpline
210
0.0
220
0.0
230
1.0
 70
    24
 71
     2
 72
     6
 73
     3
 74
     0
 42
0.0000000001
 43
0.0000000001
 40
4.0
 40
4.0
 40
4.0
 40
5.0
 40
5.0
 40
5.0
 10
-6.92434687730605
 20
40.08368027108266
 30
0.0
 10
-6.408006711735055
 20
41.032056345749
 30
0.0
 10
-5.89166654616406
 20
41.98043242041533
 30
0.0
  0
LINE
  5
EF
330
1F
100
AcDbEntity
  8
2D DXF
370
    -3
100
AcDbLine
 10
-7.552337525332177
 20
39.4541910108485
 30
0.0
 11
-6.92434687730605
 21
40.08368027108266
 31
0.0
  0
LINE
  5
F0
330
1F
100
AcDbEntity
  8
2D DXF
370
    -3
100
AcDbLine
 10
-8.238088527953892
 20
40.15493266160802
 30
0.0
 11
-7.552337525332177
 21
39.4541910108485
 31
0.0
  0
LINE
  5
F1
330
1F
100
AcDbEntity
  8
2D DXF
370
    -3
100
AcDbLine
 10
-7.342363884018596
 20
43.14306566359155
 30
0.0
 11
-8.238088527953892
 21
40.15493266160802
 31
0.0
  0
SPLINE
  5
F2
330
1F
100
AcDbEntity
  8
2D DXF
370
    -3
100
AcDbSpline
210
0.0
220
0.0
230
1.0
 70
     8
 71
     2
 72
     6
 73
     3
 74
     0
 42
0.0000000001
 43
0.0000000001
 40
0.0
 40
0.0
 40
0.0
 40
1.0
 40
1.0
 40
1.0
 10
-7.205207315902044
 20
43.38637398191523
 30
0.0
 10
-7.289141966324109
 20
43.27304140144258
 30
0.0
 10
-7.342363884018596
 20
43.14306566359155
 30
0.0
  0
SPLINE
  5
F3
330
1F
100
AcDbEntity
  8
2D DXF
370
    -3
100
AcDbSpline
210
0.0
220
0.0
230
1.0
 70
     8
 71
     3
 72
    12
 73
     8
 74
     0
 42
0.0000000001
 43
0.0000000001
 40
-1.964355834436292
 40
-1.964355834436292
 40
-1.964355834436292
 40
-1.964355834436292
 40
-1.775144164182018
 40
-1.686074115715059
 40
-1.686074115715059
 40
-1.686074115715059
 40
-1.661183507881306
 40
-1.661183507881306
 40
-1.661183507881306
 40
-1.661183507881306
 10
-5.724245800088113
 20
56.41304556820003
 30
0.0
 10
-5.690965649068744
 20
56.3846558754313
 30
0.0
 10
-5.640947471796608
 20
56.34150422154273
 30
0.0
 10
-5.589390388353877
 20
56.29634539277786
 30
0.0
 10
-5.572728984149649
 20
56.28168336877811
 30
0.0
 10
-5.568072957964129
 20
56.27758606900441
 30
0.0
 10
-5.563416931778609
 20
56.2734887692307
 30
0.0
 10
-5.55876090559309
 20
56.269391469457
 30
0.0
  0
SPLINE
  5
F4
330
1F
100
AcDbEntity
  8
2D DXF
370
    -3
100
AcDbSpline
210
0.0
220
0.0
230
1.0
 70
     8
 71
     3
 72
    13
 73
     9
 74
     0
 42
0.0000000001
 43
0.0000000001
 40
-14.9803738834707
 40
-14.9803738834707
 40
-14.9803738834707
 40
-14.9803738834707
 40
0.0
 40
0.0
 40
0.0
 40
0.8875599214287285
 40
1.775119842857457
 40
2.237564335912535
 40
2.237564335912535
 40
2.237564335912535
 40
2.237564335912535
 10
-10.61269655614319
 20
57.66743483162617
 30
0.0
 10
-9.599803027505345
 20
57.0167797201582
 30
0.0
 10
-8.586909498867499
 20
56.36612460869022
 30
0.0
 10
-7.574015970229652
 20
55.71546949722224
 30
0.0
 10
-7.503194711631522
 20
55.66997585687147
 30
0.0
 10
-7.29460199753305
 20
55.50174194802256
 30
0.0
 10
-6.937632414429686
 20
55.18118328949263
 30
0.0
 10
-6.683505465101234
 20
54.94306429052616
 30
0.0
 10
-6.591637738939994
 20
54.85593936020503
 30
0.0
  0
SPLINE
  5
F5
330
1F
100
AcDbEntity
  8
2D DXF
370
    -3
100
AcDbSpline
210
0.0
220
0.0
230
1.0
 70
     8
 71
     3
 72
     8
 73
     4
 74
     0
 42
0.0000000001
 43
0.0000000001
 40
4.0
 40
4.0
 40
4.0
 40
4.0
 40
5.0
 40
5.0
 40
5.0
 40
5.0
 10
-6.981170503669773
 20
55.1057160813808
 30
0.0
 10
-6.852635568616336
 20
55.01108032188314
 30
0.0
 10
-6.737265198822911
 20
54.90013900584571
 30
0.0
 10
-6.619290955762494
 20
54.79292179089051
 30
0.0
  0
LINE
  5
F6
330
1F
100
AcDbEntity
  8
2D DXF
370
    -3
100
AcDbLine
 10
-9.9768160434906
 20
57.0300368787027
 30
0.0
 11
-6.981170503669773
 21
55.1057160813808
 31
0.0
  0
LINE
  5
F7
330
1F
100
AcDbEntity
  8
2D DXF
370
    -3
100
AcDbLine
 10
-10.61269655614319
 20
57.66743483162617
 30
0.0
 11
-9.9768160434906
 21
57.0300368787027
 31
0.0
  0
LINE
  5
F8
330
1F
100
AcDbEntity
  8
2D DXF
370
    -3
100
AcDbLine
 10
-9.844814819593807
 20
58.40385548157962
 30
0.0
 11
-10.61269655614319
 21
57.66743483162617
 31
0.0
  0
LINE
  5
F9
330
1F
100
AcDbEntity
  8
2D DXF
370
    -3
100
AcDbLine
 10
-7.610473416370269
 20
57.43106744274143
 30
0.0
 11
-9.844814819593807
 21
58.40385548157962
 31
0.0
  0
ENDSEC
  0
SECTION
  2
OBJECTS
  0
DICTIONARY
  5
C
330
0
100
AcDbDictionary
281
     1
  3
ACAD_DETAILVIEWSTYLE
350
135
  3
ACAD_GROUP
350
D
  3
ACAD_LAYOUT
350
1A
  3
ACAD_MATERIAL
350
43
  3
ACAD_MLEADERSTYLE
350
5B
  3
ACAD_MLINESTYLE
350
17
  3
ACAD_PLOTSETTINGS
350
19
  3
ACAD_PLOTSTYLENAME
350
E
  3
ACAD_SCALELIST
350
47
  3
ACAD_SECTIONVIEWSTYLE
350
136
  3
ACAD_TABLESTYLE
350
59
  3
ACAD_VISUALSTYLE
350
2A
  3
ACDB_RECOMPOSE_DATA
350
132
  3
AcDbVariableDictionary
350
FA
  0
SUN
  5
5D
330
29
100
AcDbSun
 90
        1
290
     0
 63
     7
421
 16777215
 40
1.0
291
     1
 91
  2455826
 92
 54000000
292
     0
 70
     2
 71
   256
280
     1
  0
DICTIONARY
  5
135
102
{ACAD_REACTORS
330
C
102
}
330
C
100
AcDbDictionary
281
     1
  0
DICTIONARY
  5
D
102
{ACAD_REACTORS
330
C
102
}
330
C
100
AcDbDictionary
281
     1
  0
DICTIONARY
  5
1A
102
{ACAD_REACTORS
330
C
102
}
330
C
100
AcDbDictionary
281
     1
  3
Layout1
350
1E
  3
Layout2
350
26
  3
Model
350
22
  0
DICTIONARY
  5
43
102
{ACAD_REACTORS
330
C
102
}
330
C
100
AcDbDictionary
281
     1
  3
ByBlock
350
45
  3
ByLayer
350
44
  3
Global
350
46
  0
DICTIONARY
  5
5B
102
{ACAD_REACTORS
330
C
102
}
330
C
100
AcDbDictionary
281
     1
  3
Standard
350
5C
  0
DICTIONARY
  5
17
102
{ACAD_REACTORS
330
C
102
}
330
C
100
AcDbDictionary
281
     1
  3
Standard
350
18
  0
DICTIONARY
  5
19
102
{ACAD_REACTORS
330
C
102
}
330
C
100
AcDbDictionary
281
     1
  0
ACDBDICTIONARYWDFLT
  5
E
102
{ACAD_REACTORS
330
C
102
}
330
C
100
AcDbDictionary
281
     1
  3
Normal
350
F
100
AcDbDictionaryWithDefault
340
F
  0
DICTIONARY
  5
47
102
{ACAD_REACTORS
330
C
102
}
330
C
100
AcDbDictionary
281
     1
  3
A0
350
48
  3
A1
350
49
  3
A2
350
4A
  3
A3
350
4B
  3
A4
350
4C
  3
A5
350
4D
  3
A6
350
4E
  3
A7
350
4F
  3
A8
350
50
  3
A9
350
51
  3
B1
350
52
  3
B2
350
53
  3
B3
350
54
  3
B4
350
55
  3
B5
350
56
  3
B6
350
57
  3
B7
350
58
  0
DICTIONARY
  5
136
102
{ACAD_REACTORS
330
C
102
}
330
C
100
AcDbDictionary
281
     1
  0
DICTIONARY
  5
59
102
{ACAD_REACTORS
330
C
102
}
330
C
100
AcDbDictionary
281
     1
  3
Standard
350
5A
  0
DICTIONARY
  5
2A
102
{ACAD_REACTORS
330
C
102
}
330
C
100
AcDbDictionary
281
     1
  3
2dWireframe
350
2F
  3
Basic
350
32
  3
Brighten
350
36
  3
ColorChange
350
3A
  3
Conceptual
350
34
  3
Dim
350
35
  3
EdgeColorOff
350
3D
  3
Facepattern
350
39
  3
Flat
350
2B
  3
FlatWithEdges
350
2C
  3
Gouraud
350
2D
  3
GouraudWithEdges
350
2E
  3
Hidden
350
31
  3
JitterOff
350
3B
  3
Linepattern
350
38
  3
OverhangOff
350
3C
  3
Realistic
350
33
  3
Shaded
350
42
  3
Shaded with edges
350
41
  3
Shades of Gray
350
3E
  3
Sketchy
350
3F
  3
Thicken
350
37
  3
Wireframe
350
30
  3
X-Ray
350
40
  0
XRECORD
  5
132
102
{ACAD_REACTORS
330
C
102
}
330
C
100
AcDbXrecord
280
     1
 90
        1
330
5A
  0
DICTIONARY
  5
FA
102
{ACAD_REACTORS
330
C
102
}
330
C
100
AcDbDictionary
281
     1
  3
CANNOSCALE
350
FB
  3
CMLEADERSTYLE
350
134
  3
CTABLESTYLE
350
133
  3
XCLIPFRAME
350
FC
  0
LAYOUT
  5
1E
102
{ACAD_REACTORS
330
1A
102
}
330
1A
100
AcDbPlotSettings
  1

  2
none_device
  4

  6

 40
0.0
 41
0.0
 42
0.0
 43
0.0
 44
0.0
 45
0.0
 46
0.0
 47
0.0
 48
0.0
 49
0.0
140
0.0
141
0.0
142
1.0
143
1.0
 70
   688
 72
     0
 73
     0
 74
     5
  7

 75
    16
 76
     0
 77
     2
 78
   300
147
1.0
148
0.0
149
0.0
100
AcDbLayout
  1
Layout1
 70
     1
 71
     1
 10
0.0
 20
0.0
 11
12.0
 21
9.0
 12
0.0
 22
0.0
 32
0.0
 14
1.000000000000000E+20
 24
1.000000000000000E+20
 34
1.000000000000000E+20
 15
-1.000000000000000E+20
 25
-1.000000000000000E+20
 35
-1.000000000000000E+20
146
0.0
 13
0.0
 23
0.0
 33
0.0
 16
1.0
 26
0.0
 36
0.0
 17
0.0
 27
1.0
 37
0.0
 76
     0
330
1B
  0
LAYOUT
  5
26
102
{ACAD_REACTORS
330
1A
102
}
330
1A
100
AcDbPlotSettings
  1

  2
none_device
  4

  6

 40
0.0
 41
0.0
 42
0.0
 43
0.0
 44
0.0
 45
0.0
 46
0.0
 47
0.0
 48
0.0
 49
0.0
140
0.0
141
0.0
142
1.0
143
1.0
 70
   688
 72
     0
 73
     0
 74
     5
  7

 75
    16
 76
     0
 77
     2
 78
   300
147
1.0
148
0.0
149
0.0
100
AcDbLayout
  1
Layout2
 70
     1
 71
     2
 10
0.0
 20
0.0
 11
0.0
 21
0.0
 12
0.0
 22
0.0
 32
0.0
 14
0.0
 24
0.0
 34
0.0
 15
0.0
 25
0.0
 35
0.0
146
0.0
 13
0.0
 23
0.0
 33
0.0
 16
1.0
 26
0.0
 36
0.0
 17
0.0
 27
1.0
 37
0.0
 76
     0
330
23
  0
LAYOUT
  5
22
102
{ACAD_REACTORS
330
1A
102
}
330
1A
100
AcDbPlotSettings
  1

  2
none_device
  4
Letter_(8.50_x_11.00_Inches)
  6

 40
6.35
 41
6.35
 42
6.35000508
 43
6.35000508
 44
215.9
 45
279.4
 46
0.0
 47
0.0
 48
0.0
 49
0.0
140
0.0
141
0.0
142
1.0
143
1.0
 70
  1712
 72
     0
 73
     0
 74
     0
  7

 75
     0
 76
     0
 77
     2
 78
   300
147
1.0
148
0.0
149
0.0
100
AcDbLayout
  1
Model
 70
     1
 71
     0
 10
0.0
 20
0.0
 11
12.0
 21
9.0
 12
0.0
 22
0.0
 32
0.0
 14
1.000000000000000E+20
 24
1.000000000000000E+20
 34
1.000000000000000E+20
 15
-1.000000000000000E+20
 25
-1.000000000000000E+20
 35
-1.000000000000000E+20
146
0.0
 13
0.0
 23
0.0
 33
0.0
 16
1.0
 26
0.0
 36
0.0
 17
0.0
 27
1.0
 37
0.0
 76
     0
330
1F
331
29
  0
MATERIAL
  5
45
102
{ACAD_REACTORS
330
43
102
}
330
43
100
AcDbMaterial
  1
ByBlock
 72
     1
 94
      127
  0
MATERIAL
  5
44
102
{ACAD_REACTORS
330
43
102
}
330
43
100
AcDbMaterial
  1
ByLayer
 72
     1
 94
      127
  0
MATERIAL
  5
46
102
{ACAD_REACTORS
330
43
102
}
330
43
100
AcDbMaterial
  1
Global
 72
     1
 94
      127
  0
MLEADERSTYLE
  5
5C
102
{ACAD_REACTORS
330
5B
102
}
102
{ACAD_XDICTIONARY
360
130
102
}
330
5B
100
AcDbMLeaderStyle
170
     2
171
     1
172
     0
 90
        2
 40
0.0
 41
0.0
173
     1
 91
-1056964608
340
14
 92
       -2
290
     1
 42
0.09
291
     1
 43
0.36
  3
Standard
341
0
 44
0.18
300

342
11
174
     1
178
     6
175
     1
176
     0
 93
-1056964608
 45
0.18
292
     0
297
     0
 46
0.18
343
0
 94
-1056964608
 47
1.0
 49
1.0
140
1.0
293
     1
141
0.0
294
     1
177
     0
142
1.0
295
     0
296
     0
143
0.125
1001
ACAD_MLEADERVER
1070
     2
  0
MLINESTYLE
  5
18
102
{ACAD_REACTORS
330
17
102
}
330
17
100
AcDbMlineStyle
  2
Standard
 70
     0
  3

 62
   256
 51
90.0
 52
90.0
 71
     2
 49
0.5
 62
   256
  6
BYLAYER
 49
-0.5
 62
   256
  6
BYLAYER
  0
ACDBPLACEHOLDER
  5
F
102
{ACAD_REACTORS
330
E
102
}
330
E
  0
SCALE
  5
48
102
{ACAD_REACTORS
330
47
102
}
330
47
100
AcDbScale
 70
     0
300
1:1
140
1.0
141
1.0
290
     1
  0
SCALE
  5
49
102
{ACAD_REACTORS
330
47
102
}
330
47
100
AcDbScale
 70
     0
300
1/128" = 1'-0"
140
0.0078125
141
12.0
290
     0
  0
SCALE
  5
4A
102
{ACAD_REACTORS
330
47
102
}
330
47
100
AcDbScale
 70
     0
300
1/64" = 1'-0"
140
0.015625
141
12.0
290
     0
  0
SCALE
  5
4B
102
{ACAD_REACTORS
330
47
102
}
330
47
100
AcDbScale
 70
     0
300
1/32" = 1'-0"
140
0.03125
141
12.0
290
     0
  0
SCALE
  5
4C
102
{ACAD_REACTORS
330
47
102
}
330
47
100
AcDbScale
 70
     0
300
1/16" = 1'-0"
140
0.0625
141
12.0
290
     0
  0
SCALE
  5
4D
102
{ACAD_REACTORS
330
47
102
}
330
47
100
AcDbScale
 70
     0
300
3/32" = 1'-0"
140
0.09375
141
12.0
290
     0
  0
SCALE
  5
4E
102
{ACAD_REACTORS
330
47
102
}
330
47
100
AcDbScale
 70
     0
300
1/8" = 1'-0"
140
0.125
141
12.0
290
     0
  0
SCALE
  5
4F
102
{ACAD_REACTORS
330
47
102
}
330
47
100
AcDbScale
 70
     0
300
3/16" = 1'-0"
140
0.1875
141
12.0
290
     0
  0
SCALE
  5
50
102
{ACAD_REACTORS
330
47
102
}
330
47
100
AcDbScale
 70
     0
300
1/4" = 1'-0"
140
0.25
141
12.0
290
     0
  0
SCALE
  5
51
102
{ACAD_REACTORS
330
47
102
}
330
47
100
AcDbScale
 70
     0
300
3/8" = 1'-0"
140
0.375
141
12.0
290
     0
  0
SCALE
  5
52
102
{ACAD_REACTORS
330
47
102
}
330
47
100
AcDbScale
 70
     0
300
1/2" = 1'-0"
140
0.5
141
12.0
290
     0
  0
SCALE
  5
53
102
{ACAD_REACTORS
330
47
102
}
330
47
100
AcDbScale
 70
     0
300
3/4" = 1'-0"
140
0.75
141
12.0
290
     0
  0
SCALE
  5
54
102
{ACAD_REACTORS
330
47
102
}
330
47
100
AcDbScale
 70
     0
300
1" = 1'-0"
140
1.0
141
12.0
290
     0
  0
SCALE
  5
55
102
{ACAD_REACTORS
330
47
102
}
330
47
100
AcDbScale
 70
     0
300
1-1/2" = 1'-0"
140
1.5
141
12.0
290
     0
  0
SCALE
  5
56
102
{ACAD_REACTORS
330
47
102
}
330
47
100
AcDbScale
 70
     0
300
3" = 1'-0"
140
3.0
141
12.0
290
     0
  0
SCALE
  5
57
102
{ACAD_REACTORS
330
47
102
}
330
47
100
AcDbScale
 70
     0
300
6" = 1'-0"
140
6.0
141
12.0
290
     0
  0
SCALE
  5
58
102
{ACAD_REACTORS
330
47
102
}
330
47
100
AcDbScale
 70
     0
300
1'-0" = 1'-0"
140
12.0
141
12.0
290
     0
  0
TABLESTYLE
  5
5A
102
{ACAD_REACTORS
330
59
102
}
102
{ACAD_XDICTIONARY
360
12D
102
}
330
59
100
AcDbTableStyle
  3
Standard
 70
     0
 71
     0
 40
0.06
 41
0.06
280
     0
281
     0
  7
Standard
140
0.18
170
     2
 62
     0
 63
   257
283
     0
 90
        4
 91
        0
  1

274
    -2
284
     1
 64
     0
275
    -2
285
     1
 65
     0
276
    -2
286
     1
 66
     0
277
    -2
287
     1
 67
     0
278
    -2
288
     1
 68
     0
279
    -2
289
     1
 69
     0
  7
Standard
140
0.25
170
     5
 62
     0
 63
   257
283
     0
 90
        4
 91
        0
  1

274
    -2
284
     1
 64
     0
275
    -2
285
     1
 65
     0
276
    -2
286
     1
 66
     0
277
    -2
287
     1
 67
     0
278
    -2
288
     1
 68
     0
279
    -2
289
     1
 69
     0
  7
Standard
140
0.18
170
     5
 62
     0
 63
   257
283
     0
 90
        4
 91
        0
  1

274
    -2
284
     1
 64
     0
275
    -2
285
     1
 65
     0
276
    -2
286
     1
 66
     0
277
    -2
287
     1
 67
     0
278
    -2
288
     1
 68
     0
279
    -2
289
     1
 69
     0
  0
VISUALSTYLE
  5
2F
102
{ACAD_REACTORS
330
2A
102
}
102
{ACAD_XDICTIONARY
360
105
102
}
330
2A
100
AcDbVisualStyle
  2
2dWireframe
 70
     4
 71
     0
 72
     2
 73
     0
 90
        0
 40
0.6
 41
30.0
 62
     5
 63
     7
421
 16777215
 74
     1
 91
        4
 64
     7
 65
   257
 75
     1
175
     1
 42
1.0
 92
        0
 66
   257
 43
1.0
 76
     1
 77
     6
 78
     2
 67
     7
 79
     5
170
     0
171
     0
290
     0
174
     0
 93
        1
 44
0.0
173
     0
291
     0
 45
0.0
  0
VISUALSTYLE
  5
32
102
{ACAD_REACTORS
330
2A
102
}
102
{ACAD_XDICTIONARY
360
10B
102
}
330
2A
100
AcDbVisualStyle
  2
Basic
 70
     7
 71
     1
 72
     0
 73
     1
 90
        0
 40
0.6
 41
30.0
 62
     5
 63
     7
421
 16777215
 74
     0
 91
        4
 64
     7
 65
   257
 75
     1
175
     1
 42
1.0
 92
        8
 66
     7
 43
1.0
 76
     1
 77
     6
 78
     2
 67
     7
 79
     5
170
     0
171
     0
290
     0
174
     0
 93
        1
 44
0.0
173
     0
291
     1
 45
0.0
  0
VISUALSTYLE
  5
36
102
{ACAD_REACTORS
330
2A
102
}
102
{ACAD_XDICTIONARY
360
113
102
}
330
2A
100
AcDbVisualStyle
  2
Brighten
 70
    12
 71
     2
 72
     2
 73
     0
 90
        0
 40
0.6
 41
30.0
 62
     5
 63
     7
421
 16777215
 74
     1
 91
        4
 64
     7
 65
   257
 75
     1
175
     1
 42
1.0
 92
        8
 66
     7
 43
1.0
 76
     1
 77
     6
 78
     2
 67
     7
 79
     5
170
     0
171
     0
290
     0
174
     0
 93
        1
 44
50.0
173
     0
291
     1
 45
0.0
  0
VISUALSTYLE
  5
3A
102
{ACAD_REACTORS
330
2A
102
}
102
{ACAD_XDICTIONARY
360
11B
102
}
330
2A
100
AcDbVisualStyle
  2
ColorChange
 70
    16
 71
     2
 72
     2
 73
     3
 90
        0
 40
0.6
 41
30.0
 62
     5
 63
     8
421
  8421504
 74
     1
 91
        4
 64
     7
 65
   257
 75
     1
175
     1
 42
1.0
 92
        8
 66
     8
424
  8421504
 43
1.0
 76
     1
 77
     6
 78
     2
 67
     7
 79
     5
170
     0
171
     0
290
     0
174
     0
 93
        1
 44
0.0
173
     0
291
     1
 45
0.0
  0
VISUALSTYLE
  5
34
102
{ACAD_REACTORS
330
2A
102
}
102
{ACAD_XDICTIONARY
360
10F
102
}
330
2A
100
AcDbVisualStyle
  2
Conceptual
 70
     9
 71
     3
 72
     2
 73
     0
 90
        0
 40
0.6
 41
30.0
 62
     5
 63
     7
421
 16777215
 74
     2
 91
        2
 64
     7
 65
   257
 75
     1
175
     1
 42
179.0
 92
        8
 66
     7
 43
1.0
 76
     1
 77
     6
 78
     2
 67
     7
 79
     3
170
     0
171
     0
290
     0
174
     0
 93
        1
 44
0.0
173
     0
291
     0
 45
0.0
  0
VISUALSTYLE
  5
35
102
{ACAD_REACTORS
330
2A
102
}
102
{ACAD_XDICTIONARY
360
111
102
}
330
2A
100
AcDbVisualStyle
  2
Dim
 70
    11
 71
     2
 72
     2
 73
     0
 90
        0
 40
0.6
 41
30.0
 62
     5
 63
     7
421
 16777215
 74
     1
 91
        4
 64
     7
 65
   257
 75
     1
175
     1
 42
1.0
 92
        8
 66
     7
 43
1.0
 76
     1
 77
     6
 78
     2
 67
     7
 79
     5
170
     0
171
     0
290
     0
174
     0
 93
        1
 44
-50.0
173
     0
291
     1
 45
0.0
  0
VISUALSTYLE
  5
3D
102
{ACAD_REACTORS
330
2A
102
}
102
{ACAD_XDICTIONARY
360
121
102
}
330
2A
100
AcDbVisualStyle
  2
EdgeColorOff
 70
    22
 71
     2
 72
     2
 73
     0
 90
        0
 40
0.6
 41
30.0
 62
     5
 63
     7
421
 16777215
 74
     1
 91
        4
 64
     7
 65
   257
 75
     1
175
     1
 42
1.0
 92
        8
 66
     7
 43
1.0
 76
     1
 77
     6
 78
     2
 67
     7
 79
     5
170
     0
171
     0
290
     0
174
     0
 93
        1
 44
0.0
173
     0
291
     1
 45
0.0
  0
VISUALSTYLE
  5
39
102
{ACAD_REACTORS
330
2A
102
}
102
{ACAD_XDICTIONARY
360
119
102
}
330
2A
100
AcDbVisualStyle
  2
Facepattern
 70
    15
 71
     2
 72
     2
 73
     0
 90
        0
 40
0.6
 41
30.0
 62
     5
 63
     7
421
 16777215
 74
     1
 91
        4
 64
     7
 65
   257
 75
     1
175
     1
 42
1.0
 92
        8
 66
     7
 43
1.0
 76
     1
 77
     6
 78
     2
 67
     7
 79
     5
170
     0
171
     0
290
     0
174
     0
 93
        1
 44
0.0
173
     0
291
     1
 45
0.0
  0
VISUALSTYLE
  5
2B
102
{ACAD_REACTORS
330
2A
102
}
102
{ACAD_XDICTIONARY
360
FD
102
}
330
2A
100
AcDbVisualStyle
  2
Flat
 70
     0
 71
     2
 72
     1
 73
     1
 90
        2
 40
0.6
 41
30.0
 62
     5
 63
     7
421
 16777215
 74
     0
 91
        0
 64
     7
 65
   257
 75
     1
175
     1
 42
1.0
 92
        8
 66
     7
 43
1.0
 76
     1
 77
     6
 78
     2
 67
     7
 79
     5
170
     0
171
     0
290
     0
174
     0
 93
       13
 44
0.0
173
     0
291
     1
 45
0.0
  0
VISUALSTYLE
  5
2C
102
{ACAD_REACTORS
330
2A
102
}
102
{ACAD_XDICTIONARY
360
FF
102
}
330
2A
100
AcDbVisualStyle
  2
FlatWithEdges
 70
     1
 71
     2
 72
     1
 73
     1
 90
        2
 40
0.6
 41
30.0
 62
     5
 63
     7
421
 16777215
 74
     1
 91
        0
 64
     7
 65
   257
 75
     1
175
     1
 42
1.0
 92
        0
 66
   257
 43
1.0
 76
     1
 77
     6
 78
     2
 67
     7
 79
     5
170
     0
171
     0
290
     0
174
     0
 93
       13
 44
0.0
173
     0
291
     1
 45
0.0
  0
VISUALSTYLE
  5
2D
102
{ACAD_REACTORS
330
2A
102
}
102
{ACAD_XDICTIONARY
360
101
102
}
330
2A
100
AcDbVisualStyle
  2
Gouraud
 70
     2
 71
     2
 72
     2
 73
     1
 90
        2
 40
0.6
 41
30.0
 62
     5
 63
     7
421
 16777215
 74
     0
 91
        0
 64
     7
 65
   257
 75
     1
175
     1
 42
1.0
 92
        0
 66
     7
 43
1.0
 76
     1
 77
     6
 78
     2
 67
     7
 79
     5
170
     0
171
     0
290
     0
174
     0
 93
       13
 44
0.0
173
     0
291
     1
 45
0.0
  0
VISUALSTYLE
  5
2E
102
{ACAD_REACTORS
330
2A
102
}
102
{ACAD_XDICTIONARY
360
103
102
}
330
2A
100
AcDbVisualStyle
  2
GouraudWithEdges
 70
     3
 71
     2
 72
     2
 73
     1
 90
        2
 40
0.6
 41
30.0
 62
     5
 63
     7
421
 16777215
 74
     1
 91
        0
 64
     7
 65
   257
 75
     1
175
     1
 42
1.0
 92
        0
 66
   257
 43
1.0
 76
     1
 77
     6
 78
     2
 67
     7
 79
     5
170
     0
171
     0
290
     0
174
     0
 93
       13
 44
0.0
173
     0
291
     1
 45
0.0
  0
VISUALSTYLE
  5
31
102
{ACAD_REACTORS
330
2A
102
}
102
{ACAD_XDICTIONARY
360
109
102
}
330
2A
100
AcDbVisualStyle
  2
Hidden
 70
     6
 71
     1
 72
     2
 73
     2
 90
        0
 40
0.6
 41
30.0
 62
     5
 63
     7
421
 16777215
 74
     2
 91
        2
 64
     7
 65
   257
 75
     2
175
     1
 42
40.0
 92
        0
 66
   257
 43
1.0
 76
     1
 77
     6
 78
     2
 67
     7
 79
     3
170
     0
171
     0
290
     0
174
     0
 93
        1
 44
0.0
173
     0
291
     0
 45
0.0
  0
VISUALSTYLE
  5
3B
102
{ACAD_REACTORS
330
2A
102
}
102
{ACAD_XDICTIONARY
360
11D
102
}
330
2A
100
AcDbVisualStyle
  2
JitterOff
 70
    20
 71
     2
 72
     2
 73
     0
 90
        0
 40
0.6
 41
30.0
 62
     5
 63
     7
421
 16777215
 74
     1
 91
        4
 64
     7
 65
   257
 75
     1
175
     1
 42
1.0
 92
       10
 66
     7
 43
1.0
 76
     1
 77
     6
 78
     2
 67
     7
 79
     5
170
     0
171
     0
290
     0
174
     0
 93
        1
 44
0.0
173
     0
291
     1
 45
0.0
  0
VISUALSTYLE
  5
38
102
{ACAD_REACTORS
330
2A
102
}
102
{ACAD_XDICTIONARY
360
117
102
}
330
2A
100
AcDbVisualStyle
  2
Linepattern
 70
    14
 71
     2
 72
     2
 73
     0
 90
        0
 40
0.6
 41
30.0
 62
     5
 63
     7
421
 16777215
 74
     1
 91
        4
 64
     7
 65
   257
 75
     7
175
     7
 42
1.0
 92
        8
 66
     7
 43
1.0
 76
     1
 77
     6
 78
     2
 67
     7
 79
     5
170
     0
171
     0
290
     0
174
     0
 93
        1
 44
0.0
173
     0
291
     1
 45
0.0
  0
VISUALSTYLE
  5
3C
102
{ACAD_REACTORS
330
2A
102
}
102
{ACAD_XDICTIONARY
360
11F
102
}
330
2A
100
AcDbVisualStyle
  2
OverhangOff
 70
    21
 71
     2
 72
     2
 73
     0
 90
        0
 40
0.6
 41
30.0
 62
     5
 63
     7
421
 16777215
 74
     1
 91
        4
 64
     7
 65
   257
 75
     1
175
     1
 42
1.0
 92
        9
 66
     7
 43
1.0
 76
     1
 77
     6
 78
     2
 67
     7
 79
     5
170
     0
171
     0
290
     0
174
     0
 93
        1
 44
0.0
173
     0
291
     1
 45
0.0
  0
VISUALSTYLE
  5
33
102
{ACAD_REACTORS
330
2A
102
}
102
{ACAD_XDICTIONARY
360
10D
102
}
330
2A
100
AcDbVisualStyle
  2
Realistic
 70
     8
 71
     2
 72
     3
 73
     0
 90
        2
 40
0.6
 41
30.0
 62
     5
 63
     7
421
 16777215
 74
     0
 91
        0
 64
     7
 65
   257
 75
     1
175
     1
 42
1.0
 92
        8
 66
   257
 43
1.0
 76
     1
 77
     6
 78
     2
 67
     7
 79
     3
170
     0
171
     0
290
     0
174
     0
 93
       13
 44
0.0
173
     0
291
     0
 45
0.0
  0
VISUALSTYLE
  5
42
102
{ACAD_REACTORS
330
2A
102
}
102
{ACAD_XDICTIONARY
360
12B
102
}
330
2A
100
AcDbVisualStyle
  2
Shaded
 70
    27
 71
     2
 72
     2
 73
     1
 90
        2
 40
0.6
 41
30.0
 62
     5
 63
     7
421
 16777215
 74
     0
 91
        4
 64
     7
 65
   257
 75
     1
175
     1
 42
1.0
 92
        8
 66
   257
 43
1.0
 76
     1
 77
     6
 78
     2
 67
     8
425
  7895160
 79
     3
170
     0
171
     0
290
     0
174
     0
 93
        5
 44
0.0
173
     0
291
     0
 45
0.0
  0
VISUALSTYLE
  5
41
102
{ACAD_REACTORS
330
2A
102
}
102
{ACAD_XDICTIONARY
360
129
102
}
330
2A
100
AcDbVisualStyle
  2
Shaded with edges
 70
    26
 71
     2
 72
     2
 73
     1
 90
        2
 40
0.6
 41
30.0
 62
     5
 63
     7
421
 16777215
 74
     1
 91
       10
 64
     7
 65
   257
 75
     2
175
     1
 42
1.0
 92
        8
 66
   257
 43
1.0
 76
     1
 77
     6
 78
     2
 67
     7
 79
     3
170
     0
171
     0
290
     0
174
     0
 93
        5
 44
0.0
173
     0
291
     0
 45
0.0
  0
VISUALSTYLE
  5
3E
102
{ACAD_REACTORS
330
2A
102
}
102
{ACAD_XDICTIONARY
360
123
102
}
330
2A
100
AcDbVisualStyle
  2
Shades of Gray
 70
    23
 71
     2
 72
     2
 73
     3
 90
        0
 40
0.6
 41
30.0
 62
     5
 63
     7
421
 16777215
 74
     2
 91
        2
 64
     7
 65
     7
 75
     1
175
     1
 42
40.0
 92
        8
 66
     7
 43
1.0
 76
     1
 77
     6
 78
     2
 67
     7
 79
     3
170
     0
171
     0
290
     0
174
     0
 93
        1
 44
0.0
173
     0
291
     0
 45
0.0
  0
VISUALSTYLE
  5
3F
102
{ACAD_REACTORS
330
2A
102
}
102
{ACAD_XDICTIONARY
360
125
102
}
330
2A
100
AcDbVisualStyle
  2
Sketchy
 70
    24
 71
     1
 72
     2
 73
     2
 90
        0
 40
0.6
 41
30.0
 62
     5
 63
     7
421
 16777215
 74
     2
 91
        2
 64
     7
 65
     7
 75
     1
175
     1
 42
40.0
 92
       11
 66
     7
 43
1.0
 76
     1
 77
     6
 78
     2
 67
     7
 79
     6
170
     0
171
     0
290
     0
174
     0
 93
        1
 44
0.0
173
     0
291
     0
 45
0.0
  0
VISUALSTYLE
  5
37
102
{ACAD_REACTORS
330
2A
102
}
102
{ACAD_XDICTIONARY
360
115
102
}
330
2A
100
AcDbVisualStyle
  2
Thicken
 70
    13
 71
     2
 72
     2
 73
     0
 90
        0
 40
0.6
 41
30.0
 62
     5
 63
     7
421
 16777215
 74
     1
 91
        4
 64
     7
 65
   257
 75
     1
175
     1
 42
1.0
 92
       12
 66
     7
 43
1.0
 76
     1
 77
     6
 78
     2
 67
     7
 79
     5
170
     0
171
     0
290
     0
174
     0
 93
        1
 44
0.0
173
     0
291
     1
 45
0.0
  0
VISUALSTYLE
  5
30
102
{ACAD_REACTORS
330
2A
102
}
102
{ACAD_XDICTIONARY
360
107
102
}
330
2A
100
AcDbVisualStyle
  2
Wireframe
 70
     5
 71
     0
 72
     2
 73
     0
 90
        0
 40
0.6
 41
30.0
 62
     5
 63
     7
421
 16777215
 74
     1
 91
        4
 64
     7
 65
   257
 75
     1
175
     1
 42
1.0
 92
        0
 66
   257
 43
1.0
 76
     1
 77
     6
 78
     2
 67
     7
 79
     3
170
     0
171
     0
290
     0
174
     0
 93
        1
 44
0.0
173
     0
291
     0
 45
0.0
  0
VISUALSTYLE
  5
40
102
{ACAD_REACTORS
330
2A
102
}
102
{ACAD_XDICTIONARY
360
127
102
}
330
2A
100
AcDbVisualStyle
  2
X-Ray
 70
    25
 71
     2
 72
     2
 73
     1
 90
        1
 40
0.5
 41
30.0
 62
     5
 63
     7
421
 16777215
 74
     1
 91
        0
 64
     7
 65
   257
 75
     1
175
     1
 42
1.0
 92
        8
 66
     7
 43
1.0
 76
     1
 77
     6
 78
     2
 67
     7
 79
     3
170
     0
171
     0
290
     0
174
     0
 93
       13
 44
0.0
173
     0
291
     0
 45
0.0
  0
DICTIONARYVAR
  5
FB
102
{ACAD_REACTORS
330
FA
102
}
330
FA
100
DictionaryVariables
280
     0
  1
1:1
  0
DICTIONARYVAR
  5
134
102
{ACAD_REACTORS
330
FA
102
}
330
FA
100
DictionaryVariables
280
     0
  1
Standard
  0
DICTIONARYVAR
  5
133
102
{ACAD_REACTORS
330
FA
102
}
330
FA
100
DictionaryVariables
280
     0
  1
Standard
  0
DICTIONARYVAR
  5
FC
102
{ACAD_REACTORS
330
FA
102
}
330
FA
100
DictionaryVariables
280
     0
  1
2
  0
DICTIONARY
  5
130
330
5C
100
AcDbDictionary
280
     1
281
     1
  3
ACAD_XREC_ROUNDTRIP
360
131
  0
DICTIONARY
  5
12D
330
5A
100
AcDbDictionary
280
     1
281
     1
  3
ACAD_ROUNDTRIP_2008_TABLESTYLE_CELLSTYLEMAP
360
12E
  0
DICTIONARY
  5
105
330
2F
100
AcDbDictionary
280
     1
281
     1
  3
ACAD_XREC_ROUNDTRIP
360
106
  0
DICTIONARY
  5
10B
330
32
100
AcDbDictionary
280
     1
281
     1
  3
ACAD_XREC_ROUNDTRIP
360
10C
  0
DICTIONARY
  5
113
330
36
100
AcDbDictionary
280
     1
281
     1
  3
ACAD_XREC_ROUNDTRIP
360
114
  0
DICTIONARY
  5
11B
330
3A
100
AcDbDictionary
280
     1
281
     1
  3
ACAD_XREC_ROUNDTRIP
360
11C
  0
DICTIONARY
  5
10F
330
34
100
AcDbDictionary
280
     1
281
     1
  3
ACAD_XREC_ROUNDTRIP
360
110
  0
DICTIONARY
  5
111
330
35
100
AcDbDictionary
280
     1
281
     1
  3
ACAD_XREC_ROUNDTRIP
360
112
  0
DICTIONARY
  5
121
330
3D
100
AcDbDictionary
280
     1
281
     1
  3
ACAD_XREC_ROUNDTRIP
360
122
  0
DICTIONARY
  5
119
330
39
100
AcDbDictionary
280
     1
281
     1
  3
ACAD_XREC_ROUNDTRIP
360
11A
  0
DICTIONARY
  5
FD
330
2B
100
AcDbDictionary
280
     1
281
     1
  3
ACAD_XREC_ROUNDTRIP
360
FE
  0
DICTIONARY
  5
FF
330
2C
100
AcDbDictionary
280
     1
281
     1
  3
ACAD_XREC_ROUNDTRIP
360
100
  0
DICTIONARY
  5
101
330
2D
100
AcDbDictionary
280
     1
281
     1
  3
ACAD_XREC_ROUNDTRIP
360
102
  0
DICTIONARY
  5
103
330
2E
100
AcDbDictionary
280
     1
281
     1
  3
ACAD_XREC_ROUNDTRIP
360
104
  0
DICTIONARY
  5
109
330
31
100
AcDbDictionary
280
     1
281
     1
  3
ACAD_XREC_ROUNDTRIP
360
10A
  0
DICTIONARY
  5
11D
330
3B
100
AcDbDictionary
280
     1
281
     1
  3
ACAD_XREC_ROUNDTRIP
360
11E
  0
DICTIONARY
  5
117
330
38
100
AcDbDictionary
280
     1
281
     1
  3
ACAD_XREC_ROUNDTRIP
360
118
  0
DICTIONARY
  5
11F
330
3C
100
AcDbDictionary
280
     1
281
     1
  3
ACAD_XREC_ROUNDTRIP
360
120
  0
DICTIONARY
  5
10D
330
33
100
AcDbDictionary
280
     1
281
     1
  3
ACAD_XREC_ROUNDTRIP
360
10E
  0
DICTIONARY
  5
12B
330
42
100
AcDbDictionary
280
     1
281
     1
  3
ACAD_XREC_ROUNDTRIP
360
12C
  0
DICTIONARY
  5
129
330
41
100
AcDbDictionary
280
     1
281
     1
  3
ACAD_XREC_ROUNDTRIP
360
12A
  0
DICTIONARY
  5
123
330
3E
100
AcDbDictionary
280
     1
281
     1
  3
ACAD_XREC_ROUNDTRIP
360
124
  0
DICTIONARY
  5
125
330
3F
100
AcDbDictionary
280
     1
281
     1
  3
ACAD_XREC_ROUNDTRIP
360
126
  0
DICTIONARY
  5
115
330
37
100
AcDbDictionary
280
     1
281
     1
  3
ACAD_XREC_ROUNDTRIP
360
116
  0
DICTIONARY
  5
107
330
30
100
AcDbDictionary
280
     1
281
     1
  3
ACAD_XREC_ROUNDTRIP
360
108
  0
DICTIONARY
  5
127
330
40
100
AcDbDictionary
280
     1
281
     1
  3
ACAD_XREC_ROUNDTRIP
360
128
  0
XRECORD
  5
131
102
{ACAD_REACTORS
330
130
102
}
330
130
100
AcDbXrecord
280
     1
102
ACAD_ROUNDTRIP_2010_MLEADER_STYLE
  0
CELLSTYLEMAP
  5
12E
102
{ACAD_REACTORS
330
12D
102
}
330
12D
100
AcDbCellStyleMap
 90
        3
300
CELLSTYLE
  1
TABLEFORMAT_BEGIN
 90
        5
170
     1
 91
        0
 92
    32768
 62
   257
 93
        1
300
CONTENTFORMAT
  1
CONTENTFORMAT_BEGIN
 90
        0
 91
        0
 92
        4
 93
        0
300

 40
0.0
140
1.0
 94
        5
 62
     0
340
11
144
0.25
309
CONTENTFORMAT_END
171
     1
301
MARGIN
  1
CELLMARGIN_BEGIN
 40
0.06
 40
0.06
 40
0.06
 40
0.06
 40
0.06
 40
0.06
309
CELLMARGIN_END
 94
        6
 95
        1
302
GRIDFORMAT
  1
GRIDFORMAT_BEGIN
 90
        0
 91
        1
 62
     0
 92
       -2
340
14
 93
        0
 40
0.045
309
GRIDFORMAT_END
 95
        2
302
GRIDFORMAT
  1
GRIDFORMAT_BEGIN
 90
        0
 91
        1
 62
     0
 92
       -2
340
14
 93
        0
 40
0.045
309
GRIDFORMAT_END
 95
        4
302
GRIDFORMAT
  1
GRIDFORMAT_BEGIN
 90
        0
 91
        1
 62
     0
 92
       -2
340
14
 93
        0
 40
0.045
309
GRIDFORMAT_END
 95
        8
302
GRIDFORMAT
  1
GRIDFORMAT_BEGIN
 90
        0
 91
        1
 62
     0
 92
       -2
340
14
 93
        0
 40
0.045
309
GRIDFORMAT_END
 95
       16
302
GRIDFORMAT
  1
GRIDFORMAT_BEGIN
 90
        0
 91
        1
 62
     0
 92
       -2
340
14
 93
        0
 40
0.045
309
GRIDFORMAT_END
 95
       32
302
GRIDFORMAT
  1
GRIDFORMAT_BEGIN
 90
        0
 91
        1
 62
     0
 92
       -2
340
14
 93
        0
 40
0.045
309
GRIDFORMAT_END
309
TABLEFORMAT_END
  1
CELLSTYLE_BEGIN
 90
        1
 91
        1
300
_TITLE
309
CELLSTYLE_END
300
CELLSTYLE
  1
TABLEFORMAT_BEGIN
 90
        5
170
     1
 91
        0
 92
        0
 62
   257
 93
        1
300
CONTENTFORMAT
  1
CONTENTFORMAT_BEGIN
 90
        0
 91
        0
 92
        4
 93
        0
300

 40
0.0
140
1.0
 94
        5
 62
     0
340
11
144
0.18
309
CONTENTFORMAT_END
171
     1
301
MARGIN
  1
CELLMARGIN_BEGIN
 40
0.06
 40
0.06
 40
0.06
 40
0.06
 40
0.06
 40
0.06
309
CELLMARGIN_END
 94
        6
 95
        1
302
GRIDFORMAT
  1
GRIDFORMAT_BEGIN
 90
        0
 91
        1
 62
     0
 92
       -2
340
14
 93
        0
 40
0.045
309
GRIDFORMAT_END
 95
        2
302
GRIDFORMAT
  1
GRIDFORMAT_BEGIN
 90
        0
 91
        1
 62
     0
 92
       -2
340
14
 93
        0
 40
0.045
309
GRIDFORMAT_END
 95
        4
302
GRIDFORMAT
  1
GRIDFORMAT_BEGIN
 90
        0
 91
        1
 62
     0
 92
       -2
340
14
 93
        0
 40
0.045
309
GRIDFORMAT_END
 95
        8
302
GRIDFORMAT
  1
GRIDFORMAT_BEGIN
 90
        0
 91
        1
 62
     0
 92
       -2
340
14
 93
        0
 40
0.045
309
GRIDFORMAT_END
 95
       16
302
GRIDFORMAT
  1
GRIDFORMAT_BEGIN
 90
        0
 91
        1
 62
     0
 92
       -2
340
14
 93
        0
 40
0.045
309
GRIDFORMAT_END
 95
       32
302
GRIDFORMAT
  1
GRIDFORMAT_BEGIN
 90
        0
 91
        1
 62
     0
 92
       -2
340
14
 93
        0
 40
0.045
309
GRIDFORMAT_END
309
TABLEFORMAT_END
  1
CELLSTYLE_BEGIN
 90
        2
 91
        1
300
_HEADER
309
CELLSTYLE_END
300
CELLSTYLE
  1
TABLEFORMAT_BEGIN
 90
        5
170
     1
 91
        0
 92
        0
 62
   257
 93
        1
300
CONTENTFORMAT
  1
CONTENTFORMAT_BEGIN
 90
        0
 91
        0
 92
        4
 93
        0
300

 40
0.0
140
1.0
 94
        2
 62
     0
340
11
144
0.18
309
CONTENTFORMAT_END
171
     1
301
MARGIN
  1
CELLMARGIN_BEGIN
 40
0.06
 40
0.06
 40
0.06
 40
0.06
 40
0.06
 40
0.06
309
CELLMARGIN_END
 94
        6
 95
        1
302
GRIDFORMAT
  1
GRIDFORMAT_BEGIN
 90
        0
 91
        1
 62
     0
 92
       -2
340
14
 93
        0
 40
0.045
309
GRIDFORMAT_END
 95
        2
302
GRIDFORMAT
  1
GRIDFORMAT_BEGIN
 90
        0
 91
        1
 62
     0
 92
       -2
340
14
 93
        0
 40
0.045
309
GRIDFORMAT_END
 95
        4
302
GRIDFORMAT
  1
GRIDFORMAT_BEGIN
 90
        0
 91
        1
 62
     0
 92
       -2
340
14
 93
        0
 40
0.045
309
GRIDFORMAT_END
 95
        8
302
GRIDFORMAT
  1
GRIDFORMAT_BEGIN
 90
        0
 91
        1
 62
     0
 92
       -2
340
14
 93
        0
 40
0.045
309
GRIDFORMAT_END
 95
       16
302
GRIDFORMAT
  1
GRIDFORMAT_BEGIN
 90
        0
 91
        1
 62
     0
 92
       -2
340
14
 93
        0
 40
0.045
309
GRIDFORMAT_END
 95
       32
302
GRIDFORMAT
  1
GRIDFORMAT_BEGIN
 90
        0
 91
        1
 62
     0
 92
       -2
340
14
 93
        0
 40
0.045
309
GRIDFORMAT_END
309
TABLEFORMAT_END
  1
CELLSTYLE_BEGIN
 90
        3
 91
        2
300
_DATA
309
CELLSTYLE_END
  0
XRECORD
  5
106
102
{ACAD_REACTORS
330
105
102
}
330
105
100
AcDbXrecord
280
     1
102
RTVSPropertyOp0
 70
     1
102
RTVSPropertyOp1
 70
     1
102
RTVSPropertyOp2
 70
     1
102
RTVSPropertyOp3
 70
     1
102
RTVSPropertyOp4
 70
     1
102
RTVSPropertyOp5
 70
     1
102
RTVSPropertyOp6
 70
     1
102
RTVSPropertyOp7
 70
     1
102
RTVSPropertyOp8
 70
     1
102
RTVSPropertyOp9
 70
     1
102
RTVSPropertyOp10
 70
     1
102
RTVSPropertyOp11
 70
     1
102
RTVSPropertyOp12
 70
     1
102
RTVSPropertyOp13
 70
     1
102
RTVSPropertyOp14
 70
     1
102
RTVSPropertyOp15
 70
     1
102
RTVSPropertyOp16
 70
     1
102
RTVSPropertyOp17
 70
     1
102
RTVSPropertyOp18
 70
     1
102
RTVSPropertyOp19
 70
     1
102
RTVSPropertyOp20
 70
     1
102
RTVSPropertyOp21
 70
     1
102
RTVSPropertyOp22
 70
     1
102
RTVSPropertyOp23
 70
     1
102
RTVSPropertyOp24
 70
     1
102
RTVSPropertyOp25
 70
     1
102
RTVSPropertyOp26
 70
     1
102
RTVSPropertyOp27
 70
     1
102
RTVSPropertyOp28
 70
     1
102
RTVSPropertyOp29
 70
     1
102
RTVSPropertyOp30
 70
     1
102
RTVSPropertyOp31
 70
     1
102
RTVSPropertyOp32
 70
     1
102
RTVSPropertyOp33
 70
     1
102
RTVSPropertyOp34
 70
     1
102
RTVSPropertyOp35
 70
     1
102
RTVSPropertyOp36
 70
     1
102
RTVSPropertyOp37
 70
     1
102
RTVSPropertyOp38
 70
     1
102
RTVSPropertyOp39
 70
     1
102
RTVSPropertyOp40
 70
     1
102
RTVSPropertyOp41
 70
     1
102
RTVSPropertyOp42
 70
     1
102
RTVSPropertyOp43
 70
     1
102
RTVSPropertyOp44
 70
     1
102
RTVSPropertyOp45
 70
     1
102
RTVSPropertyOp46
 70
     1
102
RTVSPropertyOp47
 70
     1
102
RTVSPropertyOp48
 70
     1
102
RTVSPropertyOp49
 70
     1
102
RTVSPropertyOp50
 70
     1
102
RTVSPropertyOp51
 70
     0
102
RTVSPropertyOp52
 70
     0
102
RTVSPropertyOp53
 70
     1
102
RTVSPropertyOp54
 70
     1
102
RTVSPropertyOp55
 70
     1
102
RTVSPropertyOp56
 70
     1
102
RTVSPropertyOp57
 70
     1
102
RTVSPost2010Prop28
280
     1
102
RTVSPost2010PropOp28
 70
     1
102
RTVSPost2010Prop29
280
     1
102
RTVSPost2010PropOp29
 70
     1
102
RTVSPost2010Prop30
280
     0
102
RTVSPost2010PropOp30
 70
     1
102
RTVSPost2010Prop31
280
     0
102
RTVSPost2010PropOp31
 70
     1
102
RTVSPost2010Prop32
280
     0
102
RTVSPost2010PropOp32
 70
     1
102
RTVSPost2010Prop33
280
     0
102
RTVSPost2010PropOp33
 70
     1
102
RTVSPost2010Prop34
280
     0
102
RTVSPost2010PropOp34
 70
     1
102
RTVSPost2010Prop35
280
     0
102
RTVSPost2010PropOp35
 70
     1
102
RTVSPost2010Prop36
280
     0
102
RTVSPost2010PropOp36
 70
     1
102
RTVSPost2010Prop37
 90
       50
102
RTVSPost2010PropOp37
 70
     1
102
RTVSPost2010Prop38
140
0.0
102
RTVSPost2010PropOp38
 70
     1
102
RTVSPost2010Prop39
140
1.0
102
RTVSPost2010PropOp39
 70
     1
102
RTVSPost2010Prop40
 90
        0
102
RTVSPost2010PropOp40
 70
     1
102
RTVSPost2010Prop41ColorIndex
 90
       18
102
RTVSPost2010Prop41ColorRGB
 90
        0
102
RTVSPost2010PropOp41
 70
     1
102
RTVSPost2010Prop42
 90
       50
102
RTVSPost2010PropOp42
 70
     1
102
RTVSPost2010Prop43
 90
        3
102
RTVSPost2010PropOp43
 70
     1
102
RTVSPost2010Prop44ColorIndex
 90
        5
102
RTVSPost2010Prop44ColorRGB
 90
      255
102
RTVSPost2010PropOp44
 70
     1
102
RTVSPost2010Prop45
280
     0
102
RTVSPost2010PropOp45
 70
     1
102
RTVSPost2010Prop46
 90
       50
102
RTVSPost2010PropOp46
 70
     1
102
RTVSPost2010Prop47
 90
       50
102
RTVSPost2010PropOp47
 70
     1
102
RTVSPost2010Prop48
 90
       50
102
RTVSPost2010PropOp48
 70
     1
102
RTVSPost2010Prop49
280
     0
102
RTVSPost2010PropOp49
 70
     1
102
RTVSPost2010Prop50
 90
       50
102
RTVSPost2010PropOp50
 70
     1
102
RTVSPost2010Prop51ColorIndex
 90
      256
102
RTVSPost2010Prop51ColorRGB
 90
-16777216
102
RTVSPost2010PropOp51
 70
     0
102
RTVSPost2010Prop52
140
1.0
102
RTVSPost2010PropOp52
 70
     0
102
RTVSPost2010Prop53
 90
        2
102
RTVSPost2010PropOp53
 70
     1
102
RTVSPost2010Prop54
  1
strokes_ogs.tif
102
RTVSPost2010PropOp54
 70
     1
102
RTVSPost2010Prop55
280
     0
102
RTVSPost2010PropOp55
 70
     1
102
RTVSPost2010Prop56
140
1.0
102
RTVSPost2010PropOp56
 70
     1
102
RTVSPost2010Prop57
140
1.0
102
RTVSPost2010PropOp57
 70
     1
  0
XRECORD
  5
10C
102
{ACAD_REACTORS
330
10B
102
}
330
10B
100
AcDbXrecord
280
     1
102
RTVSPropertyOp0
 70
     1
102
RTVSPropertyOp1
 70
     1
102
RTVSPropertyOp2
 70
     1
102
RTVSPropertyOp3
 70
     1
102
RTVSPropertyOp4
 70
     1
102
RTVSPropertyOp5
 70
     1
102
RTVSPropertyOp6
 70
     1
102
RTVSPropertyOp7
 70
     1
102
RTVSPropertyOp8
 70
     1
102
RTVSPropertyOp9
 70
     1
102
RTVSPropertyOp10
 70
     1
102
RTVSPropertyOp11
 70
     1
102
RTVSPropertyOp12
 70
     1
102
RTVSPropertyOp13
 70
     1
102
RTVSPropertyOp14
 70
     1
102
RTVSPropertyOp15
 70
     1
102
RTVSPropertyOp16
 70
     1
102
RTVSPropertyOp17
 70
     1
102
RTVSPropertyOp18
 70
     1
102
RTVSPropertyOp19
 70
     1
102
RTVSPropertyOp20
 70
     1
102
RTVSPropertyOp21
 70
     1
102
RTVSPropertyOp22
 70
     1
102
RTVSPropertyOp23
 70
     1
102
RTVSPropertyOp24
 70
     1
102
RTVSPropertyOp25
 70
     1
102
RTVSPropertyOp26
 70
     1
102
RTVSPropertyOp27
 70
     1
102
RTVSPropertyOp28
 70
     1
102
RTVSPropertyOp29
 70
     1
102
RTVSPropertyOp30
 70
     1
102
RTVSPropertyOp31
 70
     1
102
RTVSPropertyOp32
 70
     1
102
RTVSPropertyOp33
 70
     1
102
RTVSPropertyOp34
 70
     1
102
RTVSPropertyOp35
 70
     1
102
RTVSPropertyOp36
 70
     1
102
RTVSPropertyOp37
 70
     1
102
RTVSPropertyOp38
 70
     1
102
RTVSPropertyOp39
 70
     1
102
RTVSPropertyOp40
 70
     1
102
RTVSPropertyOp41
 70
     1
102
RTVSPropertyOp42
 70
     1
102
RTVSPropertyOp43
 70
     1
102
RTVSPropertyOp44
 70
     1
102
RTVSPropertyOp45
 70
     1
102
RTVSPropertyOp46
 70
     1
102
RTVSPropertyOp47
 70
     1
102
RTVSPropertyOp48
 70
     1
102
RTVSPropertyOp49
 70
     1
102
RTVSPropertyOp50
 70
     1
102
RTVSPropertyOp51
 70
     0
102
RTVSPropertyOp52
 70
     0
102
RTVSPropertyOp53
 70
     1
102
RTVSPropertyOp54
 70
     1
102
RTVSPropertyOp55
 70
     1
102
RTVSPropertyOp56
 70
     1
102
RTVSPropertyOp57
 70
     1
102
RTVSPost2010Prop28
280
     0
102
RTVSPost2010PropOp28
 70
     1
102
RTVSPost2010Prop29
280
     1
102
RTVSPost2010PropOp29
 70
     1
102
RTVSPost2010Prop30
280
     1
102
RTVSPost2010PropOp30
 70
     1
102
RTVSPost2010Prop31
280
     0
102
RTVSPost2010PropOp31
 70
     1
102
RTVSPost2010Prop32
280
     0
102
RTVSPost2010PropOp32
 70
     1
102
RTVSPost2010Prop33
280
     0
102
RTVSPost2010PropOp33
 70
     1
102
RTVSPost2010Prop34
280
     0
102
RTVSPost2010PropOp34
 70
     1
102
RTVSPost2010Prop35
280
     0
102
RTVSPost2010PropOp35
 70
     1
102
RTVSPost2010Prop36
280
     0
102
RTVSPost2010PropOp36
 70
     1
102
RTVSPost2010Prop37
 90
       50
102
RTVSPost2010PropOp37
 70
     1
102
RTVSPost2010Prop38
140
0.0
102
RTVSPost2010PropOp38
 70
     1
102
RTVSPost2010Prop39
140
1.0
102
RTVSPost2010PropOp39
 70
     1
102
RTVSPost2010Prop40
 90
        0
102
RTVSPost2010PropOp40
 70
     1
102
RTVSPost2010Prop41ColorIndex
 90
       18
102
RTVSPost2010Prop41ColorRGB
 90
        0
102
RTVSPost2010PropOp41
 70
     1
102
RTVSPost2010Prop42
 90
       50
102
RTVSPost2010PropOp42
 70
     1
102
RTVSPost2010Prop43
 90
        3
102
RTVSPost2010PropOp43
 70
     1
102
RTVSPost2010Prop44ColorIndex
 90
        5
102
RTVSPost2010Prop44ColorRGB
 90
      255
102
RTVSPost2010PropOp44
 70
     1
102
RTVSPost2010Prop45
280
     0
102
RTVSPost2010PropOp45
 70
     1
102
RTVSPost2010Prop46
 90
       50
102
RTVSPost2010PropOp46
 70
     1
102
RTVSPost2010Prop47
 90
       50
102
RTVSPost2010PropOp47
 70
     1
102
RTVSPost2010Prop48
 90
       50
102
RTVSPost2010PropOp48
 70
     1
102
RTVSPost2010Prop49
280
     0
102
RTVSPost2010PropOp49
 70
     1
102
RTVSPost2010Prop50
 90
       50
102
RTVSPost2010PropOp50
 70
     1
102
RTVSPost2010Prop51ColorIndex
 90
      256
102
RTVSPost2010Prop51ColorRGB
 90
-16777216
102
RTVSPost2010PropOp51
 70
     0
102
RTVSPost2010Prop52
140
1.0
102
RTVSPost2010PropOp52
 70
     0
102
RTVSPost2010Prop53
 90
        2
102
RTVSPost2010PropOp53
 70
     1
102
RTVSPost2010Prop54
  1
strokes_ogs.tif
102
RTVSPost2010PropOp54
 70
     1
102
RTVSPost2010Prop55
280
     0
102
RTVSPost2010PropOp55
 70
     1
102
RTVSPost2010Prop56
140
1.0
102
RTVSPost2010PropOp56
 70
     1
102
RTVSPost2010Prop57
140
1.0
102
RTVSPost2010PropOp57
 70
     1
  0
XRECORD
  5
114
102
{ACAD_REACTORS
330
113
102
}
330
113
100
AcDbXrecord
280
     1
102
RTVSPropertyOp0
 70
     1
102
RTVSPropertyOp1
 70
     1
102
RTVSPropertyOp2
 70
     1
102
RTVSPropertyOp3
 70
     1
102
RTVSPropertyOp4
 70
     1
102
RTVSPropertyOp5
 70
     1
102
RTVSPropertyOp6
 70
     1
102
RTVSPropertyOp7
 70
     1
102
RTVSPropertyOp8
 70
     1
102
RTVSPropertyOp9
 70
     1
102
RTVSPropertyOp10
 70
     1
102
RTVSPropertyOp11
 70
     1
102
RTVSPropertyOp12
 70
     1
102
RTVSPropertyOp13
 70
     1
102
RTVSPropertyOp14
 70
     1
102
RTVSPropertyOp15
 70
     1
102
RTVSPropertyOp16
 70
     1
102
RTVSPropertyOp17
 70
     1
102
RTVSPropertyOp18
 70
     1
102
RTVSPropertyOp19
 70
     1
102
RTVSPropertyOp20
 70
     1
102
RTVSPropertyOp21
 70
     1
102
RTVSPropertyOp22
 70
     1
102
RTVSPropertyOp23
 70
     1
102
RTVSPropertyOp24
 70
     1
102
RTVSPropertyOp25
 70
     1
102
RTVSPropertyOp26
 70
     1
102
RTVSPropertyOp27
 70
     1
102
RTVSPropertyOp28
 70
     1
102
RTVSPropertyOp29
 70
     1
102
RTVSPropertyOp30
 70
     1
102
RTVSPropertyOp31
 70
     1
102
RTVSPropertyOp32
 70
     1
102
RTVSPropertyOp33
 70
     1
102
RTVSPropertyOp34
 70
     1
102
RTVSPropertyOp35
 70
     1
102
RTVSPropertyOp36
 70
     1
102
RTVSPropertyOp37
 70
     1
102
RTVSPropertyOp38
 70
     1
102
RTVSPropertyOp39
 70
     1
102
RTVSPropertyOp40
 70
     1
102
RTVSPropertyOp41
 70
     1
102
RTVSPropertyOp42
 70
     1
102
RTVSPropertyOp43
 70
     1
102
RTVSPropertyOp44
 70
     1
102
RTVSPropertyOp45
 70
     1
102
RTVSPropertyOp46
 70
     1
102
RTVSPropertyOp47
 70
     1
102
RTVSPropertyOp48
 70
     1
102
RTVSPropertyOp49
 70
     1
102
RTVSPropertyOp50
 70
     1
102
RTVSPropertyOp51
 70
     0
102
RTVSPropertyOp52
 70
     0
102
RTVSPropertyOp53
 70
     1
102
RTVSPropertyOp54
 70
     1
102
RTVSPropertyOp55
 70
     1
102
RTVSPropertyOp56
 70
     1
102
RTVSPropertyOp57
 70
     1
102
RTVSPost2010Prop28
280
     0
102
RTVSPost2010PropOp28
 70
     1
102
RTVSPost2010Prop29
280
     1
102
RTVSPost2010PropOp29
 70
     1
102
RTVSPost2010Prop30
280
     1
102
RTVSPost2010PropOp30
 70
     1
102
RTVSPost2010Prop31
280
     0
102
RTVSPost2010PropOp31
 70
     1
102
RTVSPost2010Prop32
280
     0
102
RTVSPost2010PropOp32
 70
     1
102
RTVSPost2010Prop33
280
     0
102
RTVSPost2010PropOp33
 70
     1
102
RTVSPost2010Prop34
280
     0
102
RTVSPost2010PropOp34
 70
     1
102
RTVSPost2010Prop35
280
     0
102
RTVSPost2010PropOp35
 70
     1
102
RTVSPost2010Prop36
280
     0
102
RTVSPost2010PropOp36
 70
     1
102
RTVSPost2010Prop37
 90
       50
102
RTVSPost2010PropOp37
 70
     1
102
RTVSPost2010Prop38
140
0.0
102
RTVSPost2010PropOp38
 70
     1
102
RTVSPost2010Prop39
140
1.0
102
RTVSPost2010PropOp39
 70
     1
102
RTVSPost2010Prop40
 90
        0
102
RTVSPost2010PropOp40
 70
     1
102
RTVSPost2010Prop41ColorIndex
 90
       18
102
RTVSPost2010Prop41ColorRGB
 90
        0
102
RTVSPost2010PropOp41
 70
     1
102
RTVSPost2010Prop42
 90
       50
102
RTVSPost2010PropOp42
 70
     1
102
RTVSPost2010Prop43
 90
        3
102
RTVSPost2010PropOp43
 70
     1
102
RTVSPost2010Prop44ColorIndex
 90
        5
102
RTVSPost2010Prop44ColorRGB
 90
      255
102
RTVSPost2010PropOp44
 70
     1
102
RTVSPost2010Prop45
280
     0
102
RTVSPost2010PropOp45
 70
     1
102
RTVSPost2010Prop46
 90
       50
102
RTVSPost2010PropOp46
 70
     1
102
RTVSPost2010Prop47
 90
       50
102
RTVSPost2010PropOp47
 70
     1
102
RTVSPost2010Prop48
 90
       50
102
RTVSPost2010PropOp48
 70
     1
102
RTVSPost2010Prop49
280
     0
102
RTVSPost2010PropOp49
 70
     1
102
RTVSPost2010Prop50
 90
       50
102
RTVSPost2010PropOp50
 70
     1
102
RTVSPost2010Prop51ColorIndex
 90
      256
102
RTVSPost2010Prop51ColorRGB
 90
-16777216
102
RTVSPost2010PropOp51
 70
     0
102
RTVSPost2010Prop52
140
1.0
102
RTVSPost2010PropOp52
 70
     0
102
RTVSPost2010Prop53
 90
        2
102
RTVSPost2010PropOp53
 70
     1
102
RTVSPost2010Prop54
  1
strokes_ogs.tif
102
RTVSPost2010PropOp54
 70
     1
102
RTVSPost2010Prop55
280
     0
102
RTVSPost2010PropOp55
 70
     1
102
RTVSPost2010Prop56
140
1.0
102
RTVSPost2010PropOp56
 70
     1
102
RTVSPost2010Prop57
140
1.0
102
RTVSPost2010PropOp57
 70
     1
  0
XRECORD
  5
11C
102
{ACAD_REACTORS
330
11B
102
}
330
11B
100
AcDbXrecord
280
     1
102
RTVSPropertyOp0
 70
     1
102
RTVSPropertyOp1
 70
     1
102
RTVSPropertyOp2
 70
     1
102
RTVSPropertyOp3
 70
     1
102
RTVSPropertyOp4
 70
     1
102
RTVSPropertyOp5
 70
     1
102
RTVSPropertyOp6
 70
     1
102
RTVSPropertyOp7
 70
     1
102
RTVSPropertyOp8
 70
     1
102
RTVSPropertyOp9
 70
     1
102
RTVSPropertyOp10
 70
     1
102
RTVSPropertyOp11
 70
     1
102
RTVSPropertyOp12
 70
     1
102
RTVSPropertyOp13
 70
     1
102
RTVSPropertyOp14
 70
     1
102
RTVSPropertyOp15
 70
     1
102
RTVSPropertyOp16
 70
     1
102
RTVSPropertyOp17
 70
     1
102
RTVSPropertyOp18
 70
     1
102
RTVSPropertyOp19
 70
     1
102
RTVSPropertyOp20
 70
     1
102
RTVSPropertyOp21
 70
     1
102
RTVSPropertyOp22
 70
     1
102
RTVSPropertyOp23
 70
     1
102
RTVSPropertyOp24
 70
     1
102
RTVSPropertyOp25
 70
     1
102
RTVSPropertyOp26
 70
     1
102
RTVSPropertyOp27
 70
     1
102
RTVSPropertyOp28
 70
     1
102
RTVSPropertyOp29
 70
     1
102
RTVSPropertyOp30
 70
     1
102
RTVSPropertyOp31
 70
     1
102
RTVSPropertyOp32
 70
     1
102
RTVSPropertyOp33
 70
     1
102
RTVSPropertyOp34
 70
     1
102
RTVSPropertyOp35
 70
     1
102
RTVSPropertyOp36
 70
     1
102
RTVSPropertyOp37
 70
     1
102
RTVSPropertyOp38
 70
     1
102
RTVSPropertyOp39
 70
     1
102
RTVSPropertyOp40
 70
     1
102
RTVSPropertyOp41
 70
     1
102
RTVSPropertyOp42
 70
     1
102
RTVSPropertyOp43
 70
     1
102
RTVSPropertyOp44
 70
     1
102
RTVSPropertyOp45
 70
     1
102
RTVSPropertyOp46
 70
     1
102
RTVSPropertyOp47
 70
     1
102
RTVSPropertyOp48
 70
     1
102
RTVSPropertyOp49
 70
     1
102
RTVSPropertyOp50
 70
     1
102
RTVSPropertyOp51
 70
     0
102
RTVSPropertyOp52
 70
     0
102
RTVSPropertyOp53
 70
     1
102
RTVSPropertyOp54
 70
     1
102
RTVSPropertyOp55
 70
     1
102
RTVSPropertyOp56
 70
     1
102
RTVSPropertyOp57
 70
     1
102
RTVSPost2010Prop28
280
     0
102
RTVSPost2010PropOp28
 70
     1
102
RTVSPost2010Prop29
280
     1
102
RTVSPost2010PropOp29
 70
     1
102
RTVSPost2010Prop30
280
     1
102
RTVSPost2010PropOp30
 70
     1
102
RTVSPost2010Prop31
280
     0
102
RTVSPost2010PropOp31
 70
     1
102
RTVSPost2010Prop32
280
     0
102
RTVSPost2010PropOp32
 70
     1
102
RTVSPost2010Prop33
280
     0
102
RTVSPost2010PropOp33
 70
     1
102
RTVSPost2010Prop34
280
     0
102
RTVSPost2010PropOp34
 70
     1
102
RTVSPost2010Prop35
280
     0
102
RTVSPost2010PropOp35
 70
     1
102
RTVSPost2010Prop36
280
     0
102
RTVSPost2010PropOp36
 70
     1
102
RTVSPost2010Prop37
 90
       50
102
RTVSPost2010PropOp37
 70
     1
102
RTVSPost2010Prop38
140
0.0
102
RTVSPost2010PropOp38
 70
     1
102
RTVSPost2010Prop39
140
1.0
102
RTVSPost2010PropOp39
 70
     1
102
RTVSPost2010Prop40
 90
        0
102
RTVSPost2010PropOp40
 70
     1
102
RTVSPost2010Prop41ColorIndex
 90
       18
102
RTVSPost2010Prop41ColorRGB
 90
        0
102
RTVSPost2010PropOp41
 70
     1
102
RTVSPost2010Prop42
 90
       50
102
RTVSPost2010PropOp42
 70
     1
102
RTVSPost2010Prop43
 90
        3
102
RTVSPost2010PropOp43
 70
     1
102
RTVSPost2010Prop44ColorIndex
 90
        5
102
RTVSPost2010Prop44ColorRGB
 90
      255
102
RTVSPost2010PropOp44
 70
     1
102
RTVSPost2010Prop45
280
     0
102
RTVSPost2010PropOp45
 70
     1
102
RTVSPost2010Prop46
 90
       50
102
RTVSPost2010PropOp46
 70
     1
102
RTVSPost2010Prop47
 90
       50
102
RTVSPost2010PropOp47
 70
     1
102
RTVSPost2010Prop48
 90
       50
102
RTVSPost2010PropOp48
 70
     1
102
RTVSPost2010Prop49
280
     0
102
RTVSPost2010PropOp49
 70
     1
102
RTVSPost2010Prop50
 90
       50
102
RTVSPost2010PropOp50
 70
     1
102
RTVSPost2010Prop51ColorIndex
 90
      256
102
RTVSPost2010Prop51ColorRGB
 90
-16777216
102
RTVSPost2010PropOp51
 70
     0
102
RTVSPost2010Prop52
140
1.0
102
RTVSPost2010PropOp52
 70
     0
102
RTVSPost2010Prop53
 90
        2
102
RTVSPost2010PropOp53
 70
     1
102
RTVSPost2010Prop54
  1
strokes_ogs.tif
102
RTVSPost2010PropOp54
 70
     1
102
RTVSPost2010Prop55
280
     0
102
RTVSPost2010PropOp55
 70
     1
102
RTVSPost2010Prop56
140
1.0
102
RTVSPost2010PropOp56
 70
     1
102
RTVSPost2010Prop57
140
1.0
102
RTVSPost2010PropOp57
 70
     1
  0
XRECORD
  5
110
102
{ACAD_REACTORS
330
10F
102
}
330
10F
100
AcDbXrecord
280
     1
102
RTVSPropertyOp0
 70
     1
102
RTVSPropertyOp1
 70
     1
102
RTVSPropertyOp2
 70
     1
102
RTVSPropertyOp3
 70
     1
102
RTVSPropertyOp4
 70
     1
102
RTVSPropertyOp5
 70
     1
102
RTVSPropertyOp6
 70
     1
102
RTVSPropertyOp7
 70
     1
102
RTVSPropertyOp8
 70
     1
102
RTVSPropertyOp9
 70
     1
102
RTVSPropertyOp10
 70
     1
102
RTVSPropertyOp11
 70
     1
102
RTVSPropertyOp12
 70
     1
102
RTVSPropertyOp13
 70
     1
102
RTVSPropertyOp14
 70
     1
102
RTVSPropertyOp15
 70
     1
102
RTVSPropertyOp16
 70
     1
102
RTVSPropertyOp17
 70
     1
102
RTVSPropertyOp18
 70
     1
102
RTVSPropertyOp19
 70
     1
102
RTVSPropertyOp20
 70
     1
102
RTVSPropertyOp21
 70
     1
102
RTVSPropertyOp22
 70
     1
102
RTVSPropertyOp23
 70
     1
102
RTVSPropertyOp24
 70
     1
102
RTVSPropertyOp25
 70
     1
102
RTVSPropertyOp26
 70
     1
102
RTVSPropertyOp27
 70
     1
102
RTVSPropertyOp28
 70
     1
102
RTVSPropertyOp29
 70
     1
102
RTVSPropertyOp30
 70
     1
102
RTVSPropertyOp31
 70
     1
102
RTVSPropertyOp32
 70
     1
102
RTVSPropertyOp33
 70
     1
102
RTVSPropertyOp34
 70
     1
102
RTVSPropertyOp35
 70
     1
102
RTVSPropertyOp36
 70
     1
102
RTVSPropertyOp37
 70
     1
102
RTVSPropertyOp38
 70
     1
102
RTVSPropertyOp39
 70
     1
102
RTVSPropertyOp40
 70
     1
102
RTVSPropertyOp41
 70
     1
102
RTVSPropertyOp42
 70
     1
102
RTVSPropertyOp43
 70
     1
102
RTVSPropertyOp44
 70
     1
102
RTVSPropertyOp45
 70
     1
102
RTVSPropertyOp46
 70
     1
102
RTVSPropertyOp47
 70
     1
102
RTVSPropertyOp48
 70
     1
102
RTVSPropertyOp49
 70
     1
102
RTVSPropertyOp50
 70
     1
102
RTVSPropertyOp51
 70
     0
102
RTVSPropertyOp52
 70
     0
102
RTVSPropertyOp53
 70
     1
102
RTVSPropertyOp54
 70
     1
102
RTVSPropertyOp55
 70
     1
102
RTVSPropertyOp56
 70
     1
102
RTVSPropertyOp57
 70
     1
102
RTVSPost2010Prop28
280
     0
102
RTVSPost2010PropOp28
 70
     1
102
RTVSPost2010Prop29
280
     1
102
RTVSPost2010PropOp29
 70
     1
102
RTVSPost2010Prop30
280
     1
102
RTVSPost2010PropOp30
 70
     1
102
RTVSPost2010Prop31
280
     0
102
RTVSPost2010PropOp31
 70
     1
102
RTVSPost2010Prop32
280
     0
102
RTVSPost2010PropOp32
 70
     1
102
RTVSPost2010Prop33
280
     0
102
RTVSPost2010PropOp33
 70
     1
102
RTVSPost2010Prop34
280
     0
102
RTVSPost2010PropOp34
 70
     1
102
RTVSPost2010Prop35
280
     0
102
RTVSPost2010PropOp35
 70
     1
102
RTVSPost2010Prop36
280
     0
102
RTVSPost2010PropOp36
 70
     1
102
RTVSPost2010Prop37
 90
       50
102
RTVSPost2010PropOp37
 70
     1
102
RTVSPost2010Prop38
140
0.0
102
RTVSPost2010PropOp38
 70
     1
102
RTVSPost2010Prop39
140
1.0
102
RTVSPost2010PropOp39
 70
     1
102
RTVSPost2010Prop40
 90
        0
102
RTVSPost2010PropOp40
 70
     1
102
RTVSPost2010Prop41ColorIndex
 90
       18
102
RTVSPost2010Prop41ColorRGB
 90
        0
102
RTVSPost2010PropOp41
 70
     1
102
RTVSPost2010Prop42
 90
       50
102
RTVSPost2010PropOp42
 70
     1
102
RTVSPost2010Prop43
 90
        3
102
RTVSPost2010PropOp43
 70
     1
102
RTVSPost2010Prop44ColorIndex
 90
        5
102
RTVSPost2010Prop44ColorRGB
 90
      255
102
RTVSPost2010PropOp44
 70
     1
102
RTVSPost2010Prop45
280
     0
102
RTVSPost2010PropOp45
 70
     1
102
RTVSPost2010Prop46
 90
       50
102
RTVSPost2010PropOp46
 70
     1
102
RTVSPost2010Prop47
 90
       50
102
RTVSPost2010PropOp47
 70
     1
102
RTVSPost2010Prop48
 90
       50
102
RTVSPost2010PropOp48
 70
     1
102
RTVSPost2010Prop49
280
     0
102
RTVSPost2010PropOp49
 70
     1
102
RTVSPost2010Prop50
 90
       50
102
RTVSPost2010PropOp50
 70
     1
102
RTVSPost2010Prop51ColorIndex
 90
      256
102
RTVSPost2010Prop51ColorRGB
 90
-16777216
102
RTVSPost2010PropOp51
 70
     0
102
RTVSPost2010Prop52
140
1.0
102
RTVSPost2010PropOp52
 70
     0
102
RTVSPost2010Prop53
 90
        2
102
RTVSPost2010PropOp53
 70
     1
102
RTVSPost2010Prop54
  1
strokes_ogs.tif
102
RTVSPost2010PropOp54
 70
     1
102
RTVSPost2010Prop55
280
     0
102
RTVSPost2010PropOp55
 70
     1
102
RTVSPost2010Prop56
140
1.0
102
RTVSPost2010PropOp56
 70
     1
102
RTVSPost2010Prop57
140
1.0
102
RTVSPost2010PropOp57
 70
     1
  0
XRECORD
  5
112
102
{ACAD_REACTORS
330
111
102
}
330
111
100
AcDbXrecord
280
     1
102
RTVSPropertyOp0
 70
     1
102
RTVSPropertyOp1
 70
     1
102
RTVSPropertyOp2
 70
     1
102
RTVSPropertyOp3
 70
     1
102
RTVSPropertyOp4
 70
     1
102
RTVSPropertyOp5
 70
     1
102
RTVSPropertyOp6
 70
     1
102
RTVSPropertyOp7
 70
     1
102
RTVSPropertyOp8
 70
     1
102
RTVSPropertyOp9
 70
     1
102
RTVSPropertyOp10
 70
     1
102
RTVSPropertyOp11
 70
     1
102
RTVSPropertyOp12
 70
     1
102
RTVSPropertyOp13
 70
     1
102
RTVSPropertyOp14
 70
     1
102
RTVSPropertyOp15
 70
     1
102
RTVSPropertyOp16
 70
     1
102
RTVSPropertyOp17
 70
     1
102
RTVSPropertyOp18
 70
     1
102
RTVSPropertyOp19
 70
     1
102
RTVSPropertyOp20
 70
     1
102
RTVSPropertyOp21
 70
     1
102
RTVSPropertyOp22
 70
     1
102
RTVSPropertyOp23
 70
     1
102
RTVSPropertyOp24
 70
     1
102
RTVSPropertyOp25
 70
     1
102
RTVSPropertyOp26
 70
     1
102
RTVSPropertyOp27
 70
     1
102
RTVSPropertyOp28
 70
     1
102
RTVSPropertyOp29
 70
     1
102
RTVSPropertyOp30
 70
     1
102
RTVSPropertyOp31
 70
     1
102
RTVSPropertyOp32
 70
     1
102
RTVSPropertyOp33
 70
     1
102
RTVSPropertyOp34
 70
     1
102
RTVSPropertyOp35
 70
     1
102
RTVSPropertyOp36
 70
     1
102
RTVSPropertyOp37
 70
     1
102
RTVSPropertyOp38
 70
     1
102
RTVSPropertyOp39
 70
     1
102
RTVSPropertyOp40
 70
     1
102
RTVSPropertyOp41
 70
     1
102
RTVSPropertyOp42
 70
     1
102
RTVSPropertyOp43
 70
     1
102
RTVSPropertyOp44
 70
     1
102
RTVSPropertyOp45
 70
     1
102
RTVSPropertyOp46
 70
     1
102
RTVSPropertyOp47
 70
     1
102
RTVSPropertyOp48
 70
     1
102
RTVSPropertyOp49
 70
     1
102
RTVSPropertyOp50
 70
     1
102
RTVSPropertyOp51
 70
     0
102
RTVSPropertyOp52
 70
     0
102
RTVSPropertyOp53
 70
     1
102
RTVSPropertyOp54
 70
     1
102
RTVSPropertyOp55
 70
     1
102
RTVSPropertyOp56
 70
     1
102
RTVSPropertyOp57
 70
     1
102
RTVSPost2010Prop28
280
     0
102
RTVSPost2010PropOp28
 70
     1
102
RTVSPost2010Prop29
280
     1
102
RTVSPost2010PropOp29
 70
     1
102
RTVSPost2010Prop30
280
     1
102
RTVSPost2010PropOp30
 70
     1
102
RTVSPost2010Prop31
280
     0
102
RTVSPost2010PropOp31
 70
     1
102
RTVSPost2010Prop32
280
     0
102
RTVSPost2010PropOp32
 70
     1
102
RTVSPost2010Prop33
280
     0
102
RTVSPost2010PropOp33
 70
     1
102
RTVSPost2010Prop34
280
     0
102
RTVSPost2010PropOp34
 70
     1
102
RTVSPost2010Prop35
280
     0
102
RTVSPost2010PropOp35
 70
     1
102
RTVSPost2010Prop36
280
     0
102
RTVSPost2010PropOp36
 70
     1
102
RTVSPost2010Prop37
 90
       50
102
RTVSPost2010PropOp37
 70
     1
102
RTVSPost2010Prop38
140
0.0
102
RTVSPost2010PropOp38
 70
     1
102
RTVSPost2010Prop39
140
1.0
102
RTVSPost2010PropOp39
 70
     1
102
RTVSPost2010Prop40
 90
        0
102
RTVSPost2010PropOp40
 70
     1
102
RTVSPost2010Prop41ColorIndex
 90
       18
102
RTVSPost2010Prop41ColorRGB
 90
        0
102
RTVSPost2010PropOp41
 70
     1
102
RTVSPost2010Prop42
 90
       50
102
RTVSPost2010PropOp42
 70
     1
102
RTVSPost2010Prop43
 90
        3
102
RTVSPost2010PropOp43
 70
     1
102
RTVSPost2010Prop44ColorIndex
 90
        5
102
RTVSPost2010Prop44ColorRGB
 90
      255
102
RTVSPost2010PropOp44
 70
     1
102
RTVSPost2010Prop45
280
     0
102
RTVSPost2010PropOp45
 70
     1
102
RTVSPost2010Prop46
 90
       50
102
RTVSPost2010PropOp46
 70
     1
102
RTVSPost2010Prop47
 90
       50
102
RTVSPost2010PropOp47
 70
     1
102
RTVSPost2010Prop48
 90
       50
102
RTVSPost2010PropOp48
 70
     1
102
RTVSPost2010Prop49
280
     0
102
RTVSPost2010PropOp49
 70
     1
102
RTVSPost2010Prop50
 90
       50
102
RTVSPost2010PropOp50
 70
     1
102
RTVSPost2010Prop51ColorIndex
 90
      256
102
RTVSPost2010Prop51ColorRGB
 90
-16777216
102
RTVSPost2010PropOp51
 70
     0
102
RTVSPost2010Prop52
140
1.0
102
RTVSPost2010PropOp52
 70
     0
102
RTVSPost2010Prop53
 90
        2
102
RTVSPost2010PropOp53
 70
     1
102
RTVSPost2010Prop54
  1
strokes_ogs.tif
102
RTVSPost2010PropOp54
 70
     1
102
RTVSPost2010Prop55
280
     0
102
RTVSPost2010PropOp55
 70
     1
102
RTVSPost2010Prop56
140
1.0
102
RTVSPost2010PropOp56
 70
     1
102
RTVSPost2010Prop57
140
1.0
102
RTVSPost2010PropOp57
 70
     1
  0
XRECORD
  5
122
102
{ACAD_REACTORS
330
121
102
}
330
121
100
AcDbXrecord
280
     1
102
RTVSPropertyOp0
 70
     0
102
RTVSPropertyOp1
 70
     0
102
RTVSPropertyOp2
 70
     0
102
RTVSPropertyOp3
 70
     0
102
RTVSPropertyOp4
 70
     0
102
RTVSPropertyOp5
 70
     0
102
RTVSPropertyOp6
 70
     0
102
RTVSPropertyOp7
 70
     0
102
RTVSPropertyOp8
 70
     0
102
RTVSPropertyOp9
 70
     0
102
RTVSPropertyOp10
 70
     0
102
RTVSPropertyOp11
 70
     0
102
RTVSPropertyOp12
 70
     0
102
RTVSPropertyOp13
 70
     0
102
RTVSPropertyOp14
 70
     2
102
RTVSPropertyOp15
 70
     0
102
RTVSPropertyOp16
 70
     0
102
RTVSPropertyOp17
 70
     0
102
RTVSPropertyOp18
 70
     0
102
RTVSPropertyOp19
 70
     0
102
RTVSPropertyOp20
 70
     0
102
RTVSPropertyOp21
 70
     0
102
RTVSPropertyOp22
 70
     0
102
RTVSPropertyOp23
 70
     0
102
RTVSPropertyOp24
 70
     0
102
RTVSPropertyOp25
 70
     0
102
RTVSPropertyOp26
 70
     0
102
RTVSPropertyOp27
 70
     0
102
RTVSPropertyOp28
 70
     0
102
RTVSPropertyOp29
 70
     0
102
RTVSPropertyOp30
 70
     0
102
RTVSPropertyOp31
 70
     0
102
RTVSPropertyOp32
 70
     0
102
RTVSPropertyOp33
 70
     0
102
RTVSPropertyOp34
 70
     0
102
RTVSPropertyOp35
 70
     0
102
RTVSPropertyOp36
 70
     0
102
RTVSPropertyOp37
 70
     0
102
RTVSPropertyOp38
 70
     0
102
RTVSPropertyOp39
 70
     0
102
RTVSPropertyOp40
 70
     0
102
RTVSPropertyOp41
 70
     0
102
RTVSPropertyOp42
 70
     0
102
RTVSPropertyOp43
 70
     0
102
RTVSPropertyOp44
 70
     0
102
RTVSPropertyOp45
 70
     0
102
RTVSPropertyOp46
 70
     0
102
RTVSPropertyOp47
 70
     0
102
RTVSPropertyOp48
 70
     0
102
RTVSPropertyOp49
 70
     0
102
RTVSPropertyOp50
 70
     0
102
RTVSPropertyOp51
 70
     0
102
RTVSPropertyOp52
 70
     0
102
RTVSPropertyOp53
 70
     0
102
RTVSPropertyOp54
 70
     0
102
RTVSPropertyOp55
 70
     0
102
RTVSPropertyOp56
 70
     0
102
RTVSPropertyOp57
 70
     0
102
RTVSPost2010Prop28
280
     0
102
RTVSPost2010PropOp28
 70
     0
102
RTVSPost2010Prop29
280
     1
102
RTVSPost2010PropOp29
 70
     0
102
RTVSPost2010Prop30
280
     1
102
RTVSPost2010PropOp30
 70
     0
102
RTVSPost2010Prop31
280
     0
102
RTVSPost2010PropOp31
 70
     0
102
RTVSPost2010Prop32
280
     0
102
RTVSPost2010PropOp32
 70
     0
102
RTVSPost2010Prop33
280
     0
102
RTVSPost2010PropOp33
 70
     0
102
RTVSPost2010Prop34
280
     0
102
RTVSPost2010PropOp34
 70
     0
102
RTVSPost2010Prop35
280
     0
102
RTVSPost2010PropOp35
 70
     0
102
RTVSPost2010Prop36
280
     0
102
RTVSPost2010PropOp36
 70
     0
102
RTVSPost2010Prop37
 90
       50
102
RTVSPost2010PropOp37
 70
     0
102
RTVSPost2010Prop38
140
0.0
102
RTVSPost2010PropOp38
 70
     0
102
RTVSPost2010Prop39
140
1.0
102
RTVSPost2010PropOp39
 70
     0
102
RTVSPost2010Prop40
 90
        0
102
RTVSPost2010PropOp40
 70
     0
102
RTVSPost2010Prop41ColorIndex
 90
       18
102
RTVSPost2010Prop41ColorRGB
 90
        0
102
RTVSPost2010PropOp41
 70
     0
102
RTVSPost2010Prop42
 90
       50
102
RTVSPost2010PropOp42
 70
     0
102
RTVSPost2010Prop43
 90
        3
102
RTVSPost2010PropOp43
 70
     0
102
RTVSPost2010Prop44ColorIndex
 90
        5
102
RTVSPost2010Prop44ColorRGB
 90
      255
102
RTVSPost2010PropOp44
 70
     0
102
RTVSPost2010Prop45
280
     0
102
RTVSPost2010PropOp45
 70
     0
102
RTVSPost2010Prop46
 90
       50
102
RTVSPost2010PropOp46
 70
     0
102
RTVSPost2010Prop47
 90
       50
102
RTVSPost2010PropOp47
 70
     0
102
RTVSPost2010Prop48
 90
       50
102
RTVSPost2010PropOp48
 70
     0
102
RTVSPost2010Prop49
280
     0
102
RTVSPost2010PropOp49
 70
     0
102
RTVSPost2010Prop50
 90
       50
102
RTVSPost2010PropOp50
 70
     0
102
RTVSPost2010Prop51ColorIndex
 90
      256
102
RTVSPost2010Prop51ColorRGB
 90
-16777216
102
RTVSPost2010PropOp51
 70
     0
102
RTVSPost2010Prop52
140
1.0
102
RTVSPost2010PropOp52
 70
     0
102
RTVSPost2010Prop53
 90
        2
102
RTVSPost2010PropOp53
 70
     0
102
RTVSPost2010Prop54
  1
strokes_ogs.tif
102
RTVSPost2010PropOp54
 70
     0
102
RTVSPost2010Prop55
280
     0
102
RTVSPost2010PropOp55
 70
     0
102
RTVSPost2010Prop56
140
1.0
102
RTVSPost2010PropOp56
 70
     0
102
RTVSPost2010Prop57
140
1.0
102
RTVSPost2010PropOp57
 70
     0
  0
XRECORD
  5
11A
102
{ACAD_REACTORS
330
119
102
}
330
119
100
AcDbXrecord
280
     1
102
RTVSPropertyOp0
 70
     1
102
RTVSPropertyOp1
 70
     1
102
RTVSPropertyOp2
 70
     1
102
RTVSPropertyOp3
 70
     1
102
RTVSPropertyOp4
 70
     1
102
RTVSPropertyOp5
 70
     1
102
RTVSPropertyOp6
 70
     1
102
RTVSPropertyOp7
 70
     1
102
RTVSPropertyOp8
 70
     1
102
RTVSPropertyOp9
 70
     1
102
RTVSPropertyOp10
 70
     1
102
RTVSPropertyOp11
 70
     1
102
RTVSPropertyOp12
 70
     1
102
RTVSPropertyOp13
 70
     1
102
RTVSPropertyOp14
 70
     1
102
RTVSPropertyOp15
 70
     1
102
RTVSPropertyOp16
 70
     1
102
RTVSPropertyOp17
 70
     1
102
RTVSPropertyOp18
 70
     1
102
RTVSPropertyOp19
 70
     1
102
RTVSPropertyOp20
 70
     1
102
RTVSPropertyOp21
 70
     1
102
RTVSPropertyOp22
 70
     1
102
RTVSPropertyOp23
 70
     1
102
RTVSPropertyOp24
 70
     1
102
RTVSPropertyOp25
 70
     1
102
RTVSPropertyOp26
 70
     1
102
RTVSPropertyOp27
 70
     1
102
RTVSPropertyOp28
 70
     1
102
RTVSPropertyOp29
 70
     1
102
RTVSPropertyOp30
 70
     1
102
RTVSPropertyOp31
 70
     1
102
RTVSPropertyOp32
 70
     1
102
RTVSPropertyOp33
 70
     1
102
RTVSPropertyOp34
 70
     1
102
RTVSPropertyOp35
 70
     1
102
RTVSPropertyOp36
 70
     1
102
RTVSPropertyOp37
 70
     1
102
RTVSPropertyOp38
 70
     1
102
RTVSPropertyOp39
 70
     1
102
RTVSPropertyOp40
 70
     1
102
RTVSPropertyOp41
 70
     1
102
RTVSPropertyOp42
 70
     1
102
RTVSPropertyOp43
 70
     1
102
RTVSPropertyOp44
 70
     1
102
RTVSPropertyOp45
 70
     1
102
RTVSPropertyOp46
 70
     1
102
RTVSPropertyOp47
 70
     1
102
RTVSPropertyOp48
 70
     1
102
RTVSPropertyOp49
 70
     1
102
RTVSPropertyOp50
 70
     1
102
RTVSPropertyOp51
 70
     0
102
RTVSPropertyOp52
 70
     0
102
RTVSPropertyOp53
 70
     1
102
RTVSPropertyOp54
 70
     1
102
RTVSPropertyOp55
 70
     1
102
RTVSPropertyOp56
 70
     1
102
RTVSPropertyOp57
 70
     1
102
RTVSPost2010Prop28
280
     0
102
RTVSPost2010PropOp28
 70
     1
102
RTVSPost2010Prop29
280
     1
102
RTVSPost2010PropOp29
 70
     1
102
RTVSPost2010Prop30
280
     1
102
RTVSPost2010PropOp30
 70
     1
102
RTVSPost2010Prop31
280
     0
102
RTVSPost2010PropOp31
 70
     1
102
RTVSPost2010Prop32
280
     0
102
RTVSPost2010PropOp32
 70
     1
102
RTVSPost2010Prop33
280
     0
102
RTVSPost2010PropOp33
 70
     1
102
RTVSPost2010Prop34
280
     0
102
RTVSPost2010PropOp34
 70
     1
102
RTVSPost2010Prop35
280
     0
102
RTVSPost2010PropOp35
 70
     1
102
RTVSPost2010Prop36
280
     0
102
RTVSPost2010PropOp36
 70
     1
102
RTVSPost2010Prop37
 90
       50
102
RTVSPost2010PropOp37
 70
     1
102
RTVSPost2010Prop38
140
0.0
102
RTVSPost2010PropOp38
 70
     1
102
RTVSPost2010Prop39
140
1.0
102
RTVSPost2010PropOp39
 70
     1
102
RTVSPost2010Prop40
 90
        0
102
RTVSPost2010PropOp40
 70
     1
102
RTVSPost2010Prop41ColorIndex
 90
       18
102
RTVSPost2010Prop41ColorRGB
 90
        0
102
RTVSPost2010PropOp41
 70
     1
102
RTVSPost2010Prop42
 90
       50
102
RTVSPost2010PropOp42
 70
     1
102
RTVSPost2010Prop43
 90
        3
102
RTVSPost2010PropOp43
 70
     1
102
RTVSPost2010Prop44ColorIndex
 90
        5
102
RTVSPost2010Prop44ColorRGB
 90
      255
102
RTVSPost2010PropOp44
 70
     1
102
RTVSPost2010Prop45
280
     0
102
RTVSPost2010PropOp45
 70
     1
102
RTVSPost2010Prop46
 90
       50
102
RTVSPost2010PropOp46
 70
     1
102
RTVSPost2010Prop47
 90
       50
102
RTVSPost2010PropOp47
 70
     1
102
RTVSPost2010Prop48
 90
       50
102
RTVSPost2010PropOp48
 70
     1
102
RTVSPost2010Prop49
280
     0
102
RTVSPost2010PropOp49
 70
     1
102
RTVSPost2010Prop50
 90
       50
102
RTVSPost2010PropOp50
 70
     1
102
RTVSPost2010Prop51ColorIndex
 90
      256
102
RTVSPost2010Prop51ColorRGB
 90
-16777216
102
RTVSPost2010PropOp51
 70
     0
102
RTVSPost2010Prop52
140
1.0
102
RTVSPost2010PropOp52
 70
     0
102
RTVSPost2010Prop53
 90
        2
102
RTVSPost2010PropOp53
 70
     1
102
RTVSPost2010Prop54
  1
strokes_ogs.tif
102
RTVSPost2010PropOp54
 70
     1
102
RTVSPost2010Prop55
280
     0
102
RTVSPost2010PropOp55
 70
     1
102
RTVSPost2010Prop56
140
1.0
102
RTVSPost2010PropOp56
 70
     1
102
RTVSPost2010Prop57
140
1.0
102
RTVSPost2010PropOp57
 70
     1
  0
XRECORD
  5
FE
102
{ACAD_REACTORS
330
FD
102
}
330
FD
100
AcDbXrecord
280
     1
102
RTVSPropertyOp0
 70
     1
102
RTVSPropertyOp1
 70
     1
102
RTVSPropertyOp2
 70
     1
102
RTVSPropertyOp3
 70
     1
102
RTVSPropertyOp4
 70
     1
102
RTVSPropertyOp5
 70
     1
102
RTVSPropertyOp6
 70
     1
102
RTVSPropertyOp7
 70
     1
102
RTVSPropertyOp8
 70
     1
102
RTVSPropertyOp9
 70
     1
102
RTVSPropertyOp10
 70
     1
102
RTVSPropertyOp11
 70
     1
102
RTVSPropertyOp12
 70
     1
102
RTVSPropertyOp13
 70
     1
102
RTVSPropertyOp14
 70
     1
102
RTVSPropertyOp15
 70
     1
102
RTVSPropertyOp16
 70
     1
102
RTVSPropertyOp17
 70
     1
102
RTVSPropertyOp18
 70
     1
102
RTVSPropertyOp19
 70
     1
102
RTVSPropertyOp20
 70
     1
102
RTVSPropertyOp21
 70
     1
102
RTVSPropertyOp22
 70
     1
102
RTVSPropertyOp23
 70
     1
102
RTVSPropertyOp24
 70
     1
102
RTVSPropertyOp25
 70
     1
102
RTVSPropertyOp26
 70
     1
102
RTVSPropertyOp27
 70
     1
102
RTVSPropertyOp28
 70
     1
102
RTVSPropertyOp29
 70
     1
102
RTVSPropertyOp30
 70
     1
102
RTVSPropertyOp31
 70
     1
102
RTVSPropertyOp32
 70
     1
102
RTVSPropertyOp33
 70
     1
102
RTVSPropertyOp34
 70
     1
102
RTVSPropertyOp35
 70
     1
102
RTVSPropertyOp36
 70
     1
102
RTVSPropertyOp37
 70
     1
102
RTVSPropertyOp38
 70
     1
102
RTVSPropertyOp39
 70
     1
102
RTVSPropertyOp40
 70
     1
102
RTVSPropertyOp41
 70
     1
102
RTVSPropertyOp42
 70
     1
102
RTVSPropertyOp43
 70
     1
102
RTVSPropertyOp44
 70
     1
102
RTVSPropertyOp45
 70
     1
102
RTVSPropertyOp46
 70
     1
102
RTVSPropertyOp47
 70
     1
102
RTVSPropertyOp48
 70
     1
102
RTVSPropertyOp49
 70
     1
102
RTVSPropertyOp50
 70
     1
102
RTVSPropertyOp51
 70
     0
102
RTVSPropertyOp52
 70
     0
102
RTVSPropertyOp53
 70
     1
102
RTVSPropertyOp54
 70
     1
102
RTVSPropertyOp55
 70
     1
102
RTVSPropertyOp56
 70
     1
102
RTVSPropertyOp57
 70
     1
102
RTVSPost2010Prop28
280
     0
102
RTVSPost2010PropOp28
 70
     1
102
RTVSPost2010Prop29
280
     1
102
RTVSPost2010PropOp29
 70
     1
102
RTVSPost2010Prop30
280
     1
102
RTVSPost2010PropOp30
 70
     1
102
RTVSPost2010Prop31
280
     0
102
RTVSPost2010PropOp31
 70
     1
102
RTVSPost2010Prop32
280
     0
102
RTVSPost2010PropOp32
 70
     1
102
RTVSPost2010Prop33
280
     0
102
RTVSPost2010PropOp33
 70
     1
102
RTVSPost2010Prop34
280
     0
102
RTVSPost2010PropOp34
 70
     1
102
RTVSPost2010Prop35
280
     0
102
RTVSPost2010PropOp35
 70
     1
102
RTVSPost2010Prop36
280
     0
102
RTVSPost2010PropOp36
 70
     1
102
RTVSPost2010Prop37
 90
       50
102
RTVSPost2010PropOp37
 70
     1
102
RTVSPost2010Prop38
140
0.0
102
RTVSPost2010PropOp38
 70
     1
102
RTVSPost2010Prop39
140
1.0
102
RTVSPost2010PropOp39
 70
     1
102
RTVSPost2010Prop40
 90
        0
102
RTVSPost2010PropOp40
 70
     1
102
RTVSPost2010Prop41ColorIndex
 90
       18
102
RTVSPost2010Prop41ColorRGB
 90
        0
102
RTVSPost2010PropOp41
 70
     1
102
RTVSPost2010Prop42
 90
       50
102
RTVSPost2010PropOp42
 70
     1
102
RTVSPost2010Prop43
 90
        3
102
RTVSPost2010PropOp43
 70
     1
102
RTVSPost2010Prop44ColorIndex
 90
        5
102
RTVSPost2010Prop44ColorRGB
 90
      255
102
RTVSPost2010PropOp44
 70
     1
102
RTVSPost2010Prop45
280
     0
102
RTVSPost2010PropOp45
 70
     1
102
RTVSPost2010Prop46
 90
       50
102
RTVSPost2010PropOp46
 70
     1
102
RTVSPost2010Prop47
 90
       50
102
RTVSPost2010PropOp47
 70
     1
102
RTVSPost2010Prop48
 90
       50
102
RTVSPost2010PropOp48
 70
     1
102
RTVSPost2010Prop49
280
     0
102
RTVSPost2010PropOp49
 70
     1
102
RTVSPost2010Prop50
 90
       50
102
RTVSPost2010PropOp50
 70
     1
102
RTVSPost2010Prop51ColorIndex
 90
      256
102
RTVSPost2010Prop51ColorRGB
 90
-16777216
102
RTVSPost2010PropOp51
 70
     0
102
RTVSPost2010Prop52
140
1.0
102
RTVSPost2010PropOp52
 70
     0
102
RTVSPost2010Prop53
 90
        2
102
RTVSPost2010PropOp53
 70
     1
102
RTVSPost2010Prop54
  1
strokes_ogs.tif
102
RTVSPost2010PropOp54
 70
     1
102
RTVSPost2010Prop55
280
     0
102
RTVSPost2010PropOp55
 70
     1
102
RTVSPost2010Prop56
140
1.0
102
RTVSPost2010PropOp56
 70
     1
102
RTVSPost2010Prop57
140
1.0
102
RTVSPost2010PropOp57
 70
     1
  0
XRECORD
  5
100
102
{ACAD_REACTORS
330
FF
102
}
330
FF
100
AcDbXrecord
280
     1
102
RTVSPropertyOp0
 70
     1
102
RTVSPropertyOp1
 70
     1
102
RTVSPropertyOp2
 70
     1
102
RTVSPropertyOp3
 70
     1
102
RTVSPropertyOp4
 70
     1
102
RTVSPropertyOp5
 70
     1
102
RTVSPropertyOp6
 70
     1
102
RTVSPropertyOp7
 70
     1
102
RTVSPropertyOp8
 70
     1
102
RTVSPropertyOp9
 70
     1
102
RTVSPropertyOp10
 70
     1
102
RTVSPropertyOp11
 70
     1
102
RTVSPropertyOp12
 70
     1
102
RTVSPropertyOp13
 70
     1
102
RTVSPropertyOp14
 70
     1
102
RTVSPropertyOp15
 70
     1
102
RTVSPropertyOp16
 70
     1
102
RTVSPropertyOp17
 70
     1
102
RTVSPropertyOp18
 70
     1
102
RTVSPropertyOp19
 70
     1
102
RTVSPropertyOp20
 70
     1
102
RTVSPropertyOp21
 70
     1
102
RTVSPropertyOp22
 70
     1
102
RTVSPropertyOp23
 70
     1
102
RTVSPropertyOp24
 70
     1
102
RTVSPropertyOp25
 70
     1
102
RTVSPropertyOp26
 70
     1
102
RTVSPropertyOp27
 70
     1
102
RTVSPropertyOp28
 70
     1
102
RTVSPropertyOp29
 70
     1
102
RTVSPropertyOp30
 70
     1
102
RTVSPropertyOp31
 70
     1
102
RTVSPropertyOp32
 70
     1
102
RTVSPropertyOp33
 70
     1
102
RTVSPropertyOp34
 70
     1
102
RTVSPropertyOp35
 70
     1
102
RTVSPropertyOp36
 70
     1
102
RTVSPropertyOp37
 70
     1
102
RTVSPropertyOp38
 70
     1
102
RTVSPropertyOp39
 70
     1
102
RTVSPropertyOp40
 70
     1
102
RTVSPropertyOp41
 70
     1
102
RTVSPropertyOp42
 70
     1
102
RTVSPropertyOp43
 70
     1
102
RTVSPropertyOp44
 70
     1
102
RTVSPropertyOp45
 70
     1
102
RTVSPropertyOp46
 70
     1
102
RTVSPropertyOp47
 70
     1
102
RTVSPropertyOp48
 70
     1
102
RTVSPropertyOp49
 70
     1
102
RTVSPropertyOp50
 70
     1
102
RTVSPropertyOp51
 70
     0
102
RTVSPropertyOp52
 70
     0
102
RTVSPropertyOp53
 70
     1
102
RTVSPropertyOp54
 70
     1
102
RTVSPropertyOp55
 70
     1
102
RTVSPropertyOp56
 70
     1
102
RTVSPropertyOp57
 70
     1
102
RTVSPost2010Prop28
280
     0
102
RTVSPost2010PropOp28
 70
     1
102
RTVSPost2010Prop29
280
     1
102
RTVSPost2010PropOp29
 70
     1
102
RTVSPost2010Prop30
280
     1
102
RTVSPost2010PropOp30
 70
     1
102
RTVSPost2010Prop31
280
     0
102
RTVSPost2010PropOp31
 70
     1
102
RTVSPost2010Prop32
280
     0
102
RTVSPost2010PropOp32
 70
     1
102
RTVSPost2010Prop33
280
     0
102
RTVSPost2010PropOp33
 70
     1
102
RTVSPost2010Prop34
280
     0
102
RTVSPost2010PropOp34
 70
     1
102
RTVSPost2010Prop35
280
     0
102
RTVSPost2010PropOp35
 70
     1
102
RTVSPost2010Prop36
280
     0
102
RTVSPost2010PropOp36
 70
     1
102
RTVSPost2010Prop37
 90
       50
102
RTVSPost2010PropOp37
 70
     1
102
RTVSPost2010Prop38
140
0.0
102
RTVSPost2010PropOp38
 70
     1
102
RTVSPost2010Prop39
140
1.0
102
RTVSPost2010PropOp39
 70
     1
102
RTVSPost2010Prop40
 90
        0
102
RTVSPost2010PropOp40
 70
     1
102
RTVSPost2010Prop41ColorIndex
 90
       18
102
RTVSPost2010Prop41ColorRGB
 90
        0
102
RTVSPost2010PropOp41
 70
     1
102
RTVSPost2010Prop42
 90
       50
102
RTVSPost2010PropOp42
 70
     1
102
RTVSPost2010Prop43
 90
        3
102
RTVSPost2010PropOp43
 70
     1
102
RTVSPost2010Prop44ColorIndex
 90
        5
102
RTVSPost2010Prop44ColorRGB
 90
      255
102
RTVSPost2010PropOp44
 70
     1
102
RTVSPost2010Prop45
280
     0
102
RTVSPost2010PropOp45
 70
     1
102
RTVSPost2010Prop46
 90
       50
102
RTVSPost2010PropOp46
 70
     1
102
RTVSPost2010Prop47
 90
       50
102
RTVSPost2010PropOp47
 70
     1
102
RTVSPost2010Prop48
 90
       50
102
RTVSPost2010PropOp48
 70
     1
102
RTVSPost2010Prop49
280
     0
102
RTVSPost2010PropOp49
 70
     1
102
RTVSPost2010Prop50
 90
       50
102
RTVSPost2010PropOp50
 70
     1
102
RTVSPost2010Prop51ColorIndex
 90
      256
102
RTVSPost2010Prop51ColorRGB
 90
-16777216
102
RTVSPost2010PropOp51
 70
     0
102
RTVSPost2010Prop52
140
1.0
102
RTVSPost2010PropOp52
 70
     0
102
RTVSPost2010Prop53
 90
        2
102
RTVSPost2010PropOp53
 70
     1
102
RTVSPost2010Prop54
  1
strokes_ogs.tif
102
RTVSPost2010PropOp54
 70
     1
102
RTVSPost2010Prop55
280
     0
102
RTVSPost2010PropOp55
 70
     1
102
RTVSPost2010Prop56
140
1.0
102
RTVSPost2010PropOp56
 70
     1
102
RTVSPost2010Prop57
140
1.0
102
RTVSPost2010PropOp57
 70
     1
  0
XRECORD
  5
102
102
{ACAD_REACTORS
330
101
102
}
330
101
100
AcDbXrecord
280
     1
102
RTVSPropertyOp0
 70
     1
102
RTVSPropertyOp1
 70
     1
102
RTVSPropertyOp2
 70
     1
102
RTVSPropertyOp3
 70
     1
102
RTVSPropertyOp4
 70
     1
102
RTVSPropertyOp5
 70
     1
102
RTVSPropertyOp6
 70
     1
102
RTVSPropertyOp7
 70
     1
102
RTVSPropertyOp8
 70
     1
102
RTVSPropertyOp9
 70
     1
102
RTVSPropertyOp10
 70
     1
102
RTVSPropertyOp11
 70
     1
102
RTVSPropertyOp12
 70
     1
102
RTVSPropertyOp13
 70
     1
102
RTVSPropertyOp14
 70
     1
102
RTVSPropertyOp15
 70
     1
102
RTVSPropertyOp16
 70
     1
102
RTVSPropertyOp17
 70
     1
102
RTVSPropertyOp18
 70
     1
102
RTVSPropertyOp19
 70
     1
102
RTVSPropertyOp20
 70
     1
102
RTVSPropertyOp21
 70
     1
102
RTVSPropertyOp22
 70
     1
102
RTVSPropertyOp23
 70
     1
102
RTVSPropertyOp24
 70
     1
102
RTVSPropertyOp25
 70
     1
102
RTVSPropertyOp26
 70
     1
102
RTVSPropertyOp27
 70
     1
102
RTVSPropertyOp28
 70
     1
102
RTVSPropertyOp29
 70
     1
102
RTVSPropertyOp30
 70
     1
102
RTVSPropertyOp31
 70
     1
102
RTVSPropertyOp32
 70
     1
102
RTVSPropertyOp33
 70
     1
102
RTVSPropertyOp34
 70
     1
102
RTVSPropertyOp35
 70
     1
102
RTVSPropertyOp36
 70
     1
102
RTVSPropertyOp37
 70
     1
102
RTVSPropertyOp38
 70
     1
102
RTVSPropertyOp39
 70
     1
102
RTVSPropertyOp40
 70
     1
102
RTVSPropertyOp41
 70
     1
102
RTVSPropertyOp42
 70
     1
102
RTVSPropertyOp43
 70
     1
102
RTVSPropertyOp44
 70
     1
102
RTVSPropertyOp45
 70
     1
102
RTVSPropertyOp46
 70
     1
102
RTVSPropertyOp47
 70
     1
102
RTVSPropertyOp48
 70
     1
102
RTVSPropertyOp49
 70
     1
102
RTVSPropertyOp50
 70
     1
102
RTVSPropertyOp51
 70
     0
102
RTVSPropertyOp52
 70
     0
102
RTVSPropertyOp53
 70
     1
102
RTVSPropertyOp54
 70
     1
102
RTVSPropertyOp55
 70
     1
102
RTVSPropertyOp56
 70
     1
102
RTVSPropertyOp57
 70
     1
102
RTVSPost2010Prop28
280
     0
102
RTVSPost2010PropOp28
 70
     1
102
RTVSPost2010Prop29
280
     1
102
RTVSPost2010PropOp29
 70
     1
102
RTVSPost2010Prop30
280
     1
102
RTVSPost2010PropOp30
 70
     1
102
RTVSPost2010Prop31
280
     0
102
RTVSPost2010PropOp31
 70
     1
102
RTVSPost2010Prop32
280
     0
102
RTVSPost2010PropOp32
 70
     1
102
RTVSPost2010Prop33
280
     0
102
RTVSPost2010PropOp33
 70
     1
102
RTVSPost2010Prop34
280
     0
102
RTVSPost2010PropOp34
 70
     1
102
RTVSPost2010Prop35
280
     0
102
RTVSPost2010PropOp35
 70
     1
102
RTVSPost2010Prop36
280
     0
102
RTVSPost2010PropOp36
 70
     1
102
RTVSPost2010Prop37
 90
       50
102
RTVSPost2010PropOp37
 70
     1
102
RTVSPost2010Prop38
140
0.0
102
RTVSPost2010PropOp38
 70
     1
102
RTVSPost2010Prop39
140
1.0
102
RTVSPost2010PropOp39
 70
     1
102
RTVSPost2010Prop40
 90
        0
102
RTVSPost2010PropOp40
 70
     1
102
RTVSPost2010Prop41ColorIndex
 90
       18
102
RTVSPost2010Prop41ColorRGB
 90
        0
102
RTVSPost2010PropOp41
 70
     1
102
RTVSPost2010Prop42
 90
       50
102
RTVSPost2010PropOp42
 70
     1
102
RTVSPost2010Prop43
 90
        3
102
RTVSPost2010PropOp43
 70
     1
102
RTVSPost2010Prop44ColorIndex
 90
        5
102
RTVSPost2010Prop44ColorRGB
 90
      255
102
RTVSPost2010PropOp44
 70
     1
102
RTVSPost2010Prop45
280
     0
102
RTVSPost2010PropOp45
 70
     1
102
RTVSPost2010Prop46
 90
       50
102
RTVSPost2010PropOp46
 70
     1
102
RTVSPost2010Prop47
 90
       50
102
RTVSPost2010PropOp47
 70
     1
102
RTVSPost2010Prop48
 90
       50
102
RTVSPost2010PropOp48
 70
     1
102
RTVSPost2010Prop49
280
     0
102
RTVSPost2010PropOp49
 70
     1
102
RTVSPost2010Prop50
 90
       50
102
RTVSPost2010PropOp50
 70
     1
102
RTVSPost2010Prop51ColorIndex
 90
      256
102
RTVSPost2010Prop51ColorRGB
 90
-16777216
102
RTVSPost2010PropOp51
 70
     0
102
RTVSPost2010Prop52
140
1.0
102
RTVSPost2010PropOp52
 70
     0
102
RTVSPost2010Prop53
 90
        2
102
RTVSPost2010PropOp53
 70
     1
102
RTVSPost2010Prop54
  1
strokes_ogs.tif
102
RTVSPost2010PropOp54
 70
     1
102
RTVSPost2010Prop55
280
     0
102
RTVSPost2010PropOp55
 70
     1
102
RTVSPost2010Prop56
140
1.0
102
RTVSPost2010PropOp56
 70
     1
102
RTVSPost2010Prop57
140
1.0
102
RTVSPost2010PropOp57
 70
     1
  0
XRECORD
  5
104
102
{ACAD_REACTORS
330
103
102
}
330
103
100
AcDbXrecord
280
     1
102
RTVSPropertyOp0
 70
     1
102
RTVSPropertyOp1
 70
     1
102
RTVSPropertyOp2
 70
     1
102
RTVSPropertyOp3
 70
     1
102
RTVSPropertyOp4
 70
     1
102
RTVSPropertyOp5
 70
     1
102
RTVSPropertyOp6
 70
     1
102
RTVSPropertyOp7
 70
     1
102
RTVSPropertyOp8
 70
     1
102
RTVSPropertyOp9
 70
     1
102
RTVSPropertyOp10
 70
     1
102
RTVSPropertyOp11
 70
     1
102
RTVSPropertyOp12
 70
     1
102
RTVSPropertyOp13
 70
     1
102
RTVSPropertyOp14
 70
     1
102
RTVSPropertyOp15
 70
     1
102
RTVSPropertyOp16
 70
     1
102
RTVSPropertyOp17
 70
     1
102
RTVSPropertyOp18
 70
     1
102
RTVSPropertyOp19
 70
     1
102
RTVSPropertyOp20
 70
     1
102
RTVSPropertyOp21
 70
     1
102
RTVSPropertyOp22
 70
     1
102
RTVSPropertyOp23
 70
     1
102
RTVSPropertyOp24
 70
     1
102
RTVSPropertyOp25
 70
     1
102
RTVSPropertyOp26
 70
     1
102
RTVSPropertyOp27
 70
     1
102
RTVSPropertyOp28
 70
     1
102
RTVSPropertyOp29
 70
     1
102
RTVSPropertyOp30
 70
     1
102
RTVSPropertyOp31
 70
     1
102
RTVSPropertyOp32
 70
     1
102
RTVSPropertyOp33
 70
     1
102
RTVSPropertyOp34
 70
     1
102
RTVSPropertyOp35
 70
     1
102
RTVSPropertyOp36
 70
     1
102
RTVSPropertyOp37
 70
     1
102
RTVSPropertyOp38
 70
     1
102
RTVSPropertyOp39
 70
     1
102
RTVSPropertyOp40
 70
     1
102
RTVSPropertyOp41
 70
     1
102
RTVSPropertyOp42
 70
     1
102
RTVSPropertyOp43
 70
     1
102
RTVSPropertyOp44
 70
     1
102
RTVSPropertyOp45
 70
     1
102
RTVSPropertyOp46
 70
     1
102
RTVSPropertyOp47
 70
     1
102
RTVSPropertyOp48
 70
     1
102
RTVSPropertyOp49
 70
     1
102
RTVSPropertyOp50
 70
     1
102
RTVSPropertyOp51
 70
     0
102
RTVSPropertyOp52
 70
     0
102
RTVSPropertyOp53
 70
     1
102
RTVSPropertyOp54
 70
     1
102
RTVSPropertyOp55
 70
     1
102
RTVSPropertyOp56
 70
     1
102
RTVSPropertyOp57
 70
     1
102
RTVSPost2010Prop28
280
     0
102
RTVSPost2010PropOp28
 70
     1
102
RTVSPost2010Prop29
280
     1
102
RTVSPost2010PropOp29
 70
     1
102
RTVSPost2010Prop30
280
     1
102
RTVSPost2010PropOp30
 70
     1
102
RTVSPost2010Prop31
280
     0
102
RTVSPost2010PropOp31
 70
     1
102
RTVSPost2010Prop32
280
     0
102
RTVSPost2010PropOp32
 70
     1
102
RTVSPost2010Prop33
280
     0
102
RTVSPost2010PropOp33
 70
     1
102
RTVSPost2010Prop34
280
     0
102
RTVSPost2010PropOp34
 70
     1
102
RTVSPost2010Prop35
280
     0
102
RTVSPost2010PropOp35
 70
     1
102
RTVSPost2010Prop36
280
     0
102
RTVSPost2010PropOp36
 70
     1
102
RTVSPost2010Prop37
 90
       50
102
RTVSPost2010PropOp37
 70
     1
102
RTVSPost2010Prop38
140
0.0
102
RTVSPost2010PropOp38
 70
     1
102
RTVSPost2010Prop39
140
1.0
102
RTVSPost2010PropOp39
 70
     1
102
RTVSPost2010Prop40
 90
        0
102
RTVSPost2010PropOp40
 70
     1
102
RTVSPost2010Prop41ColorIndex
 90
       18
102
RTVSPost2010Prop41ColorRGB
 90
        0
102
RTVSPost2010PropOp41
 70
     1
102
RTVSPost2010Prop42
 90
       50
102
RTVSPost2010PropOp42
 70
     1
102
RTVSPost2010Prop43
 90
        3
102
RTVSPost2010PropOp43
 70
     1
102
RTVSPost2010Prop44ColorIndex
 90
        5
102
RTVSPost2010Prop44ColorRGB
 90
      255
102
RTVSPost2010PropOp44
 70
     1
102
RTVSPost2010Prop45
280
     0
102
RTVSPost2010PropOp45
 70
     1
102
RTVSPost2010Prop46
 90
       50
102
RTVSPost2010PropOp46
 70
     1
102
RTVSPost2010Prop47
 90
       50
102
RTVSPost2010PropOp47
 70
     1
102
RTVSPost2010Prop48
 90
       50
102
RTVSPost2010PropOp48
 70
     1
102
RTVSPost2010Prop49
280
     0
102
RTVSPost2010PropOp49
 70
     1
102
RTVSPost2010Prop50
 90
       50
102
RTVSPost2010PropOp50
 70
     1
102
RTVSPost2010Prop51ColorIndex
 90
      256
102
RTVSPost2010Prop51ColorRGB
 90
-16777216
102
RTVSPost2010PropOp51
 70
     0
102
RTVSPost2010Prop52
140
1.0
102
RTVSPost2010PropOp52
 70
     0
102
RTVSPost2010Prop53
 90
        2
102
RTVSPost2010PropOp53
 70
     1
102
RTVSPost2010Prop54
  1
strokes_ogs.tif
102
RTVSPost2010PropOp54
 70
     1
102
RTVSPost2010Prop55
280
     0
102
RTVSPost2010PropOp55
 70
     1
102
RTVSPost2010Prop56
140
1.0
102
RTVSPost2010PropOp56
 70
     1
102
RTVSPost2010Prop57
140
1.0
102
RTVSPost2010PropOp57
 70
     1
  0
XRECORD
  5
10A
102
{ACAD_REACTORS
330
109
102
}
330
109
100
AcDbXrecord
280
     1
102
RTVSPropertyOp0
 70
     1
102
RTVSPropertyOp1
 70
     1
102
RTVSPropertyOp2
 70
     1
102
RTVSPropertyOp3
 70
     1
102
RTVSPropertyOp4
 70
     1
102
RTVSPropertyOp5
 70
     1
102
RTVSPropertyOp6
 70
     1
102
RTVSPropertyOp7
 70
     1
102
RTVSPropertyOp8
 70
     1
102
RTVSPropertyOp9
 70
     1
102
RTVSPropertyOp10
 70
     1
102
RTVSPropertyOp11
 70
     1
102
RTVSPropertyOp12
 70
     1
102
RTVSPropertyOp13
 70
     1
102
RTVSPropertyOp14
 70
     1
102
RTVSPropertyOp15
 70
     1
102
RTVSPropertyOp16
 70
     1
102
RTVSPropertyOp17
 70
     1
102
RTVSPropertyOp18
 70
     1
102
RTVSPropertyOp19
 70
     1
102
RTVSPropertyOp20
 70
     1
102
RTVSPropertyOp21
 70
     1
102
RTVSPropertyOp22
 70
     1
102
RTVSPropertyOp23
 70
     1
102
RTVSPropertyOp24
 70
     1
102
RTVSPropertyOp25
 70
     1
102
RTVSPropertyOp26
 70
     1
102
RTVSPropertyOp27
 70
     1
102
RTVSPropertyOp28
 70
     1
102
RTVSPropertyOp29
 70
     1
102
RTVSPropertyOp30
 70
     1
102
RTVSPropertyOp31
 70
     1
102
RTVSPropertyOp32
 70
     1
102
RTVSPropertyOp33
 70
     1
102
RTVSPropertyOp34
 70
     1
102
RTVSPropertyOp35
 70
     1
102
RTVSPropertyOp36
 70
     1
102
RTVSPropertyOp37
 70
     1
102
RTVSPropertyOp38
 70
     1
102
RTVSPropertyOp39
 70
     1
102
RTVSPropertyOp40
 70
     1
102
RTVSPropertyOp41
 70
     1
102
RTVSPropertyOp42
 70
     1
102
RTVSPropertyOp43
 70
     1
102
RTVSPropertyOp44
 70
     1
102
RTVSPropertyOp45
 70
     1
102
RTVSPropertyOp46
 70
     1
102
RTVSPropertyOp47
 70
     1
102
RTVSPropertyOp48
 70
     1
102
RTVSPropertyOp49
 70
     1
102
RTVSPropertyOp50
 70
     1
102
RTVSPropertyOp51
 70
     0
102
RTVSPropertyOp52
 70
     0
102
RTVSPropertyOp53
 70
     1
102
RTVSPropertyOp54
 70
     1
102
RTVSPropertyOp55
 70
     1
102
RTVSPropertyOp56
 70
     1
102
RTVSPropertyOp57
 70
     1
102
RTVSPost2010Prop28
280
     0
102
RTVSPost2010PropOp28
 70
     1
102
RTVSPost2010Prop29
280
     1
102
RTVSPost2010PropOp29
 70
     1
102
RTVSPost2010Prop30
280
     1
102
RTVSPost2010PropOp30
 70
     1
102
RTVSPost2010Prop31
280
     0
102
RTVSPost2010PropOp31
 70
     1
102
RTVSPost2010Prop32
280
     0
102
RTVSPost2010PropOp32
 70
     1
102
RTVSPost2010Prop33
280
     0
102
RTVSPost2010PropOp33
 70
     1
102
RTVSPost2010Prop34
280
     0
102
RTVSPost2010PropOp34
 70
     1
102
RTVSPost2010Prop35
280
     0
102
RTVSPost2010PropOp35
 70
     1
102
RTVSPost2010Prop36
280
     0
102
RTVSPost2010PropOp36
 70
     1
102
RTVSPost2010Prop37
 90
       50
102
RTVSPost2010PropOp37
 70
     1
102
RTVSPost2010Prop38
140
0.0
102
RTVSPost2010PropOp38
 70
     1
102
RTVSPost2010Prop39
140
1.0
102
RTVSPost2010PropOp39
 70
     1
102
RTVSPost2010Prop40
 90
        0
102
RTVSPost2010PropOp40
 70
     1
102
RTVSPost2010Prop41ColorIndex
 90
       18
102
RTVSPost2010Prop41ColorRGB
 90
        0
102
RTVSPost2010PropOp41
 70
     1
102
RTVSPost2010Prop42
 90
       50
102
RTVSPost2010PropOp42
 70
     1
102
RTVSPost2010Prop43
 90
        3
102
RTVSPost2010PropOp43
 70
     1
102
RTVSPost2010Prop44ColorIndex
 90
        5
102
RTVSPost2010Prop44ColorRGB
 90
      255
102
RTVSPost2010PropOp44
 70
     1
102
RTVSPost2010Prop45
280
     0
102
RTVSPost2010PropOp45
 70
     1
102
RTVSPost2010Prop46
 90
       50
102
RTVSPost2010PropOp46
 70
     1
102
RTVSPost2010Prop47
 90
       50
102
RTVSPost2010PropOp47
 70
     1
102
RTVSPost2010Prop48
 90
       50
102
RTVSPost2010PropOp48
 70
     1
102
RTVSPost2010Prop49
280
     0
102
RTVSPost2010PropOp49
 70
     1
102
RTVSPost2010Prop50
 90
       50
102
RTVSPost2010PropOp50
 70
     1
102
RTVSPost2010Prop51ColorIndex
 90
      256
102
RTVSPost2010Prop51ColorRGB
 90
-16777216
102
RTVSPost2010PropOp51
 70
     0
102
RTVSPost2010Prop52
140
1.0
102
RTVSPost2010PropOp52
 70
     0
102
RTVSPost2010Prop53
 90
        2
102
RTVSPost2010PropOp53
 70
     1
102
RTVSPost2010Prop54
  1
strokes_ogs.tif
102
RTVSPost2010PropOp54
 70
     1
102
RTVSPost2010Prop55
280
     0
102
RTVSPost2010PropOp55
 70
     1
102
RTVSPost2010Prop56
140
1.0
102
RTVSPost2010PropOp56
 70
     1
102
RTVSPost2010Prop57
140
1.0
102
RTVSPost2010PropOp57
 70
     1
  0
XRECORD
  5
11E
102
{ACAD_REACTORS
330
11D
102
}
330
11D
100
AcDbXrecord
280
     1
102
RTVSPropertyOp0
 70
     0
102
RTVSPropertyOp1
 70
     0
102
RTVSPropertyOp2
 70
     0
102
RTVSPropertyOp3
 70
     0
102
RTVSPropertyOp4
 70
     0
102
RTVSPropertyOp5
 70
     0
102
RTVSPropertyOp6
 70
     0
102
RTVSPropertyOp7
 70
     0
102
RTVSPropertyOp8
 70
     0
102
RTVSPropertyOp9
 70
     0
102
RTVSPropertyOp10
 70
     0
102
RTVSPropertyOp11
 70
     0
102
RTVSPropertyOp12
 70
     0
102
RTVSPropertyOp13
 70
     0
102
RTVSPropertyOp14
 70
     2
102
RTVSPropertyOp15
 70
     0
102
RTVSPropertyOp16
 70
     0
102
RTVSPropertyOp17
 70
     0
102
RTVSPropertyOp18
 70
     0
102
RTVSPropertyOp19
 70
     0
102
RTVSPropertyOp20
 70
     0
102
RTVSPropertyOp21
 70
     0
102
RTVSPropertyOp22
 70
     0
102
RTVSPropertyOp23
 70
     0
102
RTVSPropertyOp24
 70
     0
102
RTVSPropertyOp25
 70
     0
102
RTVSPropertyOp26
 70
     0
102
RTVSPropertyOp27
 70
     0
102
RTVSPropertyOp28
 70
     0
102
RTVSPropertyOp29
 70
     0
102
RTVSPropertyOp30
 70
     0
102
RTVSPropertyOp31
 70
     0
102
RTVSPropertyOp32
 70
     0
102
RTVSPropertyOp33
 70
     0
102
RTVSPropertyOp34
 70
     0
102
RTVSPropertyOp35
 70
     0
102
RTVSPropertyOp36
 70
     0
102
RTVSPropertyOp37
 70
     0
102
RTVSPropertyOp38
 70
     0
102
RTVSPropertyOp39
 70
     0
102
RTVSPropertyOp40
 70
     0
102
RTVSPropertyOp41
 70
     0
102
RTVSPropertyOp42
 70
     0
102
RTVSPropertyOp43
 70
     0
102
RTVSPropertyOp44
 70
     0
102
RTVSPropertyOp45
 70
     0
102
RTVSPropertyOp46
 70
     0
102
RTVSPropertyOp47
 70
     0
102
RTVSPropertyOp48
 70
     0
102
RTVSPropertyOp49
 70
     0
102
RTVSPropertyOp50
 70
     0
102
RTVSPropertyOp51
 70
     0
102
RTVSPropertyOp52
 70
     0
102
RTVSPropertyOp53
 70
     0
102
RTVSPropertyOp54
 70
     0
102
RTVSPropertyOp55
 70
     0
102
RTVSPropertyOp56
 70
     0
102
RTVSPropertyOp57
 70
     0
102
RTVSPost2010Prop28
280
     0
102
RTVSPost2010PropOp28
 70
     0
102
RTVSPost2010Prop29
280
     1
102
RTVSPost2010PropOp29
 70
     0
102
RTVSPost2010Prop30
280
     1
102
RTVSPost2010PropOp30
 70
     0
102
RTVSPost2010Prop31
280
     0
102
RTVSPost2010PropOp31
 70
     0
102
RTVSPost2010Prop32
280
     0
102
RTVSPost2010PropOp32
 70
     0
102
RTVSPost2010Prop33
280
     0
102
RTVSPost2010PropOp33
 70
     0
102
RTVSPost2010Prop34
280
     0
102
RTVSPost2010PropOp34
 70
     0
102
RTVSPost2010Prop35
280
     0
102
RTVSPost2010PropOp35
 70
     0
102
RTVSPost2010Prop36
280
     0
102
RTVSPost2010PropOp36
 70
     0
102
RTVSPost2010Prop37
 90
       50
102
RTVSPost2010PropOp37
 70
     0
102
RTVSPost2010Prop38
140
0.0
102
RTVSPost2010PropOp38
 70
     0
102
RTVSPost2010Prop39
140
1.0
102
RTVSPost2010PropOp39
 70
     0
102
RTVSPost2010Prop40
 90
        0
102
RTVSPost2010PropOp40
 70
     0
102
RTVSPost2010Prop41ColorIndex
 90
       18
102
RTVSPost2010Prop41ColorRGB
 90
        0
102
RTVSPost2010PropOp41
 70
     0
102
RTVSPost2010Prop42
 90
       50
102
RTVSPost2010PropOp42
 70
     0
102
RTVSPost2010Prop43
 90
        3
102
RTVSPost2010PropOp43
 70
     0
102
RTVSPost2010Prop44ColorIndex
 90
        5
102
RTVSPost2010Prop44ColorRGB
 90
      255
102
RTVSPost2010PropOp44
 70
     0
102
RTVSPost2010Prop45
280
     0
102
RTVSPost2010PropOp45
 70
     0
102
RTVSPost2010Prop46
 90
       50
102
RTVSPost2010PropOp46
 70
     0
102
RTVSPost2010Prop47
 90
       50
102
RTVSPost2010PropOp47
 70
     0
102
RTVSPost2010Prop48
 90
       50
102
RTVSPost2010PropOp48
 70
     0
102
RTVSPost2010Prop49
280
     0
102
RTVSPost2010PropOp49
 70
     0
102
RTVSPost2010Prop50
 90
       50
102
RTVSPost2010PropOp50
 70
     0
102
RTVSPost2010Prop51ColorIndex
 90
      256
102
RTVSPost2010Prop51ColorRGB
 90
-16777216
102
RTVSPost2010PropOp51
 70
     0
102
RTVSPost2010Prop52
140
1.0
102
RTVSPost2010PropOp52
 70
     0
102
RTVSPost2010Prop53
 90
        2
102
RTVSPost2010PropOp53
 70
     0
102
RTVSPost2010Prop54
  1
strokes_ogs.tif
102
RTVSPost2010PropOp54
 70
     0
102
RTVSPost2010Prop55
280
     0
102
RTVSPost2010PropOp55
 70
     0
102
RTVSPost2010Prop56
140
1.0
102
RTVSPost2010PropOp56
 70
     0
102
RTVSPost2010Prop57
140
1.0
102
RTVSPost2010PropOp57
 70
     0
  0
XRECORD
  5
118
102
{ACAD_REACTORS
330
117
102
}
330
117
100
AcDbXrecord
280
     1
102
RTVSPropertyOp0
 70
     1
102
RTVSPropertyOp1
 70
     1
102
RTVSPropertyOp2
 70
     1
102
RTVSPropertyOp3
 70
     1
102
RTVSPropertyOp4
 70
     1
102
RTVSPropertyOp5
 70
     1
102
RTVSPropertyOp6
 70
     1
102
RTVSPropertyOp7
 70
     1
102
RTVSPropertyOp8
 70
     1
102
RTVSPropertyOp9
 70
     1
102
RTVSPropertyOp10
 70
     1
102
RTVSPropertyOp11
 70
     1
102
RTVSPropertyOp12
 70
     1
102
RTVSPropertyOp13
 70
     1
102
RTVSPropertyOp14
 70
     1
102
RTVSPropertyOp15
 70
     1
102
RTVSPropertyOp16
 70
     1
102
RTVSPropertyOp17
 70
     1
102
RTVSPropertyOp18
 70
     1
102
RTVSPropertyOp19
 70
     1
102
RTVSPropertyOp20
 70
     1
102
RTVSPropertyOp21
 70
     1
102
RTVSPropertyOp22
 70
     1
102
RTVSPropertyOp23
 70
     1
102
RTVSPropertyOp24
 70
     1
102
RTVSPropertyOp25
 70
     1
102
RTVSPropertyOp26
 70
     1
102
RTVSPropertyOp27
 70
     1
102
RTVSPropertyOp28
 70
     1
102
RTVSPropertyOp29
 70
     1
102
RTVSPropertyOp30
 70
     1
102
RTVSPropertyOp31
 70
     1
102
RTVSPropertyOp32
 70
     1
102
RTVSPropertyOp33
 70
     1
102
RTVSPropertyOp34
 70
     1
102
RTVSPropertyOp35
 70
     1
102
RTVSPropertyOp36
 70
     1
102
RTVSPropertyOp37
 70
     1
102
RTVSPropertyOp38
 70
     1
102
RTVSPropertyOp39
 70
     1
102
RTVSPropertyOp40
 70
     1
102
RTVSPropertyOp41
 70
     1
102
RTVSPropertyOp42
 70
     1
102
RTVSPropertyOp43
 70
     1
102
RTVSPropertyOp44
 70
     1
102
RTVSPropertyOp45
 70
     1
102
RTVSPropertyOp46
 70
     1
102
RTVSPropertyOp47
 70
     1
102
RTVSPropertyOp48
 70
     1
102
RTVSPropertyOp49
 70
     1
102
RTVSPropertyOp50
 70
     1
102
RTVSPropertyOp51
 70
     0
102
RTVSPropertyOp52
 70
     0
102
RTVSPropertyOp53
 70
     1
102
RTVSPropertyOp54
 70
     1
102
RTVSPropertyOp55
 70
     1
102
RTVSPropertyOp56
 70
     1
102
RTVSPropertyOp57
 70
     1
102
RTVSPost2010Prop28
280
     0
102
RTVSPost2010PropOp28
 70
     1
102
RTVSPost2010Prop29
280
     1
102
RTVSPost2010PropOp29
 70
     1
102
RTVSPost2010Prop30
280
     1
102
RTVSPost2010PropOp30
 70
     1
102
RTVSPost2010Prop31
280
     0
102
RTVSPost2010PropOp31
 70
     1
102
RTVSPost2010Prop32
280
     0
102
RTVSPost2010PropOp32
 70
     1
102
RTVSPost2010Prop33
280
     0
102
RTVSPost2010PropOp33
 70
     1
102
RTVSPost2010Prop34
280
     0
102
RTVSPost2010PropOp34
 70
     1
102
RTVSPost2010Prop35
280
     0
102
RTVSPost2010PropOp35
 70
     1
102
RTVSPost2010Prop36
280
     0
102
RTVSPost2010PropOp36
 70
     1
102
RTVSPost2010Prop37
 90
       50
102
RTVSPost2010PropOp37
 70
     1
102
RTVSPost2010Prop38
140
0.0
102
RTVSPost2010PropOp38
 70
     1
102
RTVSPost2010Prop39
140
1.0
102
RTVSPost2010PropOp39
 70
     1
102
RTVSPost2010Prop40
 90
        0
102
RTVSPost2010PropOp40
 70
     1
102
RTVSPost2010Prop41ColorIndex
 90
       18
102
RTVSPost2010Prop41ColorRGB
 90
        0
102
RTVSPost2010PropOp41
 70
     1
102
RTVSPost2010Prop42
 90
       50
102
RTVSPost2010PropOp42
 70
     1
102
RTVSPost2010Prop43
 90
        3
102
RTVSPost2010PropOp43
 70
     1
102
RTVSPost2010Prop44ColorIndex
 90
        5
102
RTVSPost2010Prop44ColorRGB
 90
      255
102
RTVSPost2010PropOp44
 70
     1
102
RTVSPost2010Prop45
280
     0
102
RTVSPost2010PropOp45
 70
     1
102
RTVSPost2010Prop46
 90
       50
102
RTVSPost2010PropOp46
 70
     1
102
RTVSPost2010Prop47
 90
       50
102
RTVSPost2010PropOp47
 70
     1
102
RTVSPost2010Prop48
 90
       50
102
RTVSPost2010PropOp48
 70
     1
102
RTVSPost2010Prop49
280
     0
102
RTVSPost2010PropOp49
 70
     1
102
RTVSPost2010Prop50
 90
       50
102
RTVSPost2010PropOp50
 70
     1
102
RTVSPost2010Prop51ColorIndex
 90
      256
102
RTVSPost2010Prop51ColorRGB
 90
-16777216
102
RTVSPost2010PropOp51
 70
     0
102
RTVSPost2010Prop52
140
1.0
102
RTVSPost2010PropOp52
 70
     0
102
RTVSPost2010Prop53
 90
        2
102
RTVSPost2010PropOp53
 70
     1
102
RTVSPost2010Prop54
  1
strokes_ogs.tif
102
RTVSPost2010PropOp54
 70
     1
102
RTVSPost2010Prop55
280
     0
102
RTVSPost2010PropOp55
 70
     1
102
RTVSPost2010Prop56
140
1.0
102
RTVSPost2010PropOp56
 70
     1
102
RTVSPost2010Prop57
140
1.0
102
RTVSPost2010PropOp57
 70
     1
  0
XRECORD
  5
120
102
{ACAD_REACTORS
330
11F
102
}
330
11F
100
AcDbXrecord
280
     1
102
RTVSPropertyOp0
 70
     0
102
RTVSPropertyOp1
 70
     0
102
RTVSPropertyOp2
 70
     0
102
RTVSPropertyOp3
 70
     0
102
RTVSPropertyOp4
 70
     0
102
RTVSPropertyOp5
 70
     0
102
RTVSPropertyOp6
 70
     0
102
RTVSPropertyOp7
 70
     0
102
RTVSPropertyOp8
 70
     0
102
RTVSPropertyOp9
 70
     0
102
RTVSPropertyOp10
 70
     0
102
RTVSPropertyOp11
 70
     0
102
RTVSPropertyOp12
 70
     0
102
RTVSPropertyOp13
 70
     0
102
RTVSPropertyOp14
 70
     2
102
RTVSPropertyOp15
 70
     0
102
RTVSPropertyOp16
 70
     0
102
RTVSPropertyOp17
 70
     0
102
RTVSPropertyOp18
 70
     0
102
RTVSPropertyOp19
 70
     0
102
RTVSPropertyOp20
 70
     0
102
RTVSPropertyOp21
 70
     0
102
RTVSPropertyOp22
 70
     0
102
RTVSPropertyOp23
 70
     0
102
RTVSPropertyOp24
 70
     0
102
RTVSPropertyOp25
 70
     0
102
RTVSPropertyOp26
 70
     0
102
RTVSPropertyOp27
 70
     0
102
RTVSPropertyOp28
 70
     0
102
RTVSPropertyOp29
 70
     0
102
RTVSPropertyOp30
 70
     0
102
RTVSPropertyOp31
 70
     0
102
RTVSPropertyOp32
 70
     0
102
RTVSPropertyOp33
 70
     0
102
RTVSPropertyOp34
 70
     0
102
RTVSPropertyOp35
 70
     0
102
RTVSPropertyOp36
 70
     0
102
RTVSPropertyOp37
 70
     0
102
RTVSPropertyOp38
 70
     0
102
RTVSPropertyOp39
 70
     0
102
RTVSPropertyOp40
 70
     0
102
RTVSPropertyOp41
 70
     0
102
RTVSPropertyOp42
 70
     0
102
RTVSPropertyOp43
 70
     0
102
RTVSPropertyOp44
 70
     0
102
RTVSPropertyOp45
 70
     0
102
RTVSPropertyOp46
 70
     0
102
RTVSPropertyOp47
 70
     0
102
RTVSPropertyOp48
 70
     0
102
RTVSPropertyOp49
 70
     0
102
RTVSPropertyOp50
 70
     0
102
RTVSPropertyOp51
 70
     0
102
RTVSPropertyOp52
 70
     0
102
RTVSPropertyOp53
 70
     0
102
RTVSPropertyOp54
 70
     0
102
RTVSPropertyOp55
 70
     0
102
RTVSPropertyOp56
 70
     0
102
RTVSPropertyOp57
 70
     0
102
RTVSPost2010Prop28
280
     0
102
RTVSPost2010PropOp28
 70
     0
102
RTVSPost2010Prop29
280
     1
102
RTVSPost2010PropOp29
 70
     0
102
RTVSPost2010Prop30
280
     1
102
RTVSPost2010PropOp30
 70
     0
102
RTVSPost2010Prop31
280
     0
102
RTVSPost2010PropOp31
 70
     0
102
RTVSPost2010Prop32
280
     0
102
RTVSPost2010PropOp32
 70
     0
102
RTVSPost2010Prop33
280
     0
102
RTVSPost2010PropOp33
 70
     0
102
RTVSPost2010Prop34
280
     0
102
RTVSPost2010PropOp34
 70
     0
102
RTVSPost2010Prop35
280
     0
102
RTVSPost2010PropOp35
 70
     0
102
RTVSPost2010Prop36
280
     0
102
RTVSPost2010PropOp36
 70
     0
102
RTVSPost2010Prop37
 90
       50
102
RTVSPost2010PropOp37
 70
     0
102
RTVSPost2010Prop38
140
0.0
102
RTVSPost2010PropOp38
 70
     0
102
RTVSPost2010Prop39
140
1.0
102
RTVSPost2010PropOp39
 70
     0
102
RTVSPost2010Prop40
 90
        0
102
RTVSPost2010PropOp40
 70
     0
102
RTVSPost2010Prop41ColorIndex
 90
       18
102
RTVSPost2010Prop41ColorRGB
 90
        0
102
RTVSPost2010PropOp41
 70
     0
102
RTVSPost2010Prop42
 90
       50
102
RTVSPost2010PropOp42
 70
     0
102
RTVSPost2010Prop43
 90
        3
102
RTVSPost2010PropOp43
 70
     0
102
RTVSPost2010Prop44ColorIndex
 90
        5
102
RTVSPost2010Prop44ColorRGB
 90
      255
102
RTVSPost2010PropOp44
 70
     0
102
RTVSPost2010Prop45
280
     0
102
RTVSPost2010PropOp45
 70
     0
102
RTVSPost2010Prop46
 90
       50
102
RTVSPost2010PropOp46
 70
     0
102
RTVSPost2010Prop47
 90
       50
102
RTVSPost2010PropOp47
 70
     0
102
RTVSPost2010Prop48
 90
       50
102
RTVSPost2010PropOp48
 70
     0
102
RTVSPost2010Prop49
280
     0
102
RTVSPost2010PropOp49
 70
     0
102
RTVSPost2010Prop50
 90
       50
102
RTVSPost2010PropOp50
 70
     0
102
RTVSPost2010Prop51ColorIndex
 90
      256
102
RTVSPost2010Prop51ColorRGB
 90
-16777216
102
RTVSPost2010PropOp51
 70
     0
102
RTVSPost2010Prop52
140
1.0
102
RTVSPost2010PropOp52
 70
     0
102
RTVSPost2010Prop53
 90
        2
102
RTVSPost2010PropOp53
 70
     0
102
RTVSPost2010Prop54
  1
strokes_ogs.tif
102
RTVSPost2010PropOp54
 70
     0
102
RTVSPost2010Prop55
280
     0
102
RTVSPost2010PropOp55
 70
     0
102
RTVSPost2010Prop56
140
1.0
102
RTVSPost2010PropOp56
 70
     0
102
RTVSPost2010Prop57
140
1.0
102
RTVSPost2010PropOp57
 70
     0
  0
XRECORD
  5
10E
102
{ACAD_REACTORS
330
10D
102
}
330
10D
100
AcDbXrecord
280
     1
102
RTVSPropertyOp0
 70
     1
102
RTVSPropertyOp1
 70
     1
102
RTVSPropertyOp2
 70
     1
102
RTVSPropertyOp3
 70
     1
102
RTVSPropertyOp4
 70
     1
102
RTVSPropertyOp5
 70
     1
102
RTVSPropertyOp6
 70
     1
102
RTVSPropertyOp7
 70
     1
102
RTVSPropertyOp8
 70
     1
102
RTVSPropertyOp9
 70
     1
102
RTVSPropertyOp10
 70
     1
102
RTVSPropertyOp11
 70
     1
102
RTVSPropertyOp12
 70
     1
102
RTVSPropertyOp13
 70
     1
102
RTVSPropertyOp14
 70
     1
102
RTVSPropertyOp15
 70
     1
102
RTVSPropertyOp16
 70
     1
102
RTVSPropertyOp17
 70
     1
102
RTVSPropertyOp18
 70
     1
102
RTVSPropertyOp19
 70
     1
102
RTVSPropertyOp20
 70
     1
102
RTVSPropertyOp21
 70
     1
102
RTVSPropertyOp22
 70
     1
102
RTVSPropertyOp23
 70
     1
102
RTVSPropertyOp24
 70
     1
102
RTVSPropertyOp25
 70
     1
102
RTVSPropertyOp26
 70
     1
102
RTVSPropertyOp27
 70
     1
102
RTVSPropertyOp28
 70
     1
102
RTVSPropertyOp29
 70
     1
102
RTVSPropertyOp30
 70
     1
102
RTVSPropertyOp31
 70
     1
102
RTVSPropertyOp32
 70
     1
102
RTVSPropertyOp33
 70
     1
102
RTVSPropertyOp34
 70
     1
102
RTVSPropertyOp35
 70
     1
102
RTVSPropertyOp36
 70
     1
102
RTVSPropertyOp37
 70
     1
102
RTVSPropertyOp38
 70
     1
102
RTVSPropertyOp39
 70
     1
102
RTVSPropertyOp40
 70
     1
102
RTVSPropertyOp41
 70
     1
102
RTVSPropertyOp42
 70
     1
102
RTVSPropertyOp43
 70
     1
102
RTVSPropertyOp44
 70
     1
102
RTVSPropertyOp45
 70
     1
102
RTVSPropertyOp46
 70
     1
102
RTVSPropertyOp47
 70
     1
102
RTVSPropertyOp48
 70
     1
102
RTVSPropertyOp49
 70
     1
102
RTVSPropertyOp50
 70
     1
102
RTVSPropertyOp51
 70
     0
102
RTVSPropertyOp52
 70
     0
102
RTVSPropertyOp53
 70
     1
102
RTVSPropertyOp54
 70
     1
102
RTVSPropertyOp55
 70
     1
102
RTVSPropertyOp56
 70
     1
102
RTVSPropertyOp57
 70
     1
102
RTVSPost2010Prop28
280
     0
102
RTVSPost2010PropOp28
 70
     1
102
RTVSPost2010Prop29
280
     1
102
RTVSPost2010PropOp29
 70
     1
102
RTVSPost2010Prop30
280
     1
102
RTVSPost2010PropOp30
 70
     1
102
RTVSPost2010Prop31
280
     0
102
RTVSPost2010PropOp31
 70
     1
102
RTVSPost2010Prop32
280
     0
102
RTVSPost2010PropOp32
 70
     1
102
RTVSPost2010Prop33
280
     0
102
RTVSPost2010PropOp33
 70
     1
102
RTVSPost2010Prop34
280
     0
102
RTVSPost2010PropOp34
 70
     1
102
RTVSPost2010Prop35
280
     0
102
RTVSPost2010PropOp35
 70
     1
102
RTVSPost2010Prop36
280
     0
102
RTVSPost2010PropOp36
 70
     1
102
RTVSPost2010Prop37
 90
       50
102
RTVSPost2010PropOp37
 70
     1
102
RTVSPost2010Prop38
140
0.0
102
RTVSPost2010PropOp38
 70
     1
102
RTVSPost2010Prop39
140
1.0
102
RTVSPost2010PropOp39
 70
     1
102
RTVSPost2010Prop40
 90
        0
102
RTVSPost2010PropOp40
 70
     1
102
RTVSPost2010Prop41ColorIndex
 90
       18
102
RTVSPost2010Prop41ColorRGB
 90
        0
102
RTVSPost2010PropOp41
 70
     1
102
RTVSPost2010Prop42
 90
       50
102
RTVSPost2010PropOp42
 70
     1
102
RTVSPost2010Prop43
 90
        3
102
RTVSPost2010PropOp43
 70
     1
102
RTVSPost2010Prop44ColorIndex
 90
        5
102
RTVSPost2010Prop44ColorRGB
 90
      255
102
RTVSPost2010PropOp44
 70
     1
102
RTVSPost2010Prop45
280
     0
102
RTVSPost2010PropOp45
 70
     1
102
RTVSPost2010Prop46
 90
       50
102
RTVSPost2010PropOp46
 70
     1
102
RTVSPost2010Prop47
 90
       50
102
RTVSPost2010PropOp47
 70
     1
102
RTVSPost2010Prop48
 90
       50
102
RTVSPost2010PropOp48
 70
     1
102
RTVSPost2010Prop49
280
     0
102
RTVSPost2010PropOp49
 70
     1
102
RTVSPost2010Prop50
 90
       50
102
RTVSPost2010PropOp50
 70
     1
102
RTVSPost2010Prop51ColorIndex
 90
      256
102
RTVSPost2010Prop51ColorRGB
 90
-16777216
102
RTVSPost2010PropOp51
 70
     0
102
RTVSPost2010Prop52
140
1.0
102
RTVSPost2010PropOp52
 70
     0
102
RTVSPost2010Prop53
 90
        2
102
RTVSPost2010PropOp53
 70
     1
102
RTVSPost2010Prop54
  1
strokes_ogs.tif
102
RTVSPost2010PropOp54
 70
     1
102
RTVSPost2010Prop55
280
     0
102
RTVSPost2010PropOp55
 70
     1
102
RTVSPost2010Prop56
140
1.0
102
RTVSPost2010PropOp56
 70
     1
102
RTVSPost2010Prop57
140
1.0
102
RTVSPost2010PropOp57
 70
     1
  0
XRECORD
  5
12C
102
{ACAD_REACTORS
330
12B
102
}
330
12B
100
AcDbXrecord
280
     1
102
RTVSPropertyOp0
 70
     1
102
RTVSPropertyOp1
 70
     1
102
RTVSPropertyOp2
 70
     1
102
RTVSPropertyOp3
 70
     1
102
RTVSPropertyOp4
 70
     1
102
RTVSPropertyOp5
 70
     1
102
RTVSPropertyOp6
 70
     1
102
RTVSPropertyOp7
 70
     1
102
RTVSPropertyOp8
 70
     1
102
RTVSPropertyOp9
 70
     1
102
RTVSPropertyOp10
 70
     1
102
RTVSPropertyOp11
 70
     1
102
RTVSPropertyOp12
 70
     1
102
RTVSPropertyOp13
 70
     1
102
RTVSPropertyOp14
 70
     1
102
RTVSPropertyOp15
 70
     1
102
RTVSPropertyOp16
 70
     1
102
RTVSPropertyOp17
 70
     1
102
RTVSPropertyOp18
 70
     1
102
RTVSPropertyOp19
 70
     1
102
RTVSPropertyOp20
 70
     1
102
RTVSPropertyOp21
 70
     1
102
RTVSPropertyOp22
 70
     1
102
RTVSPropertyOp23
 70
     1
102
RTVSPropertyOp24
 70
     1
102
RTVSPropertyOp25
 70
     1
102
RTVSPropertyOp26
 70
     1
102
RTVSPropertyOp27
 70
     1
102
RTVSPropertyOp28
 70
     1
102
RTVSPropertyOp29
 70
     1
102
RTVSPropertyOp30
 70
     1
102
RTVSPropertyOp31
 70
     1
102
RTVSPropertyOp32
 70
     1
102
RTVSPropertyOp33
 70
     1
102
RTVSPropertyOp34
 70
     1
102
RTVSPropertyOp35
 70
     1
102
RTVSPropertyOp36
 70
     1
102
RTVSPropertyOp37
 70
     1
102
RTVSPropertyOp38
 70
     1
102
RTVSPropertyOp39
 70
     1
102
RTVSPropertyOp40
 70
     1
102
RTVSPropertyOp41
 70
     1
102
RTVSPropertyOp42
 70
     1
102
RTVSPropertyOp43
 70
     1
102
RTVSPropertyOp44
 70
     1
102
RTVSPropertyOp45
 70
     1
102
RTVSPropertyOp46
 70
     1
102
RTVSPropertyOp47
 70
     1
102
RTVSPropertyOp48
 70
     1
102
RTVSPropertyOp49
 70
     1
102
RTVSPropertyOp50
 70
     1
102
RTVSPropertyOp51
 70
     0
102
RTVSPropertyOp52
 70
     0
102
RTVSPropertyOp53
 70
     1
102
RTVSPropertyOp54
 70
     1
102
RTVSPropertyOp55
 70
     1
102
RTVSPropertyOp56
 70
     1
102
RTVSPropertyOp57
 70
     1
102
RTVSPost2010Prop28
280
     0
102
RTVSPost2010PropOp28
 70
     1
102
RTVSPost2010Prop29
280
     1
102
RTVSPost2010PropOp29
 70
     1
102
RTVSPost2010Prop30
280
     1
102
RTVSPost2010PropOp30
 70
     1
102
RTVSPost2010Prop31
280
     0
102
RTVSPost2010PropOp31
 70
     1
102
RTVSPost2010Prop32
280
     0
102
RTVSPost2010PropOp32
 70
     1
102
RTVSPost2010Prop33
280
     0
102
RTVSPost2010PropOp33
 70
     1
102
RTVSPost2010Prop34
280
     0
102
RTVSPost2010PropOp34
 70
     1
102
RTVSPost2010Prop35
280
     0
102
RTVSPost2010PropOp35
 70
     1
102
RTVSPost2010Prop36
280
     0
102
RTVSPost2010PropOp36
 70
     1
102
RTVSPost2010Prop37
 90
       50
102
RTVSPost2010PropOp37
 70
     1
102
RTVSPost2010Prop38
140
0.0
102
RTVSPost2010PropOp38
 70
     1
102
RTVSPost2010Prop39
140
1.0
102
RTVSPost2010PropOp39
 70
     1
102
RTVSPost2010Prop40
 90
        0
102
RTVSPost2010PropOp40
 70
     1
102
RTVSPost2010Prop41ColorIndex
 90
       18
102
RTVSPost2010Prop41ColorRGB
 90
        0
102
RTVSPost2010PropOp41
 70
     1
102
RTVSPost2010Prop42
 90
       50
102
RTVSPost2010PropOp42
 70
     1
102
RTVSPost2010Prop43
 90
        3
102
RTVSPost2010PropOp43
 70
     1
102
RTVSPost2010Prop44ColorIndex
 90
        5
102
RTVSPost2010Prop44ColorRGB
 90
      255
102
RTVSPost2010PropOp44
 70
     1
102
RTVSPost2010Prop45
280
     0
102
RTVSPost2010PropOp45
 70
     1
102
RTVSPost2010Prop46
 90
       50
102
RTVSPost2010PropOp46
 70
     1
102
RTVSPost2010Prop47
 90
       50
102
RTVSPost2010PropOp47
 70
     1
102
RTVSPost2010Prop48
 90
       50
102
RTVSPost2010PropOp48
 70
     1
102
RTVSPost2010Prop49
280
     0
102
RTVSPost2010PropOp49
 70
     1
102
RTVSPost2010Prop50
 90
       50
102
RTVSPost2010PropOp50
 70
     1
102
RTVSPost2010Prop51ColorIndex
 90
      256
102
RTVSPost2010Prop51ColorRGB
 90
-16777216
102
RTVSPost2010PropOp51
 70
     0
102
RTVSPost2010Prop52
140
1.0
102
RTVSPost2010PropOp52
 70
     0
102
RTVSPost2010Prop53
 90
        2
102
RTVSPost2010PropOp53
 70
     1
102
RTVSPost2010Prop54
  1
strokes_ogs.tif
102
RTVSPost2010PropOp54
 70
     1
102
RTVSPost2010Prop55
280
     0
102
RTVSPost2010PropOp55
 70
     1
102
RTVSPost2010Prop56
140
1.0
102
RTVSPost2010PropOp56
 70
     1
102
RTVSPost2010Prop57
140
1.0
102
RTVSPost2010PropOp57
 70
     1
  0
XRECORD
  5
12A
102
{ACAD_REACTORS
330
129
102
}
330
129
100
AcDbXrecord
280
     1
102
RTVSPropertyOp0
 70
     1
102
RTVSPropertyOp1
 70
     1
102
RTVSPropertyOp2
 70
     1
102
RTVSPropertyOp3
 70
     1
102
RTVSPropertyOp4
 70
     1
102
RTVSPropertyOp5
 70
     1
102
RTVSPropertyOp6
 70
     1
102
RTVSPropertyOp7
 70
     1
102
RTVSPropertyOp8
 70
     1
102
RTVSPropertyOp9
 70
     1
102
RTVSPropertyOp10
 70
     1
102
RTVSPropertyOp11
 70
     1
102
RTVSPropertyOp12
 70
     1
102
RTVSPropertyOp13
 70
     1
102
RTVSPropertyOp14
 70
     1
102
RTVSPropertyOp15
 70
     1
102
RTVSPropertyOp16
 70
     1
102
RTVSPropertyOp17
 70
     1
102
RTVSPropertyOp18
 70
     1
102
RTVSPropertyOp19
 70
     1
102
RTVSPropertyOp20
 70
     1
102
RTVSPropertyOp21
 70
     1
102
RTVSPropertyOp22
 70
     1
102
RTVSPropertyOp23
 70
     1
102
RTVSPropertyOp24
 70
     1
102
RTVSPropertyOp25
 70
     1
102
RTVSPropertyOp26
 70
     1
102
RTVSPropertyOp27
 70
     1
102
RTVSPropertyOp28
 70
     1
102
RTVSPropertyOp29
 70
     1
102
RTVSPropertyOp30
 70
     1
102
RTVSPropertyOp31
 70
     1
102
RTVSPropertyOp32
 70
     1
102
RTVSPropertyOp33
 70
     1
102
RTVSPropertyOp34
 70
     1
102
RTVSPropertyOp35
 70
     1
102
RTVSPropertyOp36
 70
     1
102
RTVSPropertyOp37
 70
     1
102
RTVSPropertyOp38
 70
     1
102
RTVSPropertyOp39
 70
     1
102
RTVSPropertyOp40
 70
     1
102
RTVSPropertyOp41
 70
     1
102
RTVSPropertyOp42
 70
     1
102
RTVSPropertyOp43
 70
     1
102
RTVSPropertyOp44
 70
     1
102
RTVSPropertyOp45
 70
     1
102
RTVSPropertyOp46
 70
     1
102
RTVSPropertyOp47
 70
     1
102
RTVSPropertyOp48
 70
     1
102
RTVSPropertyOp49
 70
     1
102
RTVSPropertyOp50
 70
     1
102
RTVSPropertyOp51
 70
     0
102
RTVSPropertyOp52
 70
     0
102
RTVSPropertyOp53
 70
     1
102
RTVSPropertyOp54
 70
     1
102
RTVSPropertyOp55
 70
     1
102
RTVSPropertyOp56
 70
     1
102
RTVSPropertyOp57
 70
     1
102
RTVSPost2010Prop28
280
     0
102
RTVSPost2010PropOp28
 70
     1
102
RTVSPost2010Prop29
280
     1
102
RTVSPost2010PropOp29
 70
     1
102
RTVSPost2010Prop30
280
     1
102
RTVSPost2010PropOp30
 70
     1
102
RTVSPost2010Prop31
280
     0
102
RTVSPost2010PropOp31
 70
     1
102
RTVSPost2010Prop32
280
     0
102
RTVSPost2010PropOp32
 70
     1
102
RTVSPost2010Prop33
280
     0
102
RTVSPost2010PropOp33
 70
     1
102
RTVSPost2010Prop34
280
     0
102
RTVSPost2010PropOp34
 70
     1
102
RTVSPost2010Prop35
280
     0
102
RTVSPost2010PropOp35
 70
     1
102
RTVSPost2010Prop36
280
     0
102
RTVSPost2010PropOp36
 70
     1
102
RTVSPost2010Prop37
 90
       50
102
RTVSPost2010PropOp37
 70
     1
102
RTVSPost2010Prop38
140
0.0
102
RTVSPost2010PropOp38
 70
     1
102
RTVSPost2010Prop39
140
1.0
102
RTVSPost2010PropOp39
 70
     1
102
RTVSPost2010Prop40
 90
        0
102
RTVSPost2010PropOp40
 70
     1
102
RTVSPost2010Prop41ColorIndex
 90
       18
102
RTVSPost2010Prop41ColorRGB
 90
        0
102
RTVSPost2010PropOp41
 70
     1
102
RTVSPost2010Prop42
 90
       50
102
RTVSPost2010PropOp42
 70
     1
102
RTVSPost2010Prop43
 90
        3
102
RTVSPost2010PropOp43
 70
     1
102
RTVSPost2010Prop44ColorIndex
 90
        5
102
RTVSPost2010Prop44ColorRGB
 90
      255
102
RTVSPost2010PropOp44
 70
     1
102
RTVSPost2010Prop45
280
     0
102
RTVSPost2010PropOp45
 70
     1
102
RTVSPost2010Prop46
 90
       50
102
RTVSPost2010PropOp46
 70
     1
102
RTVSPost2010Prop47
 90
       50
102
RTVSPost2010PropOp47
 70
     1
102
RTVSPost2010Prop48
 90
       50
102
RTVSPost2010PropOp48
 70
     1
102
RTVSPost2010Prop49
280
     0
102
RTVSPost2010PropOp49
 70
     1
102
RTVSPost2010Prop50
 90
       50
102
RTVSPost2010PropOp50
 70
     1
102
RTVSPost2010Prop51ColorIndex
 90
      256
102
RTVSPost2010Prop51ColorRGB
 90
-16777216
102
RTVSPost2010PropOp51
 70
     0
102
RTVSPost2010Prop52
140
1.0
102
RTVSPost2010PropOp52
 70
     0
102
RTVSPost2010Prop53
 90
        2
102
RTVSPost2010PropOp53
 70
     1
102
RTVSPost2010Prop54
  1
strokes_ogs.tif
102
RTVSPost2010PropOp54
 70
     1
102
RTVSPost2010Prop55
280
     0
102
RTVSPost2010PropOp55
 70
     1
102
RTVSPost2010Prop56
140
1.0
102
RTVSPost2010PropOp56
 70
     1
102
RTVSPost2010Prop57
140
1.0
102
RTVSPost2010PropOp57
 70
     1
  0
XRECORD
  5
124
102
{ACAD_REACTORS
330
123
102
}
330
123
100
AcDbXrecord
280
     1
102
RTVSPropertyOp0
 70
     1
102
RTVSPropertyOp1
 70
     1
102
RTVSPropertyOp2
 70
     1
102
RTVSPropertyOp3
 70
     1
102
RTVSPropertyOp4
 70
     1
102
RTVSPropertyOp5
 70
     1
102
RTVSPropertyOp6
 70
     1
102
RTVSPropertyOp7
 70
     1
102
RTVSPropertyOp8
 70
     1
102
RTVSPropertyOp9
 70
     1
102
RTVSPropertyOp10
 70
     1
102
RTVSPropertyOp11
 70
     1
102
RTVSPropertyOp12
 70
     1
102
RTVSPropertyOp13
 70
     1
102
RTVSPropertyOp14
 70
     1
102
RTVSPropertyOp15
 70
     1
102
RTVSPropertyOp16
 70
     1
102
RTVSPropertyOp17
 70
     1
102
RTVSPropertyOp18
 70
     1
102
RTVSPropertyOp19
 70
     1
102
RTVSPropertyOp20
 70
     1
102
RTVSPropertyOp21
 70
     1
102
RTVSPropertyOp22
 70
     1
102
RTVSPropertyOp23
 70
     1
102
RTVSPropertyOp24
 70
     1
102
RTVSPropertyOp25
 70
     1
102
RTVSPropertyOp26
 70
     1
102
RTVSPropertyOp27
 70
     1
102
RTVSPropertyOp28
 70
     1
102
RTVSPropertyOp29
 70
     1
102
RTVSPropertyOp30
 70
     1
102
RTVSPropertyOp31
 70
     1
102
RTVSPropertyOp32
 70
     1
102
RTVSPropertyOp33
 70
     1
102
RTVSPropertyOp34
 70
     1
102
RTVSPropertyOp35
 70
     1
102
RTVSPropertyOp36
 70
     1
102
RTVSPropertyOp37
 70
     1
102
RTVSPropertyOp38
 70
     1
102
RTVSPropertyOp39
 70
     1
102
RTVSPropertyOp40
 70
     1
102
RTVSPropertyOp41
 70
     1
102
RTVSPropertyOp42
 70
     1
102
RTVSPropertyOp43
 70
     1
102
RTVSPropertyOp44
 70
     1
102
RTVSPropertyOp45
 70
     1
102
RTVSPropertyOp46
 70
     1
102
RTVSPropertyOp47
 70
     1
102
RTVSPropertyOp48
 70
     1
102
RTVSPropertyOp49
 70
     1
102
RTVSPropertyOp50
 70
     1
102
RTVSPropertyOp51
 70
     0
102
RTVSPropertyOp52
 70
     0
102
RTVSPropertyOp53
 70
     1
102
RTVSPropertyOp54
 70
     1
102
RTVSPropertyOp55
 70
     1
102
RTVSPropertyOp56
 70
     1
102
RTVSPropertyOp57
 70
     1
102
RTVSPost2010Prop28
280
     0
102
RTVSPost2010PropOp28
 70
     1
102
RTVSPost2010Prop29
280
     1
102
RTVSPost2010PropOp29
 70
     1
102
RTVSPost2010Prop30
280
     1
102
RTVSPost2010PropOp30
 70
     1
102
RTVSPost2010Prop31
280
     0
102
RTVSPost2010PropOp31
 70
     1
102
RTVSPost2010Prop32
280
     0
102
RTVSPost2010PropOp32
 70
     1
102
RTVSPost2010Prop33
280
     0
102
RTVSPost2010PropOp33
 70
     1
102
RTVSPost2010Prop34
280
     0
102
RTVSPost2010PropOp34
 70
     1
102
RTVSPost2010Prop35
280
     0
102
RTVSPost2010PropOp35
 70
     1
102
RTVSPost2010Prop36
280
     0
102
RTVSPost2010PropOp36
 70
     1
102
RTVSPost2010Prop37
 90
       50
102
RTVSPost2010PropOp37
 70
     1
102
RTVSPost2010Prop38
140
0.0
102
RTVSPost2010PropOp38
 70
     1
102
RTVSPost2010Prop39
140
1.0
102
RTVSPost2010PropOp39
 70
     1
102
RTVSPost2010Prop40
 90
        0
102
RTVSPost2010PropOp40
 70
     1
102
RTVSPost2010Prop41ColorIndex
 90
       18
102
RTVSPost2010Prop41ColorRGB
 90
        0
102
RTVSPost2010PropOp41
 70
     1
102
RTVSPost2010Prop42
 90
       50
102
RTVSPost2010PropOp42
 70
     1
102
RTVSPost2010Prop43
 90
        3
102
RTVSPost2010PropOp43
 70
     1
102
RTVSPost2010Prop44ColorIndex
 90
        5
102
RTVSPost2010Prop44ColorRGB
 90
      255
102
RTVSPost2010PropOp44
 70
     1
102
RTVSPost2010Prop45
280
     0
102
RTVSPost2010PropOp45
 70
     1
102
RTVSPost2010Prop46
 90
       50
102
RTVSPost2010PropOp46
 70
     1
102
RTVSPost2010Prop47
 90
       50
102
RTVSPost2010PropOp47
 70
     1
102
RTVSPost2010Prop48
 90
       50
102
RTVSPost2010PropOp48
 70
     1
102
RTVSPost2010Prop49
280
     0
102
RTVSPost2010PropOp49
 70
     1
102
RTVSPost2010Prop50
 90
       50
102
RTVSPost2010PropOp50
 70
     1
102
RTVSPost2010Prop51ColorIndex
 90
      256
102
RTVSPost2010Prop51ColorRGB
 90
-16777216
102
RTVSPost2010PropOp51
 70
     0
102
RTVSPost2010Prop52
140
1.0
102
RTVSPost2010PropOp52
 70
     0
102
RTVSPost2010Prop53
 90
        2
102
RTVSPost2010PropOp53
 70
     1
102
RTVSPost2010Prop54
  1
strokes_ogs.tif
102
RTVSPost2010PropOp54
 70
     1
102
RTVSPost2010Prop55
280
     0
102
RTVSPost2010PropOp55
 70
     1
102
RTVSPost2010Prop56
140
1.0
102
RTVSPost2010PropOp56
 70
     1
102
RTVSPost2010Prop57
140
1.0
102
RTVSPost2010PropOp57
 70
     1
  0
XRECORD
  5
126
102
{ACAD_REACTORS
330
125
102
}
330
125
100
AcDbXrecord
280
     1
102
RTVSPropertyOp0
 70
     1
102
RTVSPropertyOp1
 70
     1
102
RTVSPropertyOp2
 70
     1
102
RTVSPropertyOp3
 70
     1
102
RTVSPropertyOp4
 70
     1
102
RTVSPropertyOp5
 70
     1
102
RTVSPropertyOp6
 70
     1
102
RTVSPropertyOp7
 70
     1
102
RTVSPropertyOp8
 70
     1
102
RTVSPropertyOp9
 70
     1
102
RTVSPropertyOp10
 70
     1
102
RTVSPropertyOp11
 70
     1
102
RTVSPropertyOp12
 70
     1
102
RTVSPropertyOp13
 70
     1
102
RTVSPropertyOp14
 70
     1
102
RTVSPropertyOp15
 70
     1
102
RTVSPropertyOp16
 70
     1
102
RTVSPropertyOp17
 70
     1
102
RTVSPropertyOp18
 70
     1
102
RTVSPropertyOp19
 70
     1
102
RTVSPropertyOp20
 70
     1
102
RTVSPropertyOp21
 70
     1
102
RTVSPropertyOp22
 70
     1
102
RTVSPropertyOp23
 70
     1
102
RTVSPropertyOp24
 70
     1
102
RTVSPropertyOp25
 70
     1
102
RTVSPropertyOp26
 70
     1
102
RTVSPropertyOp27
 70
     1
102
RTVSPropertyOp28
 70
     1
102
RTVSPropertyOp29
 70
     1
102
RTVSPropertyOp30
 70
     1
102
RTVSPropertyOp31
 70
     1
102
RTVSPropertyOp32
 70
     1
102
RTVSPropertyOp33
 70
     1
102
RTVSPropertyOp34
 70
     1
102
RTVSPropertyOp35
 70
     1
102
RTVSPropertyOp36
 70
     1
102
RTVSPropertyOp37
 70
     1
102
RTVSPropertyOp38
 70
     1
102
RTVSPropertyOp39
 70
     1
102
RTVSPropertyOp40
 70
     1
102
RTVSPropertyOp41
 70
     1
102
RTVSPropertyOp42
 70
     1
102
RTVSPropertyOp43
 70
     1
102
RTVSPropertyOp44
 70
     1
102
RTVSPropertyOp45
 70
     1
102
RTVSPropertyOp46
 70
     1
102
RTVSPropertyOp47
 70
     1
102
RTVSPropertyOp48
 70
     1
102
RTVSPropertyOp49
 70
     1
102
RTVSPropertyOp50
 70
     1
102
RTVSPropertyOp51
 70
     0
102
RTVSPropertyOp52
 70
     0
102
RTVSPropertyOp53
 70
     1
102
RTVSPropertyOp54
 70
     1
102
RTVSPropertyOp55
 70
     1
102
RTVSPropertyOp56
 70
     1
102
RTVSPropertyOp57
 70
     1
102
RTVSPost2010Prop28
280
     0
102
RTVSPost2010PropOp28
 70
     1
102
RTVSPost2010Prop29
280
     1
102
RTVSPost2010PropOp29
 70
     1
102
RTVSPost2010Prop30
280
     1
102
RTVSPost2010PropOp30
 70
     1
102
RTVSPost2010Prop31
280
     0
102
RTVSPost2010PropOp31
 70
     1
102
RTVSPost2010Prop32
280
     0
102
RTVSPost2010PropOp32
 70
     1
102
RTVSPost2010Prop33
280
     0
102
RTVSPost2010PropOp33
 70
     1
102
RTVSPost2010Prop34
280
     0
102
RTVSPost2010PropOp34
 70
     1
102
RTVSPost2010Prop35
280
     0
102
RTVSPost2010PropOp35
 70
     1
102
RTVSPost2010Prop36
280
     0
102
RTVSPost2010PropOp36
 70
     1
102
RTVSPost2010Prop37
 90
       50
102
RTVSPost2010PropOp37
 70
     1
102
RTVSPost2010Prop38
140
0.0
102
RTVSPost2010PropOp38
 70
     1
102
RTVSPost2010Prop39
140
1.0
102
RTVSPost2010PropOp39
 70
     1
102
RTVSPost2010Prop40
 90
        0
102
RTVSPost2010PropOp40
 70
     1
102
RTVSPost2010Prop41ColorIndex
 90
       18
102
RTVSPost2010Prop41ColorRGB
 90
        0
102
RTVSPost2010PropOp41
 70
     1
102
RTVSPost2010Prop42
 90
       50
102
RTVSPost2010PropOp42
 70
     1
102
RTVSPost2010Prop43
 90
        3
102
RTVSPost2010PropOp43
 70
     1
102
RTVSPost2010Prop44ColorIndex
 90
        5
102
RTVSPost2010Prop44ColorRGB
 90
      255
102
RTVSPost2010PropOp44
 70
     1
102
RTVSPost2010Prop45
280
     0
102
RTVSPost2010PropOp45
 70
     1
102
RTVSPost2010Prop46
 90
       50
102
RTVSPost2010PropOp46
 70
     1
102
RTVSPost2010Prop47
 90
       50
102
RTVSPost2010PropOp47
 70
     1
102
RTVSPost2010Prop48
 90
       50
102
RTVSPost2010PropOp48
 70
     1
102
RTVSPost2010Prop49
280
     0
102
RTVSPost2010PropOp49
 70
     1
102
RTVSPost2010Prop50
 90
       50
102
RTVSPost2010PropOp50
 70
     1
102
RTVSPost2010Prop51ColorIndex
 90
      256
102
RTVSPost2010Prop51ColorRGB
 90
-16777216
102
RTVSPost2010PropOp51
 70
     0
102
RTVSPost2010Prop52
140
1.0
102
RTVSPost2010PropOp52
 70
     0
102
RTVSPost2010Prop53
 90
        2
102
RTVSPost2010PropOp53
 70
     1
102
RTVSPost2010Prop54
  1
strokes_ogs.tif
102
RTVSPost2010PropOp54
 70
     1
102
RTVSPost2010Prop55
280
     0
102
RTVSPost2010PropOp55
 70
     1
102
RTVSPost2010Prop56
140
1.0
102
RTVSPost2010PropOp56
 70
     1
102
RTVSPost2010Prop57
140
1.0
102
RTVSPost2010PropOp57
 70
     1
  0
XRECORD
  5
116
102
{ACAD_REACTORS
330
115
102
}
330
115
100
AcDbXrecord
280
     1
102
RTVSPropertyOp0
 70
     1
102
RTVSPropertyOp1
 70
     1
102
RTVSPropertyOp2
 70
     1
102
RTVSPropertyOp3
 70
     1
102
RTVSPropertyOp4
 70
     1
102
RTVSPropertyOp5
 70
     1
102
RTVSPropertyOp6
 70
     1
102
RTVSPropertyOp7
 70
     1
102
RTVSPropertyOp8
 70
     1
102
RTVSPropertyOp9
 70
     1
102
RTVSPropertyOp10
 70
     1
102
RTVSPropertyOp11
 70
     1
102
RTVSPropertyOp12
 70
     1
102
RTVSPropertyOp13
 70
     1
102
RTVSPropertyOp14
 70
     1
102
RTVSPropertyOp15
 70
     1
102
RTVSPropertyOp16
 70
     1
102
RTVSPropertyOp17
 70
     1
102
RTVSPropertyOp18
 70
     1
102
RTVSPropertyOp19
 70
     1
102
RTVSPropertyOp20
 70
     1
102
RTVSPropertyOp21
 70
     1
102
RTVSPropertyOp22
 70
     1
102
RTVSPropertyOp23
 70
     1
102
RTVSPropertyOp24
 70
     1
102
RTVSPropertyOp25
 70
     1
102
RTVSPropertyOp26
 70
     1
102
RTVSPropertyOp27
 70
     1
102
RTVSPropertyOp28
 70
     1
102
RTVSPropertyOp29
 70
     1
102
RTVSPropertyOp30
 70
     1
102
RTVSPropertyOp31
 70
     1
102
RTVSPropertyOp32
 70
     1
102
RTVSPropertyOp33
 70
     1
102
RTVSPropertyOp34
 70
     1
102
RTVSPropertyOp35
 70
     1
102
RTVSPropertyOp36
 70
     1
102
RTVSPropertyOp37
 70
     1
102
RTVSPropertyOp38
 70
     1
102
RTVSPropertyOp39
 70
     1
102
RTVSPropertyOp40
 70
     1
102
RTVSPropertyOp41
 70
     1
102
RTVSPropertyOp42
 70
     1
102
RTVSPropertyOp43
 70
     1
102
RTVSPropertyOp44
 70
     1
102
RTVSPropertyOp45
 70
     1
102
RTVSPropertyOp46
 70
     1
102
RTVSPropertyOp47
 70
     1
102
RTVSPropertyOp48
 70
     1
102
RTVSPropertyOp49
 70
     1
102
RTVSPropertyOp50
 70
     1
102
RTVSPropertyOp51
 70
     0
102
RTVSPropertyOp52
 70
     0
102
RTVSPropertyOp53
 70
     1
102
RTVSPropertyOp54
 70
     1
102
RTVSPropertyOp55
 70
     1
102
RTVSPropertyOp56
 70
     1
102
RTVSPropertyOp57
 70
     1
102
RTVSPost2010Prop28
280
     0
102
RTVSPost2010PropOp28
 70
     1
102
RTVSPost2010Prop29
280
     1
102
RTVSPost2010PropOp29
 70
     1
102
RTVSPost2010Prop30
280
     1
102
RTVSPost2010PropOp30
 70
     1
102
RTVSPost2010Prop31
280
     0
102
RTVSPost2010PropOp31
 70
     1
102
RTVSPost2010Prop32
280
     0
102
RTVSPost2010PropOp32
 70
     1
102
RTVSPost2010Prop33
280
     0
102
RTVSPost2010PropOp33
 70
     1
102
RTVSPost2010Prop34
280
     0
102
RTVSPost2010PropOp34
 70
     1
102
RTVSPost2010Prop35
280
     0
102
RTVSPost2010PropOp35
 70
     1
102
RTVSPost2010Prop36
280
     0
102
RTVSPost2010PropOp36
 70
     1
102
RTVSPost2010Prop37
 90
       50
102
RTVSPost2010PropOp37
 70
     1
102
RTVSPost2010Prop38
140
0.0
102
RTVSPost2010PropOp38
 70
     1
102
RTVSPost2010Prop39
140
1.0
102
RTVSPost2010PropOp39
 70
     1
102
RTVSPost2010Prop40
 90
        0
102
RTVSPost2010PropOp40
 70
     1
102
RTVSPost2010Prop41ColorIndex
 90
       18
102
RTVSPost2010Prop41ColorRGB
 90
        0
102
RTVSPost2010PropOp41
 70
     1
102
RTVSPost2010Prop42
 90
       50
102
RTVSPost2010PropOp42
 70
     1
102
RTVSPost2010Prop43
 90
        3
102
RTVSPost2010PropOp43
 70
     1
102
RTVSPost2010Prop44ColorIndex
 90
        5
102
RTVSPost2010Prop44ColorRGB
 90
      255
102
RTVSPost2010PropOp44
 70
     1
102
RTVSPost2010Prop45
280
     0
102
RTVSPost2010PropOp45
 70
     1
102
RTVSPost2010Prop46
 90
       50
102
RTVSPost2010PropOp46
 70
     1
102
RTVSPost2010Prop47
 90
       50
102
RTVSPost2010PropOp47
 70
     1
102
RTVSPost2010Prop48
 90
       50
102
RTVSPost2010PropOp48
 70
     1
102
RTVSPost2010Prop49
280
     0
102
RTVSPost2010PropOp49
 70
     1
102
RTVSPost2010Prop50
 90
       50
102
RTVSPost2010PropOp50
 70
     1
102
RTVSPost2010Prop51ColorIndex
 90
      256
102
RTVSPost2010Prop51ColorRGB
 90
-16777216
102
RTVSPost2010PropOp51
 70
     0
102
RTVSPost2010Prop52
140
1.0
102
RTVSPost2010PropOp52
 70
     0
102
RTVSPost2010Prop53
 90
        2
102
RTVSPost2010PropOp53
 70
     1
102
RTVSPost2010Prop54
  1
strokes_ogs.tif
102
RTVSPost2010PropOp54
 70
     1
102
RTVSPost2010Prop55
280
     0
102
RTVSPost2010PropOp55
 70
     1
102
RTVSPost2010Prop56
140
1.0
102
RTVSPost2010PropOp56
 70
     1
102
RTVSPost2010Prop57
140
1.0
102
RTVSPost2010PropOp57
 70
     1
  0
XRECORD
  5
108
102
{ACAD_REACTORS
330
107
102
}
330
107
100
AcDbXrecord
280
     1
102
RTVSPropertyOp0
 70
     1
102
RTVSPropertyOp1
 70
     1
102
RTVSPropertyOp2
 70
     1
102
RTVSPropertyOp3
 70
     1
102
RTVSPropertyOp4
 70
     1
102
RTVSPropertyOp5
 70
     1
102
RTVSPropertyOp6
 70
     1
102
RTVSPropertyOp7
 70
     1
102
RTVSPropertyOp8
 70
     1
102
RTVSPropertyOp9
 70
     1
102
RTVSPropertyOp10
 70
     1
102
RTVSPropertyOp11
 70
     1
102
RTVSPropertyOp12
 70
     1
102
RTVSPropertyOp13
 70
     1
102
RTVSPropertyOp14
 70
     1
102
RTVSPropertyOp15
 70
     1
102
RTVSPropertyOp16
 70
     1
102
RTVSPropertyOp17
 70
     1
102
RTVSPropertyOp18
 70
     1
102
RTVSPropertyOp19
 70
     1
102
RTVSPropertyOp20
 70
     1
102
RTVSPropertyOp21
 70
     1
102
RTVSPropertyOp22
 70
     1
102
RTVSPropertyOp23
 70
     1
102
RTVSPropertyOp24
 70
     1
102
RTVSPropertyOp25
 70
     1
102
RTVSPropertyOp26
 70
     1
102
RTVSPropertyOp27
 70
     1
102
RTVSPropertyOp28
 70
     1
102
RTVSPropertyOp29
 70
     1
102
RTVSPropertyOp30
 70
     1
102
RTVSPropertyOp31
 70
     1
102
RTVSPropertyOp32
 70
     1
102
RTVSPropertyOp33
 70
     1
102
RTVSPropertyOp34
 70
     1
102
RTVSPropertyOp35
 70
     1
102
RTVSPropertyOp36
 70
     1
102
RTVSPropertyOp37
 70
     1
102
RTVSPropertyOp38
 70
     1
102
RTVSPropertyOp39
 70
     1
102
RTVSPropertyOp40
 70
     1
102
RTVSPropertyOp41
 70
     1
102
RTVSPropertyOp42
 70
     1
102
RTVSPropertyOp43
 70
     1
102
RTVSPropertyOp44
 70
     1
102
RTVSPropertyOp45
 70
     1
102
RTVSPropertyOp46
 70
     1
102
RTVSPropertyOp47
 70
     1
102
RTVSPropertyOp48
 70
     1
102
RTVSPropertyOp49
 70
     1
102
RTVSPropertyOp50
 70
     1
102
RTVSPropertyOp51
 70
     0
102
RTVSPropertyOp52
 70
     0
102
RTVSPropertyOp53
 70
     1
102
RTVSPropertyOp54
 70
     1
102
RTVSPropertyOp55
 70
     1
102
RTVSPropertyOp56
 70
     1
102
RTVSPropertyOp57
 70
     1
102
RTVSPost2010Prop28
280
     0
102
RTVSPost2010PropOp28
 70
     1
102
RTVSPost2010Prop29
280
     1
102
RTVSPost2010PropOp29
 70
     1
102
RTVSPost2010Prop30
280
     1
102
RTVSPost2010PropOp30
 70
     1
102
RTVSPost2010Prop31
280
     0
102
RTVSPost2010PropOp31
 70
     1
102
RTVSPost2010Prop32
280
     0
102
RTVSPost2010PropOp32
 70
     1
102
RTVSPost2010Prop33
280
     0
102
RTVSPost2010PropOp33
 70
     1
102
RTVSPost2010Prop34
280
     0
102
RTVSPost2010PropOp34
 70
     1
102
RTVSPost2010Prop35
280
     0
102
RTVSPost2010PropOp35
 70
     1
102
RTVSPost2010Prop36
280
     0
102
RTVSPost2010PropOp36
 70
     1
102
RTVSPost2010Prop37
 90
       50
102
RTVSPost2010PropOp37
 70
     1
102
RTVSPost2010Prop38
140
0.0
102
RTVSPost2010PropOp38
 70
     1
102
RTVSPost2010Prop39
140
1.0
102
RTVSPost2010PropOp39
 70
     1
102
RTVSPost2010Prop40
 90
        0
102
RTVSPost2010PropOp40
 70
     1
102
RTVSPost2010Prop41ColorIndex
 90
       18
102
RTVSPost2010Prop41ColorRGB
 90
        0
102
RTVSPost2010PropOp41
 70
     1
102
RTVSPost2010Prop42
 90
       50
102
RTVSPost2010PropOp42
 70
     1
102
RTVSPost2010Prop43
 90
        3
102
RTVSPost2010PropOp43
 70
     1
102
RTVSPost2010Prop44ColorIndex
 90
        5
102
RTVSPost2010Prop44ColorRGB
 90
      255
102
RTVSPost2010PropOp44
 70
     1
102
RTVSPost2010Prop45
280
     0
102
RTVSPost2010PropOp45
 70
     1
102
RTVSPost2010Prop46
 90
       50
102
RTVSPost2010PropOp46
 70
     1
102
RTVSPost2010Prop47
 90
       50
102
RTVSPost2010PropOp47
 70
     1
102
RTVSPost2010Prop48
 90
       50
102
RTVSPost2010PropOp48
 70
     1
102
RTVSPost2010Prop49
280
     0
102
RTVSPost2010PropOp49
 70
     1
102
RTVSPost2010Prop50
 90
       50
102
RTVSPost2010PropOp50
 70
     1
102
RTVSPost2010Prop51ColorIndex
 90
      256
102
RTVSPost2010Prop51ColorRGB
 90
-16777216
102
RTVSPost2010PropOp51
 70
     0
102
RTVSPost2010Prop52
140
1.0
102
RTVSPost2010PropOp52
 70
     0
102
RTVSPost2010Prop53
 90
        2
102
RTVSPost2010PropOp53
 70
     1
102
RTVSPost2010Prop54
  1
strokes_ogs.tif
102
RTVSPost2010PropOp54
 70
     1
102
RTVSPost2010Prop55
280
     0
102
RTVSPost2010PropOp55
 70
     1
102
RTVSPost2010Prop56
140
1.0
102
RTVSPost2010PropOp56
 70
     1
102
RTVSPost2010Prop57
140
1.0
102
RTVSPost2010PropOp57
 70
     1
  0
XRECORD
  5
128
102
{ACAD_REACTORS
330
127
102
}
330
127
100
AcDbXrecord
280
     1
102
RTVSPropertyOp0
 70
     1
102
RTVSPropertyOp1
 70
     1
102
RTVSPropertyOp2
 70
     1
102
RTVSPropertyOp3
 70
     1
102
RTVSPropertyOp4
 70
     1
102
RTVSPropertyOp5
 70
     1
102
RTVSPropertyOp6
 70
     1
102
RTVSPropertyOp7
 70
     1
102
RTVSPropertyOp8
 70
     1
102
RTVSPropertyOp9
 70
     1
102
RTVSPropertyOp10
 70
     1
102
RTVSPropertyOp11
 70
     1
102
RTVSPropertyOp12
 70
     1
102
RTVSPropertyOp13
 70
     1
102
RTVSPropertyOp14
 70
     1
102
RTVSPropertyOp15
 70
     1
102
RTVSPropertyOp16
 70
     1
102
RTVSPropertyOp17
 70
     1
102
RTVSPropertyOp18
 70
     1
102
RTVSPropertyOp19
 70
     1
102
RTVSPropertyOp20
 70
     1
102
RTVSPropertyOp21
 70
     1
102
RTVSPropertyOp22
 70
     1
102
RTVSPropertyOp23
 70
     1
102
RTVSPropertyOp24
 70
     1
102
RTVSPropertyOp25
 70
     1
102
RTVSPropertyOp26
 70
     1
102
RTVSPropertyOp27
 70
     1
102
RTVSPropertyOp28
 70
     1
102
RTVSPropertyOp29
 70
     1
102
RTVSPropertyOp30
 70
     1
102
RTVSPropertyOp31
 70
     1
102
RTVSPropertyOp32
 70
     1
102
RTVSPropertyOp33
 70
     1
102
RTVSPropertyOp34
 70
     1
102
RTVSPropertyOp35
 70
     1
102
RTVSPropertyOp36
 70
     1
102
RTVSPropertyOp37
 70
     1
102
RTVSPropertyOp38
 70
     1
102
RTVSPropertyOp39
 70
     1
102
RTVSPropertyOp40
 70
     1
102
RTVSPropertyOp41
 70
     1
102
RTVSPropertyOp42
 70
     1
102
RTVSPropertyOp43
 70
     1
102
RTVSPropertyOp44
 70
     1
102
RTVSPropertyOp45
 70
     1
102
RTVSPropertyOp46
 70
     1
102
RTVSPropertyOp47
 70
     1
102
RTVSPropertyOp48
 70
     1
102
RTVSPropertyOp49
 70
     1
102
RTVSPropertyOp50
 70
     1
102
RTVSPropertyOp51
 70
     0
102
RTVSPropertyOp52
 70
     0
102
RTVSPropertyOp53
 70
     1
102
RTVSPropertyOp54
 70
     1
102
RTVSPropertyOp55
 70
     1
102
RTVSPropertyOp56
 70
     1
102
RTVSPropertyOp57
 70
     1
102
RTVSPost2010Prop28
280
     0
102
RTVSPost2010PropOp28
 70
     1
102
RTVSPost2010Prop29
280
     1
102
RTVSPost2010PropOp29
 70
     1
102
RTVSPost2010Prop30
280
     1
102
RTVSPost2010PropOp30
 70
     1
102
RTVSPost2010Prop31
280
     0
102
RTVSPost2010PropOp31
 70
     1
102
RTVSPost2010Prop32
280
     0
102
RTVSPost2010PropOp32
 70
     1
102
RTVSPost2010Prop33
280
     0
102
RTVSPost2010PropOp33
 70
     1
102
RTVSPost2010Prop34
280
     0
102
RTVSPost2010PropOp34
 70
     1
102
RTVSPost2010Prop35
280
     0
102
RTVSPost2010PropOp35
 70
     1
102
RTVSPost2010Prop36
280
     0
102
RTVSPost2010PropOp36
 70
     1
102
RTVSPost2010Prop37
 90
       50
102
RTVSPost2010PropOp37
 70
     1
102
RTVSPost2010Prop38
140
0.0
102
RTVSPost2010PropOp38
 70
     1
102
RTVSPost2010Prop39
140
1.0
102
RTVSPost2010PropOp39
 70
     1
102
RTVSPost2010Prop40
 90
        0
102
RTVSPost2010PropOp40
 70
     1
102
RTVSPost2010Prop41ColorIndex
 90
       18
102
RTVSPost2010Prop41ColorRGB
 90
        0
102
RTVSPost2010PropOp41
 70
     1
102
RTVSPost2010Prop42
 90
       50
102
RTVSPost2010PropOp42
 70
     1
102
RTVSPost2010Prop43
 90
        3
102
RTVSPost2010PropOp43
 70
     1
102
RTVSPost2010Prop44ColorIndex
 90
        5
102
RTVSPost2010Prop44ColorRGB
 90
      255
102
RTVSPost2010PropOp44
 70
     1
102
RTVSPost2010Prop45
280
     0
102
RTVSPost2010PropOp45
 70
     1
102
RTVSPost2010Prop46
 90
       50
102
RTVSPost2010PropOp46
 70
     1
102
RTVSPost2010Prop47
 90
       50
102
RTVSPost2010PropOp47
 70
     1
102
RTVSPost2010Prop48
 90
       50
102
RTVSPost2010PropOp48
 70
     1
102
RTVSPost2010Prop49
280
     0
102
RTVSPost2010PropOp49
 70
     1
102
RTVSPost2010Prop50
 90
       50
102
RTVSPost2010PropOp50
 70
     1
102
RTVSPost2010Prop51ColorIndex
 90
      256
102
RTVSPost2010Prop51ColorRGB
 90
-16777216
102
RTVSPost2010PropOp51
 70
     0
102
RTVSPost2010Prop52
140
1.0
102
RTVSPost2010PropOp52
 70
     0
102
RTVSPost2010Prop53
 90
        2
102
RTVSPost2010PropOp53
 70
     1
102
RTVSPost2010Prop54
  1
strokes_ogs.tif
102
RTVSPost2010PropOp54
 70
     1
102
RTVSPost2010Prop55
280
     0
102
RTVSPost2010PropOp55
 70
     1
102
RTVSPost2010Prop56
140
1.0
102
RTVSPost2010PropOp56
 70
     1
102
RTVSPost2010Prop57
140
1.0
102
RTVSPost2010PropOp57
 70
     1
  0
ENDSEC
  0
EOF
