  0
SECTION
  2
HEADER
  9
$ACADVER
  1
AC1021
  9
$ACADMAINTVER
 70
    25
  9
$DWGCODEPAGE
  3
ANSI_1252
  9
$INSBASE
 10
0.0
 20
0.0
 30
0.0
  9
$EXTMIN
 10
1.000000000000000E+20
 20
1.000000000000000E+20
 30
1.000000000000000E+20
  9
$EXTMAX
 10
-1.000000000000000E+20
 20
-1.000000000000000E+20
 30
-1.000000000000000E+20
  9
$LIMMIN
 10
0.0
 20
0.0
  9
$LIMMAX
 10
12.0
 20
9.0
  9
$ORTHOMODE
 70
     0
  9
$REGENMODE
 70
     1
  9
$FILLMODE
 70
     1
  9
$QTEXTMODE
 70
     0
  9
$MIRRTEXT
 70
     1
  9
$LTSCALE
 40
1.0
  9
$ATTMODE
 70
     1
  9
$TEXTSIZE
 40
0.2
  9
$TRACEWID
 40
0.05
  9
$TEXTSTYLE
  7
Standard
  9
$CLAYER
  8
0
  9
$CELTYPE
  6
ByLayer
  9
$CECOLOR
 62
   256
  9
$CELTSCALE
 40
1.0
  9
$DISPSILH
 70
     0
  9
$DIMSCALE
 40
1.0
  9
$DIMASZ
 40
0.18
  9
$DIMEXO
 40
0.0625
  9
$DIMDLI
 40
0.38
  9
$DIMRND
 40
0.0
  9
$DIMDLE
 40
0.0
  9
$DIMEXE
 40
0.18
  9
$DIMTP
 40
0.0
  9
$DIMTM
 40
0.0
  9
$DIMTXT
 40
0.18
  9
$DIMCEN
 40
0.09
  9
$DIMTSZ
 40
0.0
  9
$DIMTOL
 70
     0
  9
$DIMLIM
 70
     0
  9
$DIMTIH
 70
     1
  9
$DIMTOH
 70
     1
  9
$DIMSE1
 70
     0
  9
$DIMSE2
 70
     0
  9
$DIMTAD
 70
     0
  9
$DIMZIN
 70
     0
  9
$DIMBLK
  1

  9
$DIMASO
 70
     1
  9
$DIMSHO
 70
     1
  9
$DIMPOST
  1

  9
$DIMAPOST
  1

  9
$DIMALT
 70
     0
  9
$DIMALTD
 70
     2
  9
$DIMALTF
 40
25.4
  9
$DIMLFAC
 40
1.0
  9
$DIMTOFL
 70
     0
  9
$DIMTVP
 40
0.0
  9
$DIMTIX
 70
     0
  9
$DIMSOXD
 70
     0
  9
$DIMSAH
 70
     0
  9
$DIMBLK1
  1

  9
$DIMBLK2
  1

  9
$DIMSTYLE
  2
STANDARD_ACAD
  9
$DIMCLRD
 70
     0
  9
$DIMCLRE
 70
     0
  9
$DIMCLRT
 70
     0
  9
$DIMTFAC
 40
1.0
  9
$DIMGAP
 40
0.09
  9
$DIMJUST
 70
     0
  9
$DIMSD1
 70
     0
  9
$DIMSD2
 70
     0
  9
$DIMTOLJ
 70
     1
  9
$DIMTZIN
 70
     0
  9
$DIMALTZ
 70
     0
  9
$DIMALTTZ
 70
     0
  9
$DIMUPT
 70
     0
  9
$DIMDEC
 70
     4
  9
$DIMTDEC
 70
     4
  9
$DIMALTU
 70
     2
  9
$DIMALTTD
 70
     2
  9
$DIMTXSTY
  7
Standard
  9
$DIMAUNIT
 70
     0
  9
$DIMADEC
 70
     0
  9
$DIMALTRND
 40
0.0
  9
$DIMAZIN
 70
     0
  9
$DIMDSEP
 70
    46
  9
$DIMATFIT
 70
     3
  9
$DIMFRAC
 70
     0
  9
$DIMLDRBLK
  1

  9
$DIMLUNIT
 70
     2
  9
$DIMLWD
 70
    -2
  9
$DIMLWE
 70
    -2
  9
$DIMTMOVE
 70
     2
  9
$DIMFXL
 40
1.0
  9
$DIMFXLON
 70
     0
  9
$DIMJOGANG
 40
0.7853981633974483
  9
$DIMTFILL
 70
     0
  9
$DIMTFILLCLR
 70
     0
  9
$DIMARCSYM
 70
     0
  9
$DIMLTYPE
  6

  9
$DIMLTEX1
  6

  9
$DIMLTEX2
  6

  9
$LUNITS
 70
     2
  9
$LUPREC
 70
     3
  9
$SKETCHINC
 40
0.1
  9
$FILLETRAD
 40
0.5
  9
$AUNITS
 70
     0
  9
$AUPREC
 70
     0
  9
$MENU
  1
.
  9
$ELEVATION
 40
0.0
  9
$PELEVATION
 40
0.0
  9
$THICKNESS
 40
0.0
  9
$LIMCHECK
 70
     0
  9
$CHAMFERA
 40
0.0
  9
$CHAMFERB
 40
0.0
  9
$CHAMFERC
 40
0.0
  9
$CHAMFERD
 40
0.0
  9
$SKPOLY
 70
     0
  9
$TDCREATE
 40
2459493.547101852
  9
$TDUCREATE
 40
2459493.713768519
  9
$TDUPDATE
 40
2459493.547123634
  9
$TDUUPDATE
 40
2459493.713790301
  9
$TDINDWG
 40
0.0000000116
  9
$TDUSRTIMER
 40
0.0000000116
  9
$USRTIMER
 70
     1
  9
$ANGBASE
 50
0.0
  9
$ANGDIR
 70
     0
  9
$PDMODE
 70
     0
  9
$PDSIZE
 40
0.0
  9
$PLINEWID
 40
0.0
  9
$SPLFRAME
 70
     0
  9
$SPLINETYPE
 70
     6
  9
$SPLINESEGS
 70
     8
  9
$HANDSEED
  5
198
  9
$SURFTAB1
 70
     6
  9
$SURFTAB2
 70
     6
  9
$SURFTYPE
 70
     6
  9
$SURFU
 70
     6
  9
$SURFV
 70
     6
  9
$UCSBASE
  2

  9
$UCSNAME
  2

  9
$UCSORG
 10
0.0
 20
0.0
 30
0.0
  9
$UCSXDIR
 10
1.0
 20
0.0
 30
0.0
  9
$UCSYDIR
 10
0.0
 20
1.0
 30
0.0
  9
$UCSORTHOREF
  2

  9
$UCSORTHOVIEW
 70
     0
  9
$UCSORGTOP
 10
0.0
 20
0.0
 30
0.0
  9
$UCSORGBOTTOM
 10
0.0
 20
0.0
 30
0.0
  9
$UCSORGLEFT
 10
0.0
 20
0.0
 30
0.0
  9
$UCSORGRIGHT
 10
0.0
 20
0.0
 30
0.0
  9
$UCSORGFRONT
 10
0.0
 20
0.0
 30
0.0
  9
$UCSORGBACK
 10
0.0
 20
0.0
 30
0.0
  9
$PUCSBASE
  2

  9
$PUCSNAME
  2

  9
$PUCSORG
 10
0.0
 20
0.0
 30
0.0
  9
$PUCSXDIR
 10
1.0
 20
0.0
 30
0.0
  9
$PUCSYDIR
 10
0.0
 20
1.0
 30
0.0
  9
$PUCSORTHOREF
  2

  9
$PUCSORTHOVIEW
 70
     0
  9
$PUCSORGTOP
 10
0.0
 20
0.0
 30
0.0
  9
$PUCSORGBOTTOM
 10
0.0
 20
0.0
 30
0.0
  9
$PUCSORGLEFT
 10
0.0
 20
0.0
 30
0.0
  9
$PUCSORGRIGHT
 10
0.0
 20
0.0
 30
0.0
  9
$PUCSORGFRONT
 10
0.0
 20
0.0
 30
0.0
  9
$PUCSORGBACK
 10
0.0
 20
0.0
 30
0.0
  9
$USERI1
 70
     0
  9
$USERI2
 70
     0
  9
$USERI3
 70
     0
  9
$USERI4
 70
     0
  9
$USERI5
 70
     0
  9
$USERR1
 40
0.0
  9
$USERR2
 40
0.0
  9
$USERR3
 40
0.0
  9
$USERR4
 40
0.0
  9
$USERR5
 40
0.0
  9
$WORLDVIEW
 70
     1
  9
$SHADEDGE
 70
     3
  9
$SHADEDIF
 70
    70
  9
$TILEMODE
 70
     1
  9
$MAXACTVP
 70
    64
  9
$PINSBASE
 10
0.0
 20
0.0
 30
0.0
  9
$PLIMCHECK
 70
     0
  9
$PEXTMIN
 10
1.000000000000000E+20
 20
1.000000000000000E+20
 30
1.000000000000000E+20
  9
$PEXTMAX
 10
-1.000000000000000E+20
 20
-1.000000000000000E+20
 30
-1.000000000000000E+20
  9
$PLIMMIN
 10
0.0
 20
0.0
  9
$PLIMMAX
 10
12.0
 20
9.0
  9
$UNITMODE
 70
     0
  9
$VISRETAIN
 70
     1
  9
$PLINEGEN
 70
     0
  9
$PSLTSCALE
 70
     1
  9
$TREEDEPTH
 70
  3020
  9
$CMLSTYLE
  2
Standard
  9
$CMLJUST
 70
     0
  9
$CMLSCALE
 40
1.0
  9
$PROXYGRAPHICS
 70
     1
  9
$MEASUREMENT
 70
     0
  9
$CELWEIGHT
370
    -1
  9
$ENDCAPS
280
     0
  9
$JOINSTYLE
280
     0
  9
$LWDISPLAY
290
     0
  9
$INSUNITS
 70
     1
  9
$HYPERLINKBASE
  1

  9
$STYLESHEET
  1

  9
$XEDIT
290
     1
  9
$CEPSNTYPE
380
     0
  9
$PSTYLEMODE
290
     1
  9
$FINGERPRINTGUID
  2
{52e4bf99-1840-4eab-9f3b-b37849330992}
  9
$VERSIONGUID
  2
{FAEB1C32-E019-11D5-929B-00C0DF256EC4}
  9
$EXTNAMES
290
     1
  9
$PSVPSCALE
 40
0.0
  9
$OLESTARTUP
290
     0
  9
$SORTENTS
280
   127
  9
$INDEXCTL
280
     0
  9
$HIDETEXT
280
     1
  9
$XCLIPFRAME
290
     0
  9
$HALOGAP
280
     0
  9
$OBSCOLOR
 70
   257
  9
$OBSLTYPE
280
     0
  9
$INTERSECTIONDISPLAY
280
     0
  9
$INTERSECTIONCOLOR
 70
   257
  9
$DIMASSOC
280
     2
  9
$PROJECTNAME
  1

  9
$CAMERADISPLAY
290
     0
  9
$LENSLENGTH
 40
50.0
  9
$CAMERAHEIGHT
 40
0.0
  9
$STEPSPERSEC
 40
2.0
  9
$STEPSIZE
 40
6.0
  9
$3DDWFPREC
 40
2.0
  9
$PSOLWIDTH
 40
0.25
  9
$PSOLHEIGHT
 40
4.0
  9
$LOFTANG1
 40
1.570796326794897
  9
$LOFTANG2
 40
1.570796326794897
  9
$LOFTMAG1
 40
0.0
  9
$LOFTMAG2
 40
0.0
  9
$LOFTPARAM
 70
     7
  9
$LOFTNORMALS
280
     1
  9
$LATITUDE
 40
37.795
  9
$LONGITUDE
 40
-122.394
  9
$NORTHDIRECTION
 40
0.0
  9
$TIMEZONE
 70
 -8000
  9
$LIGHTGLYPHDISPLAY
280
     1
  9
$TILEMODELIGHTSYNCH
280
     1
  9
$CMATERIAL
347
44
  9
$SOLIDHIST
280
     0
  9
$SHOWHIST
280
     1
  9
$DWFFRAME
280
     2
  9
$DGNFRAME
280
     2
  9
$REALWORLDSCALE
290
     1
  9
$INTERFERECOLOR
 62
   256
  9
$CSHADOW
280
     0
  9
$SHADOWPLANELOCATION
 40
0.0
  0
ENDSEC
  0
SECTION
  2
CLASSES
  0
CLASS
  1
ACDBDICTIONARYWDFLT
  2
AcDbDictionaryWithDefault
  3
ObjectDBX Classes
 90
        0
 91
        3
280
     0
281
     0
  0
CLASS
  1
VISUALSTYLE
  2
AcDbVisualStyle
  3
ObjectDBX Classes
 90
     4095
 91
        3
280
     0
281
     0
  0
CLASS
  1
MATERIAL
  2
AcDbMaterial
  3
ObjectDBX Classes
 90
     1153
 91
        3
280
     0
281
     0
  0
CLASS
  1
SCALE
  2
AcDbScale
  3
ObjectDBX Classes
 90
     1153
 91
        3
280
     0
281
     0
  0
CLASS
  1
TABLESTYLE
  2
AcDbTableStyle
  3
ObjectDBX Classes
 90
     4095
 91
        3
280
     0
281
     0
  0
CLASS
  1
MLEADERSTYLE
  2
AcDbMLeaderStyle
  3
ACDB_MLEADERSTYLE_CLASS
 90
     4095
 91
        3
280
     0
281
     0
  0
CLASS
  1
SUN
  2
AcDbSun
  3
SCENEOE
 90
     1153
 91
        3
280
     0
281
     0
  0
CLASS
  1
DICTIONARYVAR
  2
AcDbDictionaryVar
  3
ObjectDBX Classes
 90
        0
 91
        3
280
     0
281
     0
  0
CLASS
  1
CELLSTYLEMAP
  2
AcDbCellStyleMap
  3
ObjectDBX Classes
 90
     1152
 91
        3
280
     0
281
     0
  0
ENDSEC
  0
SECTION
  2
TABLES
  0
TABLE
  2
VPORT
  5
8
330
0
100
AcDbSymbolTable
 70
     1
  0
VPORT
  5
29
330
8
100
AcDbSymbolTableRecord
100
AcDbViewportTableRecord
  2
*Active
 70
     0
 10
0.0
 20
0.0
 11
1.0
 21
1.0
 12
10.42990654205607
 22
4.5
 13
0.0
 23
0.0
 14
0.5
 24
0.5
 15
0.5
 25
0.5
 16
0.0
 26
0.0
 36
1.0
 17
0.0
 27
0.0
 37
0.0
 40
9.0
 41
1.972972972850329
 42
50.0
 43
0.0
 44
0.0
 50
0.0
 51
0.0
 71
     0
 72
   100
 73
     1
 74
     3
 75
     0
 76
     0
 77
     0
 78
     0
281
     0
 65
     1
110
0.0
120
0.0
130
0.0
111
1.0
121
0.0
131
0.0
112
0.0
122
1.0
132
0.0
 79
     0
146
0.0
348
2F
 60
     3
 61
     5
292
     1
282
     1
141
0.0
142
0.0
 63
   250
361
6D
  0
ENDTAB
  0
TABLE
  2
LTYPE
  5
5
330
0
100
AcDbSymbolTable
 70
     1
  0
LTYPE
  5
14
330
5
100
AcDbSymbolTableRecord
100
AcDbLinetypeTableRecord
  2
ByBlock
 70
     0
  3

 72
    65
 73
     0
 40
0.0
  0
LTYPE
  5
15
330
5
100
AcDbSymbolTableRecord
100
AcDbLinetypeTableRecord
  2
ByLayer
 70
     0
  3

 72
    65
 73
     0
 40
0.0
  0
LTYPE
  5
16
330
5
100
AcDbSymbolTableRecord
100
AcDbLinetypeTableRecord
  2
Continuous
 70
     0
  3
Solid line
 72
    65
 73
     0
 40
0.0
  0
ENDTAB
  0
TABLE
  2
LAYER
  5
2
330
0
100
AcDbSymbolTable
 70
     2
  0
LAYER
  5
10
330
2
100
AcDbSymbolTableRecord
100
AcDbLayerTableRecord
  2
0
 70
     0
 62
     7
  6
Continuous
370
    -3
390
F
347
46
  0
LAYER
  5
6E
330
2
100
AcDbSymbolTableRecord
100
AcDbLayerTableRecord
  2
2D DXF
 70
     0
 62
    18
420
        0
  6
Continuous
370
    -3
390
F
347
46
  0
ENDTAB
  0
TABLE
  2
STYLE
  5
3
330
0
100
AcDbSymbolTable
 70
     1
  0
STYLE
  5
11
330
3
100
AcDbSymbolTableRecord
100
AcDbTextStyleTableRecord
  2
Standard
 70
     0
 40
0.0
 41
1.0
 50
0.0
 71
     0
 42
0.2
  3
txt
  4

  0
ENDTAB
  0
TABLE
  2
VIEW
  5
6
330
0
100
AcDbSymbolTable
 70
     0
  0
ENDTAB
  0
TABLE
  2
UCS
  5
7
330
0
100
AcDbSymbolTable
 70
     0
  0
ENDTAB
  0
TABLE
  2
APPID
  5
9
330
0
100
AcDbSymbolTable
 70
     2
  0
APPID
  5
12
330
9
100
AcDbSymbolTableRecord
100
AcDbRegAppTableRecord
  2
ACAD
 70
     0
  0
APPID
  5
190
330
9
100
AcDbSymbolTableRecord
100
AcDbRegAppTableRecord
  2
ACAD_MLEADERVER
 70
     0
  0
ENDTAB
  0
TABLE
  2
DIMSTYLE
  5
A
330
0
100
AcDbSymbolTable
 70
     1
100
AcDbDimStyleTable
  0
DIMSTYLE
105
27
330
A
100
AcDbSymbolTableRecord
100
AcDbDimStyleTableRecord
  2
STANDARD_ACAD
 70
     0
178
     0
340
11
  0
ENDTAB
  0
TABLE
  2
BLOCK_RECORD
  5
1
330
0
100
AcDbSymbolTable
 70
     1
  0
BLOCK_RECORD
  5
1F
330
1
100
AcDbSymbolTableRecord
100
AcDbBlockTableRecord
  2
*Model_Space
340
22
 70
     0
280
     1
281
     0
  0
BLOCK_RECORD
  5
1B
330
1
100
AcDbSymbolTableRecord
100
AcDbBlockTableRecord
  2
*Paper_Space
340
1E
 70
     0
280
     1
281
     0
  0
BLOCK_RECORD
  5
23
330
1
100
AcDbSymbolTableRecord
100
AcDbBlockTableRecord
  2
*Paper_Space0
340
26
 70
     0
280
     1
281
     0
  0
ENDTAB
  0
ENDSEC
  0
SECTION
  2
BLOCKS
  0
BLOCK
  5
20
330
1F
100
AcDbEntity
  8
0
100
AcDbBlockBegin
  2
*Model_Space
 70
     0
 10
0.0
 20
0.0
 30
0.0
  3
*Model_Space
  1

  0
ENDBLK
  5
21
330
1F
100
AcDbEntity
  8
0
100
AcDbBlockEnd
  0
BLOCK
  5
1C
330
1B
100
AcDbEntity
 67
     1
  8
0
100
AcDbBlockBegin
  2
*Paper_Space
 70
     0
 10
0.0
 20
0.0
 30
0.0
  3
*Paper_Space
  1

  0
ENDBLK
  5
1D
330
1B
100
AcDbEntity
 67
     1
  8
0
100
AcDbBlockEnd
  0
BLOCK
  5
24
330
23
100
AcDbEntity
  8
0
100
AcDbBlockBegin
  2
*Paper_Space0
 70
     0
 10
0.0
 20
0.0
 30
0.0
  3
*Paper_Space0
  1

  0
ENDBLK
  5
25
330
23
100
AcDbEntity
  8
0
100
AcDbBlockEnd
  0
ENDSEC
  0
SECTION
  2
ENTITIES
  0
SPLINE
  5
6F
330
1F
100
AcDbEntity
  8
2D DXF
370
    -3
100
AcDbSpline
210
0.0
220
0.0
230
1.0
 70
     8
 71
     2
 72
    23
 73
    20
 74
     0
 42
0.000000001
 43
0.0000000001
 40
0.0
 40
0.0
 40
0.0
 40
1.0
 40
2.0
 40
3.0
 40
4.0
 40
5.0
 40
6.0
 40
7.0
 40
8.0
 40
9.0
 40
10.0
 40
11.0
 40
12.0
 40
13.0
 40
14.0
 40
15.0
 40
16.0
 40
17.0
 40
18.0
 40
18.0
 40
18.0
 10
0.0028724859939757
 20
57.27887483023076
 30
0.0
 10
-0.3131967512379674
 20
57.27893778519155
 30
0.0
 10
-0.9427782626729595
 20
57.24990567998515
 30
0.0
 10
-1.570389943981695
 20
57.19238537172359
 30
0.0
 10
-2.194868723017464
 20
57.10725406663386
 30
0.0
 10
-2.814865544491397
 20
56.99442506598779
 30
0.0
 10
-3.430745389856554
 20
56.85984760303808
 30
0.0
 10
-4.033504492309703
 20
56.67471809521183
 30
0.0
 10
-4.613625598251474
 20
56.42725406249316
 30
0.0
 10
-5.169555311148144
 20
56.12985726522795
 30
0.0
 10
-5.701016725938075
 20
55.79079228408917
 30
0.0
 10
-6.208900791209146
 20
55.41746114602891
 30
0.0
 10
-6.694985054854385
 20
55.01624829072689
 30
0.0
 10
-7.161983738045819
 20
54.59304184175001
 30
0.0
 10
-7.61292350554902
 20
54.15281938857162
 30
0.0
 10
-8.05198690802564
 20
53.70078649331605
 30
0.0
 10
-8.48278756752012
 20
53.24089410576939
 30
0.0
 10
-8.90880592273254
 20
52.77659876116159
 30
0.0
 10
-9.335598046037717
 20
52.31288890932874
 30
0.0
 10
-9.56036064063062
 20
52.09200974965213
 30
0.0
  0
SPLINE
  5
70
330
1F
100
AcDbEntity
  8
2D DXF
370
    -3
100
AcDbSpline
210
0.0
220
0.0
230
1.0
 70
     8
 71
     3
 72
     8
 73
     4
 74
     0
 42
0.000000001
 43
0.0000000001
 40
18.0
 40
18.0
 40
18.0
 40
18.0
 40
19.0
 40
19.0
 40
19.0
 40
19.0
 10
-9.56036064063062
 20
52.09200974965213
 30
0.0
 10
-11.15388121697271
 20
50.52602192829183
 30
0.0
 10
-11.19741027577322
 20
51.83940793531082
 30
0.0
 10
-10.91242361731258
 20
53.32683305988924
 30
0.0
  0
SPLINE
  5
71
330
1F
100
AcDbEntity
  8
2D DXF
370
    -3
100
AcDbSpline
210
0.0
220
0.0
230
1.0
 70
     8
 71
     2
 72
    23
 73
    20
 74
     0
 42
0.000000001
 43
0.0000000001
 40
19.0
 40
19.0
 40
19.0
 40
20.0
 40
21.0
 40
22.0
 40
23.0
 40
24.0
 40
25.0
 40
26.0
 40
27.0
 40
28.0
 40
29.0
 40
30.0
 40
31.0
 40
32.0
 40
33.0
 40
34.0
 40
35.0
 40
36.0
 40
37.0
 40
37.0
 40
37.0
 10
-10.91242361731258
 20
53.32683305988924
 30
0.0
 10
-10.83271124099491
 20
53.74287425955522
 30
0.0
 10
-10.57333596926492
 20
54.54985267587454
 30
0.0
 10
-10.2582069125931
 20
55.33245659418805
 30
0.0
 10
-9.897763645830423
 20
56.09898845085278
 30
0.0
 10
-9.495221741084947
 20
56.84369556703594
 30
0.0
 10
-9.038345591454856
 20
57.55664583348243
 30
0.0
 10
-8.527103644302315
 20
58.23164715939063
 30
0.0
 10
-7.965111434139487
 20
58.86504260733156
 30
0.0
 10
-7.355735684575336
 20
59.45291045845185
 30
0.0
 10
-6.706182677517972
 20
59.99602712039514
 30
0.0
 10
-6.018735317110156
 20
60.49036286846793
 30
0.0
 10
-5.295244993559606
 20
60.9303759778368
 30
0.0
 10
-4.537174640172793
 20
61.30790691213772
 30
0.0
 10
-3.74850302827673
 20
61.61647814761919
 30
0.0
 10
-2.935485968550836
 20
61.85351786403039
 30
0.0
 10
-2.105676995404735
 20
62.02218976703223
 30
0.0
 10
-1.265603054800351
 20
62.12787540528877
 30
0.0
 10
-0.4204117065497712
 20
62.17684021725116
 30
0.0
 10
0.0028724859939757
 20
62.17648526991511
 30
0.0
  0
SPLINE
  5
72
330
1F
100
AcDbEntity
  8
2D DXF
370
    -3
100
AcDbSpline
210
0.0
220
0.0
230
1.0
 70
     8
 71
     2
 72
    23
 73
    20
 74
     0
 42
0.000000001
 43
0.0000000001
 40
37.0
 40
37.0
 40
37.0
 40
38.0
 40
39.0
 40
40.0
 40
41.0
 40
42.0
 40
43.0
 40
44.0
 40
45.0
 40
46.0
 40
47.0
 40
48.0
 40
49.0
 40
50.0
 40
51.0
 40
52.0
 40
53.0
 40
54.0
 40
55.0
 40
55.0
 40
55.0
 10
0.0028724859939757
 20
62.17648526991511
 30
0.0
 10
0.4261566785377227
 20
62.17684021725116
 30
0.0
 10
1.271348026788303
 20
62.12787540528877
 30
0.0
 10
2.111421967392687
 20
62.02218976703223
 30
0.0
 10
2.941230940538787
 20
61.85351786403039
 30
0.0
 10
3.754248000264681
 20
61.61647814761919
 30
0.0
 10
4.542919612160745
 20
61.30790691213772
 30
0.0
 10
5.300989965547558
 20
60.9303759778368
 30
0.0
 10
6.024480289098108
 20
60.49036286846793
 30
0.0
 10
6.711927649505924
 20
59.99602712039514
 30
0.0
 10
7.361480656563288
 20
59.45291045845185
 30
0.0
 10
7.970856406127439
 20
58.86504260733156
 30
0.0
 10
8.532848616290266
 20
58.23164715939063
 30
0.0
 10
9.044090563442808
 20
57.55664583348243
 30
0.0
 10
9.500966713072899
 20
56.84369556703594
 30
0.0
 10
9.903508617818375
 20
56.09898845085278
 30
0.0
 10
10.26395188458105
 20
55.33245659418805
 30
0.0
 10
10.57908094125287
 20
54.54985267587454
 30
0.0
 10
10.83845621298286
 20
53.74287425955522
 30
0.0
 10
10.91816858930054
 20
53.32683305988924
 30
0.0
  0
SPLINE
  5
73
330
1F
100
AcDbEntity
  8
2D DXF
370
    -3
100
AcDbSpline
210
0.0
220
0.0
230
1.0
 70
     8
 71
     3
 72
     8
 73
     4
 74
     0
 42
0.000000001
 43
0.0000000001
 40
55.0
 40
55.0
 40
55.0
 40
55.0
 40
56.0
 40
56.0
 40
56.0
 40
56.0
 10
10.91816858930054
 20
53.32683305988924
 30
0.0
 10
11.20315524776117
 20
51.83940793531082
 30
0.0
 10
11.15962618896066
 20
50.52602192829183
 30
0.0
 10
9.566105612618571
 20
52.09200974965213
 30
0.0
  0
SPLINE
  5
74
330
1F
100
AcDbEntity
  8
2D DXF
370
    -3
100
AcDbSpline
210
0.0
220
0.0
230
1.0
 70
     8
 71
     2
 72
    23
 73
    20
 74
     0
 42
0.000000001
 43
0.0000000001
 40
56.0
 40
56.0
 40
56.0
 40
57.0
 40
58.0
 40
59.0
 40
60.0
 40
61.0
 40
62.0
 40
63.0
 40
64.0
 40
65.0
 40
66.0
 40
67.0
 40
68.0
 40
69.0
 40
70.0
 40
71.0
 40
72.0
 40
73.0
 40
74.0
 40
74.0
 40
74.0
 10
9.566105612618571
 20
52.09200974965213
 30
0.0
 10
9.341343018025668
 20
52.31288890932874
 30
0.0
 10
8.914550894720492
 20
52.77659876116159
 30
0.0
 10
8.488532539508071
 20
53.24089410576939
 30
0.0
 10
8.057731880013591
 20
53.70078649331605
 30
0.0
 10
7.618668477536971
 20
54.15281938857162
 30
0.0
 10
7.167728710033771
 20
54.59304184175001
 30
0.0
 10
6.700730026842336
 20
55.01624829072689
 30
0.0
 10
6.214645763197097
 20
55.41746114602891
 30
0.0
 10
5.706761697926026
 20
55.79079228408917
 30
0.0
 10
5.175300283136096
 20
56.12985726522795
 30
0.0
 10
4.619370570239425
 20
56.42725406249316
 30
0.0
 10
4.039249464297654
 20
56.67471809521183
 30
0.0
 10
3.436490361844506
 20
56.85984760303808
 30
0.0
 10
2.820610516479348
 20
56.99442506598779
 30
0.0
 10
2.200613695005416
 20
57.10725406663386
 30
0.0
 10
1.576134915969646
 20
57.19238537172359
 30
0.0
 10
0.9485232346609109
 20
57.24990567998515
 30
0.0
 10
0.3189417232259188
 20
57.27893778519155
 30
0.0
 10
0.0028724859939757
 20
57.27887483023076
 30
0.0
  0
SPLINE
  5
75
330
1F
100
AcDbEntity
  8
2D DXF
370
    -3
100
AcDbSpline
210
0.0
220
0.0
230
1.0
 70
     8
 71
     3
 72
    24
 73
    20
 74
     0
 42
0.000000001
 43
0.0000000001
 40
0.9996051459765983
 40
0.9996051459765983
 40
0.9996051459765983
 40
0.9996051459765983
 40
1.0
 40
2.0
 40
3.0
 40
4.0
 40
5.0
 40
6.0
 40
7.0
 40
8.0
 40
9.0
 40
10.0
 40
11.0
 40
12.0
 40
13.0
 40
14.0
 40
15.0
 40
16.0
 40
17.0
 40
17.0
 40
17.0
 40
17.0
 10
-6.189274078438132
 20
55.42712060249143
 30
0.0
 10
-6.189373467020346
 20
55.42697954189334
 30
0.0
 10
-6.441176503423549
 20
55.06958674033495
 30
0.0
 10
-6.914094279933352
 20
54.33327110395316
 30
0.0
 10
-7.502771560742133
 20
53.15978947548597
 30
0.0
 10
-7.966959572405813
 20
51.93194807268815
 30
0.0
 10
-8.299799468958838
 20
50.6620111831996
 30
0.0
 10
-8.492055537602653
 20
49.3631519230094
 30
0.0
 10
-8.535294079954724
 20
48.05085677055759
 30
0.0
 10
-8.431040043289386
 20
46.74187526534799
 30
0.0
 10
-8.165280222709043
 20
45.45504144021189
 30
0.0
 10
-7.717109992234896
 20
44.21931122355719
 30
0.0
 10
-7.059896364604356
 20
43.07612770128951
 30
0.0
 10
-6.153950868091783
 20
42.11693199770514
 30
0.0
 10
-5.064487567805372
 20
41.37641138491225
 30
0.0
 10
-3.869013090777855
 20
40.82952644528977
 30
0.0
 10
-2.607420099234332
 20
40.46217661703677
 30
0.0
 10
-1.311015591080718
 20
40.25364576126359
 30
0.0
 10
-0.4369667501534877
 20
40.2092649988499
 30
0.0
 10
0.0
 20
40.2092649988499
 30
0.0
  0
SPLINE
  5
76
330
1F
100
AcDbEntity
  8
2D DXF
370
    -3
100
AcDbSpline
210
0.0
220
0.0
230
1.0
 70
     8
 71
     3
 72
    24
 73
    20
 74
     0
 42
0.000000001
 43
0.0000000001
 40
-17.0
 40
-17.0
 40
-17.0
 40
-17.0
 40
-16.0
 40
-15.0
 40
-14.0
 40
-13.0
 40
-12.0
 40
-11.0
 40
-10.0
 40
-9.0
 40
-8.0
 40
-7.0
 40
-6.0
 40
-5.0
 40
-4.0
 40
-3.0
 40
-2.0
 40
-1.0
 40
-0.9904409745037914
 40
-0.9904409745037914
 40
-0.9904409745037914
 40
-0.9904409745037914
 10
0.0
 20
40.2092649988499
 30
0.0
 10
0.4369667501534877
 20
40.2092649988499
 30
0.0
 10
1.311015591080718
 20
40.25364576126359
 30
0.0
 10
2.607420099234332
 20
40.46217661703677
 30
0.0
 10
3.869013090777855
 20
40.82952644528977
 30
0.0
 10
5.064487567805372
 20
41.37641138491225
 30
0.0
 10
6.153950868091783
 20
42.11693199770514
 30
0.0
 10
7.059896364604356
 20
43.07612770128951
 30
0.0
 10
7.717109992234896
 20
44.21931122355719
 30
0.0
 10
8.165280222709043
 20
45.45504144021189
 30
0.0
 10
8.431040043289386
 20
46.74187526534799
 30
0.0
 10
8.535294079954724
 20
48.05085677055759
 30
0.0
 10
8.492055537602653
 20
49.3631519230094
 30
0.0
 10
8.299799468958838
 20
50.6620111831996
 30
0.0
 10
7.966959572405813
 20
51.93194807268815
 30
0.0
 10
7.502771560742133
 20
53.15978947548597
 30
0.0
 10
6.914094279933352
 20
54.33327110395316
 30
0.0
 10
6.439009981355241
 20
55.07295993575001
 30
0.0
 10
6.184758872499629
 20
55.43352646483596
 30
0.0
 10
6.182350094528886
 20
55.4369395029059
 30
0.0
  0
SPLINE
  5
77
330
1F
100
AcDbEntity
  8
2D DXF
370
    -3
100
AcDbSpline
210
0.0
220
0.0
230
1.0
 70
     8
 71
     3
 72
    16
 73
    12
 74
     0
 42
0.000000001
 43
0.0000000001
 40
0.0
 40
0.0
 40
0.0
 40
0.0
 40
1.0
 40
2.0
 40
3.0
 40
4.0
 40
5.0
 40
6.0
 40
7.0
 40
8.0
 40
9.0
 40
9.0
 40
9.0
 40
9.0
 10
0.0018857679498865
 20
19.2855095202649
 30
0.0
 10
-0.5741470133025928
 20
19.28578022057206
 30
0.0
 10
-1.724824677007689
 20
19.32243013915868
 30
0.0
 10
-3.440849025570515
 20
19.51546354565234
 30
0.0
 10
-5.133816199507294
 20
19.86346520034938
 30
0.0
 10
-6.768907516290653
 20
20.42606633371798
 30
0.0
 10
-8.296827989174915
 20
21.24899991009534
 30
0.0
 10
-9.586555300582575
 20
22.4185581997014
 30
0.0
 10
-10.39190158470905
 20
23.97478683059218
 30
0.0
 10
-10.84626837310321
 20
25.6407537039158
 30
0.0
 10
-11.00348722768427
 20
26.78306073316939
 30
0.0
 10
-11.06081102644697
 20
27.35509659025357
 30
0.0
  0
SPLINE
  5
78
330
1F
100
AcDbEntity
  8
2D DXF
370
    -3
100
AcDbSpline
210
0.0
220
0.0
230
1.0
 70
     8
 71
     3
 72
     8
 73
     4
 74
     0
 42
0.000000001
 43
0.0000000001
 40
9.0
 40
9.0
 40
9.0
 40
9.0
 40
10.0
 40
10.0
 40
10.0
 40
10.0
 10
-11.06081102644697
 20
27.35509659025357
 30
0.0
 10
-11.13485004645673
 20
28.09393412689871
 30
0.0
 10
-10.98847689922297
 20
28.09351803182853
 30
0.0
 10
-10.65197184954258
 20
28.03875104200815
 30
0.0
  0
SPLINE
  5
79
330
1F
100
AcDbEntity
  8
2D DXF
370
    -3
100
AcDbSpline
210
0.0
220
0.0
230
1.0
 70
     8
 71
     3
 72
    20
 73
    16
 74
     0
 42
0.000000001
 43
0.0000000001
 40
10.0
 40
10.0
 40
10.0
 40
10.0
 40
11.0
 40
12.0
 40
13.0
 40
14.0
 40
15.0
 40
16.0
 40
17.0
 40
18.0
 40
19.0
 40
20.0
 40
21.0
 40
22.0
 40
23.0
 40
23.0
 40
23.0
 40
23.0
 10
-10.65197184954258
 20
28.03875104200815
 30
0.0
 10
-10.36625163377363
 20
27.99224940358294
 30
0.0
 10
-9.808083072171712
 20
27.85132191157068
 30
0.0
 10
-8.934185764653193
 20
27.7517890932343
 30
0.0
 10
-8.100714878708743
 20
28.04479212654089
 30
0.0
 10
-7.348995983097666
 20
28.47292474509904
 30
0.0
 10
-6.608119042168823
 20
28.92359751763186
 30
0.0
 10
-5.861577154525207
 20
29.36389761458459
 30
0.0
 10
-5.091394708580992
 20
29.76250075484777
 30
0.0
 10
-4.288397075037153
 20
30.09248784034924
 30
0.0
 10
-3.449745831415044
 20
30.31709148335059
 30
0.0
 10
-2.594377757895757
 20
30.46105514161404
 30
0.0
 10
-1.730960455679849
 20
30.54138610249142
 30
0.0
 10
-0.864849352988756
 20
30.57776051077589
 30
0.0
 10
-0.2870131388719415
 20
30.58286612519826
 30
0.0
 10
0.0018857679498865
 20
30.58287055401031
 30
0.0
  0
SPLINE
  5
7A
330
1F
100
AcDbEntity
  8
2D DXF
370
    -3
100
AcDbSpline
210
0.0
220
0.0
230
1.0
 70
     8
 71
     3
 72
    20
 73
    16
 74
     0
 42
0.000000001
 43
0.0000000001
 40
23.0
 40
23.0
 40
23.0
 40
23.0
 40
24.0
 40
25.0
 40
26.0
 40
27.0
 40
28.0
 40
29.0
 40
30.0
 40
31.0
 40
32.0
 40
33.0
 40
34.0
 40
35.0
 40
36.0
 40
36.0
 40
36.0
 40
36.0
 10
0.0018857679498865
 20
30.58287055401031
 30
0.0
 10
0.2907846747717144
 20
30.58286612519826
 30
0.0
 10
0.868620888888529
 20
30.57776051077589
 30
0.0
 10
1.734731991579622
 20
30.54138610249142
 30
0.0
 10
2.59814929379553
 20
30.46105514161404
 30
0.0
 10
3.453517367314817
 20
30.31709148335059
 30
0.0
 10
4.292168610936926
 20
30.09248784034924
 30
0.0
 10
5.095166244480765
 20
29.76250075484777
 30
0.0
 10
5.86534869042498
 20
29.36389761458459
 30
0.0
 10
6.611890578068596
 20
28.92359751763186
 30
0.0
 10
7.352767518997439
 20
28.47292474509904
 30
0.0
 10
8.104486414608516
 20
28.04479212654089
 30
0.0
 10
8.937957300552966
 20
27.7517890932343
 30
0.0
 10
9.811854608071485
 20
27.85132191157068
 30
0.0
 10
10.3700231696734
 20
27.99224940358294
 30
0.0
 10
10.65574338544235
 20
28.03875104200815
 30
0.0
  0
SPLINE
  5
7B
330
1F
100
AcDbEntity
  8
2D DXF
370
    -3
100
AcDbSpline
210
0.0
220
0.0
230
1.0
 70
     8
 71
     3
 72
     8
 73
     4
 74
     0
 42
0.000000001
 43
0.0000000001
 40
36.0
 40
36.0
 40
36.0
 40
36.0
 40
37.0
 40
37.0
 40
37.0
 40
37.0
 10
10.65574338544235
 20
28.03875104200815
 30
0.0
 10
10.99224843512275
 20
28.09351803182853
 30
0.0
 10
11.13862158235651
 20
28.09393412689871
 30
0.0
 10
11.06458256234674
 20
27.35509659025357
 30
0.0
  0
SPLINE
  5
7C
330
1F
100
AcDbEntity
  8
2D DXF
370
    -3
100
AcDbSpline
210
0.0
220
0.0
230
1.0
 70
     8
 71
     3
 72
    16
 73
    12
 74
     0
 42
0.000000001
 43
0.0000000001
 40
37.0
 40
37.0
 40
37.0
 40
37.0
 40
38.0
 40
39.0
 40
40.0
 40
41.0
 40
42.0
 40
43.0
 40
44.0
 40
45.0
 40
46.0
 40
46.0
 40
46.0
 40
46.0
 10
11.06458256234674
 20
27.35509659025357
 30
0.0
 10
11.00725876358405
 20
26.78306073316939
 30
0.0
 10
10.85003990900299
 20
25.6407537039158
 30
0.0
 10
10.39567312060882
 20
23.97478683059218
 30
0.0
 10
9.590326836482348
 20
22.4185581997014
 30
0.0
 10
8.300599525074688
 20
21.24899991009534
 30
0.0
 10
6.772679052190426
 20
20.42606633371798
 30
0.0
 10
5.137587735407067
 20
19.86346520034938
 30
0.0
 10
3.444620561470288
 20
19.51546354565234
 30
0.0
 10
1.728596212907462
 20
19.32243013915868
 30
0.0
 10
0.5779185492023657
 20
19.28578022057206
 30
0.0
 10
0.0018857679498865
 20
19.2855095202649
 30
0.0
  0
SPLINE
  5
7D
330
1F
100
AcDbEntity
  8
2D DXF
370
    -3
100
AcDbSpline
210
0.0
220
0.0
230
1.0
 70
     8
 71
     3
 72
    29
 73
    25
 74
     0
 42
0.000000001
 43
0.0000000001
 40
-22.0
 40
-22.0
 40
-22.0
 40
-22.0
 40
-21.0
 40
-20.0
 40
-19.0
 40
-18.0
 40
-17.0
 40
-16.0
 40
-15.0
 40
-14.0
 40
-13.0
 40
-12.0
 40
-11.0
 40
-10.0
 40
-9.0
 40
-8.0
 40
-7.0
 40
-6.0
 40
-5.0
 40
-4.0
 40
-3.0
 40
-2.0
 40
-1.0
 40
0.0
 40
0.0
 40
0.0
 40
0.0
 10
8.498721729793203
 20
18.12279586268403
 30
0.0
 10
8.427471699158502
 20
18.24456112075046
 30
0.0
 10
8.134001827340626
 20
18.24057384942557
 30
0.0
 10
7.751315674384728
 20
18.19249817027672
 30
0.0
 10
7.3617314267496
 20
18.10097832852929
 30
0.0
 10
6.980643404964951
 20
17.99369113214641
 30
0.0
 10
6.60209502688798
 20
17.8740534856208
 30
0.0
 10
6.226300932411334
 20
17.74706517262331
 30
0.0
 10
5.851164157989217
 20
17.61789803679561
 30
0.0
 10
5.473782496882393
 20
17.49546506773845
 30
0.0
 10
5.094240637806251
 20
17.37989625180554
 30
0.0
 10
4.712520710363037
 20
17.27172924706354
 30
0.0
 10
4.328646185647301
 20
17.17145870137564
 30
0.0
 10
3.9424826428492
 20
17.08036526327198
 30
0.0
 10
3.553942434248199
 20
16.99996872201097
 30
0.0
 10
3.163281643687753
 20
16.93061733231076
 30
0.0
 10
2.770870766179257
 20
16.87199750839099
 30
0.0
 10
2.377068083267886
 20
16.82363446853793
 30
0.0
 10
1.982229155263099
 20
16.78468267646593
 30
0.0
 10
1.586634460692665
 20
16.75440794917412
 30
0.0
 10
1.190526297685494
 20
16.73190121318057
 30
0.0
 10
0.7940816902308825
 20
16.71648437960586
 30
0.0
 10
0.3974399390680787
 20
16.70755601369528
 30
0.0
 10
0.1329529878192943
 20
16.70563803421645
 30
0.0
 10
-0.0002790131325696
 20
16.70563981739772
 30
0.0
  0
SPLINE
  5
7E
330
1F
100
AcDbEntity
  8
2D DXF
370
    -3
100
AcDbSpline
210
0.0
220
0.0
230
1.0
 70
     8
 71
     3
 72
    29
 73
    25
 74
     0
 42
0.000000001
 43
0.0000000001
 40
0.0
 40
0.0
 40
0.0
 40
0.0
 40
1.0
 40
2.0
 40
3.0
 40
4.0
 40
5.0
 40
6.0
 40
7.0
 40
8.0
 40
9.0
 40
10.0
 40
11.0
 40
12.0
 40
13.0
 40
14.0
 40
15.0
 40
16.0
 40
17.0
 40
18.0
 40
19.0
 40
20.0
 40
21.0
 40
22.0
 40
22.0
 40
22.0
 40
22.0
 10
-0.0002790131325696
 20
16.70563981739772
 30
0.0
 10
-0.1335110140844336
 20
16.70563803421645
 30
0.0
 10
-0.397997965333218
 20
16.70755601369528
 30
0.0
 10
-0.7946397164960217
 20
16.71648437960586
 30
0.0
 10
-1.191084323950633
 20
16.73190121318057
 30
0.0
 10
-1.587192486957804
 20
16.75440794917412
 30
0.0
 10
-1.982787181528238
 20
16.78468267646593
 30
0.0
 10
-2.377626109533026
 20
16.82363446853793
 30
0.0
 10
-2.771428792444397
 20
16.87199750839099
 30
0.0
 10
-3.163839669952893
 20
16.93061733231076
 30
0.0
 10
-3.554500460513339
 20
16.99996872201097
 30
0.0
 10
-3.943040669114339
 20
17.08036526327198
 30
0.0
 10
-4.32920421191244
 20
17.17145870137564
 30
0.0
 10
-4.713078736628177
 20
17.27172924706354
 30
0.0
 10
-5.094798664071391
 20
17.37989625180554
 30
0.0
 10
-5.474340523147532
 20
17.49546506773845
 30
0.0
 10
-5.851722184254356
 20
17.61789803679561
 30
0.0
 10
-6.226858958676473
 20
17.74706517262331
 30
0.0
 10
-6.602653053153119
 20
17.8740534856208
 30
0.0
 10
-6.98120143123009
 20
17.99369113214641
 30
0.0
 10
-7.362289453014739
 20
18.10097832852929
 30
0.0
 10
-7.751873700649867
 20
18.19249817027672
 30
0.0
 10
-8.134559853605765
 20
18.24057384942557
 30
0.0
 10
-8.428029725423642
 20
18.24456112075046
 30
0.0
 10
-8.499279756058343
 20
18.12279586268403
 30
0.0
  0
SPLINE
  5
7F
330
1F
100
AcDbEntity
  8
2D DXF
370
    -3
100
AcDbSpline
210
0.0
220
0.0
230
1.0
 70
     8
 71
     3
 72
    10
 73
     6
 74
     0
 42
0.000000001
 43
0.0000000001
 40
0.4512712821167845
 40
0.4512712821167845
 40
0.4512712821167845
 40
0.4512712821167845
 40
1.0
 40
2.0
 40
3.0
 40
3.0
 40
3.0
 40
3.0
 10
4.234051998875657
 20
19.68561250854768
 30
0.0
 10
4.255667873047059
 20
19.56886978742662
 30
0.0
 10
4.317792998973971
 20
19.2395834048801
 30
0.0
 10
4.426419877164676
 20
18.69912885521167
 30
0.0
 10
4.53104399415588
 20
18.27841666580514
 30
0.0
 10
4.610316243212083
 20
18.07677090872791
 30
0.0
  0
SPLINE
  5
80
330
1F
100
AcDbEntity
  8
2D DXF
370
    -3
100
AcDbSpline
210
0.0
220
0.0
230
1.0
 70
     8
 71
     3
 72
    10
 73
     6
 74
     0
 42
0.000000001
 43
0.0000000001
 40
0.4499194873218353
 40
0.4499194873218353
 40
0.4499194873218353
 40
0.4499194873218353
 40
1.0
 40
2.0
 40
3.0
 40
3.0
 40
3.0
 40
3.0
 10
-4.234450280035389
 20
19.68647529798689
 30
0.0
 10
-4.256117451485466
 20
19.56944461777914
 30
0.0
 10
-4.318293411713
 20
19.23987005117636
 30
0.0
 10
-4.426977903429815
 20
18.69912885521167
 30
0.0
 10
-4.531602020421019
 20
18.27841666580514
 30
0.0
 10
-4.610874269477222
 20
18.07677090872791
 30
0.0
  0
SPLINE
  5
81
330
1F
100
AcDbEntity
  8
2D DXF
370
    -3
100
AcDbSpline
210
0.0
220
0.0
230
1.0
 70
     8
 71
     2
 72
    11
 73
     8
 74
     0
 42
0.000000001
 43
0.0000000001
 40
0.0
 40
0.0
 40
0.0
 40
1.0
 40
2.0
 40
3.0
 40
4.0
 40
5.0
 40
6.0
 40
6.0
 40
6.0
 10
20.49800260050978
 20
28.07593225687054
 30
0.0
 10
20.6194764392975
 20
27.75825251080299
 30
0.0
 10
20.81147167309564
 20
27.10581448219162
 30
0.0
 10
20.971472966291
 20
26.44498712456645
 30
0.0
 10
21.11416860289989
 20
25.78026478620095
 30
0.0
 10
21.24968382472088
 20
25.11405396847911
 30
0.0
 10
21.37901129376473
 20
24.44661362318072
 30
0.0
 10
21.4391808001144
 20
24.11205098317659
 30
0.0
  0
SPLINE
  5
82
330
1F
100
AcDbEntity
  8
2D DXF
370
    -3
100
AcDbSpline
210
0.0
220
0.0
230
1.0
 70
     8
 71
     2
 72
    13
 73
    10
 74
     0
 42
0.000000001
 43
0.0000000001
 40
0.0
 40
0.0
 40
0.0
 40
1.0
 40
2.0
 40
3.0
 40
4.0
 40
5.0
 40
6.0
 40
7.0
 40
8.0
 40
8.0
 40
8.0
 10
22.06843822898077
 20
19.41829339689088
 30
0.0
 10
22.56961801421573
 20
19.73482069892748
 30
0.0
 10
23.6455551734872
 20
20.23053884814489
 30
0.0
 10
24.70494984295476
 20
20.75895062213111
 30
0.0
 10
25.72930414150102
 20
21.35226057440193
 30
0.0
 10
26.7016804604113
 20
22.03551574282776
 30
0.0
 10
27.43090936704806
 20
22.9806463922693
 30
0.0
 10
27.84023628670531
 20
24.09901856896791
 30
0.0
 10
27.97603209894487
 20
25.27938387550267
 30
0.0
 10
27.93871550033566
 20
25.87140242578644
 30
0.0
  0
SPLINE
  5
83
330
1F
100
AcDbEntity
  8
2D DXF
370
    -3
100
AcDbSpline
210
0.0
220
0.0
230
1.0
 70
     8
 71
     2
 72
    11
 73
     8
 74
     0
 42
0.000000001
 43
0.0000000001
 40
8.0
 40
8.0
 40
8.0
 40
9.0
 40
10.0
 40
11.0
 40
12.0
 40
13.0
 40
14.0
 40
14.0
 40
14.0
 10
27.93871550033566
 20
25.87140242578644
 30
0.0
 10
27.92277831775726
 20
26.1131773454327
 30
0.0
 10
27.84812984758213
 20
26.59222939518406
 30
0.0
 10
27.71953548100799
 20
27.05937099781107
 30
0.0
 10
27.48598597662971
 20
27.49443013698418
 30
0.0
 10
27.04672532916823
 20
27.72156533619473
 30
0.0
 10
26.56456467079767
 20
27.7857615001309
 30
0.0
 10
26.32208191669088
 20
27.78037735961404
 30
0.0
  0
SPLINE
  5
84
330
1F
100
AcDbEntity
  8
2D DXF
370
    -3
100
AcDbSpline
210
0.0
220
0.0
230
1.0
 70
     8
 71
     2
 72
    24
 73
    21
 74
     0
 42
0.000000001
 43
0.0000000001
 40
14.0
 40
14.0
 40
14.0
 40
15.0
 40
16.0
 40
17.0
 40
18.0
 40
19.0
 40
20.0
 40
21.0
 40
22.0
 40
23.0
 40
24.0
 40
25.0
 40
26.0
 40
26.0
 40
27.0
 40
28.0
 40
29.0
 40
30.0
 40
31.0
 40
32.0
 40
32.0
 40
32.0
 10
26.32208191669088
 20
27.78037735961404
 30
0.0
 10
25.92024074516394
 20
27.77145478967324
 30
0.0
 10
25.11925740126793
 20
27.70495391835446
 30
0.0
 10
24.319405049468
 20
27.62739871805677
 30
0.0
 10
23.51893142336945
 20
27.55647466694619
 30
0.0
 10
22.71627286148964
 20
27.51079755182301
 30
0.0
 10
21.91245842158111
 20
27.55663909843643
 30
0.0
 10
21.12831834165598
 20
27.7457786827418
 30
0.0
 10
20.40914604832739
 20
28.11035565126208
 30
0.0
 10
19.74914487650113
 20
28.57006281725577
 30
0.0
 10
19.12899016177403
 20
29.08162622578768
 30
0.0
 10
18.53123549995746
 20
29.61830039492657
 30
0.0
 10
17.91160584555757
 20
30.13364786593393
 30
0.0
 10
17.54802075678634
 20
30.30876178643866
 30
0.0
 10
17.51179086079668
 20
30.32621123451055
 30
0.0
 10
17.45391565969277
 20
30.37738920375593
 30
0.0
 10
17.4352680160103
 20
30.45463131436838
 30
0.0
 10
17.45071946656873
 20
30.53680368729196
 30
0.0
 10
17.52590427819462
 20
30.56884905996577
 30
0.0
 10
17.60457744929289
 20
30.57374539625451
 30
0.0
 10
17.64387154648563
 20
30.57497651443706
 30
0.0
  0
SPLINE
  5
85
330
1F
100
AcDbEntity
  8
2D DXF
370
    -3
100
AcDbSpline
210
0.0
220
0.0
230
1.0
 70
     8
 71
     2
 72
    15
 73
    12
 74
     0
 42
0.000000001
 43
0.0000000001
 40
32.0
 40
32.0
 40
32.0
 40
33.0
 40
34.0
 40
35.0
 40
36.0
 40
37.0
 40
38.0
 40
39.0
 40
40.0
 40
41.0
 40
42.0
 40
42.0
 40
42.0
 10
17.64387154648563
 20
30.57497651443706
 30
0.0
 10
17.73673079254331
 20
30.57788587524202
 30
0.0
 10
17.92253672614822
 20
30.57939074581549
 30
0.0
 10
18.10831408575433
 20
30.5755299847978
 30
0.0
 10
18.2938437090267
 20
30.56497498541495
 30
0.0
 10
18.4786926905266
 20
30.54587451419232
 30
0.0
 10
18.66238407364369
 20
30.51754830457851
 30
0.0
 10
18.84354536936451
 20
30.47579679403128
 30
0.0
 10
19.0198533738515
 20
30.4165009905116
 30
0.0
 10
19.18913607878329
 20
30.34045507432269
 30
0.0
 10
19.3512287447009
 20
30.24430647184023
 30
0.0
 10
19.42302520599537
 20
30.1962138974905
 30
0.0
  0
SPLINE
  5
86
330
1F
100
AcDbEntity
  8
2D DXF
370
    -3
100
AcDbSpline
210
0.0
220
0.0
230
1.0
 70
     8
 71
     2
 72
    15
 73
    12
 74
     0
 42
0.000000001
 43
0.0000000001
 40
42.0
 40
42.0
 40
42.0
 40
43.0
 40
44.0
 40
45.0
 40
46.0
 40
47.0
 40
48.0
 40
49.0
 40
50.0
 40
51.0
 40
52.0
 40
52.0
 40
52.0
 10
19.42302520599537
 20
30.1962138974905
 30
0.0
 10
19.606142359491
 20
30.07355359974853
 30
0.0
 10
19.94596264820927
 20
29.81843827742446
 30
0.0
 10
20.26190240674714
 20
29.52972436154334
 30
0.0
 10
20.56221239007834
 20
29.22581318476175
 30
0.0
 10
20.84607773046974
 20
28.90638852339157
 30
0.0
 10
21.12729311020331
 20
28.58462564023439
 30
0.0
 10
21.42075277804639
 20
28.27435191336234
 30
0.0
 10
21.74702025364991
 20
27.99400872649834
 30
0.0
 10
22.14796563787303
 20
27.83850928425903
 30
0.0
 10
22.574795033599
 20
27.79476287879937
 30
0.0
 10
22.78837037217374
 20
27.7945485744286
 30
0.0
  0
SPLINE
  5
87
330
1F
100
AcDbEntity
  8
2D DXF
370
    -3
100
AcDbSpline
210
0.0
220
0.0
230
1.0
 70
    24
 71
     2
 72
     6
 73
     3
 74
     0
 42
0.000000001
 43
0.0000000001
 40
0.0000269165430604
 40
0.0000269165430604
 40
0.0000269165430604
 40
0.3195090605941237
 40
0.3195090605941237
 40
0.3195090605941237
 10
21.98366435210983
 20
22.8244251176443
 30
0.0
 10
21.82522903042388
 20
22.80947894813077
 30
0.0
 10
21.66679370873794
 20
22.79453277861724
 30
0.0
  0
SPLINE
  5
88
330
1F
100
AcDbEntity
  8
2D DXF
370
    -3
100
AcDbSpline
210
0.0
220
0.0
230
1.0
 70
     8
 71
     2
 72
    53
 73
    50
 74
     0
 42
0.000000001
 43
0.0000000001
 40
0.0854334264385601
 40
0.0854334264385601
 40
0.0854334264385601
 40
1.0
 40
2.0
 40
3.0
 40
4.0
 40
5.0
 40
6.0
 40
7.0
 40
8.0
 40
9.0
 40
10.0
 40
11.0
 40
12.0
 40
13.0
 40
14.0
 40
15.0
 40
16.0
 40
17.0
 40
18.0
 40
19.0
 40
20.0
 40
21.0
 40
22.0
 40
23.0
 40
24.0
 40
25.0
 40
26.0
 40
27.0
 40
28.0
 40
29.0
 40
30.0
 40
31.0
 40
32.0
 40
33.0
 40
34.0
 40
35.0
 40
36.0
 40
37.0
 40
38.0
 40
39.0
 40
40.0
 40
41.0
 40
42.0
 40
43.0
 40
44.0
 40
45.0
 40
46.0
 40
47.0
 40
48.0
 40
48.0
 40
48.0
 10
39.27009049687439
 20
16.72738703406063
 30
0.0
 10
39.05795800888484
 20
16.83459139868806
 30
0.0
 10
38.62966829231607
 20
17.08790305738376
 30
0.0
 10
38.17765831904833
 20
17.34440377392791
 30
0.0
 10
37.71144166213674
 20
17.57425254739731
 30
0.0
 10
37.23278857390619
 20
17.77747642664104
 30
0.0
 10
36.73519905523585
 20
17.92882091313177
 30
0.0
 10
36.22693533645554
 20
18.03814800734179
 30
0.0
 10
35.71297150378774
 20
18.11580858652127
 30
0.0
 10
35.19584860195175
 20
18.16803036639341
 30
0.0
 10
34.67708088852987
 20
18.19954662412216
 30
0.0
 10
34.15757284068957
 20
18.21390927440441
 30
0.0
 10
33.63787682003806
 20
18.21386586677052
 30
0.0
 10
33.11832934307483
 20
18.20180128552782
 30
0.0
 10
32.59913012196972
 20
18.17939345917377
 30
0.0
 10
32.08040247577475
 20
18.1479654180731
 30
0.0
 10
31.56220954958235
 20
18.10874076264619
 30
0.0
 10
31.04452725533167
 20
18.06330362408315
 30
0.0
 10
30.52725844318894
 20
18.01340999148725
 30
0.0
 10
30.01033078848889
 20
17.96010049242759
 30
0.0
 10
29.49372080817818
 20
17.90379831969624
 30
0.0
 10
28.97746117650092
 20
17.84437173292778
 30
0.0
 10
28.46151631670313
 20
17.78227011713085
 30
0.0
 10
27.94589577153079
 20
17.71753461186967
 30
0.0
 10
27.43052841487821
 20
17.6508172649151
 30
0.0
 10
26.91532851367953
 20
17.58282088203175
 30
0.0
 10
26.40019382799426
 20
17.51433361622711
 30
0.0
 10
25.88493333548399
 20
17.44679183174581
 30
0.0
 10
25.36926353705502
 20
17.3824425336925
 30
0.0
 10
24.85295161626755
 20
17.32336023172083
 30
0.0
 10
24.33543348653603
 20
17.27584940663247
 30
0.0
 10
23.81598637703672
 20
17.25247212777508
 30
0.0
 10
23.29676518831138
 20
17.28634662563267
 30
0.0
 10
22.7877116888634
 20
17.40528197090931
 30
0.0
 10
22.34366360041918
 20
17.68486840319986
 30
0.0
 10
22.02323682534154
 20
18.10020300740844
 30
0.0
 10
21.84179449439796
 20
18.58970486374794
 30
0.0
 10
21.7365848625351
 20
19.09917499841922
 30
0.0
 10
21.67457260788143
 20
19.61526772812117
 30
0.0
 10
21.64102096813986
 20
20.13393178064489
 30
0.0
 10
21.61516138525309
 20
20.65294837693445
 30
0.0
 10
21.58719171456363
 20
21.1718700498426
 30
0.0
 10
21.55035575992599
 20
21.69024576023023
 30
0.0
 10
21.50083855054856
 20
22.20760055202589
 30
0.0
 10
21.43459964376814
 20
22.72299631148971
 30
0.0
 10
21.35718539259278
 20
23.23723886043817
 30
0.0
 10
21.24142642285443
 20
23.74301585890497
 30
0.0
 10
21.06001015928814
 20
24.23740313902867
 30
0.0
 10
20.70192644080765
 20
24.61142198203619
 30
0.0
 10
20.44194767059105
 20
24.68190548779614
 30
0.0
  0
SPLINE
  5
89
330
1F
100
AcDbEntity
  8
2D DXF
370
    -3
100
AcDbSpline
210
0.0
220
0.0
230
1.0
 70
     8
 71
     2
 72
     7
 73
     4
 74
     0
 42
0.000000001
 43
0.0000000001
 40
0.0
 40
0.0
 40
0.0
 40
1.0
 40
2.0
 40
2.0
 40
2.0
 10
21.98366435210983
 20
22.8244251176443
 30
0.0
 10
21.97811950957362
 20
22.85294322238208
 30
0.0
 10
21.83740719991187
 20
23.64686216120053
 30
0.0
 10
21.82725084126457
 20
23.6742015374973
 30
0.0
  0
SPLINE
  5
8A
330
1F
100
AcDbEntity
  8
2D DXF
370
    -3
100
AcDbSpline
210
0.0
220
0.0
230
1.0
 70
     8
 71
     3
 72
    11
 73
     7
 74
     0
 42
0.000000001
 43
0.0000000001
 40
2.0
 40
2.0
 40
2.0
 40
2.0
 40
2.50156835232133
 40
2.50156835232133
 40
2.50156835232133
 40
2.868978274657099
 40
2.868978274657099
 40
2.868978274657099
 40
2.868978274657099
 10
21.82725084126457
 20
23.6742015374973
 30
0.0
 10
21.79655619026079
 20
23.82235919189702
 30
0.0
 10
21.75529932749009
 20
24.00415956984257
 30
0.0
 10
21.71480218887518
 20
24.12262146950606
 30
0.0
 10
21.68227864963399
 20
24.21775906129798
 30
0.0
 10
21.65642855465768
 20
24.25582070994858
 30
0.0
 10
21.6364030079684
 20
24.25529648650721
 30
0.0
  0
SPLINE
  5
8B
330
1F
100
AcDbEntity
  8
2D DXF
370
    -3
100
AcDbSpline
210
0.0
220
0.0
230
1.0
 70
     8
 71
     3
 72
     8
 73
     4
 74
     0
 42
0.000000001
 43
0.0000000001
 40
2.868978274657099
 40
2.868978274657099
 40
2.868978274657099
 40
2.868978274657099
 40
2.942255389416193
 40
2.942255389416193
 40
2.942255389416193
 40
2.942255389416193
 10
21.6364030079684
 20
24.25529648650721
 30
0.0
 10
21.63249175188099
 20
24.25521920180218
 30
0.0
 10
21.62885618085915
 20
24.25397463482879
 30
0.0
 10
21.6255092491964
 20
24.25155444300619
 30
0.0
  0
SPLINE
  5
8C
330
1F
100
AcDbEntity
  8
2D DXF
370
    -3
100
AcDbSpline
210
0.0
220
0.0
230
1.0
 70
     8
 71
     3
 72
     8
 73
     4
 74
     0
 42
0.000000001
 43
0.0000000001
 40
2.942255389416193
 40
2.942255389416193
 40
2.942255389416193
 40
2.942255389416193
 40
3.256087856163177
 40
3.256087856163177
 40
3.256087856163177
 40
3.256087856163177
 10
21.6255092491964
 20
24.25155444300619
 30
0.0
 10
21.54069221664082
 20
24.1902204291554
 30
0.0
 10
21.45588901657811
 20
24.1289501778267
 30
0.0
 10
21.37106995863661
 20
24.06778739311869
 30
0.0
  0
SPLINE
  5
8D
330
1F
100
AcDbEntity
  8
2D DXF
370
    -3
100
AcDbSpline
210
0.0
220
0.0
230
1.0
 70
     8
 71
     3
 72
    11
 73
     7
 74
     0
 42
0.000000001
 43
0.0000000001
 40
1.106384034209326
 40
1.106384034209326
 40
1.106384034209326
 40
1.106384034209326
 40
1.617990370078946
 40
1.617990370078946
 40
1.617990370078946
 40
1.632577816608413
 40
1.632577816608413
 40
1.632577816608413
 40
1.632577816608413
 10
21.78679851796966
 20
21.74790360623444
 30
0.0
 10
21.85715847555463
 20
21.90272954546975
 30
0.0
 10
21.92750472999768
 20
22.05750851234313
 30
0.0
 10
21.99782521478664
 20
22.2121933070212
 30
0.0
 10
21.9998309592014
 20
22.21660536652134
 30
0.0
 10
22.00183667145404
 20
22.22101732108189
 30
0.0
 10
22.00384289106671
 20
22.22542891532677
 30
0.0
  0
SPLINE
  5
8E
330
1F
100
AcDbEntity
  8
2D DXF
370
    -3
100
AcDbSpline
210
0.0
220
0.0
230
1.0
 70
     8
 71
     2
 72
    11
 73
     8
 74
     0
 42
0.000000001
 43
0.0000000001
 40
1.632577816608413
 40
1.632577816608413
 40
1.632577816608413
 40
2.632577427346236
 40
3.632577505198671
 40
4.632577583051106
 40
5.632577660903541
 40
6.632577738755977
 40
7.632577816608412
 40
7.632577816608412
 40
7.632577816608412
 10
22.00384289106671
 20
22.22542891532677
 30
0.0
 10
22.02107066340079
 20
22.27303921523419
 30
0.0
 10
22.02805776507614
 20
22.37401090496218
 30
0.0
 10
22.02709388155654
 20
22.47472975132523
 30
0.0
 10
22.02020225519732
 20
22.57528219286247
 30
0.0
 10
22.0087302178099
 20
22.67539321751384
 30
0.0
 10
21.99327363286739
 20
22.774967347198
 30
0.0
 10
21.98366435210988
 20
22.82442511764428
 30
0.0
  0
LINE
  5
8F
330
1F
100
AcDbEntity
  8
2D DXF
370
    -3
100
AcDbLine
 10
21.88613041427254
 20
20.19038156585638
 30
0.0
 11
21.97720833370306
 21
20.36540996736503
 31
0.0
  0
SPLINE
  5
90
330
1F
100
AcDbEntity
  8
2D DXF
370
    -3
100
AcDbSpline
210
0.0
220
0.0
230
1.0
 70
     8
 71
     2
 72
    19
 73
    16
 74
     0
 42
0.000000001
 43
0.0000000001
 40
-49.0
 40
-49.0
 40
-49.0
 40
-48.0
 40
-47.0
 40
-46.0
 40
-45.0
 40
-44.0
 40
-43.0
 40
-42.0
 40
-41.0
 40
-40.0
 40
-39.0
 40
-38.0
 40
-37.0
 40
-36.0
 40
-35.0
 40
-35.0
 40
-35.0
 10
17.64779715755753
 20
30.57376007949427
 30
0.0
 10
17.85920994101252
 20
30.48241340709124
 30
0.0
 10
18.23931161319609
 20
30.22208959138012
 30
0.0
 10
18.5941642062333
 20
29.93008186508783
 30
0.0
 10
18.93751287524549
 20
29.62454018703243
 30
0.0
 10
19.28315600914539
 20
29.32167136522823
 30
0.0
 10
19.63503914872689
 20
29.02602006584216
 30
0.0
 10
19.99744432870671
 20
28.74330602849079
 30
0.0
 10
20.3738647108151
 20
28.47942911218327
 30
0.0
 10
20.76728998775985
 20
28.24145122904293
 30
0.0
 10
21.18244454067661
 20
28.04290831326465
 30
0.0
 10
21.62150277837566
 20
27.90470889066303
 30
0.0
 10
22.07473804964764
 20
27.82557925353801
 30
0.0
 10
22.5334508237861
 20
27.79246436689764
 30
0.0
 10
23.00614947278387
 20
27.79539232535501
 30
0.0
 10
23.23555962342152
 20
27.80956163086098
 30
0.0
  0
SPLINE
  5
91
330
1F
100
AcDbEntity
  8
2D DXF
370
    -3
100
AcDbSpline
210
0.0
220
0.0
230
1.0
 70
     8
 71
     2
 72
    23
 73
    20
 74
     0
 42
0.000000001
 43
0.0000000001
 40
-35.0
 40
-35.0
 40
-35.0
 40
-34.0
 40
-33.0
 40
-32.0
 40
-31.0
 40
-30.0
 40
-29.0
 40
-28.0
 40
-27.0
 40
-26.0
 40
-25.0
 40
-24.0
 40
-23.0
 40
-22.0
 40
-21.0
 40
-20.0
 40
-19.0
 40
-18.0
 40
-17.0
 40
-17.0
 40
-17.0
 10
23.23555962342152
 20
27.80956163086098
 30
0.0
 10
23.5000940853393
 20
27.82590035692585
 30
0.0
 10
24.04121103197269
 20
27.87314313866123
 30
0.0
 10
24.56895133695787
 20
27.92271652051043
 30
0.0
 10
25.0964974780801
 20
27.97429966399667
 30
0.0
 10
25.6245321425526
 20
28.02085241282748
 30
0.0
 10
26.15367268432635
 20
28.0523755305605
 30
0.0
 10
26.68397287993719
 20
28.06247788865926
 30
0.0
 10
27.21124668814133
 20
27.97606089410629
 30
0.0
 10
27.66759698965086
 20
27.6882321106356
 30
0.0
 10
27.93066260031759
 20
27.21998743900237
 30
0.0
 10
28.07376709306857
 20
26.70856571589562
 30
0.0
 10
28.15459476224061
 20
26.18426843036882
 30
0.0
 10
28.19039179063765
 20
25.65512233374769
 30
0.0
 10
28.1831582050911
 20
25.12482831435526
 30
0.0
 10
28.13393299625767
 20
24.59674743671661
 30
0.0
 10
28.03724343058065
 20
24.0751483349062
 30
0.0
 10
27.88708251952306
 20
23.56623148923701
 30
0.0
 10
27.62591462510397
 20
22.98877261433692
 30
0.0
 10
27.48514731656451
 20
22.76378576709802
 30
0.0
  0
SPLINE
  5
92
330
1F
100
AcDbEntity
  8
2D DXF
370
    -3
100
AcDbSpline
210
0.0
220
0.0
230
1.0
 70
     8
 71
     2
 72
    19
 73
    16
 74
     0
 42
0.000000001
 43
0.0000000001
 40
-17.0
 40
-17.0
 40
-17.0
 40
-16.0
 40
-15.0
 40
-14.0
 40
-13.0
 40
-12.0
 40
-11.0
 40
-10.0
 40
-9.0
 40
-7.999999999999998
 40
-6.999999999999998
 40
-5.999999999999998
 40
-4.999999999999998
 40
-3.999999999999997
 40
-2.999999999999997
 40
-2.999999999999997
 40
-2.999999999999997
 10
27.48514731656451
 20
22.76378576709802
 30
0.0
 10
27.36749682750491
 20
22.57574627920649
 30
0.0
 10
27.02234386933208
 20
22.15127152303671
 30
0.0
 10
26.70275459211797
 20
21.84362059467137
 30
0.0
 10
26.35270219314793
 20
21.57146339751809
 30
0.0
 10
25.98528709297273
 20
21.32348309855507
 30
0.0
 10
25.61045833066891
 20
21.08704332253872
 30
0.0
 10
25.22895170494257
 20
20.86151153078346
 30
0.0
 10
24.84196153530979
 20
20.64554119308366
 30
0.0
 10
24.45025531487829
 20
20.43825966664784
 30
0.0
 10
24.05476743268406
 20
20.23830276644173
 30
0.0
 10
23.65667277208416
 20
20.04357784491857
 30
0.0
 10
23.25826901707188
 20
19.84964547058304
 30
0.0
 10
22.86166660829599
 20
19.65114849995393
 30
0.0
 10
22.4907468329024
 20
19.40802497293364
 30
0.0
 10
22.29659409677856
 20
19.30109172016675
 30
0.0
  0
SPLINE
  5
93
330
1F
100
AcDbEntity
  8
2D DXF
370
    -3
100
AcDbSpline
210
0.0
220
0.0
230
1.0
 70
     8
 71
     2
 72
     8
 73
     5
 74
     0
 42
0.000000001
 43
0.0000000001
 40
-2.999999999999997
 40
-2.999999999999997
 40
-2.999999999999997
 40
-1.999999999999998
 40
-0.9999999999999983
 40
0.0000000000000009
 40
0.0000000000000009
 40
0.0000000000000009
 10
22.29659409677856
 20
19.30109172016675
 30
0.0
 10
22.25121976978727
 20
19.2761009604476
 30
0.0
 10
22.14557094037264
 20
19.29026249692611
 30
0.0
 10
22.07303426639908
 20
19.36620331984896
 30
0.0
 10
22.06843822898077
 20
19.41829339689088
 30
0.0
  0
SPLINE
  5
94
330
1F
100
AcDbEntity
  8
2D DXF
370
    -3
100
AcDbSpline
210
0.0
220
0.0
230
1.0
 70
     8
 71
     3
 72
     8
 73
     4
 74
     0
 42
0.000000001
 43
0.0000000001
 40
0.0000000000000009
 40
0.0000000000000009
 40
0.0000000000000009
 40
0.0000000000000009
 40
2.383983832605285
 40
2.383983832605285
 40
2.383983832605285
 40
2.383983832605285
 10
22.06843822898077
 20
19.41829339689088
 30
0.0
 10
21.99861392842752
 20
20.20966058218097
 30
0.0
 10
21.91052983951334
 20
20.99975115902896
 30
0.0
 10
21.80465182524279
 20
21.78718914442103
 30
0.0
  0
SPLINE
  5
95
330
1F
100
AcDbEntity
  8
2D DXF
370
    -3
100
AcDbSpline
210
0.0
220
0.0
230
1.0
 70
    12
 71
     2
 72
    10
 73
     7
 74
     0
 42
0.000000001
 43
0.0000000001
 40
-1.64853994444304
 40
-1.64853994444304
 40
-1.64853994444304
 40
-1.484402528821177
 40
-1.484402528821177
 40
-0.9896016858807848
 40
-0.9896016858807848
 40
-0.6589382585622603
 40
-0.6589382585622603
 40
-0.6589382585622603
 10
-9.73843159336534
 20
59.10447722061177
 30
0.0
 41
0.8701409549609243
 10
-9.778022992739078
 20
59.17373972374949
 30
0.0
 41
0.9028402302156134
 10
-9.778022992739096
 20
59.25401205573569
 30
0.0
 41
1.0
 10
-9.778022992739068
 20
59.56298085154143
 30
0.0
 41
0.7071067811865476
 10
-9.464956821508366
 20
59.56976795716078
 30
0.0
 41
1.0
 10
-9.28101653054232
 20
59.57375568338987
 30
0.0
 41
0.804266550970937
 10
-9.191482049651365
 20
59.4171211020984
 30
0.0
 41
0.8701409549609225
  0
SPLINE
  5
96
330
1F
100
AcDbEntity
  8
2D DXF
370
    -3
100
AcDbSpline
210
0.0
220
0.0
230
1.0
 70
    12
 71
     2
 72
    10
 73
     7
 74
     0
 42
0.000000001
 43
0.0000000001
 40
-0.1249247857672615
 40
-0.1249247857672615
 40
-0.1249247857672615
 40
0.0
 40
0.0
 40
0.3691278110272287
 40
0.3691278110272287
 40
0.6133308362871122
 40
0.6133308362871122
 40
0.6133308362871122
 10
-9.762116403446266
 20
59.14591221049579
 30
0.0
 41
0.8688448250482474
 10
-9.80259651323613
 20
59.21672945302029
 30
0.0
 41
0.9008754650289541
 10
-9.801689168781536
 20
59.29881844824583
 30
0.0
 41
1.0
 10
-9.79827346578826
 20
59.60784290449064
 30
0.0
 41
0.7071067811865476
 10
-9.485225928596009
 20
59.6112586074839
 30
0.0
 41
1.0
 10
-9.303586593751948
 20
59.6132404982385
 30
0.0
 41
0.80623131615766
 10
-9.215166859732332
 20
59.4585560919825
 30
0.0
 41
0.8688448250482044
  0
SPLINE
  5
97
330
1F
100
AcDbEntity
  8
2D DXF
370
    -3
100
AcDbSpline
210
0.0
220
0.0
230
1.0
 70
     8
 71
     2
 72
    11
 73
     8
 74
     0
 42
0.000000001
 43
0.0000000001
 40
0.0
 40
0.0
 40
0.0
 40
1.0
 40
2.0
 40
3.0
 40
4.0
 40
5.0
 40
6.0
 40
6.0
 40
6.0
 10
-8.523288141039188
 20
40.40490843279166
 30
0.0
 10
-8.58045095076875
 20
40.34347403817754
 30
0.0
 10
-8.741044060769156
 20
40.2952424780956
 30
0.0
 10
-8.90416316799309
 20
40.33373427208274
 30
0.0
 10
-9.027127583560912
 20
40.44750075572927
 30
0.0
 10
-9.07817625045675
 20
40.60714448529023
 30
0.0
 10
-9.042467585802115
 20
40.77097241382923
 30
0.0
 10
-8.98571519530023
 20
40.83276497357078
 30
0.0
  0
LINE
  5
98
330
1F
100
AcDbEntity
  8
2D DXF
370
    -3
100
AcDbLine
 10
-6.542006898051625
 20
42.54627583409501
 30
0.0
 11
-8.500396745796508
 21
40.42964943698599
 31
0.0
  0
SPLINE
  5
99
330
1F
100
AcDbEntity
  8
2D DXF
370
    -3
100
AcDbSpline
210
0.0
220
0.0
230
1.0
 70
    12
 71
     2
 72
    10
 73
     7
 74
     0
 42
0.000000001
 43
0.0000000001
 40
15.61568569699666
 40
15.61568569699666
 40
15.61568569699666
 40
15.87654658997706
 40
15.87654658997706
 40
16.37134743291745
 40
16.37134743291745
 40
16.60528738287744
 40
16.60528738287744
 40
16.60528738287744
 10
-8.500396745796541
 20
40.429649436986
 30
0.0
 41
0.853986900470654
 10
-8.593533916376751
 20
40.3289868472421
 30
0.0
 41
0.8455855771111043
 10
-8.731610272927213
 20
40.3307129467803
 30
0.0
 41
1.0
 10
-9.044804203681162
 20
40.3346281999978
 30
0.0
 41
0.7071067811865476
 10
-9.044804203681196
 20
40.64749296059288
 30
0.0
 41
1.0
 10
-9.044804203681183
 20
40.76890161405519
 30
0.0
 41
0.8615212040754463
 10
-8.962823800057883
 20
40.85750597776476
 30
0.0
 41
0.8539869004706544
  0
LINE
  5
9A
330
1F
100
AcDbEntity
  8
2D DXF
370
    -3
100
AcDbLine
 10
-8.96282380005789
 20
40.85750597776475
 30
0.0
 11
-6.956866426701112
 21
43.02554332375671
 31
0.0
  0
SPLINE
  5
9B
330
1F
100
AcDbEntity
  8
2D DXF
370
    -3
100
AcDbSpline
210
0.0
220
0.0
230
1.0
 70
    12
 71
     2
 72
    10
 73
     7
 74
     0
 42
0.000000001
 43
0.0000000001
 40
-1.64853994444304
 40
-1.64853994444304
 40
-1.64853994444304
 40
-1.484402528821177
 40
-1.484402528821177
 40
-0.9896016858807848
 40
-0.9896016858807848
 40
-0.6589382585622603
 40
-0.6589382585622603
 40
-0.6589382585622603
 10
9.738431593365371
 20
59.10447722061177
 30
0.0
 41
0.8701409549609243
 10
9.778022992739093
 20
59.17373972374949
 30
0.0
 41
0.9028402302156134
 10
9.778022992739096
 20
59.25401205573569
 30
0.0
 41
1.0
 10
9.778022992739048
 20
59.56298085154143
 30
0.0
 41
0.7071067811865476
 10
9.464956821508366
 20
59.56976795716078
 30
0.0
 41
1.0
 10
9.281016530542338
 20
59.57375568338987
 30
0.0
 41
0.804266550970937
 10
9.19148204965138
 20
59.4171211020984
 30
0.0
 41
0.8701409549609225
  0
SPLINE
  5
9C
330
1F
100
AcDbEntity
  8
2D DXF
370
    -3
100
AcDbSpline
210
0.0
220
0.0
230
1.0
 70
    12
 71
     2
 72
    10
 73
     7
 74
     0
 42
0.000000001
 43
0.0000000001
 40
-0.1249247857672615
 40
-0.1249247857672615
 40
-0.1249247857672615
 40
0.0
 40
0.0
 40
0.3691278110272287
 40
0.3691278110272287
 40
0.6133308362871122
 40
0.6133308362871122
 40
0.6133308362871122
 10
9.762116403446251
 20
59.14591221049579
 30
0.0
 41
0.8688448250482474
 10
9.802596513236082
 20
59.21672945302029
 30
0.0
 41
0.9008754650289541
 10
9.801689168781536
 20
59.29881844824583
 30
0.0
 41
1.0
 10
9.79827346578824
 20
59.60784290449064
 30
0.0
 41
0.7071067811865476
 10
9.485225928596009
 20
59.6112586074839
 30
0.0
 41
1.0
 10
9.303586593752001
 20
59.6132404982385
 30
0.0
 41
0.80623131615766
 10
9.2151668597323
 20
59.4585560919825
 30
0.0
 41
0.8688448250482044
  0
SPLINE
  5
9D
330
1F
100
AcDbEntity
  8
2D DXF
370
    -3
100
AcDbSpline
210
0.0
220
0.0
230
1.0
 70
     8
 71
     2
 72
    11
 73
     8
 74
     0
 42
0.000000001
 43
0.0000000001
 40
0.0
 40
0.0
 40
0.0
 40
1.0
 40
2.0
 40
3.0
 40
4.0
 40
5.0
 40
6.0
 40
6.0
 40
6.0
 10
8.523288141039188
 20
40.40490843279166
 30
0.0
 10
8.58045095076875
 20
40.34347403817754
 30
0.0
 10
8.741044060769156
 20
40.2952424780956
 30
0.0
 10
8.90416316799309
 20
40.33373427208274
 30
0.0
 10
9.027127583560912
 20
40.44750075572927
 30
0.0
 10
9.07817625045675
 20
40.60714448529023
 30
0.0
 10
9.042467585802115
 20
40.77097241382923
 30
0.0
 10
8.98571519530023
 20
40.83276497357078
 30
0.0
  0
LINE
  5
9E
330
1F
100
AcDbEntity
  8
2D DXF
370
    -3
100
AcDbLine
 10
6.542006898051625
 20
42.54627583409501
 30
0.0
 11
8.500396745796508
 21
40.42964943698599
 31
0.0
  0
SPLINE
  5
9F
330
1F
100
AcDbEntity
  8
2D DXF
370
    -3
100
AcDbSpline
210
0.0
220
0.0
230
1.0
 70
    12
 71
     2
 72
    10
 73
     7
 74
     0
 42
0.000000001
 43
0.0000000001
 40
15.61568569699666
 40
15.61568569699666
 40
15.61568569699666
 40
15.87654658997706
 40
15.87654658997706
 40
16.37134743291745
 40
16.37134743291745
 40
16.60528738287744
 40
16.60528738287744
 40
16.60528738287744
 10
8.500396745796508
 20
40.429649436986
 30
0.0
 41
0.853986900470654
 10
8.593533916376769
 20
40.3289868472421
 30
0.0
 41
0.8455855771111043
 10
8.731610272927213
 20
40.3307129467803
 30
0.0
 41
1.0
 10
9.044804203681142
 20
40.3346281999978
 30
0.0
 41
0.7071067811865476
 10
9.044804203681196
 20
40.64749296059288
 30
0.0
 41
1.0
 10
9.044804203681183
 20
40.76890161405519
 30
0.0
 41
0.8615212040754463
 10
8.962823800057917
 20
40.85750597776476
 30
0.0
 41
0.8539869004706544
  0
LINE
  5
A0
330
1F
100
AcDbEntity
  8
2D DXF
370
    -3
100
AcDbLine
 10
8.96282380005789
 20
40.85750597776475
 30
0.0
 11
6.956866426701112
 21
43.02554332375671
 31
0.0
  0
SPLINE
  5
A1
330
1F
100
AcDbEntity
  8
2D DXF
370
    -3
100
AcDbSpline
210
0.0
220
0.0
230
1.0
 70
    28
 71
     2
 72
     6
 73
     3
 74
     0
 42
0.000000001
 43
0.0000000001
 40
0.0
 40
0.0
 40
0.0
 40
6.115023150873985
 40
6.115023150873985
 40
6.115023150873985
 10
-9.191482049651352
 20
59.41712110209841
 30
0.0
 41
0.8701409549609229
 10
-8.853207545878798
 20
58.82533250029145
 30
0.0
 41
0.8701409549609229
 10
-8.514933042106243
 20
58.23354389848447
 30
0.0
 41
0.8701409549609229
  0
LINE
  5
A2
330
1F
100
AcDbEntity
  8
2D DXF
370
    -3
100
AcDbLine
 10
-6.549316343410112
 20
54.89157798940007
 30
0.0
 11
-6.645087649080608
 21
54.95863390349407
 31
0.0
  0
SPLINE
  5
A3
330
1F
100
AcDbEntity
  8
2D DXF
370
    -3
100
AcDbSpline
210
0.0
220
0.0
230
1.0
 70
     8
 71
     2
 72
     6
 73
     3
 74
     0
 42
0.000000001
 43
0.0000000001
 40
-0.0000000000000009
 40
-0.0000000000000009
 40
-0.0000000000000009
 40
0.2442650069631679
 40
0.2442650069631679
 40
0.2442650069631679
 10
-6.645087649080608
 20
54.95863390349407
 30
0.0
 10
-6.675721202419538
 20
54.98008250865515
 30
0.0
 10
-6.706254605028221
 20
55.00167144011898
 30
0.0
  0
SPLINE
  5
A4
330
1F
100
AcDbEntity
  8
2D DXF
370
    -3
100
AcDbSpline
210
0.0
220
0.0
230
1.0
 70
    28
 71
     2
 72
     6
 73
     3
 74
     0
 42
0.000000001
 43
0.0000000001
 40
8.0305867916102
 40
8.0305867916102
 40
8.0305867916102
 40
15.32374634850652
 40
15.32374634850652
 40
15.32374634850652
 10
-8.93153687876707
 20
57.69286892725182
 30
0.0
 41
0.8701409549609244
 10
-9.334984236066225
 20
58.39867307393178
 30
0.0
 41
0.8701409549609244
 10
-9.738431593365378
 20
59.10447722061176
 30
0.0
 41
0.8701409549609244
  0
SPLINE
  5
A5
330
1F
100
AcDbEntity
  8
2D DXF
370
    -3
100
AcDbSpline
210
0.0
220
0.0
230
1.0
 70
    28
 71
     2
 72
     6
 73
     3
 74
     0
 42
0.000000001
 43
0.0000000001
 40
0.0
 40
0.0
 40
0.0
 40
6.093726054981475
 40
6.093726054981475
 40
6.093726054981475
 10
9.19148204965132
 20
59.41712110209841
 30
0.0
 41
0.8701409549609229
 10
8.854385671352205
 20
58.82739355194894
 30
0.0
 41
0.8701409549609229
 10
8.517289293053091
 20
58.23766600179947
 30
0.0
 41
0.8701409549609229
  0
LINE
  5
A6
330
1F
100
AcDbEntity
  8
2D DXF
370
    -3
100
AcDbLine
 10
6.549316343410112
 20
54.89157798940007
 30
0.0
 11
6.645087649080608
 21
54.95863390349407
 31
0.0
  0
SPLINE
  5
A7
330
1F
100
AcDbEntity
  8
2D DXF
370
    -3
100
AcDbSpline
210
0.0
220
0.0
230
1.0
 70
     8
 71
     2
 72
     6
 73
     3
 74
     0
 42
0.000000001
 43
0.0000000001
 40
-0.0000000000000009
 40
-0.0000000000000009
 40
-0.0000000000000009
 40
0.2569226384008862
 40
0.2569226384008862
 40
0.2569226384008862
 10
6.645087649080608
 20
54.95863390349407
 30
0.0
 10
6.677308610426167
 20
54.98119395946163
 30
0.0
 10
6.709418772640078
 20
55.00390926175088
 30
0.0
  0
SPLINE
  5
A8
330
1F
100
AcDbEntity
  8
2D DXF
370
    -3
100
AcDbSpline
210
0.0
220
0.0
230
1.0
 70
    28
 71
     2
 72
     6
 73
     3
 74
     0
 42
0.000000001
 43
0.0000000001
 40
8.053532258596599
 40
8.053532258596599
 40
8.053532258596599
 40
15.32374634850652
 40
15.32374634850652
 40
15.32374634850652
 10
8.934075500867804
 20
57.69731007669333
 30
0.0
 41
0.8701409549609244
 10
9.3362535471166
 20
58.40089364865255
 30
0.0
 41
0.8701409549609244
 10
9.738431593365394
 20
59.10447722061176
 30
0.0
 41
0.8701409549609244
  0
SPLINE
  5
A9
330
1F
100
AcDbEntity
  8
2D DXF
370
    -3
100
AcDbSpline
210
0.0
220
0.0
230
1.0
 70
    28
 71
     2
 72
     6
 73
     3
 74
     0
 42
0.000000001
 43
0.0000000001
 40
0.2649156335258869
 40
0.2649156335258869
 40
0.2649156335258869
 40
2.688959837989494
 40
2.688959837989494
 40
2.688959837989494
 10
-6.193784747775445
 20
16.85823821309983
 30
0.0
 41
0.9614950932561934
 10
-5.211558191848526
 20
16.68091333376993
 30
0.0
 41
0.9614950932561934
 10
-4.229331635921605
 20
16.50358845444002
 30
0.0
 41
0.9614950932561934
  0
SPLINE
  5
AA
330
1F
100
AcDbEntity
  8
2D DXF
370
    -3
100
AcDbSpline
210
0.0
220
0.0
230
1.0
 70
    28
 71
     2
 72
     6
 73
     3
 74
     0
 42
0.000000001
 43
0.0000000001
 40
5.610102556432636
 40
5.610102556432636
 40
5.610102556432636
 40
9.199595971870664
 40
9.199595971870664
 40
9.199595971870664
 10
-0.0654298166071777
 20
16.27407056988925
 30
0.0
 41
0.9715622708606555
 10
-1.3342256345396
 20
16.40675474210835
 30
0.0
 41
0.9715622708606555
 10
-2.603021452472023
 20
16.53943891432744
 30
0.0
 41
0.9715622708606555
  0
SPLINE
  5
AB
330
1F
100
AcDbEntity
  8
2D DXF
370
    -3
100
AcDbSpline
210
0.0
220
0.0
230
1.0
 70
     8
 71
     2
 72
    10
 73
     7
 74
     0
 42
0.000000001
 43
0.0000000001
 40
-5.0
 40
-5.0
 40
-5.0
 40
-4.0
 40
-3.0
 40
-2.0
 40
-1.0
 40
0.0
 40
0.0
 40
0.0
 10
-3.404805737037407
 20
16.96783228514874
 30
0.0
 10
-3.404920630348641
 20
16.92480656796675
 30
0.0
 10
-3.420814174340222
 20
16.84023712318004
 30
0.0
 10
-3.45254170533218
 20
16.76012997651138
 30
0.0
 10
-3.503392234653688
 20
16.69027104436007
 30
0.0
 10
-3.577477871642031
 20
16.64296972835961
 30
0.0
 10
-3.622151502401977
 20
16.64608462109632
 30
0.0
  0
SPLINE
  5
AC
330
1F
100
AcDbEntity
  8
2D DXF
370
    -3
100
AcDbSpline
210
0.0
220
0.0
230
1.0
 70
    28
 71
     2
 72
     6
 73
     3
 74
     0
 42
0.000000001
 43
0.0000000001
 40
0.0
 40
0.0
 40
0.0
 40
3.300845518500278
 40
3.300845518500278
 40
3.300845518500278
 10
-3.622151502401977
 20
16.64608462109632
 30
0.0
 41
0.9715622708606555
 10
-4.789089329631504
 20
16.76808185469708
 30
0.0
 41
0.9715622708606555
 10
-5.95602715686103
 20
16.89007908829784
 30
0.0
 41
0.9715622708606556
  0
SPLINE
  5
AD
330
1F
100
AcDbEntity
  8
2D DXF
370
    -3
100
AcDbSpline
210
0.0
220
0.0
230
1.0
 70
     8
 71
     2
 72
    11
 73
     8
 74
     0
 42
0.000000001
 43
0.0000000001
 40
3.300845518500278
 40
3.300845518500278
 40
3.300845518500278
 40
4.300845518500278
 40
5.300845518500278
 40
6.300845518500278
 40
7.300845518500278
 40
8.300845518500278
 40
9.300845518500278
 40
9.300845518500278
 40
9.300845518500278
 10
-5.956027156861069
 20
16.89007908829785
 30
0.0
 10
-6.072406398919668
 20
16.90224943373704
 30
0.0
 10
-6.302510889379221
 20
16.81168552125446
 30
0.0
 10
-6.469587770520604
 20
16.65284412698335
 30
0.0
 10
-6.593914706454825
 20
16.45975173359305
 30
0.0
 10
-6.681571895367199
 20
16.24780113258714
 30
0.0
 10
-6.736358517042106
 20
16.02519844789699
 30
0.0
 10
-6.74863604987911
 20
15.91126286204999
 30
0.0
  0
LINE
  5
AE
330
1F
100
AcDbEntity
  8
2D DXF
370
    -3
100
AcDbLine
 10
-6.74863604987911
 20
15.91126286204999
 30
0.0
 11
-8.418436579669105
 21
0.4903543470619339
 31
0.0
  0
LINE
  5
AF
330
1F
100
AcDbEntity
  8
2D DXF
370
    -3
100
AcDbLine
 10
-8.418436579669105
 20
0.4903543470619339
 30
0.0
 11
-9.044775399112638
 21
0.558175311800393
 31
0.0
  0
LINE
  5
B0
330
1F
100
AcDbEntity
  8
2D DXF
370
    -3
100
AcDbLine
 10
-9.044775399112638
 20
0.558175311800393
 30
0.0
 11
-7.374975040638589
 21
15.97908224184732
 31
0.0
  0
SPLINE
  5
B1
330
1F
100
AcDbEntity
  8
2D DXF
370
    -3
100
AcDbSpline
210
0.0
220
0.0
230
1.0
 70
     8
 71
     2
 72
    11
 73
     8
 74
     0
 42
0.000000001
 43
0.0000000001
 40
41.15774795836104
 40
41.15774795836104
 40
41.15774795836104
 40
42.157770444244
 40
43.15779495135995
 40
44.15781945847591
 40
45.15784396559187
 40
46.15786847270783
 40
47.15774795836104
 40
47.15774795836104
 40
47.15774795836104
 10
-7.374975040638589
 20
15.97908224184732
 30
0.0
 10
-7.353933921479154
 20
16.17513903571561
 30
0.0
 10
-7.246114908422669
 20
16.55460995211189
 30
0.0
 10
-7.068294446469594
 20
16.90715651584236
 30
0.0
 10
-6.815666952405422
 20
17.21144282512801
 30
0.0
 10
-6.488297737627022
 20
17.43535277897875
 30
0.0
 10
-6.104517306132692
 20
17.53883159947969
 30
0.0
 10
-5.906610644348518
 20
17.51834678432374
 30
0.0
  0
LINE
  5
B2
330
1F
100
AcDbEntity
  8
2D DXF
370
    -3
100
AcDbLine
 10
-5.906610644348518
 20
17.51834678432374
 30
0.0
 11
-5.3568712449283
 21
17.46085787330234
 31
0.0
  0
SPLINE
  5
B3
330
1F
100
AcDbEntity
  8
2D DXF
370
    -3
100
AcDbSpline
210
0.0
220
0.0
230
1.0
 70
    28
 71
     2
 72
     6
 73
     3
 74
     0
 42
0.000000001
 43
0.0000000001
 40
-0.5528646837850709
 40
-0.5528646837850709
 40
-0.5528646837850709
 40
0.0039851661175855
 40
0.0039851661175855
 40
0.0039851661175855
 10
-3.076483634449174
 20
16.91534828846739
 30
0.0
 41
1.0
 10
-3.118944778652731
 20
16.64228198543291
 30
0.0
 41
1.0
 10
-3.161405922856288
 20
16.36921568239842
 30
0.0
 41
1.0
  0
SPLINE
  5
B4
330
1F
100
AcDbEntity
  8
2D DXF
370
    -3
100
AcDbSpline
210
0.0
220
0.0
230
1.0
 70
     8
 71
     2
 72
     9
 73
     6
 74
     0
 42
0.000000001
 43
0.0000000001
 40
0.0039851661175855
 40
0.0039851661175855
 40
0.0039851661175855
 40
1.003985166117586
 40
2.003985166117586
 40
3.003985166117586
 40
4.003985166117586
 40
4.003985166117586
 40
4.003985166117586
 10
-3.161405922856261
 20
16.36921568239842
 30
0.0
 10
-3.168130007484336
 20
16.32784814051696
 30
0.0
 10
-3.198701087715477
 20
16.24973410406761
 30
0.0
 10
-3.247737194087904
 20
16.18140645878142
 30
0.0
 10
-3.31761726971456
 20
16.13335006529934
 30
0.0
 10
-3.359938267992646
 20
16.12834607891551
 30
0.0
  0
SPLINE
  5
B5
330
1F
100
AcDbEntity
  8
2D DXF
370
    -3
100
AcDbSpline
210
0.0
220
0.0
230
1.0
 70
    24
 71
     2
 72
     6
 73
     3
 74
     0
 42
0.000000001
 43
0.0000000001
 40
4.003985166117586
 40
4.003985166117586
 40
4.003985166117586
 40
4.614319116880683
 40
4.614319116880683
 40
4.614319116880683
 10
-3.359938267992646
 20
16.12834607891551
 30
0.0
 10
-3.575771801903471
 20
16.10579534544143
 30
0.0
 10
-3.791605335814296
 20
16.08324461196734
 30
0.0
  0
SPLINE
  5
B6
330
1F
100
AcDbEntity
  8
2D DXF
370
    -3
100
AcDbSpline
210
0.0
220
0.0
230
1.0
 70
    28
 71
     2
 72
     6
 73
     3
 74
     0
 42
0.000000001
 43
0.0000000001
 40
0.6892278622060378
 40
0.6892278622060378
 40
0.6892278622060378
 40
1.232673681168818
 40
1.232673681168818
 40
1.232673681168818
 10
-2.532717008835474
 20
16.84514060652266
 30
0.0
 41
0.8560172248711451
 10
-2.593538237111728
 20
16.58067435966496
 30
0.0
 41
0.8560172248711454
 10
-2.654359465387983
 20
16.31620811280726
 30
0.0
 41
0.8560172248711457
  0
SPLINE
  5
B7
330
1F
100
AcDbEntity
  8
2D DXF
370
    -3
100
AcDbSpline
210
0.0
220
0.0
230
1.0
 70
     8
 71
     2
 72
     9
 73
     6
 74
     0
 42
0.000000001
 43
0.0000000001
 40
1.232673681168818
 40
1.232673681168818
 40
1.232673681168818
 40
2.232671278259504
 40
3.232672079229276
 40
4.232672880199047
 40
5.232673681168818
 40
5.232673681168818
 40
5.232673681168818
 10
-2.654359465387984
 20
16.31620811280726
 30
0.0
 10
-2.664093951971495
 20
16.27351160441148
 30
0.0
 10
-2.702374683624271
 20
16.19465623698404
 30
0.0
 10
-2.759871771195776
 20
16.12825558956336
 30
0.0
 10
-2.836178098487665
 20
16.08384636308606
 30
0.0
 10
-2.88018013635596
 20
16.07899547334292
 30
0.0
  0
LINE
  5
B8
330
1F
100
AcDbEntity
  8
2D DXF
370
    -3
100
AcDbLine
 10
-2.88018013635596
 20
16.07899547334292
 30
0.0
 11
-3.319946385257737
 21
16.03392092170914
 31
0.0
  0
LINE
  5
B9
330
1F
100
AcDbEntity
  8
2D DXF
370
    -3
100
AcDbLine
 10
-3.319946385257737
 20
16.03392092170914
 30
0.0
 11
-3.823161779413709
 21
16.08290408972685
 31
0.0
  0
SPLINE
  5
BA
330
1F
100
AcDbEntity
  8
2D DXF
370
    -3
100
AcDbSpline
210
0.0
220
0.0
230
1.0
 70
     8
 71
     2
 72
     9
 73
     6
 74
     0
 42
0.000000001
 43
0.0000000001
 40
6.180337682398743
 40
6.180337682398743
 40
6.180337682398743
 40
7.180442332011739
 40
8.180546981624735
 40
9.18065163123773
 40
10.18033768239874
 40
10.18033768239874
 40
10.18033768239874
 10
-3.823161779413709
 20
16.08290408972685
 30
0.0
 10
-3.861997774494967
 20
16.08723554263234
 30
0.0
 10
-3.930099256849246
 20
16.12516922039481
 30
0.0
 10
-3.982256094450179
 20
16.18271545999734
 30
0.0
 10
-4.016958740457426
 20
16.25200916629867
 30
0.0
 10
-4.025397980800392
 20
16.28979795123217
 30
0.0
  0
SPLINE
  5
BB
330
1F
100
AcDbEntity
  8
2D DXF
370
    -3
100
AcDbSpline
210
0.0
220
0.0
230
1.0
 70
    28
 71
     2
 72
     6
 73
     3
 74
     0
 42
0.000000001
 43
0.0000000001
 40
10.18033768239874
 40
10.18033768239874
 40
10.18033768239874
 40
10.61433074181288
 40
10.61433074181288
 40
10.61433074181288
 10
-4.0253979808004
 20
16.28979795123217
 30
0.0
 41
0.8563898439579778
 10
-4.073965873580537
 20
16.49406984280793
 30
0.0
 41
0.8563898439579778
 10
-4.122533766360674
 20
16.69834173438368
 30
0.0
 41
0.8563898439579779
  0
SPLINE
  5
BC
330
1F
100
AcDbEntity
  8
2D DXF
370
    -3
100
AcDbSpline
210
0.0
220
0.0
230
1.0
 70
    24
 71
     2
 72
     6
 73
     3
 74
     0
 42
0.000000001
 43
0.0000000001
 40
-0.0000000000000012
 40
-0.0000000000000012
 40
-0.0000000000000012
 40
0.6103339507630958
 40
0.6103339507630958
 40
0.6103339507630958
 10
-2.888289528783019
 20
15.38446675060768
 30
0.0
 10
-3.104123062694001
 20
15.40701748408004
 30
0.0
 10
-3.319956596604982
 20
15.4295682175524
 30
0.0
  0
SPLINE
  5
BD
330
1F
100
AcDbEntity
  8
2D DXF
370
    -3
100
AcDbSpline
210
0.0
220
0.0
230
1.0
 70
     8
 71
     2
 72
     9
 73
     6
 74
     0
 42
0.000000001
 43
0.0000000001
 40
0.6103339507630958
 40
0.6103339507630958
 40
0.6103339507630958
 40
1.610333950763096
 40
2.610333950763096
 40
3.610333950763096
 40
4.610333950763096
 40
4.610333950763096
 40
4.610333950763096
 10
-3.319956596604982
 20
15.4295682175524
 30
0.0
 10
-3.362447272980489
 20
15.43401630197024
 30
0.0
 10
-3.431853951734581
 20
15.48287555254799
 30
0.0
 10
-3.48115902080562
 20
15.55097456631901
 30
0.0
 10
-3.512131290267007
 20
15.62897643292382
 30
0.0
 10
-3.518488939062564
 20
15.6704378211691
 30
0.0
  0
SPLINE
  5
BE
330
1F
100
AcDbEntity
  8
2D DXF
370
    -3
100
AcDbSpline
210
0.0
220
0.0
230
1.0
 70
    28
 71
     2
 72
     6
 73
     3
 74
     0
 42
0.000000001
 43
0.0000000001
 40
4.610333950763096
 40
4.610333950763096
 40
4.610333950763096
 40
5.008596212091838
 40
5.008596212091838
 40
5.008596212091838
 10
-3.518488939062564
 20
15.6704378211691
 30
0.0
 41
1.0
 10
-3.548857394783155
 20
15.86573643424797
 30
0.0
 41
1.0
 10
-3.579225850503747
 20
16.06103504732685
 30
0.0
 41
1.0
  0
SPLINE
  5
BF
330
1F
100
AcDbEntity
  8
2D DXF
370
    -3
100
AcDbSpline
210
0.0
220
0.0
230
1.0
 70
    28
 71
     2
 72
     6
 73
     3
 74
     0
 42
0.000000001
 43
0.0000000001
 40
0.7984423683647881
 40
0.7984423683647881
 40
0.7984423683647881
 40
1.22662736504897
 40
1.22662736504897
 40
1.22662736504897
 10
-2.557307760842325
 20
15.99978817203374
 30
0.0
 41
0.8563898439284926
 10
-2.605904262122598
 20
15.79539556644715
 30
0.0
 41
0.8563898439284932
 10
-2.65450076340287
 20
15.59100296086057
 30
0.0
 41
0.8563898439284937
  0
SPLINE
  5
C0
330
1F
100
AcDbEntity
  8
2D DXF
370
    -3
100
AcDbSpline
210
0.0
220
0.0
230
1.0
 70
     8
 71
     2
 72
     9
 73
     6
 74
     0
 42
0.000000001
 43
0.0000000001
 40
1.22662736504897
 40
1.22662736504897
 40
1.22662736504897
 40
2.22662736504897
 40
3.226627365048969
 40
4.226627365048969
 40
5.226627365048969
 40
5.226627365048969
 40
5.226627365048969
 10
-2.654500763402865
 20
15.59100296086057
 30
0.0
 10
-2.663311852751264
 20
15.55325976859015
 30
0.0
 10
-2.697733989979639
 20
15.48372505256662
 30
0.0
 10
-2.749749617145056
 20
15.42587380200001
 30
0.0
 10
-2.818373731989794
 20
15.38865647226876
 30
0.0
 10
-2.857233737926293
 20
15.38439628701515
 30
0.0
  0
LINE
  5
C1
330
1F
100
AcDbEntity
  8
2D DXF
370
    -3
100
AcDbLine
 10
-2.857233737926293
 20
15.38439628701515
 30
0.0
 11
-3.359948479339266
 21
15.33514307177792
 31
0.0
  0
LINE
  5
C2
330
1F
100
AcDbEntity
  8
2D DXF
370
    -3
100
AcDbLine
 10
-3.359948479339266
 20
15.33514307177792
 30
0.0
 11
-3.799047818953454
 21
15.38015730754986
 31
0.0
  0
SPLINE
  5
C3
330
1F
100
AcDbEntity
  8
2D DXF
370
    -3
100
AcDbSpline
210
0.0
220
0.0
230
1.0
 70
     8
 71
     2
 72
     9
 73
     6
 74
     0
 42
0.000000001
 43
0.0000000001
 40
6.173149747773035
 40
6.173149747773035
 40
6.173149747773035
 40
7.173153238922044
 40
8.173156730071053
 40
9.173160221220064
 40
10.17314974777304
 40
10.17314974777304
 40
10.17314974777304
 10
-3.799047818953454
 20
15.38015730754986
 30
0.0
 10
-3.843298003897189
 20
15.38433748405353
 30
0.0
 10
-3.919531438393733
 20
15.42932033335483
 30
0.0
 10
-3.977246213035556
 20
15.49575170856749
 30
0.0
 10
-4.016150589331403
 20
15.57452466271848
 30
0.0
 10
-4.025535601831791
 20
15.61743118779492
 30
0.0
  0
SPLINE
  5
C4
330
1F
100
AcDbEntity
  8
2D DXF
370
    -3
100
AcDbSpline
210
0.0
220
0.0
230
1.0
 70
    28
 71
     2
 72
     6
 73
     3
 74
     0
 42
0.000000001
 43
0.0000000001
 40
10.17314974777304
 40
10.17314974777304
 40
10.17314974777304
 40
11.3004084162388
 40
11.3004084162388
 40
11.3004084162388
 10
-4.02553560183181
 20
15.61743118779492
 30
0.0
 41
0.8560172248609055
 10
-4.151695769548336
 20
16.16600785989218
 30
0.0
 41
0.8560172248609056
 10
-4.277855937264863
 20
16.71458453198944
 30
0.0
 41
0.8560172248609057
  0
LINE
  5
C5
330
1F
100
AcDbEntity
  8
2D DXF
100
AcDbLine
 10
0.0000481426034185
 20
16.26722336241071
 30
0.0
 11
0.0000481426034185
 21
16.70135205162287
 31
0.0
  0
SPLINE
  5
C6
330
1F
100
AcDbEntity
  8
2D DXF
370
    -3
100
AcDbSpline
210
0.0
220
0.0
230
1.0
 70
    28
 71
     2
 72
     6
 73
     3
 74
     0
 42
0.000000001
 43
0.0000000001
 40
8.447897894494616
 40
8.447897894494616
 40
8.447897894494616
 40
12.77660063280278
 40
12.77660063280278
 40
12.77660063280278
 10
0.0000481426034383
 20
16.26722336241072
 30
0.0
 41
0.9715622708606548
 10
-1.529529509303903
 20
16.10724843174069
 30
0.0
 41
0.9715622708606548
 10
-3.059107161211244
 20
15.94727350107067
 30
0.0
 41
0.9715622708606548
  0
SPLINE
  5
C7
330
1F
100
AcDbEntity
  8
2D DXF
370
    -3
100
AcDbSpline
210
0.0
220
0.0
230
1.0
 70
     8
 71
     2
 72
     8
 73
     5
 74
     0
 42
0.000000001
 43
0.0000000001
 40
12.77660063280278
 40
12.77660063280278
 40
12.77660063280278
 40
13.76624644971519
 40
14.77142354125899
 40
15.77660063280278
 40
15.77660063280278
 40
15.77660063280278
 10
-3.059107161211273
 20
15.94727350107066
 30
0.0
 10
-3.091531641041399
 20
15.94457609083542
 30
0.0
 10
-3.150754873554831
 20
15.97195769265918
 30
0.0
 10
-3.197314284497764
 20
16.01741323935255
 30
0.0
 10
-3.214549343244158
 20
16.04493302238999
 30
0.0
  0
LINE
  5
C8
330
1F
100
AcDbEntity
  8
2D DXF
370
    -3
100
AcDbLine
 10
-4.075726317581228
 20
15.83567325511551
 30
0.0
 11
-6.658102844298554
 21
16.30187894179889
 31
0.0
  0
SPLINE
  5
C9
330
1F
100
AcDbEntity
  8
2D DXF
370
    -3
100
AcDbSpline
210
0.0
220
0.0
230
1.0
 70
     8
 71
     3
 72
     8
 73
     4
 74
     0
 42
0.000000001
 43
0.0000000001
 40
1.449707347176499
 40
1.449707347176499
 40
1.449707347176499
 40
1.449707347176499
 40
1.667742076807643
 40
1.667742076807643
 40
1.667742076807643
 40
1.667742076807643
 10
-7.418107962598668
 20
15.58074194355472
 30
0.0
 10
-7.435711395614703
 20
15.51539439618128
 30
0.0
 10
-7.448694208119008
 20
15.44726064621095
 30
0.0
 10
-7.456585255971959
 20
15.37744285409057
 30
0.0
  0
LINE
  5
CA
330
1F
100
AcDbEntity
  8
2D DXF
370
    -3
100
AcDbLine
 10
-7.456585255971959
 20
15.37744285409056
 30
0.0
 11
-9.151961874048055
 21
0.4393660429412122
 31
0.0
  0
LINE
  5
CB
330
1F
100
AcDbEntity
  8
2D DXF
370
    -3
100
AcDbLine
 10
-9.151961874048055
 20
0.4393660429412122
 30
0.0
 11
-9.777943201895994
 21
0.5104109385059373
 31
0.0
  0
LINE
  5
CC
330
1F
100
AcDbEntity
  8
2D DXF
370
    -3
100
AcDbLine
 10
-9.777943201895994
 20
0.5104109385059373
 30
0.0
 11
-8.082567200343732
 21
15.44848230614657
 31
0.0
  0
SPLINE
  5
CD
330
1F
100
AcDbEntity
  8
2D DXF
370
    -3
100
AcDbSpline
210
0.0
220
0.0
230
1.0
 70
     8
 71
     3
 72
    14
 73
    10
 74
     0
 42
0.000000001
 43
0.0000000001
 40
32.94523477382073
 40
32.94523477382073
 40
32.94523477382073
 40
32.94523477382073
 40
33.592964546622
 40
33.592964546622
 40
33.592964546622
 40
34.30118639174682
 40
34.30118639174682
 40
34.30118639174682
 40
34.88742855166384
 40
34.88742855166384
 40
34.88742855166384
 40
34.88742855166384
 10
-8.082567200343703
 20
15.44848230614656
 30
0.0
 10
-8.058778923560055
 20
15.6589518409024
 30
0.0
 10
-8.002567452950473
 20
15.86272181748167
 30
0.0
 10
-7.916663848804802
 20
16.04716777439193
 30
0.0
 10
-7.822916035410287
 20
16.24845624560055
 30
0.0
 10
-7.693480838409045
 20
16.4272122159646
 30
0.0
 10
-7.536370124913674
 20
16.56854181457345
 30
0.0
 10
-7.406309563748351
 20
16.68553833565965
 30
0.0
 10
-7.257608192246721
 20
16.77653017977655
 30
0.0
 10
-7.098006091076115
 20
16.8361910125466
 30
0.0
  0
LINE
  5
CE
330
1F
100
AcDbEntity
  8
2D DXF
370
    -3
100
AcDbLine
 10
-9.151961874048055
 20
0.4393660429412122
 30
0.0
 11
-9.175646684128992
 21
0.2306775967633953
 31
0.0
  0
SPLINE
  5
CF
330
1F
100
AcDbEntity
  8
2D DXF
370
    -3
100
AcDbSpline
210
0.0
220
0.0
230
1.0
 70
     8
 71
     2
 72
    11
 73
     8
 74
     0
 42
0.000000001
 43
0.0000000001
 40
0.2100281833390025
 40
0.2100281833390025
 40
0.2100281833390025
 40
1.210028183339003
 40
2.210028183339003
 40
3.210028183339003
 40
4.210028183339002
 40
5.210028183339002
 40
6.210028183339002
 40
6.210028183339002
 40
6.210028183339002
 10
-9.175646684128992
 20
0.2306775967633953
 30
0.0
 10
-9.189810069477232
 20
0.1639829556906945
 30
0.0
 10
-9.315501951819499
 20
0.1319277332439227
 30
0.0
 10
-9.437438346786251
 20
0.1343670855255211
 30
0.0
 10
-9.559567470987531
 20
0.1477700971508781
 30
0.0
 10
-9.67896626800868
 20
0.1721604810388541
 30
0.0
 10
-9.79642250734787
 20
0.2259981714201401
 30
0.0
 10
-9.802185850282513
 20
0.2931065339646849
 30
0.0
  0
LINE
  5
D0
330
1F
100
AcDbEntity
  8
2D DXF
370
    -3
100
AcDbLine
 10
-9.802185850282513
 20
0.2931065339646849
 30
0.0
 11
-9.777943201895994
 21
0.5104109385059373
 31
0.0
  0
LINE
  5
D1
330
1F
100
AcDbEntity
  8
2D DXF
370
    -3
100
AcDbLine
 10
-8.418436579669105
 20
0.4903543470619339
 30
0.0
 11
-8.44132797491136
 21
0.2789481907686407
 31
0.0
  0
SPLINE
  5
D2
330
1F
100
AcDbEntity
  8
2D DXF
370
    -3
100
AcDbSpline
210
0.0
220
0.0
230
1.0
 70
     8
 71
     2
 72
    11
 73
     8
 74
     0
 42
0.000000001
 43
0.0000000001
 40
0.2126419029609203
 40
0.2126419029609203
 40
0.2126419029609203
 40
1.21264190296092
 40
2.21264190296092
 40
3.21264190296092
 40
4.21264190296092
 40
5.21264190296092
 40
6.21264190296092
 40
6.21264190296092
 40
6.21264190296092
 10
-8.44132797491136
 20
0.2789481907686407
 30
0.0
 10
-8.455747071356456
 20
0.2117123309750993
 30
0.0
 10
-8.583688363893117
 20
0.1927159942673128
 30
0.0
 10
-8.703423111924195
 20
0.199751954277768
 30
0.0
 10
-8.824142914963033
 20
0.2126367420480718
 30
0.0
 10
-8.942532198028488
 20
0.2314532749725614
 30
0.0
 10
-9.064468092481548
 20
0.2741277375237373
 30
0.0
 10
-9.068029899427557
 20
0.342285317526641
 30
0.0
  0
LINE
  5
D3
330
1F
100
AcDbEntity
  8
2D DXF
370
    -3
100
AcDbLine
 10
-9.068029899427557
 20
0.342285317526641
 30
0.0
 11
-9.044775399112638
 21
0.558175311800393
 31
0.0
  0
SPLINE
  5
D4
330
1F
100
AcDbEntity
  8
2D DXF
370
    -3
100
AcDbSpline
210
0.0
220
0.0
230
1.0
 70
    28
 71
     2
 72
     6
 73
     3
 74
     0
 42
0.000000001
 43
0.0000000001
 40
0.2649156335258869
 40
0.2649156335258869
 40
0.2649156335258869
 40
2.688959837989494
 40
2.688959837989494
 40
2.688959837989494
 10
6.193879671831255
 20
16.85823821309983
 30
0.0
 41
0.9614950932561934
 10
5.211653115904335
 20
16.68091333376993
 30
0.0
 41
0.9614950932561934
 10
4.229426559977416
 20
16.50358845444002
 30
0.0
 41
0.9614950932561934
  0
SPLINE
  5
D5
330
1F
100
AcDbEntity
  8
2D DXF
370
    -3
100
AcDbSpline
210
0.0
220
0.0
230
1.0
 70
    28
 71
     2
 72
     6
 73
     3
 74
     0
 42
0.000000001
 43
0.0000000001
 40
5.610102556432636
 40
5.610102556432636
 40
5.610102556432636
 40
9.199595971870664
 40
9.199595971870664
 40
9.199595971870664
 10
0.0655247406629388
 20
16.27407056988925
 30
0.0
 41
0.9715622708606555
 10
1.334320558595361
 20
16.40675474210835
 30
0.0
 41
0.9715622708606555
 10
2.603116376527784
 20
16.53943891432744
 30
0.0
 41
0.9715622708606555
  0
SPLINE
  5
D6
330
1F
100
AcDbEntity
  8
2D DXF
370
    -3
100
AcDbSpline
210
0.0
220
0.0
230
1.0
 70
     8
 71
     2
 72
    10
 73
     7
 74
     0
 42
0.000000001
 43
0.0000000001
 40
-5.0
 40
-5.0
 40
-5.0
 40
-4.0
 40
-3.0
 40
-2.0
 40
-1.0
 40
0.0
 40
0.0
 40
0.0
 10
3.404900661093166
 20
16.96783228514874
 30
0.0
 10
3.4050155544044
 20
16.92480656796675
 30
0.0
 10
3.420909098395981
 20
16.84023712318004
 30
0.0
 10
3.452636629387939
 20
16.76012997651138
 30
0.0
 10
3.503487158709447
 20
16.69027104436007
 30
0.0
 10
3.57757279569779
 20
16.64296972835961
 30
0.0
 10
3.622246426457735
 20
16.64608462109632
 30
0.0
  0
SPLINE
  5
D7
330
1F
100
AcDbEntity
  8
2D DXF
370
    -3
100
AcDbSpline
210
0.0
220
0.0
230
1.0
 70
    28
 71
     2
 72
     6
 73
     3
 74
     0
 42
0.000000001
 43
0.0000000001
 40
0.0
 40
0.0
 40
0.0
 40
3.300845518500278
 40
3.300845518500278
 40
3.300845518500278
 10
3.622246426457739
 20
16.64608462109632
 30
0.0
 41
0.9715622708606555
 10
4.789184253687287
 20
16.76808185469708
 30
0.0
 41
0.9715622708606555
 10
5.956122080916836
 20
16.89007908829784
 30
0.0
 41
0.9715622708606556
  0
SPLINE
  5
D8
330
1F
100
AcDbEntity
  8
2D DXF
370
    -3
100
AcDbSpline
210
0.0
220
0.0
230
1.0
 70
     8
 71
     2
 72
    11
 73
     8
 74
     0
 42
0.000000001
 43
0.0000000001
 40
3.300845518500278
 40
3.300845518500278
 40
3.300845518500278
 40
4.300845518500278
 40
5.300845518500278
 40
6.300845518500278
 40
7.300845518500278
 40
8.300845518500278
 40
9.300845518500278
 40
9.300845518500278
 40
9.300845518500278
 10
5.956122080916828
 20
16.89007908829785
 30
0.0
 10
6.072501322975427
 20
16.90224943373704
 30
0.0
 10
6.30260581343498
 20
16.81168552125446
 30
0.0
 10
6.469682694576363
 20
16.65284412698335
 30
0.0
 10
6.594009630510584
 20
16.45975173359305
 30
0.0
 10
6.681666819422958
 20
16.24780113258714
 30
0.0
 10
6.736453441097865
 20
16.02519844789699
 30
0.0
 10
6.748730973934869
 20
15.91126286204999
 30
0.0
  0
LINE
  5
D9
330
1F
100
AcDbEntity
  8
2D DXF
370
    -3
100
AcDbLine
 10
6.748730973934869
 20
15.91126286204999
 30
0.0
 11
8.418531503724864
 21
0.4903543470619339
 31
0.0
  0
LINE
  5
DA
330
1F
100
AcDbEntity
  8
2D DXF
370
    -3
100
AcDbLine
 10
8.418531503724864
 20
0.4903543470619339
 30
0.0
 11
9.044870323168396
 21
0.558175311800393
 31
0.0
  0
LINE
  5
DB
330
1F
100
AcDbEntity
  8
2D DXF
370
    -3
100
AcDbLine
 10
9.044870323168396
 20
0.558175311800393
 30
0.0
 11
7.375069964694347
 21
15.97908224184732
 31
0.0
  0
SPLINE
  5
DC
330
1F
100
AcDbEntity
  8
2D DXF
370
    -3
100
AcDbSpline
210
0.0
220
0.0
230
1.0
 70
     8
 71
     2
 72
    11
 73
     8
 74
     0
 42
0.000000001
 43
0.0000000001
 40
41.15774795836104
 40
41.15774795836104
 40
41.15774795836104
 40
42.157770444244
 40
43.15779495135995
 40
44.15781945847591
 40
45.15784396559187
 40
46.15786847270783
 40
47.15774795836104
 40
47.15774795836104
 40
47.15774795836104
 10
7.375069964694347
 20
15.97908224184732
 30
0.0
 10
7.354028845534913
 20
16.17513903571561
 30
0.0
 10
7.246209832478428
 20
16.55460995211189
 30
0.0
 10
7.068389370525352
 20
16.90715651584236
 30
0.0
 10
6.815761876461181
 20
17.21144282512801
 30
0.0
 10
6.488392661682781
 20
17.43535277897875
 30
0.0
 10
6.104612230188451
 20
17.53883159947969
 30
0.0
 10
5.906705568404277
 20
17.51834678432374
 30
0.0
  0
LINE
  5
DD
330
1F
100
AcDbEntity
  8
2D DXF
370
    -3
100
AcDbLine
 10
5.906705568404277
 20
17.51834678432374
 30
0.0
 11
5.356966168984059
 21
17.46085787330234
 31
0.0
  0
SPLINE
  5
DE
330
1F
100
AcDbEntity
  8
2D DXF
370
    -3
100
AcDbSpline
210
0.0
220
0.0
230
1.0
 70
    28
 71
     2
 72
     6
 73
     3
 74
     0
 42
0.000000001
 43
0.0000000001
 40
-0.5528646837850709
 40
-0.5528646837850709
 40
-0.5528646837850709
 40
0.0039851661175855
 40
0.0039851661175855
 40
0.0039851661175855
 10
3.076578558504876
 20
16.91534828846739
 30
0.0
 41
1.0
 10
3.119039702708433
 20
16.64228198543291
 30
0.0
 41
1.0
 10
3.16150084691199
 20
16.36921568239842
 30
0.0
 41
1.0
  0
SPLINE
  5
DF
330
1F
100
AcDbEntity
  8
2D DXF
370
    -3
100
AcDbSpline
210
0.0
220
0.0
230
1.0
 70
     8
 71
     2
 72
     9
 73
     6
 74
     0
 42
0.000000001
 43
0.0000000001
 40
0.0039851661175855
 40
0.0039851661175855
 40
0.0039851661175855
 40
1.003985166117586
 40
2.003985166117586
 40
3.003985166117586
 40
4.003985166117586
 40
4.003985166117586
 40
4.003985166117586
 10
3.16150084691202
 20
16.36921568239842
 30
0.0
 10
3.168224931540095
 20
16.32784814051696
 30
0.0
 10
3.198796011771236
 20
16.24973410406761
 30
0.0
 10
3.247832118143663
 20
16.18140645878142
 30
0.0
 10
3.317712193770319
 20
16.13335006529934
 30
0.0
 10
3.360033192048405
 20
16.12834607891551
 30
0.0
  0
SPLINE
  5
E0
330
1F
100
AcDbEntity
  8
2D DXF
370
    -3
100
AcDbSpline
210
0.0
220
0.0
230
1.0
 70
    24
 71
     2
 72
     6
 73
     3
 74
     0
 42
0.000000001
 43
0.0000000001
 40
4.003985166117586
 40
4.003985166117586
 40
4.003985166117586
 40
4.614319116880683
 40
4.614319116880683
 40
4.614319116880683
 10
3.360033192048405
 20
16.12834607891551
 30
0.0
 10
3.57586672595923
 20
16.10579534544143
 30
0.0
 10
3.791700259870055
 20
16.08324461196734
 30
0.0
  0
SPLINE
  5
E1
330
1F
100
AcDbEntity
  8
2D DXF
370
    -3
100
AcDbSpline
210
0.0
220
0.0
230
1.0
 70
    28
 71
     2
 72
     6
 73
     3
 74
     0
 42
0.000000001
 43
0.0000000001
 40
0.6892278622060378
 40
0.6892278622060378
 40
0.6892278622060378
 40
1.232673681168818
 40
1.232673681168818
 40
1.232673681168818
 10
2.532811932891218
 20
16.84514060652266
 30
0.0
 41
0.8560172248711451
 10
2.593633161167497
 20
16.58067435966496
 30
0.0
 41
0.8560172248711454
 10
2.654454389443776
 20
16.31620811280726
 30
0.0
 41
0.8560172248711457
  0
SPLINE
  5
E2
330
1F
100
AcDbEntity
  8
2D DXF
370
    -3
100
AcDbSpline
210
0.0
220
0.0
230
1.0
 70
     8
 71
     2
 72
     9
 73
     6
 74
     0
 42
0.000000001
 43
0.0000000001
 40
1.232673681168818
 40
1.232673681168818
 40
1.232673681168818
 40
2.232671278259504
 40
3.232672079229276
 40
4.232672880199047
 40
5.232673681168818
 40
5.232673681168818
 40
5.232673681168818
 10
2.654454389443742
 20
16.31620811280726
 30
0.0
 10
2.664188876027254
 20
16.27351160441148
 30
0.0
 10
2.70246960768003
 20
16.19465623698404
 30
0.0
 10
2.759966695251535
 20
16.12825558956336
 30
0.0
 10
2.836273022543423
 20
16.08384636308606
 30
0.0
 10
2.880275060411719
 20
16.07899547334292
 30
0.0
  0
LINE
  5
E3
330
1F
100
AcDbEntity
  8
2D DXF
370
    -3
100
AcDbLine
 10
2.880275060411719
 20
16.07899547334292
 30
0.0
 11
3.320041309313496
 21
16.03392092170914
 31
0.0
  0
LINE
  5
E4
330
1F
100
AcDbEntity
  8
2D DXF
370
    -3
100
AcDbLine
 10
3.320041309313496
 20
16.03392092170914
 30
0.0
 11
3.823256703469468
 21
16.08290408972685
 31
0.0
  0
SPLINE
  5
E5
330
1F
100
AcDbEntity
  8
2D DXF
370
    -3
100
AcDbSpline
210
0.0
220
0.0
230
1.0
 70
     8
 71
     2
 72
     9
 73
     6
 74
     0
 42
0.000000001
 43
0.0000000001
 40
6.180337682398743
 40
6.180337682398743
 40
6.180337682398743
 40
7.180442332011739
 40
8.180546981624735
 40
9.18065163123773
 40
10.18033768239874
 40
10.18033768239874
 40
10.18033768239874
 10
3.823256703469468
 20
16.08290408972685
 30
0.0
 10
3.862092698550725
 20
16.08723554263234
 30
0.0
 10
3.930194180905005
 20
16.12516922039481
 30
0.0
 10
3.982351018505938
 20
16.18271545999734
 30
0.0
 10
4.017053664513185
 20
16.25200916629867
 30
0.0
 10
4.025492904856151
 20
16.28979795123217
 30
0.0
  0
SPLINE
  5
E6
330
1F
100
AcDbEntity
  8
2D DXF
370
    -3
100
AcDbSpline
210
0.0
220
0.0
230
1.0
 70
    28
 71
     2
 72
     6
 73
     3
 74
     0
 42
0.000000001
 43
0.0000000001
 40
10.18033768239874
 40
10.18033768239874
 40
10.18033768239874
 40
10.61433074181288
 40
10.61433074181288
 40
10.61433074181288
 10
4.025492904856148
 20
16.28979795123217
 30
0.0
 41
0.8563898439579778
 10
4.074060797636276
 20
16.49406984280793
 30
0.0
 41
0.8563898439579778
 10
4.122628690416406
 20
16.69834173438368
 30
0.0
 41
0.8563898439579779
  0
SPLINE
  5
E7
330
1F
100
AcDbEntity
  8
2D DXF
370
    -3
100
AcDbSpline
210
0.0
220
0.0
230
1.0
 70
    24
 71
     2
 72
     6
 73
     3
 74
     0
 42
0.000000001
 43
0.0000000001
 40
-0.0000000000000012
 40
-0.0000000000000012
 40
-0.0000000000000012
 40
0.6103339507630958
 40
0.6103339507630958
 40
0.6103339507630958
 10
2.888384452838778
 20
15.38446675060768
 30
0.0
 10
3.104217986749759
 20
15.40701748408004
 30
0.0
 10
3.320051520660741
 20
15.4295682175524
 30
0.0
  0
SPLINE
  5
E8
330
1F
100
AcDbEntity
  8
2D DXF
370
    -3
100
AcDbSpline
210
0.0
220
0.0
230
1.0
 70
     8
 71
     2
 72
     9
 73
     6
 74
     0
 42
0.000000001
 43
0.0000000001
 40
0.6103339507630958
 40
0.6103339507630958
 40
0.6103339507630958
 40
1.610333950763096
 40
2.610333950763096
 40
3.610333950763096
 40
4.610333950763096
 40
4.610333950763096
 40
4.610333950763096
 10
3.320051520660741
 20
15.4295682175524
 30
0.0
 10
3.362542197036248
 20
15.43401630197024
 30
0.0
 10
3.43194887579034
 20
15.48287555254799
 30
0.0
 10
3.481253944861379
 20
15.55097456631901
 30
0.0
 10
3.512226214322766
 20
15.62897643292382
 30
0.0
 10
3.518583863118323
 20
15.6704378211691
 30
0.0
  0
SPLINE
  5
E9
330
1F
100
AcDbEntity
  8
2D DXF
370
    -3
100
AcDbSpline
210
0.0
220
0.0
230
1.0
 70
    28
 71
     2
 72
     6
 73
     3
 74
     0
 42
0.000000001
 43
0.0000000001
 40
4.610333950763096
 40
4.610333950763096
 40
4.610333950763096
 40
5.008596212091838
 40
5.008596212091838
 40
5.008596212091838
 10
3.518583863118323
 20
15.6704378211691
 30
0.0
 41
1.0
 10
3.548952318838914
 20
15.86573643424797
 30
0.0
 41
1.0
 10
3.579320774559505
 20
16.06103504732685
 30
0.0
 41
1.0
  0
SPLINE
  5
EA
330
1F
100
AcDbEntity
  8
2D DXF
370
    -3
100
AcDbSpline
210
0.0
220
0.0
230
1.0
 70
    28
 71
     2
 72
     6
 73
     3
 74
     0
 42
0.000000001
 43
0.0000000001
 40
0.7984423683647881
 40
0.7984423683647881
 40
0.7984423683647881
 40
1.22662736504897
 40
1.22662736504897
 40
1.22662736504897
 10
2.55740268489811
 20
15.99978817203374
 30
0.0
 41
0.8563898439284926
 10
2.605999186178374
 20
15.79539556644715
 30
0.0
 41
0.8563898439284932
 10
2.654595687458638
 20
15.59100296086057
 30
0.0
 41
0.8563898439284937
  0
SPLINE
  5
EB
330
1F
100
AcDbEntity
  8
2D DXF
370
    -3
100
AcDbSpline
210
0.0
220
0.0
230
1.0
 70
     8
 71
     2
 72
     9
 73
     6
 74
     0
 42
0.000000001
 43
0.0000000001
 40
1.22662736504897
 40
1.22662736504897
 40
1.22662736504897
 40
2.22662736504897
 40
3.226627365048969
 40
4.226627365048969
 40
5.226627365048969
 40
5.226627365048969
 40
5.226627365048969
 10
2.654595687458624
 20
15.59100296086057
 30
0.0
 10
2.663406776807022
 20
15.55325976859015
 30
0.0
 10
2.697828914035398
 20
15.48372505256662
 30
0.0
 10
2.749844541200815
 20
15.42587380200001
 30
0.0
 10
2.818468656045553
 20
15.38865647226876
 30
0.0
 10
2.857328661982052
 20
15.38439628701515
 30
0.0
  0
LINE
  5
EC
330
1F
100
AcDbEntity
  8
2D DXF
370
    -3
100
AcDbLine
 10
2.857328661982052
 20
15.38439628701515
 30
0.0
 11
3.360043403395025
 21
15.33514307177792
 31
0.0
  0
LINE
  5
ED
330
1F
100
AcDbEntity
  8
2D DXF
370
    -3
100
AcDbLine
 10
3.360043403395025
 20
15.33514307177792
 30
0.0
 11
3.799142743009213
 21
15.38015730754986
 31
0.0
  0
SPLINE
  5
EE
330
1F
100
AcDbEntity
  8
2D DXF
370
    -3
100
AcDbSpline
210
0.0
220
0.0
230
1.0
 70
     8
 71
     2
 72
     9
 73
     6
 74
     0
 42
0.000000001
 43
0.0000000001
 40
6.173149747773035
 40
6.173149747773035
 40
6.173149747773035
 40
7.173153238922044
 40
8.173156730071053
 40
9.173160221220064
 40
10.17314974777304
 40
10.17314974777304
 40
10.17314974777304
 10
3.799142743009213
 20
15.38015730754986
 30
0.0
 10
3.843392927952948
 20
15.38433748405353
 30
0.0
 10
3.919626362449492
 20
15.42932033335483
 30
0.0
 10
3.977341137091315
 20
15.49575170856749
 30
0.0
 10
4.016245513387162
 20
15.57452466271848
 30
0.0
 10
4.02563052588755
 20
15.61743118779492
 30
0.0
  0
SPLINE
  5
EF
330
1F
100
AcDbEntity
  8
2D DXF
370
    -3
100
AcDbSpline
210
0.0
220
0.0
230
1.0
 70
    28
 71
     2
 72
     6
 73
     3
 74
     0
 42
0.000000001
 43
0.0000000001
 40
10.17314974777304
 40
10.17314974777304
 40
10.17314974777304
 40
11.3004084162388
 40
11.3004084162388
 40
11.3004084162388
 10
4.025630525887554
 20
15.61743118779492
 30
0.0
 41
0.8560172248609055
 10
4.151790693604097
 20
16.16600785989218
 30
0.0
 41
0.8560172248609056
 10
4.27795086132064
 20
16.71458453198944
 30
0.0
 41
0.8560172248609057
  0
SPLINE
  5
F0
330
1F
100
AcDbEntity
  8
2D DXF
370
    -3
100
AcDbSpline
210
0.0
220
0.0
230
1.0
 70
    28
 71
     2
 72
     6
 73
     3
 74
     0
 42
0.000000001
 43
0.0000000001
 40
8.447897894494616
 40
8.447897894494616
 40
8.447897894494616
 40
12.77660063280278
 40
12.77660063280278
 40
12.77660063280278
 10
0.000046781452352
 20
16.26722336241072
 30
0.0
 41
0.9715622708606548
 10
1.529624433359693
 20
16.10724843174069
 30
0.0
 41
0.9715622708606548
 10
3.059202085267034
 20
15.94727350107067
 30
0.0
 41
0.9715622708606548
  0
SPLINE
  5
F1
330
1F
100
AcDbEntity
  8
2D DXF
370
    -3
100
AcDbSpline
210
0.0
220
0.0
230
1.0
 70
     8
 71
     2
 72
     8
 73
     5
 74
     0
 42
0.000000001
 43
0.0000000001
 40
12.77660063280278
 40
12.77660063280278
 40
12.77660063280278
 40
13.76624644971519
 40
14.77142354125899
 40
15.77660063280278
 40
15.77660063280278
 40
15.77660063280278
 10
3.059202085267032
 20
15.94727350107066
 30
0.0
 10
3.091626565097158
 20
15.94457609083542
 30
0.0
 10
3.15084979761059
 20
15.97195769265918
 30
0.0
 10
3.197409208553523
 20
16.01741323935255
 30
0.0
 10
3.214644267299917
 20
16.04493302238999
 30
0.0
  0
LINE
  5
F2
330
1F
100
AcDbEntity
  8
2D DXF
370
    -3
100
AcDbLine
 10
4.075821241636987
 20
15.83567325511551
 30
0.0
 11
6.658197768354313
 21
16.30187894179889
 31
0.0
  0
SPLINE
  5
F3
330
1F
100
AcDbEntity
  8
2D DXF
370
    -3
100
AcDbSpline
210
0.0
220
0.0
230
1.0
 70
     8
 71
     3
 72
     8
 73
     4
 74
     0
 42
0.000000001
 43
0.0000000001
 40
1.449707347176499
 40
1.449707347176499
 40
1.449707347176499
 40
1.449707347176499
 40
1.667742076807643
 40
1.667742076807643
 40
1.667742076807643
 40
1.667742076807643
 10
7.418202886654427
 20
15.58074194355472
 30
0.0
 10
7.435806319670462
 20
15.51539439618128
 30
0.0
 10
7.448789132174767
 20
15.44726064621095
 30
0.0
 10
7.456680180027718
 20
15.37744285409057
 30
0.0
  0
LINE
  5
F4
330
1F
100
AcDbEntity
  8
2D DXF
370
    -3
100
AcDbLine
 10
7.456680180027718
 20
15.37744285409056
 30
0.0
 11
9.152056798103814
 21
0.4393660429412122
 31
0.0
  0
LINE
  5
F5
330
1F
100
AcDbEntity
  8
2D DXF
370
    -3
100
AcDbLine
 10
9.152056798103814
 20
0.4393660429412122
 30
0.0
 11
9.778038125951753
 21
0.5104109385059373
 31
0.0
  0
LINE
  5
F6
330
1F
100
AcDbEntity
  8
2D DXF
370
    -3
100
AcDbLine
 10
9.778038125951753
 20
0.5104109385059373
 30
0.0
 11
8.08266212439949
 21
15.44848230614657
 31
0.0
  0
SPLINE
  5
F7
330
1F
100
AcDbEntity
  8
2D DXF
370
    -3
100
AcDbSpline
210
0.0
220
0.0
230
1.0
 70
     8
 71
     3
 72
    14
 73
    10
 74
     0
 42
0.000000001
 43
0.0000000001
 40
32.94523477382073
 40
32.94523477382073
 40
32.94523477382073
 40
32.94523477382073
 40
33.592964546622
 40
33.592964546622
 40
33.592964546622
 40
34.30118639174682
 40
34.30118639174682
 40
34.30118639174682
 40
34.88742855166384
 40
34.88742855166384
 40
34.88742855166384
 40
34.88742855166384
 10
8.082662124399462
 20
15.44848230614656
 30
0.0
 10
8.058873847615814
 20
15.6589518409024
 30
0.0
 10
8.002662377006232
 20
15.86272181748167
 30
0.0
 10
7.916758772860561
 20
16.04716777439193
 30
0.0
 10
7.823010959466046
 20
16.24845624560055
 30
0.0
 10
7.693575762464803
 20
16.4272122159646
 30
0.0
 10
7.536465048969433
 20
16.56854181457345
 30
0.0
 10
7.40640448780411
 20
16.68553833565965
 30
0.0
 10
7.25770311630248
 20
16.77653017977655
 30
0.0
 10
7.098101015131874
 20
16.8361910125466
 30
0.0
  0
LINE
  5
F8
330
1F
100
AcDbEntity
  8
2D DXF
370
    -3
100
AcDbLine
 10
9.152056798103814
 20
0.4393660429412122
 30
0.0
 11
9.175741608184751
 21
0.2306775967633953
 31
0.0
  0
SPLINE
  5
F9
330
1F
100
AcDbEntity
  8
2D DXF
370
    -3
100
AcDbSpline
210
0.0
220
0.0
230
1.0
 70
     8
 71
     2
 72
    11
 73
     8
 74
     0
 42
0.000000001
 43
0.0000000001
 40
0.2100281833390025
 40
0.2100281833390025
 40
0.2100281833390025
 40
1.210028183339003
 40
2.210028183339003
 40
3.210028183339003
 40
4.210028183339002
 40
5.210028183339002
 40
6.210028183339002
 40
6.210028183339002
 40
6.210028183339002
 10
9.175741608184751
 20
0.2306775967633953
 30
0.0
 10
9.189904993532991
 20
0.1639829556906945
 30
0.0
 10
9.315596875875258
 20
0.1319277332439227
 30
0.0
 10
9.43753327084201
 20
0.1343670855255211
 30
0.0
 10
9.55966239504329
 20
0.1477700971508781
 30
0.0
 10
9.679061192064438
 20
0.1721604810388541
 30
0.0
 10
9.796517431403629
 20
0.2259981714201401
 30
0.0
 10
9.802280774338271
 20
0.2931065339646849
 30
0.0
  0
LINE
  5
FA
330
1F
100
AcDbEntity
  8
2D DXF
370
    -3
100
AcDbLine
 10
9.802280774338271
 20
0.2931065339646849
 30
0.0
 11
9.778038125951753
 21
0.5104109385059373
 31
0.0
  0
LINE
  5
FB
330
1F
100
AcDbEntity
  8
2D DXF
370
    -3
100
AcDbLine
 10
8.418531503724864
 20
0.4903543470619339
 30
0.0
 11
8.441422898967119
 21
0.2789481907686407
 31
0.0
  0
SPLINE
  5
FC
330
1F
100
AcDbEntity
  8
2D DXF
370
    -3
100
AcDbSpline
210
0.0
220
0.0
230
1.0
 70
     8
 71
     2
 72
    11
 73
     8
 74
     0
 42
0.000000001
 43
0.0000000001
 40
0.2126419029609203
 40
0.2126419029609203
 40
0.2126419029609203
 40
1.21264190296092
 40
2.21264190296092
 40
3.21264190296092
 40
4.21264190296092
 40
5.21264190296092
 40
6.21264190296092
 40
6.21264190296092
 40
6.21264190296092
 10
8.441422898967119
 20
0.2789481907686407
 30
0.0
 10
8.455841995412214
 20
0.2117123309750993
 30
0.0
 10
8.583783287948876
 20
0.1927159942673128
 30
0.0
 10
8.703518035979954
 20
0.199751954277768
 30
0.0
 10
8.824237839018792
 20
0.2126367420480718
 30
0.0
 10
8.942627122084247
 20
0.2314532749725614
 30
0.0
 10
9.064563016537306
 20
0.2741277375237373
 30
0.0
 10
9.068124823483316
 20
0.342285317526641
 30
0.0
  0
LINE
  5
FD
330
1F
100
AcDbEntity
  8
2D DXF
370
    -3
100
AcDbLine
 10
9.068124823483316
 20
0.342285317526641
 30
0.0
 11
9.044870323168396
 21
0.558175311800393
 31
0.0
  0
SPLINE
  5
FE
330
1F
100
AcDbEntity
  8
2D DXF
370
    -3
100
AcDbSpline
210
0.0
220
0.0
230
1.0
 70
     8
 71
     3
 72
    32
 73
    28
 74
     0
 42
0.000000001
 43
0.0000000001
 40
2.92019203765595
 40
2.92019203765595
 40
2.92019203765595
 40
2.92019203765595
 40
3.0
 40
4.0
 40
5.0
 40
6.0
 40
7.0
 40
8.0
 40
9.0
 40
10.0
 40
11.0
 40
12.0
 40
13.0
 40
14.0
 40
15.0
 40
16.0
 40
17.0
 40
18.0
 40
19.0
 40
20.0
 40
21.0
 40
22.0
 40
23.0
 40
24.0
 40
25.0
 40
26.0
 40
27.0
 40
27.0
 40
27.0
 40
27.0
 10
-6.662442883546589
 20
17.31617550741792
 30
0.0
 10
-6.66582240603563
 20
17.31704507783667
 30
0.0
 10
-6.711545934847152
 20
17.32881694141718
 30
0.0
 10
-6.799570309709225
 20
17.3516586311339
 30
0.0
 10
-6.926429069785115
 20
17.38503144943949
 30
0.0
 10
-7.053191108837154
 20
17.41877119890612
 30
0.0
 10
-7.179817891270432
 20
17.45301115375713
 30
0.0
 10
-7.306453054214501
 20
17.48723158869873
 30
0.0
 10
-7.432491657999208
 20
17.52360063612738
 30
0.0
 10
-7.557759536340939
 20
17.56254530859088
 30
0.0
 10
-7.682206679370438
 20
17.60403819811726
 30
0.0
 10
-7.805655099856381
 20
17.64842668364156
 30
0.0
 10
-7.927864543346743
 20
17.69611627293336
 30
0.0
 10
-8.048530195343915
 20
17.74764801020836
 30
0.0
 10
-8.166971385550823
 20
17.80399164903787
 30
0.0
 10
-8.282523419931238
 20
17.86658226259139
 30
0.0
 10
-8.391168658561412
 20
17.93943237224932
 30
0.0
 10
-8.491089434478738
 20
18.0282227754582
 30
0.0
 10
-8.534837898818125
 20
18.15749965244391
 30
0.0
 10
-8.487948571870845
 20
18.28696087891351
 30
0.0
 10
-8.402291648831124
 20
18.38776966698708
 30
0.0
 10
-8.283844961082309
 20
18.44919637714082
 30
0.0
 10
-8.155576827815707
 20
18.47866503489155
 30
0.0
 10
-8.02455334747117
 20
18.48889160491582
 30
0.0
 10
-7.893310383263099
 20
18.48676075703296
 30
0.0
 10
-7.762509772771523
 20
18.47622547085654
 30
0.0
 10
-7.66232421075
 20
18.46316562117546
 30
0.0
 10
-7.619057677687351
 20
18.45685315792494
 30
0.0
  0
SPLINE
  5
FF
330
1F
100
AcDbEntity
  8
2D DXF
370
    -3
100
AcDbSpline
210
0.0
220
0.0
230
1.0
 70
     8
 71
     3
 72
    14
 73
    10
 74
     0
 42
0.000000001
 43
0.0000000001
 40
27.0
 40
27.0
 40
27.0
 40
27.0
 40
28.0
 40
29.0
 40
30.0
 40
31.0
 40
32.0
 40
33.0
 40
34.0
 40
34.0
 40
34.0
 40
34.0
 10
-7.619057677687351
 20
18.45685315792494
 30
0.0
 10
-7.259362325989684
 20
18.40437463634599
 30
0.0
 10
-6.526388996831542
 20
18.2985101985479
 30
0.0
 10
-5.444839926740144
 20
18.15849622316615
 30
0.0
 10
-4.359693985432614
 20
18.04888925538044
 30
0.0
 10
-3.271187791788066
 20
17.9799705053617
 30
0.0
 10
-2.181230505306416
 20
17.94297482398167
 30
0.0
 10
-1.090791789852574
 20
17.9277745214236
 30
0.0
 10
-0.3637824113089891
 20
17.92588668973742
 30
0.0
 10
-0.0002790131325696
 20
17.92596740740003
 30
0.0
  0
SPLINE
  5
100
330
1F
100
AcDbEntity
  8
2D DXF
370
    -3
100
AcDbSpline
210
0.0
220
0.0
230
1.0
 70
     8
 71
     3
 72
    14
 73
    10
 74
     0
 42
0.000000001
 43
0.0000000001
 40
34.0
 40
34.0
 40
34.0
 40
34.0
 40
35.0
 40
36.0
 40
37.0
 40
38.0
 40
39.0
 40
40.0
 40
41.0
 40
41.0
 40
41.0
 40
41.0
 10
-0.0002790131325696
 20
17.92596740740003
 30
0.0
 10
0.3632243850438499
 20
17.92588668973742
 30
0.0
 10
1.090233763587435
 20
17.9277745214236
 30
0.0
 10
2.180672479041277
 20
17.94297482398167
 30
0.0
 10
3.270629765522926
 20
17.9799705053617
 30
0.0
 10
4.359135959167475
 20
18.04888925538044
 30
0.0
 10
5.444281900475005
 20
18.15849622316615
 30
0.0
 10
6.525830970566403
 20
18.2985101985479
 30
0.0
 10
7.258804299724545
 20
18.40437463634599
 30
0.0
 10
7.618499651422212
 20
18.45685315792494
 30
0.0
  0
SPLINE
  5
101
330
1F
100
AcDbEntity
  8
2D DXF
370
    -3
100
AcDbSpline
210
0.0
220
0.0
230
1.0
 70
     8
 71
     3
 72
    32
 73
    28
 74
     0
 42
0.000000001
 43
0.0000000001
 40
41.0
 40
41.0
 40
41.0
 40
41.0
 40
42.0
 40
43.0
 40
44.0
 40
45.0
 40
46.0
 40
47.0
 40
48.0
 40
49.0
 40
50.0
 40
51.0
 40
52.0
 40
53.0
 40
54.0
 40
55.0
 40
56.0
 40
57.0
 40
58.0
 40
59.0
 40
60.0
 40
61.0
 40
62.0
 40
63.0
 40
64.0
 40
65.0
 40
65.07605421795778
 40
65.07605421795778
 40
65.07605421795778
 40
65.07605421795778
 10
7.618499651422212
 20
18.45685315792494
 30
0.0
 10
7.661766184484861
 20
18.46316562117546
 30
0.0
 10
7.761951746506384
 20
18.47622547085654
 30
0.0
 10
7.89275235699796
 20
18.48676075703296
 30
0.0
 10
8.02399532120603
 20
18.48889160491582
 30
0.0
 10
8.155018801550568
 20
18.47866503489155
 30
0.0
 10
8.28328693481717
 20
18.44919637714082
 30
0.0
 10
8.401733622565985
 20
18.38776966698708
 30
0.0
 10
8.487390545605706
 20
18.28696087891351
 30
0.0
 10
8.534279872552986
 20
18.15749965244391
 30
0.0
 10
8.490531408213599
 20
18.0282227754582
 30
0.0
 10
8.390610632296273
 20
17.93943237224932
 30
0.0
 10
8.281965393666098
 20
17.86658226259139
 30
0.0
 10
8.166413359285684
 20
17.80399164903787
 30
0.0
 10
8.047972169078776
 20
17.74764801020836
 30
0.0
 10
7.927306517081604
 20
17.69611627293336
 30
0.0
 10
7.805097073591241
 20
17.64842668364156
 30
0.0
 10
7.681648653105299
 20
17.60403819811726
 30
0.0
 10
7.557201510075799
 20
17.56254530859088
 30
0.0
 10
7.431933631734069
 20
17.52360063612738
 30
0.0
 10
7.305895027949362
 20
17.48723158869873
 30
0.0
 10
7.179259865005292
 20
17.45301115375713
 30
0.0
 10
7.052633082572015
 20
17.41877119890612
 30
0.0
 10
6.925871043519976
 20
17.38503144943949
 30
0.0
 10
6.799012283444085
 20
17.3516586311339
 30
0.0
 10
6.71114677950132
 20
17.32885816727366
 30
0.0
 10
6.665582277580029
 20
17.31712692412326
 30
0.0
 10
6.662361721043652
 20
17.31629821058785
 30
0.0
  0
SPLINE
  5
102
330
1F
100
AcDbEntity
  8
2D DXF
370
    -3
100
AcDbSpline
210
0.0
220
0.0
230
1.0
 70
    24
 71
     2
 72
     6
 73
     3
 74
     0
 42
0.000000001
 43
0.0000000001
 40
0.0759171652887041
 40
0.0759171652887041
 40
0.0759171652887041
 40
0.4783760145391238
 40
0.4783760145391238
 40
0.4783760145391238
 10
33.38268935021119
 20
17.50164747925364
 30
0.0
 10
33.24120955986864
 20
17.48677735408301
 30
0.0
 10
33.09972976952608
 20
17.47190722891237
 30
0.0
  0
SPLINE
  5
103
330
1F
100
AcDbEntity
  8
2D DXF
370
    -3
100
AcDbSpline
210
0.0
220
0.0
230
1.0
 70
    24
 71
     3
 72
    14
 73
    10
 74
     0
 42
0.000000001
 43
0.0000000001
 40
0.0
 40
0.0
 40
0.0
 40
0.0
 40
0.6041693560049914
 40
0.6041693560049914
 40
0.6041693560049914
 40
0.6510228588170114
 40
0.6510228588170114
 40
0.6510228588170114
 40
1.255192214822014
 40
1.255192214822014
 40
1.255192214822014
 40
1.255192214822014
 10
30.16718373548485
 20
16.27043696453924
 30
0.0
 10
30.16633364528425
 20
16.2785250325262
 30
0.0
 10
30.15744123122343
 20
16.36313070077911
 30
0.0
 10
30.13678761147628
 20
16.55963676635229
 30
0.0
 10
30.13516330161625
 20
16.57509104234721
 30
0.0
 10
30.1335322751556
 20
16.59060922252831
 30
0.0
 10
30.13190796529557
 20
16.60606349852322
 30
0.0
 10
30.11125434554842
 20
16.80256956409643
 30
0.0
 10
30.10236193148754
 20
16.88717523234932
 30
0.0
 10
30.10151184128702
 20
16.89526330033628
 30
0.0
  0
SPLINE
  5
104
330
1F
100
AcDbEntity
  8
2D DXF
370
    -3
100
AcDbSpline
210
0.0
220
0.0
230
1.0
 70
    28
 71
     2
 72
     6
 73
     3
 74
     0
 42
0.000000001
 43
0.0000000001
 40
0.1092288140722163
 40
0.1092288140722163
 40
0.1092288140722163
 40
1.26190249524103
 40
1.26190249524103
 40
1.26190249524103
 10
33.05610601964821
 20
17.36545269496163
 30
0.0
 41
1.0
 10
33.2014544518147
 20
16.82287018712527
 30
0.0
 41
1.0
 10
33.34680288398118
 20
16.28028767928891
 30
0.0
 41
1.0
  0
SPLINE
  5
105
330
1F
100
AcDbEntity
  8
2D DXF
370
    -3
100
AcDbSpline
210
0.0
220
0.0
230
1.0
 70
    28
 71
     2
 72
     6
 73
     3
 74
     0
 42
0.000000001
 43
0.0000000001
 40
0.0
 40
0.0
 40
0.0
 40
0.5156024396811688
 40
0.5156024396811688
 40
0.5156024396811688
 10
33.5243528210452
 20
16.91907050441581
 30
0.0
 41
0.8530688685202268
 10
33.49748316919111
 20
17.17475860060023
 30
0.0
 41
0.8530688685202321
 10
33.47061351733701
 20
17.43044669678464
 30
0.0
 41
0.8530688685202376
  0
LINE
  5
106
330
1F
100
AcDbEntity
  8
2D DXF
100
AcDbLine
 10
33.73793569314091
 20
16.64486737531739
 30
0.0
 11
36.07695486404387
 21
16.89070824048271
 31
0.0
  0
SPLINE
  5
107
330
1F
100
AcDbEntity
  8
2D DXF
100
AcDbSpline
210
0.0
220
0.0
230
1.0
 70
     8
 71
     2
 72
    11
 73
     8
 74
     0
 42
0.000000001
 43
0.0000000001
 40
13.94205112437711
 40
13.94205112437711
 40
13.94205112437711
 40
14.94205112437711
 40
15.94205112437711
 40
16.94205112437711
 40
17.94205112437711
 40
18.94205112437711
 40
19.94205112437711
 40
19.94205112437711
 40
19.94205112437711
 10
36.07695486404387
 20
16.89070824048271
 30
0.0
 10
36.19346542680461
 20
16.90189175090387
 30
0.0
 10
36.40694107392386
 20
16.80984800946234
 30
0.0
 10
36.57434977082355
 20
16.65142026470812
 30
0.0
 10
36.69983222971987
 20
16.45907411602839
 30
0.0
 10
36.78929104441227
 20
16.24786602779117
 30
0.0
 10
36.84632526597147
 20
16.02581192295407
 30
0.0
 10
36.86015851740089
 20
15.90974065268146
 30
0.0
  0
LINE
  5
108
330
1F
100
AcDbEntity
  8
2D DXF
100
AcDbLine
 10
36.86015851740089
 20
15.90974065268146
 30
0.0
 11
38.66514595919688
 21
0.4865591762314053
 31
0.0
  0
LINE
  5
109
330
1F
100
AcDbEntity
  8
2D DXF
100
AcDbLine
 10
38.66514595919688
 20
0.4865591762314053
 30
0.0
 11
39.29087548038703
 21
0.5597887215742886
 31
0.0
  0
LINE
  5
10A
330
1F
100
AcDbEntity
  8
2D DXF
100
AcDbLine
 10
39.29087548038703
 20
0.5597887215742886
 30
0.0
 11
37.48615639042967
 21
15.98069577041211
 31
0.0
  0
SPLINE
  5
10B
330
1F
100
AcDbEntity
  8
2D DXF
100
AcDbSpline
210
0.0
220
0.0
230
1.0
 70
     8
 71
     2
 72
    11
 73
     8
 74
     0
 42
0.000000001
 43
0.0000000001
 40
51.80342251837043
 40
51.80342251837043
 40
51.80342251837043
 40
52.80344564668599
 40
53.80347049526823
 40
54.80349534385049
 40
55.80352019243274
 40
56.80354504101498
 40
57.80342251837043
 40
57.80342251837043
 40
57.80342251837043
 10
37.48615639042967
 20
15.98069577041211
 30
0.0
 10
37.46341746683328
 20
16.17652325229781
 30
0.0
 10
37.35283161555466
 20
16.55510952541303
 30
0.0
 10
37.17315910086327
 20
16.906607439325
 30
0.0
 10
36.91973966241204
 20
17.21009213983073
 30
0.0
 10
36.59241882139929
 20
17.43388095474272
 30
0.0
 10
36.20881503691626
 20
17.53777495762015
 30
0.0
 10
36.01092696241224
 20
17.51723857859706
 30
0.0
  0
LINE
  5
10C
330
1F
100
AcDbEntity
  8
2D DXF
100
AcDbLine
 10
36.01092696241221
 20
17.51723857859707
 30
0.0
 11
33.48932948856961
 21
17.25220802642862
 31
0.0
  0
LINE
  5
10D
330
1F
100
AcDbEntity
  8
2D DXF
370
    -3
100
AcDbLine
 10
32.52358523479592
 20
17.15070421517347
 30
0.0
 11
27.67915185577814
 21
16.64153374957598
 31
0.0
  0
LINE
  5
10E
330
1F
100
AcDbEntity
  8
2D DXF
370
    -3
100
AcDbLine
 10
27.59894344711273
 20
15.99963328999631
 30
0.0
 11
32.73508133047548
 21
16.53946313444656
 31
0.0
  0
LINE
  5
10F
330
1F
100
AcDbEntity
  8
2D DXF
370
    -3
100
AcDbLine
 10
26.71348843372814
 20
16.54003843654921
 30
0.0
 11
26.18786890267913
 21
16.48479359345196
 31
0.0
  0
SPLINE
  5
110
330
1F
100
AcDbEntity
  8
2D DXF
370
    -3
100
AcDbSpline
210
0.0
220
0.0
230
1.0
 70
     8
 71
     2
 72
     7
 73
     4
 74
     0
 42
0.000000001
 43
0.0000000001
 40
13.96538199558627
 40
13.96538199558627
 40
13.96538199558627
 40
14.96538199558627
 40
15.96538199558627
 40
15.96538199558627
 40
15.96538199558627
 10
26.18786890267913
 20
16.48479359345196
 30
0.0
 10
26.14864545503062
 20
16.48054283262755
 30
0.0
 10
26.06965653987109
 20
16.48248245162582
 30
0.0
 10
26.03119313470407
 20
16.49181539793895
 30
0.0
  0
SPLINE
  5
111
330
1F
100
AcDbEntity
  8
2D DXF
370
    -3
100
AcDbSpline
210
0.0
220
0.0
230
1.0
 70
    28
 71
     2
 72
     6
 73
     3
 74
     0
 42
0.000000001
 43
0.0000000001
 40
15.96538199558627
 40
15.96538199558627
 40
15.96538199558627
 40
18.69333850814045
 40
18.69333850814045
 40
18.69333850814045
 10
26.03119313470407
 20
16.49181539793894
 30
0.0
 41
0.9293870629793591
 10
25.25742504022991
 20
16.691364073915
 30
0.0
 41
0.9293870629793591
 10
24.48365694575575
 20
16.89091274989106
 30
0.0
 41
0.9293870629793591
  0
SPLINE
  5
112
330
1F
100
AcDbEntity
  8
2D DXF
370
    -3
100
AcDbSpline
210
0.0
220
0.0
230
1.0
 70
     8
 71
     2
 72
    11
 73
     8
 74
     0
 42
0.000000001
 43
0.0000000001
 40
18.69333850814045
 40
18.69333850814045
 40
18.69333850814045
 40
19.69312936551644
 40
20.69317152531058
 40
21.69321368510471
 40
22.69325584489884
 40
23.69329800469298
 40
24.69333850814045
 40
24.69333850814045
 40
24.69333850814045
 10
24.48365694575577
 20
16.89091274989107
 30
0.0
 10
24.29668634939273
 20
16.9386648131462
 30
0.0
 10
23.92005164599377
 20
16.86008040007144
 30
0.0
 10
23.60301806371274
 20
16.64553375299945
 30
0.0
 10
23.35880131713091
 20
16.3532358589165
 30
0.0
 10
23.17887379283954
 20
16.0183669671551
 30
0.0
 10
23.05455150400087
 20
15.65947714410396
 30
0.0
 10
23.01776772093527
 20
15.47321668741555
 30
0.0
  0
LINE
  5
113
330
1F
100
AcDbEntity
  8
2D DXF
370
    -3
100
AcDbLine
 10
23.01776772093527
 20
15.47321668741555
 30
0.0
 11
20.05245882172403
 21
0.5383582905886427
 31
0.0
  0
LINE
  5
114
330
1F
100
AcDbEntity
  8
2D DXF
370
    -3
100
AcDbLine
 10
20.05245882172403
 20
0.5383582905886427
 30
0.0
 11
20.66975806161796
 21
0.4124520054760509
 31
0.0
  0
LINE
  5
115
330
1F
100
AcDbEntity
  8
2D DXF
370
    -3
100
AcDbLine
 10
20.66975806161796
 20
0.4124520054760509
 30
0.0
 11
23.63570555730553
 21
15.35052671176494
 31
0.0
  0
SPLINE
  5
116
330
1F
100
AcDbEntity
  8
2D DXF
370
    -3
100
AcDbSpline
210
0.0
220
0.0
230
1.0
 70
     8
 71
     2
 72
    11
 73
     8
 74
     0
 42
0.000000001
 43
0.0000000001
 40
55.9675416495156
 40
55.9675416495156
 40
55.9675416495156
 40
56.9675416495156
 40
57.9675416495156
 40
58.9675416495156
 40
59.9675416495156
 40
60.9675416495156
 40
61.9675416495156
 40
61.9675416495156
 40
61.9675416495156
 10
23.63570555730553
 20
15.35052671176494
 30
0.0
 10
23.65595414585871
 20
15.4527230217765
 30
0.0
 10
23.71607426306247
 20
15.65225266437245
 30
0.0
 10
23.79733630842347
 20
15.84418931229869
 30
0.0
 10
23.90333892773438
 20
16.02397614532412
 30
0.0
 10
24.03873918019758
 20
16.18236294480081
 30
0.0
 10
24.21868502616871
 20
16.29955590214099
 30
0.0
 10
24.32614454418612
 20
16.28092113817948
 30
0.0
  0
SPLINE
  5
117
330
1F
100
AcDbEntity
  8
2D DXF
370
    -3
100
AcDbSpline
210
0.0
220
0.0
230
1.0
 70
    28
 71
     2
 72
     6
 73
     3
 74
     0
 42
0.000000001
 43
0.0000000001
 40
61.9675416495156
 40
61.9675416495156
 40
61.9675416495156
 40
64.69549816206977
 40
64.69549816206977
 40
64.69549816206977
 10
24.32614454418611
 20
16.28092113817948
 30
0.0
 41
0.9293870629793595
 10
25.09997565514551
 20
16.08135616885555
 30
0.0
 41
0.9293870629793595
 10
25.8738067661049
 20
15.88179119953161
 30
0.0
 41
0.9293870629793595
  0
SPLINE
  5
118
330
1F
100
AcDbEntity
  8
2D DXF
370
    -3
100
AcDbSpline
210
0.0
220
0.0
230
1.0
 70
     8
 71
     2
 72
     7
 73
     4
 74
     0
 42
0.000000001
 43
0.0000000001
 40
64.69549816206977
 40
64.69549816206977
 40
64.69549816206977
 40
65.69545848471837
 40
66.69549816206977
 40
66.69549816206977
 40
66.69549816206977
 10
25.87380676610488
 20
15.8817911995316
 30
0.0
 10
25.96683570303665
 20
15.85812886158854
 30
0.0
 10
26.15843551276097
 20
15.84796655174227
 30
0.0
 10
26.25375498058807
 20
15.85824828670765
 30
0.0
  0
SPLINE
  5
119
330
1F
100
AcDbEntity
  8
2D DXF
370
    -3
100
AcDbSpline
210
0.0
220
0.0
230
1.0
 70
    28
 71
     2
 72
     6
 73
     3
 74
     0
 42
0.000000001
 43
0.0000000001
 40
66.69549816206977
 40
66.69549816206977
 40
66.69549816206977
 40
67.18120983883121
 40
67.18120983883121
 40
67.18120983883121
 10
26.25375498058804
 20
15.85824828670764
 30
0.0
 41
0.9712942255439354
 10
26.42456888430496
 20
15.87620155054371
 30
0.0
 41
0.9712942255439354
 10
26.59538278802188
 20
15.89415481437977
 30
0.0
 41
0.9712942255439354
  0
SPLINE
  5
11A
330
1F
100
AcDbEntity
  8
2D DXF
370
    -3
100
AcDbSpline
210
0.0
220
0.0
230
1.0
 70
     8
 71
     2
 72
     7
 73
     4
 74
     0
 42
0.000000001
 43
0.0000000001
 40
0.0
 40
0.0
 40
0.0
 40
1.0
 40
2.0
 40
2.0
 40
2.0
 10
33.05610601964821
 20
17.36545269496163
 30
0.0
 10
33.04642814542203
 20
17.39688961185611
 30
0.0
 10
33.06549487843651
 20
17.4633750006616
 30
0.0
 10
33.09972976952608
 20
17.47190722891237
 30
0.0
  0
SPLINE
  5
11B
330
1F
100
AcDbEntity
  8
2D DXF
370
    -3
100
AcDbSpline
210
0.0
220
0.0
230
1.0
 70
     8
 71
     2
 72
     7
 73
     4
 74
     0
 42
0.000000001
 43
0.0000000001
 40
0.0
 40
0.0
 40
0.0
 40
1.0
 40
2.0
 40
2.0
 40
2.0
 10
33.56715957012872
 20
16.08215373143902
 30
0.0
 10
33.48167598562935
 20
16.07821745933317
 30
0.0
 10
33.36695646915294
 20
16.20127587444912
 30
0.0
 10
33.34680288398118
 20
16.28028767928891
 30
0.0
  0
SPLINE
  5
11C
330
1F
100
AcDbEntity
  8
2D DXF
370
    -3
100
AcDbSpline
210
0.0
220
0.0
230
1.0
 70
    28
 71
     2
 72
     6
 73
     3
 74
     0
 42
0.000000001
 43
0.0000000001
 40
0.9853140211910352
 40
0.9853140211910352
 40
0.9853140211910352
 40
1.152673681168807
 40
1.152673681168807
 40
1.152673681168807
 10
34.32559346998484
 20
17.34010291267555
 30
0.0
 41
0.8560731425522574
 10
34.33579564104677
 20
17.42217222354075
 30
0.0
 41
0.8560731425522572
 10
34.34599781210868
 20
17.50424153440595
 30
0.0
 41
0.8560731425522569
  0
SPLINE
  5
11D
330
1F
100
AcDbEntity
  8
2D DXF
370
    -3
100
AcDbSpline
210
0.0
220
0.0
230
1.0
 70
     8
 71
     2
 72
     7
 73
     4
 74
     0
 42
0.000000001
 43
0.0000000001
 40
1.152673681168807
 40
1.152673681168807
 40
1.152673681168807
 40
2.152673681168807
 40
3.152673681168807
 40
3.152673681168807
 40
3.152673681168807
 10
34.34599781210866
 20
17.50424153440595
 30
0.0
 10
34.34955637331583
 20
17.53512383659136
 30
0.0
 10
34.31357839059595
 20
17.58562084517947
 30
0.0
 10
34.28323672164149
 20
17.59236340502163
 30
0.0
  0
ARC
  5
11E
330
1F
100
AcDbEntity
  8
2D DXF
370
    -3
100
AcDbCircle
 10
34.26684377871922
 20
17.51859479799681
 30
0.0
 40
0.0755680882385853
100
AcDbArc
 50
77.47125213979278
 51
96.53253822394014
  0
SPLINE
  5
11F
330
1F
100
AcDbEntity
  8
2D DXF
370
    -3
100
AcDbSpline
210
0.0
220
0.0
230
1.0
 70
    24
 71
     2
 72
     6
 73
     3
 74
     0
 42
0.000000001
 43
0.0000000001
 40
3.177813839152324
 40
3.177813839152324
 40
3.177813839152324
 40
3.58027268840272
 40
3.58027268840272
 40
3.58027268840272
 10
34.25824659046586
 20
17.59367225342899
 30
0.0
 10
34.11676680012363
 20
17.57880212825839
 30
0.0
 10
33.9752870097814
 20
17.5639320030878
 30
0.0
  0
SPLINE
  5
120
330
1F
100
AcDbEntity
  8
2D DXF
370
    -3
100
AcDbSpline
210
0.0
220
0.0
230
1.0
 70
     8
 71
     2
 72
     7
 73
     4
 74
     0
 42
0.000000001
 43
0.0000000001
 40
3.58027268840272
 40
3.58027268840272
 40
3.58027268840272
 40
4.58027268840272
 40
5.58027268840272
 40
5.58027268840272
 40
5.58027268840272
 10
33.9752870097814
 20
17.5639320030878
 30
0.0
 10
33.94789936616559
 20
17.55845903543483
 30
0.0
 10
33.9249352456176
 20
17.50885689336524
 30
0.0
 10
33.9270425531748
 20
17.48263058304167
 30
0.0
  0
SPLINE
  5
121
330
1F
100
AcDbEntity
  8
2D DXF
370
    -3
100
AcDbSpline
210
0.0
220
0.0
230
1.0
 70
    28
 71
     2
 72
     6
 73
     3
 74
     0
 42
0.000000001
 43
0.0000000001
 40
5.58027268840272
 40
5.58027268840272
 40
5.58027268840272
 40
5.764182542701008
 40
5.764182542701008
 40
5.764182542701008
 10
33.9270425531748
 20
17.48263058304167
 30
0.0
 41
1.0
 10
33.9298687337858
 20
17.39071909674756
 30
0.0
 41
1.0
 10
33.93269491439679
 20
17.29880761045345
 30
0.0
 41
1.0
  0
LINE
  5
122
330
1F
100
AcDbEntity
  8
2D DXF
370
    -3
100
AcDbLine
 10
20.052458821724
 20
0.5383582905886285
 30
0.0
 11
20.01048499566278
 21
0.3325670475231234
 31
0.0
  0
SPLINE
  5
123
330
1F
100
AcDbEntity
  8
2D DXF
370
    -3
100
AcDbSpline
210
0.0
220
0.0
230
1.0
 70
     8
 71
     2
 72
    11
 73
     8
 74
     0
 42
0.000000001
 43
0.0000000001
 40
0.2100281833390025
 40
0.2100281833390025
 40
0.2100281833390025
 40
1.210028183339003
 40
2.210028183339003
 40
3.210028183339003
 40
4.210028183339002
 40
5.210028183339002
 40
6.210028183339002
 40
6.210028183339002
 40
6.210028183339002
 10
20.01048499566278
 20
0.3325670475231234
 30
0.0
 10
20.0033417266612
 20
0.2647603344313395
 30
0.0
 10
20.11297244802907
 20
0.1954271424868309
 30
0.0
 10
20.22969273758324
 20
0.160060366220928
 30
0.0
 10
20.34998484193264
 20
0.1350608996268604
 30
0.0
 10
20.47107614705456
 20
0.1213547192628496
 30
0.0
 10
20.59942123705903
 20
0.1362544822486554
 30
0.0
 10
20.62564348567631
 20
0.1982959371207712
 30
0.0
  0
LINE
  5
124
330
1F
100
AcDbEntity
  8
2D DXF
370
    -3
100
AcDbLine
 10
20.62564348567631
 20
0.1982959371207712
 30
0.0
 11
20.66974970654795
 21
0.4124537096022848
 31
0.0
  0
LINE
  5
125
330
1F
100
AcDbEntity
  8
2D DXF
370
    -3
100
AcDbLine
 10
38.66514595919685
 20
0.4865591762314053
 30
0.0
 11
38.68955908360184
 21
0.2779546768708442
 31
0.0
  0
SPLINE
  5
126
330
1F
100
AcDbEntity
  8
2D DXF
370
    -3
100
AcDbSpline
210
0.0
220
0.0
230
1.0
 70
     8
 71
     2
 72
    11
 73
     8
 74
     0
 42
0.000000001
 43
0.0000000001
 40
0.2100281833390025
 40
0.2100281833390025
 40
0.2100281833390025
 40
1.210028183339003
 40
2.210028183339003
 40
3.210028183339003
 40
4.210028183339002
 40
5.210028183339002
 40
6.210028183339002
 40
6.210028183339002
 40
6.210028183339002
 10
38.68955908360184
 20
0.2779546768708442
 30
0.0
 10
38.70395519040517
 20
0.2113098815658346
 30
0.0
 10
38.82975820059707
 20
0.1796936009574309
 30
0.0
 10
38.95168533775706
 20
0.1825585758273248
 30
0.0
 10
39.07376693266443
 20
0.1963878159971798
 30
0.0
 10
39.1930798639392
 20
0.221194830870398
 30
0.0
 10
39.31034745908468
 20
0.2754421920421449
 30
0.0
 10
39.31587651500635
 20
0.3425702635607407
 30
0.0
  0
LINE
  5
127
330
1F
100
AcDbEntity
  8
2D DXF
370
    -3
100
AcDbLine
 10
39.31587651500635
 20
0.3425702635607407
 30
0.0
 11
39.29087548038711
 21
0.5597887215742886
 31
0.0
  0
SPLINE
  5
128
330
1F
100
AcDbEntity
  8
2D DXF
370
    -3
100
AcDbSpline
210
0.0
220
0.0
230
1.0
 70
    28
 71
     2
 72
     6
 73
     3
 74
     0
 42
0.000000001
 43
0.0000000001
 40
-0.2639087491149296
 40
-0.2639087491149296
 40
-0.2639087491149296
 40
-0.0802194250568052
 40
-0.0802194250568052
 40
-0.0802194250568052
 10
26.27012134562659
 20
16.49343867534041
 30
0.0
 41
1.0
 10
26.25374283347351
 20
16.58417635366434
 30
0.0
 41
1.0
 10
26.23736432132043
 20
16.67491403198826
 30
0.0
 41
1.0
  0
SPLINE
  5
129
330
1F
100
AcDbEntity
  8
2D DXF
370
    -3
100
AcDbSpline
210
0.0
220
0.0
230
1.0
 70
     8
 71
     2
 72
     7
 73
     4
 74
     0
 42
0.000000001
 43
0.0000000001
 40
-0.0802194250568052
 40
-0.0802194250568052
 40
-0.0802194250568052
 40
0.9197805749431949
 40
1.919780574943195
 40
1.919780574943195
 40
1.919780574943195
 10
26.23736432132043
 20
16.67491403198826
 30
0.0
 10
26.2335960205013
 20
16.70131075174139
 30
0.0
 10
26.20089161855873
 20
16.74410307733821
 30
0.0
 10
26.17337672524474
 20
16.74369705041189
 30
0.0
  0
SPLINE
  5
12A
330
1F
100
AcDbEntity
  8
2D DXF
370
    -3
100
AcDbSpline
210
0.0
220
0.0
230
1.0
 70
    24
 71
     2
 72
     6
 73
     3
 74
     0
 42
0.000000001
 43
0.0000000001
 40
1.919780574943195
 40
1.919780574943195
 40
1.919780574943195
 40
2.32223942419359
 40
2.32223942419359
 40
2.32223942419359
 10
26.17337672524474
 20
16.74369705041189
 30
0.0
 10
26.03189693490246
 20
16.72882692524242
 30
0.0
 10
25.89041714456019
 20
16.71395680007295
 30
0.0
  0
SPLINE
  5
12B
330
1F
100
AcDbEntity
  8
2D DXF
370
    -3
100
AcDbSpline
210
0.0
220
0.0
230
1.0
 70
     8
 71
     2
 72
     7
 73
     4
 74
     0
 42
0.000000001
 43
0.0000000001
 40
2.32223942419359
 40
2.32223942419359
 40
2.32223942419359
 40
3.32223942419359
 40
4.32223942419359
 40
4.32223942419359
 40
4.32223942419359
 10
25.89041714456019
 20
16.71395680007295
 30
0.0
 10
25.85321578722451
 20
16.70947435970696
 30
0.0
 10
25.81192302830229
 20
16.647391768192
 30
0.0
 10
25.82267387760081
 20
16.60979284063196
 30
0.0
  0
SPLINE
  5
12C
330
1F
100
AcDbEntity
  8
2D DXF
370
    -3
100
AcDbSpline
210
0.0
220
0.0
230
1.0
 70
    28
 71
     2
 72
     6
 73
     3
 74
     0
 42
0.000000001
 43
0.0000000001
 40
4.32223942419359
 40
4.32223942419359
 40
4.32223942419359
 40
4.39491006014933
 40
4.39491006014933
 40
4.39491006014933
 10
25.82267387760078
 20
16.60979284063196
 30
0.0
 41
0.8560731425316628
 10
25.83466784183997
 20
16.57507812013628
 30
0.0
 41
0.8560731425316628
 10
25.84666180607915
 20
16.54036339964059
 30
0.0
 41
0.8560731425316629
  0
SPLINE
  5
12D
330
1F
100
AcDbEntity
  8
2D DXF
370
    -3
100
AcDbSpline
210
0.0
220
0.0
230
1.0
 70
     8
 71
     2
 72
     7
 73
     4
 74
     0
 42
0.000000001
 43
0.0000000001
 40
0.0
 40
0.0
 40
0.0
 40
1.0
 40
2.0
 40
2.0
 40
2.0
 10
26.88066464423196
 20
15.37915365819431
 30
0.0
 10
26.96509860405004
 20
15.39307643950319
 30
0.0
 10
27.05172593933528
 20
15.53729726168184
 30
0.0
 10
27.05501164133466
 20
15.6187726346839
 30
0.0
  0
SPLINE
  5
12E
330
1F
100
AcDbEntity
  8
2D DXF
370
    -3
100
AcDbSpline
210
0.0
220
0.0
230
1.0
 70
    28
 71
     2
 72
     6
 73
     3
 74
     0
 42
0.000000001
 43
0.0000000001
 40
2.0
 40
2.0
 40
2.0
 40
3.152673681168819
 40
3.152673681168819
 40
3.152673681168819
 10
27.05501164133466
 20
15.6187726346839
 30
0.0
 41
1.0
 10
27.08437460824476
 20
16.17971805000971
 30
0.0
 41
1.0
 10
27.11373757515486
 20
16.74066346533553
 30
0.0
 41
1.0
  0
SPLINE
  5
12F
330
1F
100
AcDbEntity
  8
2D DXF
370
    -3
100
AcDbSpline
210
0.0
220
0.0
230
1.0
 70
     8
 71
     2
 72
     7
 73
     4
 74
     0
 42
0.000000001
 43
0.0000000001
 40
3.152673681168819
 40
3.152673681168819
 40
3.152673681168819
 40
4.152673681168819
 40
5.152673681168819
 40
5.152673681168819
 40
5.152673681168819
 10
27.11373757515486
 20
16.74066346533553
 30
0.0
 10
27.11666786164298
 20
16.77342555350209
 30
0.0
 10
27.08419469210963
 20
16.83449388007692
 30
0.0
 10
27.04893396550017
 20
16.83572182458027
 30
0.0
  0
SPLINE
  5
130
330
1F
100
AcDbEntity
  8
2D DXF
370
    -3
100
AcDbSpline
210
0.0
220
0.0
230
1.0
 70
    28
 71
     2
 72
     6
 73
     3
 74
     0
 42
0.000000001
 43
0.0000000001
 40
0.8896616777363233
 40
0.8896616777363233
 40
0.8896616777363233
 40
1.232673681168816
 40
1.232673681168816
 40
1.232673681168816
 10
26.08483155504801
 20
15.85203324475505
 30
0.0
 41
0.8560731425316636
 10
26.14025587783038
 20
15.69185240093472
 30
0.0
 41
0.8560731425316638
 10
26.19568020061276
 20
15.53167155711438
 30
0.0
 41
0.856073142531664
  0
SPLINE
  5
131
330
1F
100
AcDbEntity
  8
2D DXF
370
    -3
100
AcDbSpline
210
0.0
220
0.0
230
1.0
 70
     8
 71
     2
 72
     7
 73
     4
 74
     0
 42
0.000000001
 43
0.0000000001
 40
1.232673681168816
 40
1.232673681168816
 40
1.232673681168816
 40
2.232666359644853
 40
3.232673681168816
 40
3.232673681168816
 40
3.232673681168816
 10
26.19568020061277
 20
15.53167155711438
 30
0.0
 10
26.22350974235903
 20
15.44738479835045
 30
0.0
 10
26.35921836742025
 20
15.3282862108726
 30
0.0
 10
26.45116414954234
 20
15.33401025294537
 30
0.0
  0
LINE
  5
132
330
1F
100
AcDbEntity
  8
2D DXF
370
    -3
100
AcDbLine
 10
26.45116414954234
 20
15.33401025294537
 30
0.0
 11
26.8825509668828
 21
15.37935191869398
 31
0.0
  0
LINE
  5
133
330
1F
100
AcDbEntity
  8
2D DXF
370
    -3
100
AcDbLine
 10
26.8825509668828
 20
15.37935191869398
 30
0.0
 11
27.35146540730429
 21
15.42861934568932
 31
0.0
  0
SPLINE
  5
134
330
1F
100
AcDbEntity
  8
2D DXF
370
    -3
100
AcDbSpline
210
0.0
220
0.0
230
1.0
 70
     8
 71
     2
 72
     7
 73
     4
 74
     0
 42
0.000000001
 43
0.0000000001
 40
4.50481871282868
 40
4.50481871282868
 40
4.50481871282868
 40
5.504850921676796
 40
6.50481871282868
 40
6.50481871282868
 40
6.50481871282868
 10
27.35146540730429
 20
15.42861934568932
 30
0.0
 10
27.44286388099263
 20
15.44292100232439
 30
0.0
 10
27.54971567847659
 20
15.58737400388385
 30
0.0
 10
27.55914295746604
 20
15.67498585581098
 30
0.0
  0
SPLINE
  5
135
330
1F
100
AcDbEntity
  8
2D DXF
370
    -3
100
AcDbSpline
210
0.0
220
0.0
230
1.0
 70
    28
 71
     2
 72
     6
 73
     3
 74
     0
 42
0.000000001
 43
0.0000000001
 40
6.50481871282868
 40
6.50481871282868
 40
6.50481871282868
 40
7.657492393997497
 40
7.657492393997497
 40
7.657492393997497
 10
27.55914295746603
 20
15.67498585581099
 30
0.0
 41
0.856073142531669
 10
27.62940875861483
 20
16.2402247645917
 30
0.0
 41
0.8560731425316691
 10
27.69967455976363
 20
16.80546367337241
 30
0.0
 41
0.8560731425316692
  0
SPLINE
  5
136
330
1F
100
AcDbEntity
  8
2D DXF
370
    -3
100
AcDbSpline
210
0.0
220
0.0
230
1.0
 70
     8
 71
     2
 72
     7
 73
     4
 74
     0
 42
0.000000001
 43
0.0000000001
 40
7.657492393997497
 40
7.657492393997497
 40
7.657492393997497
 40
8.657492393997497
 40
9.657492393997497
 40
9.657492393997497
 40
9.657492393997497
 10
27.69967455976365
 20
16.80546367337241
 30
0.0
 10
27.7032318295384
 20
16.83635227013609
 30
0.0
 10
27.66724903658886
 20
16.88686120784356
 30
0.0
 10
27.63689306865501
 20
16.89358986255824
 30
0.0
  0
ARC
  5
137
330
1F
100
AcDbEntity
  8
2D DXF
370
    -3
100
AcDbCircle
 10
27.62051349327751
 20
16.8196942792636
 30
0.0
 40
0.0756891519307933
100
AcDbArc
 50
77.5019814014356
 51
96.51668048199421
  0
LINE
  5
138
330
1F
100
AcDbEntity
  8
2D DXF
370
    -3
100
AcDbLine
 10
27.61192334470908
 20
16.89489439274473
 30
0.0
 11
27.04893396550017
 21
16.83572182458027
 31
0.0
  0
LINE
  5
139
330
1F
100
AcDbEntity
  8
2D DXF
370
    -3
100
AcDbLine
 10
27.04893396550017
 20
16.83572182458027
 30
0.0
 11
26.76597438481517
 21
16.80598157424127
 31
0.0
  0
SPLINE
  5
13A
330
1F
100
AcDbEntity
  8
2D DXF
370
    -3
100
AcDbSpline
210
0.0
220
0.0
230
1.0
 70
     8
 71
     2
 72
     7
 73
     4
 74
     0
 42
0.000000001
 43
0.0000000001
 40
10.88546531432997
 40
10.88546531432997
 40
10.88546531432997
 40
11.88546531432997
 40
12.88546531432997
 40
12.88546531432997
 40
12.88546531432997
 10
26.76597438481517
 20
16.80598157424127
 30
0.0
 10
26.73313777913469
 20
16.80217405356059
 30
0.0
 10
26.69167170932107
 20
16.75096686040346
 30
0.0
 10
26.6947750478482
 20
16.71805623646807
 30
0.0
  0
LINE
  5
13B
330
1F
100
AcDbEntity
  8
2D DXF
370
    -3
100
AcDbLine
 10
26.69477504784817
 20
16.71805623646807
 30
0.0
 11
26.74853124466779
 21
16.20668112999503
 31
0.0
  0
SPLINE
  5
13C
330
1F
100
AcDbEntity
  8
2D DXF
370
    -3
100
AcDbSpline
210
0.0
220
0.0
230
1.0
 70
     8
 71
     2
 72
     7
 73
     4
 74
     0
 42
0.000000001
 43
0.0000000001
 40
13.40106775401131
 40
13.40106775401131
 40
13.40106775401131
 40
14.40106775401131
 40
15.40106775401131
 40
15.40106775401131
 40
15.40106775401131
 10
26.74853124466779
 20
16.20668112999503
 30
0.0
 10
26.7593571611697
 20
16.11153986844614
 30
0.0
 10
26.69490625980251
 20
15.92013810180807
 30
0.0
 10
26.595368506943
 20
15.89393233808537
 30
0.0
  0
SPLINE
  5
13D
330
1F
100
AcDbEntity
  8
2D DXF
370
    -3
100
AcDbSpline
210
0.0
220
0.0
230
1.0
 70
     8
 71
     2
 72
     7
 73
     4
 74
     0
 42
0.000000001
 43
0.0000000001
 40
0.0
 40
0.0
 40
0.0
 40
1.0
 40
2.0
 40
2.0
 40
2.0
 10
33.47061351737037
 20
17.43044669655644
 30
0.0
 10
33.46776004188334
 20
17.45626048689753
 30
0.0
 10
33.43305386403915
 20
17.49480372251949
 30
0.0
 10
33.40767948887475
 20
17.50033862096685
 30
0.0
  0
ARC
  5
13E
330
1F
100
AcDbEntity
  8
2D DXF
370
    -3
100
AcDbCircle
 10
33.39119112911001
 20
17.42474882821922
 30
0.0
 40
0.0773671944389988
100
AcDbArc
 50
77.69484845802657
 51
96.30889852110818
  0
SPLINE
  5
13F
330
1F
100
AcDbEntity
  8
2D DXF
370
    -3
100
AcDbSpline
210
0.0
220
0.0
230
1.0
 70
    24
 71
     2
 72
     6
 73
     3
 74
     0
 42
0.000000001
 43
0.0000000001
 40
0.0843024100224767
 40
0.0843024100224767
 40
0.0843024100224767
 40
0.8846975899775236
 40
0.8846975899775236
 40
0.8846975899775236
 10
33.09972976952608
 20
17.47190722891237
 30
0.0
 10
32.81823508040438
 20
17.44232093838464
 30
0.0
 10
32.53674039128268
 20
17.4127346478569
 30
0.0
  0
SPLINE
  5
140
330
1F
100
AcDbEntity
  8
2D DXF
370
    -3
100
AcDbSpline
210
0.0
220
0.0
230
1.0
 70
     8
 71
     2
 72
     7
 73
     4
 74
     0
 42
0.000000001
 43
0.0000000001
 40
0.8846975899775236
 40
0.8846975899775236
 40
0.8846975899775236
 40
1.884697589977524
 40
2.884697589977524
 40
2.884697589977524
 40
2.884697589977524
 10
32.53674039128268
 20
17.4127346478569
 30
0.0
 10
32.49917597241674
 20
17.40819267741919
 30
0.0
 10
32.45796637330398
 20
17.34519357965432
 30
0.0
 10
32.469178199156
 20
17.30798505344819
 30
0.0
  0
SPLINE
  5
141
330
1F
100
AcDbEntity
  8
2D DXF
370
    -3
100
AcDbSpline
210
0.0
220
0.0
230
1.0
 70
    28
 71
     2
 72
     6
 73
     3
 74
     0
 42
0.000000001
 43
0.0000000001
 40
2.884697589977524
 40
2.884697589977524
 40
2.884697589977524
 40
4.037371271146342
 40
4.037371271146342
 40
4.037371271146342
 10
32.46917819915599
 20
17.30798505344818
 30
0.0
 41
0.8560731425110866
 10
32.65558943061972
 20
16.76922137657259
 30
0.0
 41
0.8560731425110863
 10
32.84200066208345
 20
16.23045769969699
 30
0.0
 41
0.8560731425110862
  0
SPLINE
  5
142
330
1F
100
AcDbEntity
  8
2D DXF
370
    -3
100
AcDbSpline
210
0.0
220
0.0
230
1.0
 70
     8
 71
     2
 72
     7
 73
     4
 74
     0
 42
0.000000001
 43
0.0000000001
 40
4.037371271146342
 40
4.037371271146342
 40
4.037371271146342
 40
5.037339062304119
 40
6.037371271146342
 40
6.037371271146342
 40
6.037371271146342
 10
32.84200066208345
 20
16.23045769969699
 30
0.0
 10
32.86943746263472
 20
16.14672041678638
 30
0.0
 10
33.00398776259092
 20
16.02763979916311
 30
0.0
 10
33.09636244140526
 20
16.03265348103436
 30
0.0
  0
LINE
  5
143
330
1F
100
AcDbEntity
  8
2D DXF
370
    -3
100
AcDbLine
 10
33.09636244140526
 20
16.03265348103436
 30
0.0
 11
33.5641243552362
 21
16.08183471742414
 31
0.0
  0
LINE
  5
144
330
1F
100
AcDbEntity
  8
2D DXF
370
    -3
100
AcDbLine
 10
33.5641243552362
 20
16.08183471742414
 30
0.0
 11
33.9966602919566
 21
16.12729499214789
 31
0.0
  0
SPLINE
  5
145
330
1F
100
AcDbEntity
  8
2D DXF
370
    -3
100
AcDbSpline
210
0.0
220
0.0
230
1.0
 70
     8
 71
     2
 72
     7
 73
     4
 74
     0
 42
0.000000001
 43
0.0000000001
 40
7.306249570421159
 40
7.306249570421159
 40
7.306249570421159
 40
8.306256891946019
 40
9.306249570421159
 40
9.306249570421159
 40
9.306249570421159
 10
33.9966602919566
 20
16.12729499214789
 30
0.0
 10
34.08778693410267
 20
16.14081263964355
 30
0.0
 10
34.19576800686261
 20
16.28552404500671
 30
0.0
 10
34.20546520312567
 20
16.37375502296949
 30
0.0
  0
LINE
  5
146
330
1F
100
AcDbEntity
  8
2D DXF
370
    -3
100
AcDbLine
 10
34.20546520312564
 20
16.37375502296949
 30
0.0
 11
34.24580325355612
 21
16.6982464068711
 31
0.0
  0
SPLINE
  5
147
330
1F
100
AcDbEntity
  8
2D DXF
370
    -3
100
AcDbSpline
210
0.0
220
0.0
230
1.0
 70
     8
 71
     2
 72
     8
 73
     5
 74
     0
 42
0.000000001
 43
0.0000000001
 40
0.0
 40
0.0
 40
0.0
 40
1.0
 40
2.0
 40
3.0
 40
3.0
 40
3.0
 10
33.73793501180404
 20
16.64487464695463
 30
0.0
 10
33.67089912387266
 20
16.64347204709213
 30
0.0
 10
33.57829518487998
 20
16.73692652632679
 30
0.0
 10
33.5310035356249
 20
16.85560367356954
 30
0.0
 10
33.52435296238326
 20
16.91906913882825
 30
0.0
  0
SPLINE
  5
148
330
1F
100
AcDbEntity
  8
2D DXF
370
    -3
100
AcDbSpline
210
0.0
220
0.0
230
1.0
 70
    28
 71
     3
 72
     8
 73
     4
 74
     0
 42
0.000000001
 43
0.0000000001
 40
2.222067854936738
 40
2.222067854936738
 40
2.222067854936738
 40
2.222067854936738
 40
2.249737975162182
 40
2.249737975162182
 40
2.249737975162182
 40
2.249737975162182
 10
27.30734696731932
 20
16.86288212551919
 30
0.0
 41
0.9998948912511108
 10
27.31034980397782
 20
16.8716029964066
 30
0.0
 41
0.9998948912511108
 10
27.31335264063629
 20
16.88032386729401
 30
0.0
 41
0.9998948912511108
 10
27.31635547729478
 20
16.88904473818143
 30
0.0
 41
0.9998948912511108
  0
SPLINE
  5
149
330
1F
100
AcDbEntity
  8
2D DXF
370
    -3
100
AcDbSpline
210
0.0
220
0.0
230
1.0
 70
     8
 71
     3
 72
    44
 73
    40
 74
     0
 42
0.000000001
 43
0.0000000001
 40
3.568124814608516
 40
3.568124814608516
 40
3.568124814608516
 40
3.568124814608516
 40
4.788183826542491
 40
4.788183826542491
 40
4.788183826542491
 40
5.788188722156311
 40
5.788188722156311
 40
5.788188722156311
 40
6.78819361777013
 40
6.78819361777013
 40
6.78819361777013
 40
7.78819851338395
 40
7.78819851338395
 40
7.78819851338395
 40
8.78820340899777
 40
8.78820340899777
 40
8.78820340899777
 40
9.788208304611588
 40
9.788208304611588
 40
9.788208304611588
 40
10.78821320022541
 40
10.78821320022541
 40
10.78821320022541
 40
11.78821809583923
 40
11.78821809583923
 40
11.78821809583923
 40
12.78822299145305
 40
12.78822299145305
 40
12.78822299145305
 40
13.78822788706687
 40
13.78822788706687
 40
13.78822788706687
 40
14.78823278268069
 40
14.78823278268069
 40
14.78823278268069
 40
15.78823767829451
 40
15.78823767829451
 40
15.78823767829451
 40
16.31747463577107
 40
16.31747463577107
 40
16.31747463577107
 40
16.31747463577107
 10
27.31635547729479
 20
16.88904473818143
 30
0.0
 10
27.72020837091725
 20
16.93606475557175
 30
0.0
 10
28.12381332828454
 20
16.98660434523522
 30
0.0
 10
28.52734804522572
 20
17.0381425230957
 30
0.0
 10
28.5720516746494
 20
17.04386274554888
 30
0.0
 10
28.61675530407308
 20
17.04958296800206
 30
0.0
 10
28.66145893349676
 20
17.05530319045523
 30
0.0
 10
28.70614664324944
 20
17.06103735509653
 30
0.0
 10
28.75083435300223
 20
17.06677151973784
 30
0.0
 10
28.79552206275491
 20
17.07250568437914
 30
0.0
 10
28.84019353209237
 20
17.07824526479615
 30
0.0
 10
28.88486500142994
 20
17.08398484521317
 30
0.0
 10
28.9295364707674
 20
17.08972442563018
 30
0.0
 10
28.97419140658923
 20
17.09546089934602
 30
0.0
 10
29.01884634241105
 20
17.10119737306188
 30
0.0
 10
29.06350127823282
 20
17.10693384677772
 30
0.0
 10
29.10813942264315
 20
17.11265869614819
 30
0.0
 10
29.15277756705336
 20
17.11838354551865
 30
0.0
 10
29.19741571146369
 20
17.12410839488912
 30
0.0
 10
29.24203685239706
 20
17.12981310825678
 30
0.0
 10
29.28665799333055
 20
17.13551782162446
 30
0.0
 10
29.33127913426392
 20
17.14122253499214
 30
0.0
 10
29.37588311957779
 20
17.14689860809952
 30
0.0
 10
29.42048710489166
 20
17.15257468120691
 30
0.0
 10
29.46509109020565
 20
17.1582507543143
 30
0.0
 10
29.50967784512557
 20
17.16388969189958
 30
0.0
 10
29.55426460004549
 20
17.16952862948487
 30
0.0
 10
29.5988513549654
 20
17.17516756707016
 30
0.0
 10
29.64342090154469
 20
17.18076088441234
 30
0.0
 10
29.68799044812408
 20
17.18635420175451
 30
0.0
 10
29.73255999470337
 20
17.19194751909669
 30
0.0
 10
29.77711246955266
 20
17.19748674300199
 30
0.0
 10
29.82166494440196
 20
17.2030259669073
 30
0.0
 10
29.86621741925126
 20
17.20856519081261
 30
0.0
 10
29.91075308178722
 20
17.21404185912208
 30
0.0
 10
29.95528874432318
 20
17.21951852743156
 30
0.0
 10
29.99982440685915
 20
17.22499519574104
 30
0.0
 10
30.02338517345794
 20
17.22785623216349
 30
0.0
 10
30.0469459400569
 20
17.23071726858596
 30
0.0
 10
30.07050510481355
 20
17.23359149625202
 30
0.0
  0
SPLINE
  5
14A
330
1F
100
AcDbEntity
  8
2D DXF
370
    -3
100
AcDbSpline
210
0.0
220
0.0
230
1.0
 70
     8
 71
     3
 72
     8
 73
     4
 74
     0
 42
0.000000001
 43
0.0000000001
 40
16.31747463577107
 40
16.31747463577107
 40
16.31747463577107
 40
16.31747463577107
 40
16.79483486452972
 40
16.79483486452972
 40
16.79483486452972
 40
16.79483486452972
 10
30.07050510481355
 20
17.23359149625202
 30
0.0
 10
30.23554925398633
 20
17.25366228434345
 30
0.0
 10
30.40076958868258
 20
17.27316137040442
 30
0.0
 10
30.56605818633238
 20
17.29200559950185
 30
0.0
  0
SPLINE
  5
14B
330
1F
100
AcDbEntity
  8
2D DXF
370
    -3
100
AcDbSpline
210
0.0
220
0.0
230
1.0
 70
     8
 71
     3
 72
    10
 73
     6
 74
     0
 42
0.000000001
 43
0.0000000001
 40
16.79483486452972
 40
16.79483486452972
 40
16.79483486452972
 40
16.79483486452972
 40
17.24447515632863
 40
18.17147567688618
 40
18.96393641439282
 40
18.96393641439282
 40
18.96393641439282
 40
18.96393641439282
 10
30.56605818633238
 20
17.29200559950185
 30
0.0
 10
30.72175122449028
 20
17.3097558576663
 30
0.0
 10
31.19861411634383
 20
17.36232200828954
 30
0.0
 10
31.94956442073874
 20
17.43537686322861
 30
0.0
 10
32.53663578726241
 20
17.48531629763768
 30
0.0
 10
32.80534203695277
 20
17.50572572550287
 30
0.0
  0
SPLINE
  5
14C
330
1F
100
AcDbEntity
  8
2D DXF
370
    -3
100
AcDbSpline
210
0.0
220
0.0
230
1.0
 70
    12
 71
     3
 72
     8
 73
     4
 74
     0
 42
0.000000001
 43
0.0000000001
 40
18.96393641439282
 40
18.96393641439282
 40
18.96393641439282
 40
18.96393641439282
 40
19.03468092327301
 40
19.03468092327301
 40
19.03468092327301
 40
19.03468092327301
 10
32.80534203695275
 20
17.50572572550286
 30
0.0
 41
0.9998948912511187
 10
32.81761669664786
 20
17.48540156259522
 30
0.0
 41
0.9998948912511187
 10
32.82986011953147
 20
17.46510418655189
 30
0.0
 41
0.9998948912511187
 10
32.8420798526292
 20
17.44482712548469
 30
0.0
 41
0.9998948912511187
  0
LINE
  5
14D
330
1F
100
AcDbEntity
  8
2D DXF
370
    -3
100
AcDbLine
 10
33.48934403320837
 20
17.25220955513127
 30
0.0
 11
33.79634482518793
 21
17.28447663859824
 31
0.0
  0
SPLINE
  5
14E
330
1F
100
AcDbEntity
  8
2D DXF
370
    -3
100
AcDbSpline
210
0.0
220
0.0
230
1.0
 70
     8
 71
     2
 72
     7
 73
     4
 74
     0
 42
0.000000001
 43
0.0000000001
 40
22.0043308142028
 40
22.0043308142028
 40
22.0043308142028
 40
23.0043308142028
 40
24.0043308142028
 40
24.0043308142028
 40
24.0043308142028
 10
33.79634482518793
 20
17.28447663859824
 30
0.0
 10
33.8244522731855
 20
17.29036002841208
 30
0.0
 10
33.87113080451985
 20
17.32347647855356
 30
0.0
 10
33.88044383642114
 20
17.3513720126894
 30
0.0
  0
SPLINE
  5
14F
330
1F
100
AcDbEntity
  8
2D DXF
370
    -3
100
AcDbSpline
210
0.0
220
0.0
230
1.0
 70
    12
 71
     3
 72
     8
 73
     4
 74
     0
 42
0.000000001
 43
0.0000000001
 40
24.0043308142028
 40
24.0043308142028
 40
24.0043308142028
 40
24.0043308142028
 40
24.14662680869768
 40
24.14662680869768
 40
24.14662680869768
 40
24.14662680869768
 10
33.88044383642113
 20
17.3513720126894
 30
0.0
 41
0.9998948912510895
 10
33.8958861845259
 20
17.39621984803219
 30
0.0
 41
0.9998948912510894
 10
33.91132853263071
 20
17.44106768337495
 30
0.0
 41
0.9998948912510895
 10
33.92683147459949
 20
17.48591886991972
 30
0.0
 41
0.9998948912510897
  0
SPLINE
  5
150
330
1F
100
AcDbEntity
  8
2D DXF
370
    -3
100
AcDbSpline
210
0.0
220
0.0
230
1.0
 70
    12
 71
     3
 72
     8
 73
     4
 74
     0
 42
0.000000001
 43
0.0000000001
 40
24.21627622710422
 40
24.21627622710422
 40
24.21627622710422
 40
24.21627622710422
 40
24.24920543449504
 40
24.24920543449504
 40
24.24920543449504
 40
24.24920543449504
 10
33.94964674036652
 20
17.55178141134908
 30
0.0
 41
0.9998948912510898
 10
33.95325141602165
 20
17.56216152426068
 30
0.0
 41
0.9998948912510898
 10
33.95686092490381
 20
17.57254190447857
 30
0.0
 41
0.9998948912510898
 10
33.9604760179344
 20
17.58292259353316
 30
0.0
 41
0.9998948912510898
  0
SPLINE
  5
151
330
1F
100
AcDbEntity
  8
2D DXF
370
    -3
100
AcDbSpline
210
0.0
220
0.0
230
1.0
 70
     8
 71
     2
 72
     6
 73
     3
 74
     0
 42
0.000000001
 43
0.0000000001
 40
24.24920543449504
 40
24.24920543449504
 40
24.24920543449504
 40
24.58515055565987
 40
24.58515055565987
 40
24.58515055565987
 10
33.96047601793441
 20
17.58292259353316
 30
0.0
 10
34.11182554393784
 20
17.59129312489103
 30
0.0
 10
34.26320626029707
 20
17.59820955779733
 30
0.0
  0
SPLINE
  5
152
330
1F
100
AcDbEntity
  8
2D DXF
370
    -3
100
AcDbSpline
210
0.0
220
0.0
230
1.0
 70
     8
 71
     2
 72
    11
 73
     8
 74
     0
 42
0.000000001
 43
0.0000000001
 40
24.58515055565987
 40
24.58515055565987
 40
24.58515055565987
 40
25.24920543449504
 40
26.24920543449504
 40
27.24920543449504
 40
28.24920543449504
 40
29.24920543449504
 40
30.24920543449504
 40
30.24920543449504
 40
30.24920543449504
 10
34.26320626029707
 20
17.59820955779733
 30
0.0
 10
34.56243698855218
 20
17.6118811092687
 30
0.0
 10
35.31258455174276
 20
17.63190330854621
 30
0.0
 10
36.21433220793642
 20
17.60086515327069
 30
0.0
 10
37.10860900402662
 20
17.47729472502316
 30
0.0
 10
37.98116651074309
 20
17.24583802652052
 30
0.0
 10
38.82324548214234
 20
16.92167777230623
 30
0.0
 10
39.23581042058277
 20
16.7397178816707
 30
0.0
  0
SPLINE
  5
153
330
1F
100
AcDbEntity
  8
2D DXF
370
    -3
100
AcDbSpline
210
0.0
220
0.0
230
1.0
 70
     8
 71
     3
 72
     8
 73
     4
 74
     0
 42
0.000000001
 43
0.0000000001
 40
30.24920543449504
 40
30.24920543449504
 40
30.24920543449504
 40
30.24920543449504
 40
31.24920543449504
 40
31.24920543449504
 40
31.24920543449504
 40
31.24920543449504
 10
39.23581042058277
 20
16.7397178816707
 30
0.0
 10
39.45125553596435
 20
16.6446967929156
 30
0.0
 10
39.48669085372708
 20
16.94066149544557
 30
0.0
 10
39.2963284186373
 20
17.03655354461415
 30
0.0
  0
SPLINE
  5
154
330
1F
100
AcDbEntity
  8
2D DXF
370
    -3
100
AcDbSpline
210
0.0
220
0.0
230
1.0
 70
    28
 71
     3
 72
     8
 73
     4
 74
     0
 42
0.000000001
 43
0.0000000001
 40
-0.2905305827480764
 40
-0.2905305827480764
 40
-0.2905305827480764
 40
-0.2905305827480764
 40
-0.251629684814577
 40
-0.251629684814577
 40
-0.251629684814577
 40
-0.251629684814577
 10
26.20309375592124
 20
16.73588990509117
 30
0.0
 41
0.9998948912510919
 10
26.19641527472663
 20
16.74700476431667
 30
0.0
 41
0.9998948912510919
 10
26.189736793532
 20
16.75811962354217
 30
0.0
 41
0.9998948912510919
 10
26.18305831233737
 20
16.76923448276766
 30
0.0
 41
0.9998948912510919
  0
SPLINE
  5
155
330
1F
100
AcDbEntity
  8
2D DXF
370
    -3
100
AcDbSpline
210
0.0
220
0.0
230
1.0
 70
     8
 71
     2
 72
     8
 73
     5
 74
     0
 42
0.000000001
 43
0.0000000001
 40
-77.0
 40
-77.0
 40
-77.0
 40
-76.0
 40
-75.0
 40
-74.79640033134092
 40
-74.79640033134092
 40
-74.79640033134092
 10
26.18305831233738
 20
16.76923448276767
 30
0.0
 10
25.96689245002813
 20
16.74937491028618
 30
0.0
 10
25.53400480459226
 20
16.7162357864707
 30
0.0
 10
25.2731692880254
 20
16.70104386821317
 30
0.0
 10
25.22903660035945
 20
16.69868522818543
 30
0.0
  0
SPLINE
  5
156
330
1F
100
AcDbEntity
  8
2D DXF
370
    -3
100
AcDbSpline
210
0.0
220
0.0
230
1.0
 70
     8
 71
     2
 72
    28
 73
    25
 74
     0
 42
0.000000001
 43
0.0000000001
 40
-71.24336940083435
 40
-71.24336940083435
 40
-71.24336940083435
 40
-71.0
 40
-70.0
 40
-69.0
 40
-68.0
 40
-67.0
 40
-66.0
 40
-65.0
 40
-64.0
 40
-63.0
 40
-62.0
 40
-61.0
 40
-60.0
 40
-59.0
 40
-58.0
 40
-57.0
 40
-56.0
 40
-55.0
 40
-54.0
 40
-53.0
 40
-52.0
 40
-51.0
 40
-50.0
 40
-49.0
 40
-49.0
 40
-49.0
 10
23.68754227931151
 20
16.69907536805891
 30
0.0
 10
23.63486459212362
 20
16.70308536570046
 30
0.0
 10
23.36595173261759
 20
16.72725054032003
 30
0.0
 10
22.93751383097236
 20
16.79908014559612
 30
0.0
 10
22.51800200203286
 20
16.9126806749518
 30
0.0
 10
22.11676437973648
 20
17.08062133114915
 30
0.0
 10
21.75058552445512
 20
17.31690545669751
 30
0.0
 10
21.4508801629529
 20
17.63435160764418
 30
0.0
 10
21.24680677248841
 20
18.01991584524953
 30
0.0
 10
21.12243696440612
 20
18.43682009813077
 30
0.0
 10
21.04996587003745
 20
18.8651944301469
 30
0.0
 10
21.00760775255719
 20
19.29737099498975
 30
0.0
 10
20.98073084426636
 20
19.73070911551355
 30
0.0
 10
20.9653877438127
 20
20.1645984894748
 30
0.0
 10
20.9549593517396
 20
20.59861796696676
 30
0.0
 10
20.94309179375392
 20
21.03260384314653
 30
0.0
 10
20.92465955761304
 20
21.46637048207413
 30
0.0
 10
20.89637396284729
 20
21.8996151412895
 30
0.0
 10
20.85662171479254
 20
22.33196272509389
 30
0.0
 10
20.80503581924609
 20
22.7630584837059
 30
0.0
 10
20.74197498500865
 20
23.19262318817358
 30
0.0
 10
20.66821251124276
 20
23.62047677882857
 30
0.0
 10
20.58462893751437
 20
24.04651714750786
 30
0.0
 10
20.49217617205591
 20
24.47071780181575
 30
0.0
 10
20.44194767059105
 20
24.68190548779614
 30
0.0
  0
SPLINE
  5
157
330
1F
100
AcDbEntity
  8
2D DXF
370
    -3
100
AcDbSpline
210
0.0
220
0.0
230
1.0
 70
     8
 71
     3
 72
     8
 73
     4
 74
     0
 42
0.000000001
 43
0.0000000001
 40
-49.0
 40
-49.0
 40
-49.0
 40
-49.0
 40
-48.0
 40
-48.0
 40
-48.0
 40
-48.0
 10
20.44194767059105
 20
24.68190548779614
 30
0.0
 10
20.42124535682046
 20
24.76894917040956
 30
0.0
 10
20.54536166669544
 20
24.77395378813266
 30
0.0
 10
20.62754953942431
 20
24.74704973630543
 30
0.0
  0
SPLINE
  5
158
330
1F
100
AcDbEntity
  8
2D DXF
370
    -3
100
AcDbSpline
210
0.0
220
0.0
230
1.0
 70
     8
 71
     2
 72
    53
 73
    50
 74
     0
 42
0.000000001
 43
0.0000000001
 40
-48.0
 40
-48.0
 40
-48.0
 40
-47.0
 40
-46.0
 40
-45.0
 40
-44.0
 40
-43.0
 40
-42.0
 40
-41.0
 40
-40.0
 40
-39.0
 40
-38.0
 40
-37.0
 40
-36.0
 40
-35.0
 40
-34.0
 40
-33.0
 40
-32.0
 40
-31.0
 40
-30.0
 40
-29.0
 40
-28.0
 40
-27.0
 40
-26.0
 40
-25.0
 40
-24.0
 40
-23.0
 40
-22.0
 40
-21.0
 40
-20.0
 40
-19.0
 40
-18.0
 40
-17.0
 40
-16.0
 40
-15.0
 40
-14.0
 40
-13.0
 40
-12.0
 40
-11.0
 40
-10.0
 40
-9.0
 40
-8.0
 40
-7.0
 40
-6.0
 40
-5.0
 40
-4.0
 40
-3.0
 40
-2.0
 40
-1.0
 40
0.0
 40
0.0
 40
0.0
 10
20.62754953942431
 20
24.74704973630543
 30
0.0
 10
20.87569995399542
 20
24.66581814589071
 30
0.0
 10
21.26538913553804
 20
24.33201085760636
 30
0.0
 10
21.45919007326461
 20
23.84781574840157
 30
0.0
 10
21.58529506980182
 20
23.35157974578389
 30
0.0
 10
21.66131915611396
 20
22.84379432991742
 30
0.0
 10
21.72935605488624
 20
22.33548641899419
 30
0.0
 10
21.7815349883341
 20
21.82518140097498
 30
0.0
 10
21.82137308881244
 20
21.31380479912974
 30
0.0
 10
21.85219683585677
 20
20.80181261686269
 30
0.0
 10
21.87968719232128
 20
20.2896387848518
 30
0.0
 10
21.91179816714316
 20
19.77771638807965
 30
0.0
 10
21.96392055847303
 20
19.26726448214964
 30
0.0
 10
22.06002772791624
 20
18.76309244036638
 30
0.0
 10
22.22241219154654
 20
18.27394582715442
 30
0.0
 10
22.52838045511584
 20
17.85585413160449
 30
0.0
 10
22.97156876742423
 20
17.58538344141193
 30
0.0
 10
23.47792883479281
 20
17.48406285299723
 30
0.0
 10
23.99156084068926
 20
17.48241983724674
 30
0.0
 10
24.5029242763228
 20
17.52378690769308
 30
0.0
 10
25.01266614163279
 20
17.58083481269679
 30
0.0
 10
25.52148007918794
 20
17.64558485789765
 30
0.0
 10
26.02982970468531
 20
17.71384429354944
 30
0.0
 10
26.53798776747431
 20
17.7835095348624
 30
0.0
 10
27.04613544736304
 20
17.85325495628167
 30
0.0
 10
27.55439818224283
 20
17.92215531107577
 30
0.0
 10
28.06287547740516
 20
17.98945719795907
 30
0.0
 10
28.57163869799064
 20
18.05456531355871
 30
0.0
 10
29.08073709676228
 20
18.11700131883377
 30
0.0
 10
29.59019124147312
 20
18.17646668118262
 30
0.0
 10
30.09998800917157
 20
18.23291629596132
 30
0.0
 10
30.61009540428154
 20
18.28649151848198
 30
0.0
 10
31.12057670743451
 20
18.33639116285607
 30
0.0
 10
31.63151219759033
 20
18.38142844603347
 30
0.0
 10
32.14297821707538
 20
18.42001828352237
 30
0.0
 10
32.65497751283675
 20
18.4507864042906
 30
0.0
 10
33.16744196509268
 20
18.4725475924256
 30
0.0
 10
33.68024276763731
 20
18.48410944214284
 30
0.0
 10
34.19318158698991
 20
18.48372041332942
 30
0.0
 10
34.70592437665846
 20
18.46912623765185
 30
0.0
 10
35.21792619503634
 20
18.43767481111408
 30
0.0
 10
35.72831826558973
 20
18.38610113983331
 30
0.0
 10
36.23571117720843
 20
18.31023995470204
 30
0.0
 10
36.73778597769825
 20
18.2044526374528
 30
0.0
 10
37.23050546713813
 20
18.06065859748914
 30
0.0
 10
37.70679303505983
 20
17.86960174433833
 30
0.0
 10
38.1710619778535
 20
17.65125427149731
 30
0.0
 10
38.62223615990013
 20
17.40716455705248
 30
0.0
 10
39.067242245101
 20
17.15195206116614
 30
0.0
 10
39.2963284186373
 20
17.03655354461415
 30
0.0
  0
ARC
  5
159
330
1F
100
AcDbEntity
  8
2D DXF
370
    -3
100
AcDbCircle
 10
-26.42113161442737
 20
16.65145775643482
 30
0.0
 40
0.1434091513220434
210
0.0
220
0.0
230
-1.0
100
AcDbArc
 50
272.3472019506327
 51
328.9999999999742
  0
LINE
  5
15A
330
1F
100
AcDbEntity
  8
2D DXF
370
    -3
100
AcDbLine
 10
26.2982059792927
 20
16.57759658321338
 30
0.0
 11
26.23643429668016
 21
16.68040192717567
 31
0.0
  0
ENDSEC
  0
SECTION
  2
OBJECTS
  0
DICTIONARY
  5
C
330
0
100
AcDbDictionary
281
     1
  3
ACAD_DETAILVIEWSTYLE
350
196
  3
ACAD_GROUP
350
D
  3
ACAD_LAYOUT
350
1A
  3
ACAD_MATERIAL
350
43
  3
ACAD_MLEADERSTYLE
350
6B
  3
ACAD_MLINESTYLE
350
17
  3
ACAD_PLOTSETTINGS
350
19
  3
ACAD_PLOTSTYLENAME
350
E
  3
ACAD_SCALELIST
350
47
  3
ACAD_SECTIONVIEWSTYLE
350
197
  3
ACAD_TABLESTYLE
350
69
  3
ACAD_VISUALSTYLE
350
2A
  3
ACDB_RECOMPOSE_DATA
350
193
  3
AcDbVariableDictionary
350
15B
  0
SUN
  5
6D
330
29
100
AcDbSun
 90
        1
290
     0
 63
     7
421
 16777215
 40
1.0
291
     1
 91
  2455826
 92
 54000000
292
     0
 70
     2
 71
   256
280
     1
  0
DICTIONARY
  5
196
102
{ACAD_REACTORS
330
C
102
}
330
C
100
AcDbDictionary
281
     1
  0
DICTIONARY
  5
D
102
{ACAD_REACTORS
330
C
102
}
330
C
100
AcDbDictionary
281
     1
  0
DICTIONARY
  5
1A
102
{ACAD_REACTORS
330
C
102
}
330
C
100
AcDbDictionary
281
     1
  3
Layout1
350
1E
  3
Layout2
350
26
  3
Model
350
22
  0
DICTIONARY
  5
43
102
{ACAD_REACTORS
330
C
102
}
330
C
100
AcDbDictionary
281
     1
  3
ByBlock
350
45
  3
ByLayer
350
44
  3
Global
350
46
  0
DICTIONARY
  5
6B
102
{ACAD_REACTORS
330
C
102
}
330
C
100
AcDbDictionary
281
     1
  3
Standard
350
6C
  0
DICTIONARY
  5
17
102
{ACAD_REACTORS
330
C
102
}
330
C
100
AcDbDictionary
281
     1
  3
Standard
350
18
  0
DICTIONARY
  5
19
102
{ACAD_REACTORS
330
C
102
}
330
C
100
AcDbDictionary
281
     1
  0
ACDBDICTIONARYWDFLT
  5
E
102
{ACAD_REACTORS
330
C
102
}
330
C
100
AcDbDictionary
281
     1
  3
Normal
350
F
100
AcDbDictionaryWithDefault
340
F
  0
DICTIONARY
  5
47
102
{ACAD_REACTORS
330
C
102
}
330
C
100
AcDbDictionary
281
     1
  3
A0
350
48
  3
A1
350
49
  3
A2
350
4A
  3
A3
350
4B
  3
A4
350
4C
  3
A5
350
4D
  3
A6
350
4E
  3
A7
350
4F
  3
A8
350
50
  3
A9
350
51
  3
B0
350
52
  3
B1
350
53
  3
B2
350
54
  3
B3
350
55
  3
B4
350
56
  3
B5
350
57
  3
B6
350
58
  3
B7
350
59
  3
B8
350
5A
  3
B9
350
5B
  3
C0
350
5C
  3
C1
350
5D
  3
C2
350
5E
  3
C3
350
5F
  3
C4
350
60
  3
C5
350
61
  3
C6
350
62
  3
C7
350
63
  3
C8
350
64
  3
C9
350
65
  3
D0
350
66
  3
D1
350
67
  3
D2
350
68
  0
DICTIONARY
  5
197
102
{ACAD_REACTORS
330
C
102
}
330
C
100
AcDbDictionary
281
     1
  0
DICTIONARY
  5
69
102
{ACAD_REACTORS
330
C
102
}
330
C
100
AcDbDictionary
281
     1
  3
Standard
350
6A
  0
DICTIONARY
  5
2A
102
{ACAD_REACTORS
330
C
102
}
330
C
100
AcDbDictionary
281
     1
  3
2dWireframe
350
2F
  3
Basic
350
32
  3
Brighten
350
36
  3
ColorChange
350
3A
  3
Conceptual
350
34
  3
Dim
350
35
  3
EdgeColorOff
350
3D
  3
Facepattern
350
39
  3
Flat
350
2B
  3
FlatWithEdges
350
2C
  3
Gouraud
350
2D
  3
GouraudWithEdges
350
2E
  3
Hidden
350
31
  3
JitterOff
350
3B
  3
Linepattern
350
38
  3
OverhangOff
350
3C
  3
Realistic
350
33
  3
Shaded
350
42
  3
Shaded with edges
350
41
  3
Shades of Gray
350
3E
  3
Sketchy
350
3F
  3
Thicken
350
37
  3
Wireframe
350
30
  3
X-Ray
350
40
  0
XRECORD
  5
193
102
{ACAD_REACTORS
330
C
102
}
330
C
100
AcDbXrecord
280
     1
 90
        1
330
6A
  0
DICTIONARY
  5
15B
102
{ACAD_REACTORS
330
C
102
}
330
C
100
AcDbDictionary
281
     1
  3
CANNOSCALE
350
15C
  3
CMLEADERSTYLE
350
195
  3
CTABLESTYLE
350
194
  3
XCLIPFRAME
350
15D
  0
LAYOUT
  5
1E
102
{ACAD_REACTORS
330
1A
102
}
330
1A
100
AcDbPlotSettings
  1

  2
none_device
  4

  6

 40
0.0
 41
0.0
 42
0.0
 43
0.0
 44
0.0
 45
0.0
 46
0.0
 47
0.0
 48
0.0
 49
0.0
140
0.0
141
0.0
142
1.0
143
1.0
 70
   688
 72
     0
 73
     0
 74
     5
  7

 75
    16
 76
     0
 77
     2
 78
   300
147
1.0
148
0.0
149
0.0
100
AcDbLayout
  1
Layout1
 70
     1
 71
     1
 10
0.0
 20
0.0
 11
12.0
 21
9.0
 12
0.0
 22
0.0
 32
0.0
 14
1.000000000000000E+20
 24
1.000000000000000E+20
 34
1.000000000000000E+20
 15
-1.000000000000000E+20
 25
-1.000000000000000E+20
 35
-1.000000000000000E+20
146
0.0
 13
0.0
 23
0.0
 33
0.0
 16
1.0
 26
0.0
 36
0.0
 17
0.0
 27
1.0
 37
0.0
 76
     0
330
1B
  0
LAYOUT
  5
26
102
{ACAD_REACTORS
330
1A
102
}
330
1A
100
AcDbPlotSettings
  1

  2
none_device
  4

  6

 40
0.0
 41
0.0
 42
0.0
 43
0.0
 44
0.0
 45
0.0
 46
0.0
 47
0.0
 48
0.0
 49
0.0
140
0.0
141
0.0
142
1.0
143
1.0
 70
   688
 72
     0
 73
     0
 74
     5
  7

 75
    16
 76
     0
 77
     2
 78
   300
147
1.0
148
0.0
149
0.0
100
AcDbLayout
  1
Layout2
 70
     1
 71
     2
 10
0.0
 20
0.0
 11
0.0
 21
0.0
 12
0.0
 22
0.0
 32
0.0
 14
0.0
 24
0.0
 34
0.0
 15
0.0
 25
0.0
 35
0.0
146
0.0
 13
0.0
 23
0.0
 33
0.0
 16
1.0
 26
0.0
 36
0.0
 17
0.0
 27
1.0
 37
0.0
 76
     0
330
23
  0
LAYOUT
  5
22
102
{ACAD_REACTORS
330
1A
102
}
330
1A
100
AcDbPlotSettings
  1

  2
none_device
  4
Letter_(8.50_x_11.00_Inches)
  6

 40
6.35
 41
6.35
 42
6.35000508
 43
6.35000508
 44
215.9
 45
279.4
 46
0.0
 47
0.0
 48
0.0
 49
0.0
140
0.0
141
0.0
142
1.0
143
1.0
 70
  1712
 72
     0
 73
     0
 74
     0
  7

 75
     0
 76
     0
 77
     2
 78
   300
147
1.0
148
0.0
149
0.0
100
AcDbLayout
  1
Model
 70
     1
 71
     0
 10
0.0
 20
0.0
 11
12.0
 21
9.0
 12
0.0
 22
0.0
 32
0.0
 14
1.000000000000000E+20
 24
1.000000000000000E+20
 34
1.000000000000000E+20
 15
-1.000000000000000E+20
 25
-1.000000000000000E+20
 35
-1.000000000000000E+20
146
0.0
 13
0.0
 23
0.0
 33
0.0
 16
1.0
 26
0.0
 36
0.0
 17
0.0
 27
1.0
 37
0.0
 76
     0
330
1F
331
29
  0
MATERIAL
  5
45
102
{ACAD_REACTORS
330
43
102
}
330
43
100
AcDbMaterial
  1
ByBlock
 72
     1
 94
      127
  0
MATERIAL
  5
44
102
{ACAD_REACTORS
330
43
102
}
330
43
100
AcDbMaterial
  1
ByLayer
 72
     1
 94
      127
  0
MATERIAL
  5
46
102
{ACAD_REACTORS
330
43
102
}
330
43
100
AcDbMaterial
  1
Global
 72
     1
 94
      127
  0
MLEADERSTYLE
  5
6C
102
{ACAD_REACTORS
330
6B
102
}
102
{ACAD_XDICTIONARY
360
191
102
}
330
6B
100
AcDbMLeaderStyle
170
     2
171
     1
172
     0
 90
        2
 40
0.0
 41
0.0
173
     1
 91
-1056964608
340
14
 92
       -2
290
     1
 42
0.09
291
     1
 43
0.36
  3
Standard
341
0
 44
0.18
300

342
11
174
     1
178
     6
175
     1
176
     0
 93
-1056964608
 45
0.18
292
     0
297
     0
 46
0.18
343
0
 94
-1056964608
 47
1.0
 49
1.0
140
1.0
293
     1
141
0.0
294
     1
177
     0
142
1.0
295
     0
296
     0
143
0.125
1001
ACAD_MLEADERVER
1070
     2
  0
MLINESTYLE
  5
18
102
{ACAD_REACTORS
330
17
102
}
330
17
100
AcDbMlineStyle
  2
Standard
 70
     0
  3

 62
   256
 51
90.0
 52
90.0
 71
     2
 49
0.5
 62
   256
  6
BYLAYER
 49
-0.5
 62
   256
  6
BYLAYER
  0
ACDBPLACEHOLDER
  5
F
102
{ACAD_REACTORS
330
E
102
}
330
E
  0
SCALE
  5
48
102
{ACAD_REACTORS
330
47
102
}
330
47
100
AcDbScale
 70
     0
300
1:1
140
1.0
141
1.0
290
     1
  0
SCALE
  5
49
102
{ACAD_REACTORS
330
47
102
}
330
47
100
AcDbScale
 70
     0
300
1:2
140
1.0
141
2.0
290
     0
  0
SCALE
  5
4A
102
{ACAD_REACTORS
330
47
102
}
330
47
100
AcDbScale
 70
     0
300
1:4
140
1.0
141
4.0
290
     0
  0
SCALE
  5
4B
102
{ACAD_REACTORS
330
47
102
}
330
47
100
AcDbScale
 70
     0
300
1:5
140
1.0
141
5.0
290
     0
  0
SCALE
  5
4C
102
{ACAD_REACTORS
330
47
102
}
330
47
100
AcDbScale
 70
     0
300
1:8
140
1.0
141
8.0
290
     0
  0
SCALE
  5
4D
102
{ACAD_REACTORS
330
47
102
}
330
47
100
AcDbScale
 70
     0
300
1:10
140
1.0
141
10.0
290
     0
  0
SCALE
  5
4E
102
{ACAD_REACTORS
330
47
102
}
330
47
100
AcDbScale
 70
     0
300
1:16
140
1.0
141
16.0
290
     0
  0
SCALE
  5
4F
102
{ACAD_REACTORS
330
47
102
}
330
47
100
AcDbScale
 70
     0
300
1:20
140
1.0
141
20.0
290
     0
  0
SCALE
  5
50
102
{ACAD_REACTORS
330
47
102
}
330
47
100
AcDbScale
 70
     0
300
1:30
140
1.0
141
30.0
290
     0
  0
SCALE
  5
51
102
{ACAD_REACTORS
330
47
102
}
330
47
100
AcDbScale
 70
     0
300
1:40
140
1.0
141
40.0
290
     0
  0
SCALE
  5
52
102
{ACAD_REACTORS
330
47
102
}
330
47
100
AcDbScale
 70
     0
300
1:50
140
1.0
141
50.0
290
     0
  0
SCALE
  5
53
102
{ACAD_REACTORS
330
47
102
}
330
47
100
AcDbScale
 70
     0
300
1:100
140
1.0
141
100.0
290
     0
  0
SCALE
  5
54
102
{ACAD_REACTORS
330
47
102
}
330
47
100
AcDbScale
 70
     0
300
2:1
140
2.0
141
1.0
290
     0
  0
SCALE
  5
55
102
{ACAD_REACTORS
330
47
102
}
330
47
100
AcDbScale
 70
     0
300
4:1
140
4.0
141
1.0
290
     0
  0
SCALE
  5
56
102
{ACAD_REACTORS
330
47
102
}
330
47
100
AcDbScale
 70
     0
300
8:1
140
8.0
141
1.0
290
     0
  0
SCALE
  5
57
102
{ACAD_REACTORS
330
47
102
}
330
47
100
AcDbScale
 70
     0
300
10:1
140
10.0
141
1.0
290
     0
  0
SCALE
  5
58
102
{ACAD_REACTORS
330
47
102
}
330
47
100
AcDbScale
 70
     0
300
100:1
140
100.0
141
1.0
290
     0
  0
SCALE
  5
59
102
{ACAD_REACTORS
330
47
102
}
330
47
100
AcDbScale
 70
     0
300
1/128" = 1'-0"
140
0.0078125
141
12.0
290
     0
  0
SCALE
  5
5A
102
{ACAD_REACTORS
330
47
102
}
330
47
100
AcDbScale
 70
     0
300
1/64" = 1'-0"
140
0.015625
141
12.0
290
     0
  0
SCALE
  5
5B
102
{ACAD_REACTORS
330
47
102
}
330
47
100
AcDbScale
 70
     0
300
1/32" = 1'-0"
140
0.03125
141
12.0
290
     0
  0
SCALE
  5
5C
102
{ACAD_REACTORS
330
47
102
}
330
47
100
AcDbScale
 70
     0
300
1/16" = 1'-0"
140
0.0625
141
12.0
290
     0
  0
SCALE
  5
5D
102
{ACAD_REACTORS
330
47
102
}
330
47
100
AcDbScale
 70
     0
300
3/32" = 1'-0"
140
0.09375
141
12.0
290
     0
  0
SCALE
  5
5E
102
{ACAD_REACTORS
330
47
102
}
330
47
100
AcDbScale
 70
     0
300
1/8" = 1'-0"
140
0.125
141
12.0
290
     0
  0
SCALE
  5
5F
102
{ACAD_REACTORS
330
47
102
}
330
47
100
AcDbScale
 70
     0
300
3/16" = 1'-0"
140
0.1875
141
12.0
290
     0
  0
SCALE
  5
60
102
{ACAD_REACTORS
330
47
102
}
330
47
100
AcDbScale
 70
     0
300
1/4" = 1'-0"
140
0.25
141
12.0
290
     0
  0
SCALE
  5
61
102
{ACAD_REACTORS
330
47
102
}
330
47
100
AcDbScale
 70
     0
300
3/8" = 1'-0"
140
0.375
141
12.0
290
     0
  0
SCALE
  5
62
102
{ACAD_REACTORS
330
47
102
}
330
47
100
AcDbScale
 70
     0
300
1/2" = 1'-0"
140
0.5
141
12.0
290
     0
  0
SCALE
  5
63
102
{ACAD_REACTORS
330
47
102
}
330
47
100
AcDbScale
 70
     0
300
3/4" = 1'-0"
140
0.75
141
12.0
290
     0
  0
SCALE
  5
64
102
{ACAD_REACTORS
330
47
102
}
330
47
100
AcDbScale
 70
     0
300
1" = 1'-0"
140
1.0
141
12.0
290
     0
  0
SCALE
  5
65
102
{ACAD_REACTORS
330
47
102
}
330
47
100
AcDbScale
 70
     0
300
1-1/2" = 1'-0"
140
1.5
141
12.0
290
     0
  0
SCALE
  5
66
102
{ACAD_REACTORS
330
47
102
}
330
47
100
AcDbScale
 70
     0
300
3" = 1'-0"
140
3.0
141
12.0
290
     0
  0
SCALE
  5
67
102
{ACAD_REACTORS
330
47
102
}
330
47
100
AcDbScale
 70
     0
300
6" = 1'-0"
140
6.0
141
12.0
290
     0
  0
SCALE
  5
68
102
{ACAD_REACTORS
330
47
102
}
330
47
100
AcDbScale
 70
     0
300
1'-0" = 1'-0"
140
12.0
141
12.0
290
     0
  0
TABLESTYLE
  5
6A
102
{ACAD_REACTORS
330
69
102
}
102
{ACAD_XDICTIONARY
360
18E
102
}
330
69
100
AcDbTableStyle
  3
Standard
 70
     0
 71
     0
 40
0.06
 41
0.06
280
     0
281
     0
  7
Standard
140
0.18
170
     2
 62
     0
 63
   257
283
     0
 90
        4
 91
        0
  1

274
    -2
284
     1
 64
     0
275
    -2
285
     1
 65
     0
276
    -2
286
     1
 66
     0
277
    -2
287
     1
 67
     0
278
    -2
288
     1
 68
     0
279
    -2
289
     1
 69
     0
  7
Standard
140
0.25
170
     5
 62
     0
 63
   257
283
     0
 90
        4
 91
        0
  1

274
    -2
284
     1
 64
     0
275
    -2
285
     1
 65
     0
276
    -2
286
     1
 66
     0
277
    -2
287
     1
 67
     0
278
    -2
288
     1
 68
     0
279
    -2
289
     1
 69
     0
  7
Standard
140
0.18
170
     5
 62
     0
 63
   257
283
     0
 90
        4
 91
        0
  1

274
    -2
284
     1
 64
     0
275
    -2
285
     1
 65
     0
276
    -2
286
     1
 66
     0
277
    -2
287
     1
 67
     0
278
    -2
288
     1
 68
     0
279
    -2
289
     1
 69
     0
  0
VISUALSTYLE
  5
2F
102
{ACAD_REACTORS
330
2A
102
}
102
{ACAD_XDICTIONARY
360
166
102
}
330
2A
100
AcDbVisualStyle
  2
2dWireframe
 70
     4
 71
     0
 72
     2
 73
     0
 90
        0
 40
0.6
 41
30.0
 62
     5
 63
     7
421
 16777215
 74
     1
 91
        4
 64
     7
 65
   257
 75
     1
175
     1
 42
1.0
 92
        0
 66
   257
 43
1.0
 76
     1
 77
     6
 78
     2
 67
     7
 79
     5
170
     0
171
     0
290
     0
174
     0
 93
        1
 44
0.0
173
     0
291
     0
 45
0.0
  0
VISUALSTYLE
  5
32
102
{ACAD_REACTORS
330
2A
102
}
102
{ACAD_XDICTIONARY
360
16C
102
}
330
2A
100
AcDbVisualStyle
  2
Basic
 70
     7
 71
     1
 72
     0
 73
     1
 90
        0
 40
0.6
 41
30.0
 62
     5
 63
     7
421
 16777215
 74
     0
 91
        4
 64
     7
 65
   257
 75
     1
175
     1
 42
1.0
 92
        8
 66
     7
 43
1.0
 76
     1
 77
     6
 78
     2
 67
     7
 79
     5
170
     0
171
     0
290
     0
174
     0
 93
        1
 44
0.0
173
     0
291
     1
 45
0.0
  0
VISUALSTYLE
  5
36
102
{ACAD_REACTORS
330
2A
102
}
102
{ACAD_XDICTIONARY
360
174
102
}
330
2A
100
AcDbVisualStyle
  2
Brighten
 70
    12
 71
     2
 72
     2
 73
     0
 90
        0
 40
0.6
 41
30.0
 62
     5
 63
     7
421
 16777215
 74
     1
 91
        4
 64
     7
 65
   257
 75
     1
175
     1
 42
1.0
 92
        8
 66
     7
 43
1.0
 76
     1
 77
     6
 78
     2
 67
     7
 79
     5
170
     0
171
     0
290
     0
174
     0
 93
        1
 44
50.0
173
     0
291
     1
 45
0.0
  0
VISUALSTYLE
  5
3A
102
{ACAD_REACTORS
330
2A
102
}
102
{ACAD_XDICTIONARY
360
17C
102
}
330
2A
100
AcDbVisualStyle
  2
ColorChange
 70
    16
 71
     2
 72
     2
 73
     3
 90
        0
 40
0.6
 41
30.0
 62
     5
 63
     8
421
  8421504
 74
     1
 91
        4
 64
     7
 65
   257
 75
     1
175
     1
 42
1.0
 92
        8
 66
     8
424
  8421504
 43
1.0
 76
     1
 77
     6
 78
     2
 67
     7
 79
     5
170
     0
171
     0
290
     0
174
     0
 93
        1
 44
0.0
173
     0
291
     1
 45
0.0
  0
VISUALSTYLE
  5
34
102
{ACAD_REACTORS
330
2A
102
}
102
{ACAD_XDICTIONARY
360
170
102
}
330
2A
100
AcDbVisualStyle
  2
Conceptual
 70
     9
 71
     3
 72
     2
 73
     0
 90
        0
 40
0.6
 41
30.0
 62
     5
 63
     7
421
 16777215
 74
     2
 91
        2
 64
     7
 65
   257
 75
     1
175
     1
 42
179.0
 92
        8
 66
     7
 43
1.0
 76
     1
 77
     6
 78
     2
 67
     7
 79
     3
170
     0
171
     0
290
     0
174
     0
 93
        1
 44
0.0
173
     0
291
     0
 45
0.0
  0
VISUALSTYLE
  5
35
102
{ACAD_REACTORS
330
2A
102
}
102
{ACAD_XDICTIONARY
360
172
102
}
330
2A
100
AcDbVisualStyle
  2
Dim
 70
    11
 71
     2
 72
     2
 73
     0
 90
        0
 40
0.6
 41
30.0
 62
     5
 63
     7
421
 16777215
 74
     1
 91
        4
 64
     7
 65
   257
 75
     1
175
     1
 42
1.0
 92
        8
 66
     7
 43
1.0
 76
     1
 77
     6
 78
     2
 67
     7
 79
     5
170
     0
171
     0
290
     0
174
     0
 93
        1
 44
-50.0
173
     0
291
     1
 45
0.0
  0
VISUALSTYLE
  5
3D
102
{ACAD_REACTORS
330
2A
102
}
102
{ACAD_XDICTIONARY
360
182
102
}
330
2A
100
AcDbVisualStyle
  2
EdgeColorOff
 70
    22
 71
     2
 72
     2
 73
     0
 90
        0
 40
0.6
 41
30.0
 62
     5
 63
     7
421
 16777215
 74
     1
 91
        4
 64
     7
 65
   257
 75
     1
175
     1
 42
1.0
 92
        8
 66
     7
 43
1.0
 76
     1
 77
     6
 78
     2
 67
     7
 79
     5
170
     0
171
     0
290
     0
174
     0
 93
        1
 44
0.0
173
     0
291
     1
 45
0.0
  0
VISUALSTYLE
  5
39
102
{ACAD_REACTORS
330
2A
102
}
102
{ACAD_XDICTIONARY
360
17A
102
}
330
2A
100
AcDbVisualStyle
  2
Facepattern
 70
    15
 71
     2
 72
     2
 73
     0
 90
        0
 40
0.6
 41
30.0
 62
     5
 63
     7
421
 16777215
 74
     1
 91
        4
 64
     7
 65
   257
 75
     1
175
     1
 42
1.0
 92
        8
 66
     7
 43
1.0
 76
     1
 77
     6
 78
     2
 67
     7
 79
     5
170
     0
171
     0
290
     0
174
     0
 93
        1
 44
0.0
173
     0
291
     1
 45
0.0
  0
VISUALSTYLE
  5
2B
102
{ACAD_REACTORS
330
2A
102
}
102
{ACAD_XDICTIONARY
360
15E
102
}
330
2A
100
AcDbVisualStyle
  2
Flat
 70
     0
 71
     2
 72
     1
 73
     1
 90
        2
 40
0.6
 41
30.0
 62
     5
 63
     7
421
 16777215
 74
     0
 91
        0
 64
     7
 65
   257
 75
     1
175
     1
 42
1.0
 92
        8
 66
     7
 43
1.0
 76
     1
 77
     6
 78
     2
 67
     7
 79
     5
170
     0
171
     0
290
     0
174
     0
 93
       13
 44
0.0
173
     0
291
     1
 45
0.0
  0
VISUALSTYLE
  5
2C
102
{ACAD_REACTORS
330
2A
102
}
102
{ACAD_XDICTIONARY
360
160
102
}
330
2A
100
AcDbVisualStyle
  2
FlatWithEdges
 70
     1
 71
     2
 72
     1
 73
     1
 90
        2
 40
0.6
 41
30.0
 62
     5
 63
     7
421
 16777215
 74
     1
 91
        0
 64
     7
 65
   257
 75
     1
175
     1
 42
1.0
 92
        0
 66
   257
 43
1.0
 76
     1
 77
     6
 78
     2
 67
     7
 79
     5
170
     0
171
     0
290
     0
174
     0
 93
       13
 44
0.0
173
     0
291
     1
 45
0.0
  0
VISUALSTYLE
  5
2D
102
{ACAD_REACTORS
330
2A
102
}
102
{ACAD_XDICTIONARY
360
162
102
}
330
2A
100
AcDbVisualStyle
  2
Gouraud
 70
     2
 71
     2
 72
     2
 73
     1
 90
        2
 40
0.6
 41
30.0
 62
     5
 63
     7
421
 16777215
 74
     0
 91
        0
 64
     7
 65
   257
 75
     1
175
     1
 42
1.0
 92
        0
 66
     7
 43
1.0
 76
     1
 77
     6
 78
     2
 67
     7
 79
     5
170
     0
171
     0
290
     0
174
     0
 93
       13
 44
0.0
173
     0
291
     1
 45
0.0
  0
VISUALSTYLE
  5
2E
102
{ACAD_REACTORS
330
2A
102
}
102
{ACAD_XDICTIONARY
360
164
102
}
330
2A
100
AcDbVisualStyle
  2
GouraudWithEdges
 70
     3
 71
     2
 72
     2
 73
     1
 90
        2
 40
0.6
 41
30.0
 62
     5
 63
     7
421
 16777215
 74
     1
 91
        0
 64
     7
 65
   257
 75
     1
175
     1
 42
1.0
 92
        0
 66
   257
 43
1.0
 76
     1
 77
     6
 78
     2
 67
     7
 79
     5
170
     0
171
     0
290
     0
174
     0
 93
       13
 44
0.0
173
     0
291
     1
 45
0.0
  0
VISUALSTYLE
  5
31
102
{ACAD_REACTORS
330
2A
102
}
102
{ACAD_XDICTIONARY
360
16A
102
}
330
2A
100
AcDbVisualStyle
  2
Hidden
 70
     6
 71
     1
 72
     2
 73
     2
 90
        0
 40
0.6
 41
30.0
 62
     5
 63
     7
421
 16777215
 74
     2
 91
        2
 64
     7
 65
   257
 75
     2
175
     1
 42
40.0
 92
        0
 66
   257
 43
1.0
 76
     1
 77
     6
 78
     2
 67
     7
 79
     3
170
     0
171
     0
290
     0
174
     0
 93
        1
 44
0.0
173
     0
291
     0
 45
0.0
  0
VISUALSTYLE
  5
3B
102
{ACAD_REACTORS
330
2A
102
}
102
{ACAD_XDICTIONARY
360
17E
102
}
330
2A
100
AcDbVisualStyle
  2
JitterOff
 70
    20
 71
     2
 72
     2
 73
     0
 90
        0
 40
0.6
 41
30.0
 62
     5
 63
     7
421
 16777215
 74
     1
 91
        4
 64
     7
 65
   257
 75
     1
175
     1
 42
1.0
 92
       10
 66
     7
 43
1.0
 76
     1
 77
     6
 78
     2
 67
     7
 79
     5
170
     0
171
     0
290
     0
174
     0
 93
        1
 44
0.0
173
     0
291
     1
 45
0.0
  0
VISUALSTYLE
  5
38
102
{ACAD_REACTORS
330
2A
102
}
102
{ACAD_XDICTIONARY
360
178
102
}
330
2A
100
AcDbVisualStyle
  2
Linepattern
 70
    14
 71
     2
 72
     2
 73
     0
 90
        0
 40
0.6
 41
30.0
 62
     5
 63
     7
421
 16777215
 74
     1
 91
        4
 64
     7
 65
   257
 75
     7
175
     7
 42
1.0
 92
        8
 66
     7
 43
1.0
 76
     1
 77
     6
 78
     2
 67
     7
 79
     5
170
     0
171
     0
290
     0
174
     0
 93
        1
 44
0.0
173
     0
291
     1
 45
0.0
  0
VISUALSTYLE
  5
3C
102
{ACAD_REACTORS
330
2A
102
}
102
{ACAD_XDICTIONARY
360
180
102
}
330
2A
100
AcDbVisualStyle
  2
OverhangOff
 70
    21
 71
     2
 72
     2
 73
     0
 90
        0
 40
0.6
 41
30.0
 62
     5
 63
     7
421
 16777215
 74
     1
 91
        4
 64
     7
 65
   257
 75
     1
175
     1
 42
1.0
 92
        9
 66
     7
 43
1.0
 76
     1
 77
     6
 78
     2
 67
     7
 79
     5
170
     0
171
     0
290
     0
174
     0
 93
        1
 44
0.0
173
     0
291
     1
 45
0.0
  0
VISUALSTYLE
  5
33
102
{ACAD_REACTORS
330
2A
102
}
102
{ACAD_XDICTIONARY
360
16E
102
}
330
2A
100
AcDbVisualStyle
  2
Realistic
 70
     8
 71
     2
 72
     3
 73
     0
 90
        2
 40
0.6
 41
30.0
 62
     5
 63
     7
421
 16777215
 74
     0
 91
        0
 64
     7
 65
   257
 75
     1
175
     1
 42
1.0
 92
        8
 66
   257
 43
1.0
 76
     1
 77
     6
 78
     2
 67
     7
 79
     3
170
     0
171
     0
290
     0
174
     0
 93
       13
 44
0.0
173
     0
291
     0
 45
0.0
  0
VISUALSTYLE
  5
42
102
{ACAD_REACTORS
330
2A
102
}
102
{ACAD_XDICTIONARY
360
18C
102
}
330
2A
100
AcDbVisualStyle
  2
Shaded
 70
    27
 71
     2
 72
     2
 73
     1
 90
        2
 40
0.6
 41
30.0
 62
     5
 63
     7
421
 16777215
 74
     0
 91
        4
 64
     7
 65
   257
 75
     1
175
     1
 42
1.0
 92
        8
 66
   257
 43
1.0
 76
     1
 77
     6
 78
     2
 67
     8
425
  7895160
 79
     3
170
     0
171
     0
290
     0
174
     0
 93
        5
 44
0.0
173
     0
291
     0
 45
0.0
  0
VISUALSTYLE
  5
41
102
{ACAD_REACTORS
330
2A
102
}
102
{ACAD_XDICTIONARY
360
18A
102
}
330
2A
100
AcDbVisualStyle
  2
Shaded with edges
 70
    26
 71
     2
 72
     2
 73
     1
 90
        2
 40
0.6
 41
30.0
 62
     5
 63
     7
421
 16777215
 74
     1
 91
       10
 64
     7
 65
   257
 75
     2
175
     1
 42
1.0
 92
        8
 66
   257
 43
1.0
 76
     1
 77
     6
 78
     2
 67
     7
 79
     3
170
     0
171
     0
290
     0
174
     0
 93
        5
 44
0.0
173
     0
291
     0
 45
0.0
  0
VISUALSTYLE
  5
3E
102
{ACAD_REACTORS
330
2A
102
}
102
{ACAD_XDICTIONARY
360
184
102
}
330
2A
100
AcDbVisualStyle
  2
Shades of Gray
 70
    23
 71
     2
 72
     2
 73
     3
 90
        0
 40
0.6
 41
30.0
 62
     5
 63
     7
421
 16777215
 74
     2
 91
        2
 64
     7
 65
     7
 75
     1
175
     1
 42
40.0
 92
        8
 66
     7
 43
1.0
 76
     1
 77
     6
 78
     2
 67
     7
 79
     3
170
     0
171
     0
290
     0
174
     0
 93
        1
 44
0.0
173
     0
291
     0
 45
0.0
  0
VISUALSTYLE
  5
3F
102
{ACAD_REACTORS
330
2A
102
}
102
{ACAD_XDICTIONARY
360
186
102
}
330
2A
100
AcDbVisualStyle
  2
Sketchy
 70
    24
 71
     1
 72
     2
 73
     2
 90
        0
 40
0.6
 41
30.0
 62
     5
 63
     7
421
 16777215
 74
     2
 91
        2
 64
     7
 65
     7
 75
     1
175
     1
 42
40.0
 92
       11
 66
     7
 43
1.0
 76
     1
 77
     6
 78
     2
 67
     7
 79
     6
170
     0
171
     0
290
     0
174
     0
 93
        1
 44
0.0
173
     0
291
     0
 45
0.0
  0
VISUALSTYLE
  5
37
102
{ACAD_REACTORS
330
2A
102
}
102
{ACAD_XDICTIONARY
360
176
102
}
330
2A
100
AcDbVisualStyle
  2
Thicken
 70
    13
 71
     2
 72
     2
 73
     0
 90
        0
 40
0.6
 41
30.0
 62
     5
 63
     7
421
 16777215
 74
     1
 91
        4
 64
     7
 65
   257
 75
     1
175
     1
 42
1.0
 92
       12
 66
     7
 43
1.0
 76
     1
 77
     6
 78
     2
 67
     7
 79
     5
170
     0
171
     0
290
     0
174
     0
 93
        1
 44
0.0
173
     0
291
     1
 45
0.0
  0
VISUALSTYLE
  5
30
102
{ACAD_REACTORS
330
2A
102
}
102
{ACAD_XDICTIONARY
360
168
102
}
330
2A
100
AcDbVisualStyle
  2
Wireframe
 70
     5
 71
     0
 72
     2
 73
     0
 90
        0
 40
0.6
 41
30.0
 62
     5
 63
     7
421
 16777215
 74
     1
 91
        4
 64
     7
 65
   257
 75
     1
175
     1
 42
1.0
 92
        0
 66
   257
 43
1.0
 76
     1
 77
     6
 78
     2
 67
     7
 79
     3
170
     0
171
     0
290
     0
174
     0
 93
        1
 44
0.0
173
     0
291
     0
 45
0.0
  0
VISUALSTYLE
  5
40
102
{ACAD_REACTORS
330
2A
102
}
102
{ACAD_XDICTIONARY
360
188
102
}
330
2A
100
AcDbVisualStyle
  2
X-Ray
 70
    25
 71
     2
 72
     2
 73
     1
 90
        1
 40
0.5
 41
30.0
 62
     5
 63
     7
421
 16777215
 74
     1
 91
        0
 64
     7
 65
   257
 75
     1
175
     1
 42
1.0
 92
        8
 66
     7
 43
1.0
 76
     1
 77
     6
 78
     2
 67
     7
 79
     3
170
     0
171
     0
290
     0
174
     0
 93
       13
 44
0.0
173
     0
291
     0
 45
0.0
  0
DICTIONARYVAR
  5
15C
102
{ACAD_REACTORS
330
15B
102
}
330
15B
100
DictionaryVariables
280
     0
  1
1:1
  0
DICTIONARYVAR
  5
195
102
{ACAD_REACTORS
330
15B
102
}
330
15B
100
DictionaryVariables
280
     0
  1
Standard
  0
DICTIONARYVAR
  5
194
102
{ACAD_REACTORS
330
15B
102
}
330
15B
100
DictionaryVariables
280
     0
  1
Standard
  0
DICTIONARYVAR
  5
15D
102
{ACAD_REACTORS
330
15B
102
}
330
15B
100
DictionaryVariables
280
     0
  1
2
  0
DICTIONARY
  5
191
330
6C
100
AcDbDictionary
280
     1
281
     1
  3
ACAD_XREC_ROUNDTRIP
360
192
  0
DICTIONARY
  5
18E
330
6A
100
AcDbDictionary
280
     1
281
     1
  3
ACAD_ROUNDTRIP_2008_TABLESTYLE_CELLSTYLEMAP
360
18F
  0
DICTIONARY
  5
166
330
2F
100
AcDbDictionary
280
     1
281
     1
  3
ACAD_XREC_ROUNDTRIP
360
167
  0
DICTIONARY
  5
16C
330
32
100
AcDbDictionary
280
     1
281
     1
  3
ACAD_XREC_ROUNDTRIP
360
16D
  0
DICTIONARY
  5
174
330
36
100
AcDbDictionary
280
     1
281
     1
  3
ACAD_XREC_ROUNDTRIP
360
175
  0
DICTIONARY
  5
17C
330
3A
100
AcDbDictionary
280
     1
281
     1
  3
ACAD_XREC_ROUNDTRIP
360
17D
  0
DICTIONARY
  5
170
330
34
100
AcDbDictionary
280
     1
281
     1
  3
ACAD_XREC_ROUNDTRIP
360
171
  0
DICTIONARY
  5
172
330
35
100
AcDbDictionary
280
     1
281
     1
  3
ACAD_XREC_ROUNDTRIP
360
173
  0
DICTIONARY
  5
182
330
3D
100
AcDbDictionary
280
     1
281
     1
  3
ACAD_XREC_ROUNDTRIP
360
183
  0
DICTIONARY
  5
17A
330
39
100
AcDbDictionary
280
     1
281
     1
  3
ACAD_XREC_ROUNDTRIP
360
17B
  0
DICTIONARY
  5
15E
330
2B
100
AcDbDictionary
280
     1
281
     1
  3
ACAD_XREC_ROUNDTRIP
360
15F
  0
DICTIONARY
  5
160
330
2C
100
AcDbDictionary
280
     1
281
     1
  3
ACAD_XREC_ROUNDTRIP
360
161
  0
DICTIONARY
  5
162
330
2D
100
AcDbDictionary
280
     1
281
     1
  3
ACAD_XREC_ROUNDTRIP
360
163
  0
DICTIONARY
  5
164
330
2E
100
AcDbDictionary
280
     1
281
     1
  3
ACAD_XREC_ROUNDTRIP
360
165
  0
DICTIONARY
  5
16A
330
31
100
AcDbDictionary
280
     1
281
     1
  3
ACAD_XREC_ROUNDTRIP
360
16B
  0
DICTIONARY
  5
17E
330
3B
100
AcDbDictionary
280
     1
281
     1
  3
ACAD_XREC_ROUNDTRIP
360
17F
  0
DICTIONARY
  5
178
330
38
100
AcDbDictionary
280
     1
281
     1
  3
ACAD_XREC_ROUNDTRIP
360
179
  0
DICTIONARY
  5
180
330
3C
100
AcDbDictionary
280
     1
281
     1
  3
ACAD_XREC_ROUNDTRIP
360
181
  0
DICTIONARY
  5
16E
330
33
100
AcDbDictionary
280
     1
281
     1
  3
ACAD_XREC_ROUNDTRIP
360
16F
  0
DICTIONARY
  5
18C
330
42
100
AcDbDictionary
280
     1
281
     1
  3
ACAD_XREC_ROUNDTRIP
360
18D
  0
DICTIONARY
  5
18A
330
41
100
AcDbDictionary
280
     1
281
     1
  3
ACAD_XREC_ROUNDTRIP
360
18B
  0
DICTIONARY
  5
184
330
3E
100
AcDbDictionary
280
     1
281
     1
  3
ACAD_XREC_ROUNDTRIP
360
185
  0
DICTIONARY
  5
186
330
3F
100
AcDbDictionary
280
     1
281
     1
  3
ACAD_XREC_ROUNDTRIP
360
187
  0
DICTIONARY
  5
176
330
37
100
AcDbDictionary
280
     1
281
     1
  3
ACAD_XREC_ROUNDTRIP
360
177
  0
DICTIONARY
  5
168
330
30
100
AcDbDictionary
280
     1
281
     1
  3
ACAD_XREC_ROUNDTRIP
360
169
  0
DICTIONARY
  5
188
330
40
100
AcDbDictionary
280
     1
281
     1
  3
ACAD_XREC_ROUNDTRIP
360
189
  0
XRECORD
  5
192
102
{ACAD_REACTORS
330
191
102
}
330
191
100
AcDbXrecord
280
     1
102
ACAD_ROUNDTRIP_2010_MLEADER_STYLE
  0
CELLSTYLEMAP
  5
18F
102
{ACAD_REACTORS
330
18E
102
}
330
18E
100
AcDbCellStyleMap
 90
        3
300
CELLSTYLE
  1
TABLEFORMAT_BEGIN
 90
        5
170
     1
 91
        0
 92
    32768
 62
   257
 93
        1
300
CONTENTFORMAT
  1
CONTENTFORMAT_BEGIN
 90
        0
 91
        0
 92
        4
 93
        0
300

 40
0.0
140
1.0
 94
        5
 62
     0
340
11
144
0.25
309
CONTENTFORMAT_END
171
     1
301
MARGIN
  1
CELLMARGIN_BEGIN
 40
0.06
 40
0.06
 40
0.06
 40
0.06
 40
0.06
 40
0.06
309
CELLMARGIN_END
 94
        6
 95
        1
302
GRIDFORMAT
  1
GRIDFORMAT_BEGIN
 90
        0
 91
        1
 62
     0
 92
       -2
340
14
 93
        0
 40
0.045
309
GRIDFORMAT_END
 95
        2
302
GRIDFORMAT
  1
GRIDFORMAT_BEGIN
 90
        0
 91
        1
 62
     0
 92
       -2
340
14
 93
        0
 40
0.045
309
GRIDFORMAT_END
 95
        4
302
GRIDFORMAT
  1
GRIDFORMAT_BEGIN
 90
        0
 91
        1
 62
     0
 92
       -2
340
14
 93
        0
 40
0.045
309
GRIDFORMAT_END
 95
        8
302
GRIDFORMAT
  1
GRIDFORMAT_BEGIN
 90
        0
 91
        1
 62
     0
 92
       -2
340
14
 93
        0
 40
0.045
309
GRIDFORMAT_END
 95
       16
302
GRIDFORMAT
  1
GRIDFORMAT_BEGIN
 90
        0
 91
        1
 62
     0
 92
       -2
340
14
 93
        0
 40
0.045
309
GRIDFORMAT_END
 95
       32
302
GRIDFORMAT
  1
GRIDFORMAT_BEGIN
 90
        0
 91
        1
 62
     0
 92
       -2
340
14
 93
        0
 40
0.045
309
GRIDFORMAT_END
309
TABLEFORMAT_END
  1
CELLSTYLE_BEGIN
 90
        1
 91
        1
300
_TITLE
309
CELLSTYLE_END
300
CELLSTYLE
  1
TABLEFORMAT_BEGIN
 90
        5
170
     1
 91
        0
 92
        0
 62
   257
 93
        1
300
CONTENTFORMAT
  1
CONTENTFORMAT_BEGIN
 90
        0
 91
        0
 92
        4
 93
        0
300

 40
0.0
140
1.0
 94
        5
 62
     0
340
11
144
0.18
309
CONTENTFORMAT_END
171
     1
301
MARGIN
  1
CELLMARGIN_BEGIN
 40
0.06
 40
0.06
 40
0.06
 40
0.06
 40
0.06
 40
0.06
309
CELLMARGIN_END
 94
        6
 95
        1
302
GRIDFORMAT
  1
GRIDFORMAT_BEGIN
 90
        0
 91
        1
 62
     0
 92
       -2
340
14
 93
        0
 40
0.045
309
GRIDFORMAT_END
 95
        2
302
GRIDFORMAT
  1
GRIDFORMAT_BEGIN
 90
        0
 91
        1
 62
     0
 92
       -2
340
14
 93
        0
 40
0.045
309
GRIDFORMAT_END
 95
        4
302
GRIDFORMAT
  1
GRIDFORMAT_BEGIN
 90
        0
 91
        1
 62
     0
 92
       -2
340
14
 93
        0
 40
0.045
309
GRIDFORMAT_END
 95
        8
302
GRIDFORMAT
  1
GRIDFORMAT_BEGIN
 90
        0
 91
        1
 62
     0
 92
       -2
340
14
 93
        0
 40
0.045
309
GRIDFORMAT_END
 95
       16
302
GRIDFORMAT
  1
GRIDFORMAT_BEGIN
 90
        0
 91
        1
 62
     0
 92
       -2
340
14
 93
        0
 40
0.045
309
GRIDFORMAT_END
 95
       32
302
GRIDFORMAT
  1
GRIDFORMAT_BEGIN
 90
        0
 91
        1
 62
     0
 92
       -2
340
14
 93
        0
 40
0.045
309
GRIDFORMAT_END
309
TABLEFORMAT_END
  1
CELLSTYLE_BEGIN
 90
        2
 91
        1
300
_HEADER
309
CELLSTYLE_END
300
CELLSTYLE
  1
TABLEFORMAT_BEGIN
 90
        5
170
     1
 91
        0
 92
        0
 62
   257
 93
        1
300
CONTENTFORMAT
  1
CONTENTFORMAT_BEGIN
 90
        0
 91
        0
 92
        4
 93
        0
300

 40
0.0
140
1.0
 94
        2
 62
     0
340
11
144
0.18
309
CONTENTFORMAT_END
171
     1
301
MARGIN
  1
CELLMARGIN_BEGIN
 40
0.06
 40
0.06
 40
0.06
 40
0.06
 40
0.06
 40
0.06
309
CELLMARGIN_END
 94
        6
 95
        1
302
GRIDFORMAT
  1
GRIDFORMAT_BEGIN
 90
        0
 91
        1
 62
     0
 92
       -2
340
14
 93
        0
 40
0.045
309
GRIDFORMAT_END
 95
        2
302
GRIDFORMAT
  1
GRIDFORMAT_BEGIN
 90
        0
 91
        1
 62
     0
 92
       -2
340
14
 93
        0
 40
0.045
309
GRIDFORMAT_END
 95
        4
302
GRIDFORMAT
  1
GRIDFORMAT_BEGIN
 90
        0
 91
        1
 62
     0
 92
       -2
340
14
 93
        0
 40
0.045
309
GRIDFORMAT_END
 95
        8
302
GRIDFORMAT
  1
GRIDFORMAT_BEGIN
 90
        0
 91
        1
 62
     0
 92
       -2
340
14
 93
        0
 40
0.045
309
GRIDFORMAT_END
 95
       16
302
GRIDFORMAT
  1
GRIDFORMAT_BEGIN
 90
        0
 91
        1
 62
     0
 92
       -2
340
14
 93
        0
 40
0.045
309
GRIDFORMAT_END
 95
       32
302
GRIDFORMAT
  1
GRIDFORMAT_BEGIN
 90
        0
 91
        1
 62
     0
 92
       -2
340
14
 93
        0
 40
0.045
309
GRIDFORMAT_END
309
TABLEFORMAT_END
  1
CELLSTYLE_BEGIN
 90
        3
 91
        2
300
_DATA
309
CELLSTYLE_END
  0
XRECORD
  5
167
102
{ACAD_REACTORS
330
166
102
}
330
166
100
AcDbXrecord
280
     1
102
RTVSPropertyOp0
 70
     1
102
RTVSPropertyOp1
 70
     1
102
RTVSPropertyOp2
 70
     1
102
RTVSPropertyOp3
 70
     1
102
RTVSPropertyOp4
 70
     1
102
RTVSPropertyOp5
 70
     1
102
RTVSPropertyOp6
 70
     1
102
RTVSPropertyOp7
 70
     1
102
RTVSPropertyOp8
 70
     1
102
RTVSPropertyOp9
 70
     1
102
RTVSPropertyOp10
 70
     1
102
RTVSPropertyOp11
 70
     1
102
RTVSPropertyOp12
 70
     1
102
RTVSPropertyOp13
 70
     1
102
RTVSPropertyOp14
 70
     1
102
RTVSPropertyOp15
 70
     1
102
RTVSPropertyOp16
 70
     1
102
RTVSPropertyOp17
 70
     1
102
RTVSPropertyOp18
 70
     1
102
RTVSPropertyOp19
 70
     1
102
RTVSPropertyOp20
 70
     1
102
RTVSPropertyOp21
 70
     1
102
RTVSPropertyOp22
 70
     1
102
RTVSPropertyOp23
 70
     1
102
RTVSPropertyOp24
 70
     1
102
RTVSPropertyOp25
 70
     1
102
RTVSPropertyOp26
 70
     1
102
RTVSPropertyOp27
 70
     1
102
RTVSPropertyOp28
 70
     1
102
RTVSPropertyOp29
 70
     1
102
RTVSPropertyOp30
 70
     1
102
RTVSPropertyOp31
 70
     1
102
RTVSPropertyOp32
 70
     1
102
RTVSPropertyOp33
 70
     1
102
RTVSPropertyOp34
 70
     1
102
RTVSPropertyOp35
 70
     1
102
RTVSPropertyOp36
 70
     1
102
RTVSPropertyOp37
 70
     1
102
RTVSPropertyOp38
 70
     1
102
RTVSPropertyOp39
 70
     1
102
RTVSPropertyOp40
 70
     1
102
RTVSPropertyOp41
 70
     1
102
RTVSPropertyOp42
 70
     1
102
RTVSPropertyOp43
 70
     1
102
RTVSPropertyOp44
 70
     1
102
RTVSPropertyOp45
 70
     1
102
RTVSPropertyOp46
 70
     1
102
RTVSPropertyOp47
 70
     1
102
RTVSPropertyOp48
 70
     1
102
RTVSPropertyOp49
 70
     1
102
RTVSPropertyOp50
 70
     1
102
RTVSPropertyOp51
 70
     0
102
RTVSPropertyOp52
 70
     0
102
RTVSPropertyOp53
 70
     1
102
RTVSPropertyOp54
 70
     1
102
RTVSPropertyOp55
 70
     1
102
RTVSPropertyOp56
 70
     1
102
RTVSPropertyOp57
 70
     1
102
RTVSPost2010Prop28
280
     1
102
RTVSPost2010PropOp28
 70
     1
102
RTVSPost2010Prop29
280
     1
102
RTVSPost2010PropOp29
 70
     1
102
RTVSPost2010Prop30
280
     0
102
RTVSPost2010PropOp30
 70
     1
102
RTVSPost2010Prop31
280
     0
102
RTVSPost2010PropOp31
 70
     1
102
RTVSPost2010Prop32
280
     0
102
RTVSPost2010PropOp32
 70
     1
102
RTVSPost2010Prop33
280
     0
102
RTVSPost2010PropOp33
 70
     1
102
RTVSPost2010Prop34
280
     0
102
RTVSPost2010PropOp34
 70
     1
102
RTVSPost2010Prop35
280
     0
102
RTVSPost2010PropOp35
 70
     1
102
RTVSPost2010Prop36
280
     0
102
RTVSPost2010PropOp36
 70
     1
102
RTVSPost2010Prop37
 90
       50
102
RTVSPost2010PropOp37
 70
     1
102
RTVSPost2010Prop38
140
0.0
102
RTVSPost2010PropOp38
 70
     1
102
RTVSPost2010Prop39
140
1.0
102
RTVSPost2010PropOp39
 70
     1
102
RTVSPost2010Prop40
 90
        0
102
RTVSPost2010PropOp40
 70
     1
102
RTVSPost2010Prop41ColorIndex
 90
       18
102
RTVSPost2010Prop41ColorRGB
 90
        0
102
RTVSPost2010PropOp41
 70
     1
102
RTVSPost2010Prop42
 90
       50
102
RTVSPost2010PropOp42
 70
     1
102
RTVSPost2010Prop43
 90
        3
102
RTVSPost2010PropOp43
 70
     1
102
RTVSPost2010Prop44ColorIndex
 90
        5
102
RTVSPost2010Prop44ColorRGB
 90
      255
102
RTVSPost2010PropOp44
 70
     1
102
RTVSPost2010Prop45
280
     0
102
RTVSPost2010PropOp45
 70
     1
102
RTVSPost2010Prop46
 90
       50
102
RTVSPost2010PropOp46
 70
     1
102
RTVSPost2010Prop47
 90
       50
102
RTVSPost2010PropOp47
 70
     1
102
RTVSPost2010Prop48
 90
       50
102
RTVSPost2010PropOp48
 70
     1
102
RTVSPost2010Prop49
280
     0
102
RTVSPost2010PropOp49
 70
     1
102
RTVSPost2010Prop50
 90
       50
102
RTVSPost2010PropOp50
 70
     1
102
RTVSPost2010Prop51ColorIndex
 90
      256
102
RTVSPost2010Prop51ColorRGB
 90
-16777216
102
RTVSPost2010PropOp51
 70
     0
102
RTVSPost2010Prop52
140
1.0
102
RTVSPost2010PropOp52
 70
     0
102
RTVSPost2010Prop53
 90
        2
102
RTVSPost2010PropOp53
 70
     1
102
RTVSPost2010Prop54
  1
strokes_ogs.tif
102
RTVSPost2010PropOp54
 70
     1
102
RTVSPost2010Prop55
280
     0
102
RTVSPost2010PropOp55
 70
     1
102
RTVSPost2010Prop56
140
1.0
102
RTVSPost2010PropOp56
 70
     1
102
RTVSPost2010Prop57
140
1.0
102
RTVSPost2010PropOp57
 70
     1
  0
XRECORD
  5
16D
102
{ACAD_REACTORS
330
16C
102
}
330
16C
100
AcDbXrecord
280
     1
102
RTVSPropertyOp0
 70
     1
102
RTVSPropertyOp1
 70
     1
102
RTVSPropertyOp2
 70
     1
102
RTVSPropertyOp3
 70
     1
102
RTVSPropertyOp4
 70
     1
102
RTVSPropertyOp5
 70
     1
102
RTVSPropertyOp6
 70
     1
102
RTVSPropertyOp7
 70
     1
102
RTVSPropertyOp8
 70
     1
102
RTVSPropertyOp9
 70
     1
102
RTVSPropertyOp10
 70
     1
102
RTVSPropertyOp11
 70
     1
102
RTVSPropertyOp12
 70
     1
102
RTVSPropertyOp13
 70
     1
102
RTVSPropertyOp14
 70
     1
102
RTVSPropertyOp15
 70
     1
102
RTVSPropertyOp16
 70
     1
102
RTVSPropertyOp17
 70
     1
102
RTVSPropertyOp18
 70
     1
102
RTVSPropertyOp19
 70
     1
102
RTVSPropertyOp20
 70
     1
102
RTVSPropertyOp21
 70
     1
102
RTVSPropertyOp22
 70
     1
102
RTVSPropertyOp23
 70
     1
102
RTVSPropertyOp24
 70
     1
102
RTVSPropertyOp25
 70
     1
102
RTVSPropertyOp26
 70
     1
102
RTVSPropertyOp27
 70
     1
102
RTVSPropertyOp28
 70
     1
102
RTVSPropertyOp29
 70
     1
102
RTVSPropertyOp30
 70
     1
102
RTVSPropertyOp31
 70
     1
102
RTVSPropertyOp32
 70
     1
102
RTVSPropertyOp33
 70
     1
102
RTVSPropertyOp34
 70
     1
102
RTVSPropertyOp35
 70
     1
102
RTVSPropertyOp36
 70
     1
102
RTVSPropertyOp37
 70
     1
102
RTVSPropertyOp38
 70
     1
102
RTVSPropertyOp39
 70
     1
102
RTVSPropertyOp40
 70
     1
102
RTVSPropertyOp41
 70
     1
102
RTVSPropertyOp42
 70
     1
102
RTVSPropertyOp43
 70
     1
102
RTVSPropertyOp44
 70
     1
102
RTVSPropertyOp45
 70
     1
102
RTVSPropertyOp46
 70
     1
102
RTVSPropertyOp47
 70
     1
102
RTVSPropertyOp48
 70
     1
102
RTVSPropertyOp49
 70
     1
102
RTVSPropertyOp50
 70
     1
102
RTVSPropertyOp51
 70
     0
102
RTVSPropertyOp52
 70
     0
102
RTVSPropertyOp53
 70
     1
102
RTVSPropertyOp54
 70
     1
102
RTVSPropertyOp55
 70
     1
102
RTVSPropertyOp56
 70
     1
102
RTVSPropertyOp57
 70
     1
102
RTVSPost2010Prop28
280
     0
102
RTVSPost2010PropOp28
 70
     1
102
RTVSPost2010Prop29
280
     1
102
RTVSPost2010PropOp29
 70
     1
102
RTVSPost2010Prop30
280
     1
102
RTVSPost2010PropOp30
 70
     1
102
RTVSPost2010Prop31
280
     0
102
RTVSPost2010PropOp31
 70
     1
102
RTVSPost2010Prop32
280
     0
102
RTVSPost2010PropOp32
 70
     1
102
RTVSPost2010Prop33
280
     0
102
RTVSPost2010PropOp33
 70
     1
102
RTVSPost2010Prop34
280
     0
102
RTVSPost2010PropOp34
 70
     1
102
RTVSPost2010Prop35
280
     0
102
RTVSPost2010PropOp35
 70
     1
102
RTVSPost2010Prop36
280
     0
102
RTVSPost2010PropOp36
 70
     1
102
RTVSPost2010Prop37
 90
       50
102
RTVSPost2010PropOp37
 70
     1
102
RTVSPost2010Prop38
140
0.0
102
RTVSPost2010PropOp38
 70
     1
102
RTVSPost2010Prop39
140
1.0
102
RTVSPost2010PropOp39
 70
     1
102
RTVSPost2010Prop40
 90
        0
102
RTVSPost2010PropOp40
 70
     1
102
RTVSPost2010Prop41ColorIndex
 90
       18
102
RTVSPost2010Prop41ColorRGB
 90
        0
102
RTVSPost2010PropOp41
 70
     1
102
RTVSPost2010Prop42
 90
       50
102
RTVSPost2010PropOp42
 70
     1
102
RTVSPost2010Prop43
 90
        3
102
RTVSPost2010PropOp43
 70
     1
102
RTVSPost2010Prop44ColorIndex
 90
        5
102
RTVSPost2010Prop44ColorRGB
 90
      255
102
RTVSPost2010PropOp44
 70
     1
102
RTVSPost2010Prop45
280
     0
102
RTVSPost2010PropOp45
 70
     1
102
RTVSPost2010Prop46
 90
       50
102
RTVSPost2010PropOp46
 70
     1
102
RTVSPost2010Prop47
 90
       50
102
RTVSPost2010PropOp47
 70
     1
102
RTVSPost2010Prop48
 90
       50
102
RTVSPost2010PropOp48
 70
     1
102
RTVSPost2010Prop49
280
     0
102
RTVSPost2010PropOp49
 70
     1
102
RTVSPost2010Prop50
 90
       50
102
RTVSPost2010PropOp50
 70
     1
102
RTVSPost2010Prop51ColorIndex
 90
      256
102
RTVSPost2010Prop51ColorRGB
 90
-16777216
102
RTVSPost2010PropOp51
 70
     0
102
RTVSPost2010Prop52
140
1.0
102
RTVSPost2010PropOp52
 70
     0
102
RTVSPost2010Prop53
 90
        2
102
RTVSPost2010PropOp53
 70
     1
102
RTVSPost2010Prop54
  1
strokes_ogs.tif
102
RTVSPost2010PropOp54
 70
     1
102
RTVSPost2010Prop55
280
     0
102
RTVSPost2010PropOp55
 70
     1
102
RTVSPost2010Prop56
140
1.0
102
RTVSPost2010PropOp56
 70
     1
102
RTVSPost2010Prop57
140
1.0
102
RTVSPost2010PropOp57
 70
     1
  0
XRECORD
  5
175
102
{ACAD_REACTORS
330
174
102
}
330
174
100
AcDbXrecord
280
     1
102
RTVSPropertyOp0
 70
     1
102
RTVSPropertyOp1
 70
     1
102
RTVSPropertyOp2
 70
     1
102
RTVSPropertyOp3
 70
     1
102
RTVSPropertyOp4
 70
     1
102
RTVSPropertyOp5
 70
     1
102
RTVSPropertyOp6
 70
     1
102
RTVSPropertyOp7
 70
     1
102
RTVSPropertyOp8
 70
     1
102
RTVSPropertyOp9
 70
     1
102
RTVSPropertyOp10
 70
     1
102
RTVSPropertyOp11
 70
     1
102
RTVSPropertyOp12
 70
     1
102
RTVSPropertyOp13
 70
     1
102
RTVSPropertyOp14
 70
     1
102
RTVSPropertyOp15
 70
     1
102
RTVSPropertyOp16
 70
     1
102
RTVSPropertyOp17
 70
     1
102
RTVSPropertyOp18
 70
     1
102
RTVSPropertyOp19
 70
     1
102
RTVSPropertyOp20
 70
     1
102
RTVSPropertyOp21
 70
     1
102
RTVSPropertyOp22
 70
     1
102
RTVSPropertyOp23
 70
     1
102
RTVSPropertyOp24
 70
     1
102
RTVSPropertyOp25
 70
     1
102
RTVSPropertyOp26
 70
     1
102
RTVSPropertyOp27
 70
     1
102
RTVSPropertyOp28
 70
     1
102
RTVSPropertyOp29
 70
     1
102
RTVSPropertyOp30
 70
     1
102
RTVSPropertyOp31
 70
     1
102
RTVSPropertyOp32
 70
     1
102
RTVSPropertyOp33
 70
     1
102
RTVSPropertyOp34
 70
     1
102
RTVSPropertyOp35
 70
     1
102
RTVSPropertyOp36
 70
     1
102
RTVSPropertyOp37
 70
     1
102
RTVSPropertyOp38
 70
     1
102
RTVSPropertyOp39
 70
     1
102
RTVSPropertyOp40
 70
     1
102
RTVSPropertyOp41
 70
     1
102
RTVSPropertyOp42
 70
     1
102
RTVSPropertyOp43
 70
     1
102
RTVSPropertyOp44
 70
     1
102
RTVSPropertyOp45
 70
     1
102
RTVSPropertyOp46
 70
     1
102
RTVSPropertyOp47
 70
     1
102
RTVSPropertyOp48
 70
     1
102
RTVSPropertyOp49
 70
     1
102
RTVSPropertyOp50
 70
     1
102
RTVSPropertyOp51
 70
     0
102
RTVSPropertyOp52
 70
     0
102
RTVSPropertyOp53
 70
     1
102
RTVSPropertyOp54
 70
     1
102
RTVSPropertyOp55
 70
     1
102
RTVSPropertyOp56
 70
     1
102
RTVSPropertyOp57
 70
     1
102
RTVSPost2010Prop28
280
     0
102
RTVSPost2010PropOp28
 70
     1
102
RTVSPost2010Prop29
280
     1
102
RTVSPost2010PropOp29
 70
     1
102
RTVSPost2010Prop30
280
     1
102
RTVSPost2010PropOp30
 70
     1
102
RTVSPost2010Prop31
280
     0
102
RTVSPost2010PropOp31
 70
     1
102
RTVSPost2010Prop32
280
     0
102
RTVSPost2010PropOp32
 70
     1
102
RTVSPost2010Prop33
280
     0
102
RTVSPost2010PropOp33
 70
     1
102
RTVSPost2010Prop34
280
     0
102
RTVSPost2010PropOp34
 70
     1
102
RTVSPost2010Prop35
280
     0
102
RTVSPost2010PropOp35
 70
     1
102
RTVSPost2010Prop36
280
     0
102
RTVSPost2010PropOp36
 70
     1
102
RTVSPost2010Prop37
 90
       50
102
RTVSPost2010PropOp37
 70
     1
102
RTVSPost2010Prop38
140
0.0
102
RTVSPost2010PropOp38
 70
     1
102
RTVSPost2010Prop39
140
1.0
102
RTVSPost2010PropOp39
 70
     1
102
RTVSPost2010Prop40
 90
        0
102
RTVSPost2010PropOp40
 70
     1
102
RTVSPost2010Prop41ColorIndex
 90
       18
102
RTVSPost2010Prop41ColorRGB
 90
        0
102
RTVSPost2010PropOp41
 70
     1
102
RTVSPost2010Prop42
 90
       50
102
RTVSPost2010PropOp42
 70
     1
102
RTVSPost2010Prop43
 90
        3
102
RTVSPost2010PropOp43
 70
     1
102
RTVSPost2010Prop44ColorIndex
 90
        5
102
RTVSPost2010Prop44ColorRGB
 90
      255
102
RTVSPost2010PropOp44
 70
     1
102
RTVSPost2010Prop45
280
     0
102
RTVSPost2010PropOp45
 70
     1
102
RTVSPost2010Prop46
 90
       50
102
RTVSPost2010PropOp46
 70
     1
102
RTVSPost2010Prop47
 90
       50
102
RTVSPost2010PropOp47
 70
     1
102
RTVSPost2010Prop48
 90
       50
102
RTVSPost2010PropOp48
 70
     1
102
RTVSPost2010Prop49
280
     0
102
RTVSPost2010PropOp49
 70
     1
102
RTVSPost2010Prop50
 90
       50
102
RTVSPost2010PropOp50
 70
     1
102
RTVSPost2010Prop51ColorIndex
 90
      256
102
RTVSPost2010Prop51ColorRGB
 90
-16777216
102
RTVSPost2010PropOp51
 70
     0
102
RTVSPost2010Prop52
140
1.0
102
RTVSPost2010PropOp52
 70
     0
102
RTVSPost2010Prop53
 90
        2
102
RTVSPost2010PropOp53
 70
     1
102
RTVSPost2010Prop54
  1
strokes_ogs.tif
102
RTVSPost2010PropOp54
 70
     1
102
RTVSPost2010Prop55
280
     0
102
RTVSPost2010PropOp55
 70
     1
102
RTVSPost2010Prop56
140
1.0
102
RTVSPost2010PropOp56
 70
     1
102
RTVSPost2010Prop57
140
1.0
102
RTVSPost2010PropOp57
 70
     1
  0
XRECORD
  5
17D
102
{ACAD_REACTORS
330
17C
102
}
330
17C
100
AcDbXrecord
280
     1
102
RTVSPropertyOp0
 70
     1
102
RTVSPropertyOp1
 70
     1
102
RTVSPropertyOp2
 70
     1
102
RTVSPropertyOp3
 70
     1
102
RTVSPropertyOp4
 70
     1
102
RTVSPropertyOp5
 70
     1
102
RTVSPropertyOp6
 70
     1
102
RTVSPropertyOp7
 70
     1
102
RTVSPropertyOp8
 70
     1
102
RTVSPropertyOp9
 70
     1
102
RTVSPropertyOp10
 70
     1
102
RTVSPropertyOp11
 70
     1
102
RTVSPropertyOp12
 70
     1
102
RTVSPropertyOp13
 70
     1
102
RTVSPropertyOp14
 70
     1
102
RTVSPropertyOp15
 70
     1
102
RTVSPropertyOp16
 70
     1
102
RTVSPropertyOp17
 70
     1
102
RTVSPropertyOp18
 70
     1
102
RTVSPropertyOp19
 70
     1
102
RTVSPropertyOp20
 70
     1
102
RTVSPropertyOp21
 70
     1
102
RTVSPropertyOp22
 70
     1
102
RTVSPropertyOp23
 70
     1
102
RTVSPropertyOp24
 70
     1
102
RTVSPropertyOp25
 70
     1
102
RTVSPropertyOp26
 70
     1
102
RTVSPropertyOp27
 70
     1
102
RTVSPropertyOp28
 70
     1
102
RTVSPropertyOp29
 70
     1
102
RTVSPropertyOp30
 70
     1
102
RTVSPropertyOp31
 70
     1
102
RTVSPropertyOp32
 70
     1
102
RTVSPropertyOp33
 70
     1
102
RTVSPropertyOp34
 70
     1
102
RTVSPropertyOp35
 70
     1
102
RTVSPropertyOp36
 70
     1
102
RTVSPropertyOp37
 70
     1
102
RTVSPropertyOp38
 70
     1
102
RTVSPropertyOp39
 70
     1
102
RTVSPropertyOp40
 70
     1
102
RTVSPropertyOp41
 70
     1
102
RTVSPropertyOp42
 70
     1
102
RTVSPropertyOp43
 70
     1
102
RTVSPropertyOp44
 70
     1
102
RTVSPropertyOp45
 70
     1
102
RTVSPropertyOp46
 70
     1
102
RTVSPropertyOp47
 70
     1
102
RTVSPropertyOp48
 70
     1
102
RTVSPropertyOp49
 70
     1
102
RTVSPropertyOp50
 70
     1
102
RTVSPropertyOp51
 70
     0
102
RTVSPropertyOp52
 70
     0
102
RTVSPropertyOp53
 70
     1
102
RTVSPropertyOp54
 70
     1
102
RTVSPropertyOp55
 70
     1
102
RTVSPropertyOp56
 70
     1
102
RTVSPropertyOp57
 70
     1
102
RTVSPost2010Prop28
280
     0
102
RTVSPost2010PropOp28
 70
     1
102
RTVSPost2010Prop29
280
     1
102
RTVSPost2010PropOp29
 70
     1
102
RTVSPost2010Prop30
280
     1
102
RTVSPost2010PropOp30
 70
     1
102
RTVSPost2010Prop31
280
     0
102
RTVSPost2010PropOp31
 70
     1
102
RTVSPost2010Prop32
280
     0
102
RTVSPost2010PropOp32
 70
     1
102
RTVSPost2010Prop33
280
     0
102
RTVSPost2010PropOp33
 70
     1
102
RTVSPost2010Prop34
280
     0
102
RTVSPost2010PropOp34
 70
     1
102
RTVSPost2010Prop35
280
     0
102
RTVSPost2010PropOp35
 70
     1
102
RTVSPost2010Prop36
280
     0
102
RTVSPost2010PropOp36
 70
     1
102
RTVSPost2010Prop37
 90
       50
102
RTVSPost2010PropOp37
 70
     1
102
RTVSPost2010Prop38
140
0.0
102
RTVSPost2010PropOp38
 70
     1
102
RTVSPost2010Prop39
140
1.0
102
RTVSPost2010PropOp39
 70
     1
102
RTVSPost2010Prop40
 90
        0
102
RTVSPost2010PropOp40
 70
     1
102
RTVSPost2010Prop41ColorIndex
 90
       18
102
RTVSPost2010Prop41ColorRGB
 90
        0
102
RTVSPost2010PropOp41
 70
     1
102
RTVSPost2010Prop42
 90
       50
102
RTVSPost2010PropOp42
 70
     1
102
RTVSPost2010Prop43
 90
        3
102
RTVSPost2010PropOp43
 70
     1
102
RTVSPost2010Prop44ColorIndex
 90
        5
102
RTVSPost2010Prop44ColorRGB
 90
      255
102
RTVSPost2010PropOp44
 70
     1
102
RTVSPost2010Prop45
280
     0
102
RTVSPost2010PropOp45
 70
     1
102
RTVSPost2010Prop46
 90
       50
102
RTVSPost2010PropOp46
 70
     1
102
RTVSPost2010Prop47
 90
       50
102
RTVSPost2010PropOp47
 70
     1
102
RTVSPost2010Prop48
 90
       50
102
RTVSPost2010PropOp48
 70
     1
102
RTVSPost2010Prop49
280
     0
102
RTVSPost2010PropOp49
 70
     1
102
RTVSPost2010Prop50
 90
       50
102
RTVSPost2010PropOp50
 70
     1
102
RTVSPost2010Prop51ColorIndex
 90
      256
102
RTVSPost2010Prop51ColorRGB
 90
-16777216
102
RTVSPost2010PropOp51
 70
     0
102
RTVSPost2010Prop52
140
1.0
102
RTVSPost2010PropOp52
 70
     0
102
RTVSPost2010Prop53
 90
        2
102
RTVSPost2010PropOp53
 70
     1
102
RTVSPost2010Prop54
  1
strokes_ogs.tif
102
RTVSPost2010PropOp54
 70
     1
102
RTVSPost2010Prop55
280
     0
102
RTVSPost2010PropOp55
 70
     1
102
RTVSPost2010Prop56
140
1.0
102
RTVSPost2010PropOp56
 70
     1
102
RTVSPost2010Prop57
140
1.0
102
RTVSPost2010PropOp57
 70
     1
  0
XRECORD
  5
171
102
{ACAD_REACTORS
330
170
102
}
330
170
100
AcDbXrecord
280
     1
102
RTVSPropertyOp0
 70
     1
102
RTVSPropertyOp1
 70
     1
102
RTVSPropertyOp2
 70
     1
102
RTVSPropertyOp3
 70
     1
102
RTVSPropertyOp4
 70
     1
102
RTVSPropertyOp5
 70
     1
102
RTVSPropertyOp6
 70
     1
102
RTVSPropertyOp7
 70
     1
102
RTVSPropertyOp8
 70
     1
102
RTVSPropertyOp9
 70
     1
102
RTVSPropertyOp10
 70
     1
102
RTVSPropertyOp11
 70
     1
102
RTVSPropertyOp12
 70
     1
102
RTVSPropertyOp13
 70
     1
102
RTVSPropertyOp14
 70
     1
102
RTVSPropertyOp15
 70
     1
102
RTVSPropertyOp16
 70
     1
102
RTVSPropertyOp17
 70
     1
102
RTVSPropertyOp18
 70
     1
102
RTVSPropertyOp19
 70
     1
102
RTVSPropertyOp20
 70
     1
102
RTVSPropertyOp21
 70
     1
102
RTVSPropertyOp22
 70
     1
102
RTVSPropertyOp23
 70
     1
102
RTVSPropertyOp24
 70
     1
102
RTVSPropertyOp25
 70
     1
102
RTVSPropertyOp26
 70
     1
102
RTVSPropertyOp27
 70
     1
102
RTVSPropertyOp28
 70
     1
102
RTVSPropertyOp29
 70
     1
102
RTVSPropertyOp30
 70
     1
102
RTVSPropertyOp31
 70
     1
102
RTVSPropertyOp32
 70
     1
102
RTVSPropertyOp33
 70
     1
102
RTVSPropertyOp34
 70
     1
102
RTVSPropertyOp35
 70
     1
102
RTVSPropertyOp36
 70
     1
102
RTVSPropertyOp37
 70
     1
102
RTVSPropertyOp38
 70
     1
102
RTVSPropertyOp39
 70
     1
102
RTVSPropertyOp40
 70
     1
102
RTVSPropertyOp41
 70
     1
102
RTVSPropertyOp42
 70
     1
102
RTVSPropertyOp43
 70
     1
102
RTVSPropertyOp44
 70
     1
102
RTVSPropertyOp45
 70
     1
102
RTVSPropertyOp46
 70
     1
102
RTVSPropertyOp47
 70
     1
102
RTVSPropertyOp48
 70
     1
102
RTVSPropertyOp49
 70
     1
102
RTVSPropertyOp50
 70
     1
102
RTVSPropertyOp51
 70
     0
102
RTVSPropertyOp52
 70
     0
102
RTVSPropertyOp53
 70
     1
102
RTVSPropertyOp54
 70
     1
102
RTVSPropertyOp55
 70
     1
102
RTVSPropertyOp56
 70
     1
102
RTVSPropertyOp57
 70
     1
102
RTVSPost2010Prop28
280
     0
102
RTVSPost2010PropOp28
 70
     1
102
RTVSPost2010Prop29
280
     1
102
RTVSPost2010PropOp29
 70
     1
102
RTVSPost2010Prop30
280
     1
102
RTVSPost2010PropOp30
 70
     1
102
RTVSPost2010Prop31
280
     0
102
RTVSPost2010PropOp31
 70
     1
102
RTVSPost2010Prop32
280
     0
102
RTVSPost2010PropOp32
 70
     1
102
RTVSPost2010Prop33
280
     0
102
RTVSPost2010PropOp33
 70
     1
102
RTVSPost2010Prop34
280
     0
102
RTVSPost2010PropOp34
 70
     1
102
RTVSPost2010Prop35
280
     0
102
RTVSPost2010PropOp35
 70
     1
102
RTVSPost2010Prop36
280
     0
102
RTVSPost2010PropOp36
 70
     1
102
RTVSPost2010Prop37
 90
       50
102
RTVSPost2010PropOp37
 70
     1
102
RTVSPost2010Prop38
140
0.0
102
RTVSPost2010PropOp38
 70
     1
102
RTVSPost2010Prop39
140
1.0
102
RTVSPost2010PropOp39
 70
     1
102
RTVSPost2010Prop40
 90
        0
102
RTVSPost2010PropOp40
 70
     1
102
RTVSPost2010Prop41ColorIndex
 90
       18
102
RTVSPost2010Prop41ColorRGB
 90
        0
102
RTVSPost2010PropOp41
 70
     1
102
RTVSPost2010Prop42
 90
       50
102
RTVSPost2010PropOp42
 70
     1
102
RTVSPost2010Prop43
 90
        3
102
RTVSPost2010PropOp43
 70
     1
102
RTVSPost2010Prop44ColorIndex
 90
        5
102
RTVSPost2010Prop44ColorRGB
 90
      255
102
RTVSPost2010PropOp44
 70
     1
102
RTVSPost2010Prop45
280
     0
102
RTVSPost2010PropOp45
 70
     1
102
RTVSPost2010Prop46
 90
       50
102
RTVSPost2010PropOp46
 70
     1
102
RTVSPost2010Prop47
 90
       50
102
RTVSPost2010PropOp47
 70
     1
102
RTVSPost2010Prop48
 90
       50
102
RTVSPost2010PropOp48
 70
     1
102
RTVSPost2010Prop49
280
     0
102
RTVSPost2010PropOp49
 70
     1
102
RTVSPost2010Prop50
 90
       50
102
RTVSPost2010PropOp50
 70
     1
102
RTVSPost2010Prop51ColorIndex
 90
      256
102
RTVSPost2010Prop51ColorRGB
 90
-16777216
102
RTVSPost2010PropOp51
 70
     0
102
RTVSPost2010Prop52
140
1.0
102
RTVSPost2010PropOp52
 70
     0
102
RTVSPost2010Prop53
 90
        2
102
RTVSPost2010PropOp53
 70
     1
102
RTVSPost2010Prop54
  1
strokes_ogs.tif
102
RTVSPost2010PropOp54
 70
     1
102
RTVSPost2010Prop55
280
     0
102
RTVSPost2010PropOp55
 70
     1
102
RTVSPost2010Prop56
140
1.0
102
RTVSPost2010PropOp56
 70
     1
102
RTVSPost2010Prop57
140
1.0
102
RTVSPost2010PropOp57
 70
     1
  0
XRECORD
  5
173
102
{ACAD_REACTORS
330
172
102
}
330
172
100
AcDbXrecord
280
     1
102
RTVSPropertyOp0
 70
     1
102
RTVSPropertyOp1
 70
     1
102
RTVSPropertyOp2
 70
     1
102
RTVSPropertyOp3
 70
     1
102
RTVSPropertyOp4
 70
     1
102
RTVSPropertyOp5
 70
     1
102
RTVSPropertyOp6
 70
     1
102
RTVSPropertyOp7
 70
     1
102
RTVSPropertyOp8
 70
     1
102
RTVSPropertyOp9
 70
     1
102
RTVSPropertyOp10
 70
     1
102
RTVSPropertyOp11
 70
     1
102
RTVSPropertyOp12
 70
     1
102
RTVSPropertyOp13
 70
     1
102
RTVSPropertyOp14
 70
     1
102
RTVSPropertyOp15
 70
     1
102
RTVSPropertyOp16
 70
     1
102
RTVSPropertyOp17
 70
     1
102
RTVSPropertyOp18
 70
     1
102
RTVSPropertyOp19
 70
     1
102
RTVSPropertyOp20
 70
     1
102
RTVSPropertyOp21
 70
     1
102
RTVSPropertyOp22
 70
     1
102
RTVSPropertyOp23
 70
     1
102
RTVSPropertyOp24
 70
     1
102
RTVSPropertyOp25
 70
     1
102
RTVSPropertyOp26
 70
     1
102
RTVSPropertyOp27
 70
     1
102
RTVSPropertyOp28
 70
     1
102
RTVSPropertyOp29
 70
     1
102
RTVSPropertyOp30
 70
     1
102
RTVSPropertyOp31
 70
     1
102
RTVSPropertyOp32
 70
     1
102
RTVSPropertyOp33
 70
     1
102
RTVSPropertyOp34
 70
     1
102
RTVSPropertyOp35
 70
     1
102
RTVSPropertyOp36
 70
     1
102
RTVSPropertyOp37
 70
     1
102
RTVSPropertyOp38
 70
     1
102
RTVSPropertyOp39
 70
     1
102
RTVSPropertyOp40
 70
     1
102
RTVSPropertyOp41
 70
     1
102
RTVSPropertyOp42
 70
     1
102
RTVSPropertyOp43
 70
     1
102
RTVSPropertyOp44
 70
     1
102
RTVSPropertyOp45
 70
     1
102
RTVSPropertyOp46
 70
     1
102
RTVSPropertyOp47
 70
     1
102
RTVSPropertyOp48
 70
     1
102
RTVSPropertyOp49
 70
     1
102
RTVSPropertyOp50
 70
     1
102
RTVSPropertyOp51
 70
     0
102
RTVSPropertyOp52
 70
     0
102
RTVSPropertyOp53
 70
     1
102
RTVSPropertyOp54
 70
     1
102
RTVSPropertyOp55
 70
     1
102
RTVSPropertyOp56
 70
     1
102
RTVSPropertyOp57
 70
     1
102
RTVSPost2010Prop28
280
     0
102
RTVSPost2010PropOp28
 70
     1
102
RTVSPost2010Prop29
280
     1
102
RTVSPost2010PropOp29
 70
     1
102
RTVSPost2010Prop30
280
     1
102
RTVSPost2010PropOp30
 70
     1
102
RTVSPost2010Prop31
280
     0
102
RTVSPost2010PropOp31
 70
     1
102
RTVSPost2010Prop32
280
     0
102
RTVSPost2010PropOp32
 70
     1
102
RTVSPost2010Prop33
280
     0
102
RTVSPost2010PropOp33
 70
     1
102
RTVSPost2010Prop34
280
     0
102
RTVSPost2010PropOp34
 70
     1
102
RTVSPost2010Prop35
280
     0
102
RTVSPost2010PropOp35
 70
     1
102
RTVSPost2010Prop36
280
     0
102
RTVSPost2010PropOp36
 70
     1
102
RTVSPost2010Prop37
 90
       50
102
RTVSPost2010PropOp37
 70
     1
102
RTVSPost2010Prop38
140
0.0
102
RTVSPost2010PropOp38
 70
     1
102
RTVSPost2010Prop39
140
1.0
102
RTVSPost2010PropOp39
 70
     1
102
RTVSPost2010Prop40
 90
        0
102
RTVSPost2010PropOp40
 70
     1
102
RTVSPost2010Prop41ColorIndex
 90
       18
102
RTVSPost2010Prop41ColorRGB
 90
        0
102
RTVSPost2010PropOp41
 70
     1
102
RTVSPost2010Prop42
 90
       50
102
RTVSPost2010PropOp42
 70
     1
102
RTVSPost2010Prop43
 90
        3
102
RTVSPost2010PropOp43
 70
     1
102
RTVSPost2010Prop44ColorIndex
 90
        5
102
RTVSPost2010Prop44ColorRGB
 90
      255
102
RTVSPost2010PropOp44
 70
     1
102
RTVSPost2010Prop45
280
     0
102
RTVSPost2010PropOp45
 70
     1
102
RTVSPost2010Prop46
 90
       50
102
RTVSPost2010PropOp46
 70
     1
102
RTVSPost2010Prop47
 90
       50
102
RTVSPost2010PropOp47
 70
     1
102
RTVSPost2010Prop48
 90
       50
102
RTVSPost2010PropOp48
 70
     1
102
RTVSPost2010Prop49
280
     0
102
RTVSPost2010PropOp49
 70
     1
102
RTVSPost2010Prop50
 90
       50
102
RTVSPost2010PropOp50
 70
     1
102
RTVSPost2010Prop51ColorIndex
 90
      256
102
RTVSPost2010Prop51ColorRGB
 90
-16777216
102
RTVSPost2010PropOp51
 70
     0
102
RTVSPost2010Prop52
140
1.0
102
RTVSPost2010PropOp52
 70
     0
102
RTVSPost2010Prop53
 90
        2
102
RTVSPost2010PropOp53
 70
     1
102
RTVSPost2010Prop54
  1
strokes_ogs.tif
102
RTVSPost2010PropOp54
 70
     1
102
RTVSPost2010Prop55
280
     0
102
RTVSPost2010PropOp55
 70
     1
102
RTVSPost2010Prop56
140
1.0
102
RTVSPost2010PropOp56
 70
     1
102
RTVSPost2010Prop57
140
1.0
102
RTVSPost2010PropOp57
 70
     1
  0
XRECORD
  5
183
102
{ACAD_REACTORS
330
182
102
}
330
182
100
AcDbXrecord
280
     1
102
RTVSPropertyOp0
 70
     0
102
RTVSPropertyOp1
 70
     0
102
RTVSPropertyOp2
 70
     0
102
RTVSPropertyOp3
 70
     0
102
RTVSPropertyOp4
 70
     0
102
RTVSPropertyOp5
 70
     0
102
RTVSPropertyOp6
 70
     0
102
RTVSPropertyOp7
 70
     0
102
RTVSPropertyOp8
 70
     0
102
RTVSPropertyOp9
 70
     0
102
RTVSPropertyOp10
 70
     0
102
RTVSPropertyOp11
 70
     0
102
RTVSPropertyOp12
 70
     0
102
RTVSPropertyOp13
 70
     0
102
RTVSPropertyOp14
 70
     2
102
RTVSPropertyOp15
 70
     0
102
RTVSPropertyOp16
 70
     0
102
RTVSPropertyOp17
 70
     0
102
RTVSPropertyOp18
 70
     0
102
RTVSPropertyOp19
 70
     0
102
RTVSPropertyOp20
 70
     0
102
RTVSPropertyOp21
 70
     0
102
RTVSPropertyOp22
 70
     0
102
RTVSPropertyOp23
 70
     0
102
RTVSPropertyOp24
 70
     0
102
RTVSPropertyOp25
 70
     0
102
RTVSPropertyOp26
 70
     0
102
RTVSPropertyOp27
 70
     0
102
RTVSPropertyOp28
 70
     0
102
RTVSPropertyOp29
 70
     0
102
RTVSPropertyOp30
 70
     0
102
RTVSPropertyOp31
 70
     0
102
RTVSPropertyOp32
 70
     0
102
RTVSPropertyOp33
 70
     0
102
RTVSPropertyOp34
 70
     0
102
RTVSPropertyOp35
 70
     0
102
RTVSPropertyOp36
 70
     0
102
RTVSPropertyOp37
 70
     0
102
RTVSPropertyOp38
 70
     0
102
RTVSPropertyOp39
 70
     0
102
RTVSPropertyOp40
 70
     0
102
RTVSPropertyOp41
 70
     0
102
RTVSPropertyOp42
 70
     0
102
RTVSPropertyOp43
 70
     0
102
RTVSPropertyOp44
 70
     0
102
RTVSPropertyOp45
 70
     0
102
RTVSPropertyOp46
 70
     0
102
RTVSPropertyOp47
 70
     0
102
RTVSPropertyOp48
 70
     0
102
RTVSPropertyOp49
 70
     0
102
RTVSPropertyOp50
 70
     0
102
RTVSPropertyOp51
 70
     0
102
RTVSPropertyOp52
 70
     0
102
RTVSPropertyOp53
 70
     0
102
RTVSPropertyOp54
 70
     0
102
RTVSPropertyOp55
 70
     0
102
RTVSPropertyOp56
 70
     0
102
RTVSPropertyOp57
 70
     0
102
RTVSPost2010Prop28
280
     0
102
RTVSPost2010PropOp28
 70
     0
102
RTVSPost2010Prop29
280
     1
102
RTVSPost2010PropOp29
 70
     0
102
RTVSPost2010Prop30
280
     1
102
RTVSPost2010PropOp30
 70
     0
102
RTVSPost2010Prop31
280
     0
102
RTVSPost2010PropOp31
 70
     0
102
RTVSPost2010Prop32
280
     0
102
RTVSPost2010PropOp32
 70
     0
102
RTVSPost2010Prop33
280
     0
102
RTVSPost2010PropOp33
 70
     0
102
RTVSPost2010Prop34
280
     0
102
RTVSPost2010PropOp34
 70
     0
102
RTVSPost2010Prop35
280
     0
102
RTVSPost2010PropOp35
 70
     0
102
RTVSPost2010Prop36
280
     0
102
RTVSPost2010PropOp36
 70
     0
102
RTVSPost2010Prop37
 90
       50
102
RTVSPost2010PropOp37
 70
     0
102
RTVSPost2010Prop38
140
0.0
102
RTVSPost2010PropOp38
 70
     0
102
RTVSPost2010Prop39
140
1.0
102
RTVSPost2010PropOp39
 70
     0
102
RTVSPost2010Prop40
 90
        0
102
RTVSPost2010PropOp40
 70
     0
102
RTVSPost2010Prop41ColorIndex
 90
       18
102
RTVSPost2010Prop41ColorRGB
 90
        0
102
RTVSPost2010PropOp41
 70
     0
102
RTVSPost2010Prop42
 90
       50
102
RTVSPost2010PropOp42
 70
     0
102
RTVSPost2010Prop43
 90
        3
102
RTVSPost2010PropOp43
 70
     0
102
RTVSPost2010Prop44ColorIndex
 90
        5
102
RTVSPost2010Prop44ColorRGB
 90
      255
102
RTVSPost2010PropOp44
 70
     0
102
RTVSPost2010Prop45
280
     0
102
RTVSPost2010PropOp45
 70
     0
102
RTVSPost2010Prop46
 90
       50
102
RTVSPost2010PropOp46
 70
     0
102
RTVSPost2010Prop47
 90
       50
102
RTVSPost2010PropOp47
 70
     0
102
RTVSPost2010Prop48
 90
       50
102
RTVSPost2010PropOp48
 70
     0
102
RTVSPost2010Prop49
280
     0
102
RTVSPost2010PropOp49
 70
     0
102
RTVSPost2010Prop50
 90
       50
102
RTVSPost2010PropOp50
 70
     0
102
RTVSPost2010Prop51ColorIndex
 90
      256
102
RTVSPost2010Prop51ColorRGB
 90
-16777216
102
RTVSPost2010PropOp51
 70
     0
102
RTVSPost2010Prop52
140
1.0
102
RTVSPost2010PropOp52
 70
     0
102
RTVSPost2010Prop53
 90
        2
102
RTVSPost2010PropOp53
 70
     0
102
RTVSPost2010Prop54
  1
strokes_ogs.tif
102
RTVSPost2010PropOp54
 70
     0
102
RTVSPost2010Prop55
280
     0
102
RTVSPost2010PropOp55
 70
     0
102
RTVSPost2010Prop56
140
1.0
102
RTVSPost2010PropOp56
 70
     0
102
RTVSPost2010Prop57
140
1.0
102
RTVSPost2010PropOp57
 70
     0
  0
XRECORD
  5
17B
102
{ACAD_REACTORS
330
17A
102
}
330
17A
100
AcDbXrecord
280
     1
102
RTVSPropertyOp0
 70
     1
102
RTVSPropertyOp1
 70
     1
102
RTVSPropertyOp2
 70
     1
102
RTVSPropertyOp3
 70
     1
102
RTVSPropertyOp4
 70
     1
102
RTVSPropertyOp5
 70
     1
102
RTVSPropertyOp6
 70
     1
102
RTVSPropertyOp7
 70
     1
102
RTVSPropertyOp8
 70
     1
102
RTVSPropertyOp9
 70
     1
102
RTVSPropertyOp10
 70
     1
102
RTVSPropertyOp11
 70
     1
102
RTVSPropertyOp12
 70
     1
102
RTVSPropertyOp13
 70
     1
102
RTVSPropertyOp14
 70
     1
102
RTVSPropertyOp15
 70
     1
102
RTVSPropertyOp16
 70
     1
102
RTVSPropertyOp17
 70
     1
102
RTVSPropertyOp18
 70
     1
102
RTVSPropertyOp19
 70
     1
102
RTVSPropertyOp20
 70
     1
102
RTVSPropertyOp21
 70
     1
102
RTVSPropertyOp22
 70
     1
102
RTVSPropertyOp23
 70
     1
102
RTVSPropertyOp24
 70
     1
102
RTVSPropertyOp25
 70
     1
102
RTVSPropertyOp26
 70
     1
102
RTVSPropertyOp27
 70
     1
102
RTVSPropertyOp28
 70
     1
102
RTVSPropertyOp29
 70
     1
102
RTVSPropertyOp30
 70
     1
102
RTVSPropertyOp31
 70
     1
102
RTVSPropertyOp32
 70
     1
102
RTVSPropertyOp33
 70
     1
102
RTVSPropertyOp34
 70
     1
102
RTVSPropertyOp35
 70
     1
102
RTVSPropertyOp36
 70
     1
102
RTVSPropertyOp37
 70
     1
102
RTVSPropertyOp38
 70
     1
102
RTVSPropertyOp39
 70
     1
102
RTVSPropertyOp40
 70
     1
102
RTVSPropertyOp41
 70
     1
102
RTVSPropertyOp42
 70
     1
102
RTVSPropertyOp43
 70
     1
102
RTVSPropertyOp44
 70
     1
102
RTVSPropertyOp45
 70
     1
102
RTVSPropertyOp46
 70
     1
102
RTVSPropertyOp47
 70
     1
102
RTVSPropertyOp48
 70
     1
102
RTVSPropertyOp49
 70
     1
102
RTVSPropertyOp50
 70
     1
102
RTVSPropertyOp51
 70
     0
102
RTVSPropertyOp52
 70
     0
102
RTVSPropertyOp53
 70
     1
102
RTVSPropertyOp54
 70
     1
102
RTVSPropertyOp55
 70
     1
102
RTVSPropertyOp56
 70
     1
102
RTVSPropertyOp57
 70
     1
102
RTVSPost2010Prop28
280
     0
102
RTVSPost2010PropOp28
 70
     1
102
RTVSPost2010Prop29
280
     1
102
RTVSPost2010PropOp29
 70
     1
102
RTVSPost2010Prop30
280
     1
102
RTVSPost2010PropOp30
 70
     1
102
RTVSPost2010Prop31
280
     0
102
RTVSPost2010PropOp31
 70
     1
102
RTVSPost2010Prop32
280
     0
102
RTVSPost2010PropOp32
 70
     1
102
RTVSPost2010Prop33
280
     0
102
RTVSPost2010PropOp33
 70
     1
102
RTVSPost2010Prop34
280
     0
102
RTVSPost2010PropOp34
 70
     1
102
RTVSPost2010Prop35
280
     0
102
RTVSPost2010PropOp35
 70
     1
102
RTVSPost2010Prop36
280
     0
102
RTVSPost2010PropOp36
 70
     1
102
RTVSPost2010Prop37
 90
       50
102
RTVSPost2010PropOp37
 70
     1
102
RTVSPost2010Prop38
140
0.0
102
RTVSPost2010PropOp38
 70
     1
102
RTVSPost2010Prop39
140
1.0
102
RTVSPost2010PropOp39
 70
     1
102
RTVSPost2010Prop40
 90
        0
102
RTVSPost2010PropOp40
 70
     1
102
RTVSPost2010Prop41ColorIndex
 90
       18
102
RTVSPost2010Prop41ColorRGB
 90
        0
102
RTVSPost2010PropOp41
 70
     1
102
RTVSPost2010Prop42
 90
       50
102
RTVSPost2010PropOp42
 70
     1
102
RTVSPost2010Prop43
 90
        3
102
RTVSPost2010PropOp43
 70
     1
102
RTVSPost2010Prop44ColorIndex
 90
        5
102
RTVSPost2010Prop44ColorRGB
 90
      255
102
RTVSPost2010PropOp44
 70
     1
102
RTVSPost2010Prop45
280
     0
102
RTVSPost2010PropOp45
 70
     1
102
RTVSPost2010Prop46
 90
       50
102
RTVSPost2010PropOp46
 70
     1
102
RTVSPost2010Prop47
 90
       50
102
RTVSPost2010PropOp47
 70
     1
102
RTVSPost2010Prop48
 90
       50
102
RTVSPost2010PropOp48
 70
     1
102
RTVSPost2010Prop49
280
     0
102
RTVSPost2010PropOp49
 70
     1
102
RTVSPost2010Prop50
 90
       50
102
RTVSPost2010PropOp50
 70
     1
102
RTVSPost2010Prop51ColorIndex
 90
      256
102
RTVSPost2010Prop51ColorRGB
 90
-16777216
102
RTVSPost2010PropOp51
 70
     0
102
RTVSPost2010Prop52
140
1.0
102
RTVSPost2010PropOp52
 70
     0
102
RTVSPost2010Prop53
 90
        2
102
RTVSPost2010PropOp53
 70
     1
102
RTVSPost2010Prop54
  1
strokes_ogs.tif
102
RTVSPost2010PropOp54
 70
     1
102
RTVSPost2010Prop55
280
     0
102
RTVSPost2010PropOp55
 70
     1
102
RTVSPost2010Prop56
140
1.0
102
RTVSPost2010PropOp56
 70
     1
102
RTVSPost2010Prop57
140
1.0
102
RTVSPost2010PropOp57
 70
     1
  0
XRECORD
  5
15F
102
{ACAD_REACTORS
330
15E
102
}
330
15E
100
AcDbXrecord
280
     1
102
RTVSPropertyOp0
 70
     1
102
RTVSPropertyOp1
 70
     1
102
RTVSPropertyOp2
 70
     1
102
RTVSPropertyOp3
 70
     1
102
RTVSPropertyOp4
 70
     1
102
RTVSPropertyOp5
 70
     1
102
RTVSPropertyOp6
 70
     1
102
RTVSPropertyOp7
 70
     1
102
RTVSPropertyOp8
 70
     1
102
RTVSPropertyOp9
 70
     1
102
RTVSPropertyOp10
 70
     1
102
RTVSPropertyOp11
 70
     1
102
RTVSPropertyOp12
 70
     1
102
RTVSPropertyOp13
 70
     1
102
RTVSPropertyOp14
 70
     1
102
RTVSPropertyOp15
 70
     1
102
RTVSPropertyOp16
 70
     1
102
RTVSPropertyOp17
 70
     1
102
RTVSPropertyOp18
 70
     1
102
RTVSPropertyOp19
 70
     1
102
RTVSPropertyOp20
 70
     1
102
RTVSPropertyOp21
 70
     1
102
RTVSPropertyOp22
 70
     1
102
RTVSPropertyOp23
 70
     1
102
RTVSPropertyOp24
 70
     1
102
RTVSPropertyOp25
 70
     1
102
RTVSPropertyOp26
 70
     1
102
RTVSPropertyOp27
 70
     1
102
RTVSPropertyOp28
 70
     1
102
RTVSPropertyOp29
 70
     1
102
RTVSPropertyOp30
 70
     1
102
RTVSPropertyOp31
 70
     1
102
RTVSPropertyOp32
 70
     1
102
RTVSPropertyOp33
 70
     1
102
RTVSPropertyOp34
 70
     1
102
RTVSPropertyOp35
 70
     1
102
RTVSPropertyOp36
 70
     1
102
RTVSPropertyOp37
 70
     1
102
RTVSPropertyOp38
 70
     1
102
RTVSPropertyOp39
 70
     1
102
RTVSPropertyOp40
 70
     1
102
RTVSPropertyOp41
 70
     1
102
RTVSPropertyOp42
 70
     1
102
RTVSPropertyOp43
 70
     1
102
RTVSPropertyOp44
 70
     1
102
RTVSPropertyOp45
 70
     1
102
RTVSPropertyOp46
 70
     1
102
RTVSPropertyOp47
 70
     1
102
RTVSPropertyOp48
 70
     1
102
RTVSPropertyOp49
 70
     1
102
RTVSPropertyOp50
 70
     1
102
RTVSPropertyOp51
 70
     0
102
RTVSPropertyOp52
 70
     0
102
RTVSPropertyOp53
 70
     1
102
RTVSPropertyOp54
 70
     1
102
RTVSPropertyOp55
 70
     1
102
RTVSPropertyOp56
 70
     1
102
RTVSPropertyOp57
 70
     1
102
RTVSPost2010Prop28
280
     0
102
RTVSPost2010PropOp28
 70
     1
102
RTVSPost2010Prop29
280
     1
102
RTVSPost2010PropOp29
 70
     1
102
RTVSPost2010Prop30
280
     1
102
RTVSPost2010PropOp30
 70
     1
102
RTVSPost2010Prop31
280
     0
102
RTVSPost2010PropOp31
 70
     1
102
RTVSPost2010Prop32
280
     0
102
RTVSPost2010PropOp32
 70
     1
102
RTVSPost2010Prop33
280
     0
102
RTVSPost2010PropOp33
 70
     1
102
RTVSPost2010Prop34
280
     0
102
RTVSPost2010PropOp34
 70
     1
102
RTVSPost2010Prop35
280
     0
102
RTVSPost2010PropOp35
 70
     1
102
RTVSPost2010Prop36
280
     0
102
RTVSPost2010PropOp36
 70
     1
102
RTVSPost2010Prop37
 90
       50
102
RTVSPost2010PropOp37
 70
     1
102
RTVSPost2010Prop38
140
0.0
102
RTVSPost2010PropOp38
 70
     1
102
RTVSPost2010Prop39
140
1.0
102
RTVSPost2010PropOp39
 70
     1
102
RTVSPost2010Prop40
 90
        0
102
RTVSPost2010PropOp40
 70
     1
102
RTVSPost2010Prop41ColorIndex
 90
       18
102
RTVSPost2010Prop41ColorRGB
 90
        0
102
RTVSPost2010PropOp41
 70
     1
102
RTVSPost2010Prop42
 90
       50
102
RTVSPost2010PropOp42
 70
     1
102
RTVSPost2010Prop43
 90
        3
102
RTVSPost2010PropOp43
 70
     1
102
RTVSPost2010Prop44ColorIndex
 90
        5
102
RTVSPost2010Prop44ColorRGB
 90
      255
102
RTVSPost2010PropOp44
 70
     1
102
RTVSPost2010Prop45
280
     0
102
RTVSPost2010PropOp45
 70
     1
102
RTVSPost2010Prop46
 90
       50
102
RTVSPost2010PropOp46
 70
     1
102
RTVSPost2010Prop47
 90
       50
102
RTVSPost2010PropOp47
 70
     1
102
RTVSPost2010Prop48
 90
       50
102
RTVSPost2010PropOp48
 70
     1
102
RTVSPost2010Prop49
280
     0
102
RTVSPost2010PropOp49
 70
     1
102
RTVSPost2010Prop50
 90
       50
102
RTVSPost2010PropOp50
 70
     1
102
RTVSPost2010Prop51ColorIndex
 90
      256
102
RTVSPost2010Prop51ColorRGB
 90
-16777216
102
RTVSPost2010PropOp51
 70
     0
102
RTVSPost2010Prop52
140
1.0
102
RTVSPost2010PropOp52
 70
     0
102
RTVSPost2010Prop53
 90
        2
102
RTVSPost2010PropOp53
 70
     1
102
RTVSPost2010Prop54
  1
strokes_ogs.tif
102
RTVSPost2010PropOp54
 70
     1
102
RTVSPost2010Prop55
280
     0
102
RTVSPost2010PropOp55
 70
     1
102
RTVSPost2010Prop56
140
1.0
102
RTVSPost2010PropOp56
 70
     1
102
RTVSPost2010Prop57
140
1.0
102
RTVSPost2010PropOp57
 70
     1
  0
XRECORD
  5
161
102
{ACAD_REACTORS
330
160
102
}
330
160
100
AcDbXrecord
280
     1
102
RTVSPropertyOp0
 70
     1
102
RTVSPropertyOp1
 70
     1
102
RTVSPropertyOp2
 70
     1
102
RTVSPropertyOp3
 70
     1
102
RTVSPropertyOp4
 70
     1
102
RTVSPropertyOp5
 70
     1
102
RTVSPropertyOp6
 70
     1
102
RTVSPropertyOp7
 70
     1
102
RTVSPropertyOp8
 70
     1
102
RTVSPropertyOp9
 70
     1
102
RTVSPropertyOp10
 70
     1
102
RTVSPropertyOp11
 70
     1
102
RTVSPropertyOp12
 70
     1
102
RTVSPropertyOp13
 70
     1
102
RTVSPropertyOp14
 70
     1
102
RTVSPropertyOp15
 70
     1
102
RTVSPropertyOp16
 70
     1
102
RTVSPropertyOp17
 70
     1
102
RTVSPropertyOp18
 70
     1
102
RTVSPropertyOp19
 70
     1
102
RTVSPropertyOp20
 70
     1
102
RTVSPropertyOp21
 70
     1
102
RTVSPropertyOp22
 70
     1
102
RTVSPropertyOp23
 70
     1
102
RTVSPropertyOp24
 70
     1
102
RTVSPropertyOp25
 70
     1
102
RTVSPropertyOp26
 70
     1
102
RTVSPropertyOp27
 70
     1
102
RTVSPropertyOp28
 70
     1
102
RTVSPropertyOp29
 70
     1
102
RTVSPropertyOp30
 70
     1
102
RTVSPropertyOp31
 70
     1
102
RTVSPropertyOp32
 70
     1
102
RTVSPropertyOp33
 70
     1
102
RTVSPropertyOp34
 70
     1
102
RTVSPropertyOp35
 70
     1
102
RTVSPropertyOp36
 70
     1
102
RTVSPropertyOp37
 70
     1
102
RTVSPropertyOp38
 70
     1
102
RTVSPropertyOp39
 70
     1
102
RTVSPropertyOp40
 70
     1
102
RTVSPropertyOp41
 70
     1
102
RTVSPropertyOp42
 70
     1
102
RTVSPropertyOp43
 70
     1
102
RTVSPropertyOp44
 70
     1
102
RTVSPropertyOp45
 70
     1
102
RTVSPropertyOp46
 70
     1
102
RTVSPropertyOp47
 70
     1
102
RTVSPropertyOp48
 70
     1
102
RTVSPropertyOp49
 70
     1
102
RTVSPropertyOp50
 70
     1
102
RTVSPropertyOp51
 70
     0
102
RTVSPropertyOp52
 70
     0
102
RTVSPropertyOp53
 70
     1
102
RTVSPropertyOp54
 70
     1
102
RTVSPropertyOp55
 70
     1
102
RTVSPropertyOp56
 70
     1
102
RTVSPropertyOp57
 70
     1
102
RTVSPost2010Prop28
280
     0
102
RTVSPost2010PropOp28
 70
     1
102
RTVSPost2010Prop29
280
     1
102
RTVSPost2010PropOp29
 70
     1
102
RTVSPost2010Prop30
280
     1
102
RTVSPost2010PropOp30
 70
     1
102
RTVSPost2010Prop31
280
     0
102
RTVSPost2010PropOp31
 70
     1
102
RTVSPost2010Prop32
280
     0
102
RTVSPost2010PropOp32
 70
     1
102
RTVSPost2010Prop33
280
     0
102
RTVSPost2010PropOp33
 70
     1
102
RTVSPost2010Prop34
280
     0
102
RTVSPost2010PropOp34
 70
     1
102
RTVSPost2010Prop35
280
     0
102
RTVSPost2010PropOp35
 70
     1
102
RTVSPost2010Prop36
280
     0
102
RTVSPost2010PropOp36
 70
     1
102
RTVSPost2010Prop37
 90
       50
102
RTVSPost2010PropOp37
 70
     1
102
RTVSPost2010Prop38
140
0.0
102
RTVSPost2010PropOp38
 70
     1
102
RTVSPost2010Prop39
140
1.0
102
RTVSPost2010PropOp39
 70
     1
102
RTVSPost2010Prop40
 90
        0
102
RTVSPost2010PropOp40
 70
     1
102
RTVSPost2010Prop41ColorIndex
 90
       18
102
RTVSPost2010Prop41ColorRGB
 90
        0
102
RTVSPost2010PropOp41
 70
     1
102
RTVSPost2010Prop42
 90
       50
102
RTVSPost2010PropOp42
 70
     1
102
RTVSPost2010Prop43
 90
        3
102
RTVSPost2010PropOp43
 70
     1
102
RTVSPost2010Prop44ColorIndex
 90
        5
102
RTVSPost2010Prop44ColorRGB
 90
      255
102
RTVSPost2010PropOp44
 70
     1
102
RTVSPost2010Prop45
280
     0
102
RTVSPost2010PropOp45
 70
     1
102
RTVSPost2010Prop46
 90
       50
102
RTVSPost2010PropOp46
 70
     1
102
RTVSPost2010Prop47
 90
       50
102
RTVSPost2010PropOp47
 70
     1
102
RTVSPost2010Prop48
 90
       50
102
RTVSPost2010PropOp48
 70
     1
102
RTVSPost2010Prop49
280
     0
102
RTVSPost2010PropOp49
 70
     1
102
RTVSPost2010Prop50
 90
       50
102
RTVSPost2010PropOp50
 70
     1
102
RTVSPost2010Prop51ColorIndex
 90
      256
102
RTVSPost2010Prop51ColorRGB
 90
-16777216
102
RTVSPost2010PropOp51
 70
     0
102
RTVSPost2010Prop52
140
1.0
102
RTVSPost2010PropOp52
 70
     0
102
RTVSPost2010Prop53
 90
        2
102
RTVSPost2010PropOp53
 70
     1
102
RTVSPost2010Prop54
  1
strokes_ogs.tif
102
RTVSPost2010PropOp54
 70
     1
102
RTVSPost2010Prop55
280
     0
102
RTVSPost2010PropOp55
 70
     1
102
RTVSPost2010Prop56
140
1.0
102
RTVSPost2010PropOp56
 70
     1
102
RTVSPost2010Prop57
140
1.0
102
RTVSPost2010PropOp57
 70
     1
  0
XRECORD
  5
163
102
{ACAD_REACTORS
330
162
102
}
330
162
100
AcDbXrecord
280
     1
102
RTVSPropertyOp0
 70
     1
102
RTVSPropertyOp1
 70
     1
102
RTVSPropertyOp2
 70
     1
102
RTVSPropertyOp3
 70
     1
102
RTVSPropertyOp4
 70
     1
102
RTVSPropertyOp5
 70
     1
102
RTVSPropertyOp6
 70
     1
102
RTVSPropertyOp7
 70
     1
102
RTVSPropertyOp8
 70
     1
102
RTVSPropertyOp9
 70
     1
102
RTVSPropertyOp10
 70
     1
102
RTVSPropertyOp11
 70
     1
102
RTVSPropertyOp12
 70
     1
102
RTVSPropertyOp13
 70
     1
102
RTVSPropertyOp14
 70
     1
102
RTVSPropertyOp15
 70
     1
102
RTVSPropertyOp16
 70
     1
102
RTVSPropertyOp17
 70
     1
102
RTVSPropertyOp18
 70
     1
102
RTVSPropertyOp19
 70
     1
102
RTVSPropertyOp20
 70
     1
102
RTVSPropertyOp21
 70
     1
102
RTVSPropertyOp22
 70
     1
102
RTVSPropertyOp23
 70
     1
102
RTVSPropertyOp24
 70
     1
102
RTVSPropertyOp25
 70
     1
102
RTVSPropertyOp26
 70
     1
102
RTVSPropertyOp27
 70
     1
102
RTVSPropertyOp28
 70
     1
102
RTVSPropertyOp29
 70
     1
102
RTVSPropertyOp30
 70
     1
102
RTVSPropertyOp31
 70
     1
102
RTVSPropertyOp32
 70
     1
102
RTVSPropertyOp33
 70
     1
102
RTVSPropertyOp34
 70
     1
102
RTVSPropertyOp35
 70
     1
102
RTVSPropertyOp36
 70
     1
102
RTVSPropertyOp37
 70
     1
102
RTVSPropertyOp38
 70
     1
102
RTVSPropertyOp39
 70
     1
102
RTVSPropertyOp40
 70
     1
102
RTVSPropertyOp41
 70
     1
102
RTVSPropertyOp42
 70
     1
102
RTVSPropertyOp43
 70
     1
102
RTVSPropertyOp44
 70
     1
102
RTVSPropertyOp45
 70
     1
102
RTVSPropertyOp46
 70
     1
102
RTVSPropertyOp47
 70
     1
102
RTVSPropertyOp48
 70
     1
102
RTVSPropertyOp49
 70
     1
102
RTVSPropertyOp50
 70
     1
102
RTVSPropertyOp51
 70
     0
102
RTVSPropertyOp52
 70
     0
102
RTVSPropertyOp53
 70
     1
102
RTVSPropertyOp54
 70
     1
102
RTVSPropertyOp55
 70
     1
102
RTVSPropertyOp56
 70
     1
102
RTVSPropertyOp57
 70
     1
102
RTVSPost2010Prop28
280
     0
102
RTVSPost2010PropOp28
 70
     1
102
RTVSPost2010Prop29
280
     1
102
RTVSPost2010PropOp29
 70
     1
102
RTVSPost2010Prop30
280
     1
102
RTVSPost2010PropOp30
 70
     1
102
RTVSPost2010Prop31
280
     0
102
RTVSPost2010PropOp31
 70
     1
102
RTVSPost2010Prop32
280
     0
102
RTVSPost2010PropOp32
 70
     1
102
RTVSPost2010Prop33
280
     0
102
RTVSPost2010PropOp33
 70
     1
102
RTVSPost2010Prop34
280
     0
102
RTVSPost2010PropOp34
 70
     1
102
RTVSPost2010Prop35
280
     0
102
RTVSPost2010PropOp35
 70
     1
102
RTVSPost2010Prop36
280
     0
102
RTVSPost2010PropOp36
 70
     1
102
RTVSPost2010Prop37
 90
       50
102
RTVSPost2010PropOp37
 70
     1
102
RTVSPost2010Prop38
140
0.0
102
RTVSPost2010PropOp38
 70
     1
102
RTVSPost2010Prop39
140
1.0
102
RTVSPost2010PropOp39
 70
     1
102
RTVSPost2010Prop40
 90
        0
102
RTVSPost2010PropOp40
 70
     1
102
RTVSPost2010Prop41ColorIndex
 90
       18
102
RTVSPost2010Prop41ColorRGB
 90
        0
102
RTVSPost2010PropOp41
 70
     1
102
RTVSPost2010Prop42
 90
       50
102
RTVSPost2010PropOp42
 70
     1
102
RTVSPost2010Prop43
 90
        3
102
RTVSPost2010PropOp43
 70
     1
102
RTVSPost2010Prop44ColorIndex
 90
        5
102
RTVSPost2010Prop44ColorRGB
 90
      255
102
RTVSPost2010PropOp44
 70
     1
102
RTVSPost2010Prop45
280
     0
102
RTVSPost2010PropOp45
 70
     1
102
RTVSPost2010Prop46
 90
       50
102
RTVSPost2010PropOp46
 70
     1
102
RTVSPost2010Prop47
 90
       50
102
RTVSPost2010PropOp47
 70
     1
102
RTVSPost2010Prop48
 90
       50
102
RTVSPost2010PropOp48
 70
     1
102
RTVSPost2010Prop49
280
     0
102
RTVSPost2010PropOp49
 70
     1
102
RTVSPost2010Prop50
 90
       50
102
RTVSPost2010PropOp50
 70
     1
102
RTVSPost2010Prop51ColorIndex
 90
      256
102
RTVSPost2010Prop51ColorRGB
 90
-16777216
102
RTVSPost2010PropOp51
 70
     0
102
RTVSPost2010Prop52
140
1.0
102
RTVSPost2010PropOp52
 70
     0
102
RTVSPost2010Prop53
 90
        2
102
RTVSPost2010PropOp53
 70
     1
102
RTVSPost2010Prop54
  1
strokes_ogs.tif
102
RTVSPost2010PropOp54
 70
     1
102
RTVSPost2010Prop55
280
     0
102
RTVSPost2010PropOp55
 70
     1
102
RTVSPost2010Prop56
140
1.0
102
RTVSPost2010PropOp56
 70
     1
102
RTVSPost2010Prop57
140
1.0
102
RTVSPost2010PropOp57
 70
     1
  0
XRECORD
  5
165
102
{ACAD_REACTORS
330
164
102
}
330
164
100
AcDbXrecord
280
     1
102
RTVSPropertyOp0
 70
     1
102
RTVSPropertyOp1
 70
     1
102
RTVSPropertyOp2
 70
     1
102
RTVSPropertyOp3
 70
     1
102
RTVSPropertyOp4
 70
     1
102
RTVSPropertyOp5
 70
     1
102
RTVSPropertyOp6
 70
     1
102
RTVSPropertyOp7
 70
     1
102
RTVSPropertyOp8
 70
     1
102
RTVSPropertyOp9
 70
     1
102
RTVSPropertyOp10
 70
     1
102
RTVSPropertyOp11
 70
     1
102
RTVSPropertyOp12
 70
     1
102
RTVSPropertyOp13
 70
     1
102
RTVSPropertyOp14
 70
     1
102
RTVSPropertyOp15
 70
     1
102
RTVSPropertyOp16
 70
     1
102
RTVSPropertyOp17
 70
     1
102
RTVSPropertyOp18
 70
     1
102
RTVSPropertyOp19
 70
     1
102
RTVSPropertyOp20
 70
     1
102
RTVSPropertyOp21
 70
     1
102
RTVSPropertyOp22
 70
     1
102
RTVSPropertyOp23
 70
     1
102
RTVSPropertyOp24
 70
     1
102
RTVSPropertyOp25
 70
     1
102
RTVSPropertyOp26
 70
     1
102
RTVSPropertyOp27
 70
     1
102
RTVSPropertyOp28
 70
     1
102
RTVSPropertyOp29
 70
     1
102
RTVSPropertyOp30
 70
     1
102
RTVSPropertyOp31
 70
     1
102
RTVSPropertyOp32
 70
     1
102
RTVSPropertyOp33
 70
     1
102
RTVSPropertyOp34
 70
     1
102
RTVSPropertyOp35
 70
     1
102
RTVSPropertyOp36
 70
     1
102
RTVSPropertyOp37
 70
     1
102
RTVSPropertyOp38
 70
     1
102
RTVSPropertyOp39
 70
     1
102
RTVSPropertyOp40
 70
     1
102
RTVSPropertyOp41
 70
     1
102
RTVSPropertyOp42
 70
     1
102
RTVSPropertyOp43
 70
     1
102
RTVSPropertyOp44
 70
     1
102
RTVSPropertyOp45
 70
     1
102
RTVSPropertyOp46
 70
     1
102
RTVSPropertyOp47
 70
     1
102
RTVSPropertyOp48
 70
     1
102
RTVSPropertyOp49
 70
     1
102
RTVSPropertyOp50
 70
     1
102
RTVSPropertyOp51
 70
     0
102
RTVSPropertyOp52
 70
     0
102
RTVSPropertyOp53
 70
     1
102
RTVSPropertyOp54
 70
     1
102
RTVSPropertyOp55
 70
     1
102
RTVSPropertyOp56
 70
     1
102
RTVSPropertyOp57
 70
     1
102
RTVSPost2010Prop28
280
     0
102
RTVSPost2010PropOp28
 70
     1
102
RTVSPost2010Prop29
280
     1
102
RTVSPost2010PropOp29
 70
     1
102
RTVSPost2010Prop30
280
     1
102
RTVSPost2010PropOp30
 70
     1
102
RTVSPost2010Prop31
280
     0
102
RTVSPost2010PropOp31
 70
     1
102
RTVSPost2010Prop32
280
     0
102
RTVSPost2010PropOp32
 70
     1
102
RTVSPost2010Prop33
280
     0
102
RTVSPost2010PropOp33
 70
     1
102
RTVSPost2010Prop34
280
     0
102
RTVSPost2010PropOp34
 70
     1
102
RTVSPost2010Prop35
280
     0
102
RTVSPost2010PropOp35
 70
     1
102
RTVSPost2010Prop36
280
     0
102
RTVSPost2010PropOp36
 70
     1
102
RTVSPost2010Prop37
 90
       50
102
RTVSPost2010PropOp37
 70
     1
102
RTVSPost2010Prop38
140
0.0
102
RTVSPost2010PropOp38
 70
     1
102
RTVSPost2010Prop39
140
1.0
102
RTVSPost2010PropOp39
 70
     1
102
RTVSPost2010Prop40
 90
        0
102
RTVSPost2010PropOp40
 70
     1
102
RTVSPost2010Prop41ColorIndex
 90
       18
102
RTVSPost2010Prop41ColorRGB
 90
        0
102
RTVSPost2010PropOp41
 70
     1
102
RTVSPost2010Prop42
 90
       50
102
RTVSPost2010PropOp42
 70
     1
102
RTVSPost2010Prop43
 90
        3
102
RTVSPost2010PropOp43
 70
     1
102
RTVSPost2010Prop44ColorIndex
 90
        5
102
RTVSPost2010Prop44ColorRGB
 90
      255
102
RTVSPost2010PropOp44
 70
     1
102
RTVSPost2010Prop45
280
     0
102
RTVSPost2010PropOp45
 70
     1
102
RTVSPost2010Prop46
 90
       50
102
RTVSPost2010PropOp46
 70
     1
102
RTVSPost2010Prop47
 90
       50
102
RTVSPost2010PropOp47
 70
     1
102
RTVSPost2010Prop48
 90
       50
102
RTVSPost2010PropOp48
 70
     1
102
RTVSPost2010Prop49
280
     0
102
RTVSPost2010PropOp49
 70
     1
102
RTVSPost2010Prop50
 90
       50
102
RTVSPost2010PropOp50
 70
     1
102
RTVSPost2010Prop51ColorIndex
 90
      256
102
RTVSPost2010Prop51ColorRGB
 90
-16777216
102
RTVSPost2010PropOp51
 70
     0
102
RTVSPost2010Prop52
140
1.0
102
RTVSPost2010PropOp52
 70
     0
102
RTVSPost2010Prop53
 90
        2
102
RTVSPost2010PropOp53
 70
     1
102
RTVSPost2010Prop54
  1
strokes_ogs.tif
102
RTVSPost2010PropOp54
 70
     1
102
RTVSPost2010Prop55
280
     0
102
RTVSPost2010PropOp55
 70
     1
102
RTVSPost2010Prop56
140
1.0
102
RTVSPost2010PropOp56
 70
     1
102
RTVSPost2010Prop57
140
1.0
102
RTVSPost2010PropOp57
 70
     1
  0
XRECORD
  5
16B
102
{ACAD_REACTORS
330
16A
102
}
330
16A
100
AcDbXrecord
280
     1
102
RTVSPropertyOp0
 70
     1
102
RTVSPropertyOp1
 70
     1
102
RTVSPropertyOp2
 70
     1
102
RTVSPropertyOp3
 70
     1
102
RTVSPropertyOp4
 70
     1
102
RTVSPropertyOp5
 70
     1
102
RTVSPropertyOp6
 70
     1
102
RTVSPropertyOp7
 70
     1
102
RTVSPropertyOp8
 70
     1
102
RTVSPropertyOp9
 70
     1
102
RTVSPropertyOp10
 70
     1
102
RTVSPropertyOp11
 70
     1
102
RTVSPropertyOp12
 70
     1
102
RTVSPropertyOp13
 70
     1
102
RTVSPropertyOp14
 70
     1
102
RTVSPropertyOp15
 70
     1
102
RTVSPropertyOp16
 70
     1
102
RTVSPropertyOp17
 70
     1
102
RTVSPropertyOp18
 70
     1
102
RTVSPropertyOp19
 70
     1
102
RTVSPropertyOp20
 70
     1
102
RTVSPropertyOp21
 70
     1
102
RTVSPropertyOp22
 70
     1
102
RTVSPropertyOp23
 70
     1
102
RTVSPropertyOp24
 70
     1
102
RTVSPropertyOp25
 70
     1
102
RTVSPropertyOp26
 70
     1
102
RTVSPropertyOp27
 70
     1
102
RTVSPropertyOp28
 70
     1
102
RTVSPropertyOp29
 70
     1
102
RTVSPropertyOp30
 70
     1
102
RTVSPropertyOp31
 70
     1
102
RTVSPropertyOp32
 70
     1
102
RTVSPropertyOp33
 70
     1
102
RTVSPropertyOp34
 70
     1
102
RTVSPropertyOp35
 70
     1
102
RTVSPropertyOp36
 70
     1
102
RTVSPropertyOp37
 70
     1
102
RTVSPropertyOp38
 70
     1
102
RTVSPropertyOp39
 70
     1
102
RTVSPropertyOp40
 70
     1
102
RTVSPropertyOp41
 70
     1
102
RTVSPropertyOp42
 70
     1
102
RTVSPropertyOp43
 70
     1
102
RTVSPropertyOp44
 70
     1
102
RTVSPropertyOp45
 70
     1
102
RTVSPropertyOp46
 70
     1
102
RTVSPropertyOp47
 70
     1
102
RTVSPropertyOp48
 70
     1
102
RTVSPropertyOp49
 70
     1
102
RTVSPropertyOp50
 70
     1
102
RTVSPropertyOp51
 70
     0
102
RTVSPropertyOp52
 70
     0
102
RTVSPropertyOp53
 70
     1
102
RTVSPropertyOp54
 70
     1
102
RTVSPropertyOp55
 70
     1
102
RTVSPropertyOp56
 70
     1
102
RTVSPropertyOp57
 70
     1
102
RTVSPost2010Prop28
280
     0
102
RTVSPost2010PropOp28
 70
     1
102
RTVSPost2010Prop29
280
     1
102
RTVSPost2010PropOp29
 70
     1
102
RTVSPost2010Prop30
280
     1
102
RTVSPost2010PropOp30
 70
     1
102
RTVSPost2010Prop31
280
     0
102
RTVSPost2010PropOp31
 70
     1
102
RTVSPost2010Prop32
280
     0
102
RTVSPost2010PropOp32
 70
     1
102
RTVSPost2010Prop33
280
     0
102
RTVSPost2010PropOp33
 70
     1
102
RTVSPost2010Prop34
280
     0
102
RTVSPost2010PropOp34
 70
     1
102
RTVSPost2010Prop35
280
     0
102
RTVSPost2010PropOp35
 70
     1
102
RTVSPost2010Prop36
280
     0
102
RTVSPost2010PropOp36
 70
     1
102
RTVSPost2010Prop37
 90
       50
102
RTVSPost2010PropOp37
 70
     1
102
RTVSPost2010Prop38
140
0.0
102
RTVSPost2010PropOp38
 70
     1
102
RTVSPost2010Prop39
140
1.0
102
RTVSPost2010PropOp39
 70
     1
102
RTVSPost2010Prop40
 90
        0
102
RTVSPost2010PropOp40
 70
     1
102
RTVSPost2010Prop41ColorIndex
 90
       18
102
RTVSPost2010Prop41ColorRGB
 90
        0
102
RTVSPost2010PropOp41
 70
     1
102
RTVSPost2010Prop42
 90
       50
102
RTVSPost2010PropOp42
 70
     1
102
RTVSPost2010Prop43
 90
        3
102
RTVSPost2010PropOp43
 70
     1
102
RTVSPost2010Prop44ColorIndex
 90
        5
102
RTVSPost2010Prop44ColorRGB
 90
      255
102
RTVSPost2010PropOp44
 70
     1
102
RTVSPost2010Prop45
280
     0
102
RTVSPost2010PropOp45
 70
     1
102
RTVSPost2010Prop46
 90
       50
102
RTVSPost2010PropOp46
 70
     1
102
RTVSPost2010Prop47
 90
       50
102
RTVSPost2010PropOp47
 70
     1
102
RTVSPost2010Prop48
 90
       50
102
RTVSPost2010PropOp48
 70
     1
102
RTVSPost2010Prop49
280
     0
102
RTVSPost2010PropOp49
 70
     1
102
RTVSPost2010Prop50
 90
       50
102
RTVSPost2010PropOp50
 70
     1
102
RTVSPost2010Prop51ColorIndex
 90
      256
102
RTVSPost2010Prop51ColorRGB
 90
-16777216
102
RTVSPost2010PropOp51
 70
     0
102
RTVSPost2010Prop52
140
1.0
102
RTVSPost2010PropOp52
 70
     0
102
RTVSPost2010Prop53
 90
        2
102
RTVSPost2010PropOp53
 70
     1
102
RTVSPost2010Prop54
  1
strokes_ogs.tif
102
RTVSPost2010PropOp54
 70
     1
102
RTVSPost2010Prop55
280
     0
102
RTVSPost2010PropOp55
 70
     1
102
RTVSPost2010Prop56
140
1.0
102
RTVSPost2010PropOp56
 70
     1
102
RTVSPost2010Prop57
140
1.0
102
RTVSPost2010PropOp57
 70
     1
  0
XRECORD
  5
17F
102
{ACAD_REACTORS
330
17E
102
}
330
17E
100
AcDbXrecord
280
     1
102
RTVSPropertyOp0
 70
     0
102
RTVSPropertyOp1
 70
     0
102
RTVSPropertyOp2
 70
     0
102
RTVSPropertyOp3
 70
     0
102
RTVSPropertyOp4
 70
     0
102
RTVSPropertyOp5
 70
     0
102
RTVSPropertyOp6
 70
     0
102
RTVSPropertyOp7
 70
     0
102
RTVSPropertyOp8
 70
     0
102
RTVSPropertyOp9
 70
     0
102
RTVSPropertyOp10
 70
     0
102
RTVSPropertyOp11
 70
     0
102
RTVSPropertyOp12
 70
     0
102
RTVSPropertyOp13
 70
     0
102
RTVSPropertyOp14
 70
     2
102
RTVSPropertyOp15
 70
     0
102
RTVSPropertyOp16
 70
     0
102
RTVSPropertyOp17
 70
     0
102
RTVSPropertyOp18
 70
     0
102
RTVSPropertyOp19
 70
     0
102
RTVSPropertyOp20
 70
     0
102
RTVSPropertyOp21
 70
     0
102
RTVSPropertyOp22
 70
     0
102
RTVSPropertyOp23
 70
     0
102
RTVSPropertyOp24
 70
     0
102
RTVSPropertyOp25
 70
     0
102
RTVSPropertyOp26
 70
     0
102
RTVSPropertyOp27
 70
     0
102
RTVSPropertyOp28
 70
     0
102
RTVSPropertyOp29
 70
     0
102
RTVSPropertyOp30
 70
     0
102
RTVSPropertyOp31
 70
     0
102
RTVSPropertyOp32
 70
     0
102
RTVSPropertyOp33
 70
     0
102
RTVSPropertyOp34
 70
     0
102
RTVSPropertyOp35
 70
     0
102
RTVSPropertyOp36
 70
     0
102
RTVSPropertyOp37
 70
     0
102
RTVSPropertyOp38
 70
     0
102
RTVSPropertyOp39
 70
     0
102
RTVSPropertyOp40
 70
     0
102
RTVSPropertyOp41
 70
     0
102
RTVSPropertyOp42
 70
     0
102
RTVSPropertyOp43
 70
     0
102
RTVSPropertyOp44
 70
     0
102
RTVSPropertyOp45
 70
     0
102
RTVSPropertyOp46
 70
     0
102
RTVSPropertyOp47
 70
     0
102
RTVSPropertyOp48
 70
     0
102
RTVSPropertyOp49
 70
     0
102
RTVSPropertyOp50
 70
     0
102
RTVSPropertyOp51
 70
     0
102
RTVSPropertyOp52
 70
     0
102
RTVSPropertyOp53
 70
     0
102
RTVSPropertyOp54
 70
     0
102
RTVSPropertyOp55
 70
     0
102
RTVSPropertyOp56
 70
     0
102
RTVSPropertyOp57
 70
     0
102
RTVSPost2010Prop28
280
     0
102
RTVSPost2010PropOp28
 70
     0
102
RTVSPost2010Prop29
280
     1
102
RTVSPost2010PropOp29
 70
     0
102
RTVSPost2010Prop30
280
     1
102
RTVSPost2010PropOp30
 70
     0
102
RTVSPost2010Prop31
280
     0
102
RTVSPost2010PropOp31
 70
     0
102
RTVSPost2010Prop32
280
     0
102
RTVSPost2010PropOp32
 70
     0
102
RTVSPost2010Prop33
280
     0
102
RTVSPost2010PropOp33
 70
     0
102
RTVSPost2010Prop34
280
     0
102
RTVSPost2010PropOp34
 70
     0
102
RTVSPost2010Prop35
280
     0
102
RTVSPost2010PropOp35
 70
     0
102
RTVSPost2010Prop36
280
     0
102
RTVSPost2010PropOp36
 70
     0
102
RTVSPost2010Prop37
 90
       50
102
RTVSPost2010PropOp37
 70
     0
102
RTVSPost2010Prop38
140
0.0
102
RTVSPost2010PropOp38
 70
     0
102
RTVSPost2010Prop39
140
1.0
102
RTVSPost2010PropOp39
 70
     0
102
RTVSPost2010Prop40
 90
        0
102
RTVSPost2010PropOp40
 70
     0
102
RTVSPost2010Prop41ColorIndex
 90
       18
102
RTVSPost2010Prop41ColorRGB
 90
        0
102
RTVSPost2010PropOp41
 70
     0
102
RTVSPost2010Prop42
 90
       50
102
RTVSPost2010PropOp42
 70
     0
102
RTVSPost2010Prop43
 90
        3
102
RTVSPost2010PropOp43
 70
     0
102
RTVSPost2010Prop44ColorIndex
 90
        5
102
RTVSPost2010Prop44ColorRGB
 90
      255
102
RTVSPost2010PropOp44
 70
     0
102
RTVSPost2010Prop45
280
     0
102
RTVSPost2010PropOp45
 70
     0
102
RTVSPost2010Prop46
 90
       50
102
RTVSPost2010PropOp46
 70
     0
102
RTVSPost2010Prop47
 90
       50
102
RTVSPost2010PropOp47
 70
     0
102
RTVSPost2010Prop48
 90
       50
102
RTVSPost2010PropOp48
 70
     0
102
RTVSPost2010Prop49
280
     0
102
RTVSPost2010PropOp49
 70
     0
102
RTVSPost2010Prop50
 90
       50
102
RTVSPost2010PropOp50
 70
     0
102
RTVSPost2010Prop51ColorIndex
 90
      256
102
RTVSPost2010Prop51ColorRGB
 90
-16777216
102
RTVSPost2010PropOp51
 70
     0
102
RTVSPost2010Prop52
140
1.0
102
RTVSPost2010PropOp52
 70
     0
102
RTVSPost2010Prop53
 90
        2
102
RTVSPost2010PropOp53
 70
     0
102
RTVSPost2010Prop54
  1
strokes_ogs.tif
102
RTVSPost2010PropOp54
 70
     0
102
RTVSPost2010Prop55
280
     0
102
RTVSPost2010PropOp55
 70
     0
102
RTVSPost2010Prop56
140
1.0
102
RTVSPost2010PropOp56
 70
     0
102
RTVSPost2010Prop57
140
1.0
102
RTVSPost2010PropOp57
 70
     0
  0
XRECORD
  5
179
102
{ACAD_REACTORS
330
178
102
}
330
178
100
AcDbXrecord
280
     1
102
RTVSPropertyOp0
 70
     1
102
RTVSPropertyOp1
 70
     1
102
RTVSPropertyOp2
 70
     1
102
RTVSPropertyOp3
 70
     1
102
RTVSPropertyOp4
 70
     1
102
RTVSPropertyOp5
 70
     1
102
RTVSPropertyOp6
 70
     1
102
RTVSPropertyOp7
 70
     1
102
RTVSPropertyOp8
 70
     1
102
RTVSPropertyOp9
 70
     1
102
RTVSPropertyOp10
 70
     1
102
RTVSPropertyOp11
 70
     1
102
RTVSPropertyOp12
 70
     1
102
RTVSPropertyOp13
 70
     1
102
RTVSPropertyOp14
 70
     1
102
RTVSPropertyOp15
 70
     1
102
RTVSPropertyOp16
 70
     1
102
RTVSPropertyOp17
 70
     1
102
RTVSPropertyOp18
 70
     1
102
RTVSPropertyOp19
 70
     1
102
RTVSPropertyOp20
 70
     1
102
RTVSPropertyOp21
 70
     1
102
RTVSPropertyOp22
 70
     1
102
RTVSPropertyOp23
 70
     1
102
RTVSPropertyOp24
 70
     1
102
RTVSPropertyOp25
 70
     1
102
RTVSPropertyOp26
 70
     1
102
RTVSPropertyOp27
 70
     1
102
RTVSPropertyOp28
 70
     1
102
RTVSPropertyOp29
 70
     1
102
RTVSPropertyOp30
 70
     1
102
RTVSPropertyOp31
 70
     1
102
RTVSPropertyOp32
 70
     1
102
RTVSPropertyOp33
 70
     1
102
RTVSPropertyOp34
 70
     1
102
RTVSPropertyOp35
 70
     1
102
RTVSPropertyOp36
 70
     1
102
RTVSPropertyOp37
 70
     1
102
RTVSPropertyOp38
 70
     1
102
RTVSPropertyOp39
 70
     1
102
RTVSPropertyOp40
 70
     1
102
RTVSPropertyOp41
 70
     1
102
RTVSPropertyOp42
 70
     1
102
RTVSPropertyOp43
 70
     1
102
RTVSPropertyOp44
 70
     1
102
RTVSPropertyOp45
 70
     1
102
RTVSPropertyOp46
 70
     1
102
RTVSPropertyOp47
 70
     1
102
RTVSPropertyOp48
 70
     1
102
RTVSPropertyOp49
 70
     1
102
RTVSPropertyOp50
 70
     1
102
RTVSPropertyOp51
 70
     0
102
RTVSPropertyOp52
 70
     0
102
RTVSPropertyOp53
 70
     1
102
RTVSPropertyOp54
 70
     1
102
RTVSPropertyOp55
 70
     1
102
RTVSPropertyOp56
 70
     1
102
RTVSPropertyOp57
 70
     1
102
RTVSPost2010Prop28
280
     0
102
RTVSPost2010PropOp28
 70
     1
102
RTVSPost2010Prop29
280
     1
102
RTVSPost2010PropOp29
 70
     1
102
RTVSPost2010Prop30
280
     1
102
RTVSPost2010PropOp30
 70
     1
102
RTVSPost2010Prop31
280
     0
102
RTVSPost2010PropOp31
 70
     1
102
RTVSPost2010Prop32
280
     0
102
RTVSPost2010PropOp32
 70
     1
102
RTVSPost2010Prop33
280
     0
102
RTVSPost2010PropOp33
 70
     1
102
RTVSPost2010Prop34
280
     0
102
RTVSPost2010PropOp34
 70
     1
102
RTVSPost2010Prop35
280
     0
102
RTVSPost2010PropOp35
 70
     1
102
RTVSPost2010Prop36
280
     0
102
RTVSPost2010PropOp36
 70
     1
102
RTVSPost2010Prop37
 90
       50
102
RTVSPost2010PropOp37
 70
     1
102
RTVSPost2010Prop38
140
0.0
102
RTVSPost2010PropOp38
 70
     1
102
RTVSPost2010Prop39
140
1.0
102
RTVSPost2010PropOp39
 70
     1
102
RTVSPost2010Prop40
 90
        0
102
RTVSPost2010PropOp40
 70
     1
102
RTVSPost2010Prop41ColorIndex
 90
       18
102
RTVSPost2010Prop41ColorRGB
 90
        0
102
RTVSPost2010PropOp41
 70
     1
102
RTVSPost2010Prop42
 90
       50
102
RTVSPost2010PropOp42
 70
     1
102
RTVSPost2010Prop43
 90
        3
102
RTVSPost2010PropOp43
 70
     1
102
RTVSPost2010Prop44ColorIndex
 90
        5
102
RTVSPost2010Prop44ColorRGB
 90
      255
102
RTVSPost2010PropOp44
 70
     1
102
RTVSPost2010Prop45
280
     0
102
RTVSPost2010PropOp45
 70
     1
102
RTVSPost2010Prop46
 90
       50
102
RTVSPost2010PropOp46
 70
     1
102
RTVSPost2010Prop47
 90
       50
102
RTVSPost2010PropOp47
 70
     1
102
RTVSPost2010Prop48
 90
       50
102
RTVSPost2010PropOp48
 70
     1
102
RTVSPost2010Prop49
280
     0
102
RTVSPost2010PropOp49
 70
     1
102
RTVSPost2010Prop50
 90
       50
102
RTVSPost2010PropOp50
 70
     1
102
RTVSPost2010Prop51ColorIndex
 90
      256
102
RTVSPost2010Prop51ColorRGB
 90
-16777216
102
RTVSPost2010PropOp51
 70
     0
102
RTVSPost2010Prop52
140
1.0
102
RTVSPost2010PropOp52
 70
     0
102
RTVSPost2010Prop53
 90
        2
102
RTVSPost2010PropOp53
 70
     1
102
RTVSPost2010Prop54
  1
strokes_ogs.tif
102
RTVSPost2010PropOp54
 70
     1
102
RTVSPost2010Prop55
280
     0
102
RTVSPost2010PropOp55
 70
     1
102
RTVSPost2010Prop56
140
1.0
102
RTVSPost2010PropOp56
 70
     1
102
RTVSPost2010Prop57
140
1.0
102
RTVSPost2010PropOp57
 70
     1
  0
XRECORD
  5
181
102
{ACAD_REACTORS
330
180
102
}
330
180
100
AcDbXrecord
280
     1
102
RTVSPropertyOp0
 70
     0
102
RTVSPropertyOp1
 70
     0
102
RTVSPropertyOp2
 70
     0
102
RTVSPropertyOp3
 70
     0
102
RTVSPropertyOp4
 70
     0
102
RTVSPropertyOp5
 70
     0
102
RTVSPropertyOp6
 70
     0
102
RTVSPropertyOp7
 70
     0
102
RTVSPropertyOp8
 70
     0
102
RTVSPropertyOp9
 70
     0
102
RTVSPropertyOp10
 70
     0
102
RTVSPropertyOp11
 70
     0
102
RTVSPropertyOp12
 70
     0
102
RTVSPropertyOp13
 70
     0
102
RTVSPropertyOp14
 70
     2
102
RTVSPropertyOp15
 70
     0
102
RTVSPropertyOp16
 70
     0
102
RTVSPropertyOp17
 70
     0
102
RTVSPropertyOp18
 70
     0
102
RTVSPropertyOp19
 70
     0
102
RTVSPropertyOp20
 70
     0
102
RTVSPropertyOp21
 70
     0
102
RTVSPropertyOp22
 70
     0
102
RTVSPropertyOp23
 70
     0
102
RTVSPropertyOp24
 70
     0
102
RTVSPropertyOp25
 70
     0
102
RTVSPropertyOp26
 70
     0
102
RTVSPropertyOp27
 70
     0
102
RTVSPropertyOp28
 70
     0
102
RTVSPropertyOp29
 70
     0
102
RTVSPropertyOp30
 70
     0
102
RTVSPropertyOp31
 70
     0
102
RTVSPropertyOp32
 70
     0
102
RTVSPropertyOp33
 70
     0
102
RTVSPropertyOp34
 70
     0
102
RTVSPropertyOp35
 70
     0
102
RTVSPropertyOp36
 70
     0
102
RTVSPropertyOp37
 70
     0
102
RTVSPropertyOp38
 70
     0
102
RTVSPropertyOp39
 70
     0
102
RTVSPropertyOp40
 70
     0
102
RTVSPropertyOp41
 70
     0
102
RTVSPropertyOp42
 70
     0
102
RTVSPropertyOp43
 70
     0
102
RTVSPropertyOp44
 70
     0
102
RTVSPropertyOp45
 70
     0
102
RTVSPropertyOp46
 70
     0
102
RTVSPropertyOp47
 70
     0
102
RTVSPropertyOp48
 70
     0
102
RTVSPropertyOp49
 70
     0
102
RTVSPropertyOp50
 70
     0
102
RTVSPropertyOp51
 70
     0
102
RTVSPropertyOp52
 70
     0
102
RTVSPropertyOp53
 70
     0
102
RTVSPropertyOp54
 70
     0
102
RTVSPropertyOp55
 70
     0
102
RTVSPropertyOp56
 70
     0
102
RTVSPropertyOp57
 70
     0
102
RTVSPost2010Prop28
280
     0
102
RTVSPost2010PropOp28
 70
     0
102
RTVSPost2010Prop29
280
     1
102
RTVSPost2010PropOp29
 70
     0
102
RTVSPost2010Prop30
280
     1
102
RTVSPost2010PropOp30
 70
     0
102
RTVSPost2010Prop31
280
     0
102
RTVSPost2010PropOp31
 70
     0
102
RTVSPost2010Prop32
280
     0
102
RTVSPost2010PropOp32
 70
     0
102
RTVSPost2010Prop33
280
     0
102
RTVSPost2010PropOp33
 70
     0
102
RTVSPost2010Prop34
280
     0
102
RTVSPost2010PropOp34
 70
     0
102
RTVSPost2010Prop35
280
     0
102
RTVSPost2010PropOp35
 70
     0
102
RTVSPost2010Prop36
280
     0
102
RTVSPost2010PropOp36
 70
     0
102
RTVSPost2010Prop37
 90
       50
102
RTVSPost2010PropOp37
 70
     0
102
RTVSPost2010Prop38
140
0.0
102
RTVSPost2010PropOp38
 70
     0
102
RTVSPost2010Prop39
140
1.0
102
RTVSPost2010PropOp39
 70
     0
102
RTVSPost2010Prop40
 90
        0
102
RTVSPost2010PropOp40
 70
     0
102
RTVSPost2010Prop41ColorIndex
 90
       18
102
RTVSPost2010Prop41ColorRGB
 90
        0
102
RTVSPost2010PropOp41
 70
     0
102
RTVSPost2010Prop42
 90
       50
102
RTVSPost2010PropOp42
 70
     0
102
RTVSPost2010Prop43
 90
        3
102
RTVSPost2010PropOp43
 70
     0
102
RTVSPost2010Prop44ColorIndex
 90
        5
102
RTVSPost2010Prop44ColorRGB
 90
      255
102
RTVSPost2010PropOp44
 70
     0
102
RTVSPost2010Prop45
280
     0
102
RTVSPost2010PropOp45
 70
     0
102
RTVSPost2010Prop46
 90
       50
102
RTVSPost2010PropOp46
 70
     0
102
RTVSPost2010Prop47
 90
       50
102
RTVSPost2010PropOp47
 70
     0
102
RTVSPost2010Prop48
 90
       50
102
RTVSPost2010PropOp48
 70
     0
102
RTVSPost2010Prop49
280
     0
102
RTVSPost2010PropOp49
 70
     0
102
RTVSPost2010Prop50
 90
       50
102
RTVSPost2010PropOp50
 70
     0
102
RTVSPost2010Prop51ColorIndex
 90
      256
102
RTVSPost2010Prop51ColorRGB
 90
-16777216
102
RTVSPost2010PropOp51
 70
     0
102
RTVSPost2010Prop52
140
1.0
102
RTVSPost2010PropOp52
 70
     0
102
RTVSPost2010Prop53
 90
        2
102
RTVSPost2010PropOp53
 70
     0
102
RTVSPost2010Prop54
  1
strokes_ogs.tif
102
RTVSPost2010PropOp54
 70
     0
102
RTVSPost2010Prop55
280
     0
102
RTVSPost2010PropOp55
 70
     0
102
RTVSPost2010Prop56
140
1.0
102
RTVSPost2010PropOp56
 70
     0
102
RTVSPost2010Prop57
140
1.0
102
RTVSPost2010PropOp57
 70
     0
  0
XRECORD
  5
16F
102
{ACAD_REACTORS
330
16E
102
}
330
16E
100
AcDbXrecord
280
     1
102
RTVSPropertyOp0
 70
     1
102
RTVSPropertyOp1
 70
     1
102
RTVSPropertyOp2
 70
     1
102
RTVSPropertyOp3
 70
     1
102
RTVSPropertyOp4
 70
     1
102
RTVSPropertyOp5
 70
     1
102
RTVSPropertyOp6
 70
     1
102
RTVSPropertyOp7
 70
     1
102
RTVSPropertyOp8
 70
     1
102
RTVSPropertyOp9
 70
     1
102
RTVSPropertyOp10
 70
     1
102
RTVSPropertyOp11
 70
     1
102
RTVSPropertyOp12
 70
     1
102
RTVSPropertyOp13
 70
     1
102
RTVSPropertyOp14
 70
     1
102
RTVSPropertyOp15
 70
     1
102
RTVSPropertyOp16
 70
     1
102
RTVSPropertyOp17
 70
     1
102
RTVSPropertyOp18
 70
     1
102
RTVSPropertyOp19
 70
     1
102
RTVSPropertyOp20
 70
     1
102
RTVSPropertyOp21
 70
     1
102
RTVSPropertyOp22
 70
     1
102
RTVSPropertyOp23
 70
     1
102
RTVSPropertyOp24
 70
     1
102
RTVSPropertyOp25
 70
     1
102
RTVSPropertyOp26
 70
     1
102
RTVSPropertyOp27
 70
     1
102
RTVSPropertyOp28
 70
     1
102
RTVSPropertyOp29
 70
     1
102
RTVSPropertyOp30
 70
     1
102
RTVSPropertyOp31
 70
     1
102
RTVSPropertyOp32
 70
     1
102
RTVSPropertyOp33
 70
     1
102
RTVSPropertyOp34
 70
     1
102
RTVSPropertyOp35
 70
     1
102
RTVSPropertyOp36
 70
     1
102
RTVSPropertyOp37
 70
     1
102
RTVSPropertyOp38
 70
     1
102
RTVSPropertyOp39
 70
     1
102
RTVSPropertyOp40
 70
     1
102
RTVSPropertyOp41
 70
     1
102
RTVSPropertyOp42
 70
     1
102
RTVSPropertyOp43
 70
     1
102
RTVSPropertyOp44
 70
     1
102
RTVSPropertyOp45
 70
     1
102
RTVSPropertyOp46
 70
     1
102
RTVSPropertyOp47
 70
     1
102
RTVSPropertyOp48
 70
     1
102
RTVSPropertyOp49
 70
     1
102
RTVSPropertyOp50
 70
     1
102
RTVSPropertyOp51
 70
     0
102
RTVSPropertyOp52
 70
     0
102
RTVSPropertyOp53
 70
     1
102
RTVSPropertyOp54
 70
     1
102
RTVSPropertyOp55
 70
     1
102
RTVSPropertyOp56
 70
     1
102
RTVSPropertyOp57
 70
     1
102
RTVSPost2010Prop28
280
     0
102
RTVSPost2010PropOp28
 70
     1
102
RTVSPost2010Prop29
280
     1
102
RTVSPost2010PropOp29
 70
     1
102
RTVSPost2010Prop30
280
     1
102
RTVSPost2010PropOp30
 70
     1
102
RTVSPost2010Prop31
280
     0
102
RTVSPost2010PropOp31
 70
     1
102
RTVSPost2010Prop32
280
     0
102
RTVSPost2010PropOp32
 70
     1
102
RTVSPost2010Prop33
280
     0
102
RTVSPost2010PropOp33
 70
     1
102
RTVSPost2010Prop34
280
     0
102
RTVSPost2010PropOp34
 70
     1
102
RTVSPost2010Prop35
280
     0
102
RTVSPost2010PropOp35
 70
     1
102
RTVSPost2010Prop36
280
     0
102
RTVSPost2010PropOp36
 70
     1
102
RTVSPost2010Prop37
 90
       50
102
RTVSPost2010PropOp37
 70
     1
102
RTVSPost2010Prop38
140
0.0
102
RTVSPost2010PropOp38
 70
     1
102
RTVSPost2010Prop39
140
1.0
102
RTVSPost2010PropOp39
 70
     1
102
RTVSPost2010Prop40
 90
        0
102
RTVSPost2010PropOp40
 70
     1
102
RTVSPost2010Prop41ColorIndex
 90
       18
102
RTVSPost2010Prop41ColorRGB
 90
        0
102
RTVSPost2010PropOp41
 70
     1
102
RTVSPost2010Prop42
 90
       50
102
RTVSPost2010PropOp42
 70
     1
102
RTVSPost2010Prop43
 90
        3
102
RTVSPost2010PropOp43
 70
     1
102
RTVSPost2010Prop44ColorIndex
 90
        5
102
RTVSPost2010Prop44ColorRGB
 90
      255
102
RTVSPost2010PropOp44
 70
     1
102
RTVSPost2010Prop45
280
     0
102
RTVSPost2010PropOp45
 70
     1
102
RTVSPost2010Prop46
 90
       50
102
RTVSPost2010PropOp46
 70
     1
102
RTVSPost2010Prop47
 90
       50
102
RTVSPost2010PropOp47
 70
     1
102
RTVSPost2010Prop48
 90
       50
102
RTVSPost2010PropOp48
 70
     1
102
RTVSPost2010Prop49
280
     0
102
RTVSPost2010PropOp49
 70
     1
102
RTVSPost2010Prop50
 90
       50
102
RTVSPost2010PropOp50
 70
     1
102
RTVSPost2010Prop51ColorIndex
 90
      256
102
RTVSPost2010Prop51ColorRGB
 90
-16777216
102
RTVSPost2010PropOp51
 70
     0
102
RTVSPost2010Prop52
140
1.0
102
RTVSPost2010PropOp52
 70
     0
102
RTVSPost2010Prop53
 90
        2
102
RTVSPost2010PropOp53
 70
     1
102
RTVSPost2010Prop54
  1
strokes_ogs.tif
102
RTVSPost2010PropOp54
 70
     1
102
RTVSPost2010Prop55
280
     0
102
RTVSPost2010PropOp55
 70
     1
102
RTVSPost2010Prop56
140
1.0
102
RTVSPost2010PropOp56
 70
     1
102
RTVSPost2010Prop57
140
1.0
102
RTVSPost2010PropOp57
 70
     1
  0
XRECORD
  5
18D
102
{ACAD_REACTORS
330
18C
102
}
330
18C
100
AcDbXrecord
280
     1
102
RTVSPropertyOp0
 70
     1
102
RTVSPropertyOp1
 70
     1
102
RTVSPropertyOp2
 70
     1
102
RTVSPropertyOp3
 70
     1
102
RTVSPropertyOp4
 70
     1
102
RTVSPropertyOp5
 70
     1
102
RTVSPropertyOp6
 70
     1
102
RTVSPropertyOp7
 70
     1
102
RTVSPropertyOp8
 70
     1
102
RTVSPropertyOp9
 70
     1
102
RTVSPropertyOp10
 70
     1
102
RTVSPropertyOp11
 70
     1
102
RTVSPropertyOp12
 70
     1
102
RTVSPropertyOp13
 70
     1
102
RTVSPropertyOp14
 70
     1
102
RTVSPropertyOp15
 70
     1
102
RTVSPropertyOp16
 70
     1
102
RTVSPropertyOp17
 70
     1
102
RTVSPropertyOp18
 70
     1
102
RTVSPropertyOp19
 70
     1
102
RTVSPropertyOp20
 70
     1
102
RTVSPropertyOp21
 70
     1
102
RTVSPropertyOp22
 70
     1
102
RTVSPropertyOp23
 70
     1
102
RTVSPropertyOp24
 70
     1
102
RTVSPropertyOp25
 70
     1
102
RTVSPropertyOp26
 70
     1
102
RTVSPropertyOp27
 70
     1
102
RTVSPropertyOp28
 70
     1
102
RTVSPropertyOp29
 70
     1
102
RTVSPropertyOp30
 70
     1
102
RTVSPropertyOp31
 70
     1
102
RTVSPropertyOp32
 70
     1
102
RTVSPropertyOp33
 70
     1
102
RTVSPropertyOp34
 70
     1
102
RTVSPropertyOp35
 70
     1
102
RTVSPropertyOp36
 70
     1
102
RTVSPropertyOp37
 70
     1
102
RTVSPropertyOp38
 70
     1
102
RTVSPropertyOp39
 70
     1
102
RTVSPropertyOp40
 70
     1
102
RTVSPropertyOp41
 70
     1
102
RTVSPropertyOp42
 70
     1
102
RTVSPropertyOp43
 70
     1
102
RTVSPropertyOp44
 70
     1
102
RTVSPropertyOp45
 70
     1
102
RTVSPropertyOp46
 70
     1
102
RTVSPropertyOp47
 70
     1
102
RTVSPropertyOp48
 70
     1
102
RTVSPropertyOp49
 70
     1
102
RTVSPropertyOp50
 70
     1
102
RTVSPropertyOp51
 70
     0
102
RTVSPropertyOp52
 70
     0
102
RTVSPropertyOp53
 70
     1
102
RTVSPropertyOp54
 70
     1
102
RTVSPropertyOp55
 70
     1
102
RTVSPropertyOp56
 70
     1
102
RTVSPropertyOp57
 70
     1
102
RTVSPost2010Prop28
280
     0
102
RTVSPost2010PropOp28
 70
     1
102
RTVSPost2010Prop29
280
     1
102
RTVSPost2010PropOp29
 70
     1
102
RTVSPost2010Prop30
280
     1
102
RTVSPost2010PropOp30
 70
     1
102
RTVSPost2010Prop31
280
     0
102
RTVSPost2010PropOp31
 70
     1
102
RTVSPost2010Prop32
280
     0
102
RTVSPost2010PropOp32
 70
     1
102
RTVSPost2010Prop33
280
     0
102
RTVSPost2010PropOp33
 70
     1
102
RTVSPost2010Prop34
280
     0
102
RTVSPost2010PropOp34
 70
     1
102
RTVSPost2010Prop35
280
     0
102
RTVSPost2010PropOp35
 70
     1
102
RTVSPost2010Prop36
280
     0
102
RTVSPost2010PropOp36
 70
     1
102
RTVSPost2010Prop37
 90
       50
102
RTVSPost2010PropOp37
 70
     1
102
RTVSPost2010Prop38
140
0.0
102
RTVSPost2010PropOp38
 70
     1
102
RTVSPost2010Prop39
140
1.0
102
RTVSPost2010PropOp39
 70
     1
102
RTVSPost2010Prop40
 90
        0
102
RTVSPost2010PropOp40
 70
     1
102
RTVSPost2010Prop41ColorIndex
 90
       18
102
RTVSPost2010Prop41ColorRGB
 90
        0
102
RTVSPost2010PropOp41
 70
     1
102
RTVSPost2010Prop42
 90
       50
102
RTVSPost2010PropOp42
 70
     1
102
RTVSPost2010Prop43
 90
        3
102
RTVSPost2010PropOp43
 70
     1
102
RTVSPost2010Prop44ColorIndex
 90
        5
102
RTVSPost2010Prop44ColorRGB
 90
      255
102
RTVSPost2010PropOp44
 70
     1
102
RTVSPost2010Prop45
280
     0
102
RTVSPost2010PropOp45
 70
     1
102
RTVSPost2010Prop46
 90
       50
102
RTVSPost2010PropOp46
 70
     1
102
RTVSPost2010Prop47
 90
       50
102
RTVSPost2010PropOp47
 70
     1
102
RTVSPost2010Prop48
 90
       50
102
RTVSPost2010PropOp48
 70
     1
102
RTVSPost2010Prop49
280
     0
102
RTVSPost2010PropOp49
 70
     1
102
RTVSPost2010Prop50
 90
       50
102
RTVSPost2010PropOp50
 70
     1
102
RTVSPost2010Prop51ColorIndex
 90
      256
102
RTVSPost2010Prop51ColorRGB
 90
-16777216
102
RTVSPost2010PropOp51
 70
     0
102
RTVSPost2010Prop52
140
1.0
102
RTVSPost2010PropOp52
 70
     0
102
RTVSPost2010Prop53
 90
        2
102
RTVSPost2010PropOp53
 70
     1
102
RTVSPost2010Prop54
  1
strokes_ogs.tif
102
RTVSPost2010PropOp54
 70
     1
102
RTVSPost2010Prop55
280
     0
102
RTVSPost2010PropOp55
 70
     1
102
RTVSPost2010Prop56
140
1.0
102
RTVSPost2010PropOp56
 70
     1
102
RTVSPost2010Prop57
140
1.0
102
RTVSPost2010PropOp57
 70
     1
  0
XRECORD
  5
18B
102
{ACAD_REACTORS
330
18A
102
}
330
18A
100
AcDbXrecord
280
     1
102
RTVSPropertyOp0
 70
     1
102
RTVSPropertyOp1
 70
     1
102
RTVSPropertyOp2
 70
     1
102
RTVSPropertyOp3
 70
     1
102
RTVSPropertyOp4
 70
     1
102
RTVSPropertyOp5
 70
     1
102
RTVSPropertyOp6
 70
     1
102
RTVSPropertyOp7
 70
     1
102
RTVSPropertyOp8
 70
     1
102
RTVSPropertyOp9
 70
     1
102
RTVSPropertyOp10
 70
     1
102
RTVSPropertyOp11
 70
     1
102
RTVSPropertyOp12
 70
     1
102
RTVSPropertyOp13
 70
     1
102
RTVSPropertyOp14
 70
     1
102
RTVSPropertyOp15
 70
     1
102
RTVSPropertyOp16
 70
     1
102
RTVSPropertyOp17
 70
     1
102
RTVSPropertyOp18
 70
     1
102
RTVSPropertyOp19
 70
     1
102
RTVSPropertyOp20
 70
     1
102
RTVSPropertyOp21
 70
     1
102
RTVSPropertyOp22
 70
     1
102
RTVSPropertyOp23
 70
     1
102
RTVSPropertyOp24
 70
     1
102
RTVSPropertyOp25
 70
     1
102
RTVSPropertyOp26
 70
     1
102
RTVSPropertyOp27
 70
     1
102
RTVSPropertyOp28
 70
     1
102
RTVSPropertyOp29
 70
     1
102
RTVSPropertyOp30
 70
     1
102
RTVSPropertyOp31
 70
     1
102
RTVSPropertyOp32
 70
     1
102
RTVSPropertyOp33
 70
     1
102
RTVSPropertyOp34
 70
     1
102
RTVSPropertyOp35
 70
     1
102
RTVSPropertyOp36
 70
     1
102
RTVSPropertyOp37
 70
     1
102
RTVSPropertyOp38
 70
     1
102
RTVSPropertyOp39
 70
     1
102
RTVSPropertyOp40
 70
     1
102
RTVSPropertyOp41
 70
     1
102
RTVSPropertyOp42
 70
     1
102
RTVSPropertyOp43
 70
     1
102
RTVSPropertyOp44
 70
     1
102
RTVSPropertyOp45
 70
     1
102
RTVSPropertyOp46
 70
     1
102
RTVSPropertyOp47
 70
     1
102
RTVSPropertyOp48
 70
     1
102
RTVSPropertyOp49
 70
     1
102
RTVSPropertyOp50
 70
     1
102
RTVSPropertyOp51
 70
     0
102
RTVSPropertyOp52
 70
     0
102
RTVSPropertyOp53
 70
     1
102
RTVSPropertyOp54
 70
     1
102
RTVSPropertyOp55
 70
     1
102
RTVSPropertyOp56
 70
     1
102
RTVSPropertyOp57
 70
     1
102
RTVSPost2010Prop28
280
     0
102
RTVSPost2010PropOp28
 70
     1
102
RTVSPost2010Prop29
280
     1
102
RTVSPost2010PropOp29
 70
     1
102
RTVSPost2010Prop30
280
     1
102
RTVSPost2010PropOp30
 70
     1
102
RTVSPost2010Prop31
280
     0
102
RTVSPost2010PropOp31
 70
     1
102
RTVSPost2010Prop32
280
     0
102
RTVSPost2010PropOp32
 70
     1
102
RTVSPost2010Prop33
280
     0
102
RTVSPost2010PropOp33
 70
     1
102
RTVSPost2010Prop34
280
     0
102
RTVSPost2010PropOp34
 70
     1
102
RTVSPost2010Prop35
280
     0
102
RTVSPost2010PropOp35
 70
     1
102
RTVSPost2010Prop36
280
     0
102
RTVSPost2010PropOp36
 70
     1
102
RTVSPost2010Prop37
 90
       50
102
RTVSPost2010PropOp37
 70
     1
102
RTVSPost2010Prop38
140
0.0
102
RTVSPost2010PropOp38
 70
     1
102
RTVSPost2010Prop39
140
1.0
102
RTVSPost2010PropOp39
 70
     1
102
RTVSPost2010Prop40
 90
        0
102
RTVSPost2010PropOp40
 70
     1
102
RTVSPost2010Prop41ColorIndex
 90
       18
102
RTVSPost2010Prop41ColorRGB
 90
        0
102
RTVSPost2010PropOp41
 70
     1
102
RTVSPost2010Prop42
 90
       50
102
RTVSPost2010PropOp42
 70
     1
102
RTVSPost2010Prop43
 90
        3
102
RTVSPost2010PropOp43
 70
     1
102
RTVSPost2010Prop44ColorIndex
 90
        5
102
RTVSPost2010Prop44ColorRGB
 90
      255
102
RTVSPost2010PropOp44
 70
     1
102
RTVSPost2010Prop45
280
     0
102
RTVSPost2010PropOp45
 70
     1
102
RTVSPost2010Prop46
 90
       50
102
RTVSPost2010PropOp46
 70
     1
102
RTVSPost2010Prop47
 90
       50
102
RTVSPost2010PropOp47
 70
     1
102
RTVSPost2010Prop48
 90
       50
102
RTVSPost2010PropOp48
 70
     1
102
RTVSPost2010Prop49
280
     0
102
RTVSPost2010PropOp49
 70
     1
102
RTVSPost2010Prop50
 90
       50
102
RTVSPost2010PropOp50
 70
     1
102
RTVSPost2010Prop51ColorIndex
 90
      256
102
RTVSPost2010Prop51ColorRGB
 90
-16777216
102
RTVSPost2010PropOp51
 70
     0
102
RTVSPost2010Prop52
140
1.0
102
RTVSPost2010PropOp52
 70
     0
102
RTVSPost2010Prop53
 90
        2
102
RTVSPost2010PropOp53
 70
     1
102
RTVSPost2010Prop54
  1
strokes_ogs.tif
102
RTVSPost2010PropOp54
 70
     1
102
RTVSPost2010Prop55
280
     0
102
RTVSPost2010PropOp55
 70
     1
102
RTVSPost2010Prop56
140
1.0
102
RTVSPost2010PropOp56
 70
     1
102
RTVSPost2010Prop57
140
1.0
102
RTVSPost2010PropOp57
 70
     1
  0
XRECORD
  5
185
102
{ACAD_REACTORS
330
184
102
}
330
184
100
AcDbXrecord
280
     1
102
RTVSPropertyOp0
 70
     1
102
RTVSPropertyOp1
 70
     1
102
RTVSPropertyOp2
 70
     1
102
RTVSPropertyOp3
 70
     1
102
RTVSPropertyOp4
 70
     1
102
RTVSPropertyOp5
 70
     1
102
RTVSPropertyOp6
 70
     1
102
RTVSPropertyOp7
 70
     1
102
RTVSPropertyOp8
 70
     1
102
RTVSPropertyOp9
 70
     1
102
RTVSPropertyOp10
 70
     1
102
RTVSPropertyOp11
 70
     1
102
RTVSPropertyOp12
 70
     1
102
RTVSPropertyOp13
 70
     1
102
RTVSPropertyOp14
 70
     1
102
RTVSPropertyOp15
 70
     1
102
RTVSPropertyOp16
 70
     1
102
RTVSPropertyOp17
 70
     1
102
RTVSPropertyOp18
 70
     1
102
RTVSPropertyOp19
 70
     1
102
RTVSPropertyOp20
 70
     1
102
RTVSPropertyOp21
 70
     1
102
RTVSPropertyOp22
 70
     1
102
RTVSPropertyOp23
 70
     1
102
RTVSPropertyOp24
 70
     1
102
RTVSPropertyOp25
 70
     1
102
RTVSPropertyOp26
 70
     1
102
RTVSPropertyOp27
 70
     1
102
RTVSPropertyOp28
 70
     1
102
RTVSPropertyOp29
 70
     1
102
RTVSPropertyOp30
 70
     1
102
RTVSPropertyOp31
 70
     1
102
RTVSPropertyOp32
 70
     1
102
RTVSPropertyOp33
 70
     1
102
RTVSPropertyOp34
 70
     1
102
RTVSPropertyOp35
 70
     1
102
RTVSPropertyOp36
 70
     1
102
RTVSPropertyOp37
 70
     1
102
RTVSPropertyOp38
 70
     1
102
RTVSPropertyOp39
 70
     1
102
RTVSPropertyOp40
 70
     1
102
RTVSPropertyOp41
 70
     1
102
RTVSPropertyOp42
 70
     1
102
RTVSPropertyOp43
 70
     1
102
RTVSPropertyOp44
 70
     1
102
RTVSPropertyOp45
 70
     1
102
RTVSPropertyOp46
 70
     1
102
RTVSPropertyOp47
 70
     1
102
RTVSPropertyOp48
 70
     1
102
RTVSPropertyOp49
 70
     1
102
RTVSPropertyOp50
 70
     1
102
RTVSPropertyOp51
 70
     0
102
RTVSPropertyOp52
 70
     0
102
RTVSPropertyOp53
 70
     1
102
RTVSPropertyOp54
 70
     1
102
RTVSPropertyOp55
 70
     1
102
RTVSPropertyOp56
 70
     1
102
RTVSPropertyOp57
 70
     1
102
RTVSPost2010Prop28
280
     0
102
RTVSPost2010PropOp28
 70
     1
102
RTVSPost2010Prop29
280
     1
102
RTVSPost2010PropOp29
 70
     1
102
RTVSPost2010Prop30
280
     1
102
RTVSPost2010PropOp30
 70
     1
102
RTVSPost2010Prop31
280
     0
102
RTVSPost2010PropOp31
 70
     1
102
RTVSPost2010Prop32
280
     0
102
RTVSPost2010PropOp32
 70
     1
102
RTVSPost2010Prop33
280
     0
102
RTVSPost2010PropOp33
 70
     1
102
RTVSPost2010Prop34
280
     0
102
RTVSPost2010PropOp34
 70
     1
102
RTVSPost2010Prop35
280
     0
102
RTVSPost2010PropOp35
 70
     1
102
RTVSPost2010Prop36
280
     0
102
RTVSPost2010PropOp36
 70
     1
102
RTVSPost2010Prop37
 90
       50
102
RTVSPost2010PropOp37
 70
     1
102
RTVSPost2010Prop38
140
0.0
102
RTVSPost2010PropOp38
 70
     1
102
RTVSPost2010Prop39
140
1.0
102
RTVSPost2010PropOp39
 70
     1
102
RTVSPost2010Prop40
 90
        0
102
RTVSPost2010PropOp40
 70
     1
102
RTVSPost2010Prop41ColorIndex
 90
       18
102
RTVSPost2010Prop41ColorRGB
 90
        0
102
RTVSPost2010PropOp41
 70
     1
102
RTVSPost2010Prop42
 90
       50
102
RTVSPost2010PropOp42
 70
     1
102
RTVSPost2010Prop43
 90
        3
102
RTVSPost2010PropOp43
 70
     1
102
RTVSPost2010Prop44ColorIndex
 90
        5
102
RTVSPost2010Prop44ColorRGB
 90
      255
102
RTVSPost2010PropOp44
 70
     1
102
RTVSPost2010Prop45
280
     0
102
RTVSPost2010PropOp45
 70
     1
102
RTVSPost2010Prop46
 90
       50
102
RTVSPost2010PropOp46
 70
     1
102
RTVSPost2010Prop47
 90
       50
102
RTVSPost2010PropOp47
 70
     1
102
RTVSPost2010Prop48
 90
       50
102
RTVSPost2010PropOp48
 70
     1
102
RTVSPost2010Prop49
280
     0
102
RTVSPost2010PropOp49
 70
     1
102
RTVSPost2010Prop50
 90
       50
102
RTVSPost2010PropOp50
 70
     1
102
RTVSPost2010Prop51ColorIndex
 90
      256
102
RTVSPost2010Prop51ColorRGB
 90
-16777216
102
RTVSPost2010PropOp51
 70
     0
102
RTVSPost2010Prop52
140
1.0
102
RTVSPost2010PropOp52
 70
     0
102
RTVSPost2010Prop53
 90
        2
102
RTVSPost2010PropOp53
 70
     1
102
RTVSPost2010Prop54
  1
strokes_ogs.tif
102
RTVSPost2010PropOp54
 70
     1
102
RTVSPost2010Prop55
280
     0
102
RTVSPost2010PropOp55
 70
     1
102
RTVSPost2010Prop56
140
1.0
102
RTVSPost2010PropOp56
 70
     1
102
RTVSPost2010Prop57
140
1.0
102
RTVSPost2010PropOp57
 70
     1
  0
XRECORD
  5
187
102
{ACAD_REACTORS
330
186
102
}
330
186
100
AcDbXrecord
280
     1
102
RTVSPropertyOp0
 70
     1
102
RTVSPropertyOp1
 70
     1
102
RTVSPropertyOp2
 70
     1
102
RTVSPropertyOp3
 70
     1
102
RTVSPropertyOp4
 70
     1
102
RTVSPropertyOp5
 70
     1
102
RTVSPropertyOp6
 70
     1
102
RTVSPropertyOp7
 70
     1
102
RTVSPropertyOp8
 70
     1
102
RTVSPropertyOp9
 70
     1
102
RTVSPropertyOp10
 70
     1
102
RTVSPropertyOp11
 70
     1
102
RTVSPropertyOp12
 70
     1
102
RTVSPropertyOp13
 70
     1
102
RTVSPropertyOp14
 70
     1
102
RTVSPropertyOp15
 70
     1
102
RTVSPropertyOp16
 70
     1
102
RTVSPropertyOp17
 70
     1
102
RTVSPropertyOp18
 70
     1
102
RTVSPropertyOp19
 70
     1
102
RTVSPropertyOp20
 70
     1
102
RTVSPropertyOp21
 70
     1
102
RTVSPropertyOp22
 70
     1
102
RTVSPropertyOp23
 70
     1
102
RTVSPropertyOp24
 70
     1
102
RTVSPropertyOp25
 70
     1
102
RTVSPropertyOp26
 70
     1
102
RTVSPropertyOp27
 70
     1
102
RTVSPropertyOp28
 70
     1
102
RTVSPropertyOp29
 70
     1
102
RTVSPropertyOp30
 70
     1
102
RTVSPropertyOp31
 70
     1
102
RTVSPropertyOp32
 70
     1
102
RTVSPropertyOp33
 70
     1
102
RTVSPropertyOp34
 70
     1
102
RTVSPropertyOp35
 70
     1
102
RTVSPropertyOp36
 70
     1
102
RTVSPropertyOp37
 70
     1
102
RTVSPropertyOp38
 70
     1
102
RTVSPropertyOp39
 70
     1
102
RTVSPropertyOp40
 70
     1
102
RTVSPropertyOp41
 70
     1
102
RTVSPropertyOp42
 70
     1
102
RTVSPropertyOp43
 70
     1
102
RTVSPropertyOp44
 70
     1
102
RTVSPropertyOp45
 70
     1
102
RTVSPropertyOp46
 70
     1
102
RTVSPropertyOp47
 70
     1
102
RTVSPropertyOp48
 70
     1
102
RTVSPropertyOp49
 70
     1
102
RTVSPropertyOp50
 70
     1
102
RTVSPropertyOp51
 70
     0
102
RTVSPropertyOp52
 70
     0
102
RTVSPropertyOp53
 70
     1
102
RTVSPropertyOp54
 70
     1
102
RTVSPropertyOp55
 70
     1
102
RTVSPropertyOp56
 70
     1
102
RTVSPropertyOp57
 70
     1
102
RTVSPost2010Prop28
280
     0
102
RTVSPost2010PropOp28
 70
     1
102
RTVSPost2010Prop29
280
     1
102
RTVSPost2010PropOp29
 70
     1
102
RTVSPost2010Prop30
280
     1
102
RTVSPost2010PropOp30
 70
     1
102
RTVSPost2010Prop31
280
     0
102
RTVSPost2010PropOp31
 70
     1
102
RTVSPost2010Prop32
280
     0
102
RTVSPost2010PropOp32
 70
     1
102
RTVSPost2010Prop33
280
     0
102
RTVSPost2010PropOp33
 70
     1
102
RTVSPost2010Prop34
280
     0
102
RTVSPost2010PropOp34
 70
     1
102
RTVSPost2010Prop35
280
     0
102
RTVSPost2010PropOp35
 70
     1
102
RTVSPost2010Prop36
280
     0
102
RTVSPost2010PropOp36
 70
     1
102
RTVSPost2010Prop37
 90
       50
102
RTVSPost2010PropOp37
 70
     1
102
RTVSPost2010Prop38
140
0.0
102
RTVSPost2010PropOp38
 70
     1
102
RTVSPost2010Prop39
140
1.0
102
RTVSPost2010PropOp39
 70
     1
102
RTVSPost2010Prop40
 90
        0
102
RTVSPost2010PropOp40
 70
     1
102
RTVSPost2010Prop41ColorIndex
 90
       18
102
RTVSPost2010Prop41ColorRGB
 90
        0
102
RTVSPost2010PropOp41
 70
     1
102
RTVSPost2010Prop42
 90
       50
102
RTVSPost2010PropOp42
 70
     1
102
RTVSPost2010Prop43
 90
        3
102
RTVSPost2010PropOp43
 70
     1
102
RTVSPost2010Prop44ColorIndex
 90
        5
102
RTVSPost2010Prop44ColorRGB
 90
      255
102
RTVSPost2010PropOp44
 70
     1
102
RTVSPost2010Prop45
280
     0
102
RTVSPost2010PropOp45
 70
     1
102
RTVSPost2010Prop46
 90
       50
102
RTVSPost2010PropOp46
 70
     1
102
RTVSPost2010Prop47
 90
       50
102
RTVSPost2010PropOp47
 70
     1
102
RTVSPost2010Prop48
 90
       50
102
RTVSPost2010PropOp48
 70
     1
102
RTVSPost2010Prop49
280
     0
102
RTVSPost2010PropOp49
 70
     1
102
RTVSPost2010Prop50
 90
       50
102
RTVSPost2010PropOp50
 70
     1
102
RTVSPost2010Prop51ColorIndex
 90
      256
102
RTVSPost2010Prop51ColorRGB
 90
-16777216
102
RTVSPost2010PropOp51
 70
     0
102
RTVSPost2010Prop52
140
1.0
102
RTVSPost2010PropOp52
 70
     0
102
RTVSPost2010Prop53
 90
        2
102
RTVSPost2010PropOp53
 70
     1
102
RTVSPost2010Prop54
  1
strokes_ogs.tif
102
RTVSPost2010PropOp54
 70
     1
102
RTVSPost2010Prop55
280
     0
102
RTVSPost2010PropOp55
 70
     1
102
RTVSPost2010Prop56
140
1.0
102
RTVSPost2010PropOp56
 70
     1
102
RTVSPost2010Prop57
140
1.0
102
RTVSPost2010PropOp57
 70
     1
  0
XRECORD
  5
177
102
{ACAD_REACTORS
330
176
102
}
330
176
100
AcDbXrecord
280
     1
102
RTVSPropertyOp0
 70
     1
102
RTVSPropertyOp1
 70
     1
102
RTVSPropertyOp2
 70
     1
102
RTVSPropertyOp3
 70
     1
102
RTVSPropertyOp4
 70
     1
102
RTVSPropertyOp5
 70
     1
102
RTVSPropertyOp6
 70
     1
102
RTVSPropertyOp7
 70
     1
102
RTVSPropertyOp8
 70
     1
102
RTVSPropertyOp9
 70
     1
102
RTVSPropertyOp10
 70
     1
102
RTVSPropertyOp11
 70
     1
102
RTVSPropertyOp12
 70
     1
102
RTVSPropertyOp13
 70
     1
102
RTVSPropertyOp14
 70
     1
102
RTVSPropertyOp15
 70
     1
102
RTVSPropertyOp16
 70
     1
102
RTVSPropertyOp17
 70
     1
102
RTVSPropertyOp18
 70
     1
102
RTVSPropertyOp19
 70
     1
102
RTVSPropertyOp20
 70
     1
102
RTVSPropertyOp21
 70
     1
102
RTVSPropertyOp22
 70
     1
102
RTVSPropertyOp23
 70
     1
102
RTVSPropertyOp24
 70
     1
102
RTVSPropertyOp25
 70
     1
102
RTVSPropertyOp26
 70
     1
102
RTVSPropertyOp27
 70
     1
102
RTVSPropertyOp28
 70
     1
102
RTVSPropertyOp29
 70
     1
102
RTVSPropertyOp30
 70
     1
102
RTVSPropertyOp31
 70
     1
102
RTVSPropertyOp32
 70
     1
102
RTVSPropertyOp33
 70
     1
102
RTVSPropertyOp34
 70
     1
102
RTVSPropertyOp35
 70
     1
102
RTVSPropertyOp36
 70
     1
102
RTVSPropertyOp37
 70
     1
102
RTVSPropertyOp38
 70
     1
102
RTVSPropertyOp39
 70
     1
102
RTVSPropertyOp40
 70
     1
102
RTVSPropertyOp41
 70
     1
102
RTVSPropertyOp42
 70
     1
102
RTVSPropertyOp43
 70
     1
102
RTVSPropertyOp44
 70
     1
102
RTVSPropertyOp45
 70
     1
102
RTVSPropertyOp46
 70
     1
102
RTVSPropertyOp47
 70
     1
102
RTVSPropertyOp48
 70
     1
102
RTVSPropertyOp49
 70
     1
102
RTVSPropertyOp50
 70
     1
102
RTVSPropertyOp51
 70
     0
102
RTVSPropertyOp52
 70
     0
102
RTVSPropertyOp53
 70
     1
102
RTVSPropertyOp54
 70
     1
102
RTVSPropertyOp55
 70
     1
102
RTVSPropertyOp56
 70
     1
102
RTVSPropertyOp57
 70
     1
102
RTVSPost2010Prop28
280
     0
102
RTVSPost2010PropOp28
 70
     1
102
RTVSPost2010Prop29
280
     1
102
RTVSPost2010PropOp29
 70
     1
102
RTVSPost2010Prop30
280
     1
102
RTVSPost2010PropOp30
 70
     1
102
RTVSPost2010Prop31
280
     0
102
RTVSPost2010PropOp31
 70
     1
102
RTVSPost2010Prop32
280
     0
102
RTVSPost2010PropOp32
 70
     1
102
RTVSPost2010Prop33
280
     0
102
RTVSPost2010PropOp33
 70
     1
102
RTVSPost2010Prop34
280
     0
102
RTVSPost2010PropOp34
 70
     1
102
RTVSPost2010Prop35
280
     0
102
RTVSPost2010PropOp35
 70
     1
102
RTVSPost2010Prop36
280
     0
102
RTVSPost2010PropOp36
 70
     1
102
RTVSPost2010Prop37
 90
       50
102
RTVSPost2010PropOp37
 70
     1
102
RTVSPost2010Prop38
140
0.0
102
RTVSPost2010PropOp38
 70
     1
102
RTVSPost2010Prop39
140
1.0
102
RTVSPost2010PropOp39
 70
     1
102
RTVSPost2010Prop40
 90
        0
102
RTVSPost2010PropOp40
 70
     1
102
RTVSPost2010Prop41ColorIndex
 90
       18
102
RTVSPost2010Prop41ColorRGB
 90
        0
102
RTVSPost2010PropOp41
 70
     1
102
RTVSPost2010Prop42
 90
       50
102
RTVSPost2010PropOp42
 70
     1
102
RTVSPost2010Prop43
 90
        3
102
RTVSPost2010PropOp43
 70
     1
102
RTVSPost2010Prop44ColorIndex
 90
        5
102
RTVSPost2010Prop44ColorRGB
 90
      255
102
RTVSPost2010PropOp44
 70
     1
102
RTVSPost2010Prop45
280
     0
102
RTVSPost2010PropOp45
 70
     1
102
RTVSPost2010Prop46
 90
       50
102
RTVSPost2010PropOp46
 70
     1
102
RTVSPost2010Prop47
 90
       50
102
RTVSPost2010PropOp47
 70
     1
102
RTVSPost2010Prop48
 90
       50
102
RTVSPost2010PropOp48
 70
     1
102
RTVSPost2010Prop49
280
     0
102
RTVSPost2010PropOp49
 70
     1
102
RTVSPost2010Prop50
 90
       50
102
RTVSPost2010PropOp50
 70
     1
102
RTVSPost2010Prop51ColorIndex
 90
      256
102
RTVSPost2010Prop51ColorRGB
 90
-16777216
102
RTVSPost2010PropOp51
 70
     0
102
RTVSPost2010Prop52
140
1.0
102
RTVSPost2010PropOp52
 70
     0
102
RTVSPost2010Prop53
 90
        2
102
RTVSPost2010PropOp53
 70
     1
102
RTVSPost2010Prop54
  1
strokes_ogs.tif
102
RTVSPost2010PropOp54
 70
     1
102
RTVSPost2010Prop55
280
     0
102
RTVSPost2010PropOp55
 70
     1
102
RTVSPost2010Prop56
140
1.0
102
RTVSPost2010PropOp56
 70
     1
102
RTVSPost2010Prop57
140
1.0
102
RTVSPost2010PropOp57
 70
     1
  0
XRECORD
  5
169
102
{ACAD_REACTORS
330
168
102
}
330
168
100
AcDbXrecord
280
     1
102
RTVSPropertyOp0
 70
     1
102
RTVSPropertyOp1
 70
     1
102
RTVSPropertyOp2
 70
     1
102
RTVSPropertyOp3
 70
     1
102
RTVSPropertyOp4
 70
     1
102
RTVSPropertyOp5
 70
     1
102
RTVSPropertyOp6
 70
     1
102
RTVSPropertyOp7
 70
     1
102
RTVSPropertyOp8
 70
     1
102
RTVSPropertyOp9
 70
     1
102
RTVSPropertyOp10
 70
     1
102
RTVSPropertyOp11
 70
     1
102
RTVSPropertyOp12
 70
     1
102
RTVSPropertyOp13
 70
     1
102
RTVSPropertyOp14
 70
     1
102
RTVSPropertyOp15
 70
     1
102
RTVSPropertyOp16
 70
     1
102
RTVSPropertyOp17
 70
     1
102
RTVSPropertyOp18
 70
     1
102
RTVSPropertyOp19
 70
     1
102
RTVSPropertyOp20
 70
     1
102
RTVSPropertyOp21
 70
     1
102
RTVSPropertyOp22
 70
     1
102
RTVSPropertyOp23
 70
     1
102
RTVSPropertyOp24
 70
     1
102
RTVSPropertyOp25
 70
     1
102
RTVSPropertyOp26
 70
     1
102
RTVSPropertyOp27
 70
     1
102
RTVSPropertyOp28
 70
     1
102
RTVSPropertyOp29
 70
     1
102
RTVSPropertyOp30
 70
     1
102
RTVSPropertyOp31
 70
     1
102
RTVSPropertyOp32
 70
     1
102
RTVSPropertyOp33
 70
     1
102
RTVSPropertyOp34
 70
     1
102
RTVSPropertyOp35
 70
     1
102
RTVSPropertyOp36
 70
     1
102
RTVSPropertyOp37
 70
     1
102
RTVSPropertyOp38
 70
     1
102
RTVSPropertyOp39
 70
     1
102
RTVSPropertyOp40
 70
     1
102
RTVSPropertyOp41
 70
     1
102
RTVSPropertyOp42
 70
     1
102
RTVSPropertyOp43
 70
     1
102
RTVSPropertyOp44
 70
     1
102
RTVSPropertyOp45
 70
     1
102
RTVSPropertyOp46
 70
     1
102
RTVSPropertyOp47
 70
     1
102
RTVSPropertyOp48
 70
     1
102
RTVSPropertyOp49
 70
     1
102
RTVSPropertyOp50
 70
     1
102
RTVSPropertyOp51
 70
     0
102
RTVSPropertyOp52
 70
     0
102
RTVSPropertyOp53
 70
     1
102
RTVSPropertyOp54
 70
     1
102
RTVSPropertyOp55
 70
     1
102
RTVSPropertyOp56
 70
     1
102
RTVSPropertyOp57
 70
     1
102
RTVSPost2010Prop28
280
     0
102
RTVSPost2010PropOp28
 70
     1
102
RTVSPost2010Prop29
280
     1
102
RTVSPost2010PropOp29
 70
     1
102
RTVSPost2010Prop30
280
     1
102
RTVSPost2010PropOp30
 70
     1
102
RTVSPost2010Prop31
280
     0
102
RTVSPost2010PropOp31
 70
     1
102
RTVSPost2010Prop32
280
     0
102
RTVSPost2010PropOp32
 70
     1
102
RTVSPost2010Prop33
280
     0
102
RTVSPost2010PropOp33
 70
     1
102
RTVSPost2010Prop34
280
     0
102
RTVSPost2010PropOp34
 70
     1
102
RTVSPost2010Prop35
280
     0
102
RTVSPost2010PropOp35
 70
     1
102
RTVSPost2010Prop36
280
     0
102
RTVSPost2010PropOp36
 70
     1
102
RTVSPost2010Prop37
 90
       50
102
RTVSPost2010PropOp37
 70
     1
102
RTVSPost2010Prop38
140
0.0
102
RTVSPost2010PropOp38
 70
     1
102
RTVSPost2010Prop39
140
1.0
102
RTVSPost2010PropOp39
 70
     1
102
RTVSPost2010Prop40
 90
        0
102
RTVSPost2010PropOp40
 70
     1
102
RTVSPost2010Prop41ColorIndex
 90
       18
102
RTVSPost2010Prop41ColorRGB
 90
        0
102
RTVSPost2010PropOp41
 70
     1
102
RTVSPost2010Prop42
 90
       50
102
RTVSPost2010PropOp42
 70
     1
102
RTVSPost2010Prop43
 90
        3
102
RTVSPost2010PropOp43
 70
     1
102
RTVSPost2010Prop44ColorIndex
 90
        5
102
RTVSPost2010Prop44ColorRGB
 90
      255
102
RTVSPost2010PropOp44
 70
     1
102
RTVSPost2010Prop45
280
     0
102
RTVSPost2010PropOp45
 70
     1
102
RTVSPost2010Prop46
 90
       50
102
RTVSPost2010PropOp46
 70
     1
102
RTVSPost2010Prop47
 90
       50
102
RTVSPost2010PropOp47
 70
     1
102
RTVSPost2010Prop48
 90
       50
102
RTVSPost2010PropOp48
 70
     1
102
RTVSPost2010Prop49
280
     0
102
RTVSPost2010PropOp49
 70
     1
102
RTVSPost2010Prop50
 90
       50
102
RTVSPost2010PropOp50
 70
     1
102
RTVSPost2010Prop51ColorIndex
 90
      256
102
RTVSPost2010Prop51ColorRGB
 90
-16777216
102
RTVSPost2010PropOp51
 70
     0
102
RTVSPost2010Prop52
140
1.0
102
RTVSPost2010PropOp52
 70
     0
102
RTVSPost2010Prop53
 90
        2
102
RTVSPost2010PropOp53
 70
     1
102
RTVSPost2010Prop54
  1
strokes_ogs.tif
102
RTVSPost2010PropOp54
 70
     1
102
RTVSPost2010Prop55
280
     0
102
RTVSPost2010PropOp55
 70
     1
102
RTVSPost2010Prop56
140
1.0
102
RTVSPost2010PropOp56
 70
     1
102
RTVSPost2010Prop57
140
1.0
102
RTVSPost2010PropOp57
 70
     1
  0
XRECORD
  5
189
102
{ACAD_REACTORS
330
188
102
}
330
188
100
AcDbXrecord
280
     1
102
RTVSPropertyOp0
 70
     1
102
RTVSPropertyOp1
 70
     1
102
RTVSPropertyOp2
 70
     1
102
RTVSPropertyOp3
 70
     1
102
RTVSPropertyOp4
 70
     1
102
RTVSPropertyOp5
 70
     1
102
RTVSPropertyOp6
 70
     1
102
RTVSPropertyOp7
 70
     1
102
RTVSPropertyOp8
 70
     1
102
RTVSPropertyOp9
 70
     1
102
RTVSPropertyOp10
 70
     1
102
RTVSPropertyOp11
 70
     1
102
RTVSPropertyOp12
 70
     1
102
RTVSPropertyOp13
 70
     1
102
RTVSPropertyOp14
 70
     1
102
RTVSPropertyOp15
 70
     1
102
RTVSPropertyOp16
 70
     1
102
RTVSPropertyOp17
 70
     1
102
RTVSPropertyOp18
 70
     1
102
RTVSPropertyOp19
 70
     1
102
RTVSPropertyOp20
 70
     1
102
RTVSPropertyOp21
 70
     1
102
RTVSPropertyOp22
 70
     1
102
RTVSPropertyOp23
 70
     1
102
RTVSPropertyOp24
 70
     1
102
RTVSPropertyOp25
 70
     1
102
RTVSPropertyOp26
 70
     1
102
RTVSPropertyOp27
 70
     1
102
RTVSPropertyOp28
 70
     1
102
RTVSPropertyOp29
 70
     1
102
RTVSPropertyOp30
 70
     1
102
RTVSPropertyOp31
 70
     1
102
RTVSPropertyOp32
 70
     1
102
RTVSPropertyOp33
 70
     1
102
RTVSPropertyOp34
 70
     1
102
RTVSPropertyOp35
 70
     1
102
RTVSPropertyOp36
 70
     1
102
RTVSPropertyOp37
 70
     1
102
RTVSPropertyOp38
 70
     1
102
RTVSPropertyOp39
 70
     1
102
RTVSPropertyOp40
 70
     1
102
RTVSPropertyOp41
 70
     1
102
RTVSPropertyOp42
 70
     1
102
RTVSPropertyOp43
 70
     1
102
RTVSPropertyOp44
 70
     1
102
RTVSPropertyOp45
 70
     1
102
RTVSPropertyOp46
 70
     1
102
RTVSPropertyOp47
 70
     1
102
RTVSPropertyOp48
 70
     1
102
RTVSPropertyOp49
 70
     1
102
RTVSPropertyOp50
 70
     1
102
RTVSPropertyOp51
 70
     0
102
RTVSPropertyOp52
 70
     0
102
RTVSPropertyOp53
 70
     1
102
RTVSPropertyOp54
 70
     1
102
RTVSPropertyOp55
 70
     1
102
RTVSPropertyOp56
 70
     1
102
RTVSPropertyOp57
 70
     1
102
RTVSPost2010Prop28
280
     0
102
RTVSPost2010PropOp28
 70
     1
102
RTVSPost2010Prop29
280
     1
102
RTVSPost2010PropOp29
 70
     1
102
RTVSPost2010Prop30
280
     1
102
RTVSPost2010PropOp30
 70
     1
102
RTVSPost2010Prop31
280
     0
102
RTVSPost2010PropOp31
 70
     1
102
RTVSPost2010Prop32
280
     0
102
RTVSPost2010PropOp32
 70
     1
102
RTVSPost2010Prop33
280
     0
102
RTVSPost2010PropOp33
 70
     1
102
RTVSPost2010Prop34
280
     0
102
RTVSPost2010PropOp34
 70
     1
102
RTVSPost2010Prop35
280
     0
102
RTVSPost2010PropOp35
 70
     1
102
RTVSPost2010Prop36
280
     0
102
RTVSPost2010PropOp36
 70
     1
102
RTVSPost2010Prop37
 90
       50
102
RTVSPost2010PropOp37
 70
     1
102
RTVSPost2010Prop38
140
0.0
102
RTVSPost2010PropOp38
 70
     1
102
RTVSPost2010Prop39
140
1.0
102
RTVSPost2010PropOp39
 70
     1
102
RTVSPost2010Prop40
 90
        0
102
RTVSPost2010PropOp40
 70
     1
102
RTVSPost2010Prop41ColorIndex
 90
       18
102
RTVSPost2010Prop41ColorRGB
 90
        0
102
RTVSPost2010PropOp41
 70
     1
102
RTVSPost2010Prop42
 90
       50
102
RTVSPost2010PropOp42
 70
     1
102
RTVSPost2010Prop43
 90
        3
102
RTVSPost2010PropOp43
 70
     1
102
RTVSPost2010Prop44ColorIndex
 90
        5
102
RTVSPost2010Prop44ColorRGB
 90
      255
102
RTVSPost2010PropOp44
 70
     1
102
RTVSPost2010Prop45
280
     0
102
RTVSPost2010PropOp45
 70
     1
102
RTVSPost2010Prop46
 90
       50
102
RTVSPost2010PropOp46
 70
     1
102
RTVSPost2010Prop47
 90
       50
102
RTVSPost2010PropOp47
 70
     1
102
RTVSPost2010Prop48
 90
       50
102
RTVSPost2010PropOp48
 70
     1
102
RTVSPost2010Prop49
280
     0
102
RTVSPost2010PropOp49
 70
     1
102
RTVSPost2010Prop50
 90
       50
102
RTVSPost2010PropOp50
 70
     1
102
RTVSPost2010Prop51ColorIndex
 90
      256
102
RTVSPost2010Prop51ColorRGB
 90
-16777216
102
RTVSPost2010PropOp51
 70
     0
102
RTVSPost2010Prop52
140
1.0
102
RTVSPost2010PropOp52
 70
     0
102
RTVSPost2010Prop53
 90
        2
102
RTVSPost2010PropOp53
 70
     1
102
RTVSPost2010Prop54
  1
strokes_ogs.tif
102
RTVSPost2010PropOp54
 70
     1
102
RTVSPost2010Prop55
280
     0
102
RTVSPost2010PropOp55
 70
     1
102
RTVSPost2010Prop56
140
1.0
102
RTVSPost2010PropOp56
 70
     1
102
RTVSPost2010Prop57
140
1.0
102
RTVSPost2010PropOp57
 70
     1
  0
ENDSEC
  0
EOF
