  0
SECTION
  2
HEADER
  9
$ACADVER
  1
AC1021
  9
$ACADMAINTVER
 70
    25
  9
$DWGCODEPAGE
  3
ANSI_1252
  9
$INSBASE
 10
0.0
 20
0.0
 30
0.0
  9
$EXTMIN
 10
1.000000000000000E+20
 20
1.000000000000000E+20
 30
1.000000000000000E+20
  9
$EXTMAX
 10
-1.000000000000000E+20
 20
-1.000000000000000E+20
 30
-1.000000000000000E+20
  9
$LIMMIN
 10
0.0
 20
0.0
  9
$LIMMAX
 10
12.0
 20
9.0
  9
$ORTHOMODE
 70
     0
  9
$REGENMODE
 70
     1
  9
$FILLMODE
 70
     1
  9
$QTEXTMODE
 70
     0
  9
$MIRRTEXT
 70
     1
  9
$LTSCALE
 40
1.0
  9
$ATTMODE
 70
     1
  9
$TEXTSIZE
 40
0.2
  9
$TRACEWID
 40
0.05
  9
$TEXTSTYLE
  7
Standard
  9
$CLAYER
  8
2D DXF
  9
$CELTYPE
  6
ByLayer
  9
$CECOLOR
 62
   256
  9
$CELTSCALE
 40
1.0
  9
$DISPSILH
 70
     0
  9
$DIMSCALE
 40
1.0
  9
$DIMASZ
 40
0.18
  9
$DIMEXO
 40
0.0625
  9
$DIMDLI
 40
0.38
  9
$DIMRND
 40
0.0
  9
$DIMDLE
 40
0.0
  9
$DIMEXE
 40
0.18
  9
$DIMTP
 40
0.0
  9
$DIMTM
 40
0.0
  9
$DIMTXT
 40
0.18
  9
$DIMCEN
 40
0.09
  9
$DIMTSZ
 40
0.0
  9
$DIMTOL
 70
     0
  9
$DIMLIM
 70
     0
  9
$DIMTIH
 70
     1
  9
$DIMTOH
 70
     1
  9
$DIMSE1
 70
     0
  9
$DIMSE2
 70
     0
  9
$DIMTAD
 70
     0
  9
$DIMZIN
 70
     0
  9
$DIMBLK
  1

  9
$DIMASO
 70
     1
  9
$DIMSHO
 70
     1
  9
$DIMPOST
  1

  9
$DIMAPOST
  1

  9
$DIMALT
 70
     0
  9
$DIMALTD
 70
     2
  9
$DIMALTF
 40
25.4
  9
$DIMLFAC
 40
1.0
  9
$DIMTOFL
 70
     0
  9
$DIMTVP
 40
0.0
  9
$DIMTIX
 70
     0
  9
$DIMSOXD
 70
     0
  9
$DIMSAH
 70
     0
  9
$DIMBLK1
  1

  9
$DIMBLK2
  1

  9
$DIMSTYLE
  2
STANDARD_ACAD
  9
$DIMCLRD
 70
     0
  9
$DIMCLRE
 70
     0
  9
$DIMCLRT
 70
     0
  9
$DIMTFAC
 40
1.0
  9
$DIMGAP
 40
0.09
  9
$DIMJUST
 70
     0
  9
$DIMSD1
 70
     0
  9
$DIMSD2
 70
     0
  9
$DIMTOLJ
 70
     1
  9
$DIMTZIN
 70
     0
  9
$DIMALTZ
 70
     0
  9
$DIMALTTZ
 70
     0
  9
$DIMUPT
 70
     0
  9
$DIMDEC
 70
     4
  9
$DIMTDEC
 70
     4
  9
$DIMALTU
 70
     2
  9
$DIMALTTD
 70
     2
  9
$DIMTXSTY
  7
Standard
  9
$DIMAUNIT
 70
     0
  9
$DIMADEC
 70
     0
  9
$DIMALTRND
 40
0.0
  9
$DIMAZIN
 70
     0
  9
$DIMDSEP
 70
    46
  9
$DIMATFIT
 70
     3
  9
$DIMFRAC
 70
     0
  9
$DIMLDRBLK
  1

  9
$DIMLUNIT
 70
     2
  9
$DIMLWD
 70
    -2
  9
$DIMLWE
 70
    -2
  9
$DIMTMOVE
 70
     2
  9
$DIMFXL
 40
1.0
  9
$DIMFXLON
 70
     0
  9
$DIMJOGANG
 40
0.7853981633974483
  9
$DIMTFILL
 70
     0
  9
$DIMTFILLCLR
 70
     0
  9
$DIMARCSYM
 70
     0
  9
$DIMLTYPE
  6

  9
$DIMLTEX1
  6

  9
$DIMLTEX2
  6

  9
$LUNITS
 70
     2
  9
$LUPREC
 70
     3
  9
$SKETCHINC
 40
0.1
  9
$FILLETRAD
 40
0.5
  9
$AUNITS
 70
     0
  9
$AUPREC
 70
     0
  9
$MENU
  1
.
  9
$ELEVATION
 40
0.0
  9
$PELEVATION
 40
0.0
  9
$THICKNESS
 40
0.0
  9
$LIMCHECK
 70
     0
  9
$CHAMFERA
 40
0.0
  9
$CHAMFERB
 40
0.0
  9
$CHAMFERC
 40
0.0
  9
$CHAMFERD
 40
0.0
  9
$SKPOLY
 70
     0
  9
$TDCREATE
 40
2459552.387113981
  9
$TDUCREATE
 40
2459552.595447315
  9
$TDUPDATE
 40
2459552.387127917
  9
$TDUUPDATE
 40
2459552.59546125
  9
$TDINDWG
 40
0.0000000116
  9
$TDUSRTIMER
 40
0.0000000116
  9
$USRTIMER
 70
     1
  9
$ANGBASE
 50
0.0
  9
$ANGDIR
 70
     0
  9
$PDMODE
 70
     0
  9
$PDSIZE
 40
0.0
  9
$PLINEWID
 40
0.0
  9
$SPLFRAME
 70
     0
  9
$SPLINETYPE
 70
     6
  9
$SPLINESEGS
 70
     8
  9
$HANDSEED
  5
1CA
  9
$SURFTAB1
 70
     6
  9
$SURFTAB2
 70
     6
  9
$SURFTYPE
 70
     6
  9
$SURFU
 70
     6
  9
$SURFV
 70
     6
  9
$UCSBASE
  2

  9
$UCSNAME
  2

  9
$UCSORG
 10
0.0
 20
0.0
 30
0.0
  9
$UCSXDIR
 10
1.0
 20
0.0
 30
0.0
  9
$UCSYDIR
 10
0.0
 20
1.0
 30
0.0
  9
$UCSORTHOREF
  2

  9
$UCSORTHOVIEW
 70
     0
  9
$UCSORGTOP
 10
0.0
 20
0.0
 30
0.0
  9
$UCSORGBOTTOM
 10
0.0
 20
0.0
 30
0.0
  9
$UCSORGLEFT
 10
0.0
 20
0.0
 30
0.0
  9
$UCSORGRIGHT
 10
0.0
 20
0.0
 30
0.0
  9
$UCSORGFRONT
 10
0.0
 20
0.0
 30
0.0
  9
$UCSORGBACK
 10
0.0
 20
0.0
 30
0.0
  9
$PUCSBASE
  2

  9
$PUCSNAME
  2

  9
$PUCSORG
 10
0.0
 20
0.0
 30
0.0
  9
$PUCSXDIR
 10
1.0
 20
0.0
 30
0.0
  9
$PUCSYDIR
 10
0.0
 20
1.0
 30
0.0
  9
$PUCSORTHOREF
  2

  9
$PUCSORTHOVIEW
 70
     0
  9
$PUCSORGTOP
 10
0.0
 20
0.0
 30
0.0
  9
$PUCSORGBOTTOM
 10
0.0
 20
0.0
 30
0.0
  9
$PUCSORGLEFT
 10
0.0
 20
0.0
 30
0.0
  9
$PUCSORGRIGHT
 10
0.0
 20
0.0
 30
0.0
  9
$PUCSORGFRONT
 10
0.0
 20
0.0
 30
0.0
  9
$PUCSORGBACK
 10
0.0
 20
0.0
 30
0.0
  9
$USERI1
 70
     0
  9
$USERI2
 70
     0
  9
$USERI3
 70
     0
  9
$USERI4
 70
     0
  9
$USERI5
 70
     0
  9
$USERR1
 40
0.0
  9
$USERR2
 40
0.0
  9
$USERR3
 40
0.0
  9
$USERR4
 40
0.0
  9
$USERR5
 40
0.0
  9
$WORLDVIEW
 70
     1
  9
$SHADEDGE
 70
     3
  9
$SHADEDIF
 70
    70
  9
$TILEMODE
 70
     1
  9
$MAXACTVP
 70
    64
  9
$PINSBASE
 10
0.0
 20
0.0
 30
0.0
  9
$PLIMCHECK
 70
     0
  9
$PEXTMIN
 10
1.000000000000000E+20
 20
1.000000000000000E+20
 30
1.000000000000000E+20
  9
$PEXTMAX
 10
-1.000000000000000E+20
 20
-1.000000000000000E+20
 30
-1.000000000000000E+20
  9
$PLIMMIN
 10
0.0
 20
0.0
  9
$PLIMMAX
 10
12.0
 20
9.0
  9
$UNITMODE
 70
     0
  9
$VISRETAIN
 70
     1
  9
$PLINEGEN
 70
     0
  9
$PSLTSCALE
 70
     1
  9
$TREEDEPTH
 70
  3020
  9
$CMLSTYLE
  2
Standard
  9
$CMLJUST
 70
     0
  9
$CMLSCALE
 40
1.0
  9
$PROXYGRAPHICS
 70
     1
  9
$MEASUREMENT
 70
     0
  9
$CELWEIGHT
370
    -1
  9
$ENDCAPS
280
     0
  9
$JOINSTYLE
280
     0
  9
$LWDISPLAY
290
     0
  9
$INSUNITS
 70
     1
  9
$HYPERLINKBASE
  1

  9
$STYLESHEET
  1

  9
$XEDIT
290
     1
  9
$CEPSNTYPE
380
     0
  9
$PSTYLEMODE
290
     1
  9
$FINGERPRINTGUID
  2
{5afab97c-f9ee-4cae-8d14-0aad0b894328}
  9
$VERSIONGUID
  2
{FAEB1C32-E019-11D5-929B-00C0DF256EC4}
  9
$EXTNAMES
290
     1
  9
$PSVPSCALE
 40
0.0
  9
$OLESTARTUP
290
     0
  9
$SORTENTS
280
   127
  9
$INDEXCTL
280
     0
  9
$HIDETEXT
280
     1
  9
$XCLIPFRAME
290
     0
  9
$HALOGAP
280
     0
  9
$OBSCOLOR
 70
   257
  9
$OBSLTYPE
280
     0
  9
$INTERSECTIONDISPLAY
280
     0
  9
$INTERSECTIONCOLOR
 70
   257
  9
$DIMASSOC
280
     2
  9
$PROJECTNAME
  1

  9
$CAMERADISPLAY
290
     0
  9
$LENSLENGTH
 40
50.0
  9
$CAMERAHEIGHT
 40
0.0
  9
$STEPSPERSEC
 40
2.0
  9
$STEPSIZE
 40
6.0
  9
$3DDWFPREC
 40
2.0
  9
$PSOLWIDTH
 40
0.25
  9
$PSOLHEIGHT
 40
4.0
  9
$LOFTANG1
 40
1.570796326794897
  9
$LOFTANG2
 40
1.570796326794897
  9
$LOFTMAG1
 40
0.0
  9
$LOFTMAG2
 40
0.0
  9
$LOFTPARAM
 70
     7
  9
$LOFTNORMALS
280
     1
  9
$LATITUDE
 40
37.795
  9
$LONGITUDE
 40
-122.394
  9
$NORTHDIRECTION
 40
0.0
  9
$TIMEZONE
 70
 -8000
  9
$LIGHTGLYPHDISPLAY
280
     1
  9
$TILEMODELIGHTSYNCH
280
     1
  9
$CMATERIAL
347
44
  9
$SOLIDHIST
280
     0
  9
$SHOWHIST
280
     1
  9
$DWFFRAME
280
     2
  9
$DGNFRAME
280
     2
  9
$REALWORLDSCALE
290
     1
  9
$INTERFERECOLOR
 62
   256
  9
$CSHADOW
280
     0
  9
$SHADOWPLANELOCATION
 40
0.0
  0
ENDSEC
  0
SECTION
  2
CLASSES
  0
CLASS
  1
ACDBDICTIONARYWDFLT
  2
AcDbDictionaryWithDefault
  3
ObjectDBX Classes
 90
        0
 91
        3
280
     0
281
     0
  0
CLASS
  1
VISUALSTYLE
  2
AcDbVisualStyle
  3
ObjectDBX Classes
 90
     4095
 91
        3
280
     0
281
     0
  0
CLASS
  1
MATERIAL
  2
AcDbMaterial
  3
ObjectDBX Classes
 90
     1153
 91
        3
280
     0
281
     0
  0
CLASS
  1
SCALE
  2
AcDbScale
  3
ObjectDBX Classes
 90
     1153
 91
        3
280
     0
281
     0
  0
CLASS
  1
TABLESTYLE
  2
AcDbTableStyle
  3
ObjectDBX Classes
 90
     4095
 91
        3
280
     0
281
     0
  0
CLASS
  1
MLEADERSTYLE
  2
AcDbMLeaderStyle
  3
ACDB_MLEADERSTYLE_CLASS
 90
     4095
 91
        3
280
     0
281
     0
  0
CLASS
  1
SUN
  2
AcDbSun
  3
SCENEOE
 90
     1153
 91
        3
280
     0
281
     0
  0
CLASS
  1
DICTIONARYVAR
  2
AcDbDictionaryVar
  3
ObjectDBX Classes
 90
        0
 91
        3
280
     0
281
     0
  0
CLASS
  1
CELLSTYLEMAP
  2
AcDbCellStyleMap
  3
ObjectDBX Classes
 90
     1152
 91
        3
280
     0
281
     0
  0
ENDSEC
  0
SECTION
  2
TABLES
  0
TABLE
  2
VPORT
  5
8
330
0
100
AcDbSymbolTable
 70
     1
  0
VPORT
  5
29
330
8
100
AcDbSymbolTableRecord
100
AcDbViewportTableRecord
  2
*Active
 70
     0
 10
0.0
 20
0.0
 11
1.0
 21
1.0
 12
10.42990654205607
 22
4.5
 13
0.0
 23
0.0
 14
0.5
 24
0.5
 15
0.5
 25
0.5
 16
0.0
 26
0.0
 36
1.0
 17
0.0
 27
0.0
 37
0.0
 40
9.0
 41
1.972972972850329
 42
50.0
 43
0.0
 44
0.0
 50
0.0
 51
0.0
 71
     0
 72
   100
 73
     1
 74
     3
 75
     0
 76
     0
 77
     0
 78
     0
281
     0
 65
     1
110
0.0
120
0.0
130
0.0
111
1.0
121
0.0
131
0.0
112
0.0
122
1.0
132
0.0
 79
     0
146
0.0
348
2F
 60
     3
 61
     5
292
     1
282
     1
141
0.0
142
0.0
 63
   250
361
6D
  0
ENDTAB
  0
TABLE
  2
LTYPE
  5
5
330
0
100
AcDbSymbolTable
 70
     1
  0
LTYPE
  5
14
330
5
100
AcDbSymbolTableRecord
100
AcDbLinetypeTableRecord
  2
ByBlock
 70
     0
  3

 72
    65
 73
     0
 40
0.0
  0
LTYPE
  5
15
330
5
100
AcDbSymbolTableRecord
100
AcDbLinetypeTableRecord
  2
ByLayer
 70
     0
  3

 72
    65
 73
     0
 40
0.0
  0
LTYPE
  5
16
330
5
100
AcDbSymbolTableRecord
100
AcDbLinetypeTableRecord
  2
Continuous
 70
     0
  3
Solid line
 72
    65
 73
     0
 40
0.0
  0
ENDTAB
  0
TABLE
  2
LAYER
  5
2
330
0
100
AcDbSymbolTable
 70
     3
  0
LAYER
  5
10
330
2
100
AcDbSymbolTableRecord
100
AcDbLayerTableRecord
  2
0
 70
     0
 62
     7
  6
Continuous
370
    -3
390
F
347
46
  0
LAYER
  5
6E
330
2
100
AcDbSymbolTableRecord
100
AcDbLayerTableRecord
  2
2D DXF
 70
     0
 62
    18
420
        0
  6
Continuous
370
    -3
390
F
347
46
  0
LAYER
  5
71
330
2
100
AcDbSymbolTableRecord
100
AcDbLayerTableRecord
  2
Make2D$Visible$Curves
 70
     0
 62
    18
420
        0
  6
Continuous
370
    -3
390
F
347
46
  0
ENDTAB
  0
TABLE
  2
STYLE
  5
3
330
0
100
AcDbSymbolTable
 70
     1
  0
STYLE
  5
11
330
3
100
AcDbSymbolTableRecord
100
AcDbTextStyleTableRecord
  2
Standard
 70
     0
 40
0.0
 41
1.0
 50
0.0
 71
     0
 42
0.2
  3
txt
  4

  0
ENDTAB
  0
TABLE
  2
VIEW
  5
6
330
0
100
AcDbSymbolTable
 70
     0
  0
ENDTAB
  0
TABLE
  2
UCS
  5
7
330
0
100
AcDbSymbolTable
 70
     0
  0
ENDTAB
  0
TABLE
  2
APPID
  5
9
330
0
100
AcDbSymbolTable
 70
     2
  0
APPID
  5
12
330
9
100
AcDbSymbolTableRecord
100
AcDbRegAppTableRecord
  2
ACAD
 70
     0
  0
APPID
  5
1C2
330
9
100
AcDbSymbolTableRecord
100
AcDbRegAppTableRecord
  2
ACAD_MLEADERVER
 70
     0
  0
ENDTAB
  0
TABLE
  2
DIMSTYLE
  5
A
330
0
100
AcDbSymbolTable
 70
     1
100
AcDbDimStyleTable
  0
DIMSTYLE
105
27
330
A
100
AcDbSymbolTableRecord
100
AcDbDimStyleTableRecord
  2
STANDARD_ACAD
 70
     0
178
     0
340
11
  0
ENDTAB
  0
TABLE
  2
BLOCK_RECORD
  5
1
330
0
100
AcDbSymbolTable
 70
     1
  0
BLOCK_RECORD
  5
1F
330
1
100
AcDbSymbolTableRecord
100
AcDbBlockTableRecord
  2
*Model_Space
340
22
 70
     0
280
     1
281
     0
  0
BLOCK_RECORD
  5
1B
330
1
100
AcDbSymbolTableRecord
100
AcDbBlockTableRecord
  2
*Paper_Space
340
1E
 70
     0
280
     1
281
     0
  0
BLOCK_RECORD
  5
23
330
1
100
AcDbSymbolTableRecord
100
AcDbBlockTableRecord
  2
*Paper_Space0
340
26
 70
     0
280
     1
281
     0
  0
ENDTAB
  0
ENDSEC
  0
SECTION
  2
BLOCKS
  0
BLOCK
  5
20
330
1F
100
AcDbEntity
  8
0
100
AcDbBlockBegin
  2
*Model_Space
 70
     0
 10
0.0
 20
0.0
 30
0.0
  3
*Model_Space
  1

  0
ENDBLK
  5
21
330
1F
100
AcDbEntity
  8
0
100
AcDbBlockEnd
  0
BLOCK
  5
1C
330
1B
100
AcDbEntity
 67
     1
  8
0
100
AcDbBlockBegin
  2
*Paper_Space
 70
     0
 10
0.0
 20
0.0
 30
0.0
  3
*Paper_Space
  1

  0
ENDBLK
  5
1D
330
1B
100
AcDbEntity
 67
     1
  8
0
100
AcDbBlockEnd
  0
BLOCK
  5
24
330
23
100
AcDbEntity
  8
0
100
AcDbBlockBegin
  2
*Paper_Space0
 70
     0
 10
0.0
 20
0.0
 30
0.0
  3
*Paper_Space0
  1

  0
ENDBLK
  5
25
330
23
100
AcDbEntity
  8
0
100
AcDbBlockEnd
  0
ENDSEC
  0
SECTION
  2
ENTITIES
  0
SPLINE
  5
6F
330
1F
100
AcDbEntity
  8
2D DXF
370
    -3
100
AcDbSpline
210
0.0
220
0.0
230
1.0
 70
     8
 71
     3
 72
    10
 73
     6
 74
     0
 42
0.000000001
 43
0.0000000001
 40
0.4499194873218353
 40
0.4499194873218353
 40
0.4499194873218353
 40
0.4499194873218353
 40
1.0
 40
2.0
 40
2.179195912605002
 40
2.179195912605002
 40
2.179195912605002
 40
2.179195912605002
 10
-4.236336047985262
 20
19.40983582863617
 30
0.0
 10
-4.258003219435338
 20
19.29280514842842
 30
0.0
 10
-4.320179179662873
 20
18.96323058182563
 30
0.0
 10
-4.393880981776715
 20
18.59653980570613
 30
0.0
 10
-4.450876741217708
 20
18.34766964346322
 30
0.0
 10
-4.459820933575674
 20
18.30992264129153
 30
0.0
  0
SPLINE
  5
70
330
1F
100
AcDbEntity
  8
2D DXF
370
    -3
100
AcDbSpline
210
0.0
220
0.0
230
1.0
 70
     8
 71
     3
 72
    10
 73
     6
 74
     0
 42
0.000000001
 43
0.0000000001
 40
0.4512712821167845
 40
0.4512712821167845
 40
0.4512712821167845
 40
0.4512712821167845
 40
1.0
 40
2.0
 40
2.179743839211395
 40
2.179743839211395
 40
2.179743839211395
 40
2.179743839211395
 10
4.232166230925785
 20
19.40897303919695
 30
0.0
 10
4.253782105097187
 20
19.29223031807589
 30
0.0
 10
4.315907231024099
 20
18.96294393552937
 30
0.0
 10
4.389574772256745
 20
18.59642361859479
 30
0.0
 10
4.446600147945465
 20
18.34743836309298
 30
0.0
 10
4.455573425209018
 20
18.3095763867635
 30
0.0
  0
SPLINE
  5
72
330
1F
100
AcDbEntity
  8
Make2D$Visible$Curves
 62
    18
420
        0
370
    -3
100
AcDbSpline
210
0.0
220
0.0
230
1.0
 70
    11
 71
     2
 72
    34
 73
    31
 74
     0
 42
0.000000001
 43
0.0000000001
 40
0.0
 40
0.0
 40
0.0
 40
1.000000040306232
 40
2.000000080612463
 40
3.000000120918695
 40
4.000000161224927
 40
5.000000201531158
 40
6.00000024183739
 40
7.00000028214362
 40
8.000000322449853
 40
9.000000362756083
 40
10.00000040306232
 40
11.00000044336855
 40
12.00000048367478
 40
13.00000052398101
 40
14.0
 40
14.0
 40
14.99999947601899
 40
15.99999951632522
 40
16.99999955663145
 40
17.99999959693768
 40
18.99999963724391
 40
19.99999967755015
 40
20.99999971785638
 40
21.99999975816261
 40
22.99999979846884
 40
23.99999983877507
 40
24.9999998790813
 40
25.99999991938754
 40
26.99999995969377
 40
28.0
 40
28.0
 40
28.0
 10
-0.0392817417115481
 20
56.39780685111882
 30
0.0
 10
0.9097154342965439
 20
56.40296666471619
 30
0.0
 10
2.79749309204945
 20
56.20812375251857
 30
0.0
 10
4.636887663929073
 20
55.70181846961626
 30
0.0
 10
6.211606515204878
 20
54.60843316563945
 30
0.0
 10
7.280678146215877
 20
53.02273241096135
 30
0.0
 10
7.887226657264947
 20
51.21826982818898
 30
0.0
 10
8.220923252060757
 20
49.34871620791141
 30
0.0
 10
8.234714760569943
 20
47.4479398134096
 30
0.0
 10
7.926024946572127
 20
45.57204508260612
 30
0.0
 10
7.244959741952329
 20
43.79237001056229
 30
0.0
 10
6.10635038649805
 20
42.26013158070982
 30
0.0
 10
4.568126850073099
 20
41.13067559931001
 30
0.0
 10
2.788885043331447
 20
40.4489208279405
 30
0.0
 10
0.9105533482647985
 20
40.15423366990541
 30
0.0
 10
-0.0392817417115481
 20
40.15711102342578
 30
0.0
 10
-0.9891168316878947
 20
40.15423366990541
 30
0.0
 10
-2.867448526754544
 20
40.4489208279405
 30
0.0
 10
-4.646690333496196
 20
41.13067559931001
 30
0.0
 10
-6.184913869921147
 20
42.26013158070982
 30
0.0
 10
-7.323523225375425
 20
43.79237001056229
 30
0.0
 10
-8.004588429995223
 20
45.57204508260612
 30
0.0
 10
-8.31327824399304
 20
47.4479398134096
 30
0.0
 10
-8.299486735483853
 20
49.34871620791141
 30
0.0
 10
-7.965790140688043
 20
51.21826982818898
 30
0.0
 10
-7.359241629638973
 20
53.02273241096135
 30
0.0
 10
-6.290169998627974
 20
54.60843316563945
 30
0.0
 10
-4.715451147352169
 20
55.70181846961626
 30
0.0
 10
-2.876056575472546
 20
56.20812375251857
 30
0.0
 10
-0.98827891771964
 20
56.40296666471619
 30
0.0
 10
-0.0392817417115481
 20
56.39780685111882
 30
0.0
  0
SPLINE
  5
73
330
1F
100
AcDbEntity
  8
Make2D$Visible$Curves
 62
    18
420
        0
370
    -3
100
AcDbSpline
210
0.0
220
0.0
230
1.0
 70
    12
 71
     3
 72
    48
 73
    44
 74
     0
 42
0.000000001
 43
0.0000000001
 40
0.0
 40
0.0
 40
0.0
 40
0.0
 40
1.0
 40
1.0
 40
1.0
 40
2.0
 40
3.0
 40
4.0
 40
5.0
 40
6.0
 40
7.0
 40
7.0
 40
7.0
 40
8.0
 40
8.0
 40
9.0
 40
9.0
 40
10.0
 40
10.0
 40
11.0
 40
11.0
 40
12.0
 40
12.0
 40
13.0
 40
13.0
 40
14.0
 40
14.0
 40
15.0
 40
15.0
 40
16.0
 40
16.0
 40
17.0
 40
17.0
 40
18.0
 40
18.0
 40
19.0
 40
19.0
 40
20.0
 40
20.0
 40
21.0
 40
21.0
 40
21.0
 40
21.40578199946958
 40
21.40578199946958
 40
21.40578199946958
 40
21.40578199946958
 10
43.54752427391249
 20
16.81360852542926
 30
0.0
 41
1.0
 10
43.59105707433663
 20
16.79336305775798
 30
0.0
 41
1.0
 10
43.64984064544518
 20
16.82589196873426
 30
0.0
 41
1.0
 10
43.66977516970306
 20
16.86956803065999
 30
0.0
 41
1.0
 10
43.69240276115156
 20
16.91914453785674
 30
0.0
 41
1.0
 10
43.70182520858413
 20
17.03335461053615
 30
0.0
 41
1.0
 10
43.61936528788
 20
17.17932483303844
 30
0.0
 41
1.0
 10
43.50241419597846
 20
17.2935968514114
 30
0.0
 41
1.0
 10
43.36973374736583
 20
17.38915576128592
 30
0.0
 41
1.0
 10
43.22863567356546
 20
17.47126545577618
 30
0.0
 41
1.0
 10
43.13020090640242
 20
17.51765547931592
 30
0.0
 41
1.0
 10
43.08145129628289
 20
17.54175105550433
 30
0.0
 41
1.0
 10
42.76153284800128
 20
17.69987784514937
 30
0.0
 41
1.0
 10
42.43710629716931
 20
17.84859723521167
 30
0.0
 41
1.0
 10
41.7792369904047
 20
18.12722121617078
 30
0.0
 41
1.0
 10
41.44181787158526
 20
18.24185326975801
 30
0.0
 41
1.0
 10
40.75001070307223
 20
18.42175750314777
 30
0.0
 41
1.0
 10
40.39996108191778
 20
18.48978820680961
 30
0.0
 41
1.0
 10
39.69156976581303
 20
18.5820067880672
 30
0.0
 41
1.0
 10
39.33616465498282
 20
18.61317717190009
 30
0.0
 41
1.0
 10
38.62293552776677
 20
18.64564012597405
 30
0.0
 41
1.0
 10
38.26618769253196
 20
18.65105263561398
 30
0.0
 41
1.0
 10
37.55242547880879
 20
18.64023972009974
 30
0.0
 41
1.0
 10
37.19584982207672
 20
18.6270842750817
 30
0.0
 41
1.0
 10
36.48330940887169
 20
18.58527541052382
 30
0.0
 41
1.0
 10
36.12748286779963
 20
18.55859020172025
 30
0.0
 41
1.0
 10
35.41671711671636
 20
18.49365823106384
 30
0.0
 41
1.0
 10
35.0617305948723
 20
18.4573781034231
 30
0.0
 41
1.0
 10
34.35255025857931
 20
18.37718956351658
 30
0.0
 41
1.0
 10
33.99822861554803
 20
18.33486970921065
 30
0.0
 41
1.0
 10
33.29012237971592
 20
18.24577883189346
 30
0.0
 41
1.0
 10
32.93630692966586
 20
18.19941733530791
 30
0.0
 41
1.0
 10
32.22915136529775
 20
18.10306222628286
 30
0.0
 41
1.0
 10
31.87582498058204
 20
18.05311897301545
 30
0.0
 41
1.0
 10
31.16967500608725
 20
17.94970106897085
 30
0.0
 41
1.0
 10
30.81731491760469
 20
17.89321964809364
 30
0.0
 41
1.0
 10
30.1140245381692
 20
17.77071186862939
 30
0.0
 41
1.0
 10
29.76476406991607
 20
17.6981280310417
 30
0.0
 41
1.0
 10
29.07101257633896
 20
17.53030046015515
 30
0.0
 41
1.0
 10
28.72497320589586
 20
17.44320357675159
 30
0.0
 41
1.0
 10
28.37977021179823
 20
17.35292359538774
 30
0.0
 41
1.0
 10
28.23969272357979
 20
17.31628951850519
 30
0.0
 41
0.9999953304417449
 10
28.09975333089579
 20
17.27913141481497
 30
0.0
 41
0.9999953304417449
 10
27.95995399411167
 20
17.24144980485284
 30
0.0
 41
1.0
  0
SPLINE
  5
74
330
1F
100
AcDbEntity
  8
Make2D$Visible$Curves
 62
    18
420
        0
370
    -3
100
AcDbSpline
210
0.0
220
0.0
230
1.0
 70
     8
 71
     3
 72
    27
 73
    23
 74
     0
 42
0.000000001
 43
0.0000000001
 40
0.0
 40
0.0
 40
0.0
 40
0.0
 40
1.0
 40
2.0
 40
3.0
 40
4.0
 40
5.0
 40
6.0
 40
7.0
 40
8.0
 40
9.0
 40
9.0
 40
9.0
 40
10.0
 40
11.0
 40
12.0
 40
13.0
 40
14.0
 40
15.0
 40
16.0
 40
17.0
 40
18.0
 40
18.0
 40
18.0
 40
18.0
 10
-8.51491888045392
 20
17.92239153823639
 30
0.0
 10
-8.377956704615372
 20
18.27250757763646
 30
0.0
 10
-7.629243614173078
 20
18.20981728820049
 30
0.0
 10
-6.715168096396781
 20
17.98177788714
 30
0.0
 10
-5.776227802112857
 20
17.67078120160678
 30
0.0
 10
-4.844640440724319
 20
17.37916909587808
 30
0.0
 10
-3.895187218227449
 20
17.13606805622903
 30
0.0
 10
-2.93249183033484
 20
16.95712708839024
 30
0.0
 10
-1.959696883605702
 20
16.8438748645763
 30
0.0
 10
-0.982401771188151
 20
16.78475748554902
 30
0.0
 10
-0.3298448196893133
 20
16.77267916185511
 30
0.0
 10
-0.0035730079454765
 20
16.7726890087908
 30
0.0
 10
0.3226968454288937
 20
16.77155851569528
 30
0.0
 10
0.9752914331868965
 20
16.7813954299304
 30
0.0
 10
1.952783831466618
 20
16.83715574344871
 30
0.0
 10
2.925962027624706
 20
16.94706603915864
 30
0.0
 10
3.889266345734441
 20
17.12269938038947
 30
0.0
 10
4.83954894724117
 20
17.36253789785847
 30
0.0
 10
5.772132414045231
 20
17.65094855915604
 30
0.0
 10
6.712135350614204
 20
17.95871843078797
 30
0.0
 10
7.62698872384972
 20
18.18361691035967
 30
0.0
 10
8.375912720349021
 20
18.24373522418089
 30
0.0
 10
8.51167154428417
 20
17.89315082581244
 30
0.0
  0
SPLINE
  5
75
330
1F
100
AcDbEntity
  8
Make2D$Visible$Curves
 62
    18
420
        0
370
    -3
100
AcDbSpline
210
0.0
220
0.0
230
1.0
 70
    12
 71
     3
 72
    41
 73
    37
 74
     0
 42
0.000000001
 43
0.0000000001
 40
-0.0671572777863575
 40
-0.0671572777863575
 40
-0.0671572777863575
 40
-0.0671572777863575
 40
0.0
 40
0.0
 40
0.0
 40
1.000000150794276
 40
2.000000301588552
 40
3.000000452382829
 40
4.000000603177105
 40
5.000000753971381
 40
6.000000904765657
 40
7.000001055559935
 40
8.00000120635421
 40
9.000001357148488
 40
10.00000150794276
 40
11.00000165873704
 40
12.00000180953132
 40
13.0
 40
13.0
 40
13.0
 40
13.99999819046868
 40
14.99999834126296
 40
15.99999849205724
 40
16.99999864285151
 40
17.99999879364579
 40
18.99999894444007
 40
19.99999909523434
 40
20.99999924602862
 40
21.99999939682289
 40
22.99999954761717
 40
23.99999969841145
 40
24.99999984920573
 40
26.0
 40
26.0
 40
26.0
 40
26.06715727778636
 40
26.06715727778636
 40
26.06715727778636
 40
26.06715727778636
 10
-8.268917827771759
 20
18.1738940150775
 30
0.0
 41
1.0
 10
-8.267534409371807
 20
18.18987966322626
 30
0.0
 41
0.9989377936654854
 10
-8.265251162529928
 20
18.20576177823227
 30
0.0
 41
0.9989377936654854
 10
-8.262075363083866
 20
18.22148974984604
 30
0.0
 41
1.0
 10
-8.214811504921485
 20
18.45556140083079
 30
0.0
 41
1.0
 10
-7.769867973154717
 20
18.63057922486204
 30
0.0
 41
1.0
 10
-7.127067671987405
 20
18.62424977536551
 30
0.0
 41
1.0
 10
-6.479301699421896
 20
18.54814751800538
 30
0.0
 41
1.0
 10
-5.8365196269515
 20
18.45751644740887
 30
0.0
 41
1.0
 10
-5.191084504309643
 20
18.38084437602234
 30
0.0
 41
1.0
 10
-4.544691947501946
 20
18.31494595992815
 30
0.0
 41
1.0
 10
-3.896874052536205
 20
18.26398840131467
 30
0.0
 41
1.0
 10
-3.248180719382461
 20
18.22629384016061
 30
0.0
 41
1.0
 10
-2.598916479589278
 20
18.2002751007525
 30
0.0
 41
1.0
 10
-1.949350977743165
 20
18.18376101579451
 30
0.0
 41
1.0
 10
-1.299649915774523
 20
18.17439115451028
 30
0.0
 41
1.0
 10
-0.6499000795170673
 20
18.16994030455071
 30
0.0
 41
1.0
 10
-0.2167252948727594
 20
18.16922431650664
 30
0.0
 41
1.0
 10
-0.0001383358427205
 20
18.16923238871103
 30
0.0
 41
1.0
 10
0.2164486231873184
 20
18.16922431650664
 30
0.0
 41
1.0
 10
0.6496234078316263
 20
18.16994030455071
 30
0.0
 41
1.0
 10
1.299373244089082
 20
18.17439115451028
 30
0.0
 41
1.0
 10
1.949074306057724
 20
18.18376101579451
 30
0.0
 41
1.0
 10
2.598639807903837
 20
18.2002751007525
 30
0.0
 41
1.0
 10
3.24790404769702
 20
18.22629384016061
 30
0.0
 41
1.0
 10
3.896597380850764
 20
18.26398840131467
 30
0.0
 41
1.0
 10
4.544415275816505
 20
18.31494595992815
 30
0.0
 41
1.0
 10
5.190807832624202
 20
18.38084437602234
 30
0.0
 41
1.0
 10
5.836242955266059
 20
18.45751644740887
 30
0.0
 41
1.0
 10
6.479025027736455
 20
18.54814751800538
 30
0.0
 41
1.0
 10
7.126791000301964
 20
18.62424977536551
 30
0.0
 41
1.0
 10
7.769591301469276
 20
18.63057922486204
 30
0.0
 41
1.0
 10
8.214534833236044
 20
18.45556140083079
 30
0.0
 41
1.0
 10
8.261798691398425
 20
18.22148974984604
 30
0.0
 41
1.0
 10
8.264974490844493
 20
18.20576177823227
 30
0.0
 41
0.9989377936654854
 10
8.267257737686386
 20
18.18987966322625
 30
0.0
 41
0.9989377936654854
 10
8.268641156086318
 20
18.1738940150775
 30
0.0
 41
1.0
  0
SPLINE
  5
76
330
1F
100
AcDbEntity
  8
2D DXF
370
    -3
100
AcDbSpline
210
0.0
220
0.0
230
1.0
 70
     8
 71
     2
 72
    53
 73
    50
 74
     0
 42
0.000000001
 43
0.0000000001
 40
-48.0
 40
-48.0
 40
-48.0
 40
-47.0
 40
-46.0
 40
-45.0
 40
-44.0
 40
-43.0
 40
-42.0
 40
-41.0
 40
-40.0
 40
-39.0
 40
-38.0
 40
-37.0
 40
-36.0
 40
-35.0
 40
-34.0
 40
-33.0
 40
-32.0
 40
-31.0
 40
-30.0
 40
-29.0
 40
-28.0
 40
-27.0
 40
-26.0
 40
-25.0
 40
-24.0
 40
-23.0
 40
-22.0
 40
-21.0
 40
-20.0
 40
-19.0
 40
-18.0
 40
-17.0
 40
-16.0
 40
-15.0
 40
-14.0
 40
-13.0
 40
-12.0
 40
-11.0
 40
-10.0
 40
-9.0
 40
-8.0
 40
-7.0
 40
-6.0
 40
-5.0
 40
-4.0
 40
-3.0
 40
-2.0
 40
-1.0
 40
0.0
 40
0.0
 40
0.0
 10
24.97906555808147
 20
24.47057043367955
 30
0.0
 10
25.22721597265259
 20
24.38933884326484
 30
0.0
 10
25.61690515419521
 20
24.05553155498049
 30
0.0
 10
25.81070609192177
 20
23.5713364457757
 30
0.0
 10
25.93681108845898
 20
23.07510044315802
 30
0.0
 10
26.01283517477113
 20
22.56731502729154
 30
0.0
 10
26.0808720735434
 20
22.05900711636832
 30
0.0
 10
26.13305100699127
 20
21.54870209834911
 30
0.0
 10
26.1728891074696
 20
21.03732549650387
 30
0.0
 10
26.20371285451394
 20
20.52533331423682
 30
0.0
 10
26.23120321097845
 20
20.01315948222593
 30
0.0
 10
26.26331418580033
 20
19.50123708545378
 30
0.0
 10
26.3154365771302
 20
18.99078517952377
 30
0.0
 10
26.4115437465734
 20
18.48661313774051
 30
0.0
 10
26.5739282102037
 20
17.99746652452855
 30
0.0
 10
26.879896473773
 20
17.57937482897862
 30
0.0
 10
27.3230847860814
 20
17.30890413878606
 30
0.0
 10
27.82944485344997
 20
17.20758355037135
 30
0.0
 10
28.34307685934643
 20
17.20594053462086
 30
0.0
 10
28.85444029497997
 20
17.24730760506721
 30
0.0
 10
29.36418216028996
 20
17.30435551007092
 30
0.0
 10
29.8729960978451
 20
17.36910555527177
 30
0.0
 10
30.38134572334248
 20
17.43736499092357
 30
0.0
 10
30.88950378613147
 20
17.50703023223653
 30
0.0
 10
31.39765146602021
 20
17.5767756536558
 30
0.0
 10
31.9059142009
 20
17.6456760084499
 30
0.0
 10
32.41439149606232
 20
17.7129778953332
 30
0.0
 10
32.9231547166478
 20
17.77808601093284
 30
0.0
 10
33.43225311541944
 20
17.8405220162079
 30
0.0
 10
33.94170726013029
 20
17.89998737855674
 30
0.0
 10
34.45150402782873
 20
17.95643699333544
 30
0.0
 10
34.9616114229387
 20
18.01001221585611
 30
0.0
 10
35.47209272609167
 20
18.0599118602302
 30
0.0
 10
35.98302821624749
 20
18.10494914340759
 30
0.0
 10
36.49449423573255
 20
18.14353898089649
 30
0.0
 10
37.00649353149392
 20
18.17430710166472
 30
0.0
 10
37.51895798374984
 20
18.19606828979973
 30
0.0
 10
38.03175878629447
 20
18.20763013951697
 30
0.0
 10
38.54469760564707
 20
18.20724111070355
 30
0.0
 10
39.05744039531562
 20
18.19264693502598
 30
0.0
 10
39.56944221369351
 20
18.16119550848821
 30
0.0
 10
40.0798342842469
 20
18.10962183720744
 30
0.0
 10
40.58722719586559
 20
18.03376065207617
 30
0.0
 10
41.08930199635542
 20
17.92797333482693
 30
0.0
 10
41.58202148579529
 20
17.78417929486326
 30
0.0
 10
42.058309053717
 20
17.59312244171245
 30
0.0
 10
42.52257799651066
 20
17.37477496887144
 30
0.0
 10
42.97375217855729
 20
17.13068525442661
 30
0.0
 10
43.41875826375816
 20
16.87547275854027
 30
0.0
 10
43.64784443729447
 20
16.76007424198828
 30
0.0
  0
SPLINE
  5
77
330
1F
100
AcDbEntity
  8
2D DXF
370
    -3
100
AcDbSpline
210
0.0
220
0.0
230
1.0
 70
     8
 71
     3
 72
     8
 73
     4
 74
     0
 42
0.000000001
 43
0.0000000001
 40
-49.0
 40
-49.0
 40
-49.0
 40
-49.0
 40
-48.0
 40
-48.0
 40
-48.0
 40
-48.0
 10
24.79346368924821
 20
24.40542618517027
 30
0.0
 10
24.77276137547763
 20
24.49246986778368
 30
0.0
 10
24.89687768535261
 20
24.49747448550679
 30
0.0
 10
24.97906555808147
 20
24.47057043367955
 30
0.0
  0
SPLINE
  5
78
330
1F
100
AcDbEntity
  8
2D DXF
370
    -3
100
AcDbSpline
210
0.0
220
0.0
230
1.0
 70
     8
 71
     2
 72
    31
 73
    28
 74
     0
 42
0.000000001
 43
0.0000000001
 40
-74.50594340722365
 40
-74.50594340722365
 40
-74.50594340722365
 40
-74.0
 40
-73.0
 40
-72.0
 40
-71.0
 40
-70.0
 40
-69.0
 40
-68.0
 40
-67.0
 40
-66.0
 40
-65.0
 40
-64.0
 40
-63.0
 40
-62.0
 40
-61.0
 40
-60.0
 40
-59.0
 40
-58.0
 40
-57.0
 40
-56.0
 40
-55.0
 40
-54.0
 40
-53.0
 40
-52.0
 40
-51.0
 40
-50.0
 40
-49.0
 40
-49.0
 40
-49.0
 10
29.45461212635375
 20
16.41590607082678
 30
0.0
 10
29.34490724893435
 20
16.41079362994485
 30
0.0
 10
29.01818583739482
 20
16.39945854142266
 30
0.0
 10
28.58400807868016
 20
16.39734094739947
 30
0.0
 10
28.15002280583145
 20
16.41190077071411
 30
0.0
 10
27.71746775127475
 20
16.45077123769416
 30
0.0
 10
27.28902984962953
 20
16.52260084297025
 30
0.0
 10
26.86951802069002
 20
16.63620137232593
 30
0.0
 10
26.46828039839365
 20
16.80414202852327
 30
0.0
 10
26.10210154311228
 20
17.04042615407164
 30
0.0
 10
25.80239618161006
 20
17.3578723050183
 30
0.0
 10
25.59832279114558
 20
17.74343654262366
 30
0.0
 10
25.47395298306328
 20
18.16034079550489
 30
0.0
 10
25.40148188869462
 20
18.58871512752103
 30
0.0
 10
25.35912377121436
 20
19.02089169236388
 30
0.0
 10
25.33224686292353
 20
19.45422981288768
 30
0.0
 10
25.31690376246986
 20
19.88811918684893
 30
0.0
 10
25.30647537039677
 20
20.32213866434088
 30
0.0
 10
25.29460781241109
 20
20.75612454052066
 30
0.0
 10
25.27617557627021
 20
21.18989117944825
 30
0.0
 10
25.24788998150446
 20
21.62313583866363
 30
0.0
 10
25.2081377334497
 20
22.05548342246801
 30
0.0
 10
25.15655183790325
 20
22.48657918108003
 30
0.0
 10
25.09349100366582
 20
22.91614388554771
 30
0.0
 10
25.01972852989992
 20
23.3439974762027
 30
0.0
 10
24.93614495617153
 20
23.77003784488198
 30
0.0
 10
24.84369219071307
 20
24.19423849918988
 30
0.0
 10
24.79346368924821
 20
24.40542618517027
 30
0.0
  0
SPLINE
  5
79
330
1F
100
AcDbEntity
  8
2D DXF
370
    -3
100
AcDbSpline
210
0.0
220
0.0
230
1.0
 70
     8
 71
     3
 72
     8
 73
     4
 74
     0
 42
0.000000001
 43
0.0000000001
 40
30.24920543449504
 40
30.24920543449504
 40
30.24920543449504
 40
30.24920543449504
 40
31.24920543449504
 40
31.24920543449504
 40
31.24920543449504
 40
31.24920543449504
 10
43.58732643923993
 20
16.46323857904483
 30
0.0
 10
43.80277155462151
 20
16.36821749028972
 30
0.0
 10
43.83820687238425
 20
16.66418219281969
 30
0.0
 10
43.64784443729447
 20
16.76007424198828
 30
0.0
  0
SPLINE
  5
7A
330
1F
100
AcDbEntity
  8
2D DXF
370
    -3
100
AcDbSpline
210
0.0
220
0.0
230
1.0
 70
     8
 71
     2
 72
    10
 73
     7
 74
     0
 42
0.000000001
 43
0.0000000001
 40
25.26262598822312
 40
25.26262598822312
 40
25.26262598822312
 40
26.24920543449504
 40
27.24920543449504
 40
28.24920543449504
 40
29.24920543449504
 40
30.24920543449504
 40
30.24920543449504
 40
30.24920543449504
 10
39.2254054543386
 20
17.34370982566857
 30
0.0
 10
39.6701515468345
 20
17.35521573130509
 30
0.0
 10
40.56584822659359
 20
17.32438585064482
 30
0.0
 10
41.46012502268378
 20
17.20081542239728
 30
0.0
 10
42.33268252940026
 20
16.96935872389464
 30
0.0
 10
43.17476150079951
 20
16.64519846968035
 30
0.0
 10
43.58732643923993
 20
16.46323857904483
 30
0.0
  0
SPLINE
  5
7B
330
1F
100
AcDbEntity
  8
2D DXF
370
    -3
100
AcDbSpline
210
0.0
220
0.0
230
1.0
 70
     8
 71
     3
 72
    13
 73
     9
 74
     0
 42
0.000000001
 43
0.0000000001
 40
2.653759719270375
 40
2.653759719270375
 40
2.653759719270375
 40
2.653759719270375
 40
2.875412985122733
 40
3.097066250975091
 40
3.207892883901271
 40
3.31871951682745
 40
3.429546149753629
 40
3.540372782679808
 40
3.540372782679808
 40
3.540372782679808
 40
3.540372782679808
 10
31.84793113365286
 20
16.24052104853744
 30
0.0
 10
31.8441419768594
 20
16.27657246724454
 30
0.0
 10
31.88658051237984
 20
16.33640679237323
 30
0.0
 10
32.03418929818399
 20
16.38921744485663
 30
0.0
 10
32.19543034390263
 20
16.42261166223347
 30
0.0
 10
32.33439556036801
 20
16.44422142622175
 30
0.0
 10
32.48694573570656
 20
16.46322347926691
 30
0.0
 10
32.59378162417237
 20
16.47476687729921
 30
0.0
 10
32.64723717604839
 20
16.48038528219984
 30
0.0
  0
SPLINE
  5
7C
330
1F
100
AcDbEntity
  8
2D DXF
370
    -3
100
AcDbSpline
210
0.0
220
0.0
230
1.0
 70
     8
 71
     3
 72
    13
 73
     9
 74
     0
 42
0.000000001
 43
0.0000000001
 40
1.767146655860941
 40
1.767146655860941
 40
1.767146655860941
 40
1.767146655860941
 40
1.877973288787121
 40
1.9887999217133
 40
2.099626554639479
 40
2.210453187565658
 40
2.432106453418017
 40
2.653759719270375
 40
2.653759719270375
 40
2.653759719270375
 40
2.653759719270375
 10
32.67964099966154
 20
16.17208349463409
 30
0.0
 10
32.62618544778552
 20
16.16646508973344
 30
0.0
 10
32.51928417240775
 20
16.15554380661211
 30
0.0
 10
32.36611683543121
 20
16.14241365431804
 30
0.0
 10
32.22569541979117
 20
16.13465869999542
 30
0.0
 10
32.06103482958331
 20
16.13379927515636
 30
0.0
 10
31.90567169785074
 20
16.15476629594006
 30
0.0
 10
31.85172029044632
 20
16.20446962983034
 30
0.0
 10
31.84793113365286
 20
16.24052104853744
 30
0.0
  0
SPLINE
  5
7D
330
1F
100
AcDbEntity
  8
2D DXF
370
    -3
100
AcDbSpline
210
0.0
220
0.0
230
1.0
 70
     8
 71
     5
 72
    17
 73
    11
 74
     0
 42
0.000000001
 43
0.0000000001
 40
0.8835733279304706
 40
0.8835733279304706
 40
0.8835733279304706
 40
0.8835733279304706
 40
0.8835733279304706
 40
0.8835733279304706
 40
1.104466659913288
 40
1.214913325904553
 40
1.325359991895817
 40
1.435806657887083
 40
1.546253323878347
 40
1.767146655860941
 40
1.767146655860941
 40
1.767146655860941
 40
1.767146655860941
 40
1.767146655860941
 40
1.767146655860941
 10
33.47894704205682
 20
16.41194772829646
 30
0.0
 10
33.48122053613291
 20
16.3903168770722
 30
0.0
 10
33.47331201570937
 20
16.36062588973873
 30
0.0
 10
33.44219488448276
 20
16.32604021486214
 30
0.0
 10
33.37370278237826
 20
16.28983942886527
 30
0.0
 10
33.25418514627272
 20
16.25454460334914
 30
0.0
 10
33.10872504052195
 20
16.22450183685593
 30
0.0
 10
32.9648648381776
 20
16.20389766204398
 30
0.0
 10
32.83996746485657
 20
16.18931115618918
 30
0.0
 10
32.74378766191278
 20
16.17882558051486
 30
0.0
 10
32.67964099966154
 20
16.17208349463409
 30
0.0
  0
SPLINE
  5
7E
330
1F
100
AcDbEntity
  8
2D DXF
370
    -3
100
AcDbSpline
210
0.0
220
0.0
230
1.0
 70
     8
 71
     5
 72
    17
 73
    11
 74
     0
 42
0.000000001
 43
0.0000000001
 40
0.0
 40
0.0
 40
0.0
 40
0.0
 40
0.0
 40
0.0
 40
0.2208933319825939
 40
0.3313399979738589
 40
0.4417866639651238
 40
0.5522333299563886
 40
0.6626799959476536
 40
0.8835733279304706
 40
0.8835733279304706
 40
0.8835733279304706
 40
0.8835733279304706
 40
0.8835733279304706
 40
0.8835733279304706
 10
32.64723717604839
 20
16.48038528219984
 30
0.0
 10
32.71138383829962
 20
16.4871273680806
 30
0.0
 10
32.80764195555581
 20
16.49686783284501
 30
0.0
 10
32.93284272670313
 20
16.50856770120594
 30
0.0
 10
33.07784308729036
 20
16.51832399495934
 30
0.0
 10
33.22637078311142
 20
16.51918059152779
 30
0.0
 10
33.35061487896361
 20
16.50950615643612
 30
0.0
 10
33.42513683093186
 20
16.48833675322482
 30
0.0
 10
33.46276474432459
 20
16.46097647369125
 30
0.0
 10
33.47667354798075
 20
16.43357857952072
 30
0.0
 10
33.47894704205682
 20
16.41194772829646
 30
0.0
  0
SPLINE
  5
7F
330
1F
100
AcDbEntity
  8
2D DXF
370
    -3
100
AcDbSpline
210
0.0
220
0.0
230
1.0
 70
     8
 71
     3
 72
     8
 73
     4
 74
     0
 42
0.000000001
 43
0.0000000001
 40
-0.5816880328048271
 40
-0.5816880328048271
 40
-0.5816880328048271
 40
-0.5816880328048271
 40
-0.1696681538827542
 40
-0.1696681538827542
 40
-0.1696681538827542
 40
-0.1696681538827542
 10
32.30095309310279
 20
16.84218401788757
 30
0.0
 10
32.32785874264708
 20
16.72563577778799
 30
0.0
 10
32.35476310028689
 20
16.60909618201128
 30
0.0
 10
32.38166779091925
 20
16.49255389263478
 30
0.0
  0
SPLINE
  5
80
330
1F
100
AcDbEntity
  8
2D DXF
370
    -3
100
AcDbSpline
210
0.0
220
0.0
230
1.0
 70
     8
 71
     3
 72
     8
 73
     4
 74
     0
 42
0.000000001
 43
0.0000000001
 40
-0.416228929430958
 40
-0.416228929430958
 40
-0.416228929430958
 40
-0.416228929430958
 40
0.0073818719498712
 40
0.0073818719498712
 40
0.0073818719498712
 40
0.0073818719498712
 10
32.9053108216895
 20
16.54735104580069
 30
0.0
 10
32.9074355885809
 20
16.66936720726589
 30
0.0
 10
32.90956062108744
 20
16.79138168821996
 30
0.0
 10
32.91168509792813
 20
16.91342288715746
 30
0.0
  0
SPLINE
  5
81
330
1F
100
AcDbEntity
  8
2D DXF
370
    -3
100
AcDbSpline
210
0.0
220
0.0
230
1.0
 70
     8
 71
     2
 72
     9
 73
     6
 74
     0
 42
0.000000001
 43
0.0000000001
 40
0.0
 40
0.0
 40
0.0
 40
1.0
 40
2.0
 40
3.0
 40
3.573659889073946
 40
3.573659889073946
 40
3.573659889073946
 10
32.6369775814134
 20
16.5779988047103
 30
0.0
 10
32.56603847854102
 20
16.57054280455247
 30
0.0
 10
32.43615330990009
 20
16.51477605157401
 30
0.0
 10
32.30554542657153
 20
16.46148426315523
 30
0.0
 10
32.20012450929958
 20
16.42625479791065
 30
0.0
 10
32.1612912502862
 20
16.4150799451429
 30
0.0
  0
SPLINE
  5
82
330
1F
100
AcDbEntity
  8
2D DXF
370
    -3
100
AcDbSpline
210
0.0
220
0.0
230
1.0
 70
     8
 71
     2
 72
     9
 73
     6
 74
     0
 42
0.000000001
 43
0.0000000001
 40
-3.57122434459611
 40
-3.57122434459611
 40
-3.57122434459611
 40
-3.0
 40
-2.0
 40
-1.0
 40
0.0
 40
0.0
 40
0.0
 10
33.1357994957081
 20
16.51756515094686
 30
0.0
 10
33.09566278859886
 20
16.52041703961157
 30
0.0
 10
32.9853918838176
 20
16.53293900514209
 30
0.0
 10
32.846558110266
 20
16.55791133426579
 30
0.0
 10
32.70791668428585
 20
16.58545480486813
 30
0.0
 10
32.6369775814134
 20
16.5779988047103
 30
0.0
  0
SPLINE
  5
83
330
1F
100
AcDbEntity
  8
2D DXF
370
    -3
100
AcDbSpline
210
0.0
220
0.0
230
1.0
 70
     8
 71
     2
 72
     9
 73
     6
 74
     0
 42
0.000000001
 43
0.0000000001
 40
-6.0
 40
-6.0
 40
-6.0
 40
-5.0
 40
-4.0
 40
-3.0
 40
-2.216501958002819
 40
-2.216501958002819
 40
-2.216501958002819
 10
32.68989877842925
 20
16.07448724894744
 30
0.0
 10
32.75636365825089
 20
16.08147298931312
 30
0.0
 10
32.8827509768311
 20
16.1342334019937
 30
0.0
 10
33.00509698439622
 20
16.1844719454265
 30
0.0
 10
33.1164898124802
 20
16.2236286181551
 30
0.0
 10
33.16638964837209
 20
16.23751594671059
 30
0.0
  0
SPLINE
  5
84
330
1F
100
AcDbEntity
  8
2D DXF
370
    -3
100
AcDbSpline
210
0.0
220
0.0
230
1.0
 70
     8
 71
     2
 72
     9
 73
     6
 74
     0
 42
0.000000001
 43
0.0000000001
 40
2.213615568765502
 40
2.213615568765502
 40
2.213615568765502
 40
3.0
 40
4.0
 40
5.0
 40
6.0
 40
6.0
 40
6.0
 10
32.18954390228315
 20
16.13490895385545
 30
0.0
 10
32.24143203506266
 20
16.1317007624389
 30
0.0
 10
32.35872130529806
 20
16.11653512398062
 30
0.0
 10
32.48883893956655
 20
16.09283157855511
 30
0.0
 10
32.62343389860762
 20
16.06750150858176
 30
0.0
 10
32.68989877842925
 20
16.07448724894744
 30
0.0
  0
SPLINE
  5
85
330
1F
100
AcDbEntity
  8
2D DXF
370
    -3
100
AcDbSpline
210
0.0
220
0.0
230
1.0
 70
    28
 71
     2
 72
     6
 73
     3
 74
     0
 42
0.000000001
 43
0.0000000001
 40
-1.413819884762434
 40
-1.413819884762434
 40
-1.413819884762434
 40
-0.1338198847624337
 40
-0.1338198847624337
 40
-0.1338198847624337
 10
45.33696234077497
 20
2.619054178050994
 30
0.0
 41
1.0
 10
45.33696234077497
 20
1.979054178050993
 30
0.0
 41
1.0
 10
45.33696234077497
 20
1.339054178050993
 30
0.0
 41
1.0
  0
LINE
  5
86
330
1F
100
AcDbEntity
  8
2D DXF
370
    -3
100
AcDbLine
 10
44.05696234077497
 20
2.619054178050994
 30
0.0
 11
45.33696234077497
 21
2.619054178050994
 31
0.0
  0
CIRCLE
  5
87
330
1F
100
AcDbEntity
  8
2D DXF
100
AcDbCircle
 10
44.05696234077497
 20
1.339054178050993
 30
0.0
 40
1.279999999999987
  0
SPLINE
  5
88
330
1F
100
AcDbEntity
  8
2D DXF
370
    -3
100
AcDbSpline
210
0.0
220
0.0
230
1.0
 70
    28
 71
     2
 72
     8
 73
     5
 74
     0
 42
0.000000001
 43
0.0000000001
 40
-1.036725575684632
 40
-1.036725575684632
 40
-1.036725575684632
 40
-0.5183627878423159
 40
-0.5183627878423159
 40
0.0
 40
0.0
 40
0.0
 10
44.65246234077499
 20
2.744054178050994
 30
0.0
 41
1.0
 10
44.65246234077498
 20
2.744054178050993
 30
0.0
 41
0.7071067811865476
 10
44.98246234077497
 20
2.744054178050994
 30
0.0
 41
1.0
 10
45.31246234077501
 20
2.744054178050993
 30
0.0
 41
0.7071067811865476
 10
45.31246234077499
 20
2.744054178050994
 30
0.0
 41
1.0
  0
SPLINE
  5
89
330
1F
100
AcDbEntity
  8
2D DXF
370
    -3
100
AcDbSpline
210
0.0
220
0.0
230
1.0
 70
    28
 71
     2
 72
     6
 73
     3
 74
     0
 42
0.000000001
 43
0.0000000001
 40
-1.413819884762434
 40
-1.413819884762434
 40
-1.413819884762434
 40
-0.1338198847624337
 40
-0.1338198847624337
 40
-0.1338198847624337
 10
33.01196234077496
 20
2.619054178050994
 30
0.0
 41
1.0
 10
33.01196234077496
 20
1.979054178050993
 30
0.0
 41
1.0
 10
33.01196234077496
 20
1.339054178050993
 30
0.0
 41
1.0
  0
LINE
  5
8A
330
1F
100
AcDbEntity
  8
2D DXF
370
    -3
100
AcDbLine
 10
31.73196234077496
 20
2.619054178050994
 30
0.0
 11
33.01196234077496
 21
2.619054178050994
 31
0.0
  0
CIRCLE
  5
8B
330
1F
100
AcDbEntity
  8
2D DXF
100
AcDbCircle
 10
31.73196234077496
 20
1.339054178050993
 30
0.0
 40
1.279999999999987
  0
SPLINE
  5
8C
330
1F
100
AcDbEntity
  8
2D DXF
370
    -3
100
AcDbSpline
210
0.0
220
0.0
230
1.0
 70
    28
 71
     2
 72
     8
 73
     5
 74
     0
 42
0.000000001
 43
0.0000000001
 40
-1.036725575684632
 40
-1.036725575684632
 40
-1.036725575684632
 40
-0.5183627878423159
 40
-0.5183627878423159
 40
0.0
 40
0.0
 40
0.0
 10
32.32746234077494
 20
2.744054178050994
 30
0.0
 41
1.0
 10
32.32746234077494
 20
2.744054178050993
 30
0.0
 41
0.7071067811865476
 10
32.65746234077496
 20
2.744054178050994
 30
0.0
 41
1.0
 10
32.98746234077495
 20
2.744054178050993
 30
0.0
 41
0.7071067811865476
 10
32.98746234077497
 20
2.744054178050994
 30
0.0
 41
1.0
  0
SPLINE
  5
8D
330
1F
100
AcDbEntity
  8
2D DXF
370
    -3
100
AcDbSpline
210
0.0
220
0.0
230
1.0
 70
    24
 71
     2
 72
     6
 73
     3
 74
     0
 42
0.000000001
 43
0.0000000001
 40
-0.125
 40
-0.125
 40
-0.125
 40
0.0
 40
0.0
 40
0.0
 10
32.98746234077497
 20
2.619054178050994
 30
0.0
 10
32.98746234077497
 20
2.681554178050994
 30
0.0
 10
32.98746234077497
 20
2.744054178050994
 30
0.0
  0
SPLINE
  5
8E
330
1F
100
AcDbEntity
  8
2D DXF
370
    -3
100
AcDbSpline
210
0.0
220
0.0
230
1.0
 70
     8
 71
     2
 72
    23
 73
    20
 74
     0
 42
0.000000001
 43
0.0000000001
 40
28.82179011573188
 40
28.82179011573188
 40
28.82179011573188
 40
29.82179011573188
 40
30.82179011573188
 40
31.82179011573188
 40
32.82179011573189
 40
33.82179011573189
 40
34.82179011573189
 40
35.82179011573189
 40
36.82179011573189
 40
37.82179011573189
 40
38.82179011573189
 40
39.82179011573189
 40
40.82179011573189
 40
41.82179011573189
 40
42.82179011573189
 40
43.82179011573189
 40
44.82179011573189
 40
45.82179011573189
 40
46.82179011573189
 40
46.82179011573189
 40
46.82179011573189
 10
39.58083875187548
 20
17.29843081241794
 30
0.0
 10
39.29640071228663
 20
17.33644459939025
 30
0.0
 10
38.7259365181127
 20
17.40127573265075
 30
0.0
 10
38.15152749389553
 20
17.41301899018109
 30
0.0
 10
37.57756297578486
 20
17.39647749964504
 30
0.0
 10
37.00484304971373
 20
17.35528975732294
 30
0.0
 10
36.43320930087476
 20
17.30155254396113
 30
0.0
 10
35.86194298090122
 20
17.24415201860121
 30
0.0
 10
35.29104582347189
 20
17.1831744309584
 30
0.0
 10
34.72037199003564
 20
17.12015406987882
 30
0.0
 10
34.14982418272704
 20
17.05600353604347
 30
0.0
 10
33.57938609184338
 20
16.99088449211184
 30
0.0
 10
33.00905522774262
 20
16.92483296514028
 30
0.0
 10
32.43879330161325
 20
16.85819647814669
 30
0.0
 10
31.86848674425268
 20
16.79189835197752
 30
0.0
 10
31.29779332490186
 20
16.72921064155555
 30
0.0
 10
30.72760657337604
 20
16.66089173384879
 30
0.0
 10
30.16035749145327
 20
16.57566002583014
 30
0.0
 10
29.58987961845175
 20
16.48744853299684
 30
0.0
 10
29.33042953427586
 20
16.36047392572099
 30
0.0
  0
SPLINE
  5
8F
330
1F
100
AcDbEntity
  8
2D DXF
370
    -3
100
AcDbSpline
210
0.0
220
0.0
230
1.0
 70
    28
 71
     2
 72
     6
 73
     3
 74
     0
 42
0.000000001
 43
0.0000000001
 40
28.48241730483766
 40
28.48241730483766
 40
28.48241730483766
 40
28.82179011573188
 40
28.82179011573188
 40
28.82179011573188
 10
39.44280336159964
 20
16.98839834021505
 30
0.0
 41
0.9999999822047236
 10
39.51182105673756
 20
17.14341457631649
 30
0.0
 41
0.9999999822047236
 10
39.58083875187546
 20
17.29843081241794
 30
0.0
 41
0.9999999822047236
  0
SPLINE
  5
90
330
1F
100
AcDbEntity
  8
2D DXF
370
    -3
100
AcDbSpline
210
0.0
220
0.0
230
1.0
 70
    12
 71
     2
 72
     6
 73
     3
 74
     0
 42
0.000000001
 43
0.0000000001
 40
27.48442014587033
 40
27.48442014587033
 40
27.48442014587033
 40
28.48241730483766
 40
28.48241730483766
 40
28.48241730483766
 10
38.68256937521433
 20
16.4069594259635
 30
0.0
 41
1.0
 10
39.22112930545951
 20
16.49051403277034
 30
0.0
 41
0.8780622295905389
 10
39.44280336159964
 20
16.98839834021505
 30
0.0
 41
1.0
  0
SPLINE
  5
91
330
1F
100
AcDbEntity
  8
2D DXF
370
    -3
100
AcDbSpline
210
0.0
220
0.0
230
1.0
 70
     8
 71
     2
 72
    13
 73
    10
 74
     0
 42
0.000000001
 43
0.0000000001
 40
19.48442014587033
 40
19.48442014587033
 40
19.48442014587033
 40
20.48442014587033
 40
21.48442014587033
 40
22.48442014587033
 40
23.48442014587033
 40
24.48442014587033
 40
25.48442014587033
 40
26.48442014587033
 40
27.48442014587033
 40
27.48442014587033
 40
27.48442014587033
 10
30.48851379589009
 20
15.54572927187665
 30
0.0
 10
31.00300894030157
 20
15.57252290180981
 30
0.0
 10
32.03014485635605
 20
15.65315183909217
 30
0.0
 10
33.05669343962084
 20
15.7409414134266
 30
0.0
 10
34.08391069603049
 20
15.8212068708769
 30
0.0
 10
35.10853112113084
 20
15.92948104173829
 30
0.0
 10
36.13180341863158
 20
16.04966956729098
 30
0.0
 10
37.1535080736591
 20
16.18256186665176
 30
0.0
 10
38.17350280104522
 20
16.32799120610154
 30
0.0
 10
38.68256937521433
 20
16.4069594259635
 30
0.0
  0
SPLINE
  5
92
330
1F
100
AcDbEntity
  8
2D DXF
370
    -3
100
AcDbSpline
210
0.0
220
0.0
230
1.0
 70
    12
 71
     2
 72
     6
 73
     3
 74
     0
 42
0.000000001
 43
0.0000000001
 40
18.48640706632447
 40
18.48640706632447
 40
18.48640706632447
 40
19.48442014587033
 40
19.48442014587033
 40
19.48442014587033
 10
29.62399586122827
 20
15.95641457537381
 30
0.0
 41
1.0
 10
29.94434037752224
 20
15.51548509047961
 30
0.0
 41
0.8780584312854955
 10
30.48851379589009
 20
15.54572927187665
 30
0.0
 41
1.0
  0
SPLINE
  5
93
330
1F
100
AcDbEntity
  8
2D DXF
370
    -3
100
AcDbSpline
210
0.0
220
0.0
230
1.0
 70
     8
 71
     3
 72
     8
 73
     4
 74
     0
 42
0.000000001
 43
0.0000000001
 40
18.0
 40
18.0
 40
18.0
 40
18.0
 40
18.48640706632447
 40
18.48640706632447
 40
18.48640706632447
 40
18.48640706632447
 10
29.33042953427586
 20
16.36047392572099
 30
0.0
 10
29.42832046179812
 20
16.22573862359075
 30
0.0
 10
29.5261758987583
 20
16.09105216933896
 30
0.0
 10
29.62399586122827
 20
15.95641457537381
 30
0.0
  0
SPLINE
  5
94
330
1F
100
AcDbEntity
  8
2D DXF
370
    -3
100
AcDbSpline
210
0.0
220
0.0
230
1.0
 70
    12
 71
     2
 72
     6
 73
     3
 74
     0
 42
0.000000001
 43
0.0000000001
 40
3.597297267570287
 40
3.597297267570287
 40
3.597297267570287
 40
4.435814418677666
 40
4.435814418677666
 40
4.435814418677666
 10
31.93683143074161
 20
15.13886622819117
 30
0.0
 41
1.0
 10
31.81765547483358
 20
15.62868319482044
 30
0.0
 41
0.7656381219864815
 10
31.31462647461022
 20
15.59573787347718
 30
0.0
 41
1.0
  0
SPLINE
  5
95
330
1F
100
AcDbEntity
  8
2D DXF
370
    -3
100
AcDbSpline
210
0.0
220
0.0
230
1.0
 70
    24
 71
     2
 72
     6
 73
     3
 74
     0
 42
0.000000001
 43
0.0000000001
 40
3.414732739280092
 40
3.414732739280092
 40
3.414732739280092
 40
3.597297267570287
 40
3.597297267570287
 40
3.597297267570287
 10
31.97999154281537
 20
14.96147679300518
 30
0.0
 10
31.95841148677849
 20
15.05017151059818
 30
0.0
 10
31.93683143074161
 20
15.13886622819117
 30
0.0
  0
SPLINE
  5
96
330
1F
100
AcDbEntity
  8
2D DXF
370
    -3
100
AcDbSpline
210
0.0
220
0.0
230
1.0
 70
    12
 71
     2
 72
     6
 73
     3
 74
     0
 42
0.000000001
 43
0.0000000001
 40
3.361447671301431
 40
3.361447671301431
 40
3.361447671301431
 40
3.414732739280092
 40
3.414732739280092
 40
3.414732739280092
 10
32.0188576767449
 20
14.93093320000269
 30
0.0
 41
1.0
 10
31.98742301637283
 20
14.9309332000032
 30
0.0
 41
0.786260190696171
 10
31.97999154281537
 20
14.96147679300518
 30
0.0
 41
1.0
  0
SPLINE
  5
97
330
1F
100
AcDbEntity
  8
2D DXF
370
    -3
100
AcDbSpline
210
0.0
220
0.0
230
1.0
 70
    12
 71
     2
 72
     8
 73
     5
 74
     0
 42
0.000000001
 43
0.0000000001
 40
1.355211950235501
 40
1.355211950235501
 40
1.355211950235501
 40
2.358329810768466
 40
2.358329810768466
 40
3.361447671301431
 40
3.361447671301431
 40
3.361447671301431
 10
33.29606700480558
 20
14.93093320000299
 30
0.0
 41
1.0
 10
33.29606700977561
 20
14.93093315275002
 30
0.0
 41
0.7071067811865458
 10
32.65746234574523
 20
14.93093315274988
 30
0.0
 41
1.0
 10
32.01885768171491
 20
14.93093315274974
 30
0.0
 41
0.7071067811865458
 10
32.0188576767449
 20
14.93093320000269
 30
0.0
 41
1.0
  0
SPLINE
  5
98
330
1F
100
AcDbEntity
  8
2D DXF
370
    -3
100
AcDbSpline
210
0.0
220
0.0
230
1.0
 70
    12
 71
     2
 72
     6
 73
     3
 74
     0
 42
0.000000001
 43
0.0000000001
 40
1.30192688225681
 40
1.30192688225681
 40
1.30192688225681
 40
1.355211950235501
 40
1.355211950235501
 40
1.355211950235501
 10
33.33493313873571
 20
14.96147679300515
 30
0.0
 41
1.0
 10
33.32750166517729
 20
14.93093320000375
 30
0.0
 41
0.7862601907090584
 10
33.29606700480558
 20
14.93093320000299
 30
0.0
 41
1.0
  0
SPLINE
  5
99
330
1F
100
AcDbEntity
  8
2D DXF
370
    -3
100
AcDbSpline
210
0.0
220
0.0
230
1.0
 70
    24
 71
     2
 72
     6
 73
     3
 74
     0
 42
0.000000001
 43
0.0000000001
 40
1.109317472823581
 40
1.109317472823581
 40
1.109317472823581
 40
1.30192688225681
 40
1.30192688225681
 40
1.30192688225681
 10
33.38046796291717
 20
15.14862637058678
 30
0.0
 10
33.35770055082644
 20
15.05505158179596
 30
0.0
 10
33.33493313873571
 20
14.96147679300515
 30
0.0
  0
SPLINE
  5
9A
330
1F
100
AcDbEntity
  8
2D DXF
370
    -3
100
AcDbSpline
210
0.0
220
0.0
230
1.0
 70
    12
 71
     2
 72
     6
 73
     3
 74
     0
 42
0.000000001
 43
0.0000000001
 40
0.0
 40
0.0
 40
0.0
 40
1.109317472823581
 40
1.109317472823581
 40
1.109317472823581
 10
34.16550756916131
 20
15.8314007175814
 30
0.0
 41
1.0
 10
33.53117646236075
 20
15.76804310314294
 30
0.0
 41
0.8160296580062121
 10
33.38046796291717
 20
15.14862637058678
 30
0.0
 41
1.0
  0
LINE
  5
9B
330
1F
100
AcDbEntity
  8
2D DXF
370
    -3
100
AcDbLine
 10
32.10350895020007
 20
14.045033477781
 30
0.0
 11
32.10350895020007
 21
14.9309332407737
 31
0.0
  0
LINE
  5
9C
330
1F
100
AcDbEntity
  8
2D DXF
370
    -3
100
AcDbLine
 10
33.20550895020007
 20
14.9309331592321
 30
0.0
 11
33.20550895020007
 21
14.045033477781
 31
0.0
  0
SPLINE
  5
9D
330
1F
100
AcDbEntity
  8
2D DXF
370
    -3
100
AcDbSpline
210
0.0
220
0.0
230
1.0
 70
     8
 71
     2
 72
    23
 73
    20
 74
     0
 42
0.000000001
 43
0.0000000001
 40
21.99352404128992
 40
21.99352404128992
 40
21.99352404128992
 40
22.99352404128992
 40
23.99352404128992
 40
24.99352404128992
 40
25.99352404128992
 40
26.99352404128992
 40
27.99352404128992
 40
28.99352404128992
 40
29.99352404128992
 40
30.99352404128992
 40
31.99352404128992
 40
32.99352404128992
 40
33.99352404128992
 40
34.99352404128992
 40
35.99352404128992
 40
36.99352404128992
 40
37.99352404128992
 40
38.99352404128992
 40
40.56948593771971
 40
40.56948593771971
 40
40.56948593771971
 10
44.59171463825966
 20
2.881069049051098
 30
0.0
 10
44.58002513467945
 20
3.219660610854738
 30
0.0
 10
44.43130769547069
 20
3.895755669082809
 30
0.0
 10
43.90978303662085
 20
4.355859655442976
 30
0.0
 10
43.25691491322472
 20
4.561539453718701
 30
0.0
 10
42.59111265492929
 20
4.694121068459459
 30
0.0
 10
41.92102586107224
 20
4.806041292440475
 30
0.0
 10
41.24934549099264
 20
4.907162577963496
 30
0.0
 10
40.57661706313864
 20
5.001152355896187
 30
0.0
 10
39.90323689599465
 20
5.090311234886847
 30
0.0
 10
39.22941476073346
 20
5.176063160076871
 30
0.0
 10
38.55529114313124
 20
5.2594061871849
 30
0.0
 10
37.88096243395866
 20
5.341071898049697
 30
0.0
 10
37.20650380749093
 20
5.421652434598747
 30
0.0
 10
36.5319589891855
 20
5.501531963626156
 30
0.0
 10
35.85745789474591
 20
5.581635684832157
 30
0.0
 10
35.18257194845238
 20
5.659331910130098
 30
0.0
 10
34.50411948575386
 20
5.695674617322374
 30
0.0
 10
33.62950834557135
 20
5.717871902451015
 30
0.0
 10
33.09412761069056
 20
5.71041132089234
 30
0.0
  0
SPLINE
  5
9E
330
1F
100
AcDbEntity
  8
2D DXF
370
    -3
100
AcDbSpline
210
0.0
220
0.0
230
1.0
 70
    12
 71
     2
 72
     6
 73
     3
 74
     0
 42
0.000000001
 43
0.0000000001
 40
21.9493903649247
 40
21.9493903649247
 40
21.9493903649247
 40
21.99352404128992
 40
21.99352404128992
 40
21.99352404128992
 10
44.62156588537967
 20
2.854054393501662
 30
0.0
 41
1.0
 10
44.59441649368912
 20
2.854054433628752
 30
0.0
 41
0.7414578727663395
 10
44.59171463825966
 20
2.881069049051098
 30
0.0
 41
1.0
  0
LINE
  5
9F
330
1F
100
AcDbEntity
  8
2D DXF
370
    -3
100
AcDbLine
 10
45.35494945289956
 20
2.854054318604461
 30
0.0
 11
44.62156588537967
 21
2.854054393501662
 31
0.0
  0
SPLINE
  5
A0
330
1F
100
AcDbEntity
  8
2D DXF
370
    -3
100
AcDbSpline
210
0.0
220
0.0
230
1.0
 70
    12
 71
     2
 72
     6
 73
     3
 74
     0
 42
0.000000001
 43
0.0000000001
 40
20.84615254623627
 40
20.84615254623627
 40
20.84615254623627
 40
20.88403450331716
 40
20.88403450331716
 40
20.88403450331716
 10
45.38353710869968
 20
2.874957745859937
 30
0.0
 41
1.0
 10
45.37688572531819
 20
2.854054178043675
 30
0.0
 41
0.8072217568360037
 10
45.35494945289956
 20
2.854054318604461
 30
0.0
 41
1.0
  0
SPLINE
  5
A1
330
1F
100
AcDbEntity
  8
2D DXF
370
    -3
100
AcDbSpline
210
0.0
220
0.0
230
1.0
 70
     8
 71
     2
 72
    23
 73
    20
 74
     0
 42
0.000000001
 43
0.0000000001
 40
2.846152546236271
 40
2.846152546236271
 40
2.846152546236271
 40
3.846152546236271
 40
4.84615254623627
 40
5.84615254623627
 40
6.84615254623627
 40
7.84615254623627
 40
8.84615254623627
 40
9.84615254623627
 40
10.84615254623627
 40
11.84615254623627
 40
12.84615254623627
 40
13.84615254623627
 40
14.84615254623627
 40
15.84615254623627
 40
16.84615254623627
 40
17.84615254623627
 40
18.84615254623627
 40
19.84615254623627
 40
20.84615254623627
 40
20.84615254623627
 40
20.84615254623627
 10
34.23342939787067
 20
7.162154638039971
 30
0.0
 10
34.58492531358114
 20
7.078996686031863
 30
0.0
 10
35.29764101614073
 20
6.96001471831915
 30
0.0
 10
36.0094726037198
 20
6.837399645989627
 30
0.0
 10
36.7217606723796
 20
6.717198015035655
 30
0.0
 10
37.43406708536342
 20
6.597152547025721
 30
0.0
 10
38.14631711659105
 20
6.476764498155382
 30
0.0
 10
38.85839273162544
 20
6.355350972428858
 30
0.0
 10
39.5701722440284
 20
6.232210478004467
 30
0.0
 10
40.28149494398671
 20
6.106454128767544
 30
0.0
 10
40.99210824303439
 20
5.976740910108808
 30
0.0
 10
41.70158318942238
 20
5.840910297369084
 30
0.0
 10
42.40886882632724
 20
5.694007895724517
 30
0.0
 10
43.11199591316829
 20
5.528212403829378
 30
0.0
 10
43.80629269140634
 20
5.327275746266955
 30
0.0
 10
44.47646023715156
 20
5.056254313303675
 30
0.0
 10
45.0777509870327
 20
4.633156580434878
 30
0.0
 10
45.36052241495629
 20
3.95565490915279
 30
0.0
 10
45.43590211276167
 20
3.231581986250155
 30
0.0
 10
45.38353710869968
 20
2.874957745859937
 30
0.0
  0
SPLINE
  5
A2
330
1F
100
AcDbEntity
  8
2D DXF
370
    -3
100
AcDbSpline
210
0.0
220
0.0
230
1.0
 70
     8
 71
     3
 72
    10
 73
     6
 74
     0
 42
0.000000001
 43
0.0000000001
 40
2.025839044022843
 40
2.025839044022843
 40
2.025839044022843
 40
2.025839044022843
 40
2.2309174195762
 40
2.435995795129557
 40
2.846152546236271
 40
2.846152546236271
 40
2.846152546236271
 40
2.846152546236271
 10
33.64715502280687
 20
7.663054178050991
 30
0.0
 10
33.67210789048868
 20
7.590141904720986
 30
0.0
 10
33.73117160734667
 20
7.465412414864992
 30
0.0
 10
33.89431201791767
 20
7.283804459447984
 30
0.0
 10
34.07673560704369
 20
7.205335541938985
 30
0.0
 10
34.23342939787067
 20
7.162154638039971
 30
0.0
  0
SPLINE
  5
A3
330
1F
100
AcDbEntity
  8
2D DXF
370
    -3
100
AcDbSpline
210
0.0
220
0.0
230
1.0
 70
     8
 71
     3
 72
     8
 73
     4
 74
     0
 42
0.000000001
 43
0.0000000001
 40
1.832958398789234
 40
1.832958398789234
 40
1.832958398789234
 40
1.832958398789234
 40
2.025839044022843
 40
2.025839044022843
 40
2.025839044022843
 40
2.025839044022843
 10
33.59758982448686
 20
7.849192208669996
 30
0.0
 10
33.61175811789649
 20
7.780400553347994
 30
0.0
 10
33.62812495355907
 20
7.718660035789987
 30
0.0
 10
33.64715502280687
 20
7.663054178050991
 30
0.0
  0
SPLINE
  5
A4
330
1F
100
AcDbEntity
  8
2D DXF
370
    -3
100
AcDbSpline
210
0.0
220
0.0
230
1.0
 70
    12
 71
     2
 72
     6
 73
     3
 74
     0
 42
0.000000001
 43
0.0000000001
 40
1.723544231991184
 40
1.723544231991184
 40
1.723544231991184
 40
1.832958398789234
 40
1.832958398789234
 40
1.832958398789234
 10
33.51923445677046
 20
7.913054178050991
 30
0.0
 41
1.0
 10
33.58443684452111
 20
7.913054172993081
 30
0.0
 41
0.775153375102519
 10
33.59758982448686
 20
7.849192208669996
 30
0.0
 41
1.0
  0
LINE
  5
A5
330
1F
100
AcDbEntity
  8
2D DXF
370
    -3
100
AcDbLine
 10
31.79569022477928
 20
7.913054178050991
 30
0.0
 11
33.51923445677046
 21
7.913054178050991
 31
0.0
  0
SPLINE
  5
A6
330
1F
100
AcDbEntity
  8
2D DXF
370
    -3
100
AcDbSpline
210
0.0
220
0.0
230
1.0
 70
    12
 71
     2
 72
     6
 73
     3
 74
     0
 42
0.000000001
 43
0.0000000001
 40
-0.1094141667980504
 40
-0.1094141667980504
 40
-0.1094141667980504
 40
0.0
 40
0.0
 40
0.0
 10
31.71733485706288
 20
7.849192208669996
 30
0.0
 41
1.0
 10
31.73048783702867
 20
7.913054172993081
 30
0.0
 41
0.775153375102519
 10
31.79569022477928
 20
7.913054178050991
 30
0.0
 41
1.0
  0
SPLINE
  5
A7
330
1F
100
AcDbEntity
  8
2D DXF
370
    -3
100
AcDbSpline
210
0.0
220
0.0
230
1.0
 70
     8
 71
     3
 72
     8
 73
     4
 74
     0
 42
0.000000001
 43
0.0000000001
 40
-0.3022948120316587
 40
-0.3022948120316587
 40
-0.3022948120316587
 40
-0.3022948120316587
 40
-0.1094141667980504
 40
-0.1094141667980504
 40
-0.1094141667980504
 40
-0.1094141667980504
 10
31.66776965874287
 20
7.663054178050991
 30
0.0
 10
31.68679972799067
 20
7.718660035789987
 30
0.0
 10
31.70316656365326
 20
7.780400553347994
 30
0.0
 10
31.71733485706288
 20
7.849192208669996
 30
0.0
  0
SPLINE
  5
A8
330
1F
100
AcDbEntity
  8
2D DXF
370
    -3
100
AcDbSpline
210
0.0
220
0.0
230
1.0
 70
     8
 71
     3
 72
    10
 73
     6
 74
     0
 42
0.000000001
 43
0.0000000001
 40
-1.122608314245087
 40
-1.122608314245087
 40
-1.122608314245087
 40
-1.122608314245087
 40
-0.7124515631383728
 40
-0.5073731875850158
 40
-0.3022948120316587
 40
-0.3022948120316587
 40
-0.3022948120316587
 40
-0.3022948120316587
 10
31.08149528367908
 20
7.162154638039971
 30
0.0
 10
31.23818907450605
 20
7.205335541938985
 30
0.0
 10
31.42061266363207
 20
7.283804459447984
 30
0.0
 10
31.58375307420307
 20
7.465412414864992
 30
0.0
 10
31.64281679106107
 20
7.590141904720986
 30
0.0
 10
31.66776965874287
 20
7.663054178050991
 30
0.0
  0
SPLINE
  5
A9
330
1F
100
AcDbEntity
  8
2D DXF
370
    -3
100
AcDbSpline
210
0.0
220
0.0
230
1.0
 70
     8
 71
     2
 72
    23
 73
    20
 74
     0
 42
0.000000001
 43
0.0000000001
 40
-19.12260831424509
 40
-19.12260831424509
 40
-19.12260831424509
 40
-18.12260831424509
 40
-17.12260831424509
 40
-16.12260831424509
 40
-15.12260831424509
 40
-14.12260831424509
 40
-13.12260831424509
 40
-12.12260831424509
 40
-11.12260831424509
 40
-10.12260831424509
 40
-9.122608314245086
 40
-8.122608314245086
 40
-7.122608314245086
 40
-6.122608314245086
 40
-5.122608314245086
 40
-4.122608314245086
 40
-3.122608314245087
 40
-2.122608314245087
 40
-1.122608314245087
 40
-1.122608314245087
 40
-1.122608314245087
 10
19.93138757285006
 20
2.874957745859937
 30
0.0
 10
19.87902256878807
 20
3.231581986250155
 30
0.0
 10
19.95440226659345
 20
3.95565490915279
 30
0.0
 10
20.23717369451704
 20
4.633156580434878
 30
0.0
 10
20.83846444439818
 20
5.056254313303675
 30
0.0
 10
21.5086319901434
 20
5.327275746266955
 30
0.0
 10
22.20292876838145
 20
5.528212403829378
 30
0.0
 10
22.9060558552225
 20
5.694007895724517
 30
0.0
 10
23.61334149212736
 20
5.840910297369084
 30
0.0
 10
24.32281643851535
 20
5.976740910108808
 30
0.0
 10
25.03342973756303
 20
6.106454128767544
 30
0.0
 10
25.74475243752134
 20
6.232210478004467
 30
0.0
 10
26.4565319499243
 20
6.355350972428858
 30
0.0
 10
27.16860756495869
 20
6.476764498155382
 30
0.0
 10
27.88085759618632
 20
6.597152547025721
 30
0.0
 10
28.59316400917014
 20
6.717198015035655
 30
0.0
 10
29.30545207782994
 20
6.837399645989627
 30
0.0
 10
30.01728366540901
 20
6.96001471831915
 30
0.0
 10
30.7299993679686
 20
7.078996686031863
 30
0.0
 10
31.08149528367908
 20
7.162154638039971
 30
0.0
  0
SPLINE
  5
AA
330
1F
100
AcDbEntity
  8
2D DXF
370
    -3
100
AcDbSpline
210
0.0
220
0.0
230
1.0
 70
    12
 71
     2
 72
     6
 73
     3
 74
     0
 42
0.000000001
 43
0.0000000001
 40
-19.16049027132598
 40
-19.16049027132598
 40
-19.16049027132598
 40
-19.12260831424509
 40
-19.12260831424509
 40
-19.12260831424509
 10
19.95997522865018
 20
2.854054318604461
 30
0.0
 41
1.0
 10
19.93803895623157
 20
2.854054178043675
 30
0.0
 41
0.8072217568360037
 10
19.93138757285006
 20
2.874957745859937
 30
0.0
 41
1.0
  0
LINE
  5
AB
330
1F
100
AcDbEntity
  8
2D DXF
370
    -3
100
AcDbLine
 10
20.69335879617007
 20
2.854054393501662
 30
0.0
 11
19.95997522865018
 21
2.854054318604461
 31
0.0
  0
SPLINE
  5
AC
330
1F
100
AcDbEntity
  8
2D DXF
370
    -3
100
AcDbSpline
210
0.0
220
0.0
230
1.0
 70
    12
 71
     2
 72
     6
 73
     3
 74
     0
 42
0.000000001
 43
0.0000000001
 40
-20.26997980929874
 40
-20.26997980929874
 40
-20.26997980929874
 40
-20.22584613293352
 40
-20.22584613293352
 40
-20.22584613293352
 10
20.72321004329008
 20
2.881069049051098
 30
0.0
 41
1.0
 10
20.72050818786066
 20
2.854054433628752
 30
0.0
 41
0.7414578727663395
 10
20.69335879617007
 20
2.854054393501662
 30
0.0
 41
1.0
  0
SPLINE
  5
AD
330
1F
100
AcDbEntity
  8
2D DXF
370
    -3
100
AcDbSpline
210
0.0
220
0.0
230
1.0
 70
     8
 71
     2
 72
    23
 73
    20
 74
     0
 42
0.000000001
 43
0.0000000001
 40
-38.84594170572853
 40
-38.84594170572853
 40
-38.84594170572853
 40
-37.26997980929874
 40
-36.26997980929874
 40
-35.26997980929874
 40
-34.26997980929874
 40
-33.26997980929874
 40
-32.26997980929874
 40
-31.26997980929874
 40
-30.26997980929874
 40
-29.26997980929874
 40
-28.26997980929874
 40
-27.26997980929874
 40
-26.26997980929874
 40
-25.26997980929874
 40
-24.26997980929874
 40
-23.26997980929874
 40
-22.26997980929874
 40
-21.26997980929874
 40
-20.26997980929874
 40
-20.26997980929874
 40
-20.26997980929874
 10
32.22079707085918
 20
5.71041132089234
 30
0.0
 10
31.68541633597839
 20
5.717871902451015
 30
0.0
 10
30.81080519579588
 20
5.695674617322374
 30
0.0
 10
30.13235273309736
 20
5.659331910130098
 30
0.0
 10
29.45746678680383
 20
5.581635684832157
 30
0.0
 10
28.78296569236424
 20
5.501531963626156
 30
0.0
 10
28.10842087405881
 20
5.421652434598747
 30
0.0
 10
27.43396224759108
 20
5.341071898049697
 30
0.0
 10
26.7596335384185
 20
5.2594061871849
 30
0.0
 10
26.08550992081628
 20
5.176063160076871
 30
0.0
 10
25.41168778555509
 20
5.090311234886847
 30
0.0
 10
24.7383076184111
 20
5.001152355896187
 30
0.0
 10
24.0655791905571
 20
4.907162577963496
 30
0.0
 10
23.3938988204775
 20
4.806041292440475
 30
0.0
 10
22.72381202662045
 20
4.694121068459459
 30
0.0
 10
22.05800976832502
 20
4.561539453718701
 30
0.0
 10
21.40514164492889
 20
4.355859655442976
 30
0.0
 10
20.88361698607905
 20
3.895755669082809
 30
0.0
 10
20.7348995468703
 20
3.219660610854738
 30
0.0
 10
20.72321004329008
 20
2.881069049051098
 30
0.0
  0
LINE
  5
AE
330
1F
100
AcDbEntity
  8
2D DXF
370
    -3
100
AcDbLine
 10
31.86750895020008
 20
14.045033477781
 30
0.0
 11
31.86750895020008
 21
7.913054178050991
 31
0.0
  0
SPLINE
  5
AF
330
1F
100
AcDbEntity
  8
2D DXF
370
    -3
100
AcDbSpline
210
0.0
220
0.0
230
1.0
 70
    28
 71
     2
 72
     8
 73
     5
 74
     0
 42
0.000000001
 43
0.0000000001
 40
0.0
 40
0.0
 40
0.0
 40
1.236216709187584
 40
1.236216709187584
 40
2.472433418375168
 40
2.472433418375168
 40
2.472433418375168
 10
33.44150895020006
 20
14.045033477781
 30
0.0
 41
1.0
 10
33.44150895020009
 20
14.04503347778099
 30
0.0
 41
0.7071067811865476
 10
32.65450895020005
 20
14.045033477781
 30
0.0
 41
1.0
 10
31.86750895020005
 20
14.04503347778099
 30
0.0
 41
0.7071067811865476
 10
31.86750895020008
 20
14.045033477781
 30
0.0
 41
1.0
  0
LINE
  5
B0
330
1F
100
AcDbEntity
  8
2D DXF
370
    -3
100
AcDbLine
 10
33.44150895020006
 20
7.913054178050991
 30
0.0
 11
33.44150895020006
 21
14.045033477781
 31
0.0
  0
SPLINE
  5
B1
330
1F
100
AcDbEntity
  8
2D DXF
370
    -3
100
AcDbSpline
210
0.0
220
0.0
230
1.0
 70
     8
 71
     2
 72
    15
 73
    12
 74
     0
 42
0.000000001
 43
0.0000000001
 40
10.82010793158981
 40
10.82010793158981
 40
10.82010793158981
 40
11.82010793158981
 40
12.82010793158981
 40
13.82010793158981
 40
14.82010793158981
 40
15.82010793158981
 40
16.82010793158981
 40
17.82010793158981
 40
18.82010793158981
 40
19.82010793158981
 40
20.82010793158981
 40
20.82010793158981
 40
20.82010793158981
 10
33.05156654820887
 20
2.882856446074789
 30
0.0
 10
33.06110674773133
 20
3.062028579610234
 30
0.0
 10
33.06025715734644
 20
3.420796027426781
 30
0.0
 10
33.06036780920105
 20
3.779516925482461
 30
0.0
 10
33.06040124514008
 20
4.138246002980799
 30
0.0
 10
33.06049805175668
 20
4.496972183454651
 30
0.0
 10
33.06409792783909
 20
4.85570333170613
 30
0.0
 10
33.07795641265805
 20
5.214126918465531
 30
0.0
 10
33.09148848886774
 20
5.572911799517164
 30
0.0
 10
33.09777035478619
 20
5.92980123514011
 30
0.0
 10
33.09843068545065
 20
6.298959172905433
 30
0.0
 10
33.19170085860968
 20
6.442813770443997
 30
0.0
  0
SPLINE
  5
B2
330
1F
100
AcDbEntity
  8
2D DXF
370
    -3
100
AcDbSpline
210
0.0
220
0.0
230
1.0
 70
    12
 71
     2
 72
     6
 73
     3
 74
     0
 42
0.000000001
 43
0.0000000001
 40
10.77418209217931
 40
10.77418209217931
 40
10.77418209217931
 40
10.82010793158981
 40
10.82010793158981
 40
10.82010793158981
 10
33.02159046715927
 20
2.854054178050993
 30
0.0
 41
1.0
 10
33.0504157174106
 20
2.854054178050699
 30
0.0
 41
0.7210840447539764
 10
33.05156654820887
 20
2.882856446074789
 30
0.0
 41
1.0
  0
LINE
  5
B3
330
1F
100
AcDbEntity
  8
2D DXF
370
    -3
100
AcDbLine
 10
32.29333421439047
 20
2.854054178050993
 30
0.0
 11
33.02159046715927
 21
2.854054178050993
 31
0.0
  0
SPLINE
  5
B4
330
1F
100
AcDbEntity
  8
2D DXF
370
    -3
100
AcDbSpline
210
0.0
220
0.0
230
1.0
 70
    12
 71
     2
 72
     6
 73
     3
 74
     0
 42
0.000000001
 43
0.0000000001
 40
10.0
 40
10.0
 40
10.0
 40
10.04592583941051
 40
10.04592583941051
 40
10.04592583941051
 10
32.26335813334087
 20
2.882856446074789
 30
0.0
 41
1.0
 10
32.26450896413918
 20
2.854054178050699
 30
0.0
 41
0.7210840447539764
 10
32.29333421439047
 20
2.854054178050993
 30
0.0
 41
1.0
  0
SPLINE
  5
B5
330
1F
100
AcDbEntity
  8
2D DXF
370
    -3
100
AcDbSpline
210
0.0
220
0.0
230
1.0
 70
     8
 71
     2
 72
    15
 73
    12
 74
     0
 42
0.000000001
 43
0.0000000001
 40
0.0
 40
0.0
 40
0.0
 40
1.0
 40
2.0
 40
3.0
 40
4.0
 40
5.0
 40
6.0
 40
7.0
 40
8.0
 40
9.0
 40
10.0
 40
10.0
 40
10.0
 10
32.12322382294006
 20
6.442813770443997
 30
0.0
 10
32.21649399609909
 20
6.298959172905433
 30
0.0
 10
32.21715432676355
 20
5.92980123514011
 30
0.0
 10
32.223436192682
 20
5.572911799517164
 30
0.0
 10
32.23696826889169
 20
5.214126918465531
 30
0.0
 10
32.25082675371065
 20
4.85570333170613
 30
0.0
 10
32.25442662979306
 20
4.496972183454651
 30
0.0
 10
32.25452343640966
 20
4.138246002980799
 30
0.0
 10
32.25455687234869
 20
3.779516925482461
 30
0.0
 10
32.2546675242033
 20
3.420796027426781
 30
0.0
 10
32.25381793381841
 20
3.062028579610234
 30
0.0
 10
32.26335813334087
 20
2.882856446074789
 30
0.0
  0
SPLINE
  5
B6
330
1F
100
AcDbEntity
  8
2D DXF
370
    -3
100
AcDbSpline
210
0.0
220
0.0
230
1.0
 70
    28
 71
     2
 72
     6
 73
     3
 74
     0
 42
0.000000001
 43
0.0000000001
 40
-1.413819884762434
 40
-1.413819884762434
 40
-1.413819884762434
 40
-0.1338198847624337
 40
-0.1338198847624337
 40
-0.1338198847624337
 10
20.68696234077497
 20
2.619054178050994
 30
0.0
 41
1.0
 10
20.68696234077497
 20
1.979054178050993
 30
0.0
 41
1.0
 10
20.68696234077497
 20
1.339054178050993
 30
0.0
 41
1.0
  0
LINE
  5
B7
330
1F
100
AcDbEntity
  8
2D DXF
370
    -3
100
AcDbLine
 10
19.40696234077497
 20
2.619054178050994
 30
0.0
 11
20.68696234077497
 21
2.619054178050994
 31
0.0
  0
CIRCLE
  5
B8
330
1F
100
AcDbEntity
  8
2D DXF
100
AcDbCircle
 10
19.40696234077497
 20
1.339054178050993
 30
0.0
 40
1.279999999999987
  0
SPLINE
  5
B9
330
1F
100
AcDbEntity
  8
2D DXF
370
    -3
100
AcDbSpline
210
0.0
220
0.0
230
1.0
 70
    24
 71
     2
 72
     6
 73
     3
 74
     0
 42
0.000000001
 43
0.0000000001
 40
-0.125
 40
-0.125
 40
-0.125
 40
0.0
 40
0.0
 40
0.0
 10
32.32746234077497
 20
2.744054178050994
 30
0.0
 10
32.32746234077497
 20
2.681554178050994
 30
0.0
 10
32.32746234077497
 20
2.619054178050994
 30
0.0
  0
SPLINE
  5
BA
330
1F
100
AcDbEntity
  8
2D DXF
370
    -3
100
AcDbSpline
210
0.0
220
0.0
230
1.0
 70
    24
 71
     2
 72
     6
 73
     3
 74
     0
 42
0.000000001
 43
0.0000000001
 40
-0.125
 40
-0.125
 40
-0.125
 40
0.0
 40
0.0
 40
0.0
 10
45.31246234077496
 20
2.619054178050994
 30
0.0
 10
45.31246234077496
 20
2.681554178050994
 30
0.0
 10
45.31246234077496
 20
2.744054178050994
 30
0.0
  0
SPLINE
  5
BB
330
1F
100
AcDbEntity
  8
2D DXF
370
    -3
100
AcDbSpline
210
0.0
220
0.0
230
1.0
 70
    24
 71
     2
 72
     6
 73
     3
 74
     0
 42
0.000000001
 43
0.0000000001
 40
-0.125
 40
-0.125
 40
-0.125
 40
0.0
 40
0.0
 40
0.0
 10
44.65246234077496
 20
2.744054178050994
 30
0.0
 10
44.65246234077496
 20
2.681554178050994
 30
0.0
 10
44.65246234077496
 20
2.619054178050994
 30
0.0
  0
SPLINE
  5
BC
330
1F
100
AcDbEntity
  8
2D DXF
370
    -3
100
AcDbSpline
210
0.0
220
0.0
230
1.0
 70
    28
 71
     2
 72
     8
 73
     5
 74
     0
 42
0.000000001
 43
0.0000000001
 40
-1.036725575684632
 40
-1.036725575684632
 40
-1.036725575684632
 40
-0.5183627878423159
 40
-0.5183627878423159
 40
0.0
 40
0.0
 40
0.0
 10
20.00246234077495
 20
2.744054178050994
 30
0.0
 41
1.0
 10
20.00246234077496
 20
2.744054178050993
 30
0.0
 41
0.7071067811865476
 10
20.33246234077497
 20
2.744054178050994
 30
0.0
 41
1.0
 10
20.66246234077498
 20
2.744054178050993
 30
0.0
 41
0.7071067811865476
 10
20.66246234077498
 20
2.744054178050994
 30
0.0
 41
1.0
  0
SPLINE
  5
BD
330
1F
100
AcDbEntity
  8
2D DXF
370
    -3
100
AcDbSpline
210
0.0
220
0.0
230
1.0
 70
    24
 71
     2
 72
     6
 73
     3
 74
     0
 42
0.000000001
 43
0.0000000001
 40
-0.125
 40
-0.125
 40
-0.125
 40
0.0
 40
0.0
 40
0.0
 10
20.66246234077498
 20
2.619054178050994
 30
0.0
 10
20.66246234077498
 20
2.681554178050994
 30
0.0
 10
20.66246234077498
 20
2.744054178050994
 30
0.0
  0
SPLINE
  5
BE
330
1F
100
AcDbEntity
  8
2D DXF
370
    -3
100
AcDbSpline
210
0.0
220
0.0
230
1.0
 70
    24
 71
     2
 72
     6
 73
     3
 74
     0
 42
0.000000001
 43
0.0000000001
 40
-0.125
 40
-0.125
 40
-0.125
 40
0.0
 40
0.0
 40
0.0
 10
20.00246234077495
 20
2.744054178050994
 30
0.0
 10
20.00246234077495
 20
2.681554178050994
 30
0.0
 10
20.00246234077495
 20
2.619054178050994
 30
0.0
  0
LINE
  5
BF
330
1F
100
AcDbEntity
  8
2D DXF
370
    -3
100
AcDbLine
 10
11.32492598495811
 20
0.2598032375158174
 30
0.0
 11
11.32492598495811
 21
2.419803237515828
 31
0.0
  0
LINE
  5
C0
330
1F
100
AcDbEntity
  8
2D DXF
370
    -3
100
AcDbLine
 10
13.32492598495811
 20
2.419803237515828
 30
0.0
 11
13.32492598495811
 21
0.2598032375158174
 31
0.0
  0
SPLINE
  5
C1
330
1F
100
AcDbEntity
  8
2D DXF
370
    -3
100
AcDbSpline
210
0.0
220
0.0
230
1.0
 70
    28
 71
     2
 72
     6
 73
     3
 74
     0
 42
0.000000001
 43
0.0000000001
 40
0.0183198847624326
 40
0.0183198847624326
 40
0.0183198847624326
 40
0.1433198847624326
 40
0.1433198847624326
 40
0.1433198847624326
 10
11.99492598495813
 20
2.744803237515831
 30
0.0
 41
1.0
 10
11.99492598495813
 20
2.682303237515831
 30
0.0
 41
1.0
 10
11.99492598495813
 20
2.619803237515831
 30
0.0
 41
1.0
  0
LINE
  5
C2
330
1F
100
AcDbEntity
  8
2D DXF
370
    -3
100
AcDbLine
 10
12.65492598495813
 20
2.744803237515831
 30
0.0
 11
11.99492598495813
 21
2.744803237515831
 31
0.0
  0
SPLINE
  5
C3
330
1F
100
AcDbEntity
  8
2D DXF
370
    -3
100
AcDbSpline
210
0.0
220
0.0
230
1.0
 70
    28
 71
     2
 72
     6
 73
     3
 74
     0
 42
0.000000001
 43
0.0000000001
 40
-0.4243698847624376
 40
-0.4243698847624376
 40
-0.4243698847624376
 40
-0.0438698847624333
 40
-0.0438698847624333
 40
-0.0438698847624333
 10
11.90542598495811
 20
0.0598032375158429
 30
0.0
 41
1.0
 10
11.71517598495811
 20
0.0598032375158358
 30
0.0
 41
1.0
 10
11.5249259849581
 20
0.0598032375158287
 30
0.0
 41
1.0
  0
LINE
  5
C4
330
1F
100
AcDbEntity
  8
2D DXF
370
    -3
100
AcDbLine
 10
11.90542598495811
 20
2.619803237515831
 30
0.0
 11
11.90542598495811
 21
0.0598032375158429
 31
0.0
  0
SPLINE
  5
C5
330
1F
100
AcDbEntity
  8
2D DXF
370
    -3
100
AcDbSpline
210
0.0
220
0.0
230
1.0
 70
    28
 71
     2
 72
     6
 73
     3
 74
     0
 42
0.000000001
 43
0.0000000001
 40
0.0438698847624333
 40
0.0438698847624333
 40
0.0438698847624333
 40
0.4243698847624412
 40
0.4243698847624412
 40
0.4243698847624412
 10
12.74442598495811
 20
0.0598032375158287
 30
0.0
 41
1.0
 10
12.93467598495812
 20
0.0598032375158287
 30
0.0
 41
1.0
 10
13.12492598495813
 20
0.0598032375158287
 30
0.0
 41
1.0
  0
LINE
  5
C6
330
1F
100
AcDbEntity
  8
2D DXF
370
    -3
100
AcDbLine
 10
12.74442598495811
 20
2.619803237515831
 30
0.0
 11
12.74442598495811
 21
0.0598032375158287
 31
0.0
  0
SPLINE
  5
C7
330
1F
100
AcDbEntity
  8
2D DXF
370
    -3
100
AcDbSpline
210
0.0
220
0.0
230
1.0
 70
    28
 71
     2
 72
     8
 73
     5
 74
     0
 42
0.000000001
 43
0.0000000001
 40
0.0
 40
0.0
 40
0.0
 40
0.5568472978487908
 40
0.5568472978487908
 40
1.113694595697582
 40
1.113694595697582
 40
1.113694595697582
 10
12.67942598495812
 20
2.619803237515831
 30
0.0
 41
1.0
 10
12.67942598495813
 20
2.619803237515824
 30
0.0
 41
0.7071067811865476
 10
12.32492598495811
 20
2.619803237515831
 30
0.0
 41
1.0
 10
11.97042598495813
 20
2.619803237515824
 30
0.0
 41
0.7071067811865476
 10
11.97042598495811
 20
2.619803237515831
 30
0.0
 41
1.0
  0
SPLINE
  5
C8
330
1F
100
AcDbEntity
  8
2D DXF
370
    -3
100
AcDbSpline
210
0.0
220
0.0
230
1.0
 70
    28
 71
     2
 72
     6
 73
     3
 74
     0
 42
0.000000001
 43
0.0000000001
 40
0.0438698847624333
 40
0.0438698847624333
 40
0.0438698847624333
 40
0.4243698847624376
 40
0.4243698847624376
 40
0.4243698847624376
 10
11.90542598495811
 20
2.619803237515831
 30
0.0
 41
1.0
 10
11.71517598495812
 20
2.619803237515831
 30
0.0
 41
1.0
 10
11.52492598495813
 20
2.619803237515831
 30
0.0
 41
1.0
  0
SPLINE
  5
C9
330
1F
100
AcDbEntity
  8
2D DXF
370
    -3
100
AcDbSpline
210
0.0
220
0.0
230
1.0
 70
    12
 71
     2
 72
     8
 73
     5
 74
     0
 42
0.000000001
 43
0.0000000001
 40
0.0
 40
0.0
 40
0.0
 40
0.1656854249492454
 40
0.1656854249492454
 40
0.3313708498984843
 40
0.3313708498984843
 40
0.3313708498984843
 10
11.32492598495811
 20
0.2598032375158316
 30
0.0
 41
1.0
 10
11.3249259849581
 20
0.1769605250412135
 30
0.0
 41
0.8535533905932737
 10
11.38350462872081
 20
0.118381881278518
 30
0.0
 41
0.8535533905932737
 10
11.44208327248348
 20
0.0598032375158308
 30
0.0
 41
0.8535533905932737
 10
11.5249259849581
 20
0.0598032375158287
 30
0.0
 41
1.0
  0
SPLINE
  5
CA
330
1F
100
AcDbEntity
  8
2D DXF
370
    -3
100
AcDbSpline
210
0.0
220
0.0
230
1.0
 70
    12
 71
     2
 72
     8
 73
     5
 74
     0
 42
0.000000001
 43
0.0000000001
 40
0.0
 40
0.0
 40
0.0
 40
0.1656854249492389
 40
0.1656854249492389
 40
0.3313708498984846
 40
0.3313708498984846
 40
0.3313708498984846
 10
11.5249259849581
 20
2.619803237515831
 30
0.0
 41
1.0
 10
11.44208327248348
 20
2.619803237515829
 30
0.0
 41
0.8535533905932737
 10
11.38350462872081
 20
2.561224593753141
 30
0.0
 41
0.8535533905932737
 10
11.3249259849581
 20
2.502645949990455
 30
0.0
 41
0.8535533905932737
 10
11.32492598495811
 20
2.419803237515828
 30
0.0
 41
1.0
  0
SPLINE
  5
CB
330
1F
100
AcDbEntity
  8
2D DXF
370
    -3
100
AcDbSpline
210
0.0
220
0.0
230
1.0
 70
    28
 71
     2
 72
     6
 73
     3
 74
     0
 42
0.000000001
 43
0.0000000001
 40
0.0183198847624326
 40
0.0183198847624326
 40
0.0183198847624326
 40
0.1433198847624326
 40
0.1433198847624326
 40
0.1433198847624326
 10
12.65492598495813
 20
2.619803237515831
 30
0.0
 41
1.0
 10
12.65492598495813
 20
2.682303237515831
 30
0.0
 41
1.0
 10
12.65492598495813
 20
2.744803237515831
 30
0.0
 41
1.0
  0
SPLINE
  5
CC
330
1F
100
AcDbEntity
  8
2D DXF
370
    -3
100
AcDbSpline
210
0.0
220
0.0
230
1.0
 70
    24
 71
     2
 72
     6
 73
     3
 74
     0
 42
0.000000001
 43
0.0000000001
 40
-1.28
 40
-1.28
 40
-1.28
 40
0.0
 40
0.0
 40
0.0
 10
11.97042598495811
 20
1.33980323751583
 30
0.0
 10
11.97042598495811
 20
1.979803237515831
 30
0.0
 10
11.97042598495811
 20
2.619803237515831
 30
0.0
  0
SPLINE
  5
CD
330
1F
100
AcDbEntity
  8
2D DXF
370
    -3
100
AcDbSpline
210
0.0
220
0.0
230
1.0
 70
    24
 71
     2
 72
     6
 73
     3
 74
     0
 42
0.000000001
 43
0.0000000001
 40
-1.28
 40
-1.28
 40
-1.28
 40
0.0
 40
0.0
 40
0.0
 10
12.67942598495812
 20
2.619803237515831
 30
0.0
 10
12.67942598495812
 20
1.979803237515831
 30
0.0
 10
12.67942598495812
 20
1.33980323751583
 30
0.0
  0
SPLINE
  5
CE
330
1F
100
AcDbEntity
  8
2D DXF
370
    -3
100
AcDbSpline
210
0.0
220
0.0
230
1.0
 70
    28
 71
     2
 72
     8
 73
     5
 74
     0
 42
0.000000001
 43
0.0000000001
 40
-1.113694595697582
 40
-1.113694595697582
 40
-1.113694595697582
 40
-0.5568472978487908
 40
-0.5568472978487908
 40
0.0
 40
0.0
 40
0.0
 10
12.67942598495812
 20
1.33980323751583
 30
0.0
 41
1.0
 10
12.67942598495813
 20
1.339803237515819
 30
0.0
 41
0.7071067811865476
 10
12.32492598495811
 20
1.33980323751583
 30
0.0
 41
1.0
 10
11.97042598495813
 20
1.339803237515829
 30
0.0
 41
0.7071067811865476
 10
11.97042598495811
 20
1.33980323751583
 30
0.0
 41
1.0
  0
SPLINE
  5
CF
330
1F
100
AcDbEntity
  8
2D DXF
370
    -3
100
AcDbSpline
210
0.0
220
0.0
230
1.0
 70
    12
 71
     2
 72
     8
 73
     5
 74
     0
 42
0.000000001
 43
0.0000000001
 40
0.0
 40
0.0
 40
0.0
 40
0.1656854249492368
 40
0.1656854249492368
 40
0.3313708498984775
 40
0.3313708498984775
 40
0.3313708498984775
 10
13.12492598495813
 20
2.619803237515831
 30
0.0
 41
1.0
 10
13.20776869743274
 20
2.619803237515829
 30
0.0
 41
0.8535533905932737
 10
13.26634734119544
 20
2.561224593753141
 30
0.0
 41
0.8535533905932737
 10
13.32492598495811
 20
2.502645949990455
 30
0.0
 41
0.8535533905932737
 10
13.32492598495811
 20
2.419803237515828
 30
0.0
 41
1.0
  0
SPLINE
  5
D0
330
1F
100
AcDbEntity
  8
2D DXF
370
    -3
100
AcDbSpline
210
0.0
220
0.0
230
1.0
 70
    12
 71
     2
 72
     8
 73
     5
 74
     0
 42
0.000000001
 43
0.0000000001
 40
0.0
 40
0.0
 40
0.0
 40
0.1656854249492369
 40
0.1656854249492369
 40
0.3313708498984772
 40
0.3313708498984772
 40
0.3313708498984772
 10
13.12492598495813
 20
0.0598032375158287
 30
0.0
 41
1.0
 10
13.20776869743274
 20
0.0598032375158308
 30
0.0
 41
0.8535533905932737
 10
13.26634734119544
 20
0.118381881278518
 30
0.0
 41
0.8535533905932737
 10
13.32492598495811
 20
0.1769605250412135
 30
0.0
 41
0.8535533905932737
 10
13.32492598495811
 20
0.2598032375158316
 30
0.0
 41
1.0
  0
SPLINE
  5
D1
330
1F
100
AcDbEntity
  8
2D DXF
370
    -3
100
AcDbSpline
210
0.0
220
0.0
230
1.0
 70
    28
 71
     2
 72
     6
 73
     3
 74
     0
 42
0.000000001
 43
0.0000000001
 40
0.0438698847624298
 40
0.0438698847624298
 40
0.0438698847624298
 40
0.4243698847624376
 40
0.4243698847624376
 40
0.4243698847624376
 10
13.12492598495813
 20
2.619803237515831
 30
0.0
 41
1.0
 10
12.93467598495812
 20
2.619803237515831
 30
0.0
 41
1.0
 10
12.74442598495811
 20
2.619803237515831
 30
0.0
 41
1.0
  0
LINE
  5
D2
330
1F
100
AcDbEntity
  8
2D DXF
370
    -3
100
AcDbLine
 10
0.9980854091702582
 20
0.2598032375158174
 30
0.0
 11
0.9980854091702582
 21
2.419803237515828
 31
0.0
  0
LINE
  5
D3
330
1F
100
AcDbEntity
  8
2D DXF
370
    -3
100
AcDbLine
 10
-1.001914590829742
 20
2.419803237515828
 30
0.0
 11
-1.001914590829742
 21
0.2598032375158174
 31
0.0
  0
SPLINE
  5
D4
330
1F
100
AcDbEntity
  8
2D DXF
370
    -3
100
AcDbSpline
210
0.0
220
0.0
230
1.0
 70
    28
 71
     2
 72
     6
 73
     3
 74
     0
 42
0.000000001
 43
0.0000000001
 40
0.0183198847624326
 40
0.0183198847624326
 40
0.0183198847624326
 40
0.1433198847624326
 40
0.1433198847624326
 40
0.1433198847624326
 10
0.3280854091702423
 20
2.744803237515831
 30
0.0
 41
1.0
 10
0.3280854091702423
 20
2.682303237515831
 30
0.0
 41
1.0
 10
0.3280854091702423
 20
2.619803237515831
 30
0.0
 41
1.0
  0
LINE
  5
D5
330
1F
100
AcDbEntity
  8
2D DXF
370
    -3
100
AcDbLine
 10
-0.3319145908297543
 20
2.744803237515831
 30
0.0
 11
0.3280854091702423
 21
2.744803237515831
 31
0.0
  0
SPLINE
  5
D6
330
1F
100
AcDbEntity
  8
2D DXF
370
    -3
100
AcDbSpline
210
0.0
220
0.0
230
1.0
 70
    28
 71
     2
 72
     6
 73
     3
 74
     0
 42
0.000000001
 43
0.0000000001
 40
-0.4243698847624376
 40
-0.4243698847624376
 40
-0.4243698847624376
 40
-0.0438698847624333
 40
-0.0438698847624333
 40
-0.0438698847624333
 10
0.4175854091702575
 20
0.0598032375158429
 30
0.0
 41
1.0
 10
0.6078354091702636
 20
0.0598032375158358
 30
0.0
 41
1.0
 10
0.7980854091702696
 20
0.0598032375158287
 30
0.0
 41
1.0
  0
LINE
  5
D7
330
1F
100
AcDbEntity
  8
2D DXF
370
    -3
100
AcDbLine
 10
0.4175854091702575
 20
2.619803237515831
 30
0.0
 11
0.4175854091702575
 21
0.0598032375158429
 31
0.0
  0
SPLINE
  5
D8
330
1F
100
AcDbEntity
  8
2D DXF
370
    -3
100
AcDbSpline
210
0.0
220
0.0
230
1.0
 70
    28
 71
     2
 72
     6
 73
     3
 74
     0
 42
0.000000001
 43
0.0000000001
 40
0.0438698847624333
 40
0.0438698847624333
 40
0.0438698847624333
 40
0.4243698847624412
 40
0.4243698847624412
 40
0.4243698847624412
 10
-0.4214145908297411
 20
0.0598032375158287
 30
0.0
 41
1.0
 10
-0.6116645908297471
 20
0.0598032375158287
 30
0.0
 41
1.0
 10
-0.8019145908297531
 20
0.0598032375158287
 30
0.0
 41
1.0
  0
LINE
  5
D9
330
1F
100
AcDbEntity
  8
2D DXF
370
    -3
100
AcDbLine
 10
-0.4214145908297411
 20
2.619803237515831
 30
0.0
 11
-0.4214145908297411
 21
0.0598032375158287
 31
0.0
  0
SPLINE
  5
DA
330
1F
100
AcDbEntity
  8
2D DXF
370
    -3
100
AcDbSpline
210
0.0
220
0.0
230
1.0
 70
    28
 71
     2
 72
     8
 73
     5
 74
     0
 42
0.000000001
 43
0.0000000001
 40
0.0
 40
0.0
 40
0.0
 40
0.5568472978487908
 40
0.5568472978487908
 40
1.113694595697582
 40
1.113694595697582
 40
1.113694595697582
 10
-0.3564145908297434
 20
2.619803237515831
 30
0.0
 41
1.0
 10
-0.3564145908297487
 20
2.619803237515824
 30
0.0
 41
0.7071067811865476
 10
-0.0019145908297418
 20
2.619803237515831
 30
0.0
 41
1.0
 10
0.3525854091702555
 20
2.619803237515824
 30
0.0
 41
0.7071067811865476
 10
0.3525854091702598
 20
2.619803237515831
 30
0.0
 41
1.0
  0
SPLINE
  5
DB
330
1F
100
AcDbEntity
  8
2D DXF
370
    -3
100
AcDbSpline
210
0.0
220
0.0
230
1.0
 70
    28
 71
     2
 72
     6
 73
     3
 74
     0
 42
0.000000001
 43
0.0000000001
 40
0.0438698847624333
 40
0.0438698847624333
 40
0.0438698847624333
 40
0.4243698847624376
 40
0.4243698847624376
 40
0.4243698847624376
 10
0.4175854091702575
 20
2.619803237515831
 30
0.0
 41
1.0
 10
0.6078354091702494
 20
2.619803237515831
 30
0.0
 41
1.0
 10
0.7980854091702412
 20
2.619803237515831
 30
0.0
 41
1.0
  0
SPLINE
  5
DC
330
1F
100
AcDbEntity
  8
2D DXF
370
    -3
100
AcDbSpline
210
0.0
220
0.0
230
1.0
 70
    12
 71
     2
 72
     8
 73
     5
 74
     0
 42
0.000000001
 43
0.0000000001
 40
0.0
 40
0.0
 40
0.0
 40
0.1656854249492454
 40
0.1656854249492454
 40
0.3313708498984843
 40
0.3313708498984843
 40
0.3313708498984843
 10
0.9980854091702582
 20
0.2598032375158316
 30
0.0
 41
1.0
 10
0.9980854091702929
 20
0.1769605250412135
 30
0.0
 41
0.8535533905932737
 10
0.9395067654075892
 20
0.118381881278518
 30
0.0
 41
0.8535533905932737
 10
0.8809281216448853
 20
0.0598032375158308
 30
0.0
 41
0.8535533905932737
 10
0.7980854091702696
 20
0.0598032375158287
 30
0.0
 41
1.0
  0
SPLINE
  5
DD
330
1F
100
AcDbEntity
  8
2D DXF
370
    -3
100
AcDbSpline
210
0.0
220
0.0
230
1.0
 70
    12
 71
     2
 72
     8
 73
     5
 74
     0
 42
0.000000001
 43
0.0000000001
 40
0.0
 40
0.0
 40
0.0
 40
0.1656854249492389
 40
0.1656854249492389
 40
0.3313708498984846
 40
0.3313708498984846
 40
0.3313708498984846
 10
0.7980854091702696
 20
2.619803237515831
 30
0.0
 41
1.0
 10
0.8809281216448853
 20
2.619803237515829
 30
0.0
 41
0.8535533905932737
 10
0.9395067654075892
 20
2.561224593753141
 30
0.0
 41
0.8535533905932737
 10
0.9980854091702929
 20
2.502645949990455
 30
0.0
 41
0.8535533905932737
 10
0.9980854091702582
 20
2.419803237515828
 30
0.0
 41
1.0
  0
SPLINE
  5
DE
330
1F
100
AcDbEntity
  8
2D DXF
370
    -3
100
AcDbSpline
210
0.0
220
0.0
230
1.0
 70
    28
 71
     2
 72
     6
 73
     3
 74
     0
 42
0.000000001
 43
0.0000000001
 40
0.0183198847624326
 40
0.0183198847624326
 40
0.0183198847624326
 40
0.1433198847624326
 40
0.1433198847624326
 40
0.1433198847624326
 10
-0.3319145908297543
 20
2.619803237515831
 30
0.0
 41
1.0
 10
-0.3319145908297543
 20
2.682303237515831
 30
0.0
 41
1.0
 10
-0.3319145908297543
 20
2.744803237515831
 30
0.0
 41
1.0
  0
SPLINE
  5
DF
330
1F
100
AcDbEntity
  8
2D DXF
370
    -3
100
AcDbSpline
210
0.0
220
0.0
230
1.0
 70
    24
 71
     2
 72
     6
 73
     3
 74
     0
 42
0.000000001
 43
0.0000000001
 40
-1.28
 40
-1.28
 40
-1.28
 40
0.0
 40
0.0
 40
0.0
 10
0.3525854091702598
 20
1.33980323751583
 30
0.0
 10
0.3525854091702598
 20
1.979803237515831
 30
0.0
 10
0.3525854091702598
 20
2.619803237515831
 30
0.0
  0
SPLINE
  5
E0
330
1F
100
AcDbEntity
  8
2D DXF
370
    -3
100
AcDbSpline
210
0.0
220
0.0
230
1.0
 70
    24
 71
     2
 72
     6
 73
     3
 74
     0
 42
0.000000001
 43
0.0000000001
 40
-1.28
 40
-1.28
 40
-1.28
 40
0.0
 40
0.0
 40
0.0
 10
-0.3564145908297434
 20
2.619803237515831
 30
0.0
 10
-0.3564145908297434
 20
1.979803237515831
 30
0.0
 10
-0.3564145908297434
 20
1.33980323751583
 30
0.0
  0
SPLINE
  5
E1
330
1F
100
AcDbEntity
  8
2D DXF
370
    -3
100
AcDbSpline
210
0.0
220
0.0
230
1.0
 70
    28
 71
     2
 72
     8
 73
     5
 74
     0
 42
0.000000001
 43
0.0000000001
 40
-1.113694595697582
 40
-1.113694595697582
 40
-1.113694595697582
 40
-0.5568472978487908
 40
-0.5568472978487908
 40
0.0
 40
0.0
 40
0.0
 10
-0.3564145908297434
 20
1.33980323751583
 30
0.0
 41
1.0
 10
-0.3564145908297487
 20
1.339803237515819
 30
0.0
 41
0.7071067811865476
 10
-0.0019145908297418
 20
1.33980323751583
 30
0.0
 41
1.0
 10
0.3525854091702555
 20
1.339803237515829
 30
0.0
 41
0.7071067811865476
 10
0.3525854091702598
 20
1.33980323751583
 30
0.0
 41
1.0
  0
SPLINE
  5
E2
330
1F
100
AcDbEntity
  8
2D DXF
370
    -3
100
AcDbSpline
210
0.0
220
0.0
230
1.0
 70
    12
 71
     2
 72
     8
 73
     5
 74
     0
 42
0.000000001
 43
0.0000000001
 40
0.0
 40
0.0
 40
0.0
 40
0.1656854249492368
 40
0.1656854249492368
 40
0.3313708498984775
 40
0.3313708498984775
 40
0.3313708498984775
 10
-0.8019145908297531
 20
2.619803237515831
 30
0.0
 41
1.0
 10
-0.8847573033043729
 20
2.619803237515829
 30
0.0
 41
0.8535533905932737
 10
-0.9433359470670766
 20
2.561224593753141
 30
0.0
 41
0.8535533905932737
 10
-1.001914590829714
 20
2.502645949990455
 30
0.0
 41
0.8535533905932737
 10
-1.001914590829742
 20
2.419803237515828
 30
0.0
 41
1.0
  0
SPLINE
  5
E3
330
1F
100
AcDbEntity
  8
2D DXF
370
    -3
100
AcDbSpline
210
0.0
220
0.0
230
1.0
 70
    12
 71
     2
 72
     8
 73
     5
 74
     0
 42
0.000000001
 43
0.0000000001
 40
0.0
 40
0.0
 40
0.0
 40
0.1656854249492369
 40
0.1656854249492369
 40
0.3313708498984772
 40
0.3313708498984772
 40
0.3313708498984772
 10
-0.8019145908297531
 20
0.0598032375158287
 30
0.0
 41
1.0
 10
-0.8847573033043729
 20
0.0598032375158308
 30
0.0
 41
0.8535533905932737
 10
-0.9433359470670766
 20
0.118381881278518
 30
0.0
 41
0.8535533905932737
 10
-1.001914590829714
 20
0.1769605250412135
 30
0.0
 41
0.8535533905932737
 10
-1.001914590829742
 20
0.2598032375158316
 30
0.0
 41
1.0
  0
SPLINE
  5
E4
330
1F
100
AcDbEntity
  8
2D DXF
370
    -3
100
AcDbSpline
210
0.0
220
0.0
230
1.0
 70
    28
 71
     2
 72
     6
 73
     3
 74
     0
 42
0.000000001
 43
0.0000000001
 40
0.0438698847624298
 40
0.0438698847624298
 40
0.0438698847624298
 40
0.4243698847624376
 40
0.4243698847624376
 40
0.4243698847624376
 10
-0.8019145908297531
 20
2.619803237515831
 30
0.0
 41
1.0
 10
-0.6116645908297471
 20
2.619803237515831
 30
0.0
 41
1.0
 10
-0.4214145908297411
 20
2.619803237515831
 30
0.0
 41
1.0
  0
LINE
  5
E5
330
1F
100
AcDbEntity
  8
2D DXF
370
    -3
100
AcDbLine
 10
-11.3298679814046
 20
0.2598032375158174
 30
0.0
 11
-11.3298679814046
 21
2.419803237515828
 31
0.0
  0
LINE
  5
E6
330
1F
100
AcDbEntity
  8
2D DXF
370
    -3
100
AcDbLine
 10
-13.3298679814046
 20
2.419803237515828
 30
0.0
 11
-13.3298679814046
 21
0.2598032375158174
 31
0.0
  0
SPLINE
  5
E7
330
1F
100
AcDbEntity
  8
2D DXF
370
    -3
100
AcDbSpline
210
0.0
220
0.0
230
1.0
 70
    28
 71
     2
 72
     6
 73
     3
 74
     0
 42
0.000000001
 43
0.0000000001
 40
0.0183198847624326
 40
0.0183198847624326
 40
0.0183198847624326
 40
0.1433198847624326
 40
0.1433198847624326
 40
0.1433198847624326
 10
-11.99986798140462
 20
2.744803237515831
 30
0.0
 41
1.0
 10
-11.99986798140462
 20
2.682303237515831
 30
0.0
 41
1.0
 10
-11.99986798140462
 20
2.619803237515831
 30
0.0
 41
1.0
  0
LINE
  5
E8
330
1F
100
AcDbEntity
  8
2D DXF
370
    -3
100
AcDbLine
 10
-12.65986798140462
 20
2.744803237515831
 30
0.0
 11
-11.99986798140462
 21
2.744803237515831
 31
0.0
  0
SPLINE
  5
E9
330
1F
100
AcDbEntity
  8
2D DXF
370
    -3
100
AcDbSpline
210
0.0
220
0.0
230
1.0
 70
    28
 71
     2
 72
     6
 73
     3
 74
     0
 42
0.000000001
 43
0.0000000001
 40
-0.4243698847624376
 40
-0.4243698847624376
 40
-0.4243698847624376
 40
-0.0438698847624333
 40
-0.0438698847624333
 40
-0.0438698847624333
 10
-11.9103679814046
 20
0.0598032375158429
 30
0.0
 41
1.0
 10
-11.7201179814046
 20
0.0598032375158358
 30
0.0
 41
1.0
 10
-11.52986798140459
 20
0.0598032375158287
 30
0.0
 41
1.0
  0
LINE
  5
EA
330
1F
100
AcDbEntity
  8
2D DXF
370
    -3
100
AcDbLine
 10
-11.9103679814046
 20
2.619803237515831
 30
0.0
 11
-11.9103679814046
 21
0.0598032375158429
 31
0.0
  0
SPLINE
  5
EB
330
1F
100
AcDbEntity
  8
2D DXF
370
    -3
100
AcDbSpline
210
0.0
220
0.0
230
1.0
 70
    28
 71
     2
 72
     6
 73
     3
 74
     0
 42
0.000000001
 43
0.0000000001
 40
0.0438698847624333
 40
0.0438698847624333
 40
0.0438698847624333
 40
0.4243698847624412
 40
0.4243698847624412
 40
0.4243698847624412
 10
-12.7493679814046
 20
0.0598032375158287
 30
0.0
 41
1.0
 10
-12.93961798140461
 20
0.0598032375158287
 30
0.0
 41
1.0
 10
-13.12986798140462
 20
0.0598032375158287
 30
0.0
 41
1.0
  0
LINE
  5
EC
330
1F
100
AcDbEntity
  8
2D DXF
370
    -3
100
AcDbLine
 10
-12.7493679814046
 20
2.619803237515831
 30
0.0
 11
-12.7493679814046
 21
0.0598032375158287
 31
0.0
  0
SPLINE
  5
ED
330
1F
100
AcDbEntity
  8
2D DXF
370
    -3
100
AcDbSpline
210
0.0
220
0.0
230
1.0
 70
     8
 71
     2
 72
    15
 73
    12
 74
     0
 42
0.000000001
 43
0.0000000001
 40
10.82010793158981
 40
10.82010793158981
 40
10.82010793158981
 40
11.82010793158981
 40
12.82010793158981
 40
13.82010793158981
 40
14.82010793158981
 40
15.82010793158981
 40
16.82010793158981
 40
17.82010793158981
 40
18.82010793158981
 40
19.82010793158981
 40
20.82010793158981
 40
20.82010793158981
 40
20.82010793158981
 10
0.3921896166041989
 20
2.883605505539626
 30
0.0
 10
0.4017298161266325
 20
3.062777639075072
 30
0.0
 10
0.4008802257417727
 20
3.421545086891618
 30
0.0
 10
0.4009908775963567
 20
3.780265984947298
 30
0.0
 10
0.4010243135353875
 20
4.138995062445637
 30
0.0
 10
0.4011211201520126
 20
4.497721242919488
 30
0.0
 10
0.4047209962344169
 20
4.856452391170968
 30
0.0
 10
0.4185794810533849
 20
5.214875977930368
 30
0.0
 10
0.4321115572630703
 20
5.573660858982001
 30
0.0
 10
0.4383934231815232
 20
5.930550294604948
 30
0.0
 10
0.4390537538459824
 20
6.29970823237027
 30
0.0
 10
0.5323239270050095
 20
6.443562829908834
 30
0.0
  0
SPLINE
  5
EE
330
1F
100
AcDbEntity
  8
2D DXF
370
    -3
100
AcDbSpline
210
0.0
220
0.0
230
1.0
 70
    12
 71
     2
 72
     6
 73
     3
 74
     0
 42
0.000000001
 43
0.0000000001
 40
10.77418209217931
 40
10.77418209217931
 40
10.77418209217931
 40
10.82010793158981
 40
10.82010793158981
 40
10.82010793158981
 10
0.3622135355546021
 20
2.854803237515831
 30
0.0
 41
1.0
 10
0.3910387858059125
 20
2.85480323751553
 30
0.0
 41
0.7210840447539764
 10
0.3921896166041989
 20
2.883605505539626
 30
0.0
 41
1.0
  0
LINE
  5
EF
330
1F
100
AcDbEntity
  8
2D DXF
370
    -3
100
AcDbLine
 10
-0.3660427172141993
 20
2.854803237515831
 30
0.0
 11
0.3622135355546021
 21
2.854803237515831
 31
0.0
  0
SPLINE
  5
F0
330
1F
100
AcDbEntity
  8
2D DXF
370
    -3
100
AcDbSpline
210
0.0
220
0.0
230
1.0
 70
    12
 71
     2
 72
     6
 73
     3
 74
     0
 42
0.000000001
 43
0.0000000001
 40
10.0
 40
10.0
 40
10.0
 40
10.04592583941051
 40
10.04592583941051
 40
10.04592583941051
 10
-0.3960187982637962
 20
2.883605505539626
 30
0.0
 41
1.0
 10
-0.3948679674655087
 20
2.85480323751553
 30
0.0
 41
0.7210840447539764
 10
-0.3660427172141993
 20
2.854803237515831
 30
0.0
 41
1.0
  0
SPLINE
  5
F1
330
1F
100
AcDbEntity
  8
2D DXF
370
    -3
100
AcDbSpline
210
0.0
220
0.0
230
1.0
 70
     8
 71
     2
 72
    15
 73
    12
 74
     0
 42
0.000000001
 43
0.0000000001
 40
0.0
 40
0.0
 40
0.0
 40
1.0
 40
2.0
 40
3.0
 40
4.0
 40
5.0
 40
6.0
 40
7.0
 40
8.0
 40
9.0
 40
10.0
 40
10.0
 40
10.0
 10
-0.5361531086646067
 20
6.443562829908834
 30
0.0
 10
-0.4428829355055797
 20
6.29970823237027
 30
0.0
 10
-0.4422226048411204
 20
5.930550294604948
 30
0.0
 10
-0.4359407389226675
 20
5.573660858982001
 30
0.0
 10
-0.4224086627129822
 20
5.214875977930368
 30
0.0
 10
-0.4085501778940142
 20
4.856452391170968
 30
0.0
 10
-0.4049503018116098
 20
4.497721242919488
 30
0.0
 10
-0.4048534951949847
 20
4.138995062445637
 30
0.0
 10
-0.4048200592559539
 20
3.780265984947298
 30
0.0
 10
-0.40470940740137
 20
3.421545086891618
 30
0.0
 10
-0.4055589977862297
 20
3.062777639075072
 30
0.0
 10
-0.3960187982637962
 20
2.883605505539626
 30
0.0
  0
LINE
  5
F2
330
1F
100
AcDbEntity
  8
2D DXF
370
    -3
100
AcDbLine
 10
-0.7918679814046214
 20
14.04578253724583
 30
0.0
 11
-0.791867981404593
 21
7.913803237515828
 31
0.0
  0
SPLINE
  5
F3
330
1F
100
AcDbEntity
  8
2D DXF
370
    -3
100
AcDbSpline
210
0.0
220
0.0
230
1.0
 70
    28
 71
     2
 72
     8
 73
     5
 74
     0
 42
0.000000001
 43
0.0000000001
 40
0.0
 40
0.0
 40
0.0
 40
1.236216709187584
 40
1.236216709187584
 40
2.472433418375168
 40
2.472433418375168
 40
2.472433418375168
 10
0.7821320185953908
 20
14.04578253724583
 30
0.0
 41
1.0
 10
0.7821320185953926
 20
14.04578253724582
 30
0.0
 41
0.7071067811865476
 10
-0.0048679814046153
 20
14.04578253724583
 30
0.0
 41
1.0
 10
-0.7918679814046001
 20
14.04578253724582
 30
0.0
 41
0.7071067811865476
 10
-0.7918679814046214
 20
14.04578253724583
 30
0.0
 41
1.0
  0
LINE
  5
F4
330
1F
100
AcDbEntity
  8
2D DXF
370
    -3
100
AcDbLine
 10
0.7821320185953908
 20
7.913803237515828
 30
0.0
 11
0.7821320185953908
 21
14.04578253724583
 31
0.0
  0
SPLINE
  5
F5
330
1F
100
AcDbEntity
  8
2D DXF
370
    -3
100
AcDbSpline
210
0.0
220
0.0
230
1.0
 70
     8
 71
     2
 72
    23
 73
    20
 74
     0
 42
0.000000001
 43
0.0000000001
 40
21.99352404128992
 40
21.99352404128992
 40
21.99352404128992
 40
22.99352404128992
 40
23.99352404128992
 40
24.99352404128992
 40
25.99352404128992
 40
26.99352404128992
 40
27.99352404128992
 40
28.99352404128992
 40
29.99352404128992
 40
30.99352404128992
 40
31.99352404128992
 40
32.99352404128992
 40
33.99352404128992
 40
34.99352404128992
 40
35.99352404128992
 40
36.99352404128992
 40
37.99352404128992
 40
38.99352404128992
 40
40.56948593771971
 40
40.56948593771971
 40
40.56948593771971
 10
11.93233770665499
 20
2.881818108515936
 30
0.0
 10
11.92064820307478
 20
3.220409670319575
 30
0.0
 10
11.77193076386602
 20
3.896504728547646
 30
0.0
 10
11.25040610501618
 20
4.356608714907813
 30
0.0
 10
10.59753798162005
 20
4.562288513183538
 30
0.0
 10
9.931735723324621
 20
4.694870127924296
 30
0.0
 10
9.261648929467569
 20
4.806790351905312
 30
0.0
 10
8.589968559387998
 20
4.907911637428334
 30
0.0
 10
7.917240131533973
 20
5.001901415361025
 30
0.0
 10
7.243859964389983
 20
5.091060294351684
 30
0.0
 10
6.570037829128793
 20
5.176812219541708
 30
0.0
 10
5.895914211526573
 20
5.260155246649737
 30
0.0
 10
5.221585502353989
 20
5.341820957514535
 30
0.0
 10
4.547126875886264
 20
5.422401494063585
 30
0.0
 10
3.872582057580829
 20
5.502281023090993
 30
0.0
 10
3.198080963141237
 20
5.582384744296994
 30
0.0
 10
2.52319501684768
 20
5.660080969594936
 30
0.0
 10
1.844742554149192
 20
5.696423676787211
 30
0.0
 10
0.9701314139667119
 20
5.718620961915852
 30
0.0
 10
0.4347506790858944
 20
5.711160380357177
 30
0.0
  0
SPLINE
  5
F6
330
1F
100
AcDbEntity
  8
2D DXF
370
    -3
100
AcDbSpline
210
0.0
220
0.0
230
1.0
 70
    12
 71
     2
 72
     6
 73
     3
 74
     0
 42
0.000000001
 43
0.0000000001
 40
21.9493903649247
 40
21.9493903649247
 40
21.9493903649247
 40
21.99352404128992
 40
21.99352404128992
 40
21.99352404128992
 10
11.962188953775
 20
2.854803452966499
 30
0.0
 41
1.0
 10
11.93503956208445
 20
2.854803493093593
 30
0.0
 41
0.7414578727663395
 10
11.93233770665499
 20
2.881818108515936
 30
0.0
 41
1.0
  0
LINE
  5
F7
330
1F
100
AcDbEntity
  8
2D DXF
370
    -3
100
AcDbLine
 10
12.69557252129489
 20
2.854803378069298
 30
0.0
 11
11.962188953775
 21
2.854803452966499
 31
0.0
  0
SPLINE
  5
F8
330
1F
100
AcDbEntity
  8
2D DXF
370
    -3
100
AcDbSpline
210
0.0
220
0.0
230
1.0
 70
    12
 71
     2
 72
     6
 73
     3
 74
     0
 42
0.000000001
 43
0.0000000001
 40
20.84615254623627
 40
20.84615254623627
 40
20.84615254623627
 40
20.88403450331716
 40
20.88403450331716
 40
20.88403450331716
 10
12.72416017709502
 20
2.875706805324774
 30
0.0
 41
1.0
 10
12.7175087937135
 20
2.854803237508508
 30
0.0
 41
0.8072217568360037
 10
12.69557252129489
 20
2.854803378069298
 30
0.0
 41
1.0
  0
SPLINE
  5
F9
330
1F
100
AcDbEntity
  8
2D DXF
370
    -3
100
AcDbSpline
210
0.0
220
0.0
230
1.0
 70
     8
 71
     2
 72
    23
 73
    20
 74
     0
 42
0.000000001
 43
0.0000000001
 40
2.846152546236271
 40
2.846152546236271
 40
2.846152546236271
 40
3.846152546236271
 40
4.84615254623627
 40
5.84615254623627
 40
6.84615254623627
 40
7.84615254623627
 40
8.84615254623627
 40
9.84615254623627
 40
10.84615254623627
 40
11.84615254623627
 40
12.84615254623627
 40
13.84615254623627
 40
14.84615254623627
 40
15.84615254623627
 40
16.84615254623627
 40
17.84615254623627
 40
18.84615254623627
 40
19.84615254623627
 40
20.84615254623627
 40
20.84615254623627
 40
20.84615254623627
 10
1.574052466265996
 20
7.162903697504809
 30
0.0
 10
1.925548381976469
 20
7.079745745496701
 30
0.0
 10
2.638264084536033
 20
6.960763777783987
 30
0.0
 10
3.350095672115131
 20
6.838148705454464
 30
0.0
 10
4.062383740774933
 20
6.717947074500493
 30
0.0
 10
4.774690153758755
 20
6.597901606490558
 30
0.0
 10
5.486940184986381
 20
6.477513557620219
 30
0.0
 10
6.199015800020774
 20
6.356100031893695
 30
0.0
 10
6.91079531242373
 20
6.232959537469305
 30
0.0
 10
7.622118012382046
 20
6.107203188232382
 30
0.0
 10
8.332731311429725
 20
5.977489969573646
 30
0.0
 10
9.04220625781771
 20
5.841659356833921
 30
0.0
 10
9.749491894722539
 20
5.694756955189354
 30
0.0
 10
10.45261898156362
 20
5.528961463294215
 30
0.0
 10
11.14691575980167
 20
5.328024805731792
 30
0.0
 10
11.81708330554689
 20
5.057003372768512
 30
0.0
 10
12.41837405542803
 20
4.633905639899715
 30
0.0
 10
12.70114548335162
 20
3.956403968617628
 30
0.0
 10
12.776525181157
 20
3.232331045714992
 30
0.0
 10
12.72416017709502
 20
2.875706805324774
 30
0.0
  0
SPLINE
  5
FA
330
1F
100
AcDbEntity
  8
2D DXF
370
    -3
100
AcDbSpline
210
0.0
220
0.0
230
1.0
 70
     8
 71
     3
 72
    10
 73
     6
 74
     0
 42
0.000000001
 43
0.0000000001
 40
2.025839044022843
 40
2.025839044022843
 40
2.025839044022843
 40
2.025839044022843
 40
2.2309174195762
 40
2.435995795129557
 40
2.846152546236271
 40
2.846152546236271
 40
2.846152546236271
 40
2.846152546236271
 10
0.9877780912022018
 20
7.663803237515828
 30
0.0
 10
1.012730958884006
 20
7.590890964185824
 30
0.0
 10
1.071794675741998
 20
7.466161474329829
 30
0.0
 10
1.234935086313001
 20
7.284553518912822
 30
0.0
 10
1.417358675439019
 20
7.206084601403822
 30
0.0
 10
1.574052466265996
 20
7.162903697504809
 30
0.0
  0
SPLINE
  5
FB
330
1F
100
AcDbEntity
  8
2D DXF
370
    -3
100
AcDbSpline
210
0.0
220
0.0
230
1.0
 70
     8
 71
     3
 72
     8
 73
     4
 74
     0
 42
0.000000001
 43
0.0000000001
 40
1.832958398789234
 40
1.832958398789234
 40
1.832958398789234
 40
1.832958398789234
 40
2.025839044022843
 40
2.025839044022843
 40
2.025839044022843
 40
2.025839044022843
 10
0.9382128928822198
 20
7.849941268134834
 30
0.0
 10
0.9523811862918166
 20
7.781149612812832
 30
0.0
 10
0.9687480219543971
 20
7.719409095254824
 30
0.0
 10
0.9877780912022018
 20
7.663803237515828
 30
0.0
  0
SPLINE
  5
FC
330
1F
100
AcDbEntity
  8
2D DXF
370
    -3
100
AcDbSpline
210
0.0
220
0.0
230
1.0
 70
    12
 71
     2
 72
     6
 73
     3
 74
     0
 42
0.000000001
 43
0.0000000001
 40
1.723544231991184
 40
1.723544231991184
 40
1.723544231991184
 40
1.832958398789234
 40
1.832958398789234
 40
1.832958398789234
 10
0.8598575251657934
 20
7.913803237515828
 30
0.0
 41
1.0
 10
0.9250599129164687
 20
7.913803232457914
 30
0.0
 41
0.775153375102519
 10
0.9382128928822198
 20
7.849941268134834
 30
0.0
 41
1.0
  0
LINE
  5
FD
330
1F
100
AcDbEntity
  8
2D DXF
370
    -3
100
AcDbLine
 10
-0.8636867068253906
 20
7.913803237515828
 30
0.0
 11
0.8598575251657934
 21
7.913803237515828
 31
0.0
  0
SPLINE
  5
FE
330
1F
100
AcDbEntity
  8
2D DXF
370
    -3
100
AcDbSpline
210
0.0
220
0.0
230
1.0
 70
    12
 71
     2
 72
     6
 73
     3
 74
     0
 42
0.000000001
 43
0.0000000001
 40
-0.1094141667980504
 40
-0.1094141667980504
 40
-0.1094141667980504
 40
0.0
 40
0.0
 40
0.0
 10
-0.942042074541817
 20
7.849941268134834
 30
0.0
 41
1.0
 10
-0.9288890945760513
 20
7.913803232457914
 30
0.0
 41
0.775153375102519
 10
-0.8636867068253906
 20
7.913803237515828
 30
0.0
 41
1.0
  0
SPLINE
  5
FF
330
1F
100
AcDbEntity
  8
2D DXF
370
    -3
100
AcDbSpline
210
0.0
220
0.0
230
1.0
 70
     8
 71
     3
 72
     8
 73
     4
 74
     0
 42
0.000000001
 43
0.0000000001
 40
-0.3022948120316587
 40
-0.3022948120316587
 40
-0.3022948120316587
 40
-0.3022948120316587
 40
-0.1094141667980504
 40
-0.1094141667980504
 40
-0.1094141667980504
 40
-0.1094141667980504
 10
-0.9916072728617991
 20
7.663803237515828
 30
0.0
 10
-0.9725772036139944
 20
7.719409095254824
 30
0.0
 10
-0.9562103679514138
 20
7.781149612812832
 30
0.0
 10
-0.942042074541817
 20
7.849941268134834
 30
0.0
  0
SPLINE
  5
100
330
1F
100
AcDbEntity
  8
2D DXF
370
    -3
100
AcDbSpline
210
0.0
220
0.0
230
1.0
 70
     8
 71
     3
 72
    10
 73
     6
 74
     0
 42
0.000000001
 43
0.0000000001
 40
-1.122608314245087
 40
-1.122608314245087
 40
-1.122608314245087
 40
-1.122608314245087
 40
-0.7124515631383728
 40
-0.5073731875850158
 40
-0.3022948120316587
 40
-0.3022948120316587
 40
-0.3022948120316587
 40
-0.3022948120316587
 10
-1.577881647925594
 20
7.162903697504809
 30
0.0
 10
-1.421187857098616
 20
7.206084601403822
 30
0.0
 10
-1.238764267972599
 20
7.284553518912822
 30
0.0
 10
-1.075623857401595
 20
7.466161474329829
 30
0.0
 10
-1.016560140543604
 20
7.590890964185824
 30
0.0
 10
-0.9916072728617991
 20
7.663803237515828
 30
0.0
  0
SPLINE
  5
101
330
1F
100
AcDbEntity
  8
2D DXF
370
    -3
100
AcDbSpline
210
0.0
220
0.0
230
1.0
 70
     8
 71
     2
 72
    23
 73
    20
 74
     0
 42
0.000000001
 43
0.0000000001
 40
-19.12260831424509
 40
-19.12260831424509
 40
-19.12260831424509
 40
-18.12260831424509
 40
-17.12260831424509
 40
-16.12260831424509
 40
-15.12260831424509
 40
-14.12260831424509
 40
-13.12260831424509
 40
-12.12260831424509
 40
-11.12260831424509
 40
-10.12260831424509
 40
-9.122608314245086
 40
-8.122608314245086
 40
-7.122608314245086
 40
-6.122608314245086
 40
-5.122608314245086
 40
-4.122608314245086
 40
-3.122608314245087
 40
-2.122608314245087
 40
-1.122608314245087
 40
-1.122608314245087
 40
-1.122608314245087
 10
-12.72798935875461
 20
2.875706805324774
 30
0.0
 10
-12.7803543628166
 20
3.232331045714992
 30
0.0
 10
-12.70497466501122
 20
3.956403968617628
 30
0.0
 10
-12.42220323708763
 20
4.633905639899715
 30
0.0
 10
-11.82091248720648
 20
5.057003372768512
 30
0.0
 10
-11.15074494146127
 20
5.328024805731792
 30
0.0
 10
-10.45644816322321
 20
5.528961463294215
 30
0.0
 10
-9.753321076382136
 20
5.694756955189354
 30
0.0
 10
-9.046035439477308
 20
5.841659356833921
 30
0.0
 10
-8.336560493089323
 20
5.977489969573646
 30
0.0
 10
-7.625947194041643
 20
6.107203188232382
 30
0.0
 10
-6.914624494083327
 20
6.232959537469305
 30
0.0
 10
-6.202844981680371
 20
6.356100031893695
 30
0.0
 10
-5.490769366645978
 20
6.477513557620219
 30
0.0
 10
-4.778519335418352
 20
6.597901606490558
 30
0.0
 10
-4.066212922434531
 20
6.717947074500493
 30
0.0
 10
-3.353924853774728
 20
6.838148705454464
 30
0.0
 10
-2.64209326619563
 20
6.960763777783987
 30
0.0
 10
-1.929377563636066
 20
7.079745745496701
 30
0.0
 10
-1.577881647925594
 20
7.162903697504809
 30
0.0
  0
SPLINE
  5
102
330
1F
100
AcDbEntity
  8
2D DXF
370
    -3
100
AcDbSpline
210
0.0
220
0.0
230
1.0
 70
    12
 71
     2
 72
     6
 73
     3
 74
     0
 42
0.000000001
 43
0.0000000001
 40
-19.16049027132598
 40
-19.16049027132598
 40
-19.16049027132598
 40
-19.12260831424509
 40
-19.12260831424509
 40
-19.12260831424509
 10
-12.69940170295449
 20
2.854803378069298
 30
0.0
 41
1.0
 10
-12.72133797537311
 20
2.854803237508508
 30
0.0
 41
0.8072217568360037
 10
-12.72798935875461
 20
2.875706805324774
 30
0.0
 41
1.0
  0
LINE
  5
103
330
1F
100
AcDbEntity
  8
2D DXF
370
    -3
100
AcDbLine
 10
-11.9660181354346
 20
2.854803452966499
 30
0.0
 11
-12.69940170295449
 21
2.854803378069298
 31
0.0
  0
SPLINE
  5
104
330
1F
100
AcDbEntity
  8
2D DXF
370
    -3
100
AcDbSpline
210
0.0
220
0.0
230
1.0
 70
    12
 71
     2
 72
     6
 73
     3
 74
     0
 42
0.000000001
 43
0.0000000001
 40
-20.26997980929874
 40
-20.26997980929874
 40
-20.26997980929874
 40
-20.22584613293352
 40
-20.22584613293352
 40
-20.22584613293352
 10
-11.93616688831459
 20
2.881818108515936
 30
0.0
 41
1.0
 10
-11.93886874374401
 20
2.854803493093593
 30
0.0
 41
0.7414578727663395
 10
-11.9660181354346
 20
2.854803452966499
 30
0.0
 41
1.0
  0
SPLINE
  5
105
330
1F
100
AcDbEntity
  8
2D DXF
370
    -3
100
AcDbSpline
210
0.0
220
0.0
230
1.0
 70
     8
 71
     2
 72
    23
 73
    20
 74
     0
 42
0.000000001
 43
0.0000000001
 40
-38.84594170572853
 40
-38.84594170572853
 40
-38.84594170572853
 40
-37.26997980929874
 40
-36.26997980929874
 40
-35.26997980929874
 40
-34.26997980929874
 40
-33.26997980929874
 40
-32.26997980929874
 40
-31.26997980929874
 40
-30.26997980929874
 40
-29.26997980929874
 40
-28.26997980929874
 40
-27.26997980929874
 40
-26.26997980929874
 40
-25.26997980929874
 40
-24.26997980929874
 40
-23.26997980929874
 40
-22.26997980929874
 40
-21.26997980929874
 40
-20.26997980929874
 40
-20.26997980929874
 40
-20.26997980929874
 10
-0.4385798607454916
 20
5.711160380357177
 30
0.0
 10
-0.9739605956263091
 20
5.718620961915852
 30
0.0
 10
-1.84857173580879
 20
5.696423676787211
 30
0.0
 10
-2.527024198507277
 20
5.660080969594936
 30
0.0
 10
-3.201910144800834
 20
5.582384744296994
 30
0.0
 10
-3.876411239240426
 20
5.502281023090993
 30
0.0
 10
-4.550956057545861
 20
5.422401494063585
 30
0.0
 10
-5.225414684013586
 20
5.341820957514535
 30
0.0
 10
-5.899743393186171
 20
5.260155246649737
 30
0.0
 10
-6.573867010788391
 20
5.176812219541708
 30
0.0
 10
-7.247689146049581
 20
5.091060294351684
 30
0.0
 10
-7.92106931319357
 20
5.001901415361025
 30
0.0
 10
-8.593797741047595
 20
4.907911637428334
 30
0.0
 10
-9.265478111127166
 20
4.806790351905312
 30
0.0
 10
-9.935564904984219
 20
4.694870127924296
 30
0.0
 10
-10.60136716327965
 20
4.562288513183538
 30
0.0
 10
-11.25423528667578
 20
4.356608714907813
 30
0.0
 10
-11.77575994552562
 20
3.896504728547646
 30
0.0
 10
-11.92447738473437
 20
3.220409670319575
 30
0.0
 10
-11.93616688831459
 20
2.881818108515936
 30
0.0
  0
SPLINE
  5
106
330
1F
100
AcDbEntity
  8
2D DXF
370
    -3
100
AcDbSpline
210
0.0
220
0.0
230
1.0
 70
     8
 71
     2
 72
    23
 73
    20
 74
     0
 42
0.000000001
 43
0.0000000001
 40
0.0000000000000018
 40
0.0000000000000018
 40
0.0000000000000018
 40
1.000000000000002
 40
2.000000000000002
 40
3.000000000000002
 40
4.000000000000002
 40
5.000000000000002
 40
6.000000000000002
 40
7.000000000000002
 40
8.000000000000002
 40
9.000000000000002
 40
10.0
 40
11.0
 40
12.0
 40
13.0
 40
14.0
 40
15.0
 40
16.0
 40
17.0
 40
18.0311250816648
 40
18.0311250816648
 40
18.0311250816648
 10
-7.822867981404627
 20
16.32698344861146
 30
0.0
 10
-7.820462958559133
 20
16.42353716734078
 30
0.0
 10
-7.645715041301472
 20
16.47625676765102
 30
0.0
 10
-7.480552139927582
 20
16.49843154811582
 30
0.0
 10
-7.311892433336297
 20
16.51064065197715
 30
0.0
 10
-7.143386052125848
 20
16.51758313195416
 30
0.0
 10
-6.974719426745978
 20
16.52161516011684
 30
0.0
 10
-6.806050943097446
 20
16.52554000884883
 30
0.0
 10
-6.637654905505443
 20
16.53610008731831
 30
0.0
 10
-6.469815462864247
 20
16.55330637636671
 30
0.0
 10
-6.302243366229121
 20
16.57271601886608
 30
0.0
 10
-6.134220389784289
 20
16.58885011519924
 30
0.0
 10
-5.965443994000267
 20
16.58856351764175
 30
0.0
 10
-5.796752110054584
 20
16.58820692986178
 30
0.0
 10
-5.628050397962639
 20
16.58682094309348
 30
0.0
 10
-5.459369334238389
 20
16.58395200750191
 30
0.0
 10
-5.290731435513081
 20
16.57912806556765
 30
0.0
 10
-5.12217931926115
 20
16.57186813586744
 30
0.0
 10
-4.951175743907086
 20
16.56119257327843
 30
0.0
 10
-4.86451428765146
 20
16.55372804923764
 30
0.0
  0
SPLINE
  5
107
330
1F
100
AcDbEntity
  8
2D DXF
370
    -3
100
AcDbSpline
210
0.0
220
0.0
230
1.0
 70
     8
 71
     2
 72
    23
 73
    20
 74
     0
 42
0.000000001
 43
0.0000000001
 40
-19.64279919972779
 40
-19.64279919972779
 40
-19.64279919972779
 40
-17.0
 40
-16.0
 40
-15.0
 40
-14.0
 40
-13.0
 40
-12.0
 40
-11.0
 40
-10.0
 40
-8.999999999999998
 40
-7.999999999999998
 40
-6.999999999999998
 40
-5.999999999999998
 40
-4.999999999999998
 40
-3.999999999999998
 40
-2.999999999999998
 40
-1.999999999999998
 40
-0.9999999999999982
 40
0.0000000000000018
 40
0.0000000000000018
 40
0.0000000000000018
 10
-4.593974109205519
 20
16.12856922015153
 30
0.0
 10
-4.815486396666884
 20
16.1012452586377
 30
0.0
 10
-5.12217931926115
 20
16.08209876135549
 30
0.0
 10
-5.290731435513081
 20
16.07483883165528
 30
0.0
 10
-5.459369334238389
 20
16.07001488972102
 30
0.0
 10
-5.628050397962639
 20
16.06714595412945
 30
0.0
 10
-5.796752110054584
 20
16.06575996736115
 30
0.0
 10
-5.965443994000267
 20
16.06540337958118
 30
0.0
 10
-6.134220389784289
 20
16.06511678202369
 30
0.0
 10
-6.302243366229121
 20
16.08125087835685
 30
0.0
 10
-6.469815462864247
 20
16.10066052085622
 30
0.0
 10
-6.637654905505443
 20
16.11786680990462
 30
0.0
 10
-6.806050943097446
 20
16.1284268883741
 30
0.0
 10
-6.974719426745978
 20
16.13235173710608
 30
0.0
 10
-7.143386052125848
 20
16.13638376526877
 30
0.0
 10
-7.311892433336297
 20
16.14332624524578
 30
0.0
 10
-7.480552139927582
 20
16.1555353491071
 30
0.0
 10
-7.645715041301472
 20
16.17771012957191
 30
0.0
 10
-7.820462958559133
 20
16.23042972988215
 30
0.0
 10
-7.822867981404627
 20
16.32698344861146
 30
0.0
  0
ARC
  5
108
330
1F
100
AcDbEntity
  8
2D DXF
370
    -3
100
AcDbCircle
 10
-0.4392599299628017
 20
40.9277116727153
 30
0.0
 40
24.6845296793962
210
0.0
220
0.0
230
-1.0
100
AcDbArc
 50
256.2922916864438
 51
259.5460017775782
  0
SPLINE
  5
109
330
1F
100
AcDbEntity
  8
2D DXF
370
    -3
100
AcDbSpline
210
0.0
220
0.0
230
1.0
 70
     8
 71
     3
 72
    34
 73
    30
 74
     0
 42
0.000000001
 43
0.0000000001
 40
40.99999999999999
 40
40.99999999999999
 40
40.99999999999999
 40
40.99999999999999
 40
41.99999999999999
 40
42.99999999999999
 40
43.99999999999999
 40
44.99999999999999
 40
45.99999999999999
 40
46.99999999999999
 40
47.99999999999999
 40
48.99999999999999
 40
49.99999999999999
 40
50.99999999999999
 40
51.99999999999999
 40
53.0
 40
54.0
 40
55.0
 40
56.0
 40
57.0
 40
58.0
 40
59.0
 40
60.0
 40
61.0
 40
62.0
 40
63.0
 40
64.0
 40
65.0
 40
66.0
 40
67.0
 40
68.0
 40
68.0
 40
68.0
 40
68.0
 10
7.616864073724983
 20
18.18021368857422
 30
0.0
 10
7.660130606787632
 20
18.18652615182474
 30
0.0
 10
7.760316168809155
 20
18.19958600150583
 30
0.0
 10
7.891116779300731
 20
18.21012128768225
 30
0.0
 10
8.022359743508801
 20
18.2122521355651
 30
0.0
 10
8.15338322385334
 20
18.20202556554083
 30
0.0
 10
8.28165135711994
 20
18.1725569077901
 30
0.0
 10
8.400098044868756
 20
18.11113019763636
 30
0.0
 10
8.485754967908477
 20
18.0103214095628
 30
0.0
 10
8.532644294855757
 20
17.8808601830932
 30
0.0
 10
8.48889583051637
 20
17.75158330610748
 30
0.0
 10
8.388975054599044
 20
17.66279290289861
 30
0.0
 10
8.28032981596887
 20
17.58994279324067
 30
0.0
 10
8.164777781588455
 20
17.52735217968715
 30
0.0
 10
8.046336591381547
 20
17.47100854085765
 30
0.0
 10
7.925670939384375
 20
17.41947680358265
 30
0.0
 10
7.803461495894013
 20
17.37178721429084
 30
0.0
 10
7.68001307540807
 20
17.32739872876655
 30
0.0
 10
7.55556593237857
 20
17.28590583924016
 30
0.0
 10
7.43029805403684
 20
17.24696116677666
 30
0.0
 10
7.304259450252133
 20
17.21059211934801
 30
0.0
 10
7.177624287308063
 20
17.17637168440641
 30
0.0
 10
7.050997504874786
 20
17.14213172955541
 30
0.0
 10
6.924235465822747
 20
17.10839198008878
 30
0.0
 10
6.797376705746856
 20
17.07501916178318
 30
0.0
 10
6.670406750170471
 20
17.04207137506882
 30
0.0
 10
6.543321154322385
 20
17.00957246486895
 30
0.0
 10
6.416108202895558
 20
16.97757543354734
 30
0.0
 10
6.331204167780598
 20
16.95662678974831
 30
0.0
 10
6.288724583367539
 20
16.94626532847743
 30
0.0
  0
SPLINE
  5
10A
330
1F
100
AcDbEntity
  8
2D DXF
370
    -3
100
AcDbSpline
210
0.0
220
0.0
230
1.0
 70
     8
 71
     3
 72
    34
 73
    30
 74
     0
 42
0.000000001
 43
0.0000000001
 40
0.0000000000000107
 40
0.0000000000000107
 40
0.0000000000000107
 40
0.0000000000000107
 40
1.00000000000001
 40
2.00000000000001
 40
3.000000000000009
 40
4.000000000000009
 40
5.000000000000009
 40
6.000000000000008
 40
7.000000000000007
 40
8.000000000000007
 40
9.000000000000007
 40
10.00000000000001
 40
11.00000000000001
 40
12.00000000000001
 40
13.00000000000001
 40
14.00000000000001
 40
15.00000000000001
 40
16.00000000000001
 40
17.0
 40
18.0
 40
19.0
 40
20.0
 40
21.0
 40
22.0
 40
23.0
 40
24.0
 40
25.0
 40
26.0
 40
27.0
 40
27.0
 40
27.0
 40
27.0
 10
-6.292553765027137
 20
16.94626532847743
 30
0.0
 10
-6.335033349440195
 20
16.95662678974831
 30
0.0
 10
-6.419937384555155
 20
16.97757543354734
 30
0.0
 10
-6.547150335981982
 20
17.00957246486895
 30
0.0
 10
-6.674235931830069
 20
17.04207137506882
 30
0.0
 10
-6.801205887406454
 20
17.07501916178318
 30
0.0
 10
-6.928064647482344
 20
17.10839198008878
 30
0.0
 10
-7.054826686534383
 20
17.14213172955541
 30
0.0
 10
-7.181453468967661
 20
17.17637168440641
 30
0.0
 10
-7.30808863191173
 20
17.21059211934801
 30
0.0
 10
-7.434127235696437
 20
17.24696116677666
 30
0.0
 10
-7.559395114038168
 20
17.28590583924016
 30
0.0
 10
-7.683842257067667
 20
17.32739872876655
 30
0.0
 10
-7.80729067755361
 20
17.37178721429084
 30
0.0
 10
-7.929500121043972
 20
17.41947680358265
 30
0.0
 10
-8.050165773041144
 20
17.47100854085765
 30
0.0
 10
-8.168606963248052
 20
17.52735217968715
 30
0.0
 10
-8.284158997628467
 20
17.58994279324067
 30
0.0
 10
-8.392804236258641
 20
17.66279290289861
 30
0.0
 10
-8.492725012175967
 20
17.75158330610748
 30
0.0
 10
-8.536473476515354
 20
17.8808601830932
 30
0.0
 10
-8.489584149568074
 20
18.0103214095628
 30
0.0
 10
-8.403927226528353
 20
18.11113019763636
 30
0.0
 10
-8.285480538779538
 20
18.1725569077901
 30
0.0
 10
-8.157212405512936
 20
18.20202556554083
 30
0.0
 10
-8.026188925168398
 20
18.2122521355651
 30
0.0
 10
-7.894945960960328
 20
18.21012128768225
 30
0.0
 10
-7.764145350468752
 20
18.19958600150583
 30
0.0
 10
-7.663959788447229
 20
18.18652615182474
 30
0.0
 10
-7.62069325538458
 20
18.18021368857422
 30
0.0
  0
ARC
  5
10B
330
1F
100
AcDbEntity
  8
2D DXF
370
    -3
100
AcDbCircle
 10
0.4430891111702664
 20
40.92771167456897
 30
0.0
 40
24.68452968130421
210
0.0
220
0.0
230
-1.0
100
AcDbArc
 50
280.4539982226671
 51
283.7077083135562
  0
SPLINE
  5
10C
330
1F
100
AcDbEntity
  8
2D DXF
370
    -3
100
AcDbSpline
210
0.0
220
0.0
230
1.0
 70
     8
 71
     2
 72
    18
 73
    15
 74
     0
 42
0.000000001
 43
0.0000000001
 40
3.0
 40
3.0
 40
3.0
 40
4.0
 40
5.0
 40
6.0
 40
7.0
 40
8.0
 40
9.0
 40
10.0
 40
11.0
 40
12.0
 40
13.0
 40
14.0
 40
15.0
 40
16.0
 40
16.0
 40
16.0
 10
-5.078481434442764
 20
16.92235137101174
 30
0.0
 10
-4.987665411051026
 20
16.76651601543769
 30
0.0
 10
-4.807160411497378
 20
16.45433191174821
 30
0.0
 10
-4.621045745706496
 20
16.14469989510491
 30
0.0
 10
-4.363610096527978
 20
15.88779286142125
 30
0.0
 10
-4.043913126415006
 20
15.71731042303309
 30
0.0
 10
-3.690780880597103
 20
15.63654514067382
 30
0.0
 10
-3.332081555039807
 20
15.59770040857965
 30
0.0
 10
-2.971605789343087
 20
15.58274507891813
 30
0.0
 10
-2.610977625024233
 20
15.5755360662854
 30
0.0
 10
-2.250356240613385
 20
15.56783817495945
 30
0.0
 10
-1.889707969028777
 20
15.56153930440062
 30
0.0
 10
-1.529043022953729
 20
15.55629314807543
 30
0.0
 10
-1.168363553728412
 20
15.55215662452442
 30
0.0
 10
-0.9880183144591825
 20
15.55064347098966
 30
0.0
  0
SPLINE
  5
10D
330
1F
100
AcDbEntity
  8
2D DXF
370
    -3
100
AcDbSpline
210
0.0
220
0.0
230
1.0
 70
     8
 71
     2
 72
     8
 73
     5
 74
     0
 42
0.000000001
 43
0.0000000001
 40
0.0
 40
0.0
 40
0.0
 40
1.0
 40
2.0
 40
3.0
 40
3.0
 40
3.0
 10
-5.130418272334467
 20
17.11698311467347
 30
0.0
 10
-5.131016620094684
 20
17.08286853905113
 30
0.0
 10
-5.120554059679208
 20
17.01539754646497
 30
0.0
 10
-5.095737298892075
 20
16.95175945477261
 30
0.0
 10
-5.078481434442764
 20
16.92235137101174
 30
0.0
  0
SPLINE
  5
10E
330
1F
100
AcDbEntity
  8
2D DXF
370
    -3
100
AcDbSpline
210
0.0
220
0.0
230
1.0
 70
     8
 71
     2
 72
    18
 73
    15
 74
     0
 42
0.000000001
 43
0.0000000001
 40
3.0
 40
3.0
 40
3.0
 40
4.0
 40
5.0
 40
6.0
 40
7.0
 40
8.0
 40
9.0
 40
10.0
 40
11.0
 40
12.0
 40
13.0
 40
14.0
 40
15.0
 40
16.0
 40
16.0
 40
16.0
 10
5.074652252783167
 20
16.92235137101174
 30
0.0
 10
4.983836229391429
 20
16.76651601543769
 30
0.0
 10
4.803331229837781
 20
16.45433191174821
 30
0.0
 10
4.617216564046899
 20
16.14469989510491
 30
0.0
 10
4.359780914868381
 20
15.88779286142125
 30
0.0
 10
4.040083944755409
 20
15.71731042303309
 30
0.0
 10
3.686951698937506
 20
15.63654514067382
 30
0.0
 10
3.328252373380209
 20
15.59770040857965
 30
0.0
 10
2.96777660768349
 20
15.58274507891813
 30
0.0
 10
2.607148443364636
 20
15.5755360662854
 30
0.0
 10
2.246527058953788
 20
15.56783817495945
 30
0.0
 10
1.88587878736918
 20
15.56153930440062
 30
0.0
 10
1.525213841294132
 20
15.55629314807543
 30
0.0
 10
1.164534372068815
 20
15.55215662452442
 30
0.0
 10
0.9841891327995853
 20
15.55064347098966
 30
0.0
  0
SPLINE
  5
10F
330
1F
100
AcDbEntity
  8
2D DXF
370
    -3
100
AcDbSpline
210
0.0
220
0.0
230
1.0
 70
     8
 71
     2
 72
     8
 73
     5
 74
     0
 42
0.000000001
 43
0.0000000001
 40
0.0
 40
0.0
 40
0.0
 40
1.0
 40
2.0
 40
3.0
 40
3.0
 40
3.0
 10
5.126589090674869
 20
17.11698311467347
 30
0.0
 10
5.127187438435087
 20
17.08286853905113
 30
0.0
 10
5.11672487801961
 20
17.01539754646497
 30
0.0
 10
5.091908117232478
 20
16.95175945477261
 30
0.0
 10
5.074652252783167
 20
16.92235137101174
 30
0.0
  0
SPLINE
  5
110
330
1F
100
AcDbEntity
  8
2D DXF
370
    -3
100
AcDbSpline
210
0.0
220
0.0
230
1.0
 70
     8
 71
     2
 72
    11
 73
     8
 74
     0
 42
0.000000001
 43
0.0000000001
 40
8.216829150029167
 40
8.216829150029167
 40
8.216829150029167
 40
9.216829150029167
 40
10.21682915002917
 40
11.21682915002917
 40
12.21682915002917
 40
13.21682915002917
 40
14.21682915002917
 40
14.21682915002917
 40
14.21682915002917
 10
-0.7253435432937323
 20
15.13897155274983
 30
0.0
 10
-0.7399039965697654
 20
15.19870219636777
 30
0.0
 10
-0.7882242566476947
 20
15.31178878668455
 30
0.0
 10
-0.8548566537219386
 20
15.41512886185095
 30
0.0
 10
-0.9375458061789885
 20
15.50616366096956
 30
0.0
 10
-1.034333839956346
 20
15.58199612680848
 30
0.0
 10
-1.143034699333455
 20
15.63982981798775
 30
0.0
 10
-1.202372197476151
 20
15.65626115847129
 30
0.0
  0
LINE
  5
111
330
1F
100
AcDbEntity
  8
2D DXF
370
    -3
100
AcDbLine
 10
-0.6749073681662452
 20
14.93168230904676
 30
0.0
 11
-0.7253435432937323
 21
15.13897155274983
 31
0.0
  0
LINE
  5
112
330
1F
100
AcDbEntity
  8
2D DXF
370
    -3
100
AcDbLine
 10
0.6651712806382335
 20
14.93168220988874
 30
0.0
 11
-0.6749073681662452
 21
14.93168230904676
 31
0.0
  0
LINE
  5
113
330
1F
100
AcDbEntity
  8
2D DXF
370
    -3
100
AcDbLine
 10
0.7158057436306962
 20
15.13978610722472
 30
0.0
 11
0.6651712806382335
 21
14.93168220988874
 31
0.0
  0
SPLINE
  5
114
330
1F
100
AcDbEntity
  8
2D DXF
370
    -3
100
AcDbSpline
210
0.0
220
0.0
230
1.0
 70
     8
 71
     2
 72
    11
 73
     8
 74
     0
 42
0.000000001
 43
0.0000000001
 40
0.0
 40
0.0
 40
0.0
 40
1.0
 40
2.0
 40
3.0
 40
4.0
 40
5.0
 40
6.0
 40
6.0
 40
6.0
 10
1.192059130401802
 20
15.65629912937703
 30
0.0
 10
1.132817376173918
 20
15.63988433256929
 30
0.0
 10
1.024293445618085
 20
15.58212957336976
 30
0.0
 10
0.9276623820691015
 20
15.50640989092089
 30
0.0
 10
0.8450990125419793
 20
15.41552095679094
 30
0.0
 10
0.7785881383058921
 20
15.31233178490782
 30
0.0
 10
0.7303435675639918
 20
15.19942314334687
 30
0.0
 10
0.7158057436306962
 20
15.13978610722472
 30
0.0
  0
LINE
  5
115
330
1F
100
AcDbEntity
  8
2D DXF
370
    -3
100
AcDbLine
 10
0.5461320185954008
 20
14.93168221869694
 30
0.0
 11
0.5461320185954008
 21
14.04578253724583
 31
0.0
  0
LINE
  5
116
330
1F
100
AcDbEntity
  8
2D DXF
370
    -3
100
AcDbLine
 10
-0.555867981404603
 20
14.04578253724583
 30
0.0
 11
-0.555867981404603
 21
14.93168230023854
 31
0.0
  0
SPLINE
  5
117
330
1F
100
AcDbEntity
  8
2D DXF
370
    -3
100
AcDbSpline
210
0.0
220
0.0
230
1.0
 70
    28
 71
     2
 72
     8
 73
     5
 74
     0
 42
0.000000001
 43
0.0000000001
 40
0.0
 40
0.0
 40
0.0
 40
0.5568472978487908
 40
0.5568472978487908
 40
1.113694595697582
 40
1.113694595697582
 40
1.113694595697582
 10
-12.68436798140461
 20
2.619803237515831
 30
0.0
 41
1.0
 10
-12.68436798140461
 20
2.619803237515824
 30
0.0
 41
0.7071067811865476
 10
-12.3298679814046
 20
2.619803237515831
 30
0.0
 41
1.0
 10
-11.97536798140461
 20
2.619803237515824
 30
0.0
 41
0.7071067811865476
 10
-11.9753679814046
 20
2.619803237515831
 30
0.0
 41
1.0
  0
SPLINE
  5
118
330
1F
100
AcDbEntity
  8
2D DXF
370
    -3
100
AcDbSpline
210
0.0
220
0.0
230
1.0
 70
    28
 71
     2
 72
     6
 73
     3
 74
     0
 42
0.000000001
 43
0.0000000001
 40
0.0438698847624333
 40
0.0438698847624333
 40
0.0438698847624333
 40
0.4243698847624376
 40
0.4243698847624376
 40
0.4243698847624376
 10
-11.9103679814046
 20
2.619803237515831
 30
0.0
 41
1.0
 10
-11.72011798140461
 20
2.619803237515831
 30
0.0
 41
1.0
 10
-11.52986798140462
 20
2.619803237515831
 30
0.0
 41
1.0
  0
SPLINE
  5
119
330
1F
100
AcDbEntity
  8
2D DXF
370
    -3
100
AcDbSpline
210
0.0
220
0.0
230
1.0
 70
    12
 71
     2
 72
     8
 73
     5
 74
     0
 42
0.000000001
 43
0.0000000001
 40
0.0
 40
0.0
 40
0.0
 40
0.1656854249492454
 40
0.1656854249492454
 40
0.3313708498984843
 40
0.3313708498984843
 40
0.3313708498984843
 10
-11.3298679814046
 20
0.2598032375158316
 30
0.0
 41
1.0
 10
-11.32986798140459
 20
0.1769605250412135
 30
0.0
 41
0.8535533905932737
 10
-11.38844662516729
 20
0.118381881278518
 30
0.0
 41
0.8535533905932737
 10
-11.44702526892996
 20
0.0598032375158308
 30
0.0
 41
0.8535533905932737
 10
-11.52986798140459
 20
0.0598032375158287
 30
0.0
 41
1.0
  0
SPLINE
  5
11A
330
1F
100
AcDbEntity
  8
2D DXF
370
    -3
100
AcDbSpline
210
0.0
220
0.0
230
1.0
 70
    12
 71
     2
 72
     8
 73
     5
 74
     0
 42
0.000000001
 43
0.0000000001
 40
0.0
 40
0.0
 40
0.0
 40
0.1656854249492389
 40
0.1656854249492389
 40
0.3313708498984846
 40
0.3313708498984846
 40
0.3313708498984846
 10
-11.52986798140459
 20
2.619803237515831
 30
0.0
 41
1.0
 10
-11.44702526892996
 20
2.619803237515829
 30
0.0
 41
0.8535533905932737
 10
-11.38844662516729
 20
2.561224593753141
 30
0.0
 41
0.8535533905932737
 10
-11.32986798140459
 20
2.502645949990455
 30
0.0
 41
0.8535533905932737
 10
-11.3298679814046
 20
2.419803237515828
 30
0.0
 41
1.0
  0
SPLINE
  5
11B
330
1F
100
AcDbEntity
  8
2D DXF
370
    -3
100
AcDbSpline
210
0.0
220
0.0
230
1.0
 70
    28
 71
     2
 72
     6
 73
     3
 74
     0
 42
0.000000001
 43
0.0000000001
 40
0.0183198847624326
 40
0.0183198847624326
 40
0.0183198847624326
 40
0.1433198847624326
 40
0.1433198847624326
 40
0.1433198847624326
 10
-12.65986798140462
 20
2.619803237515831
 30
0.0
 41
1.0
 10
-12.65986798140462
 20
2.682303237515831
 30
0.0
 41
1.0
 10
-12.65986798140462
 20
2.744803237515831
 30
0.0
 41
1.0
  0
SPLINE
  5
11C
330
1F
100
AcDbEntity
  8
2D DXF
370
    -3
100
AcDbSpline
210
0.0
220
0.0
230
1.0
 70
    24
 71
     2
 72
     6
 73
     3
 74
     0
 42
0.000000001
 43
0.0000000001
 40
-1.28
 40
-1.28
 40
-1.28
 40
0.0
 40
0.0
 40
0.0
 10
-11.9753679814046
 20
1.33980323751583
 30
0.0
 10
-11.9753679814046
 20
1.979803237515831
 30
0.0
 10
-11.9753679814046
 20
2.619803237515831
 30
0.0
  0
SPLINE
  5
11D
330
1F
100
AcDbEntity
  8
2D DXF
370
    -3
100
AcDbSpline
210
0.0
220
0.0
230
1.0
 70
    24
 71
     2
 72
     6
 73
     3
 74
     0
 42
0.000000001
 43
0.0000000001
 40
-1.28
 40
-1.28
 40
-1.28
 40
0.0
 40
0.0
 40
0.0
 10
-12.68436798140461
 20
2.619803237515831
 30
0.0
 10
-12.68436798140461
 20
1.979803237515831
 30
0.0
 10
-12.68436798140461
 20
1.33980323751583
 30
0.0
  0
SPLINE
  5
11E
330
1F
100
AcDbEntity
  8
2D DXF
370
    -3
100
AcDbSpline
210
0.0
220
0.0
230
1.0
 70
    28
 71
     2
 72
     8
 73
     5
 74
     0
 42
0.000000001
 43
0.0000000001
 40
-1.113694595697582
 40
-1.113694595697582
 40
-1.113694595697582
 40
-0.5568472978487908
 40
-0.5568472978487908
 40
0.0
 40
0.0
 40
0.0
 10
-12.68436798140461
 20
1.33980323751583
 30
0.0
 41
1.0
 10
-12.68436798140461
 20
1.339803237515819
 30
0.0
 41
0.7071067811865476
 10
-12.3298679814046
 20
1.33980323751583
 30
0.0
 41
1.0
 10
-11.97536798140461
 20
1.339803237515829
 30
0.0
 41
0.7071067811865476
 10
-11.9753679814046
 20
1.33980323751583
 30
0.0
 41
1.0
  0
SPLINE
  5
11F
330
1F
100
AcDbEntity
  8
2D DXF
370
    -3
100
AcDbSpline
210
0.0
220
0.0
230
1.0
 70
    12
 71
     2
 72
     8
 73
     5
 74
     0
 42
0.000000001
 43
0.0000000001
 40
0.0
 40
0.0
 40
0.0
 40
0.1656854249492368
 40
0.1656854249492368
 40
0.3313708498984775
 40
0.3313708498984775
 40
0.3313708498984775
 10
-13.12986798140462
 20
2.619803237515831
 30
0.0
 41
1.0
 10
-13.21271069387922
 20
2.619803237515829
 30
0.0
 41
0.8535533905932737
 10
-13.27128933764192
 20
2.561224593753141
 30
0.0
 41
0.8535533905932737
 10
-13.32986798140459
 20
2.502645949990455
 30
0.0
 41
0.8535533905932737
 10
-13.3298679814046
 20
2.419803237515828
 30
0.0
 41
1.0
  0
SPLINE
  5
120
330
1F
100
AcDbEntity
  8
2D DXF
370
    -3
100
AcDbSpline
210
0.0
220
0.0
230
1.0
 70
    12
 71
     2
 72
     8
 73
     5
 74
     0
 42
0.000000001
 43
0.0000000001
 40
0.0
 40
0.0
 40
0.0
 40
0.1656854249492369
 40
0.1656854249492369
 40
0.3313708498984772
 40
0.3313708498984772
 40
0.3313708498984772
 10
-13.12986798140462
 20
0.0598032375158287
 30
0.0
 41
1.0
 10
-13.21271069387922
 20
0.0598032375158308
 30
0.0
 41
0.8535533905932737
 10
-13.27128933764192
 20
0.118381881278518
 30
0.0
 41
0.8535533905932737
 10
-13.32986798140459
 20
0.1769605250412135
 30
0.0
 41
0.8535533905932737
 10
-13.3298679814046
 20
0.2598032375158316
 30
0.0
 41
1.0
  0
SPLINE
  5
121
330
1F
100
AcDbEntity
  8
2D DXF
370
    -3
100
AcDbSpline
210
0.0
220
0.0
230
1.0
 70
    28
 71
     2
 72
     6
 73
     3
 74
     0
 42
0.000000001
 43
0.0000000001
 40
0.0438698847624298
 40
0.0438698847624298
 40
0.0438698847624298
 40
0.4243698847624376
 40
0.4243698847624376
 40
0.4243698847624376
 10
-13.12986798140462
 20
2.619803237515831
 30
0.0
 41
1.0
 10
-12.93961798140461
 20
2.619803237515831
 30
0.0
 41
1.0
 10
-12.7493679814046
 20
2.619803237515831
 30
0.0
 41
1.0
  0
LINE
  5
122
330
1F
100
AcDbEntity
  8
2D DXF
370
    -3
100
AcDbLine
 10
9.9618112176111
 20
51.68084610673924
 30
0.0
 11
7.993950115993769
 21
51.70216987103323
 31
0.0
  0
LINE
  5
123
330
1F
100
AcDbEntity
  8
2D DXF
370
    -3
100
AcDbLine
 10
11.0150646846828
 20
51.66943304071785
 30
0.0
 11
11.00410936407495
 21
51.66955175269108
 31
0.0
  0
SPLINE
  5
124
330
1F
100
AcDbEntity
  8
2D DXF
370
    -3
100
AcDbSpline
210
0.0
220
0.0
230
1.0
 70
     8
 71
     3
 72
    16
 73
    12
 74
     0
 42
0.000000001
 43
0.0000000001
 40
8.358222152785325
 40
8.358222152785325
 40
8.358222152785325
 40
8.358222152785325
 40
8.834621005673881
 40
9.108088108167353
 40
9.244821659414209
 40
9.38155521418236
 40
9.548416349953287
 40
9.715277486817016
 40
10.04899975811574
 40
10.38272203184319
 40
10.71644430557065
 40
10.71644430557065
 40
10.71644430557065
 40
10.71644430557065
 10
12.3169989743128
 20
51.66341658779154
 30
0.0
 10
12.31233468446278
 20
51.66340369982694
 30
0.0
 10
12.2970696314628
 20
51.66337552625555
 30
0.0
 10
12.2316246289928
 20
51.66337324808875
 30
0.0
 10
12.16607601492281
 20
51.66339742920705
 30
0.0
 10
12.09763913688279
 20
51.66343067239815
 30
0.0
 10
12.00584924647281
 20
51.66349779047015
 30
0.0
 10
11.85131547932279
 20
51.66372089485814
 30
0.0
 10
11.62539046405278
 20
51.66443577242015
 30
0.0
 10
11.32758430557278
 20
51.66620773941935
 30
0.0
 10
11.1200075769528
 20
51.66829587839615
 30
0.0
 10
11.0150646846828
 20
51.66943304071785
 30
0.0
  0
SPLINE
  5
125
330
1F
100
AcDbEntity
  8
2D DXF
370
    -3
100
AcDbSpline
210
0.0
220
0.0
230
1.0
 70
     8
 71
     2
 72
    11
 73
     8
 74
     0
 42
0.000000001
 43
0.0000000001
 40
2.358222152785325
 40
2.358222152785325
 40
2.358222152785325
 40
3.358222152785325
 40
4.358222152785325
 40
5.358222152785325
 40
6.358222152785325
 40
7.358222152785325
 40
8.358222152785325
 40
8.358222152785325
 40
8.358222152785325
 10
12.3169989743128
 20
50.86344949357135
 30
0.0
 10
12.43035169600687
 20
50.86024123063042
 30
0.0
 10
12.64712876724845
 20
50.94307229351222
 30
0.0
 10
12.75381749122066
 20
51.14866750669965
 30
0.0
 10
12.75381748977919
 20
51.37819857380575
 30
0.0
 10
12.64712877754529
 20
51.58379377905085
 30
0.0
 10
12.43035169570426
 20
51.66662485222125
 30
0.0
 10
12.3169989743128
 20
51.66341658779154
 30
0.0
  0
SPLINE
  5
126
330
1F
100
AcDbEntity
  8
2D DXF
370
    -3
100
AcDbSpline
210
0.0
220
0.0
230
1.0
 70
     8
 71
     3
 72
    16
 73
    12
 74
     0
 42
0.000000001
 43
0.0000000001
 40
0.0
 40
0.0
 40
0.0
 40
0.0
 40
0.333722273727456
 40
0.667444547454912
 40
1.001166818753635
 40
1.168027955617363
 40
1.334889091388291
 40
1.471622646156443
 40
1.608356197403297
 40
1.88182329989677
 40
2.358222152785325
 40
2.358222152785325
 40
2.358222152785325
 40
2.358222152785325
 10
11.0150646846828
 20
50.85743304064505
 30
0.0
 10
11.1200075769528
 20
50.85857020296675
 30
0.0
 10
11.32758430557278
 20
50.86065834194355
 30
0.0
 10
11.62539046405278
 20
50.86243030894275
 30
0.0
 10
11.85131547932279
 20
50.86314518650475
 30
0.0
 10
12.00584924647281
 20
50.86336829089275
 30
0.0
 10
12.09763913688279
 20
50.86343540896475
 30
0.0
 10
12.16607601492281
 20
50.86346865215585
 30
0.0
 10
12.2316246289928
 20
50.86349283327415
 30
0.0
 10
12.2970696314628
 20
50.86349055510735
 30
0.0
 10
12.31233468446278
 20
50.86346238153595
 30
0.0
 10
12.3169989743128
 20
50.86344949357135
 30
0.0
  0
LINE
  5
127
330
1F
100
AcDbEntity
  8
2D DXF
370
    -3
100
AcDbLine
 10
8.224555219569012
 20
50.8271950497394
 30
0.0
 11
11.0150646846828
 21
50.85743304064505
 31
0.0
  0
LINE
  5
128
330
1F
100
AcDbEntity
  8
2D DXF
370
    -3
100
AcDbLine
 10
-9.961749651187645
 20
51.68093846983052
 30
0.0
 11
-8.00241226668031
 21
51.70216987103323
 31
0.0
  0
LINE
  5
129
330
1F
100
AcDbEntity
  8
2D DXF
370
    -3
100
AcDbLine
 10
-11.02352683536934
 20
51.66943304071785
 30
0.0
 11
-11.0041865817487
 21
51.66964261191637
 31
0.0
  0
SPLINE
  5
12A
330
1F
100
AcDbEntity
  8
2D DXF
370
    -3
100
AcDbSpline
210
0.0
220
0.0
230
1.0
 70
     8
 71
     3
 72
    16
 73
    12
 74
     0
 42
0.000000001
 43
0.0000000001
 40
8.358222152785325
 40
8.358222152785325
 40
8.358222152785325
 40
8.358222152785325
 40
8.834621005673881
 40
9.108088108167353
 40
9.244821659414209
 40
9.38155521418236
 40
9.548416349953287
 40
9.715277486817016
 40
10.04899975811574
 40
10.38272203184319
 40
10.71644430557065
 40
10.71644430557065
 40
10.71644430557065
 40
10.71644430557065
 10
-12.32546112499934
 20
51.66341658779154
 30
0.0
 10
-12.32079683514932
 20
51.66340369982694
 30
0.0
 10
-12.30553178214934
 20
51.66337552625555
 30
0.0
 10
-12.24008677967934
 20
51.66337324808875
 30
0.0
 10
-12.17453816560935
 20
51.66339742920705
 30
0.0
 10
-12.10610128756933
 20
51.66343067239815
 30
0.0
 10
-12.01431139715935
 20
51.66349779047015
 30
0.0
 10
-11.85977763000933
 20
51.66372089485814
 30
0.0
 10
-11.63385261473933
 20
51.66443577242015
 30
0.0
 10
-11.33604645625933
 20
51.66620773941935
 30
0.0
 10
-11.12846972763934
 20
51.66829587839615
 30
0.0
 10
-11.02352683536934
 20
51.66943304071785
 30
0.0
  0
SPLINE
  5
12B
330
1F
100
AcDbEntity
  8
2D DXF
370
    -3
100
AcDbSpline
210
0.0
220
0.0
230
1.0
 70
     8
 71
     2
 72
    11
 73
     8
 74
     0
 42
0.000000001
 43
0.0000000001
 40
2.358222152785325
 40
2.358222152785325
 40
2.358222152785325
 40
3.358222152785325
 40
4.358222152785325
 40
5.358222152785325
 40
6.358222152785325
 40
7.358222152785325
 40
8.358222152785325
 40
8.358222152785325
 40
8.358222152785325
 10
-12.32546112499934
 20
50.86344949357135
 30
0.0
 10
-12.43881384669341
 20
50.86024123063042
 30
0.0
 10
-12.65559091793499
 20
50.94307229351222
 30
0.0
 10
-12.7622796419072
 20
51.14866750669965
 30
0.0
 10
-12.76227964046574
 20
51.37819857380575
 30
0.0
 10
-12.65559092823183
 20
51.58379377905085
 30
0.0
 10
-12.4388138463908
 20
51.66662485222125
 30
0.0
 10
-12.32546112499934
 20
51.66341658779154
 30
0.0
  0
SPLINE
  5
12C
330
1F
100
AcDbEntity
  8
2D DXF
370
    -3
100
AcDbSpline
210
0.0
220
0.0
230
1.0
 70
     8
 71
     3
 72
    16
 73
    12
 74
     0
 42
0.000000001
 43
0.0000000001
 40
0.0
 40
0.0
 40
0.0
 40
0.0
 40
0.333722273727456
 40
0.667444547454912
 40
1.001166818753635
 40
1.168027955617363
 40
1.334889091388291
 40
1.471622646156443
 40
1.608356197403297
 40
1.88182329989677
 40
2.358222152785325
 40
2.358222152785325
 40
2.358222152785325
 40
2.358222152785325
 10
-11.02352683536934
 20
50.85743304064505
 30
0.0
 10
-11.12846972763934
 20
50.85857020296675
 30
0.0
 10
-11.33604645625933
 20
50.86065834194355
 30
0.0
 10
-11.63385261473933
 20
50.86243030894275
 30
0.0
 10
-11.85977763000933
 20
50.86314518650475
 30
0.0
 10
-12.01431139715935
 20
50.86336829089275
 30
0.0
 10
-12.10610128756933
 20
50.86343540896475
 30
0.0
 10
-12.17453816560935
 20
50.86346865215585
 30
0.0
 10
-12.24008677967934
 20
50.86349283327415
 30
0.0
 10
-12.30553178214934
 20
50.86349055510735
 30
0.0
 10
-12.32079683514932
 20
50.86346238153595
 30
0.0
 10
-12.32546112499934
 20
50.86344949357135
 30
0.0
  0
LINE
  5
12D
330
1F
100
AcDbEntity
  8
2D DXF
370
    -3
100
AcDbLine
 10
-8.233017370255553
 20
50.8271950497394
 30
0.0
 11
-11.02352683536934
 21
50.85743304064505
 31
0.0
  0
LINE
  5
12E
330
1F
100
AcDbEntity
  8
2D DXF
370
    -3
100
AcDbLine
 10
0.401863496326726
 20
62.28029647657124
 30
0.0
 11
0.4036116959696443
 21
62.11896407635535
 31
0.0
  0
SPLINE
  5
12F
330
1F
100
AcDbEntity
  8
2D DXF
370
    -3
100
AcDbSpline
210
0.0
220
0.0
230
1.0
 70
     8
 71
     3
 72
    16
 73
    12
 74
     0
 42
0.000000001
 43
0.0000000001
 40
8.358222152785325
 40
8.358222152785325
 40
8.358222152785325
 40
8.358222152785325
 40
8.834621005673881
 40
9.108088108167353
 40
9.244821659414209
 40
9.38155521418236
 40
9.548416349953287
 40
9.715277486817016
 40
10.04899975811574
 40
10.38272203184319
 40
10.71644430557065
 40
10.71644430557065
 40
10.71644430557065
 40
10.71644430557065
 10
0.3958470434004226
 20
63.58223076620123
 30
0.0
 10
0.3958341554358213
 20
63.57756647635122
 30
0.0
 10
0.3958059818644273
 20
63.56230142335124
 30
0.0
 10
0.3958037036976378
 20
63.49685642088124
 30
0.0
 10
0.3958278848159438
 20
63.43130780681125
 30
0.0
 10
0.395861128007013
 20
63.36287092877123
 30
0.0
 10
0.3959282460790376
 20
63.27108103836125
 30
0.0
 10
0.3961513504670364
 20
63.11654727121123
 30
0.0
 10
0.396866228029026
 20
62.89062225594122
 30
0.0
 10
0.3986381950282265
 20
62.59281609746122
 30
0.0
 10
0.4007263340050287
 20
62.38523936884124
 30
0.0
 10
0.401863496326726
 20
62.28029647657124
 30
0.0
  0
SPLINE
  5
130
330
1F
100
AcDbEntity
  8
2D DXF
370
    -3
100
AcDbSpline
210
0.0
220
0.0
230
1.0
 70
     8
 71
     2
 72
    11
 73
     8
 74
     0
 42
0.000000001
 43
0.0000000001
 40
2.358222152785325
 40
2.358222152785325
 40
2.358222152785325
 40
3.358222152785325
 40
4.358222152785325
 40
5.358222152785325
 40
6.358222152785325
 40
7.358222152785325
 40
8.358222152785325
 40
8.358222152785325
 40
8.358222152785325
 10
-0.4041200508197704
 20
63.58223076620123
 30
0.0
 10
-0.4073283137606865
 20
63.69558348789531
 30
0.0
 10
-0.3244972508789061
 20
63.91236055913689
 30
0.0
 10
-0.1189020376914556
 20
64.0190492831091
 30
0.0
 10
0.1106290294146248
 20
64.01904928166763
 30
0.0
 10
0.3162242346597139
 20
63.91236056943373
 30
0.0
 10
0.3990553078301247
 20
63.6955834875927
 30
0.0
 10
0.3958470434004226
 20
63.58223076620123
 30
0.0
  0
SPLINE
  5
131
330
1F
100
AcDbEntity
  8
2D DXF
370
    -3
100
AcDbSpline
210
0.0
220
0.0
230
1.0
 70
     8
 71
     3
 72
    16
 73
    12
 74
     0
 42
0.000000001
 43
0.0000000001
 40
0.0
 40
0.0
 40
0.0
 40
0.0
 40
0.333722273727456
 40
0.667444547454912
 40
1.001166818753635
 40
1.168027955617363
 40
1.334889091388291
 40
1.471622646156443
 40
1.608356197403297
 40
1.88182329989677
 40
2.358222152785325
 40
2.358222152785325
 40
2.358222152785325
 40
2.358222152785325
 10
-0.4101365037460738
 20
62.28029647657124
 30
0.0
 10
-0.4089993414243764
 20
62.38523936884124
 30
0.0
 10
-0.4069112024475743
 20
62.59281609746122
 30
0.0
 10
-0.4051392354483738
 20
62.89062225594122
 30
0.0
 10
-0.4044243578863558
 20
63.11654727121123
 30
0.0
 10
-0.404201253498357
 20
63.27108103836125
 30
0.0
 10
-0.4041341354263892
 20
63.36287092877123
 30
0.0
 10
-0.4041008922352631
 20
63.43130780681125
 30
0.0
 10
-0.4040767111169572
 20
63.49685642088124
 30
0.0
 10
-0.4040789892837751
 20
63.56230142335124
 30
0.0
 10
-0.4041071628551691
 20
63.57756647635122
 30
0.0
 10
-0.4041200508197704
 20
63.58223076620123
 30
0.0
  0
LINE
  5
132
330
1F
100
AcDbEntity
  8
2D DXF
370
    -3
100
AcDbLine
 10
-0.411887149633074
 20
62.11873832500665
 30
0.0
 11
-0.4101365037460738
 21
62.28029647657124
 31
0.0
  0
LINE
  5
133
330
1F
100
AcDbEntity
  8
2D DXF
370
    -3
100
AcDbLine
 10
12.6752774175328
 20
53.46893304068145
 30
0.0
 11
12.6752774175328
 21
51.52196687024892
 31
0.0
  0
LINE
  5
134
330
1F
100
AcDbEntity
  8
2D DXF
370
    -3
100
AcDbLine
 10
11.96627741753279
 20
53.46893304068145
 30
0.0
 11
11.96627741753279
 21
51.66355932023309
 31
0.0
  0
SPLINE
  5
135
330
1F
100
AcDbEntity
  8
2D DXF
370
    -3
100
AcDbSpline
210
0.0
220
0.0
230
1.0
 70
    28
 71
     2
 72
     8
 73
     5
 74
     0
 42
0.000000001
 43
0.0000000001
 40
-2.946053727531805
 40
-2.946053727531805
 40
-2.946053727531805
 40
-2.010619298297468
 40
-2.010619298297468
 40
0.0
 40
0.0
 40
0.0
 10
12.74027741753279
 20
51.33740858631514
 30
0.0
 41
0.854260889860835
 10
12.74027741753282
 20
51.7014053384408
 30
0.0
 41
0.8637323330183045
 10
12.74027741753279
 20
52.18893304068145
 30
0.0
 41
1.0
 10
12.74027741753281
 20
53.46893304068146
 30
0.0
 41
0.7071067811865476
 10
12.74027741753279
 20
53.46893304068145
 30
0.0
 41
1.0
  0
SPLINE
  5
136
330
1F
100
AcDbEntity
  8
2D DXF
370
    -3
100
AcDbSpline
210
0.0
220
0.0
230
1.0
 70
    28
 71
     2
 72
     8
 73
     5
 74
     0
 42
0.000000001
 43
0.0000000001
 40
-2.25412492948331
 40
-2.25412492948331
 40
-2.25412492948331
 40
-1.696460032938488
 40
-1.696460032938488
 40
0.0
 40
0.0
 40
0.0
 10
11.32077741753279
 20
51.66784089506322
 30
0.0
 41
0.8707379739206973
 10
11.32077741753282
 20
51.91115056172156
 30
0.0
 41
0.90371935477586
 10
11.3207774175328
 20
52.18893304068145
 30
0.0
 41
1.0
 10
11.32077741753283
 20
53.26893304068145
 30
0.0
 41
0.7071067811865476
 10
11.3207774175328
 20
53.26893304068145
 30
0.0
 41
1.0
  0
SPLINE
  5
137
330
1F
100
AcDbEntity
  8
2D DXF
370
    -3
100
AcDbSpline
210
0.0
220
0.0
230
1.0
 70
    28
 71
     2
 72
     8
 73
     5
 74
     0
 42
0.000000001
 43
0.0000000001
 40
-3.392920065876977
 40
-3.392920065876977
 40
-3.392920065876977
 40
-1.696460032938488
 40
-1.696460032938488
 40
0.0
 40
0.0
 40
0.0
 10
13.3207774175328
 20
53.26893304068145
 30
0.0
 41
1.0
 10
13.32077741753281
 20
53.26893304068145
 30
0.0
 41
0.7071067811865476
 10
13.3207774175328
 20
52.18893304068145
 30
0.0
 41
1.0
 10
13.32077741753281
 20
51.10893304068146
 30
0.0
 41
0.7071067811865476
 10
13.3207774175328
 20
51.10893304068145
 30
0.0
 41
1.0
  0
SPLINE
  5
138
330
1F
100
AcDbEntity
  8
2D DXF
370
    -3
100
AcDbSpline
210
0.0
220
0.0
230
1.0
 70
    12
 71
     2
 72
     6
 73
     3
 74
     0
 42
0.000000001
 43
0.0000000001
 40
-0.3141592653589793
 40
-0.3141592653589793
 40
-0.3141592653589793
 40
0.0
 40
0.0
 40
0.0
 10
13.12077741753281
 20
50.90893304068145
 30
0.0
 41
1.0
 10
13.32077741753281
 20
50.90893304068145
 30
0.0
 41
0.7071067811865476
 10
13.3207774175328
 20
51.10893304068145
 30
0.0
 41
1.0
  0
SPLINE
  5
139
330
1F
100
AcDbEntity
  8
2D DXF
370
    -3
100
AcDbSpline
210
0.0
220
0.0
230
1.0
 70
    12
 71
     2
 72
     6
 73
     3
 74
     0
 42
0.000000001
 43
0.0000000001
 40
0.0
 40
0.0
 40
0.0
 40
0.3141592653589793
 40
0.3141592653589793
 40
0.3141592653589793
 10
13.12077741753281
 20
53.46893304068145
 30
0.0
 41
1.0
 10
13.32077741753281
 20
53.46893304068146
 30
0.0
 41
0.7071067811865476
 10
13.3207774175328
 20
53.26893304068145
 30
0.0
 41
1.0
  0
SPLINE
  5
13A
330
1F
100
AcDbEntity
  8
2D DXF
370
    -3
100
AcDbSpline
210
0.0
220
0.0
230
1.0
 70
    24
 71
     2
 72
     6
 73
     3
 74
     0
 42
0.000000001
 43
0.0000000001
 40
-0.3805000000000001
 40
-0.3805000000000001
 40
-0.3805000000000001
 40
0.0
 40
0.0
 40
0.0
 10
13.12077741753281
 20
50.90893304068145
 30
0.0
 10
12.9305274175328
 20
50.90893304068145
 30
0.0
 10
12.74027741753279
 20
50.90893304068145
 30
0.0
  0
SPLINE
  5
13B
330
1F
100
AcDbEntity
  8
2D DXF
370
    -3
100
AcDbSpline
210
0.0
220
0.0
230
1.0
 70
    28
 71
     2
 72
     6
 73
     3
 74
     0
 42
0.000000001
 43
0.0000000001
 40
-4.021238596594936
 40
-4.021238596594936
 40
-4.021238596594936
 40
-3.211340649965797
 40
-3.211340649965797
 40
-3.211340649965797
 10
12.74027741753279
 20
50.90893304068145
 30
0.0
 41
1.0
 10
12.74027741753285
 20
50.90893304068145
 30
0.0
 41
0.8820196261423139
 10
12.74027741753279
 20
51.15068717151171
 30
0.0
 41
0.8590866464987275
  0
SPLINE
  5
13C
330
1F
100
AcDbEntity
  8
2D DXF
370
    -3
100
AcDbSpline
210
0.0
220
0.0
230
1.0
 70
    24
 71
     2
 72
     6
 73
     3
 74
     0
 42
0.000000001
 43
0.0000000001
 40
-0.3805000000000001
 40
-0.3805000000000001
 40
-0.3805000000000001
 40
0.0
 40
0.0
 40
0.0
 10
12.74027741753279
 20
53.46893304068145
 30
0.0
 10
12.9305274175328
 20
53.46893304068145
 30
0.0
 10
13.12077741753281
 20
53.46893304068145
 30
0.0
  0
SPLINE
  5
13D
330
1F
100
AcDbEntity
  8
2D DXF
370
    -3
100
AcDbSpline
210
0.0
220
0.0
230
1.0
 70
    24
 71
     2
 72
     6
 73
     3
 74
     0
 42
0.000000001
 43
0.0000000001
 40
-0.709
 40
-0.709
 40
-0.709
 40
0.0
 40
0.0
 40
0.0
 10
12.6752774175328
 20
53.46893304068145
 30
0.0
 10
12.3207774175328
 20
53.46893304068145
 30
0.0
 10
11.96627741753279
 20
53.46893304068145
 30
0.0
  0
SPLINE
  5
13E
330
1F
100
AcDbEntity
  8
2D DXF
370
    -3
100
AcDbSpline
210
0.0
220
0.0
230
1.0
 70
    28
 71
     2
 72
     8
 73
     5
 74
     0
 42
0.000000001
 43
0.0000000001
 40
-4.021238596594936
 40
-4.021238596594936
 40
-4.021238596594936
 40
-2.010619298297468
 40
-2.010619298297468
 40
-1.450146787943953
 40
-1.450146787943953
 40
-1.450146787943953
 10
11.9012774175328
 20
53.46893304068145
 30
0.0
 41
1.0
 10
11.90127741753283
 20
53.46893304068146
 30
0.0
 41
0.7071067811865476
 10
11.9012774175328
 20
52.18893304068145
 30
0.0
 41
1.0
 10
11.90127741753282
 20
51.91420105850666
 30
0.0
 41
0.9183542116834841
 10
11.9012774175328
 20
51.66366698515429
 30
0.0
 41
0.882226955867176
  0
SPLINE
  5
13F
330
1F
100
AcDbEntity
  8
2D DXF
370
    -3
100
AcDbSpline
210
0.0
220
0.0
230
1.0
 70
    24
 71
     2
 72
     6
 73
     3
 74
     0
 42
0.000000001
 43
0.0000000001
 40
-0.3805000000000001
 40
-0.3805000000000001
 40
-0.3805000000000001
 40
0.0
 40
0.0
 40
0.0
 10
11.9012774175328
 20
53.46893304068145
 30
0.0
 10
11.71102741753279
 20
53.46893304068145
 30
0.0
 10
11.52077741753278
 20
53.46893304068145
 30
0.0
  0
SPLINE
  5
140
330
1F
100
AcDbEntity
  8
2D DXF
370
    -3
100
AcDbSpline
210
0.0
220
0.0
230
1.0
 70
    12
 71
     2
 72
     6
 73
     3
 74
     0
 42
0.000000001
 43
0.0000000001
 40
0.9424777960769379
 40
0.9424777960769379
 40
0.9424777960769379
 40
1.256637061435917
 40
1.256637061435917
 40
1.256637061435917
 10
11.3207774175328
 20
53.26893304068145
 30
0.0
 41
1.0
 10
11.3207774175328
 20
53.46893304068146
 30
0.0
 41
0.7071067811865476
 10
11.52077741753278
 20
53.46893304068145
 30
0.0
 41
1.0
  0
LINE
  5
141
330
1F
100
AcDbEntity
  8
2D DXF
370
    -3
100
AcDbLine
 10
0.3502604317806544
 20
65.79393304068147
 30
0.0
 11
0.3502604317806544
 21
63.82176710194906
 31
0.0
  0
LINE
  5
142
330
1F
100
AcDbEntity
  8
2D DXF
370
    -3
100
AcDbLine
 10
-0.3587395682193488
 20
65.79393304068147
 30
0.0
 11
-0.3587395682193488
 21
63.82130678811123
 31
0.0
  0
SPLINE
  5
143
330
1F
100
AcDbEntity
  8
2D DXF
370
    -3
100
AcDbSpline
210
0.0
220
0.0
230
1.0
 70
     8
 71
     3
 72
    16
 73
    12
 74
     0
 42
0.000000001
 43
0.0000000001
 40
8.358222152785325
 40
8.358222152785325
 40
8.358222152785325
 40
8.358222152785325
 40
8.834621005673881
 40
9.108088108167353
 40
9.244821659414209
 40
9.38155521418236
 40
9.548416349953287
 40
9.715277486817016
 40
10.04899975811574
 40
10.38272203184319
 40
10.62817583236049
 40
10.62817583236049
 40
10.62817583236049
 40
10.62817583236049
 10
-0.4042231314022189
 20
38.94453224163861
 30
0.0
 10
-0.4042102434376176
 20
38.94919653148862
 30
0.0
 10
-0.4041820698661951
 20
38.9644615844886
 30
0.0
 10
-0.4041797916994057
 20
39.0299065869586
 30
0.0
 10
-0.4042039728177116
 20
39.0954552010286
 30
0.0
 10
-0.4042372160088092
 20
39.16389207906862
 30
0.0
 10
-0.4043043340808055
 20
39.2556819694786
 30
0.0
 10
-0.4045274384688042
 20
39.41021573662861
 30
0.0
 10
-0.4052423160308223
 20
39.63614075189862
 30
0.0
 10
-0.4068580564964606
 20
39.90769065175198
 30
0.0
 10
-0.4085659760194886
 20
40.0867783526038
 30
0.0
 10
-0.4093592672367237
 20
40.1634581134583
 30
0.0
  0
SPLINE
  5
144
330
1F
100
AcDbEntity
  8
2D DXF
370
    -3
100
AcDbSpline
210
0.0
220
0.0
230
1.0
 70
     8
 71
     2
 72
    11
 73
     8
 74
     0
 42
0.000000001
 43
0.0000000001
 40
2.358222152785325
 40
2.358222152785325
 40
2.358222152785325
 40
3.358222152785325
 40
4.358222152785325
 40
5.358222152785325
 40
6.358222152785325
 40
7.358222152785325
 40
8.358222152785325
 40
8.358222152785325
 40
8.358222152785325
 10
0.3957439628180026
 20
38.94453224163861
 30
0.0
 10
0.3989522257589186
 20
38.83117951994454
 30
0.0
 10
0.3161211628771383
 20
38.61440244870296
 30
0.0
 10
0.1105259496896878
 20
38.50771372473075
 30
0.0
 10
-0.1190051174164211
 20
38.50771372617221
 30
0.0
 10
-0.3246003226615102
 20
38.61440243840612
 30
0.0
 10
-0.4074313958319209
 20
38.83117952024715
 30
0.0
 10
-0.4042231314022189
 20
38.94453224163861
 30
0.0
  0
SPLINE
  5
145
330
1F
100
AcDbEntity
  8
2D DXF
370
    -3
100
AcDbSpline
210
0.0
220
0.0
230
1.0
 70
     8
 71
     3
 72
    16
 73
    12
 74
     0
 42
0.000000001
 43
0.0000000001
 40
0.0882665820400162
 40
0.0882665820400162
 40
0.0882665820400162
 40
0.0882665820400162
 40
0.333722273727456
 40
0.667444547454912
 40
1.001166818753635
 40
1.168027955617363
 40
1.334889091388291
 40
1.471622646156443
 40
1.608356197403297
 40
1.88182329989677
 40
2.358222152785325
 40
2.358222152785325
 40
2.358222152785325
 40
2.358222152785325
 10
0.4008801169889438
 20
40.16345988586295
 30
0.0
 10
0.4000868185889459
 20
40.08677952214566
 30
0.0
 10
0.3983788912594122
 20
39.9076912142977
 30
0.0
 10
0.396763147446606
 20
39.63614075189862
 30
0.0
 10
0.396048269884588
 20
39.41021573662861
 30
0.0
 10
0.3958251654965892
 20
39.2556819694786
 30
0.0
 10
0.395758047424593
 20
39.16389207906862
 30
0.0
 10
0.3957248042334953
 20
39.0954552010286
 30
0.0
 10
0.3957006231151894
 20
39.0299065869586
 30
0.0
 10
0.3957029012819788
 20
38.9644615844886
 30
0.0
 10
0.3957310748534013
 20
38.94919653148862
 30
0.0
 10
0.3957439628180026
 20
38.94453224163861
 30
0.0
  0
LINE
  5
146
330
1F
100
AcDbEntity
  8
2D DXF
370
    -3
100
AcDbLine
 10
-12.68373956821934
 20
53.46893304068145
 30
0.0
 11
-12.68373956821934
 21
51.52196687024892
 31
0.0
  0
LINE
  5
147
330
1F
100
AcDbEntity
  8
2D DXF
370
    -3
100
AcDbLine
 10
-11.97473956821933
 20
53.46893304068145
 30
0.0
 11
-11.97473956821933
 21
51.66355932023309
 31
0.0
  0
SPLINE
  5
148
330
1F
100
AcDbEntity
  8
2D DXF
370
    -3
100
AcDbSpline
210
0.0
220
0.0
230
1.0
 70
    28
 71
     2
 72
     8
 73
     5
 74
     0
 42
0.000000001
 43
0.0000000001
 40
-2.946053727531805
 40
-2.946053727531805
 40
-2.946053727531805
 40
-2.010619298297468
 40
-2.010619298297468
 40
0.0
 40
0.0
 40
0.0
 10
-12.74873956821936
 20
51.33740858631514
 30
0.0
 41
0.854260889860835
 10
-12.74873956821936
 20
51.7014053384408
 30
0.0
 41
0.8637323330183045
 10
-12.74873956821934
 20
52.18893304068145
 30
0.0
 41
1.0
 10
-12.74873956821934
 20
53.46893304068146
 30
0.0
 41
0.7071067811865476
 10
-12.74873956821934
 20
53.46893304068145
 30
0.0
 41
1.0
  0
SPLINE
  5
149
330
1F
100
AcDbEntity
  8
2D DXF
370
    -3
100
AcDbSpline
210
0.0
220
0.0
230
1.0
 70
    28
 71
     2
 72
     8
 73
     5
 74
     0
 42
0.000000001
 43
0.0000000001
 40
-2.051931865501802
 40
-2.051931865501802
 40
-2.051931865501802
 40
-1.696460032938488
 40
-1.696460032938488
 40
0.0
 40
0.0
 40
0.0
 10
-1.004239568219333
 20
40.19660630314943
 30
0.0
 41
0.9029753249265025
 10
-1.004239568219391
 20
40.03441438140005
 30
0.0
 41
0.9386279150610791
 10
-1.004239568219347
 20
39.86393304068145
 30
0.0
 41
1.0
 10
-1.004239568219328
 20
38.78393304068145
 30
0.0
 41
0.7071067811865476
 10
-1.004239568219347
 20
38.78393304068145
 30
0.0
 41
1.0
  0
SPLINE
  5
14A
330
1F
100
AcDbEntity
  8
2D DXF
370
    -3
100
AcDbSpline
210
0.0
220
0.0
230
1.0
 70
    28
 71
     2
 72
     8
 73
     5
 74
     0
 42
0.000000001
 43
0.0000000001
 40
-2.25412492948331
 40
-2.25412492948331
 40
-2.25412492948331
 40
-1.696460032938488
 40
-1.696460032938488
 40
0.0
 40
0.0
 40
0.0
 10
-11.32923956821931
 20
51.66784089506322
 30
0.0
 41
0.8707379739206973
 10
-11.32923956821934
 20
51.91115056172156
 30
0.0
 41
0.90371935477586
 10
-11.32923956821934
 20
52.18893304068145
 30
0.0
 41
1.0
 10
-11.32923956821936
 20
53.26893304068145
 30
0.0
 41
0.7071067811865476
 10
-11.32923956821934
 20
53.26893304068145
 30
0.0
 41
1.0
  0
SPLINE
  5
14B
330
1F
100
AcDbEntity
  8
2D DXF
370
    -3
100
AcDbSpline
210
0.0
220
0.0
230
1.0
 70
    28
 71
     2
 72
     8
 73
     5
 74
     0
 42
0.000000001
 43
0.0000000001
 40
-2.332547755811289
 40
-2.332547755811289
 40
-2.332547755811289
 40
-2.010619298297468
 40
-2.010619298297468
 40
0.0
 40
0.0
 40
0.0
 10
0.4152604317807141
 20
40.16380025065519
 30
0.0
 41
0.9212248687045055
 10
0.41526043178065
 20
40.01598231478339
 30
0.0
 41
0.9531036719737469
 10
0.4152604317806521
 20
39.86393304068145
 30
0.0
 41
1.0
 10
0.415260431780652
 20
38.58393304068144
 30
0.0
 41
0.7071067811865476
 10
0.4152604317806521
 20
38.58393304068144
 30
0.0
 41
1.0
  0
SPLINE
  5
14C
330
1F
100
AcDbEntity
  8
2D DXF
370
    -3
100
AcDbSpline
210
0.0
220
0.0
230
1.0
 70
    28
 71
     2
 72
     8
 73
     5
 74
     0
 42
0.000000001
 43
0.0000000001
 40
-3.392920065876977
 40
-3.392920065876977
 40
-3.392920065876977
 40
-1.696460032938488
 40
-1.696460032938488
 40
0.0
 40
0.0
 40
0.0
 10
-13.32923956821934
 20
53.26893304068145
 30
0.0
 41
1.0
 10
-13.32923956821933
 20
53.26893304068145
 30
0.0
 41
0.7071067811865476
 10
-13.32923956821934
 20
52.18893304068145
 30
0.0
 41
1.0
 10
-13.32923956821933
 20
51.10893304068146
 30
0.0
 41
0.7071067811865476
 10
-13.32923956821934
 20
51.10893304068145
 30
0.0
 41
1.0
  0
SPLINE
  5
14D
330
1F
100
AcDbEntity
  8
2D DXF
370
    -3
100
AcDbSpline
210
0.0
220
0.0
230
1.0
 70
    12
 71
     2
 72
     6
 73
     3
 74
     0
 42
0.000000001
 43
0.0000000001
 40
-0.3141592653589793
 40
-0.3141592653589793
 40
-0.3141592653589793
 40
0.0
 40
0.0
 40
0.0
 10
-13.12923956821935
 20
50.90893304068145
 30
0.0
 41
1.0
 10
-13.32923956821933
 20
50.90893304068145
 30
0.0
 41
0.7071067811865476
 10
-13.32923956821934
 20
51.10893304068145
 30
0.0
 41
1.0
  0
SPLINE
  5
14E
330
1F
100
AcDbEntity
  8
2D DXF
370
    -3
100
AcDbSpline
210
0.0
220
0.0
230
1.0
 70
    12
 71
     2
 72
     6
 73
     3
 74
     0
 42
0.000000001
 43
0.0000000001
 40
0.0
 40
0.0
 40
0.0
 40
0.3141592653589793
 40
0.3141592653589793
 40
0.3141592653589793
 10
-13.12923956821935
 20
53.46893304068145
 30
0.0
 41
1.0
 10
-13.32923956821933
 20
53.46893304068146
 30
0.0
 41
0.7071067811865476
 10
-13.32923956821934
 20
53.26893304068145
 30
0.0
 41
1.0
  0
SPLINE
  5
14F
330
1F
100
AcDbEntity
  8
2D DXF
370
    -3
100
AcDbSpline
210
0.0
220
0.0
230
1.0
 70
    24
 71
     2
 72
     6
 73
     3
 74
     0
 42
0.000000001
 43
0.0000000001
 40
-0.3805000000000001
 40
-0.3805000000000001
 40
-0.3805000000000001
 40
0.0
 40
0.0
 40
0.0
 10
-13.12923956821935
 20
50.90893304068145
 30
0.0
 10
-12.93898956821934
 20
50.90893304068145
 30
0.0
 10
-12.74873956821934
 20
50.90893304068145
 30
0.0
  0
SPLINE
  5
150
330
1F
100
AcDbEntity
  8
2D DXF
370
    -3
100
AcDbSpline
210
0.0
220
0.0
230
1.0
 70
    28
 71
     2
 72
     6
 73
     3
 74
     0
 42
0.000000001
 43
0.0000000001
 40
-4.021238596594936
 40
-4.021238596594936
 40
-4.021238596594936
 40
-3.211340649965797
 40
-3.211340649965797
 40
-3.211340649965797
 10
-12.74873956821934
 20
50.90893304068145
 30
0.0
 41
1.0
 10
-12.74873956821932
 20
50.90893304068145
 30
0.0
 41
0.8820196261423139
 10
-12.74873956821937
 20
51.15068717151171
 30
0.0
 41
0.8590866464987275
  0
SPLINE
  5
151
330
1F
100
AcDbEntity
  8
2D DXF
370
    -3
100
AcDbSpline
210
0.0
220
0.0
230
1.0
 70
    24
 71
     2
 72
     6
 73
     3
 74
     0
 42
0.000000001
 43
0.0000000001
 40
-0.3805000000000001
 40
-0.3805000000000001
 40
-0.3805000000000001
 40
0.0
 40
0.0
 40
0.0
 10
-12.74873956821934
 20
53.46893304068145
 30
0.0
 10
-12.93898956821934
 20
53.46893304068145
 30
0.0
 10
-13.12923956821935
 20
53.46893304068145
 30
0.0
  0
SPLINE
  5
152
330
1F
100
AcDbEntity
  8
2D DXF
370
    -3
100
AcDbSpline
210
0.0
220
0.0
230
1.0
 70
    12
 71
     2
 72
     6
 73
     3
 74
     0
 42
0.000000001
 43
0.0000000001
 40
-0.3141592653589793
 40
-0.3141592653589793
 40
-0.3141592653589793
 40
0.0
 40
0.0
 40
0.0
 10
-0.8042395682193302
 20
38.58393304068144
 30
0.0
 41
1.0
 10
-1.004239568219328
 20
38.58393304068144
 30
0.0
 41
0.7071067811865476
 10
-1.004239568219347
 20
38.78393304068145
 30
0.0
 41
1.0
  0
SPLINE
  5
153
330
1F
100
AcDbEntity
  8
2D DXF
370
    -3
100
AcDbSpline
210
0.0
220
0.0
230
1.0
 70
    24
 71
     2
 72
     6
 73
     3
 74
     0
 42
0.000000001
 43
0.0000000001
 40
-0.3805000000000001
 40
-0.3805000000000001
 40
-0.3805000000000001
 40
0.0
 40
0.0
 40
0.0
 10
-0.8042395682193302
 20
38.58393304068144
 30
0.0
 10
-0.6139895682193384
 20
38.58393304068144
 30
0.0
 10
-0.4237395682193466
 20
38.58393304068144
 30
0.0
  0
SPLINE
  5
154
330
1F
100
AcDbEntity
  8
2D DXF
370
    -3
100
AcDbSpline
210
0.0
220
0.0
230
1.0
 70
    28
 71
     2
 72
     8
 73
     5
 74
     0
 42
0.000000001
 43
0.0000000001
 40
-4.021238596594936
 40
-4.021238596594936
 40
-4.021238596594936
 40
-2.010619298297468
 40
-2.010619298297468
 40
-1.688469748664775
 40
-1.688469748664775
 40
-1.688469748664775
 10
-0.4237395682193466
 20
38.58393304068144
 30
0.0
 41
1.0
 10
-0.4237395682193324
 20
38.58393304068144
 30
0.0
 41
0.7071067811865476
 10
-0.4237395682193466
 20
39.86393304068145
 30
0.0
 41
1.0
 10
-0.4237395682193615
 20
40.0160918800191
 30
0.0
 41
0.9530714647914099
 10
-0.4237395682193694
 20
40.16401031241349
 30
0.0
 41
0.9211810887163472
  0
SPLINE
  5
155
330
1F
100
AcDbEntity
  8
2D DXF
370
    -3
100
AcDbSpline
210
0.0
220
0.0
230
1.0
 70
    28
 71
     2
 72
     8
 73
     5
 74
     0
 42
0.000000001
 43
0.0000000001
 40
-4.021238596594936
 40
-4.021238596594936
 40
-4.021238596594936
 40
-2.010619298297468
 40
-2.010619298297468
 40
0.0
 40
0.0
 40
0.0
 10
0.4152604317806521
 20
65.79393304068147
 30
0.0
 41
1.0
 10
0.415260431780652
 20
65.79393304068147
 30
0.0
 41
0.7071067811865476
 10
0.4152604317806521
 20
64.51393304068147
 30
0.0
 41
1.0
 10
0.415260431780652
 20
63.23393304068146
 30
0.0
 41
0.7071067811865476
 10
0.4152604317806521
 20
63.23393304068145
 30
0.0
 41
1.0
  0
SPLINE
  5
156
330
1F
100
AcDbEntity
  8
2D DXF
370
    -3
100
AcDbSpline
210
0.0
220
0.0
230
1.0
 70
    24
 71
     2
 72
     6
 73
     3
 74
     0
 42
0.000000001
 43
0.0000000001
 40
-0.3805000000000001
 40
-0.3805000000000001
 40
-0.3805000000000001
 40
0.0
 40
0.0
 40
0.0
 10
0.7957604317806641
 20
63.23393304068145
 30
0.0
 10
0.6055104317806581
 20
63.23393304068145
 30
0.0
 10
0.4152604317806521
 20
63.23393304068145
 30
0.0
  0
SPLINE
  5
157
330
1F
100
AcDbEntity
  8
2D DXF
370
    -3
100
AcDbSpline
210
0.0
220
0.0
230
1.0
 70
    24
 71
     2
 72
     6
 73
     3
 74
     0
 42
0.000000001
 43
0.0000000001
 40
-0.3805000000000001
 40
-0.3805000000000001
 40
-0.3805000000000001
 40
0.0
 40
0.0
 40
0.0
 10
0.4152604317806521
 20
65.79393304068147
 30
0.0
 10
0.6055104317806581
 20
65.79393304068147
 30
0.0
 10
0.7957604317806641
 20
65.79393304068147
 30
0.0
  0
SPLINE
  5
158
330
1F
100
AcDbEntity
  8
2D DXF
370
    -3
100
AcDbSpline
210
0.0
220
0.0
230
1.0
 70
    12
 71
     2
 72
     6
 73
     3
 74
     0
 42
0.000000001
 43
0.0000000001
 40
0.9424777960769379
 40
0.9424777960769379
 40
0.9424777960769379
 40
1.256637061435917
 40
1.256637061435917
 40
1.256637061435917
 10
0.9957604317806528
 20
65.59393304068148
 30
0.0
 41
1.0
 10
0.9957604317806477
 20
65.79393304068147
 30
0.0
 41
0.7071067811865476
 10
0.7957604317806641
 20
65.79393304068147
 30
0.0
 41
1.0
  0
SPLINE
  5
159
330
1F
100
AcDbEntity
  8
2D DXF
370
    -3
100
AcDbSpline
210
0.0
220
0.0
230
1.0
 70
    12
 71
     2
 72
     6
 73
     3
 74
     0
 42
0.000000001
 43
0.0000000001
 40
-0.3141592653589793
 40
-0.3141592653589793
 40
-0.3141592653589793
 40
0.0
 40
0.0
 40
0.0
 10
0.7957604317806641
 20
63.23393304068145
 30
0.0
 41
1.0
 10
0.9957604317806477
 20
63.23393304068146
 30
0.0
 41
0.7071067811865476
 10
0.9957604317806528
 20
63.43393304068144
 30
0.0
 41
1.0
  0
SPLINE
  5
15A
330
1F
100
AcDbEntity
  8
2D DXF
370
    -3
100
AcDbSpline
210
0.0
220
0.0
230
1.0
 70
    28
 71
     2
 72
     8
 73
     5
 74
     0
 42
0.000000001
 43
0.0000000001
 40
-3.392920065876977
 40
-3.392920065876977
 40
-3.392920065876977
 40
-1.696460032938488
 40
-1.696460032938488
 40
0.0
 40
0.0
 40
0.0
 10
0.9957604317806528
 20
63.43393304068144
 30
0.0
 41
1.0
 10
0.9957604317806477
 20
63.43393304068147
 30
0.0
 41
0.7071067811865476
 10
0.9957604317806528
 20
64.51393304068147
 30
0.0
 41
1.0
 10
0.9957604317806477
 20
65.59393304068146
 30
0.0
 41
0.7071067811865476
 10
0.9957604317806528
 20
65.59393304068148
 30
0.0
 41
1.0
  0
SPLINE
  5
15B
330
1F
100
AcDbEntity
  8
2D DXF
370
    -3
100
AcDbSpline
210
0.0
220
0.0
230
1.0
 70
    24
 71
     2
 72
     6
 73
     3
 74
     0
 42
0.000000001
 43
0.0000000001
 40
-0.709
 40
-0.709
 40
-0.709
 40
0.0
 40
0.0
 40
0.0
 10
-12.68373956821934
 20
53.46893304068145
 30
0.0
 10
-12.32923956821934
 20
53.46893304068145
 30
0.0
 10
-11.97473956821933
 20
53.46893304068145
 30
0.0
  0
SPLINE
  5
15C
330
1F
100
AcDbEntity
  8
2D DXF
370
    -3
100
AcDbSpline
210
0.0
220
0.0
230
1.0
 70
    24
 71
     2
 72
     6
 73
     3
 74
     0
 42
0.000000001
 43
0.0000000001
 40
-0.3805000000000001
 40
-0.3805000000000001
 40
-0.3805000000000001
 40
0.0
 40
0.0
 40
0.0
 10
0.7957604317806641
 20
38.58393304068144
 30
0.0
 10
0.6055104317806581
 20
38.58393304068144
 30
0.0
 10
0.4152604317806521
 20
38.58393304068144
 30
0.0
  0
SPLINE
  5
15D
330
1F
100
AcDbEntity
  8
2D DXF
370
    -3
100
AcDbSpline
210
0.0
220
0.0
230
1.0
 70
    12
 71
     2
 72
     6
 73
     3
 74
     0
 42
0.000000001
 43
0.0000000001
 40
-0.3141592653589793
 40
-0.3141592653589793
 40
-0.3141592653589793
 40
0.0
 40
0.0
 40
0.0
 10
0.7957604317806641
 20
38.58393304068144
 30
0.0
 41
1.0
 10
0.9957604317806477
 20
38.58393304068144
 30
0.0
 41
0.7071067811865476
 10
0.9957604317806528
 20
38.78393304068145
 30
0.0
 41
1.0
  0
SPLINE
  5
15E
330
1F
100
AcDbEntity
  8
2D DXF
370
    -3
100
AcDbSpline
210
0.0
220
0.0
230
1.0
 70
    28
 71
     2
 72
     8
 73
     5
 74
     0
 42
0.000000001
 43
0.0000000001
 40
-3.392920065876977
 40
-3.392920065876977
 40
-3.392920065876977
 40
-1.696460032938488
 40
-1.696460032938488
 40
-1.341517303490344
 40
-1.341517303490344
 40
-1.341517303490344
 10
0.9957604317806528
 20
38.78393304068145
 30
0.0
 41
1.0
 10
0.9957604317806477
 20
38.78393304068145
 30
0.0
 41
0.7071067811865476
 10
0.9957604317806528
 20
39.86393304068145
 30
0.0
 41
1.0
 10
0.995760431780695
 20
40.03414406260246
 30
0.0
 41
0.9387192645249491
 10
0.9957604317806824
 20
40.19610439908247
 30
0.0
 41
0.9030815163172476
  0
SPLINE
  5
15F
330
1F
100
AcDbEntity
  8
2D DXF
370
    -3
100
AcDbSpline
210
0.0
220
0.0
230
1.0
 70
    28
 71
     2
 72
     8
 73
     5
 74
     0
 42
0.000000001
 43
0.0000000001
 40
-3.392920065876977
 40
-3.392920065876977
 40
-3.392920065876977
 40
-1.696460032938488
 40
-1.696460032938488
 40
0.0
 40
0.0
 40
0.0
 10
-1.004239568219347
 20
65.59393304068148
 30
0.0
 41
1.0
 10
-1.004239568219328
 20
65.59393304068146
 30
0.0
 41
0.7071067811865476
 10
-1.004239568219347
 20
64.51393304068147
 30
0.0
 41
1.0
 10
-1.004239568219328
 20
63.43393304068147
 30
0.0
 41
0.7071067811865476
 10
-1.004239568219347
 20
63.43393304068144
 30
0.0
 41
1.0
  0
SPLINE
  5
160
330
1F
100
AcDbEntity
  8
2D DXF
370
    -3
100
AcDbSpline
210
0.0
220
0.0
230
1.0
 70
    12
 71
     2
 72
     6
 73
     3
 74
     0
 42
0.000000001
 43
0.0000000001
 40
-0.3141592653589793
 40
-0.3141592653589793
 40
-0.3141592653589793
 40
0.0
 40
0.0
 40
0.0
 10
-0.8042395682193302
 20
63.23393304068145
 30
0.0
 41
1.0
 10
-1.004239568219328
 20
63.23393304068146
 30
0.0
 41
0.7071067811865476
 10
-1.004239568219347
 20
63.43393304068144
 30
0.0
 41
1.0
  0
SPLINE
  5
161
330
1F
100
AcDbEntity
  8
2D DXF
370
    -3
100
AcDbSpline
210
0.0
220
0.0
230
1.0
 70
    12
 71
     2
 72
     6
 73
     3
 74
     0
 42
0.000000001
 43
0.0000000001
 40
0.0
 40
0.0
 40
0.0
 40
0.3141592653589793
 40
0.3141592653589793
 40
0.3141592653589793
 10
-0.8042395682193302
 20
65.79393304068147
 30
0.0
 41
1.0
 10
-1.004239568219328
 20
65.79393304068147
 30
0.0
 41
0.7071067811865476
 10
-1.004239568219347
 20
65.59393304068148
 30
0.0
 41
1.0
  0
SPLINE
  5
162
330
1F
100
AcDbEntity
  8
2D DXF
370
    -3
100
AcDbSpline
210
0.0
220
0.0
230
1.0
 70
    24
 71
     2
 72
     6
 73
     3
 74
     0
 42
0.000000001
 43
0.0000000001
 40
-0.3805000000000001
 40
-0.3805000000000001
 40
-0.3805000000000001
 40
0.0
 40
0.0
 40
0.0
 10
-0.8042395682193302
 20
63.23393304068145
 30
0.0
 10
-0.6139895682193384
 20
63.23393304068145
 30
0.0
 10
-0.4237395682193466
 20
63.23393304068145
 30
0.0
  0
SPLINE
  5
163
330
1F
100
AcDbEntity
  8
2D DXF
370
    -3
100
AcDbSpline
210
0.0
220
0.0
230
1.0
 70
    28
 71
     2
 72
     8
 73
     5
 74
     0
 42
0.000000001
 43
0.0000000001
 40
-4.021238596594936
 40
-4.021238596594936
 40
-4.021238596594936
 40
-2.010619298297468
 40
-2.010619298297468
 40
0.0
 40
0.0
 40
0.0
 10
-0.4237395682193466
 20
63.23393304068145
 30
0.0
 41
1.0
 10
-0.4237395682193324
 20
63.23393304068146
 30
0.0
 41
0.7071067811865476
 10
-0.4237395682193466
 20
64.51393304068147
 30
0.0
 41
1.0
 10
-0.4237395682193324
 20
65.79393304068147
 30
0.0
 41
0.7071067811865476
 10
-0.4237395682193466
 20
65.79393304068147
 30
0.0
 41
1.0
  0
SPLINE
  5
164
330
1F
100
AcDbEntity
  8
2D DXF
370
    -3
100
AcDbSpline
210
0.0
220
0.0
230
1.0
 70
    24
 71
     2
 72
     6
 73
     3
 74
     0
 42
0.000000001
 43
0.0000000001
 40
-0.3805000000000001
 40
-0.3805000000000001
 40
-0.3805000000000001
 40
0.0
 40
0.0
 40
0.0
 10
-0.4237395682193466
 20
65.79393304068147
 30
0.0
 10
-0.6139895682193384
 20
65.79393304068147
 30
0.0
 10
-0.8042395682193302
 20
65.79393304068147
 30
0.0
  0
SPLINE
  5
165
330
1F
100
AcDbEntity
  8
2D DXF
370
    -3
100
AcDbSpline
210
0.0
220
0.0
230
1.0
 70
    28
 71
     2
 72
     8
 73
     5
 74
     0
 42
0.000000001
 43
0.0000000001
 40
-4.021238596594936
 40
-4.021238596594936
 40
-4.021238596594936
 40
-2.010619298297468
 40
-2.010619298297468
 40
-1.450146787943953
 40
-1.450146787943953
 40
-1.450146787943953
 10
-11.90973956821934
 20
53.46893304068145
 30
0.0
 41
1.0
 10
-11.90973956821935
 20
53.46893304068146
 30
0.0
 41
0.7071067811865476
 10
-11.90973956821934
 20
52.18893304068145
 30
0.0
 41
1.0
 10
-11.9097395682193
 20
51.91420105850666
 30
0.0
 41
0.9183542116834841
 10
-11.90973956821932
 20
51.66366698515429
 30
0.0
 41
0.882226955867176
  0
SPLINE
  5
166
330
1F
100
AcDbEntity
  8
2D DXF
370
    -3
100
AcDbSpline
210
0.0
220
0.0
230
1.0
 70
    24
 71
     2
 72
     6
 73
     3
 74
     0
 42
0.000000001
 43
0.0000000001
 40
-0.3805000000000001
 40
-0.3805000000000001
 40
-0.3805000000000001
 40
0.0
 40
0.0
 40
0.0
 10
-11.90973956821934
 20
53.46893304068145
 30
0.0
 10
-11.71948956821933
 20
53.46893304068145
 30
0.0
 10
-11.52923956821932
 20
53.46893304068145
 30
0.0
  0
SPLINE
  5
167
330
1F
100
AcDbEntity
  8
2D DXF
370
    -3
100
AcDbSpline
210
0.0
220
0.0
230
1.0
 70
    12
 71
     2
 72
     6
 73
     3
 74
     0
 42
0.000000001
 43
0.0000000001
 40
0.9424777960769379
 40
0.9424777960769379
 40
0.9424777960769379
 40
1.256637061435917
 40
1.256637061435917
 40
1.256637061435917
 10
-11.32923956821934
 20
53.26893304068145
 30
0.0
 41
1.0
 10
-11.32923956821932
 20
53.46893304068146
 30
0.0
 41
0.7071067811865476
 10
-11.52923956821932
 20
53.46893304068145
 30
0.0
 41
1.0
  0
SPLINE
  5
168
330
1F
100
AcDbEntity
  8
2D DXF
370
    -3
100
AcDbSpline
210
0.0
220
0.0
230
1.0
 70
    24
 71
     2
 72
     6
 73
     3
 74
     0
 42
0.000000001
 43
0.0000000001
 40
-0.709
 40
-0.709
 40
-0.709
 40
0.0
 40
0.0
 40
0.0
 10
-0.3587395682193488
 20
65.79393304068147
 30
0.0
 10
-0.0042395682193472
 20
65.79393304068147
 30
0.0
 10
0.3502604317806544
 20
65.79393304068147
 30
0.0
  0
SPLINE
  5
169
330
1F
100
AcDbEntity
  8
2D DXF
370
    -3
100
AcDbSpline
210
0.0
220
0.0
230
1.0
 70
     8
 71
     3
 72
     8
 73
     4
 74
     0
 42
0.000000001
 43
0.0000000001
 40
0.0000000000000009
 40
0.0000000000000009
 40
0.0000000000000009
 40
0.0000000000000009
 40
2.383983832605285
 40
2.383983832605285
 40
2.383983832605285
 40
2.383983832605285
 10
26.41995424763793
 20
19.141814094265
 30
0.0
 10
26.35012994708468
 20
19.9331812795551
 30
0.0
 10
26.26204585817051
 20
20.72327185640309
 30
0.0
 10
26.15616784389995
 20
21.51070984179515
 30
0.0
  0
SPLINE
  5
16A
330
1F
100
AcDbEntity
  8
2D DXF
370
    -3
100
AcDbSpline
210
0.0
220
0.0
230
1.0
 70
     8
 71
     2
 72
     8
 73
     5
 74
     0
 42
0.000000001
 43
0.0000000001
 40
-2.999999999999997
 40
-2.999999999999997
 40
-2.999999999999997
 40
-1.999999999999998
 40
-0.9999999999999983
 40
0.0000000000000009
 40
0.0000000000000009
 40
0.0000000000000009
 10
26.64811011543573
 20
19.02461241754088
 30
0.0
 10
26.60273578844443
 20
18.99962165782172
 30
0.0
 10
26.4970869590298
 20
19.01378319430024
 30
0.0
 10
26.42455028505624
 20
19.08972401722309
 30
0.0
 10
26.41995424763793
 20
19.141814094265
 30
0.0
  0
SPLINE
  5
16B
330
1F
100
AcDbEntity
  8
2D DXF
370
    -3
100
AcDbSpline
210
0.0
220
0.0
230
1.0
 70
     8
 71
     2
 72
    19
 73
    16
 74
     0
 42
0.000000001
 43
0.0000000001
 40
-17.0
 40
-17.0
 40
-17.0
 40
-16.0
 40
-15.0
 40
-14.0
 40
-13.0
 40
-12.0
 40
-11.0
 40
-10.0
 40
-9.0
 40
-7.999999999999998
 40
-6.999999999999998
 40
-5.999999999999998
 40
-4.999999999999998
 40
-3.999999999999997
 40
-2.999999999999997
 40
-2.999999999999997
 40
-2.999999999999997
 10
31.83666333522167
 20
22.48730646447215
 30
0.0
 10
31.71901284616207
 20
22.29926697658062
 30
0.0
 10
31.37385988798924
 20
21.87479222041084
 30
0.0
 10
31.05427061077513
 20
21.5671412920455
 30
0.0
 10
30.7042182118051
 20
21.29498409489221
 30
0.0
 10
30.33680311162989
 20
21.04700379592919
 30
0.0
 10
29.96197434932607
 20
20.81056401991285
 30
0.0
 10
29.58046772359974
 20
20.58503222815759
 30
0.0
 10
29.19347755396696
 20
20.36906189045779
 30
0.0
 10
28.80177133353546
 20
20.16178036402197
 30
0.0
 10
28.40628345134122
 20
19.96182346381585
 30
0.0
 10
28.00818879074133
 20
19.76709854229269
 30
0.0
 10
27.60978503572905
 20
19.57316616795717
 30
0.0
 10
27.21318262695316
 20
19.37466919732806
 30
0.0
 10
26.84226285155957
 20
19.13154567030776
 30
0.0
 10
26.64811011543573
 20
19.02461241754088
 30
0.0
  0
SPLINE
  5
16C
330
1F
100
AcDbEntity
  8
2D DXF
370
    -3
100
AcDbSpline
210
0.0
220
0.0
230
1.0
 70
     8
 71
     2
 72
    23
 73
    20
 74
     0
 42
0.000000001
 43
0.0000000001
 40
-35.0
 40
-35.0
 40
-35.0
 40
-34.0
 40
-33.0
 40
-32.0
 40
-31.0
 40
-30.0
 40
-29.0
 40
-28.0
 40
-27.0
 40
-26.0
 40
-25.0
 40
-24.0
 40
-23.0
 40
-22.0
 40
-21.0
 40
-20.0
 40
-19.0
 40
-18.0
 40
-17.0
 40
-17.0
 40
-17.0
 10
27.58707564207869
 20
27.5330823282351
 30
0.0
 10
27.85161010399646
 20
27.54942105429998
 30
0.0
 10
28.39272705062986
 20
27.59666383603536
 30
0.0
 10
28.92046735561503
 20
27.64623721788456
 30
0.0
 10
29.44801349673726
 20
27.6978203613708
 30
0.0
 10
29.97604816120976
 20
27.7443731102016
 30
0.0
 10
30.50518870298352
 20
27.77589622793462
 30
0.0
 10
31.03548889859435
 20
27.78599858603338
 30
0.0
 10
31.56276270679849
 20
27.69958159148042
 30
0.0
 10
32.01911300830803
 20
27.41175280800972
 30
0.0
 10
32.28217861897475
 20
26.94350813637649
 30
0.0
 10
32.42528311172573
 20
26.43208641326975
 30
0.0
 10
32.50611078089777
 20
25.90778912774295
 30
0.0
 10
32.54190780929481
 20
25.37864303112182
 30
0.0
 10
32.53467422374827
 20
24.84834901172938
 30
0.0
 10
32.48544901491483
 20
24.32026813409074
 30
0.0
 10
32.38875944923781
 20
23.79866903228033
 30
0.0
 10
32.23859853818023
 20
23.28975218661114
 30
0.0
 10
31.97743064376114
 20
22.71229331171105
 30
0.0
 10
31.83666333522167
 20
22.48730646447215
 30
0.0
  0
SPLINE
  5
16D
330
1F
100
AcDbEntity
  8
2D DXF
370
    -3
100
AcDbSpline
210
0.0
220
0.0
230
1.0
 70
     8
 71
     2
 72
    19
 73
    16
 74
     0
 42
0.000000001
 43
0.0000000001
 40
-49.0
 40
-49.0
 40
-49.0
 40
-48.0
 40
-47.0
 40
-46.0
 40
-45.0
 40
-44.0
 40
-43.0
 40
-42.0
 40
-41.0
 40
-40.0
 40
-39.0
 40
-38.0
 40
-37.0
 40
-36.0
 40
-35.0
 40
-35.0
 40
-35.0
 10
21.9993131762147
 20
30.29728077686839
 30
0.0
 10
22.21072595966969
 20
30.20593410446537
 30
0.0
 10
22.59082763185326
 20
29.94561028875425
 30
0.0
 10
22.94568022489047
 20
29.65360256246196
 30
0.0
 10
23.28902889390265
 20
29.34806088440656
 30
0.0
 10
23.63467202780255
 20
29.04519206260235
 30
0.0
 10
23.98655516738405
 20
28.74954076321629
 30
0.0
 10
24.34896034736387
 20
28.46682672586492
 30
0.0
 10
24.72538072947226
 20
28.2029498095574
 30
0.0
 10
25.11880600641702
 20
27.96497192641705
 30
0.0
 10
25.53396055933378
 20
27.76642901063878
 30
0.0
 10
25.97301879703282
 20
27.62822958803715
 30
0.0
 10
26.4262540683048
 20
27.54909995091214
 30
0.0
 10
26.88496684244326
 20
27.51598506427177
 30
0.0
 10
27.35766549144104
 20
27.51891302272913
 30
0.0
 10
27.58707564207869
 20
27.5330823282351
 30
0.0
  0
LINE
  5
16E
330
1F
100
AcDbEntity
  8
2D DXF
370
    -3
100
AcDbLine
 10
26.23764643292971
 20
19.91390226323051
 30
0.0
 11
26.32872435236023
 21
20.08893066473915
 31
0.0
  0
SPLINE
  5
16F
330
1F
100
AcDbEntity
  8
2D DXF
370
    -3
100
AcDbSpline
210
0.0
220
0.0
230
1.0
 70
     8
 71
     2
 72
    11
 73
     8
 74
     0
 42
0.000000001
 43
0.0000000001
 40
1.632577816608413
 40
1.632577816608413
 40
1.632577816608413
 40
2.632577427346236
 40
3.632577505198671
 40
4.632577583051106
 40
5.632577660903541
 40
6.632577738755977
 40
7.632577816608412
 40
7.632577816608412
 40
7.632577816608412
 10
26.35535890972388
 20
21.9489496127009
 30
0.0
 10
26.37258668205796
 20
21.99655991260832
 30
0.0
 10
26.37957378373331
 20
22.0975316023363
 30
0.0
 10
26.3786099002137
 20
22.19825044869935
 30
0.0
 10
26.37171827385448
 20
22.2988028902366
 30
0.0
 10
26.36024623646706
 20
22.39891391488797
 30
0.0
 10
26.34478965152455
 20
22.49848804457213
 30
0.0
 10
26.33518037076705
 20
22.54794581501841
 30
0.0
  0
SPLINE
  5
170
330
1F
100
AcDbEntity
  8
2D DXF
370
    -3
100
AcDbSpline
210
0.0
220
0.0
230
1.0
 70
     8
 71
     3
 72
    11
 73
     7
 74
     0
 42
0.000000001
 43
0.0000000001
 40
1.106384034209326
 40
1.106384034209326
 40
1.106384034209326
 40
1.106384034209326
 40
1.617990370078946
 40
1.617990370078946
 40
1.617990370078946
 40
1.632577816608413
 40
1.632577816608413
 40
1.632577816608413
 40
1.632577816608413
 10
26.13831453662682
 20
21.47142430360857
 30
0.0
 10
26.20867449421179
 20
21.62625024284388
 30
0.0
 10
26.27902074865484
 20
21.78102920971726
 30
0.0
 10
26.34934123344381
 20
21.93571400439532
 30
0.0
 10
26.35134697785857
 20
21.94012606389546
 30
0.0
 10
26.35335269011121
 20
21.94453801845602
 30
0.0
 10
26.35535890972388
 20
21.9489496127009
 30
0.0
  0
SPLINE
  5
171
330
1F
100
AcDbEntity
  8
2D DXF
370
    -3
100
AcDbSpline
210
0.0
220
0.0
230
1.0
 70
     8
 71
     3
 72
     8
 73
     4
 74
     0
 42
0.000000001
 43
0.0000000001
 40
2.942255389416193
 40
2.942255389416193
 40
2.942255389416193
 40
2.942255389416193
 40
3.256087856163177
 40
3.256087856163177
 40
3.256087856163177
 40
3.256087856163177
 10
25.97702526785356
 20
23.97507514038031
 30
0.0
 10
25.89220823529799
 20
23.91374112652953
 30
0.0
 10
25.80740503523528
 20
23.85247087520082
 30
0.0
 10
25.72258597729378
 20
23.79130809049282
 30
0.0
  0
SPLINE
  5
172
330
1F
100
AcDbEntity
  8
2D DXF
370
    -3
100
AcDbSpline
210
0.0
220
0.0
230
1.0
 70
     8
 71
     3
 72
     8
 73
     4
 74
     0
 42
0.000000001
 43
0.0000000001
 40
2.868978274657099
 40
2.868978274657099
 40
2.868978274657099
 40
2.868978274657099
 40
2.942255389416193
 40
2.942255389416193
 40
2.942255389416193
 40
2.942255389416193
 10
25.98791902662556
 20
23.97881718388133
 30
0.0
 10
25.98400777053816
 20
23.9787398991763
 30
0.0
 10
25.98037219951631
 20
23.97749533220292
 30
0.0
 10
25.97702526785356
 20
23.97507514038031
 30
0.0
  0
SPLINE
  5
173
330
1F
100
AcDbEntity
  8
2D DXF
370
    -3
100
AcDbSpline
210
0.0
220
0.0
230
1.0
 70
     8
 71
     3
 72
    11
 73
     7
 74
     0
 42
0.000000001
 43
0.0000000001
 40
2.0
 40
2.0
 40
2.0
 40
2.0
 40
2.50156835232133
 40
2.50156835232133
 40
2.50156835232133
 40
2.868978274657099
 40
2.868978274657099
 40
2.868978274657099
 40
2.868978274657099
 10
26.17876685992174
 20
23.39772223487142
 30
0.0
 10
26.14807220891795
 20
23.54587988927115
 30
0.0
 10
26.10681534614726
 20
23.7276802672167
 30
0.0
 10
26.06631820753235
 20
23.84614216688018
 30
0.0
 10
26.03379466829115
 20
23.94127975867211
 30
0.0
 10
26.00794457331484
 20
23.97934140732271
 30
0.0
 10
25.98791902662556
 20
23.97881718388133
 30
0.0
  0
SPLINE
  5
174
330
1F
100
AcDbEntity
  8
2D DXF
370
    -3
100
AcDbSpline
210
0.0
220
0.0
230
1.0
 70
     8
 71
     2
 72
     7
 73
     4
 74
     0
 42
0.000000001
 43
0.0000000001
 40
0.0
 40
0.0
 40
0.0
 40
1.0
 40
2.0
 40
2.0
 40
2.0
 10
26.33518037076699
 20
22.54794581501842
 30
0.0
 10
26.32963552823078
 20
22.57646391975621
 30
0.0
 10
26.18892321856903
 20
23.37038285857466
 30
0.0
 10
26.17876685992174
 20
23.39772223487142
 30
0.0
  0
SPLINE
  5
175
330
1F
100
AcDbEntity
  8
2D DXF
370
    -3
100
AcDbSpline
210
0.0
220
0.0
230
1.0
 70
     8
 71
     2
 72
    53
 73
    50
 74
     0
 42
0.000000001
 43
0.0000000001
 40
0.0854334264385601
 40
0.0854334264385601
 40
0.0854334264385601
 40
1.0
 40
2.0
 40
3.0
 40
4.0
 40
5.0
 40
6.0
 40
7.0
 40
8.0
 40
9.0
 40
10.0
 40
11.0
 40
12.0
 40
13.0
 40
14.0
 40
15.0
 40
16.0
 40
17.0
 40
18.0
 40
19.0
 40
20.0
 40
21.0
 40
22.0
 40
23.0
 40
24.0
 40
25.0
 40
26.0
 40
27.0
 40
28.0
 40
29.0
 40
30.0
 40
31.0
 40
32.0
 40
33.0
 40
34.0
 40
35.0
 40
36.0
 40
37.0
 40
38.0
 40
39.0
 40
40.0
 40
41.0
 40
42.0
 40
43.0
 40
44.0
 40
45.0
 40
46.0
 40
47.0
 40
48.0
 40
48.0
 40
48.0
 10
43.62160651553155
 20
16.45090773143475
 30
0.0
 10
43.409474027542
 20
16.55811209606219
 30
0.0
 10
42.98118431097323
 20
16.81142375475788
 30
0.0
 10
42.5291743377055
 20
17.06792447130204
 30
0.0
 10
42.0629576807939
 20
17.29777324477143
 30
0.0
 10
41.58430459256336
 20
17.50099712401517
 30
0.0
 10
41.08671507389302
 20
17.6523416105059
 30
0.0
 10
40.5784513551127
 20
17.76166870471592
 30
0.0
 10
40.06448752244491
 20
17.8393292838954
 30
0.0
 10
39.54736462060892
 20
17.89155106376754
 30
0.0
 10
39.02859690718704
 20
17.92306732149629
 30
0.0
 10
38.50908885934673
 20
17.93742997177854
 30
0.0
 10
37.98939283869522
 20
17.93738656414465
 30
0.0
 10
37.469845361732
 20
17.92532198290195
 30
0.0
 10
36.95064614062689
 20
17.90291415654789
 30
0.0
 10
36.43191849443191
 20
17.87148611544723
 30
0.0
 10
35.91372556823951
 20
17.83226146002032
 30
0.0
 10
35.39604327398884
 20
17.78682432145727
 30
0.0
 10
34.87877446184611
 20
17.73693068886138
 30
0.0
 10
34.36184680714605
 20
17.68362118980171
 30
0.0
 10
33.84523682683535
 20
17.62731901707036
 30
0.0
 10
33.32897719515809
 20
17.56789243030191
 30
0.0
 10
32.81303233536029
 20
17.50579081450498
 30
0.0
 10
32.29741179018795
 20
17.44105530924379
 30
0.0
 10
31.78204443353538
 20
17.37433796228923
 30
0.0
 10
31.26684453233669
 20
17.30634157940588
 30
0.0
 10
30.75170984665142
 20
17.23785431360123
 30
0.0
 10
30.23644935414116
 20
17.17031252911994
 30
0.0
 10
29.72077955571218
 20
17.10596323106662
 30
0.0
 10
29.20446763492471
 20
17.04688092909495
 30
0.0
 10
28.6869495051932
 20
16.9993701040066
 30
0.0
 10
28.16750239569389
 20
16.97599282514921
 30
0.0
 10
27.64828120696855
 20
17.0098673230068
 30
0.0
 10
27.13922770752056
 20
17.12880266828344
 30
0.0
 10
26.69517961907634
 20
17.40838910057398
 30
0.0
 10
26.37475284399871
 20
17.82372370478257
 30
0.0
 10
26.19331051305512
 20
18.31322556112207
 30
0.0
 10
26.08810088119226
 20
18.82269569579334
 30
0.0
 10
26.02608862653859
 20
19.3387884254953
 30
0.0
 10
25.99253698679702
 20
19.85745247801901
 30
0.0
 10
25.96667740391025
 20
20.37646907430857
 30
0.0
 10
25.9387077332208
 20
20.89539074721672
 30
0.0
 10
25.90187177858316
 20
21.41376645760435
 30
0.0
 10
25.85235456920573
 20
21.93112124940002
 30
0.0
 10
25.7861156624253
 20
22.44651700886384
 30
0.0
 10
25.70870141124995
 20
22.9607595578123
 30
0.0
 10
25.5929424415116
 20
23.4665365562791
 30
0.0
 10
25.4115261779453
 20
23.9609238364028
 30
0.0
 10
25.05344245946482
 20
24.33494267941032
 30
0.0
 10
24.79346368924821
 20
24.40542618517027
 30
0.0
  0
SPLINE
  5
176
330
1F
100
AcDbEntity
  8
2D DXF
370
    -3
100
AcDbSpline
210
0.0
220
0.0
230
1.0
 70
    24
 71
     2
 72
     6
 73
     3
 74
     0
 42
0.000000001
 43
0.0000000001
 40
0.0000269165430604
 40
0.0000269165430604
 40
0.0000269165430604
 40
0.3195090605941237
 40
0.3195090605941237
 40
0.3195090605941237
 10
26.33518037076699
 20
22.54794581501842
 30
0.0
 10
26.17674504908105
 20
22.53299964550489
 30
0.0
 10
26.01830972739511
 20
22.51805347599137
 30
0.0
  0
SPLINE
  5
177
330
1F
100
AcDbEntity
  8
2D DXF
370
    -3
100
AcDbSpline
210
0.0
220
0.0
230
1.0
 70
     8
 71
     2
 72
    15
 73
    12
 74
     0
 42
0.000000001
 43
0.0000000001
 40
42.0
 40
42.0
 40
42.0
 40
43.0
 40
44.0
 40
45.0
 40
46.0
 40
47.0
 40
48.0
 40
49.0
 40
50.0
 40
51.0
 40
52.0
 40
52.0
 40
52.0
 10
23.77454122465254
 20
29.91973459486463
 30
0.0
 10
23.95765837814817
 20
29.79707429712266
 30
0.0
 10
24.29747866686644
 20
29.54195897479859
 30
0.0
 10
24.6134184254043
 20
29.25324505891747
 30
0.0
 10
24.91372840873551
 20
28.94933388213587
 30
0.0
 10
25.19759374912691
 20
28.6299092207657
 30
0.0
 10
25.47880912886048
 20
28.30814633760852
 30
0.0
 10
25.77226879670356
 20
27.99787261073647
 30
0.0
 10
26.09853627230707
 20
27.71752942387247
 30
0.0
 10
26.49948165653019
 20
27.56202998163315
 30
0.0
 10
26.92631105225617
 20
27.5182835761735
 30
0.0
 10
27.13988639083091
 20
27.51806927180273
 30
0.0
  0
SPLINE
  5
178
330
1F
100
AcDbEntity
  8
2D DXF
370
    -3
100
AcDbSpline
210
0.0
220
0.0
230
1.0
 70
     8
 71
     2
 72
    15
 73
    12
 74
     0
 42
0.000000001
 43
0.0000000001
 40
32.0
 40
32.0
 40
32.0
 40
33.0
 40
34.0
 40
35.0
 40
36.0
 40
37.0
 40
38.0
 40
39.0
 40
40.0
 40
41.0
 40
42.0
 40
42.0
 40
42.0
 10
21.99538756514279
 20
30.29849721181118
 30
0.0
 10
22.08824681120048
 20
30.30140657261615
 30
0.0
 10
22.27405274480539
 20
30.30291144318962
 30
0.0
 10
22.45983010441149
 20
30.29905068217192
 30
0.0
 10
22.64535972768387
 20
30.28849568278907
 30
0.0
 10
22.83020870918376
 20
30.26939521156645
 30
0.0
 10
23.01390009230086
 20
30.24106900195263
 30
0.0
 10
23.19506138802167
 20
30.1993174914054
 30
0.0
 10
23.37136939250867
 20
30.14002168788573
 30
0.0
 10
23.54065209744046
 20
30.06397577169681
 30
0.0
 10
23.70274476335807
 20
29.96782716921436
 30
0.0
 10
23.77454122465254
 20
29.91973459486463
 30
0.0
  0
SPLINE
  5
179
330
1F
100
AcDbEntity
  8
2D DXF
370
    -3
100
AcDbSpline
210
0.0
220
0.0
230
1.0
 70
     8
 71
     2
 72
    24
 73
    21
 74
     0
 42
0.000000001
 43
0.0000000001
 40
14.0
 40
14.0
 40
14.0
 40
15.0
 40
16.0
 40
17.0
 40
18.0
 40
19.0
 40
20.0
 40
21.0
 40
22.0
 40
23.0
 40
24.0
 40
25.0
 40
26.0
 40
26.0
 40
27.0
 40
28.0
 40
29.0
 40
30.0
 40
31.0
 40
32.0
 40
32.0
 40
32.0
 10
30.67359793534804
 20
27.50389805698817
 30
0.0
 10
30.2717567638211
 20
27.49497548704736
 30
0.0
 10
29.4707734199251
 20
27.42847461572858
 30
0.0
 10
28.67092106812517
 20
27.3509194154309
 30
0.0
 10
27.87044744202662
 20
27.27999536432032
 30
0.0
 10
27.06778888014681
 20
27.23431824919713
 30
0.0
 10
26.26397444023827
 20
27.28015979581056
 30
0.0
 10
25.47983436031315
 20
27.46929938011593
 30
0.0
 10
24.76066206698455
 20
27.83387634863621
 30
0.0
 10
24.1006608951583
 20
28.2935835146299
 30
0.0
 10
23.48050618043119
 20
28.8051469231618
 30
0.0
 10
22.88275151861463
 20
29.3418210923007
 30
0.0
 10
22.26312186421474
 20
29.85716856330806
 30
0.0
 10
21.89953677544351
 20
30.03228248381279
 30
0.0
 10
21.86330687945384
 20
30.04973193188468
 30
0.0
 10
21.80543167834993
 20
30.10090990113006
 30
0.0
 10
21.78678403466746
 20
30.1781520117425
 30
0.0
 10
21.80223548522589
 20
30.26032438466608
 30
0.0
 10
21.87742029685178
 20
30.2923697573399
 30
0.0
 10
21.95609346795005
 20
30.29726609362864
 30
0.0
 10
21.99538756514279
 20
30.29849721181118
 30
0.0
  0
SPLINE
  5
17A
330
1F
100
AcDbEntity
  8
2D DXF
370
    -3
100
AcDbSpline
210
0.0
220
0.0
230
1.0
 70
     8
 71
     2
 72
    11
 73
     8
 74
     0
 42
0.000000001
 43
0.0000000001
 40
8.0
 40
8.0
 40
8.0
 40
9.0
 40
10.0
 40
11.0
 40
12.0
 40
13.0
 40
14.0
 40
14.0
 40
14.0
 10
32.29023151899283
 20
25.59492312316056
 30
0.0
 10
32.27429433641443
 20
25.83669804280682
 30
0.0
 10
32.19964586623929
 20
26.31575009255819
 30
0.0
 10
32.07105149966516
 20
26.7828916951852
 30
0.0
 10
31.83750199528687
 20
27.21795083435831
 30
0.0
 10
31.39824134782539
 20
27.44508603356886
 30
0.0
 10
30.91608068945483
 20
27.50928219750502
 30
0.0
 10
30.67359793534804
 20
27.50389805698817
 30
0.0
  0
SPLINE
  5
17B
330
1F
100
AcDbEntity
  8
2D DXF
370
    -3
100
AcDbSpline
210
0.0
220
0.0
230
1.0
 70
     8
 71
     2
 72
    13
 73
    10
 74
     0
 42
0.000000001
 43
0.0000000001
 40
0.0
 40
0.0
 40
0.0
 40
1.0
 40
2.0
 40
3.0
 40
4.0
 40
5.0
 40
6.0
 40
7.0
 40
8.0
 40
8.0
 40
8.0
 10
26.41995424763793
 20
19.141814094265
 30
0.0
 10
26.9211340328729
 20
19.4583413963016
 30
0.0
 10
27.99707119214436
 20
19.95405954551902
 30
0.0
 10
29.05646586161193
 20
20.48247131950524
 30
0.0
 10
30.08082016015818
 20
21.07578127177606
 30
0.0
 10
31.05319647906846
 20
21.75903644020189
 30
0.0
 10
31.78242538570522
 20
22.70416708964342
 30
0.0
 10
32.19175230536247
 20
23.82253926634203
 30
0.0
 10
32.32754811760203
 20
25.00290457287679
 30
0.0
 10
32.29023151899283
 20
25.59492312316056
 30
0.0
  0
SPLINE
  5
17C
330
1F
100
AcDbEntity
  8
2D DXF
370
    -3
100
AcDbSpline
210
0.0
220
0.0
230
1.0
 70
     8
 71
     2
 72
    11
 73
     8
 74
     0
 42
0.000000001
 43
0.0000000001
 40
0.0
 40
0.0
 40
0.0
 40
1.0
 40
2.0
 40
3.0
 40
4.0
 40
5.0
 40
6.0
 40
6.0
 40
6.0
 10
24.84951861916694
 20
27.79945295424467
 30
0.0
 10
24.97099245795467
 20
27.48177320817712
 30
0.0
 10
25.1629876917528
 20
26.82933517956575
 30
0.0
 10
25.32298898494817
 20
26.16850782194057
 30
0.0
 10
25.46568462155706
 20
25.50378548357507
 30
0.0
 10
25.60119984337804
 20
24.83757466585323
 30
0.0
 10
25.7305273124219
 20
24.17013432055484
 30
0.0
 10
25.79069681877156
 20
23.83557168055071
 30
0.0
  0
SPLINE
  5
17D
330
1F
100
AcDbEntity
  8
2D DXF
370
    -3
100
AcDbSpline
210
0.0
220
0.0
230
1.0
 70
     8
 71
     3
 72
    24
 73
    20
 74
     0
 42
0.000000001
 43
0.0000000001
 40
-17.0
 40
-17.0
 40
-17.0
 40
-17.0
 40
-16.0
 40
-15.0
 40
-14.0
 40
-13.0
 40
-12.0
 40
-11.0
 40
-10.0
 40
-9.0
 40
-8.0
 40
-7.0
 40
-6.0
 40
-5.0
 40
-4.0
 40
-3.0
 40
-2.0
 40
-1.0
 40
-0.9904409745037914
 40
-0.9904409745037914
 40
-0.9904409745037914
 40
-0.9904409745037914
 10
-0.0028990880519046
 20
40.15705591016405
 30
0.0
 10
0.4340676621015831
 20
40.15705591016405
 30
0.0
 10
1.308116503028813
 20
40.20143667257775
 30
0.0
 10
2.604521011182428
 20
40.40996752835093
 30
0.0
 10
3.866114002725951
 20
40.77731735660392
 30
0.0
 10
5.061588479753468
 20
41.32420229622641
 30
0.0
 10
6.151051780039879
 20
42.0647229090193
 30
0.0
 10
7.056997276552451
 20
43.02391861260367
 30
0.0
 10
7.714210904182991
 20
44.16710213487135
 30
0.0
 10
8.162381134657139
 20
45.40283235152605
 30
0.0
 10
8.428140955237481
 20
46.68966617666215
 30
0.0
 10
8.53239499190282
 20
47.99864768187175
 30
0.0
 10
8.489156449550748
 20
49.31094283432356
 30
0.0
 10
8.296900380906933
 20
50.60980209451376
 30
0.0
 10
7.964060484353908
 20
51.87973898400231
 30
0.0
 10
7.499872472690228
 20
53.10758038680013
 30
0.0
 10
6.911195191881447
 20
54.28106201526732
 30
0.0
 10
6.436110893303336
 20
55.02075084706417
 30
0.0
 10
6.181859784447724
 20
55.38131737615011
 30
0.0
 10
6.179451006476981
 20
55.38473041422006
 30
0.0
  0
SPLINE
  5
17E
330
1F
100
AcDbEntity
  8
2D DXF
370
    -3
100
AcDbSpline
210
0.0
220
0.0
230
1.0
 70
     8
 71
     3
 72
    24
 73
    20
 74
     0
 42
0.000000001
 43
0.0000000001
 40
0.9996051459765983
 40
0.9996051459765983
 40
0.9996051459765983
 40
0.9996051459765983
 40
1.0
 40
2.0
 40
3.0
 40
4.0
 40
5.0
 40
6.0
 40
7.0
 40
8.0
 40
9.0
 40
10.0
 40
11.0
 40
12.0
 40
13.0
 40
14.0
 40
15.0
 40
16.0
 40
17.0
 40
17.0
 40
17.0
 40
17.0
 10
-6.192173166490036
 20
55.37491151380559
 30
0.0
 10
-6.19227255507225
 20
55.3747704532075
 30
0.0
 10
-6.444075591475453
 20
55.01737765164911
 30
0.0
 10
-6.916993367985256
 20
54.28106201526732
 30
0.0
 10
-7.505670648794037
 20
53.10758038680013
 30
0.0
 10
-7.969858660457717
 20
51.87973898400231
 30
0.0
 10
-8.302698557010743
 20
50.60980209451376
 30
0.0
 10
-8.494954625654557
 20
49.31094283432356
 30
0.0
 10
-8.538193168006629
 20
47.99864768187175
 30
0.0
 10
-8.43393913134129
 20
46.68966617666215
 30
0.0
 10
-8.168179310760948
 20
45.40283235152605
 30
0.0
 10
-7.7200090802868
 20
44.16710213487135
 30
0.0
 10
-7.06279545265626
 20
43.02391861260367
 30
0.0
 10
-6.156849956143688
 20
42.0647229090193
 30
0.0
 10
-5.067386655857277
 20
41.32420229622641
 30
0.0
 10
-3.87191217882976
 20
40.77731735660392
 30
0.0
 10
-2.610319187286237
 20
40.40996752835093
 30
0.0
 10
-1.313914679132623
 20
40.20143667257775
 30
0.0
 10
-0.4398658382053924
 20
40.15705591016405
 30
0.0
 10
-0.0028990880519046
 20
40.15705591016405
 30
0.0
  0
SPLINE
  5
17F
330
1F
100
AcDbEntity
  8
2D DXF
370
    -3
100
AcDbSpline
210
0.0
220
0.0
230
1.0
 70
     8
 71
     2
 72
    23
 73
    20
 74
     0
 42
0.000000001
 43
0.0000000001
 40
56.0
 40
56.0
 40
56.0
 40
57.0
 40
58.0
 40
59.0
 40
60.0
 40
61.0
 40
62.0
 40
63.0
 40
64.0
 40
65.0
 40
66.0
 40
67.0
 40
68.0
 40
69.0
 40
70.0
 40
71.0
 40
72.0
 40
73.0
 40
74.0
 40
74.0
 40
74.0
 10
9.563206524566667
 20
52.03980066096629
 30
0.0
 10
9.338443929973764
 20
52.2606798206429
 30
0.0
 10
8.911651806668587
 20
52.72438967247575
 30
0.0
 10
8.485633451456167
 20
53.18868501708355
 30
0.0
 10
8.054832791961687
 20
53.64857740463021
 30
0.0
 10
7.615769389485067
 20
54.10061029988578
 30
0.0
 10
7.164829621981866
 20
54.54083275306417
 30
0.0
 10
6.697830938790432
 20
54.96403920204104
 30
0.0
 10
6.211746675145193
 20
55.36525205734307
 30
0.0
 10
5.703862609874122
 20
55.73858319540333
 30
0.0
 10
5.172401195084191
 20
56.07764817654211
 30
0.0
 10
4.616471482187521
 20
56.37504497380732
 30
0.0
 10
4.03635037624575
 20
56.62250900652599
 30
0.0
 10
3.433591273792601
 20
56.80763851435224
 30
0.0
 10
2.817711428427444
 20
56.94221597730195
 30
0.0
 10
2.197714606953511
 20
57.05504497794802
 30
0.0
 10
1.573235827917742
 20
57.14017628303775
 30
0.0
 10
0.9456241466090063
 20
57.19769659129931
 30
0.0
 10
0.3160426351740142
 20
57.22672869650571
 30
0.0
 10
-0.0000266020579289
 20
57.22666574154491
 30
0.0
  0
SPLINE
  5
180
330
1F
100
AcDbEntity
  8
2D DXF
370
    -3
100
AcDbSpline
210
0.0
220
0.0
230
1.0
 70
     8
 71
     3
 72
     8
 73
     4
 74
     0
 42
0.000000001
 43
0.0000000001
 40
55.0
 40
55.0
 40
55.0
 40
55.0
 40
56.0
 40
56.0
 40
56.0
 40
56.0
 10
10.91526950124863
 20
53.2746239712034
 30
0.0
 10
11.20025615970927
 20
51.78719884662498
 30
0.0
 10
11.15672710090875
 20
50.47381283960598
 30
0.0
 10
9.563206524566667
 20
52.03980066096629
 30
0.0
  0
SPLINE
  5
181
330
1F
100
AcDbEntity
  8
2D DXF
370
    -3
100
AcDbSpline
210
0.0
220
0.0
230
1.0
 70
     8
 71
     2
 72
    23
 73
    20
 74
     0
 42
0.000000001
 43
0.0000000001
 40
37.0
 40
37.0
 40
37.0
 40
38.0
 40
39.0
 40
40.0
 40
41.0
 40
42.0
 40
43.0
 40
44.0
 40
45.0
 40
46.0
 40
47.0
 40
48.0
 40
49.0
 40
50.0
 40
51.0
 40
52.0
 40
53.0
 40
54.0
 40
55.0
 40
55.0
 40
55.0
 10
-0.0000266020579289
 20
62.12427618122927
 30
0.0
 10
0.423257590485818
 20
62.12463112856532
 30
0.0
 10
1.268448938736398
 20
62.07566631660293
 30
0.0
 10
2.108522879340782
 20
61.96998067834639
 30
0.0
 10
2.938331852486883
 20
61.80130877534455
 30
0.0
 10
3.751348912212777
 20
61.56426905893335
 30
0.0
 10
4.54002052410884
 20
61.25569782345188
 30
0.0
 10
5.298090877495653
 20
60.87816688915096
 30
0.0
 10
6.021581201046203
 20
60.43815377978209
 30
0.0
 10
6.709028561454019
 20
59.9438180317093
 30
0.0
 10
7.358581568511383
 20
59.400701369766
 30
0.0
 10
7.967957318075534
 20
58.81283351864572
 30
0.0
 10
8.529949528238362
 20
58.17943807070478
 30
0.0
 10
9.041191475390903
 20
57.50443674479659
 30
0.0
 10
9.498067625020994
 20
56.7914864783501
 30
0.0
 10
9.90060952976647
 20
56.04677936216694
 30
0.0
 10
10.26105279652914
 20
55.2802475055022
 30
0.0
 10
10.57618185320096
 20
54.4976435871887
 30
0.0
 10
10.83555712493096
 20
53.69066517086938
 30
0.0
 10
10.91526950124863
 20
53.2746239712034
 30
0.0
  0
SPLINE
  5
182
330
1F
100
AcDbEntity
  8
2D DXF
370
    -3
100
AcDbSpline
210
0.0
220
0.0
230
1.0
 70
     8
 71
     2
 72
    23
 73
    20
 74
     0
 42
0.000000001
 43
0.0000000001
 40
19.0
 40
19.0
 40
19.0
 40
20.0
 40
21.0
 40
22.0
 40
23.0
 40
24.0
 40
25.0
 40
26.0
 40
27.0
 40
28.0
 40
29.0
 40
30.0
 40
31.0
 40
32.0
 40
33.0
 40
34.0
 40
35.0
 40
36.0
 40
37.0
 40
37.0
 40
37.0
 10
-10.91532270536449
 20
53.2746239712034
 30
0.0
 10
-10.83561032904682
 20
53.69066517086938
 30
0.0
 10
-10.57623505731682
 20
54.4976435871887
 30
0.0
 10
-10.261106000645
 20
55.2802475055022
 30
0.0
 10
-9.900662733882328
 20
56.04677936216694
 30
0.0
 10
-9.498120829136852
 20
56.7914864783501
 30
0.0
 10
-9.041244679506761
 20
57.50443674479659
 30
0.0
 10
-8.53000273235422
 20
58.17943807070478
 30
0.0
 10
-7.968010522191392
 20
58.81283351864572
 30
0.0
 10
-7.358634772627241
 20
59.400701369766
 30
0.0
 10
-6.709081765569877
 20
59.9438180317093
 30
0.0
 10
-6.021634405162061
 20
60.43815377978209
 30
0.0
 10
-5.298144081611511
 20
60.87816688915096
 30
0.0
 10
-4.540073728224698
 20
61.25569782345188
 30
0.0
 10
-3.751402116328634
 20
61.56426905893335
 30
0.0
 10
-2.938385056602741
 20
61.80130877534455
 30
0.0
 10
-2.10857608345664
 20
61.96998067834639
 30
0.0
 10
-1.268502142852256
 20
62.07566631660293
 30
0.0
 10
-0.4233107946016759
 20
62.12463112856532
 30
0.0
 10
-0.0000266020579289
 20
62.12427618122927
 30
0.0
  0
SPLINE
  5
183
330
1F
100
AcDbEntity
  8
2D DXF
370
    -3
100
AcDbSpline
210
0.0
220
0.0
230
1.0
 70
     8
 71
     3
 72
     8
 73
     4
 74
     0
 42
0.000000001
 43
0.0000000001
 40
18.0
 40
18.0
 40
18.0
 40
18.0
 40
19.0
 40
19.0
 40
19.0
 40
19.0
 10
-9.563259728682524
 20
52.03980066096629
 30
0.0
 10
-11.15678030502461
 20
50.47381283960598
 30
0.0
 10
-11.20030936382513
 20
51.78719884662498
 30
0.0
 10
-10.91532270536449
 20
53.2746239712034
 30
0.0
  0
SPLINE
  5
184
330
1F
100
AcDbEntity
  8
2D DXF
370
    -3
100
AcDbSpline
210
0.0
220
0.0
230
1.0
 70
     8
 71
     2
 72
    23
 73
    20
 74
     0
 42
0.000000001
 43
0.0000000001
 40
0.0
 40
0.0
 40
0.0
 40
1.0
 40
2.0
 40
3.0
 40
4.0
 40
5.0
 40
6.0
 40
7.0
 40
8.0
 40
9.0
 40
10.0
 40
11.0
 40
12.0
 40
13.0
 40
14.0
 40
15.0
 40
16.0
 40
17.0
 40
18.0
 40
18.0
 40
18.0
 10
-0.0000266020579289
 20
57.22666574154491
 30
0.0
 10
-0.3160958392898721
 20
57.22672869650571
 30
0.0
 10
-0.9456773507248641
 20
57.19769659129931
 30
0.0
 10
-1.5732890320336
 20
57.14017628303775
 30
0.0
 10
-2.197767811069369
 20
57.05504497794802
 30
0.0
 10
-2.817764632543302
 20
56.94221597730195
 30
0.0
 10
-3.433644477908459
 20
56.80763851435224
 30
0.0
 10
-4.036403580361608
 20
56.62250900652599
 30
0.0
 10
-4.616524686303379
 20
56.37504497380732
 30
0.0
 10
-5.172454399200049
 20
56.07764817654211
 30
0.0
 10
-5.70391581398998
 20
55.73858319540333
 30
0.0
 10
-6.211799879261051
 20
55.36525205734307
 30
0.0
 10
-6.69788414290629
 20
54.96403920204104
 30
0.0
 10
-7.164882826097724
 20
54.54083275306417
 30
0.0
 10
-7.615822593600925
 20
54.10061029988578
 30
0.0
 10
-8.054885996077545
 20
53.64857740463021
 30
0.0
 10
-8.485686655572025
 20
53.18868501708355
 30
0.0
 10
-8.911705010784445
 20
52.72438967247575
 30
0.0
 10
-9.338497134089621
 20
52.2606798206429
 30
0.0
 10
-9.563259728682524
 20
52.03980066096629
 30
0.0
  0
SPLINE
  5
185
330
1F
100
AcDbEntity
  8
2D DXF
370
    -3
100
AcDbSpline
210
0.0
220
0.0
230
1.0
 70
     8
 71
     3
 72
    29
 73
    25
 74
     0
 42
0.000000001
 43
0.0000000001
 40
0.0
 40
0.0
 40
0.0
 40
0.0
 40
1.0
 40
2.0
 40
3.0
 40
4.0
 40
5.0
 40
6.0
 40
7.0
 40
8.0
 40
9.0
 40
10.0
 40
11.0
 40
12.0
 40
13.0
 40
14.0
 40
15.0
 40
16.0
 40
17.0
 40
18.0
 40
19.0
 40
20.0
 40
21.0
 40
22.0
 40
22.0
 40
22.0
 40
22.0
 10
-0.0021647810824419
 20
16.42900034804699
 30
0.0
 10
-0.1353967820343058
 20
16.42899856486572
 30
0.0
 10
-0.3998837332830902
 20
16.43091654434455
 30
0.0
 10
-0.796525484445894
 20
16.43984491025513
 30
0.0
 10
-1.192970091900506
 20
16.45526174382985
 30
0.0
 10
-1.589078254907676
 20
16.47776847982339
 30
0.0
 10
-1.98467294947811
 20
16.5080432071152
 30
0.0
 10
-2.379511877482898
 20
16.5469949991872
 30
0.0
 10
-2.773314560394269
 20
16.59535803904026
 30
0.0
 10
-3.165725437902765
 20
16.65397786296003
 30
0.0
 10
-3.556386228463211
 20
16.72332925266025
 30
0.0
 10
-3.944926437064211
 20
16.80372579392126
 30
0.0
 10
-4.331089979862313
 20
16.89481923202491
 30
0.0
 10
-4.714964504578049
 20
16.99508977771282
 30
0.0
 10
-5.096684432021263
 20
17.10325678245482
 30
0.0
 10
-5.476226291097404
 20
17.21882559838772
 30
0.0
 10
-5.853607952204229
 20
17.34125856744488
 30
0.0
 10
-6.228744726626346
 20
17.47042570327258
 30
0.0
 10
-6.604538821102992
 20
17.59741401627008
 30
0.0
 10
-6.983087199179963
 20
17.71705166279568
 30
0.0
 10
-7.364175220964611
 20
17.82433885917856
 30
0.0
 10
-7.753759468599739
 20
17.91585870092599
 30
0.0
 10
-8.136445621555637
 20
17.96393438007484
 30
0.0
 10
-8.429915493373514
 20
17.96792165139973
 30
0.0
 10
-8.501165524008215
 20
17.8461563933333
 30
0.0
  0
SPLINE
  5
186
330
1F
100
AcDbEntity
  8
2D DXF
370
    -3
100
AcDbSpline
210
0.0
220
0.0
230
1.0
 70
     8
 71
     3
 72
    29
 73
    25
 74
     0
 42
0.000000001
 43
0.0000000001
 40
-22.0
 40
-22.0
 40
-22.0
 40
-22.0
 40
-21.0
 40
-20.0
 40
-19.0
 40
-18.0
 40
-17.0
 40
-16.0
 40
-15.0
 40
-14.0
 40
-13.0
 40
-12.0
 40
-11.0
 40
-10.0
 40
-9.0
 40
-8.0
 40
-7.0
 40
-6.0
 40
-5.0
 40
-4.0
 40
-3.0
 40
-2.0
 40
-1.0
 40
0.0
 40
0.0
 40
0.0
 40
0.0
 10
8.496835961843331
 20
17.8461563933333
 30
0.0
 10
8.42558593120863
 20
17.96792165139973
 30
0.0
 10
8.132116059390754
 20
17.96393438007484
 30
0.0
 10
7.749429906434855
 20
17.91585870092599
 30
0.0
 10
7.359845658799728
 20
17.82433885917856
 30
0.0
 10
6.978757637015079
 20
17.71705166279568
 30
0.0
 10
6.600209258938108
 20
17.59741401627008
 30
0.0
 10
6.224415164461462
 20
17.47042570327258
 30
0.0
 10
5.849278390039345
 20
17.34125856744488
 30
0.0
 10
5.471896728932521
 20
17.21882559838772
 30
0.0
 10
5.092354869856379
 20
17.10325678245482
 30
0.0
 10
4.710634942413165
 20
16.99508977771282
 30
0.0
 10
4.326760417697429
 20
16.89481923202491
 30
0.0
 10
3.940596874899327
 20
16.80372579392126
 30
0.0
 10
3.552056666298327
 20
16.72332925266025
 30
0.0
 10
3.161395875737881
 20
16.65397786296003
 30
0.0
 10
2.768984998229385
 20
16.59535803904026
 30
0.0
 10
2.375182315318014
 20
16.5469949991872
 30
0.0
 10
1.980343387313226
 20
16.5080432071152
 30
0.0
 10
1.584748692742792
 20
16.47776847982339
 30
0.0
 10
1.188640529735622
 20
16.45526174382985
 30
0.0
 10
0.7921959222810102
 20
16.43984491025513
 30
0.0
 10
0.3955541711182065
 20
16.43091654434455
 30
0.0
 10
0.131067219869422
 20
16.42899856486572
 30
0.0
 10
-0.0021647810824419
 20
16.42900034804699
 30
0.0
  0
SPLINE
  5
187
330
1F
100
AcDbEntity
  8
2D DXF
370
    -3
100
AcDbSpline
210
0.0
220
0.0
230
1.0
 70
     8
 71
     3
 72
    16
 73
    12
 74
     0
 42
0.000000001
 43
0.0000000001
 40
37.0
 40
37.0
 40
37.0
 40
37.0
 40
38.0
 40
39.0
 40
40.0
 40
41.0
 40
42.0
 40
43.0
 40
44.0
 40
45.0
 40
46.0
 40
46.0
 40
46.0
 40
46.0
 10
11.06269679439687
 20
27.07845712090284
 30
0.0
 10
11.00537299563418
 20
26.50642126381866
 30
0.0
 10
10.84815414105312
 20
25.36411423456508
 30
0.0
 10
10.39378735265895
 20
23.69814736124146
 30
0.0
 10
9.588441068532475
 20
22.14191873035067
 30
0.0
 10
8.298713757124816
 20
20.97236044074462
 30
0.0
 10
6.770793284240554
 20
20.14942686436725
 30
0.0
 10
5.135701967457194
 20
19.58682573099865
 30
0.0
 10
3.442734793520415
 20
19.23882407630161
 30
0.0
 10
1.72671044495759
 20
19.04579066980796
 30
0.0
 10
0.5760327812524935
 20
19.00914075122133
 30
0.0
 10
0.0000000000000142
 20
19.00887005091417
 30
0.0
  0
SPLINE
  5
188
330
1F
100
AcDbEntity
  8
2D DXF
370
    -3
100
AcDbSpline
210
0.0
220
0.0
230
1.0
 70
     8
 71
     3
 72
     8
 73
     4
 74
     0
 42
0.000000001
 43
0.0000000001
 40
36.0
 40
36.0
 40
36.0
 40
36.0
 40
37.0
 40
37.0
 40
37.0
 40
37.0
 10
10.65385761749248
 20
27.76211157265742
 30
0.0
 10
10.99036266717287
 20
27.8168785624778
 30
0.0
 10
11.13673581440663
 20
27.81729465754798
 30
0.0
 10
11.06269679439687
 20
27.07845712090284
 30
0.0
  0
SPLINE
  5
189
330
1F
100
AcDbEntity
  8
2D DXF
370
    -3
100
AcDbSpline
210
0.0
220
0.0
230
1.0
 70
     8
 71
     3
 72
    20
 73
    16
 74
     0
 42
0.000000001
 43
0.0000000001
 40
23.0
 40
23.0
 40
23.0
 40
23.0
 40
24.0
 40
25.0
 40
26.0
 40
27.0
 40
28.0
 40
29.0
 40
30.0
 40
31.0
 40
32.0
 40
33.0
 40
34.0
 40
35.0
 40
36.0
 40
36.0
 40
36.0
 40
36.0
 10
0.0000000000000142
 20
30.30623108465958
 30
0.0
 10
0.2888989068218422
 20
30.30622665584753
 30
0.0
 10
0.8667351209386567
 20
30.30112104142517
 30
0.0
 10
1.73284622362975
 20
30.26474663314069
 30
0.0
 10
2.596263525845657
 20
30.18441567226332
 30
0.0
 10
3.451631599364944
 20
30.04045201399986
 30
0.0
 10
4.290282842987054
 20
29.81584837099852
 30
0.0
 10
5.093280476530893
 20
29.48586128549705
 30
0.0
 10
5.863462922475108
 20
29.08725814523387
 30
0.0
 10
6.610004810118724
 20
28.64695804828113
 30
0.0
 10
7.350881751047567
 20
28.19628527574831
 30
0.0
 10
8.102600646658644
 20
27.76815265719017
 30
0.0
 10
8.936071532603094
 20
27.47514962388357
 30
0.0
 10
9.809968840121613
 20
27.57468244221996
 30
0.0
 10
10.36813740172353
 20
27.71560993423221
 30
0.0
 10
10.65385761749248
 20
27.76211157265742
 30
0.0
  0
SPLINE
  5
18A
330
1F
100
AcDbEntity
  8
2D DXF
370
    -3
100
AcDbSpline
210
0.0
220
0.0
230
1.0
 70
     8
 71
     3
 72
    20
 73
    16
 74
     0
 42
0.000000001
 43
0.0000000001
 40
10.0
 40
10.0
 40
10.0
 40
10.0
 40
11.0
 40
12.0
 40
13.0
 40
14.0
 40
15.0
 40
16.0
 40
17.0
 40
18.0
 40
19.0
 40
20.0
 40
21.0
 40
22.0
 40
23.0
 40
23.0
 40
23.0
 40
23.0
 10
-10.65385761749245
 20
27.76211157265742
 30
0.0
 10
-10.3681374017235
 20
27.71560993423221
 30
0.0
 10
-9.809968840121584
 20
27.57468244221996
 30
0.0
 10
-8.936071532603066
 20
27.47514962388357
 30
0.0
 10
-8.102600646658615
 20
27.76815265719017
 30
0.0
 10
-7.350881751047538
 20
28.19628527574831
 30
0.0
 10
-6.610004810118696
 20
28.64695804828113
 30
0.0
 10
-5.86346292247508
 20
29.08725814523387
 30
0.0
 10
-5.093280476530865
 20
29.48586128549705
 30
0.0
 10
-4.290282842987025
 20
29.81584837099852
 30
0.0
 10
-3.451631599364916
 20
30.04045201399986
 30
0.0
 10
-2.596263525845629
 20
30.18441567226332
 30
0.0
 10
-1.732846223629721
 20
30.26474663314069
 30
0.0
 10
-0.8667351209386283
 20
30.30112104142517
 30
0.0
 10
-0.2888989068218137
 20
30.30622665584753
 30
0.0
 10
0.0000000000000142
 20
30.30623108465958
 30
0.0
  0
SPLINE
  5
18B
330
1F
100
AcDbEntity
  8
2D DXF
370
    -3
100
AcDbSpline
210
0.0
220
0.0
230
1.0
 70
     8
 71
     3
 72
     8
 73
     4
 74
     0
 42
0.000000001
 43
0.0000000001
 40
9.0
 40
9.0
 40
9.0
 40
9.0
 40
10.0
 40
10.0
 40
10.0
 40
10.0
 10
-11.06269679439684
 20
27.07845712090284
 30
0.0
 10
-11.13673581440661
 20
27.81729465754798
 30
0.0
 10
-10.99036266717285
 20
27.8168785624778
 30
0.0
 10
-10.65385761749245
 20
27.76211157265742
 30
0.0
  0
SPLINE
  5
18C
330
1F
100
AcDbEntity
  8
2D DXF
370
    -3
100
AcDbSpline
210
0.0
220
0.0
230
1.0
 70
     8
 71
     3
 72
    16
 73
    12
 74
     0
 42
0.000000001
 43
0.0000000001
 40
0.0
 40
0.0
 40
0.0
 40
0.0
 40
1.0
 40
2.0
 40
3.0
 40
4.0
 40
5.0
 40
6.0
 40
7.0
 40
8.0
 40
9.0
 40
9.0
 40
9.0
 40
9.0
 10
0.0000000000000142
 20
19.00887005091417
 30
0.0
 10
-0.576032781252465
 20
19.00914075122133
 30
0.0
 10
-1.726710444957561
 20
19.04579066980796
 30
0.0
 10
-3.442734793520387
 20
19.23882407630161
 30
0.0
 10
-5.135701967457166
 20
19.58682573099865
 30
0.0
 10
-6.770793284240526
 20
20.14942686436725
 30
0.0
 10
-8.298713757124787
 20
20.97236044074462
 30
0.0
 10
-9.588441068532447
 20
22.14191873035067
 30
0.0
 10
-10.39378735265892
 20
23.69814736124146
 30
0.0
 10
-10.84815414105309
 20
25.36411423456508
 30
0.0
 10
-11.00537299563415
 20
26.50642126381866
 30
0.0
 10
-11.06269679439684
 20
27.07845712090284
 30
0.0
  0
ENDSEC
  0
SECTION
  2
OBJECTS
  0
DICTIONARY
  5
C
330
0
100
AcDbDictionary
281
     1
  3
ACAD_DETAILVIEWSTYLE
350
1C8
  3
ACAD_GROUP
350
D
  3
ACAD_LAYOUT
350
1A
  3
ACAD_MATERIAL
350
43
  3
ACAD_MLEADERSTYLE
350
6B
  3
ACAD_MLINESTYLE
350
17
  3
ACAD_PLOTSETTINGS
350
19
  3
ACAD_PLOTSTYLENAME
350
E
  3
ACAD_SCALELIST
350
47
  3
ACAD_SECTIONVIEWSTYLE
350
1C9
  3
ACAD_TABLESTYLE
350
69
  3
ACAD_VISUALSTYLE
350
2A
  3
ACDB_RECOMPOSE_DATA
350
1C5
  3
AcDbVariableDictionary
350
18D
  0
SUN
  5
6D
330
29
100
AcDbSun
 90
        1
290
     0
 63
     7
421
 16777215
 40
1.0
291
     1
 91
  2455826
 92
 54000000
292
     0
 70
     2
 71
   256
280
     1
  0
DICTIONARY
  5
1C8
102
{ACAD_REACTORS
330
C
102
}
330
C
100
AcDbDictionary
281
     1
  0
DICTIONARY
  5
D
102
{ACAD_REACTORS
330
C
102
}
330
C
100
AcDbDictionary
281
     1
  0
DICTIONARY
  5
1A
102
{ACAD_REACTORS
330
C
102
}
330
C
100
AcDbDictionary
281
     1
  3
Layout1
350
1E
  3
Layout2
350
26
  3
Model
350
22
  0
DICTIONARY
  5
43
102
{ACAD_REACTORS
330
C
102
}
330
C
100
AcDbDictionary
281
     1
  3
ByBlock
350
45
  3
ByLayer
350
44
  3
Global
350
46
  0
DICTIONARY
  5
6B
102
{ACAD_REACTORS
330
C
102
}
330
C
100
AcDbDictionary
281
     1
  3
Standard
350
6C
  0
DICTIONARY
  5
17
102
{ACAD_REACTORS
330
C
102
}
330
C
100
AcDbDictionary
281
     1
  3
Standard
350
18
  0
DICTIONARY
  5
19
102
{ACAD_REACTORS
330
C
102
}
330
C
100
AcDbDictionary
281
     1
  0
ACDBDICTIONARYWDFLT
  5
E
102
{ACAD_REACTORS
330
C
102
}
330
C
100
AcDbDictionary
281
     1
  3
Normal
350
F
100
AcDbDictionaryWithDefault
340
F
  0
DICTIONARY
  5
47
102
{ACAD_REACTORS
330
C
102
}
330
C
100
AcDbDictionary
281
     1
  3
A0
350
48
  3
A1
350
49
  3
A2
350
4A
  3
A3
350
4B
  3
A4
350
4C
  3
A5
350
4D
  3
A6
350
4E
  3
A7
350
4F
  3
A8
350
50
  3
A9
350
51
  3
B0
350
52
  3
B1
350
53
  3
B2
350
54
  3
B3
350
55
  3
B4
350
56
  3
B5
350
57
  3
B6
350
58
  3
B7
350
59
  3
B8
350
5A
  3
B9
350
5B
  3
C0
350
5C
  3
C1
350
5D
  3
C2
350
5E
  3
C3
350
5F
  3
C4
350
60
  3
C5
350
61
  3
C6
350
62
  3
C7
350
63
  3
C8
350
64
  3
C9
350
65
  3
D0
350
66
  3
D1
350
67
  3
D2
350
68
  0
DICTIONARY
  5
1C9
102
{ACAD_REACTORS
330
C
102
}
330
C
100
AcDbDictionary
281
     1
  0
DICTIONARY
  5
69
102
{ACAD_REACTORS
330
C
102
}
330
C
100
AcDbDictionary
281
     1
  3
Standard
350
6A
  0
DICTIONARY
  5
2A
102
{ACAD_REACTORS
330
C
102
}
330
C
100
AcDbDictionary
281
     1
  3
2dWireframe
350
2F
  3
Basic
350
32
  3
Brighten
350
36
  3
ColorChange
350
3A
  3
Conceptual
350
34
  3
Dim
350
35
  3
EdgeColorOff
350
3D
  3
Facepattern
350
39
  3
Flat
350
2B
  3
FlatWithEdges
350
2C
  3
Gouraud
350
2D
  3
GouraudWithEdges
350
2E
  3
Hidden
350
31
  3
JitterOff
350
3B
  3
Linepattern
350
38
  3
OverhangOff
350
3C
  3
Realistic
350
33
  3
Shaded
350
42
  3
Shaded with edges
350
41
  3
Shades of Gray
350
3E
  3
Sketchy
350
3F
  3
Thicken
350
37
  3
Wireframe
350
30
  3
X-Ray
350
40
  0
XRECORD
  5
1C5
102
{ACAD_REACTORS
330
C
102
}
330
C
100
AcDbXrecord
280
     1
 90
        1
330
6A
  0
DICTIONARY
  5
18D
102
{ACAD_REACTORS
330
C
102
}
330
C
100
AcDbDictionary
281
     1
  3
CANNOSCALE
350
18E
  3
CMLEADERSTYLE
350
1C7
  3
CTABLESTYLE
350
1C6
  3
XCLIPFRAME
350
18F
  0
LAYOUT
  5
1E
102
{ACAD_REACTORS
330
1A
102
}
330
1A
100
AcDbPlotSettings
  1

  2
none_device
  4

  6

 40
0.0
 41
0.0
 42
0.0
 43
0.0
 44
0.0
 45
0.0
 46
0.0
 47
0.0
 48
0.0
 49
0.0
140
0.0
141
0.0
142
1.0
143
1.0
 70
   688
 72
     0
 73
     0
 74
     5
  7

 75
    16
 76
     0
 77
     2
 78
   300
147
1.0
148
0.0
149
0.0
100
AcDbLayout
  1
Layout1
 70
     1
 71
     1
 10
0.0
 20
0.0
 11
12.0
 21
9.0
 12
0.0
 22
0.0
 32
0.0
 14
1.000000000000000E+20
 24
1.000000000000000E+20
 34
1.000000000000000E+20
 15
-1.000000000000000E+20
 25
-1.000000000000000E+20
 35
-1.000000000000000E+20
146
0.0
 13
0.0
 23
0.0
 33
0.0
 16
1.0
 26
0.0
 36
0.0
 17
0.0
 27
1.0
 37
0.0
 76
     0
330
1B
  0
LAYOUT
  5
26
102
{ACAD_REACTORS
330
1A
102
}
330
1A
100
AcDbPlotSettings
  1

  2
none_device
  4

  6

 40
0.0
 41
0.0
 42
0.0
 43
0.0
 44
0.0
 45
0.0
 46
0.0
 47
0.0
 48
0.0
 49
0.0
140
0.0
141
0.0
142
1.0
143
1.0
 70
   688
 72
     0
 73
     0
 74
     5
  7

 75
    16
 76
     0
 77
     2
 78
   300
147
1.0
148
0.0
149
0.0
100
AcDbLayout
  1
Layout2
 70
     1
 71
     2
 10
0.0
 20
0.0
 11
0.0
 21
0.0
 12
0.0
 22
0.0
 32
0.0
 14
0.0
 24
0.0
 34
0.0
 15
0.0
 25
0.0
 35
0.0
146
0.0
 13
0.0
 23
0.0
 33
0.0
 16
1.0
 26
0.0
 36
0.0
 17
0.0
 27
1.0
 37
0.0
 76
     0
330
23
  0
LAYOUT
  5
22
102
{ACAD_REACTORS
330
1A
102
}
330
1A
100
AcDbPlotSettings
  1

  2
none_device
  4
Letter_(8.50_x_11.00_Inches)
  6

 40
6.35
 41
6.35
 42
6.35000508
 43
6.35000508
 44
215.9
 45
279.4
 46
0.0
 47
0.0
 48
0.0
 49
0.0
140
0.0
141
0.0
142
1.0
143
1.0
 70
  1712
 72
     0
 73
     0
 74
     0
  7

 75
     0
 76
     0
 77
     2
 78
   300
147
1.0
148
0.0
149
0.0
100
AcDbLayout
  1
Model
 70
     1
 71
     0
 10
0.0
 20
0.0
 11
12.0
 21
9.0
 12
0.0
 22
0.0
 32
0.0
 14
1.000000000000000E+20
 24
1.000000000000000E+20
 34
1.000000000000000E+20
 15
-1.000000000000000E+20
 25
-1.000000000000000E+20
 35
-1.000000000000000E+20
146
0.0
 13
0.0
 23
0.0
 33
0.0
 16
1.0
 26
0.0
 36
0.0
 17
0.0
 27
1.0
 37
0.0
 76
     0
330
1F
331
29
  0
MATERIAL
  5
45
102
{ACAD_REACTORS
330
43
102
}
330
43
100
AcDbMaterial
  1
ByBlock
 72
     1
 94
      127
  0
MATERIAL
  5
44
102
{ACAD_REACTORS
330
43
102
}
330
43
100
AcDbMaterial
  1
ByLayer
 72
     1
 94
      127
  0
MATERIAL
  5
46
102
{ACAD_REACTORS
330
43
102
}
330
43
100
AcDbMaterial
  1
Global
 72
     1
 94
      127
  0
MLEADERSTYLE
  5
6C
102
{ACAD_REACTORS
330
6B
102
}
102
{ACAD_XDICTIONARY
360
1C3
102
}
330
6B
100
AcDbMLeaderStyle
170
     2
171
     1
172
     0
 90
        2
 40
0.0
 41
0.0
173
     1
 91
-1056964608
340
14
 92
       -2
290
     1
 42
0.09
291
     1
 43
0.36
  3
Standard
341
0
 44
0.18
300

342
11
174
     1
178
     6
175
     1
176
     0
 93
-1056964608
 45
0.18
292
     0
297
     0
 46
0.18
343
0
 94
-1056964608
 47
1.0
 49
1.0
140
1.0
293
     1
141
0.0
294
     1
177
     0
142
1.0
295
     0
296
     0
143
0.125
1001
ACAD_MLEADERVER
1070
     2
  0
MLINESTYLE
  5
18
102
{ACAD_REACTORS
330
17
102
}
330
17
100
AcDbMlineStyle
  2
Standard
 70
     0
  3

 62
   256
 51
90.0
 52
90.0
 71
     2
 49
0.5
 62
   256
  6
BYLAYER
 49
-0.5
 62
   256
  6
BYLAYER
  0
ACDBPLACEHOLDER
  5
F
102
{ACAD_REACTORS
330
E
102
}
330
E
  0
SCALE
  5
48
102
{ACAD_REACTORS
330
47
102
}
330
47
100
AcDbScale
 70
     0
300
1:1
140
1.0
141
1.0
290
     1
  0
SCALE
  5
49
102
{ACAD_REACTORS
330
47
102
}
330
47
100
AcDbScale
 70
     0
300
1:2
140
1.0
141
2.0
290
     0
  0
SCALE
  5
4A
102
{ACAD_REACTORS
330
47
102
}
330
47
100
AcDbScale
 70
     0
300
1:4
140
1.0
141
4.0
290
     0
  0
SCALE
  5
4B
102
{ACAD_REACTORS
330
47
102
}
330
47
100
AcDbScale
 70
     0
300
1:5
140
1.0
141
5.0
290
     0
  0
SCALE
  5
4C
102
{ACAD_REACTORS
330
47
102
}
330
47
100
AcDbScale
 70
     0
300
1:8
140
1.0
141
8.0
290
     0
  0
SCALE
  5
4D
102
{ACAD_REACTORS
330
47
102
}
330
47
100
AcDbScale
 70
     0
300
1:10
140
1.0
141
10.0
290
     0
  0
SCALE
  5
4E
102
{ACAD_REACTORS
330
47
102
}
330
47
100
AcDbScale
 70
     0
300
1:16
140
1.0
141
16.0
290
     0
  0
SCALE
  5
4F
102
{ACAD_REACTORS
330
47
102
}
330
47
100
AcDbScale
 70
     0
300
1:20
140
1.0
141
20.0
290
     0
  0
SCALE
  5
50
102
{ACAD_REACTORS
330
47
102
}
330
47
100
AcDbScale
 70
     0
300
1:30
140
1.0
141
30.0
290
     0
  0
SCALE
  5
51
102
{ACAD_REACTORS
330
47
102
}
330
47
100
AcDbScale
 70
     0
300
1:40
140
1.0
141
40.0
290
     0
  0
SCALE
  5
52
102
{ACAD_REACTORS
330
47
102
}
330
47
100
AcDbScale
 70
     0
300
1:50
140
1.0
141
50.0
290
     0
  0
SCALE
  5
53
102
{ACAD_REACTORS
330
47
102
}
330
47
100
AcDbScale
 70
     0
300
1:100
140
1.0
141
100.0
290
     0
  0
SCALE
  5
54
102
{ACAD_REACTORS
330
47
102
}
330
47
100
AcDbScale
 70
     0
300
2:1
140
2.0
141
1.0
290
     0
  0
SCALE
  5
55
102
{ACAD_REACTORS
330
47
102
}
330
47
100
AcDbScale
 70
     0
300
4:1
140
4.0
141
1.0
290
     0
  0
SCALE
  5
56
102
{ACAD_REACTORS
330
47
102
}
330
47
100
AcDbScale
 70
     0
300
8:1
140
8.0
141
1.0
290
     0
  0
SCALE
  5
57
102
{ACAD_REACTORS
330
47
102
}
330
47
100
AcDbScale
 70
     0
300
10:1
140
10.0
141
1.0
290
     0
  0
SCALE
  5
58
102
{ACAD_REACTORS
330
47
102
}
330
47
100
AcDbScale
 70
     0
300
100:1
140
100.0
141
1.0
290
     0
  0
SCALE
  5
59
102
{ACAD_REACTORS
330
47
102
}
330
47
100
AcDbScale
 70
     0
300
1/128" = 1'-0"
140
0.0078125
141
12.0
290
     0
  0
SCALE
  5
5A
102
{ACAD_REACTORS
330
47
102
}
330
47
100
AcDbScale
 70
     0
300
1/64" = 1'-0"
140
0.015625
141
12.0
290
     0
  0
SCALE
  5
5B
102
{ACAD_REACTORS
330
47
102
}
330
47
100
AcDbScale
 70
     0
300
1/32" = 1'-0"
140
0.03125
141
12.0
290
     0
  0
SCALE
  5
5C
102
{ACAD_REACTORS
330
47
102
}
330
47
100
AcDbScale
 70
     0
300
1/16" = 1'-0"
140
0.0625
141
12.0
290
     0
  0
SCALE
  5
5D
102
{ACAD_REACTORS
330
47
102
}
330
47
100
AcDbScale
 70
     0
300
3/32" = 1'-0"
140
0.09375
141
12.0
290
     0
  0
SCALE
  5
5E
102
{ACAD_REACTORS
330
47
102
}
330
47
100
AcDbScale
 70
     0
300
1/8" = 1'-0"
140
0.125
141
12.0
290
     0
  0
SCALE
  5
5F
102
{ACAD_REACTORS
330
47
102
}
330
47
100
AcDbScale
 70
     0
300
3/16" = 1'-0"
140
0.1875
141
12.0
290
     0
  0
SCALE
  5
60
102
{ACAD_REACTORS
330
47
102
}
330
47
100
AcDbScale
 70
     0
300
1/4" = 1'-0"
140
0.25
141
12.0
290
     0
  0
SCALE
  5
61
102
{ACAD_REACTORS
330
47
102
}
330
47
100
AcDbScale
 70
     0
300
3/8" = 1'-0"
140
0.375
141
12.0
290
     0
  0
SCALE
  5
62
102
{ACAD_REACTORS
330
47
102
}
330
47
100
AcDbScale
 70
     0
300
1/2" = 1'-0"
140
0.5
141
12.0
290
     0
  0
SCALE
  5
63
102
{ACAD_REACTORS
330
47
102
}
330
47
100
AcDbScale
 70
     0
300
3/4" = 1'-0"
140
0.75
141
12.0
290
     0
  0
SCALE
  5
64
102
{ACAD_REACTORS
330
47
102
}
330
47
100
AcDbScale
 70
     0
300
1" = 1'-0"
140
1.0
141
12.0
290
     0
  0
SCALE
  5
65
102
{ACAD_REACTORS
330
47
102
}
330
47
100
AcDbScale
 70
     0
300
1-1/2" = 1'-0"
140
1.5
141
12.0
290
     0
  0
SCALE
  5
66
102
{ACAD_REACTORS
330
47
102
}
330
47
100
AcDbScale
 70
     0
300
3" = 1'-0"
140
3.0
141
12.0
290
     0
  0
SCALE
  5
67
102
{ACAD_REACTORS
330
47
102
}
330
47
100
AcDbScale
 70
     0
300
6" = 1'-0"
140
6.0
141
12.0
290
     0
  0
SCALE
  5
68
102
{ACAD_REACTORS
330
47
102
}
330
47
100
AcDbScale
 70
     0
300
1'-0" = 1'-0"
140
12.0
141
12.0
290
     0
  0
TABLESTYLE
  5
6A
102
{ACAD_REACTORS
330
69
102
}
102
{ACAD_XDICTIONARY
360
1C0
102
}
330
69
100
AcDbTableStyle
  3
Standard
 70
     0
 71
     0
 40
0.06
 41
0.06
280
     0
281
     0
  7
Standard
140
0.18
170
     2
 62
     0
 63
   257
283
     0
 90
        4
 91
        0
  1

274
    -2
284
     1
 64
     0
275
    -2
285
     1
 65
     0
276
    -2
286
     1
 66
     0
277
    -2
287
     1
 67
     0
278
    -2
288
     1
 68
     0
279
    -2
289
     1
 69
     0
  7
Standard
140
0.25
170
     5
 62
     0
 63
   257
283
     0
 90
        4
 91
        0
  1

274
    -2
284
     1
 64
     0
275
    -2
285
     1
 65
     0
276
    -2
286
     1
 66
     0
277
    -2
287
     1
 67
     0
278
    -2
288
     1
 68
     0
279
    -2
289
     1
 69
     0
  7
Standard
140
0.18
170
     5
 62
     0
 63
   257
283
     0
 90
        4
 91
        0
  1

274
    -2
284
     1
 64
     0
275
    -2
285
     1
 65
     0
276
    -2
286
     1
 66
     0
277
    -2
287
     1
 67
     0
278
    -2
288
     1
 68
     0
279
    -2
289
     1
 69
     0
  0
VISUALSTYLE
  5
2F
102
{ACAD_REACTORS
330
2A
102
}
102
{ACAD_XDICTIONARY
360
198
102
}
330
2A
100
AcDbVisualStyle
  2
2dWireframe
 70
     4
 71
     0
 72
     2
 73
     0
 90
        0
 40
0.6
 41
30.0
 62
     5
 63
     7
421
 16777215
 74
     1
 91
        4
 64
     7
 65
   257
 75
     1
175
     1
 42
1.0
 92
        0
 66
   257
 43
1.0
 76
     1
 77
     6
 78
     2
 67
     7
 79
     5
170
     0
171
     0
290
     0
174
     0
 93
        1
 44
0.0
173
     0
291
     0
 45
0.0
  0
VISUALSTYLE
  5
32
102
{ACAD_REACTORS
330
2A
102
}
102
{ACAD_XDICTIONARY
360
19E
102
}
330
2A
100
AcDbVisualStyle
  2
Basic
 70
     7
 71
     1
 72
     0
 73
     1
 90
        0
 40
0.6
 41
30.0
 62
     5
 63
     7
421
 16777215
 74
     0
 91
        4
 64
     7
 65
   257
 75
     1
175
     1
 42
1.0
 92
        8
 66
     7
 43
1.0
 76
     1
 77
     6
 78
     2
 67
     7
 79
     5
170
     0
171
     0
290
     0
174
     0
 93
        1
 44
0.0
173
     0
291
     1
 45
0.0
  0
VISUALSTYLE
  5
36
102
{ACAD_REACTORS
330
2A
102
}
102
{ACAD_XDICTIONARY
360
1A6
102
}
330
2A
100
AcDbVisualStyle
  2
Brighten
 70
    12
 71
     2
 72
     2
 73
     0
 90
        0
 40
0.6
 41
30.0
 62
     5
 63
     7
421
 16777215
 74
     1
 91
        4
 64
     7
 65
   257
 75
     1
175
     1
 42
1.0
 92
        8
 66
     7
 43
1.0
 76
     1
 77
     6
 78
     2
 67
     7
 79
     5
170
     0
171
     0
290
     0
174
     0
 93
        1
 44
50.0
173
     0
291
     1
 45
0.0
  0
VISUALSTYLE
  5
3A
102
{ACAD_REACTORS
330
2A
102
}
102
{ACAD_XDICTIONARY
360
1AE
102
}
330
2A
100
AcDbVisualStyle
  2
ColorChange
 70
    16
 71
     2
 72
     2
 73
     3
 90
        0
 40
0.6
 41
30.0
 62
     5
 63
     8
421
  8421504
 74
     1
 91
        4
 64
     7
 65
   257
 75
     1
175
     1
 42
1.0
 92
        8
 66
     8
424
  8421504
 43
1.0
 76
     1
 77
     6
 78
     2
 67
     7
 79
     5
170
     0
171
     0
290
     0
174
     0
 93
        1
 44
0.0
173
     0
291
     1
 45
0.0
  0
VISUALSTYLE
  5
34
102
{ACAD_REACTORS
330
2A
102
}
102
{ACAD_XDICTIONARY
360
1A2
102
}
330
2A
100
AcDbVisualStyle
  2
Conceptual
 70
     9
 71
     3
 72
     2
 73
     0
 90
        0
 40
0.6
 41
30.0
 62
     5
 63
     7
421
 16777215
 74
     2
 91
        2
 64
     7
 65
   257
 75
     1
175
     1
 42
179.0
 92
        8
 66
     7
 43
1.0
 76
     1
 77
     6
 78
     2
 67
     7
 79
     3
170
     0
171
     0
290
     0
174
     0
 93
        1
 44
0.0
173
     0
291
     0
 45
0.0
  0
VISUALSTYLE
  5
35
102
{ACAD_REACTORS
330
2A
102
}
102
{ACAD_XDICTIONARY
360
1A4
102
}
330
2A
100
AcDbVisualStyle
  2
Dim
 70
    11
 71
     2
 72
     2
 73
     0
 90
        0
 40
0.6
 41
30.0
 62
     5
 63
     7
421
 16777215
 74
     1
 91
        4
 64
     7
 65
   257
 75
     1
175
     1
 42
1.0
 92
        8
 66
     7
 43
1.0
 76
     1
 77
     6
 78
     2
 67
     7
 79
     5
170
     0
171
     0
290
     0
174
     0
 93
        1
 44
-50.0
173
     0
291
     1
 45
0.0
  0
VISUALSTYLE
  5
3D
102
{ACAD_REACTORS
330
2A
102
}
102
{ACAD_XDICTIONARY
360
1B4
102
}
330
2A
100
AcDbVisualStyle
  2
EdgeColorOff
 70
    22
 71
     2
 72
     2
 73
     0
 90
        0
 40
0.6
 41
30.0
 62
     5
 63
     7
421
 16777215
 74
     1
 91
        4
 64
     7
 65
   257
 75
     1
175
     1
 42
1.0
 92
        8
 66
     7
 43
1.0
 76
     1
 77
     6
 78
     2
 67
     7
 79
     5
170
     0
171
     0
290
     0
174
     0
 93
        1
 44
0.0
173
     0
291
     1
 45
0.0
  0
VISUALSTYLE
  5
39
102
{ACAD_REACTORS
330
2A
102
}
102
{ACAD_XDICTIONARY
360
1AC
102
}
330
2A
100
AcDbVisualStyle
  2
Facepattern
 70
    15
 71
     2
 72
     2
 73
     0
 90
        0
 40
0.6
 41
30.0
 62
     5
 63
     7
421
 16777215
 74
     1
 91
        4
 64
     7
 65
   257
 75
     1
175
     1
 42
1.0
 92
        8
 66
     7
 43
1.0
 76
     1
 77
     6
 78
     2
 67
     7
 79
     5
170
     0
171
     0
290
     0
174
     0
 93
        1
 44
0.0
173
     0
291
     1
 45
0.0
  0
VISUALSTYLE
  5
2B
102
{ACAD_REACTORS
330
2A
102
}
102
{ACAD_XDICTIONARY
360
190
102
}
330
2A
100
AcDbVisualStyle
  2
Flat
 70
     0
 71
     2
 72
     1
 73
     1
 90
        2
 40
0.6
 41
30.0
 62
     5
 63
     7
421
 16777215
 74
     0
 91
        0
 64
     7
 65
   257
 75
     1
175
     1
 42
1.0
 92
        8
 66
     7
 43
1.0
 76
     1
 77
     6
 78
     2
 67
     7
 79
     5
170
     0
171
     0
290
     0
174
     0
 93
       13
 44
0.0
173
     0
291
     1
 45
0.0
  0
VISUALSTYLE
  5
2C
102
{ACAD_REACTORS
330
2A
102
}
102
{ACAD_XDICTIONARY
360
192
102
}
330
2A
100
AcDbVisualStyle
  2
FlatWithEdges
 70
     1
 71
     2
 72
     1
 73
     1
 90
        2
 40
0.6
 41
30.0
 62
     5
 63
     7
421
 16777215
 74
     1
 91
        0
 64
     7
 65
   257
 75
     1
175
     1
 42
1.0
 92
        0
 66
   257
 43
1.0
 76
     1
 77
     6
 78
     2
 67
     7
 79
     5
170
     0
171
     0
290
     0
174
     0
 93
       13
 44
0.0
173
     0
291
     1
 45
0.0
  0
VISUALSTYLE
  5
2D
102
{ACAD_REACTORS
330
2A
102
}
102
{ACAD_XDICTIONARY
360
194
102
}
330
2A
100
AcDbVisualStyle
  2
Gouraud
 70
     2
 71
     2
 72
     2
 73
     1
 90
        2
 40
0.6
 41
30.0
 62
     5
 63
     7
421
 16777215
 74
     0
 91
        0
 64
     7
 65
   257
 75
     1
175
     1
 42
1.0
 92
        0
 66
     7
 43
1.0
 76
     1
 77
     6
 78
     2
 67
     7
 79
     5
170
     0
171
     0
290
     0
174
     0
 93
       13
 44
0.0
173
     0
291
     1
 45
0.0
  0
VISUALSTYLE
  5
2E
102
{ACAD_REACTORS
330
2A
102
}
102
{ACAD_XDICTIONARY
360
196
102
}
330
2A
100
AcDbVisualStyle
  2
GouraudWithEdges
 70
     3
 71
     2
 72
     2
 73
     1
 90
        2
 40
0.6
 41
30.0
 62
     5
 63
     7
421
 16777215
 74
     1
 91
        0
 64
     7
 65
   257
 75
     1
175
     1
 42
1.0
 92
        0
 66
   257
 43
1.0
 76
     1
 77
     6
 78
     2
 67
     7
 79
     5
170
     0
171
     0
290
     0
174
     0
 93
       13
 44
0.0
173
     0
291
     1
 45
0.0
  0
VISUALSTYLE
  5
31
102
{ACAD_REACTORS
330
2A
102
}
102
{ACAD_XDICTIONARY
360
19C
102
}
330
2A
100
AcDbVisualStyle
  2
Hidden
 70
     6
 71
     1
 72
     2
 73
     2
 90
        0
 40
0.6
 41
30.0
 62
     5
 63
     7
421
 16777215
 74
     2
 91
        2
 64
     7
 65
   257
 75
     2
175
     1
 42
40.0
 92
        0
 66
   257
 43
1.0
 76
     1
 77
     6
 78
     2
 67
     7
 79
     3
170
     0
171
     0
290
     0
174
     0
 93
        1
 44
0.0
173
     0
291
     0
 45
0.0
  0
VISUALSTYLE
  5
3B
102
{ACAD_REACTORS
330
2A
102
}
102
{ACAD_XDICTIONARY
360
1B0
102
}
330
2A
100
AcDbVisualStyle
  2
JitterOff
 70
    20
 71
     2
 72
     2
 73
     0
 90
        0
 40
0.6
 41
30.0
 62
     5
 63
     7
421
 16777215
 74
     1
 91
        4
 64
     7
 65
   257
 75
     1
175
     1
 42
1.0
 92
       10
 66
     7
 43
1.0
 76
     1
 77
     6
 78
     2
 67
     7
 79
     5
170
     0
171
     0
290
     0
174
     0
 93
        1
 44
0.0
173
     0
291
     1
 45
0.0
  0
VISUALSTYLE
  5
38
102
{ACAD_REACTORS
330
2A
102
}
102
{ACAD_XDICTIONARY
360
1AA
102
}
330
2A
100
AcDbVisualStyle
  2
Linepattern
 70
    14
 71
     2
 72
     2
 73
     0
 90
        0
 40
0.6
 41
30.0
 62
     5
 63
     7
421
 16777215
 74
     1
 91
        4
 64
     7
 65
   257
 75
     7
175
     7
 42
1.0
 92
        8
 66
     7
 43
1.0
 76
     1
 77
     6
 78
     2
 67
     7
 79
     5
170
     0
171
     0
290
     0
174
     0
 93
        1
 44
0.0
173
     0
291
     1
 45
0.0
  0
VISUALSTYLE
  5
3C
102
{ACAD_REACTORS
330
2A
102
}
102
{ACAD_XDICTIONARY
360
1B2
102
}
330
2A
100
AcDbVisualStyle
  2
OverhangOff
 70
    21
 71
     2
 72
     2
 73
     0
 90
        0
 40
0.6
 41
30.0
 62
     5
 63
     7
421
 16777215
 74
     1
 91
        4
 64
     7
 65
   257
 75
     1
175
     1
 42
1.0
 92
        9
 66
     7
 43
1.0
 76
     1
 77
     6
 78
     2
 67
     7
 79
     5
170
     0
171
     0
290
     0
174
     0
 93
        1
 44
0.0
173
     0
291
     1
 45
0.0
  0
VISUALSTYLE
  5
33
102
{ACAD_REACTORS
330
2A
102
}
102
{ACAD_XDICTIONARY
360
1A0
102
}
330
2A
100
AcDbVisualStyle
  2
Realistic
 70
     8
 71
     2
 72
     3
 73
     0
 90
        2
 40
0.6
 41
30.0
 62
     5
 63
     7
421
 16777215
 74
     0
 91
        0
 64
     7
 65
   257
 75
     1
175
     1
 42
1.0
 92
        8
 66
   257
 43
1.0
 76
     1
 77
     6
 78
     2
 67
     7
 79
     3
170
     0
171
     0
290
     0
174
     0
 93
       13
 44
0.0
173
     0
291
     0
 45
0.0
  0
VISUALSTYLE
  5
42
102
{ACAD_REACTORS
330
2A
102
}
102
{ACAD_XDICTIONARY
360
1BE
102
}
330
2A
100
AcDbVisualStyle
  2
Shaded
 70
    27
 71
     2
 72
     2
 73
     1
 90
        2
 40
0.6
 41
30.0
 62
     5
 63
     7
421
 16777215
 74
     0
 91
        4
 64
     7
 65
   257
 75
     1
175
     1
 42
1.0
 92
        8
 66
   257
 43
1.0
 76
     1
 77
     6
 78
     2
 67
     8
425
  7895160
 79
     3
170
     0
171
     0
290
     0
174
     0
 93
        5
 44
0.0
173
     0
291
     0
 45
0.0
  0
VISUALSTYLE
  5
41
102
{ACAD_REACTORS
330
2A
102
}
102
{ACAD_XDICTIONARY
360
1BC
102
}
330
2A
100
AcDbVisualStyle
  2
Shaded with edges
 70
    26
 71
     2
 72
     2
 73
     1
 90
        2
 40
0.6
 41
30.0
 62
     5
 63
     7
421
 16777215
 74
     1
 91
       10
 64
     7
 65
   257
 75
     2
175
     1
 42
1.0
 92
        8
 66
   257
 43
1.0
 76
     1
 77
     6
 78
     2
 67
     7
 79
     3
170
     0
171
     0
290
     0
174
     0
 93
        5
 44
0.0
173
     0
291
     0
 45
0.0
  0
VISUALSTYLE
  5
3E
102
{ACAD_REACTORS
330
2A
102
}
102
{ACAD_XDICTIONARY
360
1B6
102
}
330
2A
100
AcDbVisualStyle
  2
Shades of Gray
 70
    23
 71
     2
 72
     2
 73
     3
 90
        0
 40
0.6
 41
30.0
 62
     5
 63
     7
421
 16777215
 74
     2
 91
        2
 64
     7
 65
     7
 75
     1
175
     1
 42
40.0
 92
        8
 66
     7
 43
1.0
 76
     1
 77
     6
 78
     2
 67
     7
 79
     3
170
     0
171
     0
290
     0
174
     0
 93
        1
 44
0.0
173
     0
291
     0
 45
0.0
  0
VISUALSTYLE
  5
3F
102
{ACAD_REACTORS
330
2A
102
}
102
{ACAD_XDICTIONARY
360
1B8
102
}
330
2A
100
AcDbVisualStyle
  2
Sketchy
 70
    24
 71
     1
 72
     2
 73
     2
 90
        0
 40
0.6
 41
30.0
 62
     5
 63
     7
421
 16777215
 74
     2
 91
        2
 64
     7
 65
     7
 75
     1
175
     1
 42
40.0
 92
       11
 66
     7
 43
1.0
 76
     1
 77
     6
 78
     2
 67
     7
 79
     6
170
     0
171
     0
290
     0
174
     0
 93
        1
 44
0.0
173
     0
291
     0
 45
0.0
  0
VISUALSTYLE
  5
37
102
{ACAD_REACTORS
330
2A
102
}
102
{ACAD_XDICTIONARY
360
1A8
102
}
330
2A
100
AcDbVisualStyle
  2
Thicken
 70
    13
 71
     2
 72
     2
 73
     0
 90
        0
 40
0.6
 41
30.0
 62
     5
 63
     7
421
 16777215
 74
     1
 91
        4
 64
     7
 65
   257
 75
     1
175
     1
 42
1.0
 92
       12
 66
     7
 43
1.0
 76
     1
 77
     6
 78
     2
 67
     7
 79
     5
170
     0
171
     0
290
     0
174
     0
 93
        1
 44
0.0
173
     0
291
     1
 45
0.0
  0
VISUALSTYLE
  5
30
102
{ACAD_REACTORS
330
2A
102
}
102
{ACAD_XDICTIONARY
360
19A
102
}
330
2A
100
AcDbVisualStyle
  2
Wireframe
 70
     5
 71
     0
 72
     2
 73
     0
 90
        0
 40
0.6
 41
30.0
 62
     5
 63
     7
421
 16777215
 74
     1
 91
        4
 64
     7
 65
   257
 75
     1
175
     1
 42
1.0
 92
        0
 66
   257
 43
1.0
 76
     1
 77
     6
 78
     2
 67
     7
 79
     3
170
     0
171
     0
290
     0
174
     0
 93
        1
 44
0.0
173
     0
291
     0
 45
0.0
  0
VISUALSTYLE
  5
40
102
{ACAD_REACTORS
330
2A
102
}
102
{ACAD_XDICTIONARY
360
1BA
102
}
330
2A
100
AcDbVisualStyle
  2
X-Ray
 70
    25
 71
     2
 72
     2
 73
     1
 90
        1
 40
0.5
 41
30.0
 62
     5
 63
     7
421
 16777215
 74
     1
 91
        0
 64
     7
 65
   257
 75
     1
175
     1
 42
1.0
 92
        8
 66
     7
 43
1.0
 76
     1
 77
     6
 78
     2
 67
     7
 79
     3
170
     0
171
     0
290
     0
174
     0
 93
       13
 44
0.0
173
     0
291
     0
 45
0.0
  0
DICTIONARYVAR
  5
18E
102
{ACAD_REACTORS
330
18D
102
}
330
18D
100
DictionaryVariables
280
     0
  1
1:1
  0
DICTIONARYVAR
  5
1C7
102
{ACAD_REACTORS
330
18D
102
}
330
18D
100
DictionaryVariables
280
     0
  1
Standard
  0
DICTIONARYVAR
  5
1C6
102
{ACAD_REACTORS
330
18D
102
}
330
18D
100
DictionaryVariables
280
     0
  1
Standard
  0
DICTIONARYVAR
  5
18F
102
{ACAD_REACTORS
330
18D
102
}
330
18D
100
DictionaryVariables
280
     0
  1
2
  0
DICTIONARY
  5
1C3
330
6C
100
AcDbDictionary
280
     1
281
     1
  3
ACAD_XREC_ROUNDTRIP
360
1C4
  0
DICTIONARY
  5
1C0
330
6A
100
AcDbDictionary
280
     1
281
     1
  3
ACAD_ROUNDTRIP_2008_TABLESTYLE_CELLSTYLEMAP
360
1C1
  0
DICTIONARY
  5
198
330
2F
100
AcDbDictionary
280
     1
281
     1
  3
ACAD_XREC_ROUNDTRIP
360
199
  0
DICTIONARY
  5
19E
330
32
100
AcDbDictionary
280
     1
281
     1
  3
ACAD_XREC_ROUNDTRIP
360
19F
  0
DICTIONARY
  5
1A6
330
36
100
AcDbDictionary
280
     1
281
     1
  3
ACAD_XREC_ROUNDTRIP
360
1A7
  0
DICTIONARY
  5
1AE
330
3A
100
AcDbDictionary
280
     1
281
     1
  3
ACAD_XREC_ROUNDTRIP
360
1AF
  0
DICTIONARY
  5
1A2
330
34
100
AcDbDictionary
280
     1
281
     1
  3
ACAD_XREC_ROUNDTRIP
360
1A3
  0
DICTIONARY
  5
1A4
330
35
100
AcDbDictionary
280
     1
281
     1
  3
ACAD_XREC_ROUNDTRIP
360
1A5
  0
DICTIONARY
  5
1B4
330
3D
100
AcDbDictionary
280
     1
281
     1
  3
ACAD_XREC_ROUNDTRIP
360
1B5
  0
DICTIONARY
  5
1AC
330
39
100
AcDbDictionary
280
     1
281
     1
  3
ACAD_XREC_ROUNDTRIP
360
1AD
  0
DICTIONARY
  5
190
330
2B
100
AcDbDictionary
280
     1
281
     1
  3
ACAD_XREC_ROUNDTRIP
360
191
  0
DICTIONARY
  5
192
330
2C
100
AcDbDictionary
280
     1
281
     1
  3
ACAD_XREC_ROUNDTRIP
360
193
  0
DICTIONARY
  5
194
330
2D
100
AcDbDictionary
280
     1
281
     1
  3
ACAD_XREC_ROUNDTRIP
360
195
  0
DICTIONARY
  5
196
330
2E
100
AcDbDictionary
280
     1
281
     1
  3
ACAD_XREC_ROUNDTRIP
360
197
  0
DICTIONARY
  5
19C
330
31
100
AcDbDictionary
280
     1
281
     1
  3
ACAD_XREC_ROUNDTRIP
360
19D
  0
DICTIONARY
  5
1B0
330
3B
100
AcDbDictionary
280
     1
281
     1
  3
ACAD_XREC_ROUNDTRIP
360
1B1
  0
DICTIONARY
  5
1AA
330
38
100
AcDbDictionary
280
     1
281
     1
  3
ACAD_XREC_ROUNDTRIP
360
1AB
  0
DICTIONARY
  5
1B2
330
3C
100
AcDbDictionary
280
     1
281
     1
  3
ACAD_XREC_ROUNDTRIP
360
1B3
  0
DICTIONARY
  5
1A0
330
33
100
AcDbDictionary
280
     1
281
     1
  3
ACAD_XREC_ROUNDTRIP
360
1A1
  0
DICTIONARY
  5
1BE
330
42
100
AcDbDictionary
280
     1
281
     1
  3
ACAD_XREC_ROUNDTRIP
360
1BF
  0
DICTIONARY
  5
1BC
330
41
100
AcDbDictionary
280
     1
281
     1
  3
ACAD_XREC_ROUNDTRIP
360
1BD
  0
DICTIONARY
  5
1B6
330
3E
100
AcDbDictionary
280
     1
281
     1
  3
ACAD_XREC_ROUNDTRIP
360
1B7
  0
DICTIONARY
  5
1B8
330
3F
100
AcDbDictionary
280
     1
281
     1
  3
ACAD_XREC_ROUNDTRIP
360
1B9
  0
DICTIONARY
  5
1A8
330
37
100
AcDbDictionary
280
     1
281
     1
  3
ACAD_XREC_ROUNDTRIP
360
1A9
  0
DICTIONARY
  5
19A
330
30
100
AcDbDictionary
280
     1
281
     1
  3
ACAD_XREC_ROUNDTRIP
360
19B
  0
DICTIONARY
  5
1BA
330
40
100
AcDbDictionary
280
     1
281
     1
  3
ACAD_XREC_ROUNDTRIP
360
1BB
  0
XRECORD
  5
1C4
102
{ACAD_REACTORS
330
1C3
102
}
330
1C3
100
AcDbXrecord
280
     1
102
ACAD_ROUNDTRIP_2010_MLEADER_STYLE
  0
CELLSTYLEMAP
  5
1C1
102
{ACAD_REACTORS
330
1C0
102
}
330
1C0
100
AcDbCellStyleMap
 90
        3
300
CELLSTYLE
  1
TABLEFORMAT_BEGIN
 90
        5
170
     1
 91
        0
 92
    32768
 62
   257
 93
        1
300
CONTENTFORMAT
  1
CONTENTFORMAT_BEGIN
 90
        0
 91
        0
 92
        4
 93
        0
300

 40
0.0
140
1.0
 94
        5
 62
     0
340
11
144
0.25
309
CONTENTFORMAT_END
171
     1
301
MARGIN
  1
CELLMARGIN_BEGIN
 40
0.06
 40
0.06
 40
0.06
 40
0.06
 40
0.06
 40
0.06
309
CELLMARGIN_END
 94
        6
 95
        1
302
GRIDFORMAT
  1
GRIDFORMAT_BEGIN
 90
        0
 91
        1
 62
     0
 92
       -2
340
14
 93
        0
 40
0.045
309
GRIDFORMAT_END
 95
        2
302
GRIDFORMAT
  1
GRIDFORMAT_BEGIN
 90
        0
 91
        1
 62
     0
 92
       -2
340
14
 93
        0
 40
0.045
309
GRIDFORMAT_END
 95
        4
302
GRIDFORMAT
  1
GRIDFORMAT_BEGIN
 90
        0
 91
        1
 62
     0
 92
       -2
340
14
 93
        0
 40
0.045
309
GRIDFORMAT_END
 95
        8
302
GRIDFORMAT
  1
GRIDFORMAT_BEGIN
 90
        0
 91
        1
 62
     0
 92
       -2
340
14
 93
        0
 40
0.045
309
GRIDFORMAT_END
 95
       16
302
GRIDFORMAT
  1
GRIDFORMAT_BEGIN
 90
        0
 91
        1
 62
     0
 92
       -2
340
14
 93
        0
 40
0.045
309
GRIDFORMAT_END
 95
       32
302
GRIDFORMAT
  1
GRIDFORMAT_BEGIN
 90
        0
 91
        1
 62
     0
 92
       -2
340
14
 93
        0
 40
0.045
309
GRIDFORMAT_END
309
TABLEFORMAT_END
  1
CELLSTYLE_BEGIN
 90
        1
 91
        1
300
_TITLE
309
CELLSTYLE_END
300
CELLSTYLE
  1
TABLEFORMAT_BEGIN
 90
        5
170
     1
 91
        0
 92
        0
 62
   257
 93
        1
300
CONTENTFORMAT
  1
CONTENTFORMAT_BEGIN
 90
        0
 91
        0
 92
        4
 93
        0
300

 40
0.0
140
1.0
 94
        5
 62
     0
340
11
144
0.18
309
CONTENTFORMAT_END
171
     1
301
MARGIN
  1
CELLMARGIN_BEGIN
 40
0.06
 40
0.06
 40
0.06
 40
0.06
 40
0.06
 40
0.06
309
CELLMARGIN_END
 94
        6
 95
        1
302
GRIDFORMAT
  1
GRIDFORMAT_BEGIN
 90
        0
 91
        1
 62
     0
 92
       -2
340
14
 93
        0
 40
0.045
309
GRIDFORMAT_END
 95
        2
302
GRIDFORMAT
  1
GRIDFORMAT_BEGIN
 90
        0
 91
        1
 62
     0
 92
       -2
340
14
 93
        0
 40
0.045
309
GRIDFORMAT_END
 95
        4
302
GRIDFORMAT
  1
GRIDFORMAT_BEGIN
 90
        0
 91
        1
 62
     0
 92
       -2
340
14
 93
        0
 40
0.045
309
GRIDFORMAT_END
 95
        8
302
GRIDFORMAT
  1
GRIDFORMAT_BEGIN
 90
        0
 91
        1
 62
     0
 92
       -2
340
14
 93
        0
 40
0.045
309
GRIDFORMAT_END
 95
       16
302
GRIDFORMAT
  1
GRIDFORMAT_BEGIN
 90
        0
 91
        1
 62
     0
 92
       -2
340
14
 93
        0
 40
0.045
309
GRIDFORMAT_END
 95
       32
302
GRIDFORMAT
  1
GRIDFORMAT_BEGIN
 90
        0
 91
        1
 62
     0
 92
       -2
340
14
 93
        0
 40
0.045
309
GRIDFORMAT_END
309
TABLEFORMAT_END
  1
CELLSTYLE_BEGIN
 90
        2
 91
        1
300
_HEADER
309
CELLSTYLE_END
300
CELLSTYLE
  1
TABLEFORMAT_BEGIN
 90
        5
170
     1
 91
        0
 92
        0
 62
   257
 93
        1
300
CONTENTFORMAT
  1
CONTENTFORMAT_BEGIN
 90
        0
 91
        0
 92
        4
 93
        0
300

 40
0.0
140
1.0
 94
        2
 62
     0
340
11
144
0.18
309
CONTENTFORMAT_END
171
     1
301
MARGIN
  1
CELLMARGIN_BEGIN
 40
0.06
 40
0.06
 40
0.06
 40
0.06
 40
0.06
 40
0.06
309
CELLMARGIN_END
 94
        6
 95
        1
302
GRIDFORMAT
  1
GRIDFORMAT_BEGIN
 90
        0
 91
        1
 62
     0
 92
       -2
340
14
 93
        0
 40
0.045
309
GRIDFORMAT_END
 95
        2
302
GRIDFORMAT
  1
GRIDFORMAT_BEGIN
 90
        0
 91
        1
 62
     0
 92
       -2
340
14
 93
        0
 40
0.045
309
GRIDFORMAT_END
 95
        4
302
GRIDFORMAT
  1
GRIDFORMAT_BEGIN
 90
        0
 91
        1
 62
     0
 92
       -2
340
14
 93
        0
 40
0.045
309
GRIDFORMAT_END
 95
        8
302
GRIDFORMAT
  1
GRIDFORMAT_BEGIN
 90
        0
 91
        1
 62
     0
 92
       -2
340
14
 93
        0
 40
0.045
309
GRIDFORMAT_END
 95
       16
302
GRIDFORMAT
  1
GRIDFORMAT_BEGIN
 90
        0
 91
        1
 62
     0
 92
       -2
340
14
 93
        0
 40
0.045
309
GRIDFORMAT_END
 95
       32
302
GRIDFORMAT
  1
GRIDFORMAT_BEGIN
 90
        0
 91
        1
 62
     0
 92
       -2
340
14
 93
        0
 40
0.045
309
GRIDFORMAT_END
309
TABLEFORMAT_END
  1
CELLSTYLE_BEGIN
 90
        3
 91
        2
300
_DATA
309
CELLSTYLE_END
  0
XRECORD
  5
199
102
{ACAD_REACTORS
330
198
102
}
330
198
100
AcDbXrecord
280
     1
102
RTVSPropertyOp0
 70
     1
102
RTVSPropertyOp1
 70
     1
102
RTVSPropertyOp2
 70
     1
102
RTVSPropertyOp3
 70
     1
102
RTVSPropertyOp4
 70
     1
102
RTVSPropertyOp5
 70
     1
102
RTVSPropertyOp6
 70
     1
102
RTVSPropertyOp7
 70
     1
102
RTVSPropertyOp8
 70
     1
102
RTVSPropertyOp9
 70
     1
102
RTVSPropertyOp10
 70
     1
102
RTVSPropertyOp11
 70
     1
102
RTVSPropertyOp12
 70
     1
102
RTVSPropertyOp13
 70
     1
102
RTVSPropertyOp14
 70
     1
102
RTVSPropertyOp15
 70
     1
102
RTVSPropertyOp16
 70
     1
102
RTVSPropertyOp17
 70
     1
102
RTVSPropertyOp18
 70
     1
102
RTVSPropertyOp19
 70
     1
102
RTVSPropertyOp20
 70
     1
102
RTVSPropertyOp21
 70
     1
102
RTVSPropertyOp22
 70
     1
102
RTVSPropertyOp23
 70
     1
102
RTVSPropertyOp24
 70
     1
102
RTVSPropertyOp25
 70
     1
102
RTVSPropertyOp26
 70
     1
102
RTVSPropertyOp27
 70
     1
102
RTVSPropertyOp28
 70
     1
102
RTVSPropertyOp29
 70
     1
102
RTVSPropertyOp30
 70
     1
102
RTVSPropertyOp31
 70
     1
102
RTVSPropertyOp32
 70
     1
102
RTVSPropertyOp33
 70
     1
102
RTVSPropertyOp34
 70
     1
102
RTVSPropertyOp35
 70
     1
102
RTVSPropertyOp36
 70
     1
102
RTVSPropertyOp37
 70
     1
102
RTVSPropertyOp38
 70
     1
102
RTVSPropertyOp39
 70
     1
102
RTVSPropertyOp40
 70
     1
102
RTVSPropertyOp41
 70
     1
102
RTVSPropertyOp42
 70
     1
102
RTVSPropertyOp43
 70
     1
102
RTVSPropertyOp44
 70
     1
102
RTVSPropertyOp45
 70
     1
102
RTVSPropertyOp46
 70
     1
102
RTVSPropertyOp47
 70
     1
102
RTVSPropertyOp48
 70
     1
102
RTVSPropertyOp49
 70
     1
102
RTVSPropertyOp50
 70
     1
102
RTVSPropertyOp51
 70
     0
102
RTVSPropertyOp52
 70
     0
102
RTVSPropertyOp53
 70
     1
102
RTVSPropertyOp54
 70
     1
102
RTVSPropertyOp55
 70
     1
102
RTVSPropertyOp56
 70
     1
102
RTVSPropertyOp57
 70
     1
102
RTVSPost2010Prop28
280
     1
102
RTVSPost2010PropOp28
 70
     1
102
RTVSPost2010Prop29
280
     1
102
RTVSPost2010PropOp29
 70
     1
102
RTVSPost2010Prop30
280
     0
102
RTVSPost2010PropOp30
 70
     1
102
RTVSPost2010Prop31
280
     0
102
RTVSPost2010PropOp31
 70
     1
102
RTVSPost2010Prop32
280
     0
102
RTVSPost2010PropOp32
 70
     1
102
RTVSPost2010Prop33
280
     0
102
RTVSPost2010PropOp33
 70
     1
102
RTVSPost2010Prop34
280
     0
102
RTVSPost2010PropOp34
 70
     1
102
RTVSPost2010Prop35
280
     0
102
RTVSPost2010PropOp35
 70
     1
102
RTVSPost2010Prop36
280
     0
102
RTVSPost2010PropOp36
 70
     1
102
RTVSPost2010Prop37
 90
       50
102
RTVSPost2010PropOp37
 70
     1
102
RTVSPost2010Prop38
140
0.0
102
RTVSPost2010PropOp38
 70
     1
102
RTVSPost2010Prop39
140
1.0
102
RTVSPost2010PropOp39
 70
     1
102
RTVSPost2010Prop40
 90
        0
102
RTVSPost2010PropOp40
 70
     1
102
RTVSPost2010Prop41ColorIndex
 90
       18
102
RTVSPost2010Prop41ColorRGB
 90
        0
102
RTVSPost2010PropOp41
 70
     1
102
RTVSPost2010Prop42
 90
       50
102
RTVSPost2010PropOp42
 70
     1
102
RTVSPost2010Prop43
 90
        3
102
RTVSPost2010PropOp43
 70
     1
102
RTVSPost2010Prop44ColorIndex
 90
        5
102
RTVSPost2010Prop44ColorRGB
 90
      255
102
RTVSPost2010PropOp44
 70
     1
102
RTVSPost2010Prop45
280
     0
102
RTVSPost2010PropOp45
 70
     1
102
RTVSPost2010Prop46
 90
       50
102
RTVSPost2010PropOp46
 70
     1
102
RTVSPost2010Prop47
 90
       50
102
RTVSPost2010PropOp47
 70
     1
102
RTVSPost2010Prop48
 90
       50
102
RTVSPost2010PropOp48
 70
     1
102
RTVSPost2010Prop49
280
     0
102
RTVSPost2010PropOp49
 70
     1
102
RTVSPost2010Prop50
 90
       50
102
RTVSPost2010PropOp50
 70
     1
102
RTVSPost2010Prop51ColorIndex
 90
      256
102
RTVSPost2010Prop51ColorRGB
 90
-16777216
102
RTVSPost2010PropOp51
 70
     0
102
RTVSPost2010Prop52
140
1.0
102
RTVSPost2010PropOp52
 70
     0
102
RTVSPost2010Prop53
 90
        2
102
RTVSPost2010PropOp53
 70
     1
102
RTVSPost2010Prop54
  1
strokes_ogs.tif
102
RTVSPost2010PropOp54
 70
     1
102
RTVSPost2010Prop55
280
     0
102
RTVSPost2010PropOp55
 70
     1
102
RTVSPost2010Prop56
140
1.0
102
RTVSPost2010PropOp56
 70
     1
102
RTVSPost2010Prop57
140
1.0
102
RTVSPost2010PropOp57
 70
     1
  0
XRECORD
  5
19F
102
{ACAD_REACTORS
330
19E
102
}
330
19E
100
AcDbXrecord
280
     1
102
RTVSPropertyOp0
 70
     1
102
RTVSPropertyOp1
 70
     1
102
RTVSPropertyOp2
 70
     1
102
RTVSPropertyOp3
 70
     1
102
RTVSPropertyOp4
 70
     1
102
RTVSPropertyOp5
 70
     1
102
RTVSPropertyOp6
 70
     1
102
RTVSPropertyOp7
 70
     1
102
RTVSPropertyOp8
 70
     1
102
RTVSPropertyOp9
 70
     1
102
RTVSPropertyOp10
 70
     1
102
RTVSPropertyOp11
 70
     1
102
RTVSPropertyOp12
 70
     1
102
RTVSPropertyOp13
 70
     1
102
RTVSPropertyOp14
 70
     1
102
RTVSPropertyOp15
 70
     1
102
RTVSPropertyOp16
 70
     1
102
RTVSPropertyOp17
 70
     1
102
RTVSPropertyOp18
 70
     1
102
RTVSPropertyOp19
 70
     1
102
RTVSPropertyOp20
 70
     1
102
RTVSPropertyOp21
 70
     1
102
RTVSPropertyOp22
 70
     1
102
RTVSPropertyOp23
 70
     1
102
RTVSPropertyOp24
 70
     1
102
RTVSPropertyOp25
 70
     1
102
RTVSPropertyOp26
 70
     1
102
RTVSPropertyOp27
 70
     1
102
RTVSPropertyOp28
 70
     1
102
RTVSPropertyOp29
 70
     1
102
RTVSPropertyOp30
 70
     1
102
RTVSPropertyOp31
 70
     1
102
RTVSPropertyOp32
 70
     1
102
RTVSPropertyOp33
 70
     1
102
RTVSPropertyOp34
 70
     1
102
RTVSPropertyOp35
 70
     1
102
RTVSPropertyOp36
 70
     1
102
RTVSPropertyOp37
 70
     1
102
RTVSPropertyOp38
 70
     1
102
RTVSPropertyOp39
 70
     1
102
RTVSPropertyOp40
 70
     1
102
RTVSPropertyOp41
 70
     1
102
RTVSPropertyOp42
 70
     1
102
RTVSPropertyOp43
 70
     1
102
RTVSPropertyOp44
 70
     1
102
RTVSPropertyOp45
 70
     1
102
RTVSPropertyOp46
 70
     1
102
RTVSPropertyOp47
 70
     1
102
RTVSPropertyOp48
 70
     1
102
RTVSPropertyOp49
 70
     1
102
RTVSPropertyOp50
 70
     1
102
RTVSPropertyOp51
 70
     0
102
RTVSPropertyOp52
 70
     0
102
RTVSPropertyOp53
 70
     1
102
RTVSPropertyOp54
 70
     1
102
RTVSPropertyOp55
 70
     1
102
RTVSPropertyOp56
 70
     1
102
RTVSPropertyOp57
 70
     1
102
RTVSPost2010Prop28
280
     0
102
RTVSPost2010PropOp28
 70
     1
102
RTVSPost2010Prop29
280
     1
102
RTVSPost2010PropOp29
 70
     1
102
RTVSPost2010Prop30
280
     1
102
RTVSPost2010PropOp30
 70
     1
102
RTVSPost2010Prop31
280
     0
102
RTVSPost2010PropOp31
 70
     1
102
RTVSPost2010Prop32
280
     0
102
RTVSPost2010PropOp32
 70
     1
102
RTVSPost2010Prop33
280
     0
102
RTVSPost2010PropOp33
 70
     1
102
RTVSPost2010Prop34
280
     0
102
RTVSPost2010PropOp34
 70
     1
102
RTVSPost2010Prop35
280
     0
102
RTVSPost2010PropOp35
 70
     1
102
RTVSPost2010Prop36
280
     0
102
RTVSPost2010PropOp36
 70
     1
102
RTVSPost2010Prop37
 90
       50
102
RTVSPost2010PropOp37
 70
     1
102
RTVSPost2010Prop38
140
0.0
102
RTVSPost2010PropOp38
 70
     1
102
RTVSPost2010Prop39
140
1.0
102
RTVSPost2010PropOp39
 70
     1
102
RTVSPost2010Prop40
 90
        0
102
RTVSPost2010PropOp40
 70
     1
102
RTVSPost2010Prop41ColorIndex
 90
       18
102
RTVSPost2010Prop41ColorRGB
 90
        0
102
RTVSPost2010PropOp41
 70
     1
102
RTVSPost2010Prop42
 90
       50
102
RTVSPost2010PropOp42
 70
     1
102
RTVSPost2010Prop43
 90
        3
102
RTVSPost2010PropOp43
 70
     1
102
RTVSPost2010Prop44ColorIndex
 90
        5
102
RTVSPost2010Prop44ColorRGB
 90
      255
102
RTVSPost2010PropOp44
 70
     1
102
RTVSPost2010Prop45
280
     0
102
RTVSPost2010PropOp45
 70
     1
102
RTVSPost2010Prop46
 90
       50
102
RTVSPost2010PropOp46
 70
     1
102
RTVSPost2010Prop47
 90
       50
102
RTVSPost2010PropOp47
 70
     1
102
RTVSPost2010Prop48
 90
       50
102
RTVSPost2010PropOp48
 70
     1
102
RTVSPost2010Prop49
280
     0
102
RTVSPost2010PropOp49
 70
     1
102
RTVSPost2010Prop50
 90
       50
102
RTVSPost2010PropOp50
 70
     1
102
RTVSPost2010Prop51ColorIndex
 90
      256
102
RTVSPost2010Prop51ColorRGB
 90
-16777216
102
RTVSPost2010PropOp51
 70
     0
102
RTVSPost2010Prop52
140
1.0
102
RTVSPost2010PropOp52
 70
     0
102
RTVSPost2010Prop53
 90
        2
102
RTVSPost2010PropOp53
 70
     1
102
RTVSPost2010Prop54
  1
strokes_ogs.tif
102
RTVSPost2010PropOp54
 70
     1
102
RTVSPost2010Prop55
280
     0
102
RTVSPost2010PropOp55
 70
     1
102
RTVSPost2010Prop56
140
1.0
102
RTVSPost2010PropOp56
 70
     1
102
RTVSPost2010Prop57
140
1.0
102
RTVSPost2010PropOp57
 70
     1
  0
XRECORD
  5
1A7
102
{ACAD_REACTORS
330
1A6
102
}
330
1A6
100
AcDbXrecord
280
     1
102
RTVSPropertyOp0
 70
     1
102
RTVSPropertyOp1
 70
     1
102
RTVSPropertyOp2
 70
     1
102
RTVSPropertyOp3
 70
     1
102
RTVSPropertyOp4
 70
     1
102
RTVSPropertyOp5
 70
     1
102
RTVSPropertyOp6
 70
     1
102
RTVSPropertyOp7
 70
     1
102
RTVSPropertyOp8
 70
     1
102
RTVSPropertyOp9
 70
     1
102
RTVSPropertyOp10
 70
     1
102
RTVSPropertyOp11
 70
     1
102
RTVSPropertyOp12
 70
     1
102
RTVSPropertyOp13
 70
     1
102
RTVSPropertyOp14
 70
     1
102
RTVSPropertyOp15
 70
     1
102
RTVSPropertyOp16
 70
     1
102
RTVSPropertyOp17
 70
     1
102
RTVSPropertyOp18
 70
     1
102
RTVSPropertyOp19
 70
     1
102
RTVSPropertyOp20
 70
     1
102
RTVSPropertyOp21
 70
     1
102
RTVSPropertyOp22
 70
     1
102
RTVSPropertyOp23
 70
     1
102
RTVSPropertyOp24
 70
     1
102
RTVSPropertyOp25
 70
     1
102
RTVSPropertyOp26
 70
     1
102
RTVSPropertyOp27
 70
     1
102
RTVSPropertyOp28
 70
     1
102
RTVSPropertyOp29
 70
     1
102
RTVSPropertyOp30
 70
     1
102
RTVSPropertyOp31
 70
     1
102
RTVSPropertyOp32
 70
     1
102
RTVSPropertyOp33
 70
     1
102
RTVSPropertyOp34
 70
     1
102
RTVSPropertyOp35
 70
     1
102
RTVSPropertyOp36
 70
     1
102
RTVSPropertyOp37
 70
     1
102
RTVSPropertyOp38
 70
     1
102
RTVSPropertyOp39
 70
     1
102
RTVSPropertyOp40
 70
     1
102
RTVSPropertyOp41
 70
     1
102
RTVSPropertyOp42
 70
     1
102
RTVSPropertyOp43
 70
     1
102
RTVSPropertyOp44
 70
     1
102
RTVSPropertyOp45
 70
     1
102
RTVSPropertyOp46
 70
     1
102
RTVSPropertyOp47
 70
     1
102
RTVSPropertyOp48
 70
     1
102
RTVSPropertyOp49
 70
     1
102
RTVSPropertyOp50
 70
     1
102
RTVSPropertyOp51
 70
     0
102
RTVSPropertyOp52
 70
     0
102
RTVSPropertyOp53
 70
     1
102
RTVSPropertyOp54
 70
     1
102
RTVSPropertyOp55
 70
     1
102
RTVSPropertyOp56
 70
     1
102
RTVSPropertyOp57
 70
     1
102
RTVSPost2010Prop28
280
     0
102
RTVSPost2010PropOp28
 70
     1
102
RTVSPost2010Prop29
280
     1
102
RTVSPost2010PropOp29
 70
     1
102
RTVSPost2010Prop30
280
     1
102
RTVSPost2010PropOp30
 70
     1
102
RTVSPost2010Prop31
280
     0
102
RTVSPost2010PropOp31
 70
     1
102
RTVSPost2010Prop32
280
     0
102
RTVSPost2010PropOp32
 70
     1
102
RTVSPost2010Prop33
280
     0
102
RTVSPost2010PropOp33
 70
     1
102
RTVSPost2010Prop34
280
     0
102
RTVSPost2010PropOp34
 70
     1
102
RTVSPost2010Prop35
280
     0
102
RTVSPost2010PropOp35
 70
     1
102
RTVSPost2010Prop36
280
     0
102
RTVSPost2010PropOp36
 70
     1
102
RTVSPost2010Prop37
 90
       50
102
RTVSPost2010PropOp37
 70
     1
102
RTVSPost2010Prop38
140
0.0
102
RTVSPost2010PropOp38
 70
     1
102
RTVSPost2010Prop39
140
1.0
102
RTVSPost2010PropOp39
 70
     1
102
RTVSPost2010Prop40
 90
        0
102
RTVSPost2010PropOp40
 70
     1
102
RTVSPost2010Prop41ColorIndex
 90
       18
102
RTVSPost2010Prop41ColorRGB
 90
        0
102
RTVSPost2010PropOp41
 70
     1
102
RTVSPost2010Prop42
 90
       50
102
RTVSPost2010PropOp42
 70
     1
102
RTVSPost2010Prop43
 90
        3
102
RTVSPost2010PropOp43
 70
     1
102
RTVSPost2010Prop44ColorIndex
 90
        5
102
RTVSPost2010Prop44ColorRGB
 90
      255
102
RTVSPost2010PropOp44
 70
     1
102
RTVSPost2010Prop45
280
     0
102
RTVSPost2010PropOp45
 70
     1
102
RTVSPost2010Prop46
 90
       50
102
RTVSPost2010PropOp46
 70
     1
102
RTVSPost2010Prop47
 90
       50
102
RTVSPost2010PropOp47
 70
     1
102
RTVSPost2010Prop48
 90
       50
102
RTVSPost2010PropOp48
 70
     1
102
RTVSPost2010Prop49
280
     0
102
RTVSPost2010PropOp49
 70
     1
102
RTVSPost2010Prop50
 90
       50
102
RTVSPost2010PropOp50
 70
     1
102
RTVSPost2010Prop51ColorIndex
 90
      256
102
RTVSPost2010Prop51ColorRGB
 90
-16777216
102
RTVSPost2010PropOp51
 70
     0
102
RTVSPost2010Prop52
140
1.0
102
RTVSPost2010PropOp52
 70
     0
102
RTVSPost2010Prop53
 90
        2
102
RTVSPost2010PropOp53
 70
     1
102
RTVSPost2010Prop54
  1
strokes_ogs.tif
102
RTVSPost2010PropOp54
 70
     1
102
RTVSPost2010Prop55
280
     0
102
RTVSPost2010PropOp55
 70
     1
102
RTVSPost2010Prop56
140
1.0
102
RTVSPost2010PropOp56
 70
     1
102
RTVSPost2010Prop57
140
1.0
102
RTVSPost2010PropOp57
 70
     1
  0
XRECORD
  5
1AF
102
{ACAD_REACTORS
330
1AE
102
}
330
1AE
100
AcDbXrecord
280
     1
102
RTVSPropertyOp0
 70
     1
102
RTVSPropertyOp1
 70
     1
102
RTVSPropertyOp2
 70
     1
102
RTVSPropertyOp3
 70
     1
102
RTVSPropertyOp4
 70
     1
102
RTVSPropertyOp5
 70
     1
102
RTVSPropertyOp6
 70
     1
102
RTVSPropertyOp7
 70
     1
102
RTVSPropertyOp8
 70
     1
102
RTVSPropertyOp9
 70
     1
102
RTVSPropertyOp10
 70
     1
102
RTVSPropertyOp11
 70
     1
102
RTVSPropertyOp12
 70
     1
102
RTVSPropertyOp13
 70
     1
102
RTVSPropertyOp14
 70
     1
102
RTVSPropertyOp15
 70
     1
102
RTVSPropertyOp16
 70
     1
102
RTVSPropertyOp17
 70
     1
102
RTVSPropertyOp18
 70
     1
102
RTVSPropertyOp19
 70
     1
102
RTVSPropertyOp20
 70
     1
102
RTVSPropertyOp21
 70
     1
102
RTVSPropertyOp22
 70
     1
102
RTVSPropertyOp23
 70
     1
102
RTVSPropertyOp24
 70
     1
102
RTVSPropertyOp25
 70
     1
102
RTVSPropertyOp26
 70
     1
102
RTVSPropertyOp27
 70
     1
102
RTVSPropertyOp28
 70
     1
102
RTVSPropertyOp29
 70
     1
102
RTVSPropertyOp30
 70
     1
102
RTVSPropertyOp31
 70
     1
102
RTVSPropertyOp32
 70
     1
102
RTVSPropertyOp33
 70
     1
102
RTVSPropertyOp34
 70
     1
102
RTVSPropertyOp35
 70
     1
102
RTVSPropertyOp36
 70
     1
102
RTVSPropertyOp37
 70
     1
102
RTVSPropertyOp38
 70
     1
102
RTVSPropertyOp39
 70
     1
102
RTVSPropertyOp40
 70
     1
102
RTVSPropertyOp41
 70
     1
102
RTVSPropertyOp42
 70
     1
102
RTVSPropertyOp43
 70
     1
102
RTVSPropertyOp44
 70
     1
102
RTVSPropertyOp45
 70
     1
102
RTVSPropertyOp46
 70
     1
102
RTVSPropertyOp47
 70
     1
102
RTVSPropertyOp48
 70
     1
102
RTVSPropertyOp49
 70
     1
102
RTVSPropertyOp50
 70
     1
102
RTVSPropertyOp51
 70
     0
102
RTVSPropertyOp52
 70
     0
102
RTVSPropertyOp53
 70
     1
102
RTVSPropertyOp54
 70
     1
102
RTVSPropertyOp55
 70
     1
102
RTVSPropertyOp56
 70
     1
102
RTVSPropertyOp57
 70
     1
102
RTVSPost2010Prop28
280
     0
102
RTVSPost2010PropOp28
 70
     1
102
RTVSPost2010Prop29
280
     1
102
RTVSPost2010PropOp29
 70
     1
102
RTVSPost2010Prop30
280
     1
102
RTVSPost2010PropOp30
 70
     1
102
RTVSPost2010Prop31
280
     0
102
RTVSPost2010PropOp31
 70
     1
102
RTVSPost2010Prop32
280
     0
102
RTVSPost2010PropOp32
 70
     1
102
RTVSPost2010Prop33
280
     0
102
RTVSPost2010PropOp33
 70
     1
102
RTVSPost2010Prop34
280
     0
102
RTVSPost2010PropOp34
 70
     1
102
RTVSPost2010Prop35
280
     0
102
RTVSPost2010PropOp35
 70
     1
102
RTVSPost2010Prop36
280
     0
102
RTVSPost2010PropOp36
 70
     1
102
RTVSPost2010Prop37
 90
       50
102
RTVSPost2010PropOp37
 70
     1
102
RTVSPost2010Prop38
140
0.0
102
RTVSPost2010PropOp38
 70
     1
102
RTVSPost2010Prop39
140
1.0
102
RTVSPost2010PropOp39
 70
     1
102
RTVSPost2010Prop40
 90
        0
102
RTVSPost2010PropOp40
 70
     1
102
RTVSPost2010Prop41ColorIndex
 90
       18
102
RTVSPost2010Prop41ColorRGB
 90
        0
102
RTVSPost2010PropOp41
 70
     1
102
RTVSPost2010Prop42
 90
       50
102
RTVSPost2010PropOp42
 70
     1
102
RTVSPost2010Prop43
 90
        3
102
RTVSPost2010PropOp43
 70
     1
102
RTVSPost2010Prop44ColorIndex
 90
        5
102
RTVSPost2010Prop44ColorRGB
 90
      255
102
RTVSPost2010PropOp44
 70
     1
102
RTVSPost2010Prop45
280
     0
102
RTVSPost2010PropOp45
 70
     1
102
RTVSPost2010Prop46
 90
       50
102
RTVSPost2010PropOp46
 70
     1
102
RTVSPost2010Prop47
 90
       50
102
RTVSPost2010PropOp47
 70
     1
102
RTVSPost2010Prop48
 90
       50
102
RTVSPost2010PropOp48
 70
     1
102
RTVSPost2010Prop49
280
     0
102
RTVSPost2010PropOp49
 70
     1
102
RTVSPost2010Prop50
 90
       50
102
RTVSPost2010PropOp50
 70
     1
102
RTVSPost2010Prop51ColorIndex
 90
      256
102
RTVSPost2010Prop51ColorRGB
 90
-16777216
102
RTVSPost2010PropOp51
 70
     0
102
RTVSPost2010Prop52
140
1.0
102
RTVSPost2010PropOp52
 70
     0
102
RTVSPost2010Prop53
 90
        2
102
RTVSPost2010PropOp53
 70
     1
102
RTVSPost2010Prop54
  1
strokes_ogs.tif
102
RTVSPost2010PropOp54
 70
     1
102
RTVSPost2010Prop55
280
     0
102
RTVSPost2010PropOp55
 70
     1
102
RTVSPost2010Prop56
140
1.0
102
RTVSPost2010PropOp56
 70
     1
102
RTVSPost2010Prop57
140
1.0
102
RTVSPost2010PropOp57
 70
     1
  0
XRECORD
  5
1A3
102
{ACAD_REACTORS
330
1A2
102
}
330
1A2
100
AcDbXrecord
280
     1
102
RTVSPropertyOp0
 70
     1
102
RTVSPropertyOp1
 70
     1
102
RTVSPropertyOp2
 70
     1
102
RTVSPropertyOp3
 70
     1
102
RTVSPropertyOp4
 70
     1
102
RTVSPropertyOp5
 70
     1
102
RTVSPropertyOp6
 70
     1
102
RTVSPropertyOp7
 70
     1
102
RTVSPropertyOp8
 70
     1
102
RTVSPropertyOp9
 70
     1
102
RTVSPropertyOp10
 70
     1
102
RTVSPropertyOp11
 70
     1
102
RTVSPropertyOp12
 70
     1
102
RTVSPropertyOp13
 70
     1
102
RTVSPropertyOp14
 70
     1
102
RTVSPropertyOp15
 70
     1
102
RTVSPropertyOp16
 70
     1
102
RTVSPropertyOp17
 70
     1
102
RTVSPropertyOp18
 70
     1
102
RTVSPropertyOp19
 70
     1
102
RTVSPropertyOp20
 70
     1
102
RTVSPropertyOp21
 70
     1
102
RTVSPropertyOp22
 70
     1
102
RTVSPropertyOp23
 70
     1
102
RTVSPropertyOp24
 70
     1
102
RTVSPropertyOp25
 70
     1
102
RTVSPropertyOp26
 70
     1
102
RTVSPropertyOp27
 70
     1
102
RTVSPropertyOp28
 70
     1
102
RTVSPropertyOp29
 70
     1
102
RTVSPropertyOp30
 70
     1
102
RTVSPropertyOp31
 70
     1
102
RTVSPropertyOp32
 70
     1
102
RTVSPropertyOp33
 70
     1
102
RTVSPropertyOp34
 70
     1
102
RTVSPropertyOp35
 70
     1
102
RTVSPropertyOp36
 70
     1
102
RTVSPropertyOp37
 70
     1
102
RTVSPropertyOp38
 70
     1
102
RTVSPropertyOp39
 70
     1
102
RTVSPropertyOp40
 70
     1
102
RTVSPropertyOp41
 70
     1
102
RTVSPropertyOp42
 70
     1
102
RTVSPropertyOp43
 70
     1
102
RTVSPropertyOp44
 70
     1
102
RTVSPropertyOp45
 70
     1
102
RTVSPropertyOp46
 70
     1
102
RTVSPropertyOp47
 70
     1
102
RTVSPropertyOp48
 70
     1
102
RTVSPropertyOp49
 70
     1
102
RTVSPropertyOp50
 70
     1
102
RTVSPropertyOp51
 70
     0
102
RTVSPropertyOp52
 70
     0
102
RTVSPropertyOp53
 70
     1
102
RTVSPropertyOp54
 70
     1
102
RTVSPropertyOp55
 70
     1
102
RTVSPropertyOp56
 70
     1
102
RTVSPropertyOp57
 70
     1
102
RTVSPost2010Prop28
280
     0
102
RTVSPost2010PropOp28
 70
     1
102
RTVSPost2010Prop29
280
     1
102
RTVSPost2010PropOp29
 70
     1
102
RTVSPost2010Prop30
280
     1
102
RTVSPost2010PropOp30
 70
     1
102
RTVSPost2010Prop31
280
     0
102
RTVSPost2010PropOp31
 70
     1
102
RTVSPost2010Prop32
280
     0
102
RTVSPost2010PropOp32
 70
     1
102
RTVSPost2010Prop33
280
     0
102
RTVSPost2010PropOp33
 70
     1
102
RTVSPost2010Prop34
280
     0
102
RTVSPost2010PropOp34
 70
     1
102
RTVSPost2010Prop35
280
     0
102
RTVSPost2010PropOp35
 70
     1
102
RTVSPost2010Prop36
280
     0
102
RTVSPost2010PropOp36
 70
     1
102
RTVSPost2010Prop37
 90
       50
102
RTVSPost2010PropOp37
 70
     1
102
RTVSPost2010Prop38
140
0.0
102
RTVSPost2010PropOp38
 70
     1
102
RTVSPost2010Prop39
140
1.0
102
RTVSPost2010PropOp39
 70
     1
102
RTVSPost2010Prop40
 90
        0
102
RTVSPost2010PropOp40
 70
     1
102
RTVSPost2010Prop41ColorIndex
 90
       18
102
RTVSPost2010Prop41ColorRGB
 90
        0
102
RTVSPost2010PropOp41
 70
     1
102
RTVSPost2010Prop42
 90
       50
102
RTVSPost2010PropOp42
 70
     1
102
RTVSPost2010Prop43
 90
        3
102
RTVSPost2010PropOp43
 70
     1
102
RTVSPost2010Prop44ColorIndex
 90
        5
102
RTVSPost2010Prop44ColorRGB
 90
      255
102
RTVSPost2010PropOp44
 70
     1
102
RTVSPost2010Prop45
280
     0
102
RTVSPost2010PropOp45
 70
     1
102
RTVSPost2010Prop46
 90
       50
102
RTVSPost2010PropOp46
 70
     1
102
RTVSPost2010Prop47
 90
       50
102
RTVSPost2010PropOp47
 70
     1
102
RTVSPost2010Prop48
 90
       50
102
RTVSPost2010PropOp48
 70
     1
102
RTVSPost2010Prop49
280
     0
102
RTVSPost2010PropOp49
 70
     1
102
RTVSPost2010Prop50
 90
       50
102
RTVSPost2010PropOp50
 70
     1
102
RTVSPost2010Prop51ColorIndex
 90
      256
102
RTVSPost2010Prop51ColorRGB
 90
-16777216
102
RTVSPost2010PropOp51
 70
     0
102
RTVSPost2010Prop52
140
1.0
102
RTVSPost2010PropOp52
 70
     0
102
RTVSPost2010Prop53
 90
        2
102
RTVSPost2010PropOp53
 70
     1
102
RTVSPost2010Prop54
  1
strokes_ogs.tif
102
RTVSPost2010PropOp54
 70
     1
102
RTVSPost2010Prop55
280
     0
102
RTVSPost2010PropOp55
 70
     1
102
RTVSPost2010Prop56
140
1.0
102
RTVSPost2010PropOp56
 70
     1
102
RTVSPost2010Prop57
140
1.0
102
RTVSPost2010PropOp57
 70
     1
  0
XRECORD
  5
1A5
102
{ACAD_REACTORS
330
1A4
102
}
330
1A4
100
AcDbXrecord
280
     1
102
RTVSPropertyOp0
 70
     1
102
RTVSPropertyOp1
 70
     1
102
RTVSPropertyOp2
 70
     1
102
RTVSPropertyOp3
 70
     1
102
RTVSPropertyOp4
 70
     1
102
RTVSPropertyOp5
 70
     1
102
RTVSPropertyOp6
 70
     1
102
RTVSPropertyOp7
 70
     1
102
RTVSPropertyOp8
 70
     1
102
RTVSPropertyOp9
 70
     1
102
RTVSPropertyOp10
 70
     1
102
RTVSPropertyOp11
 70
     1
102
RTVSPropertyOp12
 70
     1
102
RTVSPropertyOp13
 70
     1
102
RTVSPropertyOp14
 70
     1
102
RTVSPropertyOp15
 70
     1
102
RTVSPropertyOp16
 70
     1
102
RTVSPropertyOp17
 70
     1
102
RTVSPropertyOp18
 70
     1
102
RTVSPropertyOp19
 70
     1
102
RTVSPropertyOp20
 70
     1
102
RTVSPropertyOp21
 70
     1
102
RTVSPropertyOp22
 70
     1
102
RTVSPropertyOp23
 70
     1
102
RTVSPropertyOp24
 70
     1
102
RTVSPropertyOp25
 70
     1
102
RTVSPropertyOp26
 70
     1
102
RTVSPropertyOp27
 70
     1
102
RTVSPropertyOp28
 70
     1
102
RTVSPropertyOp29
 70
     1
102
RTVSPropertyOp30
 70
     1
102
RTVSPropertyOp31
 70
     1
102
RTVSPropertyOp32
 70
     1
102
RTVSPropertyOp33
 70
     1
102
RTVSPropertyOp34
 70
     1
102
RTVSPropertyOp35
 70
     1
102
RTVSPropertyOp36
 70
     1
102
RTVSPropertyOp37
 70
     1
102
RTVSPropertyOp38
 70
     1
102
RTVSPropertyOp39
 70
     1
102
RTVSPropertyOp40
 70
     1
102
RTVSPropertyOp41
 70
     1
102
RTVSPropertyOp42
 70
     1
102
RTVSPropertyOp43
 70
     1
102
RTVSPropertyOp44
 70
     1
102
RTVSPropertyOp45
 70
     1
102
RTVSPropertyOp46
 70
     1
102
RTVSPropertyOp47
 70
     1
102
RTVSPropertyOp48
 70
     1
102
RTVSPropertyOp49
 70
     1
102
RTVSPropertyOp50
 70
     1
102
RTVSPropertyOp51
 70
     0
102
RTVSPropertyOp52
 70
     0
102
RTVSPropertyOp53
 70
     1
102
RTVSPropertyOp54
 70
     1
102
RTVSPropertyOp55
 70
     1
102
RTVSPropertyOp56
 70
     1
102
RTVSPropertyOp57
 70
     1
102
RTVSPost2010Prop28
280
     0
102
RTVSPost2010PropOp28
 70
     1
102
RTVSPost2010Prop29
280
     1
102
RTVSPost2010PropOp29
 70
     1
102
RTVSPost2010Prop30
280
     1
102
RTVSPost2010PropOp30
 70
     1
102
RTVSPost2010Prop31
280
     0
102
RTVSPost2010PropOp31
 70
     1
102
RTVSPost2010Prop32
280
     0
102
RTVSPost2010PropOp32
 70
     1
102
RTVSPost2010Prop33
280
     0
102
RTVSPost2010PropOp33
 70
     1
102
RTVSPost2010Prop34
280
     0
102
RTVSPost2010PropOp34
 70
     1
102
RTVSPost2010Prop35
280
     0
102
RTVSPost2010PropOp35
 70
     1
102
RTVSPost2010Prop36
280
     0
102
RTVSPost2010PropOp36
 70
     1
102
RTVSPost2010Prop37
 90
       50
102
RTVSPost2010PropOp37
 70
     1
102
RTVSPost2010Prop38
140
0.0
102
RTVSPost2010PropOp38
 70
     1
102
RTVSPost2010Prop39
140
1.0
102
RTVSPost2010PropOp39
 70
     1
102
RTVSPost2010Prop40
 90
        0
102
RTVSPost2010PropOp40
 70
     1
102
RTVSPost2010Prop41ColorIndex
 90
       18
102
RTVSPost2010Prop41ColorRGB
 90
        0
102
RTVSPost2010PropOp41
 70
     1
102
RTVSPost2010Prop42
 90
       50
102
RTVSPost2010PropOp42
 70
     1
102
RTVSPost2010Prop43
 90
        3
102
RTVSPost2010PropOp43
 70
     1
102
RTVSPost2010Prop44ColorIndex
 90
        5
102
RTVSPost2010Prop44ColorRGB
 90
      255
102
RTVSPost2010PropOp44
 70
     1
102
RTVSPost2010Prop45
280
     0
102
RTVSPost2010PropOp45
 70
     1
102
RTVSPost2010Prop46
 90
       50
102
RTVSPost2010PropOp46
 70
     1
102
RTVSPost2010Prop47
 90
       50
102
RTVSPost2010PropOp47
 70
     1
102
RTVSPost2010Prop48
 90
       50
102
RTVSPost2010PropOp48
 70
     1
102
RTVSPost2010Prop49
280
     0
102
RTVSPost2010PropOp49
 70
     1
102
RTVSPost2010Prop50
 90
       50
102
RTVSPost2010PropOp50
 70
     1
102
RTVSPost2010Prop51ColorIndex
 90
      256
102
RTVSPost2010Prop51ColorRGB
 90
-16777216
102
RTVSPost2010PropOp51
 70
     0
102
RTVSPost2010Prop52
140
1.0
102
RTVSPost2010PropOp52
 70
     0
102
RTVSPost2010Prop53
 90
        2
102
RTVSPost2010PropOp53
 70
     1
102
RTVSPost2010Prop54
  1
strokes_ogs.tif
102
RTVSPost2010PropOp54
 70
     1
102
RTVSPost2010Prop55
280
     0
102
RTVSPost2010PropOp55
 70
     1
102
RTVSPost2010Prop56
140
1.0
102
RTVSPost2010PropOp56
 70
     1
102
RTVSPost2010Prop57
140
1.0
102
RTVSPost2010PropOp57
 70
     1
  0
XRECORD
  5
1B5
102
{ACAD_REACTORS
330
1B4
102
}
330
1B4
100
AcDbXrecord
280
     1
102
RTVSPropertyOp0
 70
     0
102
RTVSPropertyOp1
 70
     0
102
RTVSPropertyOp2
 70
     0
102
RTVSPropertyOp3
 70
     0
102
RTVSPropertyOp4
 70
     0
102
RTVSPropertyOp5
 70
     0
102
RTVSPropertyOp6
 70
     0
102
RTVSPropertyOp7
 70
     0
102
RTVSPropertyOp8
 70
     0
102
RTVSPropertyOp9
 70
     0
102
RTVSPropertyOp10
 70
     0
102
RTVSPropertyOp11
 70
     0
102
RTVSPropertyOp12
 70
     0
102
RTVSPropertyOp13
 70
     0
102
RTVSPropertyOp14
 70
     2
102
RTVSPropertyOp15
 70
     0
102
RTVSPropertyOp16
 70
     0
102
RTVSPropertyOp17
 70
     0
102
RTVSPropertyOp18
 70
     0
102
RTVSPropertyOp19
 70
     0
102
RTVSPropertyOp20
 70
     0
102
RTVSPropertyOp21
 70
     0
102
RTVSPropertyOp22
 70
     0
102
RTVSPropertyOp23
 70
     0
102
RTVSPropertyOp24
 70
     0
102
RTVSPropertyOp25
 70
     0
102
RTVSPropertyOp26
 70
     0
102
RTVSPropertyOp27
 70
     0
102
RTVSPropertyOp28
 70
     0
102
RTVSPropertyOp29
 70
     0
102
RTVSPropertyOp30
 70
     0
102
RTVSPropertyOp31
 70
     0
102
RTVSPropertyOp32
 70
     0
102
RTVSPropertyOp33
 70
     0
102
RTVSPropertyOp34
 70
     0
102
RTVSPropertyOp35
 70
     0
102
RTVSPropertyOp36
 70
     0
102
RTVSPropertyOp37
 70
     0
102
RTVSPropertyOp38
 70
     0
102
RTVSPropertyOp39
 70
     0
102
RTVSPropertyOp40
 70
     0
102
RTVSPropertyOp41
 70
     0
102
RTVSPropertyOp42
 70
     0
102
RTVSPropertyOp43
 70
     0
102
RTVSPropertyOp44
 70
     0
102
RTVSPropertyOp45
 70
     0
102
RTVSPropertyOp46
 70
     0
102
RTVSPropertyOp47
 70
     0
102
RTVSPropertyOp48
 70
     0
102
RTVSPropertyOp49
 70
     0
102
RTVSPropertyOp50
 70
     0
102
RTVSPropertyOp51
 70
     0
102
RTVSPropertyOp52
 70
     0
102
RTVSPropertyOp53
 70
     0
102
RTVSPropertyOp54
 70
     0
102
RTVSPropertyOp55
 70
     0
102
RTVSPropertyOp56
 70
     0
102
RTVSPropertyOp57
 70
     0
102
RTVSPost2010Prop28
280
     0
102
RTVSPost2010PropOp28
 70
     0
102
RTVSPost2010Prop29
280
     1
102
RTVSPost2010PropOp29
 70
     0
102
RTVSPost2010Prop30
280
     1
102
RTVSPost2010PropOp30
 70
     0
102
RTVSPost2010Prop31
280
     0
102
RTVSPost2010PropOp31
 70
     0
102
RTVSPost2010Prop32
280
     0
102
RTVSPost2010PropOp32
 70
     0
102
RTVSPost2010Prop33
280
     0
102
RTVSPost2010PropOp33
 70
     0
102
RTVSPost2010Prop34
280
     0
102
RTVSPost2010PropOp34
 70
     0
102
RTVSPost2010Prop35
280
     0
102
RTVSPost2010PropOp35
 70
     0
102
RTVSPost2010Prop36
280
     0
102
RTVSPost2010PropOp36
 70
     0
102
RTVSPost2010Prop37
 90
       50
102
RTVSPost2010PropOp37
 70
     0
102
RTVSPost2010Prop38
140
0.0
102
RTVSPost2010PropOp38
 70
     0
102
RTVSPost2010Prop39
140
1.0
102
RTVSPost2010PropOp39
 70
     0
102
RTVSPost2010Prop40
 90
        0
102
RTVSPost2010PropOp40
 70
     0
102
RTVSPost2010Prop41ColorIndex
 90
       18
102
RTVSPost2010Prop41ColorRGB
 90
        0
102
RTVSPost2010PropOp41
 70
     0
102
RTVSPost2010Prop42
 90
       50
102
RTVSPost2010PropOp42
 70
     0
102
RTVSPost2010Prop43
 90
        3
102
RTVSPost2010PropOp43
 70
     0
102
RTVSPost2010Prop44ColorIndex
 90
        5
102
RTVSPost2010Prop44ColorRGB
 90
      255
102
RTVSPost2010PropOp44
 70
     0
102
RTVSPost2010Prop45
280
     0
102
RTVSPost2010PropOp45
 70
     0
102
RTVSPost2010Prop46
 90
       50
102
RTVSPost2010PropOp46
 70
     0
102
RTVSPost2010Prop47
 90
       50
102
RTVSPost2010PropOp47
 70
     0
102
RTVSPost2010Prop48
 90
       50
102
RTVSPost2010PropOp48
 70
     0
102
RTVSPost2010Prop49
280
     0
102
RTVSPost2010PropOp49
 70
     0
102
RTVSPost2010Prop50
 90
       50
102
RTVSPost2010PropOp50
 70
     0
102
RTVSPost2010Prop51ColorIndex
 90
      256
102
RTVSPost2010Prop51ColorRGB
 90
-16777216
102
RTVSPost2010PropOp51
 70
     0
102
RTVSPost2010Prop52
140
1.0
102
RTVSPost2010PropOp52
 70
     0
102
RTVSPost2010Prop53
 90
        2
102
RTVSPost2010PropOp53
 70
     0
102
RTVSPost2010Prop54
  1
strokes_ogs.tif
102
RTVSPost2010PropOp54
 70
     0
102
RTVSPost2010Prop55
280
     0
102
RTVSPost2010PropOp55
 70
     0
102
RTVSPost2010Prop56
140
1.0
102
RTVSPost2010PropOp56
 70
     0
102
RTVSPost2010Prop57
140
1.0
102
RTVSPost2010PropOp57
 70
     0
  0
XRECORD
  5
1AD
102
{ACAD_REACTORS
330
1AC
102
}
330
1AC
100
AcDbXrecord
280
     1
102
RTVSPropertyOp0
 70
     1
102
RTVSPropertyOp1
 70
     1
102
RTVSPropertyOp2
 70
     1
102
RTVSPropertyOp3
 70
     1
102
RTVSPropertyOp4
 70
     1
102
RTVSPropertyOp5
 70
     1
102
RTVSPropertyOp6
 70
     1
102
RTVSPropertyOp7
 70
     1
102
RTVSPropertyOp8
 70
     1
102
RTVSPropertyOp9
 70
     1
102
RTVSPropertyOp10
 70
     1
102
RTVSPropertyOp11
 70
     1
102
RTVSPropertyOp12
 70
     1
102
RTVSPropertyOp13
 70
     1
102
RTVSPropertyOp14
 70
     1
102
RTVSPropertyOp15
 70
     1
102
RTVSPropertyOp16
 70
     1
102
RTVSPropertyOp17
 70
     1
102
RTVSPropertyOp18
 70
     1
102
RTVSPropertyOp19
 70
     1
102
RTVSPropertyOp20
 70
     1
102
RTVSPropertyOp21
 70
     1
102
RTVSPropertyOp22
 70
     1
102
RTVSPropertyOp23
 70
     1
102
RTVSPropertyOp24
 70
     1
102
RTVSPropertyOp25
 70
     1
102
RTVSPropertyOp26
 70
     1
102
RTVSPropertyOp27
 70
     1
102
RTVSPropertyOp28
 70
     1
102
RTVSPropertyOp29
 70
     1
102
RTVSPropertyOp30
 70
     1
102
RTVSPropertyOp31
 70
     1
102
RTVSPropertyOp32
 70
     1
102
RTVSPropertyOp33
 70
     1
102
RTVSPropertyOp34
 70
     1
102
RTVSPropertyOp35
 70
     1
102
RTVSPropertyOp36
 70
     1
102
RTVSPropertyOp37
 70
     1
102
RTVSPropertyOp38
 70
     1
102
RTVSPropertyOp39
 70
     1
102
RTVSPropertyOp40
 70
     1
102
RTVSPropertyOp41
 70
     1
102
RTVSPropertyOp42
 70
     1
102
RTVSPropertyOp43
 70
     1
102
RTVSPropertyOp44
 70
     1
102
RTVSPropertyOp45
 70
     1
102
RTVSPropertyOp46
 70
     1
102
RTVSPropertyOp47
 70
     1
102
RTVSPropertyOp48
 70
     1
102
RTVSPropertyOp49
 70
     1
102
RTVSPropertyOp50
 70
     1
102
RTVSPropertyOp51
 70
     0
102
RTVSPropertyOp52
 70
     0
102
RTVSPropertyOp53
 70
     1
102
RTVSPropertyOp54
 70
     1
102
RTVSPropertyOp55
 70
     1
102
RTVSPropertyOp56
 70
     1
102
RTVSPropertyOp57
 70
     1
102
RTVSPost2010Prop28
280
     0
102
RTVSPost2010PropOp28
 70
     1
102
RTVSPost2010Prop29
280
     1
102
RTVSPost2010PropOp29
 70
     1
102
RTVSPost2010Prop30
280
     1
102
RTVSPost2010PropOp30
 70
     1
102
RTVSPost2010Prop31
280
     0
102
RTVSPost2010PropOp31
 70
     1
102
RTVSPost2010Prop32
280
     0
102
RTVSPost2010PropOp32
 70
     1
102
RTVSPost2010Prop33
280
     0
102
RTVSPost2010PropOp33
 70
     1
102
RTVSPost2010Prop34
280
     0
102
RTVSPost2010PropOp34
 70
     1
102
RTVSPost2010Prop35
280
     0
102
RTVSPost2010PropOp35
 70
     1
102
RTVSPost2010Prop36
280
     0
102
RTVSPost2010PropOp36
 70
     1
102
RTVSPost2010Prop37
 90
       50
102
RTVSPost2010PropOp37
 70
     1
102
RTVSPost2010Prop38
140
0.0
102
RTVSPost2010PropOp38
 70
     1
102
RTVSPost2010Prop39
140
1.0
102
RTVSPost2010PropOp39
 70
     1
102
RTVSPost2010Prop40
 90
        0
102
RTVSPost2010PropOp40
 70
     1
102
RTVSPost2010Prop41ColorIndex
 90
       18
102
RTVSPost2010Prop41ColorRGB
 90
        0
102
RTVSPost2010PropOp41
 70
     1
102
RTVSPost2010Prop42
 90
       50
102
RTVSPost2010PropOp42
 70
     1
102
RTVSPost2010Prop43
 90
        3
102
RTVSPost2010PropOp43
 70
     1
102
RTVSPost2010Prop44ColorIndex
 90
        5
102
RTVSPost2010Prop44ColorRGB
 90
      255
102
RTVSPost2010PropOp44
 70
     1
102
RTVSPost2010Prop45
280
     0
102
RTVSPost2010PropOp45
 70
     1
102
RTVSPost2010Prop46
 90
       50
102
RTVSPost2010PropOp46
 70
     1
102
RTVSPost2010Prop47
 90
       50
102
RTVSPost2010PropOp47
 70
     1
102
RTVSPost2010Prop48
 90
       50
102
RTVSPost2010PropOp48
 70
     1
102
RTVSPost2010Prop49
280
     0
102
RTVSPost2010PropOp49
 70
     1
102
RTVSPost2010Prop50
 90
       50
102
RTVSPost2010PropOp50
 70
     1
102
RTVSPost2010Prop51ColorIndex
 90
      256
102
RTVSPost2010Prop51ColorRGB
 90
-16777216
102
RTVSPost2010PropOp51
 70
     0
102
RTVSPost2010Prop52
140
1.0
102
RTVSPost2010PropOp52
 70
     0
102
RTVSPost2010Prop53
 90
        2
102
RTVSPost2010PropOp53
 70
     1
102
RTVSPost2010Prop54
  1
strokes_ogs.tif
102
RTVSPost2010PropOp54
 70
     1
102
RTVSPost2010Prop55
280
     0
102
RTVSPost2010PropOp55
 70
     1
102
RTVSPost2010Prop56
140
1.0
102
RTVSPost2010PropOp56
 70
     1
102
RTVSPost2010Prop57
140
1.0
102
RTVSPost2010PropOp57
 70
     1
  0
XRECORD
  5
191
102
{ACAD_REACTORS
330
190
102
}
330
190
100
AcDbXrecord
280
     1
102
RTVSPropertyOp0
 70
     1
102
RTVSPropertyOp1
 70
     1
102
RTVSPropertyOp2
 70
     1
102
RTVSPropertyOp3
 70
     1
102
RTVSPropertyOp4
 70
     1
102
RTVSPropertyOp5
 70
     1
102
RTVSPropertyOp6
 70
     1
102
RTVSPropertyOp7
 70
     1
102
RTVSPropertyOp8
 70
     1
102
RTVSPropertyOp9
 70
     1
102
RTVSPropertyOp10
 70
     1
102
RTVSPropertyOp11
 70
     1
102
RTVSPropertyOp12
 70
     1
102
RTVSPropertyOp13
 70
     1
102
RTVSPropertyOp14
 70
     1
102
RTVSPropertyOp15
 70
     1
102
RTVSPropertyOp16
 70
     1
102
RTVSPropertyOp17
 70
     1
102
RTVSPropertyOp18
 70
     1
102
RTVSPropertyOp19
 70
     1
102
RTVSPropertyOp20
 70
     1
102
RTVSPropertyOp21
 70
     1
102
RTVSPropertyOp22
 70
     1
102
RTVSPropertyOp23
 70
     1
102
RTVSPropertyOp24
 70
     1
102
RTVSPropertyOp25
 70
     1
102
RTVSPropertyOp26
 70
     1
102
RTVSPropertyOp27
 70
     1
102
RTVSPropertyOp28
 70
     1
102
RTVSPropertyOp29
 70
     1
102
RTVSPropertyOp30
 70
     1
102
RTVSPropertyOp31
 70
     1
102
RTVSPropertyOp32
 70
     1
102
RTVSPropertyOp33
 70
     1
102
RTVSPropertyOp34
 70
     1
102
RTVSPropertyOp35
 70
     1
102
RTVSPropertyOp36
 70
     1
102
RTVSPropertyOp37
 70
     1
102
RTVSPropertyOp38
 70
     1
102
RTVSPropertyOp39
 70
     1
102
RTVSPropertyOp40
 70
     1
102
RTVSPropertyOp41
 70
     1
102
RTVSPropertyOp42
 70
     1
102
RTVSPropertyOp43
 70
     1
102
RTVSPropertyOp44
 70
     1
102
RTVSPropertyOp45
 70
     1
102
RTVSPropertyOp46
 70
     1
102
RTVSPropertyOp47
 70
     1
102
RTVSPropertyOp48
 70
     1
102
RTVSPropertyOp49
 70
     1
102
RTVSPropertyOp50
 70
     1
102
RTVSPropertyOp51
 70
     0
102
RTVSPropertyOp52
 70
     0
102
RTVSPropertyOp53
 70
     1
102
RTVSPropertyOp54
 70
     1
102
RTVSPropertyOp55
 70
     1
102
RTVSPropertyOp56
 70
     1
102
RTVSPropertyOp57
 70
     1
102
RTVSPost2010Prop28
280
     0
102
RTVSPost2010PropOp28
 70
     1
102
RTVSPost2010Prop29
280
     1
102
RTVSPost2010PropOp29
 70
     1
102
RTVSPost2010Prop30
280
     1
102
RTVSPost2010PropOp30
 70
     1
102
RTVSPost2010Prop31
280
     0
102
RTVSPost2010PropOp31
 70
     1
102
RTVSPost2010Prop32
280
     0
102
RTVSPost2010PropOp32
 70
     1
102
RTVSPost2010Prop33
280
     0
102
RTVSPost2010PropOp33
 70
     1
102
RTVSPost2010Prop34
280
     0
102
RTVSPost2010PropOp34
 70
     1
102
RTVSPost2010Prop35
280
     0
102
RTVSPost2010PropOp35
 70
     1
102
RTVSPost2010Prop36
280
     0
102
RTVSPost2010PropOp36
 70
     1
102
RTVSPost2010Prop37
 90
       50
102
RTVSPost2010PropOp37
 70
     1
102
RTVSPost2010Prop38
140
0.0
102
RTVSPost2010PropOp38
 70
     1
102
RTVSPost2010Prop39
140
1.0
102
RTVSPost2010PropOp39
 70
     1
102
RTVSPost2010Prop40
 90
        0
102
RTVSPost2010PropOp40
 70
     1
102
RTVSPost2010Prop41ColorIndex
 90
       18
102
RTVSPost2010Prop41ColorRGB
 90
        0
102
RTVSPost2010PropOp41
 70
     1
102
RTVSPost2010Prop42
 90
       50
102
RTVSPost2010PropOp42
 70
     1
102
RTVSPost2010Prop43
 90
        3
102
RTVSPost2010PropOp43
 70
     1
102
RTVSPost2010Prop44ColorIndex
 90
        5
102
RTVSPost2010Prop44ColorRGB
 90
      255
102
RTVSPost2010PropOp44
 70
     1
102
RTVSPost2010Prop45
280
     0
102
RTVSPost2010PropOp45
 70
     1
102
RTVSPost2010Prop46
 90
       50
102
RTVSPost2010PropOp46
 70
     1
102
RTVSPost2010Prop47
 90
       50
102
RTVSPost2010PropOp47
 70
     1
102
RTVSPost2010Prop48
 90
       50
102
RTVSPost2010PropOp48
 70
     1
102
RTVSPost2010Prop49
280
     0
102
RTVSPost2010PropOp49
 70
     1
102
RTVSPost2010Prop50
 90
       50
102
RTVSPost2010PropOp50
 70
     1
102
RTVSPost2010Prop51ColorIndex
 90
      256
102
RTVSPost2010Prop51ColorRGB
 90
-16777216
102
RTVSPost2010PropOp51
 70
     0
102
RTVSPost2010Prop52
140
1.0
102
RTVSPost2010PropOp52
 70
     0
102
RTVSPost2010Prop53
 90
        2
102
RTVSPost2010PropOp53
 70
     1
102
RTVSPost2010Prop54
  1
strokes_ogs.tif
102
RTVSPost2010PropOp54
 70
     1
102
RTVSPost2010Prop55
280
     0
102
RTVSPost2010PropOp55
 70
     1
102
RTVSPost2010Prop56
140
1.0
102
RTVSPost2010PropOp56
 70
     1
102
RTVSPost2010Prop57
140
1.0
102
RTVSPost2010PropOp57
 70
     1
  0
XRECORD
  5
193
102
{ACAD_REACTORS
330
192
102
}
330
192
100
AcDbXrecord
280
     1
102
RTVSPropertyOp0
 70
     1
102
RTVSPropertyOp1
 70
     1
102
RTVSPropertyOp2
 70
     1
102
RTVSPropertyOp3
 70
     1
102
RTVSPropertyOp4
 70
     1
102
RTVSPropertyOp5
 70
     1
102
RTVSPropertyOp6
 70
     1
102
RTVSPropertyOp7
 70
     1
102
RTVSPropertyOp8
 70
     1
102
RTVSPropertyOp9
 70
     1
102
RTVSPropertyOp10
 70
     1
102
RTVSPropertyOp11
 70
     1
102
RTVSPropertyOp12
 70
     1
102
RTVSPropertyOp13
 70
     1
102
RTVSPropertyOp14
 70
     1
102
RTVSPropertyOp15
 70
     1
102
RTVSPropertyOp16
 70
     1
102
RTVSPropertyOp17
 70
     1
102
RTVSPropertyOp18
 70
     1
102
RTVSPropertyOp19
 70
     1
102
RTVSPropertyOp20
 70
     1
102
RTVSPropertyOp21
 70
     1
102
RTVSPropertyOp22
 70
     1
102
RTVSPropertyOp23
 70
     1
102
RTVSPropertyOp24
 70
     1
102
RTVSPropertyOp25
 70
     1
102
RTVSPropertyOp26
 70
     1
102
RTVSPropertyOp27
 70
     1
102
RTVSPropertyOp28
 70
     1
102
RTVSPropertyOp29
 70
     1
102
RTVSPropertyOp30
 70
     1
102
RTVSPropertyOp31
 70
     1
102
RTVSPropertyOp32
 70
     1
102
RTVSPropertyOp33
 70
     1
102
RTVSPropertyOp34
 70
     1
102
RTVSPropertyOp35
 70
     1
102
RTVSPropertyOp36
 70
     1
102
RTVSPropertyOp37
 70
     1
102
RTVSPropertyOp38
 70
     1
102
RTVSPropertyOp39
 70
     1
102
RTVSPropertyOp40
 70
     1
102
RTVSPropertyOp41
 70
     1
102
RTVSPropertyOp42
 70
     1
102
RTVSPropertyOp43
 70
     1
102
RTVSPropertyOp44
 70
     1
102
RTVSPropertyOp45
 70
     1
102
RTVSPropertyOp46
 70
     1
102
RTVSPropertyOp47
 70
     1
102
RTVSPropertyOp48
 70
     1
102
RTVSPropertyOp49
 70
     1
102
RTVSPropertyOp50
 70
     1
102
RTVSPropertyOp51
 70
     0
102
RTVSPropertyOp52
 70
     0
102
RTVSPropertyOp53
 70
     1
102
RTVSPropertyOp54
 70
     1
102
RTVSPropertyOp55
 70
     1
102
RTVSPropertyOp56
 70
     1
102
RTVSPropertyOp57
 70
     1
102
RTVSPost2010Prop28
280
     0
102
RTVSPost2010PropOp28
 70
     1
102
RTVSPost2010Prop29
280
     1
102
RTVSPost2010PropOp29
 70
     1
102
RTVSPost2010Prop30
280
     1
102
RTVSPost2010PropOp30
 70
     1
102
RTVSPost2010Prop31
280
     0
102
RTVSPost2010PropOp31
 70
     1
102
RTVSPost2010Prop32
280
     0
102
RTVSPost2010PropOp32
 70
     1
102
RTVSPost2010Prop33
280
     0
102
RTVSPost2010PropOp33
 70
     1
102
RTVSPost2010Prop34
280
     0
102
RTVSPost2010PropOp34
 70
     1
102
RTVSPost2010Prop35
280
     0
102
RTVSPost2010PropOp35
 70
     1
102
RTVSPost2010Prop36
280
     0
102
RTVSPost2010PropOp36
 70
     1
102
RTVSPost2010Prop37
 90
       50
102
RTVSPost2010PropOp37
 70
     1
102
RTVSPost2010Prop38
140
0.0
102
RTVSPost2010PropOp38
 70
     1
102
RTVSPost2010Prop39
140
1.0
102
RTVSPost2010PropOp39
 70
     1
102
RTVSPost2010Prop40
 90
        0
102
RTVSPost2010PropOp40
 70
     1
102
RTVSPost2010Prop41ColorIndex
 90
       18
102
RTVSPost2010Prop41ColorRGB
 90
        0
102
RTVSPost2010PropOp41
 70
     1
102
RTVSPost2010Prop42
 90
       50
102
RTVSPost2010PropOp42
 70
     1
102
RTVSPost2010Prop43
 90
        3
102
RTVSPost2010PropOp43
 70
     1
102
RTVSPost2010Prop44ColorIndex
 90
        5
102
RTVSPost2010Prop44ColorRGB
 90
      255
102
RTVSPost2010PropOp44
 70
     1
102
RTVSPost2010Prop45
280
     0
102
RTVSPost2010PropOp45
 70
     1
102
RTVSPost2010Prop46
 90
       50
102
RTVSPost2010PropOp46
 70
     1
102
RTVSPost2010Prop47
 90
       50
102
RTVSPost2010PropOp47
 70
     1
102
RTVSPost2010Prop48
 90
       50
102
RTVSPost2010PropOp48
 70
     1
102
RTVSPost2010Prop49
280
     0
102
RTVSPost2010PropOp49
 70
     1
102
RTVSPost2010Prop50
 90
       50
102
RTVSPost2010PropOp50
 70
     1
102
RTVSPost2010Prop51ColorIndex
 90
      256
102
RTVSPost2010Prop51ColorRGB
 90
-16777216
102
RTVSPost2010PropOp51
 70
     0
102
RTVSPost2010Prop52
140
1.0
102
RTVSPost2010PropOp52
 70
     0
102
RTVSPost2010Prop53
 90
        2
102
RTVSPost2010PropOp53
 70
     1
102
RTVSPost2010Prop54
  1
strokes_ogs.tif
102
RTVSPost2010PropOp54
 70
     1
102
RTVSPost2010Prop55
280
     0
102
RTVSPost2010PropOp55
 70
     1
102
RTVSPost2010Prop56
140
1.0
102
RTVSPost2010PropOp56
 70
     1
102
RTVSPost2010Prop57
140
1.0
102
RTVSPost2010PropOp57
 70
     1
  0
XRECORD
  5
195
102
{ACAD_REACTORS
330
194
102
}
330
194
100
AcDbXrecord
280
     1
102
RTVSPropertyOp0
 70
     1
102
RTVSPropertyOp1
 70
     1
102
RTVSPropertyOp2
 70
     1
102
RTVSPropertyOp3
 70
     1
102
RTVSPropertyOp4
 70
     1
102
RTVSPropertyOp5
 70
     1
102
RTVSPropertyOp6
 70
     1
102
RTVSPropertyOp7
 70
     1
102
RTVSPropertyOp8
 70
     1
102
RTVSPropertyOp9
 70
     1
102
RTVSPropertyOp10
 70
     1
102
RTVSPropertyOp11
 70
     1
102
RTVSPropertyOp12
 70
     1
102
RTVSPropertyOp13
 70
     1
102
RTVSPropertyOp14
 70
     1
102
RTVSPropertyOp15
 70
     1
102
RTVSPropertyOp16
 70
     1
102
RTVSPropertyOp17
 70
     1
102
RTVSPropertyOp18
 70
     1
102
RTVSPropertyOp19
 70
     1
102
RTVSPropertyOp20
 70
     1
102
RTVSPropertyOp21
 70
     1
102
RTVSPropertyOp22
 70
     1
102
RTVSPropertyOp23
 70
     1
102
RTVSPropertyOp24
 70
     1
102
RTVSPropertyOp25
 70
     1
102
RTVSPropertyOp26
 70
     1
102
RTVSPropertyOp27
 70
     1
102
RTVSPropertyOp28
 70
     1
102
RTVSPropertyOp29
 70
     1
102
RTVSPropertyOp30
 70
     1
102
RTVSPropertyOp31
 70
     1
102
RTVSPropertyOp32
 70
     1
102
RTVSPropertyOp33
 70
     1
102
RTVSPropertyOp34
 70
     1
102
RTVSPropertyOp35
 70
     1
102
RTVSPropertyOp36
 70
     1
102
RTVSPropertyOp37
 70
     1
102
RTVSPropertyOp38
 70
     1
102
RTVSPropertyOp39
 70
     1
102
RTVSPropertyOp40
 70
     1
102
RTVSPropertyOp41
 70
     1
102
RTVSPropertyOp42
 70
     1
102
RTVSPropertyOp43
 70
     1
102
RTVSPropertyOp44
 70
     1
102
RTVSPropertyOp45
 70
     1
102
RTVSPropertyOp46
 70
     1
102
RTVSPropertyOp47
 70
     1
102
RTVSPropertyOp48
 70
     1
102
RTVSPropertyOp49
 70
     1
102
RTVSPropertyOp50
 70
     1
102
RTVSPropertyOp51
 70
     0
102
RTVSPropertyOp52
 70
     0
102
RTVSPropertyOp53
 70
     1
102
RTVSPropertyOp54
 70
     1
102
RTVSPropertyOp55
 70
     1
102
RTVSPropertyOp56
 70
     1
102
RTVSPropertyOp57
 70
     1
102
RTVSPost2010Prop28
280
     0
102
RTVSPost2010PropOp28
 70
     1
102
RTVSPost2010Prop29
280
     1
102
RTVSPost2010PropOp29
 70
     1
102
RTVSPost2010Prop30
280
     1
102
RTVSPost2010PropOp30
 70
     1
102
RTVSPost2010Prop31
280
     0
102
RTVSPost2010PropOp31
 70
     1
102
RTVSPost2010Prop32
280
     0
102
RTVSPost2010PropOp32
 70
     1
102
RTVSPost2010Prop33
280
     0
102
RTVSPost2010PropOp33
 70
     1
102
RTVSPost2010Prop34
280
     0
102
RTVSPost2010PropOp34
 70
     1
102
RTVSPost2010Prop35
280
     0
102
RTVSPost2010PropOp35
 70
     1
102
RTVSPost2010Prop36
280
     0
102
RTVSPost2010PropOp36
 70
     1
102
RTVSPost2010Prop37
 90
       50
102
RTVSPost2010PropOp37
 70
     1
102
RTVSPost2010Prop38
140
0.0
102
RTVSPost2010PropOp38
 70
     1
102
RTVSPost2010Prop39
140
1.0
102
RTVSPost2010PropOp39
 70
     1
102
RTVSPost2010Prop40
 90
        0
102
RTVSPost2010PropOp40
 70
     1
102
RTVSPost2010Prop41ColorIndex
 90
       18
102
RTVSPost2010Prop41ColorRGB
 90
        0
102
RTVSPost2010PropOp41
 70
     1
102
RTVSPost2010Prop42
 90
       50
102
RTVSPost2010PropOp42
 70
     1
102
RTVSPost2010Prop43
 90
        3
102
RTVSPost2010PropOp43
 70
     1
102
RTVSPost2010Prop44ColorIndex
 90
        5
102
RTVSPost2010Prop44ColorRGB
 90
      255
102
RTVSPost2010PropOp44
 70
     1
102
RTVSPost2010Prop45
280
     0
102
RTVSPost2010PropOp45
 70
     1
102
RTVSPost2010Prop46
 90
       50
102
RTVSPost2010PropOp46
 70
     1
102
RTVSPost2010Prop47
 90
       50
102
RTVSPost2010PropOp47
 70
     1
102
RTVSPost2010Prop48
 90
       50
102
RTVSPost2010PropOp48
 70
     1
102
RTVSPost2010Prop49
280
     0
102
RTVSPost2010PropOp49
 70
     1
102
RTVSPost2010Prop50
 90
       50
102
RTVSPost2010PropOp50
 70
     1
102
RTVSPost2010Prop51ColorIndex
 90
      256
102
RTVSPost2010Prop51ColorRGB
 90
-16777216
102
RTVSPost2010PropOp51
 70
     0
102
RTVSPost2010Prop52
140
1.0
102
RTVSPost2010PropOp52
 70
     0
102
RTVSPost2010Prop53
 90
        2
102
RTVSPost2010PropOp53
 70
     1
102
RTVSPost2010Prop54
  1
strokes_ogs.tif
102
RTVSPost2010PropOp54
 70
     1
102
RTVSPost2010Prop55
280
     0
102
RTVSPost2010PropOp55
 70
     1
102
RTVSPost2010Prop56
140
1.0
102
RTVSPost2010PropOp56
 70
     1
102
RTVSPost2010Prop57
140
1.0
102
RTVSPost2010PropOp57
 70
     1
  0
XRECORD
  5
197
102
{ACAD_REACTORS
330
196
102
}
330
196
100
AcDbXrecord
280
     1
102
RTVSPropertyOp0
 70
     1
102
RTVSPropertyOp1
 70
     1
102
RTVSPropertyOp2
 70
     1
102
RTVSPropertyOp3
 70
     1
102
RTVSPropertyOp4
 70
     1
102
RTVSPropertyOp5
 70
     1
102
RTVSPropertyOp6
 70
     1
102
RTVSPropertyOp7
 70
     1
102
RTVSPropertyOp8
 70
     1
102
RTVSPropertyOp9
 70
     1
102
RTVSPropertyOp10
 70
     1
102
RTVSPropertyOp11
 70
     1
102
RTVSPropertyOp12
 70
     1
102
RTVSPropertyOp13
 70
     1
102
RTVSPropertyOp14
 70
     1
102
RTVSPropertyOp15
 70
     1
102
RTVSPropertyOp16
 70
     1
102
RTVSPropertyOp17
 70
     1
102
RTVSPropertyOp18
 70
     1
102
RTVSPropertyOp19
 70
     1
102
RTVSPropertyOp20
 70
     1
102
RTVSPropertyOp21
 70
     1
102
RTVSPropertyOp22
 70
     1
102
RTVSPropertyOp23
 70
     1
102
RTVSPropertyOp24
 70
     1
102
RTVSPropertyOp25
 70
     1
102
RTVSPropertyOp26
 70
     1
102
RTVSPropertyOp27
 70
     1
102
RTVSPropertyOp28
 70
     1
102
RTVSPropertyOp29
 70
     1
102
RTVSPropertyOp30
 70
     1
102
RTVSPropertyOp31
 70
     1
102
RTVSPropertyOp32
 70
     1
102
RTVSPropertyOp33
 70
     1
102
RTVSPropertyOp34
 70
     1
102
RTVSPropertyOp35
 70
     1
102
RTVSPropertyOp36
 70
     1
102
RTVSPropertyOp37
 70
     1
102
RTVSPropertyOp38
 70
     1
102
RTVSPropertyOp39
 70
     1
102
RTVSPropertyOp40
 70
     1
102
RTVSPropertyOp41
 70
     1
102
RTVSPropertyOp42
 70
     1
102
RTVSPropertyOp43
 70
     1
102
RTVSPropertyOp44
 70
     1
102
RTVSPropertyOp45
 70
     1
102
RTVSPropertyOp46
 70
     1
102
RTVSPropertyOp47
 70
     1
102
RTVSPropertyOp48
 70
     1
102
RTVSPropertyOp49
 70
     1
102
RTVSPropertyOp50
 70
     1
102
RTVSPropertyOp51
 70
     0
102
RTVSPropertyOp52
 70
     0
102
RTVSPropertyOp53
 70
     1
102
RTVSPropertyOp54
 70
     1
102
RTVSPropertyOp55
 70
     1
102
RTVSPropertyOp56
 70
     1
102
RTVSPropertyOp57
 70
     1
102
RTVSPost2010Prop28
280
     0
102
RTVSPost2010PropOp28
 70
     1
102
RTVSPost2010Prop29
280
     1
102
RTVSPost2010PropOp29
 70
     1
102
RTVSPost2010Prop30
280
     1
102
RTVSPost2010PropOp30
 70
     1
102
RTVSPost2010Prop31
280
     0
102
RTVSPost2010PropOp31
 70
     1
102
RTVSPost2010Prop32
280
     0
102
RTVSPost2010PropOp32
 70
     1
102
RTVSPost2010Prop33
280
     0
102
RTVSPost2010PropOp33
 70
     1
102
RTVSPost2010Prop34
280
     0
102
RTVSPost2010PropOp34
 70
     1
102
RTVSPost2010Prop35
280
     0
102
RTVSPost2010PropOp35
 70
     1
102
RTVSPost2010Prop36
280
     0
102
RTVSPost2010PropOp36
 70
     1
102
RTVSPost2010Prop37
 90
       50
102
RTVSPost2010PropOp37
 70
     1
102
RTVSPost2010Prop38
140
0.0
102
RTVSPost2010PropOp38
 70
     1
102
RTVSPost2010Prop39
140
1.0
102
RTVSPost2010PropOp39
 70
     1
102
RTVSPost2010Prop40
 90
        0
102
RTVSPost2010PropOp40
 70
     1
102
RTVSPost2010Prop41ColorIndex
 90
       18
102
RTVSPost2010Prop41ColorRGB
 90
        0
102
RTVSPost2010PropOp41
 70
     1
102
RTVSPost2010Prop42
 90
       50
102
RTVSPost2010PropOp42
 70
     1
102
RTVSPost2010Prop43
 90
        3
102
RTVSPost2010PropOp43
 70
     1
102
RTVSPost2010Prop44ColorIndex
 90
        5
102
RTVSPost2010Prop44ColorRGB
 90
      255
102
RTVSPost2010PropOp44
 70
     1
102
RTVSPost2010Prop45
280
     0
102
RTVSPost2010PropOp45
 70
     1
102
RTVSPost2010Prop46
 90
       50
102
RTVSPost2010PropOp46
 70
     1
102
RTVSPost2010Prop47
 90
       50
102
RTVSPost2010PropOp47
 70
     1
102
RTVSPost2010Prop48
 90
       50
102
RTVSPost2010PropOp48
 70
     1
102
RTVSPost2010Prop49
280
     0
102
RTVSPost2010PropOp49
 70
     1
102
RTVSPost2010Prop50
 90
       50
102
RTVSPost2010PropOp50
 70
     1
102
RTVSPost2010Prop51ColorIndex
 90
      256
102
RTVSPost2010Prop51ColorRGB
 90
-16777216
102
RTVSPost2010PropOp51
 70
     0
102
RTVSPost2010Prop52
140
1.0
102
RTVSPost2010PropOp52
 70
     0
102
RTVSPost2010Prop53
 90
        2
102
RTVSPost2010PropOp53
 70
     1
102
RTVSPost2010Prop54
  1
strokes_ogs.tif
102
RTVSPost2010PropOp54
 70
     1
102
RTVSPost2010Prop55
280
     0
102
RTVSPost2010PropOp55
 70
     1
102
RTVSPost2010Prop56
140
1.0
102
RTVSPost2010PropOp56
 70
     1
102
RTVSPost2010Prop57
140
1.0
102
RTVSPost2010PropOp57
 70
     1
  0
XRECORD
  5
19D
102
{ACAD_REACTORS
330
19C
102
}
330
19C
100
AcDbXrecord
280
     1
102
RTVSPropertyOp0
 70
     1
102
RTVSPropertyOp1
 70
     1
102
RTVSPropertyOp2
 70
     1
102
RTVSPropertyOp3
 70
     1
102
RTVSPropertyOp4
 70
     1
102
RTVSPropertyOp5
 70
     1
102
RTVSPropertyOp6
 70
     1
102
RTVSPropertyOp7
 70
     1
102
RTVSPropertyOp8
 70
     1
102
RTVSPropertyOp9
 70
     1
102
RTVSPropertyOp10
 70
     1
102
RTVSPropertyOp11
 70
     1
102
RTVSPropertyOp12
 70
     1
102
RTVSPropertyOp13
 70
     1
102
RTVSPropertyOp14
 70
     1
102
RTVSPropertyOp15
 70
     1
102
RTVSPropertyOp16
 70
     1
102
RTVSPropertyOp17
 70
     1
102
RTVSPropertyOp18
 70
     1
102
RTVSPropertyOp19
 70
     1
102
RTVSPropertyOp20
 70
     1
102
RTVSPropertyOp21
 70
     1
102
RTVSPropertyOp22
 70
     1
102
RTVSPropertyOp23
 70
     1
102
RTVSPropertyOp24
 70
     1
102
RTVSPropertyOp25
 70
     1
102
RTVSPropertyOp26
 70
     1
102
RTVSPropertyOp27
 70
     1
102
RTVSPropertyOp28
 70
     1
102
RTVSPropertyOp29
 70
     1
102
RTVSPropertyOp30
 70
     1
102
RTVSPropertyOp31
 70
     1
102
RTVSPropertyOp32
 70
     1
102
RTVSPropertyOp33
 70
     1
102
RTVSPropertyOp34
 70
     1
102
RTVSPropertyOp35
 70
     1
102
RTVSPropertyOp36
 70
     1
102
RTVSPropertyOp37
 70
     1
102
RTVSPropertyOp38
 70
     1
102
RTVSPropertyOp39
 70
     1
102
RTVSPropertyOp40
 70
     1
102
RTVSPropertyOp41
 70
     1
102
RTVSPropertyOp42
 70
     1
102
RTVSPropertyOp43
 70
     1
102
RTVSPropertyOp44
 70
     1
102
RTVSPropertyOp45
 70
     1
102
RTVSPropertyOp46
 70
     1
102
RTVSPropertyOp47
 70
     1
102
RTVSPropertyOp48
 70
     1
102
RTVSPropertyOp49
 70
     1
102
RTVSPropertyOp50
 70
     1
102
RTVSPropertyOp51
 70
     0
102
RTVSPropertyOp52
 70
     0
102
RTVSPropertyOp53
 70
     1
102
RTVSPropertyOp54
 70
     1
102
RTVSPropertyOp55
 70
     1
102
RTVSPropertyOp56
 70
     1
102
RTVSPropertyOp57
 70
     1
102
RTVSPost2010Prop28
280
     0
102
RTVSPost2010PropOp28
 70
     1
102
RTVSPost2010Prop29
280
     1
102
RTVSPost2010PropOp29
 70
     1
102
RTVSPost2010Prop30
280
     1
102
RTVSPost2010PropOp30
 70
     1
102
RTVSPost2010Prop31
280
     0
102
RTVSPost2010PropOp31
 70
     1
102
RTVSPost2010Prop32
280
     0
102
RTVSPost2010PropOp32
 70
     1
102
RTVSPost2010Prop33
280
     0
102
RTVSPost2010PropOp33
 70
     1
102
RTVSPost2010Prop34
280
     0
102
RTVSPost2010PropOp34
 70
     1
102
RTVSPost2010Prop35
280
     0
102
RTVSPost2010PropOp35
 70
     1
102
RTVSPost2010Prop36
280
     0
102
RTVSPost2010PropOp36
 70
     1
102
RTVSPost2010Prop37
 90
       50
102
RTVSPost2010PropOp37
 70
     1
102
RTVSPost2010Prop38
140
0.0
102
RTVSPost2010PropOp38
 70
     1
102
RTVSPost2010Prop39
140
1.0
102
RTVSPost2010PropOp39
 70
     1
102
RTVSPost2010Prop40
 90
        0
102
RTVSPost2010PropOp40
 70
     1
102
RTVSPost2010Prop41ColorIndex
 90
       18
102
RTVSPost2010Prop41ColorRGB
 90
        0
102
RTVSPost2010PropOp41
 70
     1
102
RTVSPost2010Prop42
 90
       50
102
RTVSPost2010PropOp42
 70
     1
102
RTVSPost2010Prop43
 90
        3
102
RTVSPost2010PropOp43
 70
     1
102
RTVSPost2010Prop44ColorIndex
 90
        5
102
RTVSPost2010Prop44ColorRGB
 90
      255
102
RTVSPost2010PropOp44
 70
     1
102
RTVSPost2010Prop45
280
     0
102
RTVSPost2010PropOp45
 70
     1
102
RTVSPost2010Prop46
 90
       50
102
RTVSPost2010PropOp46
 70
     1
102
RTVSPost2010Prop47
 90
       50
102
RTVSPost2010PropOp47
 70
     1
102
RTVSPost2010Prop48
 90
       50
102
RTVSPost2010PropOp48
 70
     1
102
RTVSPost2010Prop49
280
     0
102
RTVSPost2010PropOp49
 70
     1
102
RTVSPost2010Prop50
 90
       50
102
RTVSPost2010PropOp50
 70
     1
102
RTVSPost2010Prop51ColorIndex
 90
      256
102
RTVSPost2010Prop51ColorRGB
 90
-16777216
102
RTVSPost2010PropOp51
 70
     0
102
RTVSPost2010Prop52
140
1.0
102
RTVSPost2010PropOp52
 70
     0
102
RTVSPost2010Prop53
 90
        2
102
RTVSPost2010PropOp53
 70
     1
102
RTVSPost2010Prop54
  1
strokes_ogs.tif
102
RTVSPost2010PropOp54
 70
     1
102
RTVSPost2010Prop55
280
     0
102
RTVSPost2010PropOp55
 70
     1
102
RTVSPost2010Prop56
140
1.0
102
RTVSPost2010PropOp56
 70
     1
102
RTVSPost2010Prop57
140
1.0
102
RTVSPost2010PropOp57
 70
     1
  0
XRECORD
  5
1B1
102
{ACAD_REACTORS
330
1B0
102
}
330
1B0
100
AcDbXrecord
280
     1
102
RTVSPropertyOp0
 70
     0
102
RTVSPropertyOp1
 70
     0
102
RTVSPropertyOp2
 70
     0
102
RTVSPropertyOp3
 70
     0
102
RTVSPropertyOp4
 70
     0
102
RTVSPropertyOp5
 70
     0
102
RTVSPropertyOp6
 70
     0
102
RTVSPropertyOp7
 70
     0
102
RTVSPropertyOp8
 70
     0
102
RTVSPropertyOp9
 70
     0
102
RTVSPropertyOp10
 70
     0
102
RTVSPropertyOp11
 70
     0
102
RTVSPropertyOp12
 70
     0
102
RTVSPropertyOp13
 70
     0
102
RTVSPropertyOp14
 70
     2
102
RTVSPropertyOp15
 70
     0
102
RTVSPropertyOp16
 70
     0
102
RTVSPropertyOp17
 70
     0
102
RTVSPropertyOp18
 70
     0
102
RTVSPropertyOp19
 70
     0
102
RTVSPropertyOp20
 70
     0
102
RTVSPropertyOp21
 70
     0
102
RTVSPropertyOp22
 70
     0
102
RTVSPropertyOp23
 70
     0
102
RTVSPropertyOp24
 70
     0
102
RTVSPropertyOp25
 70
     0
102
RTVSPropertyOp26
 70
     0
102
RTVSPropertyOp27
 70
     0
102
RTVSPropertyOp28
 70
     0
102
RTVSPropertyOp29
 70
     0
102
RTVSPropertyOp30
 70
     0
102
RTVSPropertyOp31
 70
     0
102
RTVSPropertyOp32
 70
     0
102
RTVSPropertyOp33
 70
     0
102
RTVSPropertyOp34
 70
     0
102
RTVSPropertyOp35
 70
     0
102
RTVSPropertyOp36
 70
     0
102
RTVSPropertyOp37
 70
     0
102
RTVSPropertyOp38
 70
     0
102
RTVSPropertyOp39
 70
     0
102
RTVSPropertyOp40
 70
     0
102
RTVSPropertyOp41
 70
     0
102
RTVSPropertyOp42
 70
     0
102
RTVSPropertyOp43
 70
     0
102
RTVSPropertyOp44
 70
     0
102
RTVSPropertyOp45
 70
     0
102
RTVSPropertyOp46
 70
     0
102
RTVSPropertyOp47
 70
     0
102
RTVSPropertyOp48
 70
     0
102
RTVSPropertyOp49
 70
     0
102
RTVSPropertyOp50
 70
     0
102
RTVSPropertyOp51
 70
     0
102
RTVSPropertyOp52
 70
     0
102
RTVSPropertyOp53
 70
     0
102
RTVSPropertyOp54
 70
     0
102
RTVSPropertyOp55
 70
     0
102
RTVSPropertyOp56
 70
     0
102
RTVSPropertyOp57
 70
     0
102
RTVSPost2010Prop28
280
     0
102
RTVSPost2010PropOp28
 70
     0
102
RTVSPost2010Prop29
280
     1
102
RTVSPost2010PropOp29
 70
     0
102
RTVSPost2010Prop30
280
     1
102
RTVSPost2010PropOp30
 70
     0
102
RTVSPost2010Prop31
280
     0
102
RTVSPost2010PropOp31
 70
     0
102
RTVSPost2010Prop32
280
     0
102
RTVSPost2010PropOp32
 70
     0
102
RTVSPost2010Prop33
280
     0
102
RTVSPost2010PropOp33
 70
     0
102
RTVSPost2010Prop34
280
     0
102
RTVSPost2010PropOp34
 70
     0
102
RTVSPost2010Prop35
280
     0
102
RTVSPost2010PropOp35
 70
     0
102
RTVSPost2010Prop36
280
     0
102
RTVSPost2010PropOp36
 70
     0
102
RTVSPost2010Prop37
 90
       50
102
RTVSPost2010PropOp37
 70
     0
102
RTVSPost2010Prop38
140
0.0
102
RTVSPost2010PropOp38
 70
     0
102
RTVSPost2010Prop39
140
1.0
102
RTVSPost2010PropOp39
 70
     0
102
RTVSPost2010Prop40
 90
        0
102
RTVSPost2010PropOp40
 70
     0
102
RTVSPost2010Prop41ColorIndex
 90
       18
102
RTVSPost2010Prop41ColorRGB
 90
        0
102
RTVSPost2010PropOp41
 70
     0
102
RTVSPost2010Prop42
 90
       50
102
RTVSPost2010PropOp42
 70
     0
102
RTVSPost2010Prop43
 90
        3
102
RTVSPost2010PropOp43
 70
     0
102
RTVSPost2010Prop44ColorIndex
 90
        5
102
RTVSPost2010Prop44ColorRGB
 90
      255
102
RTVSPost2010PropOp44
 70
     0
102
RTVSPost2010Prop45
280
     0
102
RTVSPost2010PropOp45
 70
     0
102
RTVSPost2010Prop46
 90
       50
102
RTVSPost2010PropOp46
 70
     0
102
RTVSPost2010Prop47
 90
       50
102
RTVSPost2010PropOp47
 70
     0
102
RTVSPost2010Prop48
 90
       50
102
RTVSPost2010PropOp48
 70
     0
102
RTVSPost2010Prop49
280
     0
102
RTVSPost2010PropOp49
 70
     0
102
RTVSPost2010Prop50
 90
       50
102
RTVSPost2010PropOp50
 70
     0
102
RTVSPost2010Prop51ColorIndex
 90
      256
102
RTVSPost2010Prop51ColorRGB
 90
-16777216
102
RTVSPost2010PropOp51
 70
     0
102
RTVSPost2010Prop52
140
1.0
102
RTVSPost2010PropOp52
 70
     0
102
RTVSPost2010Prop53
 90
        2
102
RTVSPost2010PropOp53
 70
     0
102
RTVSPost2010Prop54
  1
strokes_ogs.tif
102
RTVSPost2010PropOp54
 70
     0
102
RTVSPost2010Prop55
280
     0
102
RTVSPost2010PropOp55
 70
     0
102
RTVSPost2010Prop56
140
1.0
102
RTVSPost2010PropOp56
 70
     0
102
RTVSPost2010Prop57
140
1.0
102
RTVSPost2010PropOp57
 70
     0
  0
XRECORD
  5
1AB
102
{ACAD_REACTORS
330
1AA
102
}
330
1AA
100
AcDbXrecord
280
     1
102
RTVSPropertyOp0
 70
     1
102
RTVSPropertyOp1
 70
     1
102
RTVSPropertyOp2
 70
     1
102
RTVSPropertyOp3
 70
     1
102
RTVSPropertyOp4
 70
     1
102
RTVSPropertyOp5
 70
     1
102
RTVSPropertyOp6
 70
     1
102
RTVSPropertyOp7
 70
     1
102
RTVSPropertyOp8
 70
     1
102
RTVSPropertyOp9
 70
     1
102
RTVSPropertyOp10
 70
     1
102
RTVSPropertyOp11
 70
     1
102
RTVSPropertyOp12
 70
     1
102
RTVSPropertyOp13
 70
     1
102
RTVSPropertyOp14
 70
     1
102
RTVSPropertyOp15
 70
     1
102
RTVSPropertyOp16
 70
     1
102
RTVSPropertyOp17
 70
     1
102
RTVSPropertyOp18
 70
     1
102
RTVSPropertyOp19
 70
     1
102
RTVSPropertyOp20
 70
     1
102
RTVSPropertyOp21
 70
     1
102
RTVSPropertyOp22
 70
     1
102
RTVSPropertyOp23
 70
     1
102
RTVSPropertyOp24
 70
     1
102
RTVSPropertyOp25
 70
     1
102
RTVSPropertyOp26
 70
     1
102
RTVSPropertyOp27
 70
     1
102
RTVSPropertyOp28
 70
     1
102
RTVSPropertyOp29
 70
     1
102
RTVSPropertyOp30
 70
     1
102
RTVSPropertyOp31
 70
     1
102
RTVSPropertyOp32
 70
     1
102
RTVSPropertyOp33
 70
     1
102
RTVSPropertyOp34
 70
     1
102
RTVSPropertyOp35
 70
     1
102
RTVSPropertyOp36
 70
     1
102
RTVSPropertyOp37
 70
     1
102
RTVSPropertyOp38
 70
     1
102
RTVSPropertyOp39
 70
     1
102
RTVSPropertyOp40
 70
     1
102
RTVSPropertyOp41
 70
     1
102
RTVSPropertyOp42
 70
     1
102
RTVSPropertyOp43
 70
     1
102
RTVSPropertyOp44
 70
     1
102
RTVSPropertyOp45
 70
     1
102
RTVSPropertyOp46
 70
     1
102
RTVSPropertyOp47
 70
     1
102
RTVSPropertyOp48
 70
     1
102
RTVSPropertyOp49
 70
     1
102
RTVSPropertyOp50
 70
     1
102
RTVSPropertyOp51
 70
     0
102
RTVSPropertyOp52
 70
     0
102
RTVSPropertyOp53
 70
     1
102
RTVSPropertyOp54
 70
     1
102
RTVSPropertyOp55
 70
     1
102
RTVSPropertyOp56
 70
     1
102
RTVSPropertyOp57
 70
     1
102
RTVSPost2010Prop28
280
     0
102
RTVSPost2010PropOp28
 70
     1
102
RTVSPost2010Prop29
280
     1
102
RTVSPost2010PropOp29
 70
     1
102
RTVSPost2010Prop30
280
     1
102
RTVSPost2010PropOp30
 70
     1
102
RTVSPost2010Prop31
280
     0
102
RTVSPost2010PropOp31
 70
     1
102
RTVSPost2010Prop32
280
     0
102
RTVSPost2010PropOp32
 70
     1
102
RTVSPost2010Prop33
280
     0
102
RTVSPost2010PropOp33
 70
     1
102
RTVSPost2010Prop34
280
     0
102
RTVSPost2010PropOp34
 70
     1
102
RTVSPost2010Prop35
280
     0
102
RTVSPost2010PropOp35
 70
     1
102
RTVSPost2010Prop36
280
     0
102
RTVSPost2010PropOp36
 70
     1
102
RTVSPost2010Prop37
 90
       50
102
RTVSPost2010PropOp37
 70
     1
102
RTVSPost2010Prop38
140
0.0
102
RTVSPost2010PropOp38
 70
     1
102
RTVSPost2010Prop39
140
1.0
102
RTVSPost2010PropOp39
 70
     1
102
RTVSPost2010Prop40
 90
        0
102
RTVSPost2010PropOp40
 70
     1
102
RTVSPost2010Prop41ColorIndex
 90
       18
102
RTVSPost2010Prop41ColorRGB
 90
        0
102
RTVSPost2010PropOp41
 70
     1
102
RTVSPost2010Prop42
 90
       50
102
RTVSPost2010PropOp42
 70
     1
102
RTVSPost2010Prop43
 90
        3
102
RTVSPost2010PropOp43
 70
     1
102
RTVSPost2010Prop44ColorIndex
 90
        5
102
RTVSPost2010Prop44ColorRGB
 90
      255
102
RTVSPost2010PropOp44
 70
     1
102
RTVSPost2010Prop45
280
     0
102
RTVSPost2010PropOp45
 70
     1
102
RTVSPost2010Prop46
 90
       50
102
RTVSPost2010PropOp46
 70
     1
102
RTVSPost2010Prop47
 90
       50
102
RTVSPost2010PropOp47
 70
     1
102
RTVSPost2010Prop48
 90
       50
102
RTVSPost2010PropOp48
 70
     1
102
RTVSPost2010Prop49
280
     0
102
RTVSPost2010PropOp49
 70
     1
102
RTVSPost2010Prop50
 90
       50
102
RTVSPost2010PropOp50
 70
     1
102
RTVSPost2010Prop51ColorIndex
 90
      256
102
RTVSPost2010Prop51ColorRGB
 90
-16777216
102
RTVSPost2010PropOp51
 70
     0
102
RTVSPost2010Prop52
140
1.0
102
RTVSPost2010PropOp52
 70
     0
102
RTVSPost2010Prop53
 90
        2
102
RTVSPost2010PropOp53
 70
     1
102
RTVSPost2010Prop54
  1
strokes_ogs.tif
102
RTVSPost2010PropOp54
 70
     1
102
RTVSPost2010Prop55
280
     0
102
RTVSPost2010PropOp55
 70
     1
102
RTVSPost2010Prop56
140
1.0
102
RTVSPost2010PropOp56
 70
     1
102
RTVSPost2010Prop57
140
1.0
102
RTVSPost2010PropOp57
 70
     1
  0
XRECORD
  5
1B3
102
{ACAD_REACTORS
330
1B2
102
}
330
1B2
100
AcDbXrecord
280
     1
102
RTVSPropertyOp0
 70
     0
102
RTVSPropertyOp1
 70
     0
102
RTVSPropertyOp2
 70
     0
102
RTVSPropertyOp3
 70
     0
102
RTVSPropertyOp4
 70
     0
102
RTVSPropertyOp5
 70
     0
102
RTVSPropertyOp6
 70
     0
102
RTVSPropertyOp7
 70
     0
102
RTVSPropertyOp8
 70
     0
102
RTVSPropertyOp9
 70
     0
102
RTVSPropertyOp10
 70
     0
102
RTVSPropertyOp11
 70
     0
102
RTVSPropertyOp12
 70
     0
102
RTVSPropertyOp13
 70
     0
102
RTVSPropertyOp14
 70
     2
102
RTVSPropertyOp15
 70
     0
102
RTVSPropertyOp16
 70
     0
102
RTVSPropertyOp17
 70
     0
102
RTVSPropertyOp18
 70
     0
102
RTVSPropertyOp19
 70
     0
102
RTVSPropertyOp20
 70
     0
102
RTVSPropertyOp21
 70
     0
102
RTVSPropertyOp22
 70
     0
102
RTVSPropertyOp23
 70
     0
102
RTVSPropertyOp24
 70
     0
102
RTVSPropertyOp25
 70
     0
102
RTVSPropertyOp26
 70
     0
102
RTVSPropertyOp27
 70
     0
102
RTVSPropertyOp28
 70
     0
102
RTVSPropertyOp29
 70
     0
102
RTVSPropertyOp30
 70
     0
102
RTVSPropertyOp31
 70
     0
102
RTVSPropertyOp32
 70
     0
102
RTVSPropertyOp33
 70
     0
102
RTVSPropertyOp34
 70
     0
102
RTVSPropertyOp35
 70
     0
102
RTVSPropertyOp36
 70
     0
102
RTVSPropertyOp37
 70
     0
102
RTVSPropertyOp38
 70
     0
102
RTVSPropertyOp39
 70
     0
102
RTVSPropertyOp40
 70
     0
102
RTVSPropertyOp41
 70
     0
102
RTVSPropertyOp42
 70
     0
102
RTVSPropertyOp43
 70
     0
102
RTVSPropertyOp44
 70
     0
102
RTVSPropertyOp45
 70
     0
102
RTVSPropertyOp46
 70
     0
102
RTVSPropertyOp47
 70
     0
102
RTVSPropertyOp48
 70
     0
102
RTVSPropertyOp49
 70
     0
102
RTVSPropertyOp50
 70
     0
102
RTVSPropertyOp51
 70
     0
102
RTVSPropertyOp52
 70
     0
102
RTVSPropertyOp53
 70
     0
102
RTVSPropertyOp54
 70
     0
102
RTVSPropertyOp55
 70
     0
102
RTVSPropertyOp56
 70
     0
102
RTVSPropertyOp57
 70
     0
102
RTVSPost2010Prop28
280
     0
102
RTVSPost2010PropOp28
 70
     0
102
RTVSPost2010Prop29
280
     1
102
RTVSPost2010PropOp29
 70
     0
102
RTVSPost2010Prop30
280
     1
102
RTVSPost2010PropOp30
 70
     0
102
RTVSPost2010Prop31
280
     0
102
RTVSPost2010PropOp31
 70
     0
102
RTVSPost2010Prop32
280
     0
102
RTVSPost2010PropOp32
 70
     0
102
RTVSPost2010Prop33
280
     0
102
RTVSPost2010PropOp33
 70
     0
102
RTVSPost2010Prop34
280
     0
102
RTVSPost2010PropOp34
 70
     0
102
RTVSPost2010Prop35
280
     0
102
RTVSPost2010PropOp35
 70
     0
102
RTVSPost2010Prop36
280
     0
102
RTVSPost2010PropOp36
 70
     0
102
RTVSPost2010Prop37
 90
       50
102
RTVSPost2010PropOp37
 70
     0
102
RTVSPost2010Prop38
140
0.0
102
RTVSPost2010PropOp38
 70
     0
102
RTVSPost2010Prop39
140
1.0
102
RTVSPost2010PropOp39
 70
     0
102
RTVSPost2010Prop40
 90
        0
102
RTVSPost2010PropOp40
 70
     0
102
RTVSPost2010Prop41ColorIndex
 90
       18
102
RTVSPost2010Prop41ColorRGB
 90
        0
102
RTVSPost2010PropOp41
 70
     0
102
RTVSPost2010Prop42
 90
       50
102
RTVSPost2010PropOp42
 70
     0
102
RTVSPost2010Prop43
 90
        3
102
RTVSPost2010PropOp43
 70
     0
102
RTVSPost2010Prop44ColorIndex
 90
        5
102
RTVSPost2010Prop44ColorRGB
 90
      255
102
RTVSPost2010PropOp44
 70
     0
102
RTVSPost2010Prop45
280
     0
102
RTVSPost2010PropOp45
 70
     0
102
RTVSPost2010Prop46
 90
       50
102
RTVSPost2010PropOp46
 70
     0
102
RTVSPost2010Prop47
 90
       50
102
RTVSPost2010PropOp47
 70
     0
102
RTVSPost2010Prop48
 90
       50
102
RTVSPost2010PropOp48
 70
     0
102
RTVSPost2010Prop49
280
     0
102
RTVSPost2010PropOp49
 70
     0
102
RTVSPost2010Prop50
 90
       50
102
RTVSPost2010PropOp50
 70
     0
102
RTVSPost2010Prop51ColorIndex
 90
      256
102
RTVSPost2010Prop51ColorRGB
 90
-16777216
102
RTVSPost2010PropOp51
 70
     0
102
RTVSPost2010Prop52
140
1.0
102
RTVSPost2010PropOp52
 70
     0
102
RTVSPost2010Prop53
 90
        2
102
RTVSPost2010PropOp53
 70
     0
102
RTVSPost2010Prop54
  1
strokes_ogs.tif
102
RTVSPost2010PropOp54
 70
     0
102
RTVSPost2010Prop55
280
     0
102
RTVSPost2010PropOp55
 70
     0
102
RTVSPost2010Prop56
140
1.0
102
RTVSPost2010PropOp56
 70
     0
102
RTVSPost2010Prop57
140
1.0
102
RTVSPost2010PropOp57
 70
     0
  0
XRECORD
  5
1A1
102
{ACAD_REACTORS
330
1A0
102
}
330
1A0
100
AcDbXrecord
280
     1
102
RTVSPropertyOp0
 70
     1
102
RTVSPropertyOp1
 70
     1
102
RTVSPropertyOp2
 70
     1
102
RTVSPropertyOp3
 70
     1
102
RTVSPropertyOp4
 70
     1
102
RTVSPropertyOp5
 70
     1
102
RTVSPropertyOp6
 70
     1
102
RTVSPropertyOp7
 70
     1
102
RTVSPropertyOp8
 70
     1
102
RTVSPropertyOp9
 70
     1
102
RTVSPropertyOp10
 70
     1
102
RTVSPropertyOp11
 70
     1
102
RTVSPropertyOp12
 70
     1
102
RTVSPropertyOp13
 70
     1
102
RTVSPropertyOp14
 70
     1
102
RTVSPropertyOp15
 70
     1
102
RTVSPropertyOp16
 70
     1
102
RTVSPropertyOp17
 70
     1
102
RTVSPropertyOp18
 70
     1
102
RTVSPropertyOp19
 70
     1
102
RTVSPropertyOp20
 70
     1
102
RTVSPropertyOp21
 70
     1
102
RTVSPropertyOp22
 70
     1
102
RTVSPropertyOp23
 70
     1
102
RTVSPropertyOp24
 70
     1
102
RTVSPropertyOp25
 70
     1
102
RTVSPropertyOp26
 70
     1
102
RTVSPropertyOp27
 70
     1
102
RTVSPropertyOp28
 70
     1
102
RTVSPropertyOp29
 70
     1
102
RTVSPropertyOp30
 70
     1
102
RTVSPropertyOp31
 70
     1
102
RTVSPropertyOp32
 70
     1
102
RTVSPropertyOp33
 70
     1
102
RTVSPropertyOp34
 70
     1
102
RTVSPropertyOp35
 70
     1
102
RTVSPropertyOp36
 70
     1
102
RTVSPropertyOp37
 70
     1
102
RTVSPropertyOp38
 70
     1
102
RTVSPropertyOp39
 70
     1
102
RTVSPropertyOp40
 70
     1
102
RTVSPropertyOp41
 70
     1
102
RTVSPropertyOp42
 70
     1
102
RTVSPropertyOp43
 70
     1
102
RTVSPropertyOp44
 70
     1
102
RTVSPropertyOp45
 70
     1
102
RTVSPropertyOp46
 70
     1
102
RTVSPropertyOp47
 70
     1
102
RTVSPropertyOp48
 70
     1
102
RTVSPropertyOp49
 70
     1
102
RTVSPropertyOp50
 70
     1
102
RTVSPropertyOp51
 70
     0
102
RTVSPropertyOp52
 70
     0
102
RTVSPropertyOp53
 70
     1
102
RTVSPropertyOp54
 70
     1
102
RTVSPropertyOp55
 70
     1
102
RTVSPropertyOp56
 70
     1
102
RTVSPropertyOp57
 70
     1
102
RTVSPost2010Prop28
280
     0
102
RTVSPost2010PropOp28
 70
     1
102
RTVSPost2010Prop29
280
     1
102
RTVSPost2010PropOp29
 70
     1
102
RTVSPost2010Prop30
280
     1
102
RTVSPost2010PropOp30
 70
     1
102
RTVSPost2010Prop31
280
     0
102
RTVSPost2010PropOp31
 70
     1
102
RTVSPost2010Prop32
280
     0
102
RTVSPost2010PropOp32
 70
     1
102
RTVSPost2010Prop33
280
     0
102
RTVSPost2010PropOp33
 70
     1
102
RTVSPost2010Prop34
280
     0
102
RTVSPost2010PropOp34
 70
     1
102
RTVSPost2010Prop35
280
     0
102
RTVSPost2010PropOp35
 70
     1
102
RTVSPost2010Prop36
280
     0
102
RTVSPost2010PropOp36
 70
     1
102
RTVSPost2010Prop37
 90
       50
102
RTVSPost2010PropOp37
 70
     1
102
RTVSPost2010Prop38
140
0.0
102
RTVSPost2010PropOp38
 70
     1
102
RTVSPost2010Prop39
140
1.0
102
RTVSPost2010PropOp39
 70
     1
102
RTVSPost2010Prop40
 90
        0
102
RTVSPost2010PropOp40
 70
     1
102
RTVSPost2010Prop41ColorIndex
 90
       18
102
RTVSPost2010Prop41ColorRGB
 90
        0
102
RTVSPost2010PropOp41
 70
     1
102
RTVSPost2010Prop42
 90
       50
102
RTVSPost2010PropOp42
 70
     1
102
RTVSPost2010Prop43
 90
        3
102
RTVSPost2010PropOp43
 70
     1
102
RTVSPost2010Prop44ColorIndex
 90
        5
102
RTVSPost2010Prop44ColorRGB
 90
      255
102
RTVSPost2010PropOp44
 70
     1
102
RTVSPost2010Prop45
280
     0
102
RTVSPost2010PropOp45
 70
     1
102
RTVSPost2010Prop46
 90
       50
102
RTVSPost2010PropOp46
 70
     1
102
RTVSPost2010Prop47
 90
       50
102
RTVSPost2010PropOp47
 70
     1
102
RTVSPost2010Prop48
 90
       50
102
RTVSPost2010PropOp48
 70
     1
102
RTVSPost2010Prop49
280
     0
102
RTVSPost2010PropOp49
 70
     1
102
RTVSPost2010Prop50
 90
       50
102
RTVSPost2010PropOp50
 70
     1
102
RTVSPost2010Prop51ColorIndex
 90
      256
102
RTVSPost2010Prop51ColorRGB
 90
-16777216
102
RTVSPost2010PropOp51
 70
     0
102
RTVSPost2010Prop52
140
1.0
102
RTVSPost2010PropOp52
 70
     0
102
RTVSPost2010Prop53
 90
        2
102
RTVSPost2010PropOp53
 70
     1
102
RTVSPost2010Prop54
  1
strokes_ogs.tif
102
RTVSPost2010PropOp54
 70
     1
102
RTVSPost2010Prop55
280
     0
102
RTVSPost2010PropOp55
 70
     1
102
RTVSPost2010Prop56
140
1.0
102
RTVSPost2010PropOp56
 70
     1
102
RTVSPost2010Prop57
140
1.0
102
RTVSPost2010PropOp57
 70
     1
  0
XRECORD
  5
1BF
102
{ACAD_REACTORS
330
1BE
102
}
330
1BE
100
AcDbXrecord
280
     1
102
RTVSPropertyOp0
 70
     1
102
RTVSPropertyOp1
 70
     1
102
RTVSPropertyOp2
 70
     1
102
RTVSPropertyOp3
 70
     1
102
RTVSPropertyOp4
 70
     1
102
RTVSPropertyOp5
 70
     1
102
RTVSPropertyOp6
 70
     1
102
RTVSPropertyOp7
 70
     1
102
RTVSPropertyOp8
 70
     1
102
RTVSPropertyOp9
 70
     1
102
RTVSPropertyOp10
 70
     1
102
RTVSPropertyOp11
 70
     1
102
RTVSPropertyOp12
 70
     1
102
RTVSPropertyOp13
 70
     1
102
RTVSPropertyOp14
 70
     1
102
RTVSPropertyOp15
 70
     1
102
RTVSPropertyOp16
 70
     1
102
RTVSPropertyOp17
 70
     1
102
RTVSPropertyOp18
 70
     1
102
RTVSPropertyOp19
 70
     1
102
RTVSPropertyOp20
 70
     1
102
RTVSPropertyOp21
 70
     1
102
RTVSPropertyOp22
 70
     1
102
RTVSPropertyOp23
 70
     1
102
RTVSPropertyOp24
 70
     1
102
RTVSPropertyOp25
 70
     1
102
RTVSPropertyOp26
 70
     1
102
RTVSPropertyOp27
 70
     1
102
RTVSPropertyOp28
 70
     1
102
RTVSPropertyOp29
 70
     1
102
RTVSPropertyOp30
 70
     1
102
RTVSPropertyOp31
 70
     1
102
RTVSPropertyOp32
 70
     1
102
RTVSPropertyOp33
 70
     1
102
RTVSPropertyOp34
 70
     1
102
RTVSPropertyOp35
 70
     1
102
RTVSPropertyOp36
 70
     1
102
RTVSPropertyOp37
 70
     1
102
RTVSPropertyOp38
 70
     1
102
RTVSPropertyOp39
 70
     1
102
RTVSPropertyOp40
 70
     1
102
RTVSPropertyOp41
 70
     1
102
RTVSPropertyOp42
 70
     1
102
RTVSPropertyOp43
 70
     1
102
RTVSPropertyOp44
 70
     1
102
RTVSPropertyOp45
 70
     1
102
RTVSPropertyOp46
 70
     1
102
RTVSPropertyOp47
 70
     1
102
RTVSPropertyOp48
 70
     1
102
RTVSPropertyOp49
 70
     1
102
RTVSPropertyOp50
 70
     1
102
RTVSPropertyOp51
 70
     0
102
RTVSPropertyOp52
 70
     0
102
RTVSPropertyOp53
 70
     1
102
RTVSPropertyOp54
 70
     1
102
RTVSPropertyOp55
 70
     1
102
RTVSPropertyOp56
 70
     1
102
RTVSPropertyOp57
 70
     1
102
RTVSPost2010Prop28
280
     0
102
RTVSPost2010PropOp28
 70
     1
102
RTVSPost2010Prop29
280
     1
102
RTVSPost2010PropOp29
 70
     1
102
RTVSPost2010Prop30
280
     1
102
RTVSPost2010PropOp30
 70
     1
102
RTVSPost2010Prop31
280
     0
102
RTVSPost2010PropOp31
 70
     1
102
RTVSPost2010Prop32
280
     0
102
RTVSPost2010PropOp32
 70
     1
102
RTVSPost2010Prop33
280
     0
102
RTVSPost2010PropOp33
 70
     1
102
RTVSPost2010Prop34
280
     0
102
RTVSPost2010PropOp34
 70
     1
102
RTVSPost2010Prop35
280
     0
102
RTVSPost2010PropOp35
 70
     1
102
RTVSPost2010Prop36
280
     0
102
RTVSPost2010PropOp36
 70
     1
102
RTVSPost2010Prop37
 90
       50
102
RTVSPost2010PropOp37
 70
     1
102
RTVSPost2010Prop38
140
0.0
102
RTVSPost2010PropOp38
 70
     1
102
RTVSPost2010Prop39
140
1.0
102
RTVSPost2010PropOp39
 70
     1
102
RTVSPost2010Prop40
 90
        0
102
RTVSPost2010PropOp40
 70
     1
102
RTVSPost2010Prop41ColorIndex
 90
       18
102
RTVSPost2010Prop41ColorRGB
 90
        0
102
RTVSPost2010PropOp41
 70
     1
102
RTVSPost2010Prop42
 90
       50
102
RTVSPost2010PropOp42
 70
     1
102
RTVSPost2010Prop43
 90
        3
102
RTVSPost2010PropOp43
 70
     1
102
RTVSPost2010Prop44ColorIndex
 90
        5
102
RTVSPost2010Prop44ColorRGB
 90
      255
102
RTVSPost2010PropOp44
 70
     1
102
RTVSPost2010Prop45
280
     0
102
RTVSPost2010PropOp45
 70
     1
102
RTVSPost2010Prop46
 90
       50
102
RTVSPost2010PropOp46
 70
     1
102
RTVSPost2010Prop47
 90
       50
102
RTVSPost2010PropOp47
 70
     1
102
RTVSPost2010Prop48
 90
       50
102
RTVSPost2010PropOp48
 70
     1
102
RTVSPost2010Prop49
280
     0
102
RTVSPost2010PropOp49
 70
     1
102
RTVSPost2010Prop50
 90
       50
102
RTVSPost2010PropOp50
 70
     1
102
RTVSPost2010Prop51ColorIndex
 90
      256
102
RTVSPost2010Prop51ColorRGB
 90
-16777216
102
RTVSPost2010PropOp51
 70
     0
102
RTVSPost2010Prop52
140
1.0
102
RTVSPost2010PropOp52
 70
     0
102
RTVSPost2010Prop53
 90
        2
102
RTVSPost2010PropOp53
 70
     1
102
RTVSPost2010Prop54
  1
strokes_ogs.tif
102
RTVSPost2010PropOp54
 70
     1
102
RTVSPost2010Prop55
280
     0
102
RTVSPost2010PropOp55
 70
     1
102
RTVSPost2010Prop56
140
1.0
102
RTVSPost2010PropOp56
 70
     1
102
RTVSPost2010Prop57
140
1.0
102
RTVSPost2010PropOp57
 70
     1
  0
XRECORD
  5
1BD
102
{ACAD_REACTORS
330
1BC
102
}
330
1BC
100
AcDbXrecord
280
     1
102
RTVSPropertyOp0
 70
     1
102
RTVSPropertyOp1
 70
     1
102
RTVSPropertyOp2
 70
     1
102
RTVSPropertyOp3
 70
     1
102
RTVSPropertyOp4
 70
     1
102
RTVSPropertyOp5
 70
     1
102
RTVSPropertyOp6
 70
     1
102
RTVSPropertyOp7
 70
     1
102
RTVSPropertyOp8
 70
     1
102
RTVSPropertyOp9
 70
     1
102
RTVSPropertyOp10
 70
     1
102
RTVSPropertyOp11
 70
     1
102
RTVSPropertyOp12
 70
     1
102
RTVSPropertyOp13
 70
     1
102
RTVSPropertyOp14
 70
     1
102
RTVSPropertyOp15
 70
     1
102
RTVSPropertyOp16
 70
     1
102
RTVSPropertyOp17
 70
     1
102
RTVSPropertyOp18
 70
     1
102
RTVSPropertyOp19
 70
     1
102
RTVSPropertyOp20
 70
     1
102
RTVSPropertyOp21
 70
     1
102
RTVSPropertyOp22
 70
     1
102
RTVSPropertyOp23
 70
     1
102
RTVSPropertyOp24
 70
     1
102
RTVSPropertyOp25
 70
     1
102
RTVSPropertyOp26
 70
     1
102
RTVSPropertyOp27
 70
     1
102
RTVSPropertyOp28
 70
     1
102
RTVSPropertyOp29
 70
     1
102
RTVSPropertyOp30
 70
     1
102
RTVSPropertyOp31
 70
     1
102
RTVSPropertyOp32
 70
     1
102
RTVSPropertyOp33
 70
     1
102
RTVSPropertyOp34
 70
     1
102
RTVSPropertyOp35
 70
     1
102
RTVSPropertyOp36
 70
     1
102
RTVSPropertyOp37
 70
     1
102
RTVSPropertyOp38
 70
     1
102
RTVSPropertyOp39
 70
     1
102
RTVSPropertyOp40
 70
     1
102
RTVSPropertyOp41
 70
     1
102
RTVSPropertyOp42
 70
     1
102
RTVSPropertyOp43
 70
     1
102
RTVSPropertyOp44
 70
     1
102
RTVSPropertyOp45
 70
     1
102
RTVSPropertyOp46
 70
     1
102
RTVSPropertyOp47
 70
     1
102
RTVSPropertyOp48
 70
     1
102
RTVSPropertyOp49
 70
     1
102
RTVSPropertyOp50
 70
     1
102
RTVSPropertyOp51
 70
     0
102
RTVSPropertyOp52
 70
     0
102
RTVSPropertyOp53
 70
     1
102
RTVSPropertyOp54
 70
     1
102
RTVSPropertyOp55
 70
     1
102
RTVSPropertyOp56
 70
     1
102
RTVSPropertyOp57
 70
     1
102
RTVSPost2010Prop28
280
     0
102
RTVSPost2010PropOp28
 70
     1
102
RTVSPost2010Prop29
280
     1
102
RTVSPost2010PropOp29
 70
     1
102
RTVSPost2010Prop30
280
     1
102
RTVSPost2010PropOp30
 70
     1
102
RTVSPost2010Prop31
280
     0
102
RTVSPost2010PropOp31
 70
     1
102
RTVSPost2010Prop32
280
     0
102
RTVSPost2010PropOp32
 70
     1
102
RTVSPost2010Prop33
280
     0
102
RTVSPost2010PropOp33
 70
     1
102
RTVSPost2010Prop34
280
     0
102
RTVSPost2010PropOp34
 70
     1
102
RTVSPost2010Prop35
280
     0
102
RTVSPost2010PropOp35
 70
     1
102
RTVSPost2010Prop36
280
     0
102
RTVSPost2010PropOp36
 70
     1
102
RTVSPost2010Prop37
 90
       50
102
RTVSPost2010PropOp37
 70
     1
102
RTVSPost2010Prop38
140
0.0
102
RTVSPost2010PropOp38
 70
     1
102
RTVSPost2010Prop39
140
1.0
102
RTVSPost2010PropOp39
 70
     1
102
RTVSPost2010Prop40
 90
        0
102
RTVSPost2010PropOp40
 70
     1
102
RTVSPost2010Prop41ColorIndex
 90
       18
102
RTVSPost2010Prop41ColorRGB
 90
        0
102
RTVSPost2010PropOp41
 70
     1
102
RTVSPost2010Prop42
 90
       50
102
RTVSPost2010PropOp42
 70
     1
102
RTVSPost2010Prop43
 90
        3
102
RTVSPost2010PropOp43
 70
     1
102
RTVSPost2010Prop44ColorIndex
 90
        5
102
RTVSPost2010Prop44ColorRGB
 90
      255
102
RTVSPost2010PropOp44
 70
     1
102
RTVSPost2010Prop45
280
     0
102
RTVSPost2010PropOp45
 70
     1
102
RTVSPost2010Prop46
 90
       50
102
RTVSPost2010PropOp46
 70
     1
102
RTVSPost2010Prop47
 90
       50
102
RTVSPost2010PropOp47
 70
     1
102
RTVSPost2010Prop48
 90
       50
102
RTVSPost2010PropOp48
 70
     1
102
RTVSPost2010Prop49
280
     0
102
RTVSPost2010PropOp49
 70
     1
102
RTVSPost2010Prop50
 90
       50
102
RTVSPost2010PropOp50
 70
     1
102
RTVSPost2010Prop51ColorIndex
 90
      256
102
RTVSPost2010Prop51ColorRGB
 90
-16777216
102
RTVSPost2010PropOp51
 70
     0
102
RTVSPost2010Prop52
140
1.0
102
RTVSPost2010PropOp52
 70
     0
102
RTVSPost2010Prop53
 90
        2
102
RTVSPost2010PropOp53
 70
     1
102
RTVSPost2010Prop54
  1
strokes_ogs.tif
102
RTVSPost2010PropOp54
 70
     1
102
RTVSPost2010Prop55
280
     0
102
RTVSPost2010PropOp55
 70
     1
102
RTVSPost2010Prop56
140
1.0
102
RTVSPost2010PropOp56
 70
     1
102
RTVSPost2010Prop57
140
1.0
102
RTVSPost2010PropOp57
 70
     1
  0
XRECORD
  5
1B7
102
{ACAD_REACTORS
330
1B6
102
}
330
1B6
100
AcDbXrecord
280
     1
102
RTVSPropertyOp0
 70
     1
102
RTVSPropertyOp1
 70
     1
102
RTVSPropertyOp2
 70
     1
102
RTVSPropertyOp3
 70
     1
102
RTVSPropertyOp4
 70
     1
102
RTVSPropertyOp5
 70
     1
102
RTVSPropertyOp6
 70
     1
102
RTVSPropertyOp7
 70
     1
102
RTVSPropertyOp8
 70
     1
102
RTVSPropertyOp9
 70
     1
102
RTVSPropertyOp10
 70
     1
102
RTVSPropertyOp11
 70
     1
102
RTVSPropertyOp12
 70
     1
102
RTVSPropertyOp13
 70
     1
102
RTVSPropertyOp14
 70
     1
102
RTVSPropertyOp15
 70
     1
102
RTVSPropertyOp16
 70
     1
102
RTVSPropertyOp17
 70
     1
102
RTVSPropertyOp18
 70
     1
102
RTVSPropertyOp19
 70
     1
102
RTVSPropertyOp20
 70
     1
102
RTVSPropertyOp21
 70
     1
102
RTVSPropertyOp22
 70
     1
102
RTVSPropertyOp23
 70
     1
102
RTVSPropertyOp24
 70
     1
102
RTVSPropertyOp25
 70
     1
102
RTVSPropertyOp26
 70
     1
102
RTVSPropertyOp27
 70
     1
102
RTVSPropertyOp28
 70
     1
102
RTVSPropertyOp29
 70
     1
102
RTVSPropertyOp30
 70
     1
102
RTVSPropertyOp31
 70
     1
102
RTVSPropertyOp32
 70
     1
102
RTVSPropertyOp33
 70
     1
102
RTVSPropertyOp34
 70
     1
102
RTVSPropertyOp35
 70
     1
102
RTVSPropertyOp36
 70
     1
102
RTVSPropertyOp37
 70
     1
102
RTVSPropertyOp38
 70
     1
102
RTVSPropertyOp39
 70
     1
102
RTVSPropertyOp40
 70
     1
102
RTVSPropertyOp41
 70
     1
102
RTVSPropertyOp42
 70
     1
102
RTVSPropertyOp43
 70
     1
102
RTVSPropertyOp44
 70
     1
102
RTVSPropertyOp45
 70
     1
102
RTVSPropertyOp46
 70
     1
102
RTVSPropertyOp47
 70
     1
102
RTVSPropertyOp48
 70
     1
102
RTVSPropertyOp49
 70
     1
102
RTVSPropertyOp50
 70
     1
102
RTVSPropertyOp51
 70
     0
102
RTVSPropertyOp52
 70
     0
102
RTVSPropertyOp53
 70
     1
102
RTVSPropertyOp54
 70
     1
102
RTVSPropertyOp55
 70
     1
102
RTVSPropertyOp56
 70
     1
102
RTVSPropertyOp57
 70
     1
102
RTVSPost2010Prop28
280
     0
102
RTVSPost2010PropOp28
 70
     1
102
RTVSPost2010Prop29
280
     1
102
RTVSPost2010PropOp29
 70
     1
102
RTVSPost2010Prop30
280
     1
102
RTVSPost2010PropOp30
 70
     1
102
RTVSPost2010Prop31
280
     0
102
RTVSPost2010PropOp31
 70
     1
102
RTVSPost2010Prop32
280
     0
102
RTVSPost2010PropOp32
 70
     1
102
RTVSPost2010Prop33
280
     0
102
RTVSPost2010PropOp33
 70
     1
102
RTVSPost2010Prop34
280
     0
102
RTVSPost2010PropOp34
 70
     1
102
RTVSPost2010Prop35
280
     0
102
RTVSPost2010PropOp35
 70
     1
102
RTVSPost2010Prop36
280
     0
102
RTVSPost2010PropOp36
 70
     1
102
RTVSPost2010Prop37
 90
       50
102
RTVSPost2010PropOp37
 70
     1
102
RTVSPost2010Prop38
140
0.0
102
RTVSPost2010PropOp38
 70
     1
102
RTVSPost2010Prop39
140
1.0
102
RTVSPost2010PropOp39
 70
     1
102
RTVSPost2010Prop40
 90
        0
102
RTVSPost2010PropOp40
 70
     1
102
RTVSPost2010Prop41ColorIndex
 90
       18
102
RTVSPost2010Prop41ColorRGB
 90
        0
102
RTVSPost2010PropOp41
 70
     1
102
RTVSPost2010Prop42
 90
       50
102
RTVSPost2010PropOp42
 70
     1
102
RTVSPost2010Prop43
 90
        3
102
RTVSPost2010PropOp43
 70
     1
102
RTVSPost2010Prop44ColorIndex
 90
        5
102
RTVSPost2010Prop44ColorRGB
 90
      255
102
RTVSPost2010PropOp44
 70
     1
102
RTVSPost2010Prop45
280
     0
102
RTVSPost2010PropOp45
 70
     1
102
RTVSPost2010Prop46
 90
       50
102
RTVSPost2010PropOp46
 70
     1
102
RTVSPost2010Prop47
 90
       50
102
RTVSPost2010PropOp47
 70
     1
102
RTVSPost2010Prop48
 90
       50
102
RTVSPost2010PropOp48
 70
     1
102
RTVSPost2010Prop49
280
     0
102
RTVSPost2010PropOp49
 70
     1
102
RTVSPost2010Prop50
 90
       50
102
RTVSPost2010PropOp50
 70
     1
102
RTVSPost2010Prop51ColorIndex
 90
      256
102
RTVSPost2010Prop51ColorRGB
 90
-16777216
102
RTVSPost2010PropOp51
 70
     0
102
RTVSPost2010Prop52
140
1.0
102
RTVSPost2010PropOp52
 70
     0
102
RTVSPost2010Prop53
 90
        2
102
RTVSPost2010PropOp53
 70
     1
102
RTVSPost2010Prop54
  1
strokes_ogs.tif
102
RTVSPost2010PropOp54
 70
     1
102
RTVSPost2010Prop55
280
     0
102
RTVSPost2010PropOp55
 70
     1
102
RTVSPost2010Prop56
140
1.0
102
RTVSPost2010PropOp56
 70
     1
102
RTVSPost2010Prop57
140
1.0
102
RTVSPost2010PropOp57
 70
     1
  0
XRECORD
  5
1B9
102
{ACAD_REACTORS
330
1B8
102
}
330
1B8
100
AcDbXrecord
280
     1
102
RTVSPropertyOp0
 70
     1
102
RTVSPropertyOp1
 70
     1
102
RTVSPropertyOp2
 70
     1
102
RTVSPropertyOp3
 70
     1
102
RTVSPropertyOp4
 70
     1
102
RTVSPropertyOp5
 70
     1
102
RTVSPropertyOp6
 70
     1
102
RTVSPropertyOp7
 70
     1
102
RTVSPropertyOp8
 70
     1
102
RTVSPropertyOp9
 70
     1
102
RTVSPropertyOp10
 70
     1
102
RTVSPropertyOp11
 70
     1
102
RTVSPropertyOp12
 70
     1
102
RTVSPropertyOp13
 70
     1
102
RTVSPropertyOp14
 70
     1
102
RTVSPropertyOp15
 70
     1
102
RTVSPropertyOp16
 70
     1
102
RTVSPropertyOp17
 70
     1
102
RTVSPropertyOp18
 70
     1
102
RTVSPropertyOp19
 70
     1
102
RTVSPropertyOp20
 70
     1
102
RTVSPropertyOp21
 70
     1
102
RTVSPropertyOp22
 70
     1
102
RTVSPropertyOp23
 70
     1
102
RTVSPropertyOp24
 70
     1
102
RTVSPropertyOp25
 70
     1
102
RTVSPropertyOp26
 70
     1
102
RTVSPropertyOp27
 70
     1
102
RTVSPropertyOp28
 70
     1
102
RTVSPropertyOp29
 70
     1
102
RTVSPropertyOp30
 70
     1
102
RTVSPropertyOp31
 70
     1
102
RTVSPropertyOp32
 70
     1
102
RTVSPropertyOp33
 70
     1
102
RTVSPropertyOp34
 70
     1
102
RTVSPropertyOp35
 70
     1
102
RTVSPropertyOp36
 70
     1
102
RTVSPropertyOp37
 70
     1
102
RTVSPropertyOp38
 70
     1
102
RTVSPropertyOp39
 70
     1
102
RTVSPropertyOp40
 70
     1
102
RTVSPropertyOp41
 70
     1
102
RTVSPropertyOp42
 70
     1
102
RTVSPropertyOp43
 70
     1
102
RTVSPropertyOp44
 70
     1
102
RTVSPropertyOp45
 70
     1
102
RTVSPropertyOp46
 70
     1
102
RTVSPropertyOp47
 70
     1
102
RTVSPropertyOp48
 70
     1
102
RTVSPropertyOp49
 70
     1
102
RTVSPropertyOp50
 70
     1
102
RTVSPropertyOp51
 70
     0
102
RTVSPropertyOp52
 70
     0
102
RTVSPropertyOp53
 70
     1
102
RTVSPropertyOp54
 70
     1
102
RTVSPropertyOp55
 70
     1
102
RTVSPropertyOp56
 70
     1
102
RTVSPropertyOp57
 70
     1
102
RTVSPost2010Prop28
280
     0
102
RTVSPost2010PropOp28
 70
     1
102
RTVSPost2010Prop29
280
     1
102
RTVSPost2010PropOp29
 70
     1
102
RTVSPost2010Prop30
280
     1
102
RTVSPost2010PropOp30
 70
     1
102
RTVSPost2010Prop31
280
     0
102
RTVSPost2010PropOp31
 70
     1
102
RTVSPost2010Prop32
280
     0
102
RTVSPost2010PropOp32
 70
     1
102
RTVSPost2010Prop33
280
     0
102
RTVSPost2010PropOp33
 70
     1
102
RTVSPost2010Prop34
280
     0
102
RTVSPost2010PropOp34
 70
     1
102
RTVSPost2010Prop35
280
     0
102
RTVSPost2010PropOp35
 70
     1
102
RTVSPost2010Prop36
280
     0
102
RTVSPost2010PropOp36
 70
     1
102
RTVSPost2010Prop37
 90
       50
102
RTVSPost2010PropOp37
 70
     1
102
RTVSPost2010Prop38
140
0.0
102
RTVSPost2010PropOp38
 70
     1
102
RTVSPost2010Prop39
140
1.0
102
RTVSPost2010PropOp39
 70
     1
102
RTVSPost2010Prop40
 90
        0
102
RTVSPost2010PropOp40
 70
     1
102
RTVSPost2010Prop41ColorIndex
 90
       18
102
RTVSPost2010Prop41ColorRGB
 90
        0
102
RTVSPost2010PropOp41
 70
     1
102
RTVSPost2010Prop42
 90
       50
102
RTVSPost2010PropOp42
 70
     1
102
RTVSPost2010Prop43
 90
        3
102
RTVSPost2010PropOp43
 70
     1
102
RTVSPost2010Prop44ColorIndex
 90
        5
102
RTVSPost2010Prop44ColorRGB
 90
      255
102
RTVSPost2010PropOp44
 70
     1
102
RTVSPost2010Prop45
280
     0
102
RTVSPost2010PropOp45
 70
     1
102
RTVSPost2010Prop46
 90
       50
102
RTVSPost2010PropOp46
 70
     1
102
RTVSPost2010Prop47
 90
       50
102
RTVSPost2010PropOp47
 70
     1
102
RTVSPost2010Prop48
 90
       50
102
RTVSPost2010PropOp48
 70
     1
102
RTVSPost2010Prop49
280
     0
102
RTVSPost2010PropOp49
 70
     1
102
RTVSPost2010Prop50
 90
       50
102
RTVSPost2010PropOp50
 70
     1
102
RTVSPost2010Prop51ColorIndex
 90
      256
102
RTVSPost2010Prop51ColorRGB
 90
-16777216
102
RTVSPost2010PropOp51
 70
     0
102
RTVSPost2010Prop52
140
1.0
102
RTVSPost2010PropOp52
 70
     0
102
RTVSPost2010Prop53
 90
        2
102
RTVSPost2010PropOp53
 70
     1
102
RTVSPost2010Prop54
  1
strokes_ogs.tif
102
RTVSPost2010PropOp54
 70
     1
102
RTVSPost2010Prop55
280
     0
102
RTVSPost2010PropOp55
 70
     1
102
RTVSPost2010Prop56
140
1.0
102
RTVSPost2010PropOp56
 70
     1
102
RTVSPost2010Prop57
140
1.0
102
RTVSPost2010PropOp57
 70
     1
  0
XRECORD
  5
1A9
102
{ACAD_REACTORS
330
1A8
102
}
330
1A8
100
AcDbXrecord
280
     1
102
RTVSPropertyOp0
 70
     1
102
RTVSPropertyOp1
 70
     1
102
RTVSPropertyOp2
 70
     1
102
RTVSPropertyOp3
 70
     1
102
RTVSPropertyOp4
 70
     1
102
RTVSPropertyOp5
 70
     1
102
RTVSPropertyOp6
 70
     1
102
RTVSPropertyOp7
 70
     1
102
RTVSPropertyOp8
 70
     1
102
RTVSPropertyOp9
 70
     1
102
RTVSPropertyOp10
 70
     1
102
RTVSPropertyOp11
 70
     1
102
RTVSPropertyOp12
 70
     1
102
RTVSPropertyOp13
 70
     1
102
RTVSPropertyOp14
 70
     1
102
RTVSPropertyOp15
 70
     1
102
RTVSPropertyOp16
 70
     1
102
RTVSPropertyOp17
 70
     1
102
RTVSPropertyOp18
 70
     1
102
RTVSPropertyOp19
 70
     1
102
RTVSPropertyOp20
 70
     1
102
RTVSPropertyOp21
 70
     1
102
RTVSPropertyOp22
 70
     1
102
RTVSPropertyOp23
 70
     1
102
RTVSPropertyOp24
 70
     1
102
RTVSPropertyOp25
 70
     1
102
RTVSPropertyOp26
 70
     1
102
RTVSPropertyOp27
 70
     1
102
RTVSPropertyOp28
 70
     1
102
RTVSPropertyOp29
 70
     1
102
RTVSPropertyOp30
 70
     1
102
RTVSPropertyOp31
 70
     1
102
RTVSPropertyOp32
 70
     1
102
RTVSPropertyOp33
 70
     1
102
RTVSPropertyOp34
 70
     1
102
RTVSPropertyOp35
 70
     1
102
RTVSPropertyOp36
 70
     1
102
RTVSPropertyOp37
 70
     1
102
RTVSPropertyOp38
 70
     1
102
RTVSPropertyOp39
 70
     1
102
RTVSPropertyOp40
 70
     1
102
RTVSPropertyOp41
 70
     1
102
RTVSPropertyOp42
 70
     1
102
RTVSPropertyOp43
 70
     1
102
RTVSPropertyOp44
 70
     1
102
RTVSPropertyOp45
 70
     1
102
RTVSPropertyOp46
 70
     1
102
RTVSPropertyOp47
 70
     1
102
RTVSPropertyOp48
 70
     1
102
RTVSPropertyOp49
 70
     1
102
RTVSPropertyOp50
 70
     1
102
RTVSPropertyOp51
 70
     0
102
RTVSPropertyOp52
 70
     0
102
RTVSPropertyOp53
 70
     1
102
RTVSPropertyOp54
 70
     1
102
RTVSPropertyOp55
 70
     1
102
RTVSPropertyOp56
 70
     1
102
RTVSPropertyOp57
 70
     1
102
RTVSPost2010Prop28
280
     0
102
RTVSPost2010PropOp28
 70
     1
102
RTVSPost2010Prop29
280
     1
102
RTVSPost2010PropOp29
 70
     1
102
RTVSPost2010Prop30
280
     1
102
RTVSPost2010PropOp30
 70
     1
102
RTVSPost2010Prop31
280
     0
102
RTVSPost2010PropOp31
 70
     1
102
RTVSPost2010Prop32
280
     0
102
RTVSPost2010PropOp32
 70
     1
102
RTVSPost2010Prop33
280
     0
102
RTVSPost2010PropOp33
 70
     1
102
RTVSPost2010Prop34
280
     0
102
RTVSPost2010PropOp34
 70
     1
102
RTVSPost2010Prop35
280
     0
102
RTVSPost2010PropOp35
 70
     1
102
RTVSPost2010Prop36
280
     0
102
RTVSPost2010PropOp36
 70
     1
102
RTVSPost2010Prop37
 90
       50
102
RTVSPost2010PropOp37
 70
     1
102
RTVSPost2010Prop38
140
0.0
102
RTVSPost2010PropOp38
 70
     1
102
RTVSPost2010Prop39
140
1.0
102
RTVSPost2010PropOp39
 70
     1
102
RTVSPost2010Prop40
 90
        0
102
RTVSPost2010PropOp40
 70
     1
102
RTVSPost2010Prop41ColorIndex
 90
       18
102
RTVSPost2010Prop41ColorRGB
 90
        0
102
RTVSPost2010PropOp41
 70
     1
102
RTVSPost2010Prop42
 90
       50
102
RTVSPost2010PropOp42
 70
     1
102
RTVSPost2010Prop43
 90
        3
102
RTVSPost2010PropOp43
 70
     1
102
RTVSPost2010Prop44ColorIndex
 90
        5
102
RTVSPost2010Prop44ColorRGB
 90
      255
102
RTVSPost2010PropOp44
 70
     1
102
RTVSPost2010Prop45
280
     0
102
RTVSPost2010PropOp45
 70
     1
102
RTVSPost2010Prop46
 90
       50
102
RTVSPost2010PropOp46
 70
     1
102
RTVSPost2010Prop47
 90
       50
102
RTVSPost2010PropOp47
 70
     1
102
RTVSPost2010Prop48
 90
       50
102
RTVSPost2010PropOp48
 70
     1
102
RTVSPost2010Prop49
280
     0
102
RTVSPost2010PropOp49
 70
     1
102
RTVSPost2010Prop50
 90
       50
102
RTVSPost2010PropOp50
 70
     1
102
RTVSPost2010Prop51ColorIndex
 90
      256
102
RTVSPost2010Prop51ColorRGB
 90
-16777216
102
RTVSPost2010PropOp51
 70
     0
102
RTVSPost2010Prop52
140
1.0
102
RTVSPost2010PropOp52
 70
     0
102
RTVSPost2010Prop53
 90
        2
102
RTVSPost2010PropOp53
 70
     1
102
RTVSPost2010Prop54
  1
strokes_ogs.tif
102
RTVSPost2010PropOp54
 70
     1
102
RTVSPost2010Prop55
280
     0
102
RTVSPost2010PropOp55
 70
     1
102
RTVSPost2010Prop56
140
1.0
102
RTVSPost2010PropOp56
 70
     1
102
RTVSPost2010Prop57
140
1.0
102
RTVSPost2010PropOp57
 70
     1
  0
XRECORD
  5
19B
102
{ACAD_REACTORS
330
19A
102
}
330
19A
100
AcDbXrecord
280
     1
102
RTVSPropertyOp0
 70
     1
102
RTVSPropertyOp1
 70
     1
102
RTVSPropertyOp2
 70
     1
102
RTVSPropertyOp3
 70
     1
102
RTVSPropertyOp4
 70
     1
102
RTVSPropertyOp5
 70
     1
102
RTVSPropertyOp6
 70
     1
102
RTVSPropertyOp7
 70
     1
102
RTVSPropertyOp8
 70
     1
102
RTVSPropertyOp9
 70
     1
102
RTVSPropertyOp10
 70
     1
102
RTVSPropertyOp11
 70
     1
102
RTVSPropertyOp12
 70
     1
102
RTVSPropertyOp13
 70
     1
102
RTVSPropertyOp14
 70
     1
102
RTVSPropertyOp15
 70
     1
102
RTVSPropertyOp16
 70
     1
102
RTVSPropertyOp17
 70
     1
102
RTVSPropertyOp18
 70
     1
102
RTVSPropertyOp19
 70
     1
102
RTVSPropertyOp20
 70
     1
102
RTVSPropertyOp21
 70
     1
102
RTVSPropertyOp22
 70
     1
102
RTVSPropertyOp23
 70
     1
102
RTVSPropertyOp24
 70
     1
102
RTVSPropertyOp25
 70
     1
102
RTVSPropertyOp26
 70
     1
102
RTVSPropertyOp27
 70
     1
102
RTVSPropertyOp28
 70
     1
102
RTVSPropertyOp29
 70
     1
102
RTVSPropertyOp30
 70
     1
102
RTVSPropertyOp31
 70
     1
102
RTVSPropertyOp32
 70
     1
102
RTVSPropertyOp33
 70
     1
102
RTVSPropertyOp34
 70
     1
102
RTVSPropertyOp35
 70
     1
102
RTVSPropertyOp36
 70
     1
102
RTVSPropertyOp37
 70
     1
102
RTVSPropertyOp38
 70
     1
102
RTVSPropertyOp39
 70
     1
102
RTVSPropertyOp40
 70
     1
102
RTVSPropertyOp41
 70
     1
102
RTVSPropertyOp42
 70
     1
102
RTVSPropertyOp43
 70
     1
102
RTVSPropertyOp44
 70
     1
102
RTVSPropertyOp45
 70
     1
102
RTVSPropertyOp46
 70
     1
102
RTVSPropertyOp47
 70
     1
102
RTVSPropertyOp48
 70
     1
102
RTVSPropertyOp49
 70
     1
102
RTVSPropertyOp50
 70
     1
102
RTVSPropertyOp51
 70
     0
102
RTVSPropertyOp52
 70
     0
102
RTVSPropertyOp53
 70
     1
102
RTVSPropertyOp54
 70
     1
102
RTVSPropertyOp55
 70
     1
102
RTVSPropertyOp56
 70
     1
102
RTVSPropertyOp57
 70
     1
102
RTVSPost2010Prop28
280
     0
102
RTVSPost2010PropOp28
 70
     1
102
RTVSPost2010Prop29
280
     1
102
RTVSPost2010PropOp29
 70
     1
102
RTVSPost2010Prop30
280
     1
102
RTVSPost2010PropOp30
 70
     1
102
RTVSPost2010Prop31
280
     0
102
RTVSPost2010PropOp31
 70
     1
102
RTVSPost2010Prop32
280
     0
102
RTVSPost2010PropOp32
 70
     1
102
RTVSPost2010Prop33
280
     0
102
RTVSPost2010PropOp33
 70
     1
102
RTVSPost2010Prop34
280
     0
102
RTVSPost2010PropOp34
 70
     1
102
RTVSPost2010Prop35
280
     0
102
RTVSPost2010PropOp35
 70
     1
102
RTVSPost2010Prop36
280
     0
102
RTVSPost2010PropOp36
 70
     1
102
RTVSPost2010Prop37
 90
       50
102
RTVSPost2010PropOp37
 70
     1
102
RTVSPost2010Prop38
140
0.0
102
RTVSPost2010PropOp38
 70
     1
102
RTVSPost2010Prop39
140
1.0
102
RTVSPost2010PropOp39
 70
     1
102
RTVSPost2010Prop40
 90
        0
102
RTVSPost2010PropOp40
 70
     1
102
RTVSPost2010Prop41ColorIndex
 90
       18
102
RTVSPost2010Prop41ColorRGB
 90
        0
102
RTVSPost2010PropOp41
 70
     1
102
RTVSPost2010Prop42
 90
       50
102
RTVSPost2010PropOp42
 70
     1
102
RTVSPost2010Prop43
 90
        3
102
RTVSPost2010PropOp43
 70
     1
102
RTVSPost2010Prop44ColorIndex
 90
        5
102
RTVSPost2010Prop44ColorRGB
 90
      255
102
RTVSPost2010PropOp44
 70
     1
102
RTVSPost2010Prop45
280
     0
102
RTVSPost2010PropOp45
 70
     1
102
RTVSPost2010Prop46
 90
       50
102
RTVSPost2010PropOp46
 70
     1
102
RTVSPost2010Prop47
 90
       50
102
RTVSPost2010PropOp47
 70
     1
102
RTVSPost2010Prop48
 90
       50
102
RTVSPost2010PropOp48
 70
     1
102
RTVSPost2010Prop49
280
     0
102
RTVSPost2010PropOp49
 70
     1
102
RTVSPost2010Prop50
 90
       50
102
RTVSPost2010PropOp50
 70
     1
102
RTVSPost2010Prop51ColorIndex
 90
      256
102
RTVSPost2010Prop51ColorRGB
 90
-16777216
102
RTVSPost2010PropOp51
 70
     0
102
RTVSPost2010Prop52
140
1.0
102
RTVSPost2010PropOp52
 70
     0
102
RTVSPost2010Prop53
 90
        2
102
RTVSPost2010PropOp53
 70
     1
102
RTVSPost2010Prop54
  1
strokes_ogs.tif
102
RTVSPost2010PropOp54
 70
     1
102
RTVSPost2010Prop55
280
     0
102
RTVSPost2010PropOp55
 70
     1
102
RTVSPost2010Prop56
140
1.0
102
RTVSPost2010PropOp56
 70
     1
102
RTVSPost2010Prop57
140
1.0
102
RTVSPost2010PropOp57
 70
     1
  0
XRECORD
  5
1BB
102
{ACAD_REACTORS
330
1BA
102
}
330
1BA
100
AcDbXrecord
280
     1
102
RTVSPropertyOp0
 70
     1
102
RTVSPropertyOp1
 70
     1
102
RTVSPropertyOp2
 70
     1
102
RTVSPropertyOp3
 70
     1
102
RTVSPropertyOp4
 70
     1
102
RTVSPropertyOp5
 70
     1
102
RTVSPropertyOp6
 70
     1
102
RTVSPropertyOp7
 70
     1
102
RTVSPropertyOp8
 70
     1
102
RTVSPropertyOp9
 70
     1
102
RTVSPropertyOp10
 70
     1
102
RTVSPropertyOp11
 70
     1
102
RTVSPropertyOp12
 70
     1
102
RTVSPropertyOp13
 70
     1
102
RTVSPropertyOp14
 70
     1
102
RTVSPropertyOp15
 70
     1
102
RTVSPropertyOp16
 70
     1
102
RTVSPropertyOp17
 70
     1
102
RTVSPropertyOp18
 70
     1
102
RTVSPropertyOp19
 70
     1
102
RTVSPropertyOp20
 70
     1
102
RTVSPropertyOp21
 70
     1
102
RTVSPropertyOp22
 70
     1
102
RTVSPropertyOp23
 70
     1
102
RTVSPropertyOp24
 70
     1
102
RTVSPropertyOp25
 70
     1
102
RTVSPropertyOp26
 70
     1
102
RTVSPropertyOp27
 70
     1
102
RTVSPropertyOp28
 70
     1
102
RTVSPropertyOp29
 70
     1
102
RTVSPropertyOp30
 70
     1
102
RTVSPropertyOp31
 70
     1
102
RTVSPropertyOp32
 70
     1
102
RTVSPropertyOp33
 70
     1
102
RTVSPropertyOp34
 70
     1
102
RTVSPropertyOp35
 70
     1
102
RTVSPropertyOp36
 70
     1
102
RTVSPropertyOp37
 70
     1
102
RTVSPropertyOp38
 70
     1
102
RTVSPropertyOp39
 70
     1
102
RTVSPropertyOp40
 70
     1
102
RTVSPropertyOp41
 70
     1
102
RTVSPropertyOp42
 70
     1
102
RTVSPropertyOp43
 70
     1
102
RTVSPropertyOp44
 70
     1
102
RTVSPropertyOp45
 70
     1
102
RTVSPropertyOp46
 70
     1
102
RTVSPropertyOp47
 70
     1
102
RTVSPropertyOp48
 70
     1
102
RTVSPropertyOp49
 70
     1
102
RTVSPropertyOp50
 70
     1
102
RTVSPropertyOp51
 70
     0
102
RTVSPropertyOp52
 70
     0
102
RTVSPropertyOp53
 70
     1
102
RTVSPropertyOp54
 70
     1
102
RTVSPropertyOp55
 70
     1
102
RTVSPropertyOp56
 70
     1
102
RTVSPropertyOp57
 70
     1
102
RTVSPost2010Prop28
280
     0
102
RTVSPost2010PropOp28
 70
     1
102
RTVSPost2010Prop29
280
     1
102
RTVSPost2010PropOp29
 70
     1
102
RTVSPost2010Prop30
280
     1
102
RTVSPost2010PropOp30
 70
     1
102
RTVSPost2010Prop31
280
     0
102
RTVSPost2010PropOp31
 70
     1
102
RTVSPost2010Prop32
280
     0
102
RTVSPost2010PropOp32
 70
     1
102
RTVSPost2010Prop33
280
     0
102
RTVSPost2010PropOp33
 70
     1
102
RTVSPost2010Prop34
280
     0
102
RTVSPost2010PropOp34
 70
     1
102
RTVSPost2010Prop35
280
     0
102
RTVSPost2010PropOp35
 70
     1
102
RTVSPost2010Prop36
280
     0
102
RTVSPost2010PropOp36
 70
     1
102
RTVSPost2010Prop37
 90
       50
102
RTVSPost2010PropOp37
 70
     1
102
RTVSPost2010Prop38
140
0.0
102
RTVSPost2010PropOp38
 70
     1
102
RTVSPost2010Prop39
140
1.0
102
RTVSPost2010PropOp39
 70
     1
102
RTVSPost2010Prop40
 90
        0
102
RTVSPost2010PropOp40
 70
     1
102
RTVSPost2010Prop41ColorIndex
 90
       18
102
RTVSPost2010Prop41ColorRGB
 90
        0
102
RTVSPost2010PropOp41
 70
     1
102
RTVSPost2010Prop42
 90
       50
102
RTVSPost2010PropOp42
 70
     1
102
RTVSPost2010Prop43
 90
        3
102
RTVSPost2010PropOp43
 70
     1
102
RTVSPost2010Prop44ColorIndex
 90
        5
102
RTVSPost2010Prop44ColorRGB
 90
      255
102
RTVSPost2010PropOp44
 70
     1
102
RTVSPost2010Prop45
280
     0
102
RTVSPost2010PropOp45
 70
     1
102
RTVSPost2010Prop46
 90
       50
102
RTVSPost2010PropOp46
 70
     1
102
RTVSPost2010Prop47
 90
       50
102
RTVSPost2010PropOp47
 70
     1
102
RTVSPost2010Prop48
 90
       50
102
RTVSPost2010PropOp48
 70
     1
102
RTVSPost2010Prop49
280
     0
102
RTVSPost2010PropOp49
 70
     1
102
RTVSPost2010Prop50
 90
       50
102
RTVSPost2010PropOp50
 70
     1
102
RTVSPost2010Prop51ColorIndex
 90
      256
102
RTVSPost2010Prop51ColorRGB
 90
-16777216
102
RTVSPost2010PropOp51
 70
     0
102
RTVSPost2010Prop52
140
1.0
102
RTVSPost2010PropOp52
 70
     0
102
RTVSPost2010Prop53
 90
        2
102
RTVSPost2010PropOp53
 70
     1
102
RTVSPost2010Prop54
  1
strokes_ogs.tif
102
RTVSPost2010PropOp54
 70
     1
102
RTVSPost2010Prop55
280
     0
102
RTVSPost2010PropOp55
 70
     1
102
RTVSPost2010Prop56
140
1.0
102
RTVSPost2010PropOp56
 70
     1
102
RTVSPost2010Prop57
140
1.0
102
RTVSPost2010PropOp57
 70
     1
  0
ENDSEC
  0
EOF
