  0
SECTION
  2
HEADER
  9
$ACADVER
  1
AC1021
  9
$ACADMAINTVER
 70
    25
  9
$DWGCODEPAGE
  3
ANSI_1252
  9
$LASTSAVEDBY
  1
User
  9
$INSBASE
 10
0.0
 20
0.0
 30
0.0
  9
$EXTMIN
 10
1.000000000000000E+20
 20
1.000000000000000E+20
 30
1.000000000000000E+20
  9
$EXTMAX
 10
-1.000000000000000E+20
 20
-1.000000000000000E+20
 30
-1.000000000000000E+20
  9
$LIMMIN
 10
0.0
 20
0.0
  9
$LIMMAX
 10
12.0
 20
9.0
  9
$ORTHOMODE
 70
     0
  9
$REGENMODE
 70
     1
  9
$FILLMODE
 70
     1
  9
$QTEXTMODE
 70
     0
  9
$MIRRTEXT
 70
     1
  9
$LTSCALE
 40
1.0
  9
$ATTMODE
 70
     1
  9
$TEXTSIZE
 40
0.2
  9
$TRACEWID
 40
0.05
  9
$TEXTSTYLE
  7
Standard
  9
$CLAYER
  8
0
  9
$CELTYPE
  6
ByLayer
  9
$CECOLOR
 62
   256
  9
$CELTSCALE
 40
1.0
  9
$DISPSILH
 70
     0
  9
$DIMSCALE
 40
1.0
  9
$DIMASZ
 40
0.18
  9
$DIMEXO
 40
0.0625
  9
$DIMDLI
 40
0.38
  9
$DIMRND
 40
0.0
  9
$DIMDLE
 40
0.0
  9
$DIMEXE
 40
0.18
  9
$DIMTP
 40
0.0
  9
$DIMTM
 40
0.0
  9
$DIMTXT
 40
0.18
  9
$DIMCEN
 40
0.09
  9
$DIMTSZ
 40
0.0
  9
$DIMTOL
 70
     0
  9
$DIMLIM
 70
     0
  9
$DIMTIH
 70
     1
  9
$DIMTOH
 70
     1
  9
$DIMSE1
 70
     0
  9
$DIMSE2
 70
     0
  9
$DIMTAD
 70
     0
  9
$DIMZIN
 70
     0
  9
$DIMBLK
  1

  9
$DIMASO
 70
     1
  9
$DIMSHO
 70
     1
  9
$DIMPOST
  1

  9
$DIMAPOST
  1

  9
$DIMALT
 70
     0
  9
$DIMALTD
 70
     2
  9
$DIMALTF
 40
25.4
  9
$DIMLFAC
 40
1.0
  9
$DIMTOFL
 70
     0
  9
$DIMTVP
 40
0.0
  9
$DIMTIX
 70
     0
  9
$DIMSOXD
 70
     0
  9
$DIMSAH
 70
     0
  9
$DIMBLK1
  1

  9
$DIMBLK2
  1

  9
$DIMSTYLE
  2
STANDARD_ACAD
  9
$DIMCLRD
 70
     0
  9
$DIMCLRE
 70
     0
  9
$DIMCLRT
 70
     0
  9
$DIMTFAC
 40
1.0
  9
$DIMGAP
 40
0.09
  9
$DIMJUST
 70
     0
  9
$DIMSD1
 70
     0
  9
$DIMSD2
 70
     0
  9
$DIMTOLJ
 70
     1
  9
$DIMTZIN
 70
     0
  9
$DIMALTZ
 70
     0
  9
$DIMALTTZ
 70
     0
  9
$DIMUPT
 70
     0
  9
$DIMDEC
 70
     4
  9
$DIMTDEC
 70
     4
  9
$DIMALTU
 70
     2
  9
$DIMALTTD
 70
     2
  9
$DIMTXSTY
  7
Standard
  9
$DIMAUNIT
 70
     0
  9
$DIMADEC
 70
     0
  9
$DIMALTRND
 40
0.0
  9
$DIMAZIN
 70
     0
  9
$DIMDSEP
 70
    46
  9
$DIMATFIT
 70
     3
  9
$DIMFRAC
 70
     0
  9
$DIMLDRBLK
  1

  9
$DIMLUNIT
 70
     2
  9
$DIMLWD
 70
    -2
  9
$DIMLWE
 70
    -2
  9
$DIMTMOVE
 70
     2
  9
$DIMFXL
 40
1.0
  9
$DIMFXLON
 70
     0
  9
$DIMJOGANG
 40
0.7853981633974483
  9
$DIMTFILL
 70
     0
  9
$DIMTFILLCLR
 70
     0
  9
$DIMARCSYM
 70
     0
  9
$DIMLTYPE
  6

  9
$DIMLTEX1
  6

  9
$DIMLTEX2
  6

  9
$LUNITS
 70
     2
  9
$LUPREC
 70
     3
  9
$SKETCHINC
 40
0.1
  9
$FILLETRAD
 40
0.0
  9
$AUNITS
 70
     0
  9
$AUPREC
 70
     0
  9
$MENU
  1
.
  9
$ELEVATION
 40
0.0
  9
$PELEVATION
 40
0.0
  9
$THICKNESS
 40
0.0
  9
$LIMCHECK
 70
     0
  9
$CHAMFERA
 40
0.0
  9
$CHAMFERB
 40
0.0
  9
$CHAMFERC
 40
0.0
  9
$CHAMFERD
 40
0.0
  9
$SKPOLY
 70
     0
  9
$TDCREATE
 40
2459551.889866157
  9
$TDUCREATE
 40
2459552.098199491
  9
$TDUPDATE
 40
2459551.88988331
  9
$TDUUPDATE
 40
2459552.098216644
  9
$TDINDWG
 40
0.0000000116
  9
$TDUSRTIMER
 40
0.0000000116
  9
$USRTIMER
 70
     1
  9
$ANGBASE
 50
0.0
  9
$ANGDIR
 70
     0
  9
$PDMODE
 70
     0
  9
$PDSIZE
 40
0.0
  9
$PLINEWID
 40
0.0
  9
$SPLFRAME
 70
     0
  9
$SPLINETYPE
 70
     6
  9
$SPLINESEGS
 70
     8
  9
$HANDSEED
  5
1AF
  9
$SURFTAB1
 70
     6
  9
$SURFTAB2
 70
     6
  9
$SURFTYPE
 70
     6
  9
$SURFU
 70
     6
  9
$SURFV
 70
     6
  9
$UCSBASE
  2

  9
$UCSNAME
  2

  9
$UCSORG
 10
0.0
 20
0.0
 30
0.0
  9
$UCSXDIR
 10
1.0
 20
0.0
 30
0.0
  9
$UCSYDIR
 10
0.0
 20
1.0
 30
0.0
  9
$UCSORTHOREF
  2

  9
$UCSORTHOVIEW
 70
     0
  9
$UCSORGTOP
 10
0.0
 20
0.0
 30
0.0
  9
$UCSORGBOTTOM
 10
0.0
 20
0.0
 30
0.0
  9
$UCSORGLEFT
 10
0.0
 20
0.0
 30
0.0
  9
$UCSORGRIGHT
 10
0.0
 20
0.0
 30
0.0
  9
$UCSORGFRONT
 10
0.0
 20
0.0
 30
0.0
  9
$UCSORGBACK
 10
0.0
 20
0.0
 30
0.0
  9
$PUCSBASE
  2

  9
$PUCSNAME
  2

  9
$PUCSORG
 10
0.0
 20
0.0
 30
0.0
  9
$PUCSXDIR
 10
1.0
 20
0.0
 30
0.0
  9
$PUCSYDIR
 10
0.0
 20
1.0
 30
0.0
  9
$PUCSORTHOREF
  2

  9
$PUCSORTHOVIEW
 70
     0
  9
$PUCSORGTOP
 10
0.0
 20
0.0
 30
0.0
  9
$PUCSORGBOTTOM
 10
0.0
 20
0.0
 30
0.0
  9
$PUCSORGLEFT
 10
0.0
 20
0.0
 30
0.0
  9
$PUCSORGRIGHT
 10
0.0
 20
0.0
 30
0.0
  9
$PUCSORGFRONT
 10
0.0
 20
0.0
 30
0.0
  9
$PUCSORGBACK
 10
0.0
 20
0.0
 30
0.0
  9
$USERI1
 70
     0
  9
$USERI2
 70
     0
  9
$USERI3
 70
     0
  9
$USERI4
 70
     0
  9
$USERI5
 70
     0
  9
$USERR1
 40
0.0
  9
$USERR2
 40
0.0
  9
$USERR3
 40
0.0
  9
$USERR4
 40
0.0
  9
$USERR5
 40
0.0
  9
$WORLDVIEW
 70
     1
  9
$SHADEDGE
 70
     3
  9
$SHADEDIF
 70
    70
  9
$TILEMODE
 70
     1
  9
$MAXACTVP
 70
    64
  9
$PINSBASE
 10
0.0
 20
0.0
 30
0.0
  9
$PLIMCHECK
 70
     0
  9
$PEXTMIN
 10
1.000000000000000E+20
 20
1.000000000000000E+20
 30
1.000000000000000E+20
  9
$PEXTMAX
 10
-1.000000000000000E+20
 20
-1.000000000000000E+20
 30
-1.000000000000000E+20
  9
$PLIMMIN
 10
0.0
 20
0.0
  9
$PLIMMAX
 10
12.0
 20
9.0
  9
$UNITMODE
 70
     0
  9
$VISRETAIN
 70
     1
  9
$PLINEGEN
 70
     0
  9
$PSLTSCALE
 70
     1
  9
$TREEDEPTH
 70
  3020
  9
$CMLSTYLE
  2
Standard
  9
$CMLJUST
 70
     0
  9
$CMLSCALE
 40
1.0
  9
$PROXYGRAPHICS
 70
     1
  9
$MEASUREMENT
 70
     0
  9
$CELWEIGHT
370
    -1
  9
$ENDCAPS
280
     0
  9
$JOINSTYLE
280
     0
  9
$LWDISPLAY
290
     0
  9
$INSUNITS
 70
     1
  9
$HYPERLINKBASE
  1

  9
$STYLESHEET
  1

  9
$XEDIT
290
     1
  9
$CEPSNTYPE
380
     0
  9
$PSTYLEMODE
290
     1
  9
$FINGERPRINTGUID
  2
{f8c73e70-e30e-48c8-ad85-1e6f264ddd5c}
  9
$VERSIONGUID
  2
{FAEB1C32-E019-11D5-929B-00C0DF256EC4}
  9
$EXTNAMES
290
     1
  9
$PSVPSCALE
 40
0.0
  9
$OLESTARTUP
290
     0
  9
$SORTENTS
280
   127
  9
$INDEXCTL
280
     0
  9
$HIDETEXT
280
     1
  9
$XCLIPFRAME
290
     0
  9
$HALOGAP
280
     0
  9
$OBSCOLOR
 70
   257
  9
$OBSLTYPE
280
     0
  9
$INTERSECTIONDISPLAY
280
     0
  9
$INTERSECTIONCOLOR
 70
   257
  9
$DIMASSOC
280
     2
  9
$PROJECTNAME
  1

  9
$CAMERADISPLAY
290
     0
  9
$LENSLENGTH
 40
50.0
  9
$CAMERAHEIGHT
 40
0.0
  9
$STEPSPERSEC
 40
2.0
  9
$STEPSIZE
 40
6.0
  9
$3DDWFPREC
 40
2.0
  9
$PSOLWIDTH
 40
0.25
  9
$PSOLHEIGHT
 40
4.0
  9
$LOFTANG1
 40
1.570796326794897
  9
$LOFTANG2
 40
1.570796326794897
  9
$LOFTMAG1
 40
0.0
  9
$LOFTMAG2
 40
0.0
  9
$LOFTPARAM
 70
     7
  9
$LOFTNORMALS
280
     1
  9
$LATITUDE
 40
37.795
  9
$LONGITUDE
 40
-122.394
  9
$NORTHDIRECTION
 40
0.0
  9
$TIMEZONE
 70
 -8000
  9
$LIGHTGLYPHDISPLAY
280
     1
  9
$TILEMODELIGHTSYNCH
280
     1
  9
$CMATERIAL
347
44
  9
$SOLIDHIST
280
     0
  9
$SHOWHIST
280
     1
  9
$DWFFRAME
280
     2
  9
$DGNFRAME
280
     2
  9
$REALWORLDSCALE
290
     1
  9
$INTERFERECOLOR
 62
   256
  9
$CSHADOW
280
     0
  9
$SHADOWPLANELOCATION
 40
0.0
  0
ENDSEC
  0
SECTION
  2
CLASSES
  0
CLASS
  1
ACDBDICTIONARYWDFLT
  2
AcDbDictionaryWithDefault
  3
ObjectDBX Classes
 90
        0
 91
        3
280
     0
281
     0
  0
CLASS
  1
VISUALSTYLE
  2
AcDbVisualStyle
  3
ObjectDBX Classes
 90
     4095
 91
        3
280
     0
281
     0
  0
CLASS
  1
MATERIAL
  2
AcDbMaterial
  3
ObjectDBX Classes
 90
     1153
 91
        3
280
     0
281
     0
  0
CLASS
  1
SCALE
  2
AcDbScale
  3
ObjectDBX Classes
 90
     1153
 91
        3
280
     0
281
     0
  0
CLASS
  1
TABLESTYLE
  2
AcDbTableStyle
  3
ObjectDBX Classes
 90
     4095
 91
        3
280
     0
281
     0
  0
CLASS
  1
MLEADERSTYLE
  2
AcDbMLeaderStyle
  3
ACDB_MLEADERSTYLE_CLASS
 90
     4095
 91
        3
280
     0
281
     0
  0
CLASS
  1
SUN
  2
AcDbSun
  3
SCENEOE
 90
     1153
 91
        3
280
     0
281
     0
  0
CLASS
  1
DICTIONARYVAR
  2
AcDbDictionaryVar
  3
ObjectDBX Classes
 90
        0
 91
        3
280
     0
281
     0
  0
CLASS
  1
CELLSTYLEMAP
  2
AcDbCellStyleMap
  3
ObjectDBX Classes
 90
     1152
 91
        3
280
     0
281
     0
  0
ENDSEC
  0
SECTION
  2
TABLES
  0
TABLE
  2
VPORT
  5
8
330
0
100
AcDbSymbolTable
 70
     1
  0
VPORT
  5
29
330
8
100
AcDbSymbolTableRecord
100
AcDbViewportTableRecord
  2
*Active
 70
     0
 10
0.0
 20
0.0
 11
1.0
 21
1.0
 12
10.42990654205607
 22
4.5
 13
0.0
 23
0.0
 14
0.5
 24
0.5
 15
0.5
 25
0.5
 16
0.0
 26
0.0
 36
1.0
 17
0.0
 27
0.0
 37
0.0
 40
9.0
 41
1.972972972850329
 42
50.0
 43
0.0
 44
0.0
 50
0.0
 51
0.0
 71
     0
 72
   100
 73
     1
 74
     3
 75
     0
 76
     0
 77
     0
 78
     0
281
     0
 65
     1
110
0.0
120
0.0
130
0.0
111
1.0
121
0.0
131
0.0
112
0.0
122
1.0
132
0.0
 79
     0
146
0.0
348
2F
 60
     3
 61
     5
292
     1
282
     1
141
0.0
142
0.0
 63
   250
361
5D
  0
ENDTAB
  0
TABLE
  2
LTYPE
  5
5
330
0
100
AcDbSymbolTable
 70
     1
  0
LTYPE
  5
14
330
5
100
AcDbSymbolTableRecord
100
AcDbLinetypeTableRecord
  2
ByBlock
 70
     0
  3

 72
    65
 73
     0
 40
0.0
  0
LTYPE
  5
15
330
5
100
AcDbSymbolTableRecord
100
AcDbLinetypeTableRecord
  2
ByLayer
 70
     0
  3

 72
    65
 73
     0
 40
0.0
  0
LTYPE
  5
16
330
5
100
AcDbSymbolTableRecord
100
AcDbLinetypeTableRecord
  2
Continuous
 70
     0
  3
Solid line
 72
    65
 73
     0
 40
0.0
  0
ENDTAB
  0
TABLE
  2
LAYER
  5
2
330
0
100
AcDbSymbolTable
 70
     3
  0
LAYER
  5
10
330
2
100
AcDbSymbolTableRecord
100
AcDbLayerTableRecord
  2
0
 70
     0
 62
     7
  6
Continuous
370
    -3
390
F
347
46
  0
LAYER
  5
5F
330
2
100
AcDbSymbolTableRecord
100
AcDbLayerTableRecord
  2
2D DXF
 70
     0
 62
    18
420
        0
  6
Continuous
370
    -3
390
F
347
46
  0
LAYER
  5
62
330
2
100
AcDbSymbolTableRecord
100
AcDbLayerTableRecord
  2
Make2D$Visible$Curves
 70
     0
 62
    18
420
        0
  6
Continuous
370
    -3
390
F
347
46
  0
ENDTAB
  0
TABLE
  2
STYLE
  5
3
330
0
100
AcDbSymbolTable
 70
     1
  0
STYLE
  5
11
330
3
100
AcDbSymbolTableRecord
100
AcDbTextStyleTableRecord
  2
Standard
 70
     0
 40
0.0
 41
1.0
 50
0.0
 71
     0
 42
0.2
  3
txt
  4

  0
ENDTAB
  0
TABLE
  2
VIEW
  5
6
330
0
100
AcDbSymbolTable
 70
     0
  0
ENDTAB
  0
TABLE
  2
UCS
  5
7
330
0
100
AcDbSymbolTable
 70
     0
  0
ENDTAB
  0
TABLE
  2
APPID
  5
9
330
0
100
AcDbSymbolTable
 70
     3
  0
APPID
  5
12
330
9
100
AcDbSymbolTableRecord
100
AcDbRegAppTableRecord
  2
ACAD
 70
     0
  0
APPID
  5
5E
330
9
100
AcDbSymbolTableRecord
100
AcDbRegAppTableRecord
  2
Rhino
 70
     0
  0
APPID
  5
1A7
330
9
100
AcDbSymbolTableRecord
100
AcDbRegAppTableRecord
  2
ACAD_MLEADERVER
 70
     0
  0
ENDTAB
  0
TABLE
  2
DIMSTYLE
  5
A
330
0
100
AcDbSymbolTable
 70
     1
100
AcDbDimStyleTable
  0
DIMSTYLE
105
27
330
A
100
AcDbSymbolTableRecord
100
AcDbDimStyleTableRecord
  2
STANDARD_ACAD
 70
     0
178
     0
340
11
  0
ENDTAB
  0
TABLE
  2
BLOCK_RECORD
  5
1
330
0
100
AcDbSymbolTable
 70
     1
  0
BLOCK_RECORD
  5
1F
330
1
100
AcDbSymbolTableRecord
100
AcDbBlockTableRecord
  2
*Model_Space
340
22
 70
     0
280
     1
281
     0
  0
BLOCK_RECORD
  5
1B
330
1
100
AcDbSymbolTableRecord
100
AcDbBlockTableRecord
  2
*Paper_Space
340
1E
 70
     0
280
     1
281
     0
  0
BLOCK_RECORD
  5
23
330
1
100
AcDbSymbolTableRecord
100
AcDbBlockTableRecord
  2
*Paper_Space0
340
26
 70
     0
280
     1
281
     0
  0
ENDTAB
  0
ENDSEC
  0
SECTION
  2
BLOCKS
  0
BLOCK
  5
20
330
1F
100
AcDbEntity
  8
0
100
AcDbBlockBegin
  2
*Model_Space
 70
     0
 10
0.0
 20
0.0
 30
0.0
  3
*Model_Space
  1

  0
ENDBLK
  5
21
330
1F
100
AcDbEntity
  8
0
100
AcDbBlockEnd
  0
BLOCK
  5
1C
330
1B
100
AcDbEntity
 67
     1
  8
0
100
AcDbBlockBegin
  2
*Paper_Space
 70
     0
 10
0.0
 20
0.0
 30
0.0
  3
*Paper_Space
  1

  0
ENDBLK
  5
1D
330
1B
100
AcDbEntity
 67
     1
  8
0
100
AcDbBlockEnd
  0
BLOCK
  5
24
330
23
100
AcDbEntity
  8
0
100
AcDbBlockBegin
  2
*Paper_Space0
 70
     0
 10
0.0
 20
0.0
 30
0.0
  3
*Paper_Space0
  1

  0
ENDBLK
  5
25
330
23
100
AcDbEntity
  8
0
100
AcDbBlockEnd
  0
ENDSEC
  0
SECTION
  2
ENTITIES
  0
SPLINE
  5
60
330
1F
100
AcDbEntity
  8
2D DXF
370
    -3
100
AcDbSpline
210
0.0
220
0.0
230
1.0
 70
     8
 71
     3
 72
    10
 73
     6
 74
     0
 42
0.0000000001
 43
0.0000000001
 40
0.0
 40
0.0
 40
0.0
 40
0.0
 40
1.0
 40
2.0
 40
2.18169656660979
 40
2.18169656660979
 40
2.18169656660979
 40
2.18169656660979
 10
-4.181196034623611
 20
27.1525288406291
 30
0.0
 10
-4.219515794783149
 20
26.93960270874413
 30
0.0
 10
-4.298282412004312
 20
26.51403696193847
 30
0.0
 10
-4.391266371233611
 20
26.05141109393337
 30
0.0
 10
-4.448397318405075
 20
25.8020156676293
 30
0.0
 10
-4.457474355573014
 20
25.76374396984935
 30
0.0
  0
SPLINE
  5
61
330
1F
100
AcDbEntity
  8
2D DXF
370
    -3
100
AcDbSpline
210
0.0
220
0.0
230
1.0
 70
     8
 71
     3
 72
    10
 73
     6
 74
     0
 42
0.0000000001
 43
0.0000000001
 40
0.0
 40
0.0
 40
0.0
 40
0.0
 40
1.0
 40
2.0
 40
2.180731570891315
 40
2.180731570891315
 40
2.180731570891315
 40
2.180731570891315
 10
4.182308849410504
 20
27.1525288406291
 30
0.0
 10
4.220628609570042
 20
26.93960270874413
 30
0.0
 10
4.299395226791205
 20
26.51403696193847
 30
0.0
 10
4.392338057880176
 20
26.05161571999765
 30
0.0
 10
4.449416829285273
 20
25.8024229904413
 30
0.0
 10
4.458442569882691
 20
25.76435376247855
 30
0.0
  0
SPLINE
  5
63
330
1F
100
AcDbEntity
  8
Make2D$Visible$Curves
 62
    18
420
        0
370
    -3
100
AcDbSpline
210
0.0
220
0.0
230
1.0
 70
    11
 71
     2
 72
    34
 73
    31
 74
     0
 42
0.0000000001
 43
0.0000000001
 40
0.0
 40
0.0
 40
0.0
 40
1.000000040306232
 40
2.000000080612463
 40
3.000000120918695
 40
4.000000161224927
 40
5.000000201531158
 40
6.00000024183739
 40
7.00000028214362
 40
8.000000322449853
 40
9.000000362756083
 40
10.00000040306232
 40
11.00000044336855
 40
12.00000048367478
 40
13.00000052398101
 40
14.0
 40
14.0
 40
14.99999947601899
 40
15.99999951632522
 40
16.99999955663145
 40
17.99999959693768
 40
18.99999963724391
 40
19.99999967755015
 40
20.99999971785638
 40
21.99999975816261
 40
22.99999979846884
 40
23.99999983877507
 40
24.9999998790813
 40
25.99999991938754
 40
26.99999995969377
 40
28.0
 40
28.0
 40
28.0
 10
0.0023201697223527
 20
63.05299700766944
 30
0.0
 10
0.9513173457304447
 20
63.05815682126681
 30
0.0
 10
2.839095003483351
 20
62.8633139090692
 30
0.0
 10
4.678489575362974
 20
62.35700862616689
 30
0.0
 10
6.253208426638778
 20
61.26362332219009
 30
0.0
 10
7.322280057649778
 20
59.67792256751198
 30
0.0
 10
7.928828568698847
 20
57.8734599847396
 30
0.0
 10
8.262525163494658
 20
56.00390636446203
 30
0.0
 10
8.276316672003844
 20
54.10312996996023
 30
0.0
 10
7.967626858006028
 20
52.22723523915675
 30
0.0
 10
7.286561653386229
 20
50.44756016711292
 30
0.0
 10
6.147952297931951
 20
48.91532173726045
 30
0.0
 10
4.609728761507
 20
47.78586575586063
 30
0.0
 10
2.830486954765348
 20
47.10411098449113
 30
0.0
 10
0.9521552596986993
 20
46.80942382645603
 30
0.0
 10
0.0023201697223527
 20
46.8123011799764
 30
0.0
 10
-0.9475149202539939
 20
46.80942382645603
 30
0.0
 10
-2.825846615320643
 20
47.10411098449113
 30
0.0
 10
-4.605088422062295
 20
47.78586575586063
 30
0.0
 10
-6.143311958487246
 20
48.91532173726045
 30
0.0
 10
-7.281921313941524
 20
50.44756016711292
 30
0.0
 10
-7.962986518561323
 20
52.22723523915675
 30
0.0
 10
-8.271676332559139
 20
54.10312996996023
 30
0.0
 10
-8.257884824049952
 20
56.00390636446203
 30
0.0
 10
-7.924188229254142
 20
57.8734599847396
 30
0.0
 10
-7.317639718205072
 20
59.67792256751198
 30
0.0
 10
-6.248568087194073
 20
61.26362332219009
 30
0.0
 10
-4.673849235918269
 20
62.35700862616689
 30
0.0
 10
-2.834454664038645
 20
62.8633139090692
 30
0.0
 10
-0.9466770062857393
 20
63.05815682126681
 30
0.0
 10
0.0023201697223527
 20
63.05299700766944
 30
0.0
  0
SPLINE
  5
64
330
1F
100
AcDbEntity
  8
Make2D$Visible$Curves
 62
    18
420
        0
370
    -3
100
AcDbSpline
210
0.0
220
0.0
230
1.0
 70
    12
 71
     3
 72
    48
 73
    44
 74
     0
 42
0.0000000001
 43
0.0000000001
 40
0.0
 40
0.0
 40
0.0
 40
0.0
 40
1.0
 40
1.0
 40
1.0
 40
2.0
 40
3.0
 40
4.0
 40
5.0
 40
6.0
 40
7.0
 40
7.0
 40
7.0
 40
8.0
 40
8.0
 40
9.0
 40
9.0
 40
10.0
 40
10.0
 40
11.0
 40
11.0
 40
12.0
 40
12.0
 40
13.0
 40
13.0
 40
14.0
 40
14.0
 40
15.0
 40
15.0
 40
16.0
 40
16.0
 40
17.0
 40
17.0
 40
18.0
 40
18.0
 40
19.0
 40
19.0
 40
20.0
 40
20.0
 40
21.0
 40
21.0
 40
21.0
 40
21.40578199946958
 40
21.40578199946958
 40
21.40578199946958
 40
21.40578199946958
 10
40.92857391609288
 20
24.2728743681096
 30
0.0
 41
1.0
 10
40.97210671651703
 20
24.25262890043832
 30
0.0
 41
1.0
 10
41.03089028762558
 20
24.28515781141461
 30
0.0
 41
1.0
 10
41.05082481188346
 20
24.32883387334034
 30
0.0
 41
1.0
 10
41.07345240333196
 20
24.37841038053708
 30
0.0
 41
1.0
 10
41.08287485076453
 20
24.4926204532165
 30
0.0
 41
1.0
 10
41.0004149300604
 20
24.63859067571878
 30
0.0
 41
1.0
 10
40.88346383815886
 20
24.75286269409175
 30
0.0
 41
1.0
 10
40.75078338954623
 20
24.84842160396627
 30
0.0
 41
1.0
 10
40.60968531574586
 20
24.93053129845653
 30
0.0
 41
1.0
 10
40.51125054858282
 20
24.97692132199626
 30
0.0
 41
1.0
 10
40.46250093846329
 20
25.00101689818467
 30
0.0
 41
1.0
 10
40.14258249018168
 20
25.15914368782972
 30
0.0
 41
1.0
 10
39.81815593934972
 20
25.30786307789202
 30
0.0
 41
1.0
 10
39.16028663258509
 20
25.58648705885114
 30
0.0
 41
1.0
 10
38.82286751376567
 20
25.70111911243836
 30
0.0
 41
1.0
 10
38.13106034525263
 20
25.88102334582812
 30
0.0
 41
1.0
 10
37.78101072409817
 20
25.94905404948996
 30
0.0
 41
1.0
 10
37.07261940799341
 20
26.04127263074755
 30
0.0
 41
1.0
 10
36.71721429716322
 20
26.07244301458044
 30
0.0
 41
1.0
 10
36.00398516994716
 20
26.1049059686544
 30
0.0
 41
1.0
 10
35.64723733471236
 20
26.11031847829433
 30
0.0
 41
1.0
 10
34.93347512098918
 20
26.09950556278009
 30
0.0
 41
1.0
 10
34.57689946425712
 20
26.08635011776205
 30
0.0
 41
1.0
 10
33.8643590510521
 20
26.04454125320416
 30
0.0
 41
1.0
 10
33.50853250998002
 20
26.01785604440059
 30
0.0
 41
1.0
 10
32.79776675889676
 20
25.95292407374418
 30
0.0
 41
1.0
 10
32.44278023705269
 20
25.91664394610345
 30
0.0
 41
1.0
 10
31.7335999007597
 20
25.83645540619692
 30
0.0
 41
1.0
 10
31.37927825772843
 20
25.794135551891
 30
0.0
 41
1.0
 10
30.67117202189633
 20
25.70504467457382
 30
0.0
 41
1.0
 10
30.31735657184627
 20
25.65868317798826
 30
0.0
 41
1.0
 10
29.61020100747815
 20
25.56232806896321
 30
0.0
 41
1.0
 10
29.25687462276243
 20
25.5123848156958
 30
0.0
 41
1.0
 10
28.55072464826765
 20
25.40896691165119
 30
0.0
 41
1.0
 10
28.19836455978508
 20
25.35248549077399
 30
0.0
 41
1.0
 10
27.4950741803496
 20
25.22997771130974
 30
0.0
 41
1.0
 10
27.14581371209646
 20
25.15739387372204
 30
0.0
 41
1.0
 10
26.45206221851936
 20
24.9895663028355
 30
0.0
 41
1.0
 10
26.10602284807627
 20
24.90246941943193
 30
0.0
 41
1.0
 10
25.76081985397863
 20
24.81218943806808
 30
0.0
 41
1.0
 10
25.6207423657602
 20
24.77555536118555
 30
0.0
 41
0.9999953304417449
 10
25.48080297307621
 20
24.73839725749532
 30
0.0
 41
0.9999953304417449
 10
25.34100363629207
 20
24.70071564753319
 30
0.0
 41
1.0
  0
SPLINE
  5
65
330
1F
100
AcDbEntity
  8
Make2D$Visible$Curves
 62
    18
420
        0
370
    -3
100
AcDbSpline
210
0.0
220
0.0
230
1.0
 70
    12
 71
     3
 72
    41
 73
    37
 74
     0
 42
0.0000000001
 43
0.0000000001
 40
-0.0671572777863575
 40
-0.0671572777863575
 40
-0.0671572777863575
 40
-0.0671572777863575
 40
0.0
 40
0.0
 40
0.0
 40
1.000000150794276
 40
2.000000301588552
 40
3.000000452382829
 40
4.000000603177105
 40
5.000000753971381
 40
6.000000904765657
 40
7.000001055559935
 40
8.00000120635421
 40
9.000001357148488
 40
10.00000150794276
 40
11.00000165873704
 40
12.00000180953132
 40
13.0
 40
13.0
 40
13.0
 40
13.99999819046868
 40
14.99999834126296
 40
15.99999849205724
 40
16.99999864285151
 40
17.99999879364579
 40
18.99999894444007
 40
19.99999909523434
 40
20.99999924602862
 40
21.99999939682289
 40
22.99999954761717
 40
23.99999969841145
 40
24.99999984920573
 40
26.0
 40
26.0
 40
26.0
 40
26.06715727778636
 40
26.06715727778636
 40
26.06715727778636
 40
26.06715727778636
 10
-8.27179155540907
 20
25.62817043564898
 30
0.0
 41
1.0
 10
-8.270408137009126
 20
25.64415608379773
 30
0.0
 41
0.9989377936654854
 10
-8.268124890167236
 20
25.66003819880375
 30
0.0
 41
0.9989377936654854
 10
-8.264949090721178
 20
25.67576617041752
 30
0.0
 41
1.0
 10
-8.217685232558793
 20
25.90983782140227
 30
0.0
 41
1.0
 10
-7.772741700792025
 20
26.08485564543352
 30
0.0
 41
1.0
 10
-7.129941399624713
 20
26.07852619593698
 30
0.0
 41
1.0
 10
-6.482175427059204
 20
26.00242393857686
 30
0.0
 41
1.0
 10
-5.839393354588807
 20
25.91179286798035
 30
0.0
 41
1.0
 10
-5.193958231946951
 20
25.83512079659382
 30
0.0
 41
1.0
 10
-4.547565675139253
 20
25.76922238049962
 30
0.0
 41
1.0
 10
-3.899747780173513
 20
25.71826482188614
 30
0.0
 41
1.0
 10
-3.251054447019769
 20
25.68057026073209
 30
0.0
 41
1.0
 10
-2.601790207226585
 20
25.65455152132397
 30
0.0
 41
1.0
 10
-1.952224705380473
 20
25.63803743636599
 30
0.0
 41
1.0
 10
-1.302523643411831
 20
25.62866757508176
 30
0.0
 41
1.0
 10
-0.6527738071543752
 20
25.62421672512219
 30
0.0
 41
1.0
 10
-0.2195990225100672
 20
25.62350073707812
 30
0.0
 41
1.0
 10
-0.0030120634800284
 20
25.62350880928251
 30
0.0
 41
1.0
 10
0.2135748955500105
 20
25.62350073707812
 30
0.0
 41
1.0
 10
0.6467496801943184
 20
25.62421672512219
 30
0.0
 41
1.0
 10
1.296499516451775
 20
25.62866757508176
 30
0.0
 41
1.0
 10
1.946200578420417
 20
25.63803743636599
 30
0.0
 41
1.0
 10
2.595766080266529
 20
25.65455152132397
 30
0.0
 41
1.0
 10
3.245030320059712
 20
25.68057026073209
 30
0.0
 41
1.0
 10
3.893723653213456
 20
25.71826482188614
 30
0.0
 41
1.0
 10
4.541541548179197
 20
25.76922238049962
 30
0.0
 41
1.0
 10
5.187934104986894
 20
25.83512079659382
 30
0.0
 41
1.0
 10
5.833369227628751
 20
25.91179286798035
 30
0.0
 41
1.0
 10
6.476151300099147
 20
26.00242393857686
 30
0.0
 41
1.0
 10
7.123917272664656
 20
26.07852619593698
 30
0.0
 41
1.0
 10
7.766717573831968
 20
26.08485564543352
 30
0.0
 41
1.0
 10
8.211661105598736
 20
25.90983782140227
 30
0.0
 41
1.0
 10
8.258924963761121
 20
25.67576617041752
 30
0.0
 41
1.0
 10
8.26210076320718
 20
25.66003819880375
 30
0.0
 41
0.9989377936654854
 10
8.264384010049069
 20
25.64415608379773
 30
0.0
 41
0.9989377936654854
 10
8.265767428449013
 20
25.62817043564898
 30
0.0
 41
1.0
  0
SPLINE
  5
66
330
1F
100
AcDbEntity
  8
Make2D$Visible$Curves
 62
    18
420
        0
370
    -3
100
AcDbSpline
210
0.0
220
0.0
230
1.0
 70
     8
 71
     3
 72
    27
 73
    23
 74
     0
 42
0.0000000001
 43
0.0000000001
 40
0.0
 40
0.0
 40
0.0
 40
0.0
 40
1.0
 40
2.0
 40
3.0
 40
4.0
 40
5.0
 40
6.0
 40
7.0
 40
8.0
 40
9.0
 40
9.0
 40
9.0
 40
10.0
 40
11.0
 40
12.0
 40
13.0
 40
14.0
 40
15.0
 40
16.0
 40
17.0
 40
18.0
 40
18.0
 40
18.0
 40
18.0
 10
-8.517792608091227
 20
25.37666795880787
 30
0.0
 10
-8.38083043225268
 20
25.72678399820794
 30
0.0
 10
-7.632117341810385
 20
25.66409370877197
 30
0.0
 10
-6.718041824034088
 20
25.43605430771148
 30
0.0
 10
-5.779101529750164
 20
25.12505762217825
 30
0.0
 10
-4.847514168361627
 20
24.83344551644956
 30
0.0
 10
-3.898060945864756
 20
24.59034447680051
 30
0.0
 10
-2.935365557972148
 20
24.41140350896172
 30
0.0
 10
-1.962570611243009
 20
24.29815128514778
 30
0.0
 10
-0.9852754988254588
 20
24.2390339061205
 30
0.0
 10
-0.3327185473266354
 20
24.22695558242658
 30
0.0
 10
-0.0064467355827844
 20
24.22696542936228
 30
0.0
 10
0.3198231177915858
 20
24.22583493626676
 30
0.0
 10
0.9724177055495886
 20
24.23567185050188
 30
0.0
 10
1.949910103829311
 20
24.29143216402019
 30
0.0
 10
2.923088299987398
 20
24.40134245973011
 30
0.0
 10
3.886392618097133
 20
24.57697580096094
 30
0.0
 10
4.836675219603862
 20
24.81681431842995
 30
0.0
 10
5.769258686407923
 20
25.10522497972752
 30
0.0
 10
6.709261622976896
 20
25.41299485135945
 30
0.0
 10
7.624114996212413
 20
25.63789333093115
 30
0.0
 10
8.373038992711713
 20
25.69801164475237
 30
0.0
 10
8.508797816646862
 20
25.34742724638392
 30
0.0
  0
LINE
  5
67
330
1F
100
AcDbEntity
  8
2D DXF
370
    -3
100
AcDbLine
 10
7.020326750558553
 20
7.533263534256733
 30
0.0
 11
-7.01607846337015
 21
7.533263534256889
 31
0.0
  0
LINE
  5
68
330
1F
100
AcDbEntity
  8
2D DXF
370
    -3
100
AcDbLine
 10
-6.925618803061866
 20
8.163263534256899
 30
0.0
 11
6.927767234224859
 21
8.163263534256998
 31
0.0
  0
SPLINE
  5
69
330
1F
100
AcDbEntity
  8
2D DXF
370
    -3
100
AcDbSpline
210
0.0
220
0.0
230
1.0
 70
     8
 71
     2
 72
     9
 73
     6
 74
     0
 42
0.0000000001
 43
0.0000000001
 40
13.40660984821153
 40
13.40660984821153
 40
13.40660984821153
 40
14.40660984821153
 40
15.40660984821153
 40
16.40660984821153
 40
17.40660984821153
 40
17.40660984821153
 40
17.40660984821153
 10
5.83841314524102
 20
22.37413123270593
 30
0.0
 10
5.822385475062731
 20
22.49581431943486
 30
0.0
 10
5.747737043742916
 20
22.72715667308036
 30
0.0
 10
5.627665526805799
 20
22.93875903232002
 30
0.0
 10
5.461218701576342
 20
23.11679729148791
 30
0.0
 10
5.356441918479732
 20
23.17928972522387
 30
0.0
  0
LINE
  5
6A
330
1F
100
AcDbEntity
  8
2D DXF
370
    -3
100
AcDbLine
 10
7.724446573234843
 20
8.163263534256913
 30
0.0
 11
5.83841314524102
 21
22.37413123270593
 31
0.0
  0
LINE
  5
6B
330
1F
100
AcDbEntity
  8
2D DXF
370
    -3
100
AcDbLine
 10
8.767123208120353
 20
0.3069130100866175
 30
0.0
 11
7.808058713242701
 21
7.533263534256932
 31
0.0
  0
LINE
  5
6C
330
1F
100
AcDbEntity
  8
2D DXF
370
    -3
100
AcDbLine
 10
8.795534289908261
 20
0.0901142997323632
 30
0.0
 11
8.767123208120353
 21
0.3069130100866175
 31
0.0
  0
SPLINE
  5
6D
330
1F
100
AcDbEntity
  8
2D DXF
370
    -3
100
AcDbSpline
210
0.0
220
0.0
230
1.0
 70
     8
 71
     2
 72
    11
 73
     8
 74
     0
 42
0.0000000001
 43
0.0000000001
 40
5.698972562897589
 40
5.698972562897589
 40
5.698972562897589
 40
6.698972562897589
 40
7.698972562897589
 40
8.69897256289759
 40
9.69897256289759
 40
10.69897256289759
 40
11.69897256289759
 40
11.69897256289759
 40
11.69897256289759
 10
9.41850659749727
 20
0.1815156285063892
 30
0.0
 10
9.420942821582145
 20
0.1133772293136417
 30
0.0
 10
9.306779131159402
 20
0.0517928290005898
 30
0.0
 10
9.187892181513547
 20
0.0245838587711091
 30
0.0
 10
9.066159039250493
 20
0.0079644191426382
 30
0.0
 10
8.944409724735948
 20
0.0026664977076791
 30
0.0
 10
8.817402563668878
 20
0.0264077298363077
 30
0.0
 10
8.795534289908261
 20
0.0901142997323632
 30
0.0
  0
LINE
  5
6E
330
1F
100
AcDbEntity
  8
2D DXF
370
    -3
100
AcDbLine
 10
9.391644122377926
 20
0.389820356299623
 30
0.0
 11
9.41850659749727
 21
0.1815156285063892
 31
0.0
  0
LINE
  5
6F
330
1F
100
AcDbEntity
  8
2D DXF
370
    -3
100
AcDbLine
 10
8.443582883617495
 20
7.533263534256889
 30
0.0
 11
9.391644122377926
 21
0.389820356299623
 31
0.0
  0
LINE
  5
70
330
1F
100
AcDbEntity
  8
2D DXF
370
    -3
100
AcDbLine
 10
6.462771420348247
 20
22.45826368784503
 30
0.0
 11
8.35997074230977
 21
8.163263534256913
 31
0.0
  0
SPLINE
  5
71
330
1F
100
AcDbEntity
  8
2D DXF
370
    -3
100
AcDbSpline
210
0.0
220
0.0
230
1.0
 70
     8
 71
     2
 72
     9
 73
     6
 74
     0
 42
0.0000000001
 43
0.0000000001
 40
0.0
 40
0.0
 40
0.0
 40
1.00000119212835
 40
2.0000023842567
 40
3.00000357638505
 40
4.0
 40
4.0
 40
4.0
 10
5.065169913077511
 20
23.91213215275249
 30
0.0
 10
5.341520874944308
 20
23.8934426382847
 30
0.0
 10
5.835970684952997
 20
23.64500621948562
 30
0.0
 10
6.205996164065141
 20
23.23528708325213
 30
0.0
 10
6.427078222441708
 20
22.73099255005792
 30
0.0
 10
6.462771420348247
 20
22.45826368784503
 30
0.0
  0
SPLINE
  5
72
330
1F
100
AcDbEntity
  8
2D DXF
370
    -3
100
AcDbSpline
210
0.0
220
0.0
230
1.0
 70
     8
 71
     2
 72
     9
 73
     6
 74
     0
 42
0.0000000001
 43
0.0000000001
 40
13.40660984821153
 40
13.40660984821153
 40
13.40660984821153
 40
14.40660984821153
 40
15.40660984821153
 40
16.40660984821153
 40
17.40660984821153
 40
17.40660984821153
 40
17.40660984821153
 10
-5.83730033045407
 20
22.37413123270593
 30
0.0
 10
-5.821272660275781
 20
22.49581431943486
 30
0.0
 10
-5.746624228956023
 20
22.72715667308036
 30
0.0
 10
-5.626552712018849
 20
22.93875903232002
 30
0.0
 10
-5.460105886789449
 20
23.11679729148791
 30
0.0
 10
-5.355329103692782
 20
23.17928972522387
 30
0.0
  0
LINE
  5
73
330
1F
100
AcDbEntity
  8
2D DXF
370
    -3
100
AcDbLine
 10
-7.723333758447922
 20
8.163263534256913
 30
0.0
 11
-5.83730033045407
 21
22.37413123270593
 31
0.0
  0
LINE
  5
74
330
1F
100
AcDbEntity
  8
2D DXF
370
    -3
100
AcDbLine
 10
-8.766010393333431
 20
0.3069130100866175
 30
0.0
 11
-7.806945898455808
 21
7.533263534256932
 31
0.0
  0
LINE
  5
75
330
1F
100
AcDbEntity
  8
2D DXF
370
    -3
100
AcDbLine
 10
-8.79442147512134
 20
0.0901142997323632
 30
0.0
 11
-8.766010393333431
 21
0.3069130100866175
 31
0.0
  0
SPLINE
  5
76
330
1F
100
AcDbEntity
  8
2D DXF
370
    -3
100
AcDbSpline
210
0.0
220
0.0
230
1.0
 70
     8
 71
     2
 72
    11
 73
     8
 74
     0
 42
0.0000000001
 43
0.0000000001
 40
5.698972562897589
 40
5.698972562897589
 40
5.698972562897589
 40
6.698972562897589
 40
7.698972562897589
 40
8.69897256289759
 40
9.69897256289759
 40
10.69897256289759
 40
11.69897256289759
 40
11.69897256289759
 40
11.69897256289759
 10
-9.417393782710349
 20
0.1815156285063892
 30
0.0
 10
-9.419830006795223
 20
0.1133772293136417
 30
0.0
 10
-9.30566631637248
 20
0.0517928290005898
 30
0.0
 10
-9.186779366726626
 20
0.0245838587711091
 30
0.0
 10
-9.065046224463572
 20
0.0079644191426382
 30
0.0
 10
-8.943296909949026
 20
0.0026664977076791
 30
0.0
 10
-8.816289748881957
 20
0.0264077298363077
 30
0.0
 10
-8.79442147512134
 20
0.0901142997323632
 30
0.0
  0
LINE
  5
77
330
1F
100
AcDbEntity
  8
2D DXF
370
    -3
100
AcDbLine
 10
-9.390531307591004
 20
0.389820356299623
 30
0.0
 11
-9.417393782710349
 21
0.1815156285063892
 31
0.0
  0
LINE
  5
78
330
1F
100
AcDbEntity
  8
2D DXF
370
    -3
100
AcDbLine
 10
-8.442470068830573
 20
7.533263534256889
 30
0.0
 11
-9.390531307591004
 21
0.389820356299623
 31
0.0
  0
LINE
  5
79
330
1F
100
AcDbEntity
  8
2D DXF
370
    -3
100
AcDbLine
 10
-6.461658605561297
 20
22.45826368784503
 30
0.0
 11
-8.358857927522848
 21
8.163263534256913
 31
0.0
  0
SPLINE
  5
7A
330
1F
100
AcDbEntity
  8
2D DXF
370
    -3
100
AcDbSpline
210
0.0
220
0.0
230
1.0
 70
     8
 71
     2
 72
     9
 73
     6
 74
     0
 42
0.0000000001
 43
0.0000000001
 40
0.0
 40
0.0
 40
0.0
 40
1.00000119212835
 40
2.0000023842567
 40
3.00000357638505
 40
4.0
 40
4.0
 40
4.0
 10
-5.064057098290618
 20
23.91213215275249
 30
0.0
 10
-5.340408060157415
 20
23.8934426382847
 30
0.0
 10
-5.834857870166047
 20
23.64500621948562
 30
0.0
 10
-6.204883349278248
 20
23.23528708325213
 30
0.0
 10
-6.425965407654814
 20
22.73099255005792
 30
0.0
 10
-6.461658605561297
 20
22.45826368784503
 30
0.0
  0
SPLINE
  5
7B
330
1F
100
AcDbEntity
  8
2D DXF
370
    -3
100
AcDbSpline
210
0.0
220
0.0
230
1.0
 70
    28
 71
     3
 72
    11
 73
     7
 74
     0
 42
0.0000000001
 43
0.0000000001
 40
8.894198103952213
 40
8.894198103952213
 40
8.894198103952213
 40
8.894198103952213
 40
10.78612243234828
 40
10.78612243234828
 40
10.78612243234828
 40
12.71201355822138
 40
12.71201355822138
 40
12.71201355822138
 40
12.71201355822138
 10
8.935031312566338
 20
8.163263534256899
 30
0.0
 41
1.0
 10
8.93476094508259
 20
8.163263534256902
 30
0.0
 41
0.9999999999999996
 10
8.814756280605764
 20
8.163263534256899
 30
0.0
 41
1.0
 10
8.5839862385711
 20
8.163263534256899
 30
0.0
 41
1.0
 10
8.34929316149848
 20
8.163263534256899
 30
0.0
 41
1.0
 10
8.00003672719315
 20
8.1632635342569
 30
0.0
 41
0.9999999999999998
 10
7.56163229338499
 20
8.1632635342569
 30
0.0
 41
0.9999999999999998
  0
SPLINE
  5
7C
330
1F
100
AcDbEntity
  8
2D DXF
370
    -3
100
AcDbSpline
210
0.0
220
0.0
230
1.0
 70
    12
 71
     2
 72
     8
 73
     5
 74
     0
 42
0.0000000001
 43
0.0000000001
 40
7.904596418071428
 40
7.904596418071428
 40
7.904596418071428
 40
8.399397515293096
 40
8.399397515293096
 40
8.894198103952213
 40
8.894198103952213
 40
8.894198103952213
 10
8.935030854699278
 20
7.533263534256889
 30
0.0
 41
1.0
 10
9.250030854699288
 20
7.533263534256895
 30
0.0
 41
0.7071067811865476
 10
9.250030854699276
 20
7.848263534256901
 30
0.0
 41
1.0
 10
9.25003085469929
 20
8.163263076390171
 30
0.0
 41
0.7071070822257394
 10
8.935031312566352
 20
8.163263534256906
 30
0.0
 41
0.9999993979222352
  0
SPLINE
  5
7D
330
1F
100
AcDbEntity
  8
2D DXF
370
    -3
100
AcDbSpline
210
0.0
220
0.0
230
1.0
 70
    28
 71
     3
 72
    11
 73
     7
 74
     0
 42
0.0000000001
 43
0.0000000001
 40
4.219144922376998
 40
4.219144922376998
 40
4.219144922376998
 40
4.219144922376998
 40
6.008576315590144
 40
6.008576315590144
 40
6.008576315590144
 40
7.904596418071428
 40
7.904596418071428
 40
7.904596418071428
 40
7.904596418071428
 10
7.652806624104004
 20
7.533263534256905
 30
0.0
 41
0.9999999999999998
 10
8.048600254870097
 20
7.533263534256891
 30
0.0
 41
0.9999999999999998
 10
8.365800426805151
 20
7.533263534256903
 30
0.0
 41
1.0
 10
8.583986238571072
 20
7.533263534256889
 30
0.0
 41
1.0
 10
8.81538525650609
 20
7.533263534256889
 30
0.0
 41
1.0
 10
8.935414280310088
 20
7.533263534256893
 30
0.0
 41
0.9999999999999996
 10
8.935030854699278
 20
7.533263534256889
 30
0.0
 41
1.0
  0
SPLINE
  5
7E
330
1F
100
AcDbEntity
  8
2D DXF
370
    -3
100
AcDbSpline
210
0.0
220
0.0
230
1.0
 70
    28
 71
     3
 72
    11
 73
     7
 74
     0
 42
0.0000000001
 43
0.0000000001
 40
8.894198103952213
 40
8.894198103952213
 40
8.894198103952213
 40
8.894198103952213
 40
10.78612243234828
 40
10.78612243234828
 40
10.78612243234828
 40
12.71201355822138
 40
12.71201355822138
 40
12.71201355822138
 40
12.71201355822138
 10
-8.93503131256631
 20
8.163263534256899
 30
0.0
 41
1.0
 10
-8.934760945082534
 20
8.163263534256902
 30
0.0
 41
0.9999999999999996
 10
-8.814756280605735
 20
8.163263534256899
 30
0.0
 41
1.0
 10
-8.583986238571072
 20
8.163263534256899
 30
0.0
 41
1.0
 10
-8.349293161498451
 20
8.163263534256899
 30
0.0
 41
1.0
 10
-8.000036727193065
 20
8.1632635342569
 30
0.0
 41
0.9999999999999998
 10
-7.561632293384962
 20
8.1632635342569
 30
0.0
 41
0.9999999999999998
  0
SPLINE
  5
7F
330
1F
100
AcDbEntity
  8
2D DXF
370
    -3
100
AcDbSpline
210
0.0
220
0.0
230
1.0
 70
    12
 71
     2
 72
     8
 73
     5
 74
     0
 42
0.0000000001
 43
0.0000000001
 40
7.904596418071428
 40
7.904596418071428
 40
7.904596418071428
 40
8.399397515293096
 40
8.399397515293096
 40
8.894198103952213
 40
8.894198103952213
 40
8.894198103952213
 10
-8.935030854699221
 20
7.533263534256889
 30
0.0
 41
1.0
 10
-9.250030854699247
 20
7.533263534256895
 30
0.0
 41
0.7071067811865476
 10
-9.250030854699219
 20
7.848263534256901
 30
0.0
 41
1.0
 10
-9.250030854699249
 20
8.163263076390171
 30
0.0
 41
0.7071070822257394
 10
-8.935031312566295
 20
8.163263534256906
 30
0.0
 41
0.9999993979222352
  0
SPLINE
  5
80
330
1F
100
AcDbEntity
  8
2D DXF
370
    -3
100
AcDbSpline
210
0.0
220
0.0
230
1.0
 70
    28
 71
     3
 72
    11
 73
     7
 74
     0
 42
0.0000000001
 43
0.0000000001
 40
4.219144922376998
 40
4.219144922376998
 40
4.219144922376998
 40
4.219144922376998
 40
6.008576315590144
 40
6.008576315590144
 40
6.008576315590144
 40
7.904596418071428
 40
7.904596418071428
 40
7.904596418071428
 40
7.904596418071428
 10
-7.652806624103976
 20
7.533263534256905
 30
0.0
 41
0.9999999999999998
 10
-8.048600254870012
 20
7.533263534256891
 30
0.0
 41
0.9999999999999998
 10
-8.365800426805151
 20
7.533263534256903
 30
0.0
 41
1.0
 10
-8.583986238571043
 20
7.533263534256889
 30
0.0
 41
1.0
 10
-8.815385256506062
 20
7.533263534256889
 30
0.0
 41
1.0
 10
-8.935414280310003
 20
7.533263534256893
 30
0.0
 41
0.9999999999999996
 10
-8.935030854699221
 20
7.533263534256889
 30
0.0
 41
1.0
  0
SPLINE
  5
81
330
1F
100
AcDbEntity
  8
2D DXF
370
    -3
100
AcDbSpline
210
0.0
220
0.0
230
1.0
 70
     8
 71
     2
 72
     9
 73
     6
 74
     0
 42
0.0000000001
 43
0.0000000001
 40
17.76383152720142
 40
17.76383152720142
 40
17.76383152720142
 40
18.76383152720142
 40
19.76383152720142
 40
20.76383152720142
 40
21.76383152720142
 40
21.76383152720142
 40
21.76383152720142
 10
3.622968188921107
 20
23.82488107206463
 30
0.0
 10
3.566909125350946
 20
23.82220444737573
 30
0.0
 10
3.48136090677383
 20
23.89240991629379
 30
0.0
 10
3.430755995243601
 20
23.98780168922711
 30
0.0
 10
3.406136426354522
 20
24.09274208393319
 30
0.0
 10
3.405966013852151
 20
24.14659436439651
 30
0.0
  0
LINE
  5
82
330
1F
100
AcDbEntity
  8
2D DXF
370
    -3
100
AcDbLine
 10
4.014630775709406
 20
23.86569856689765
 30
0.0
 11
3.622968188921107
 21
23.82488107206463
 31
0.0
  0
SPLINE
  5
83
330
1F
100
AcDbEntity
  8
2D DXF
370
    -3
100
AcDbSpline
210
0.0
220
0.0
230
1.0
 70
     8
 71
     2
 72
     9
 73
     6
 74
     0
 42
0.0000000001
 43
0.0000000001
 40
13.37004776703073
 40
13.37004776703073
 40
13.37004776703073
 40
14.37004776703073
 40
15.37004776703073
 40
16.37004776703073
 40
17.37004776703073
 40
17.37004776703073
 40
17.37004776703073
 10
4.748730221227277
 20
22.99472952031934
 30
0.0
 10
4.726298196194819
 20
23.14966097868222
 30
0.0
 10
4.621116563003227
 20
23.44479192464249
 30
0.0
 10
4.444900748179748
 20
23.70554574824688
 30
0.0
 10
4.176262790633984
 20
23.87936881575763
 30
0.0
 10
4.014630775709406
 20
23.86569856689765
 30
0.0
  0
LINE
  5
84
330
1F
100
AcDbEntity
  8
2D DXF
370
    -3
100
AcDbLine
 10
8.075528021788813
 20
0.3511084495331716
 30
0.0
 11
4.748730221227277
 21
22.99472952031934
 31
0.0
  0
LINE
  5
85
330
1F
100
AcDbEntity
  8
2D DXF
370
    -3
100
AcDbLine
 10
8.10724698286981
 20
0.1347699481424911
 30
0.0
 11
8.075528021788813
 21
0.3511084495331716
 31
0.0
  0
SPLINE
  5
86
330
1F
100
AcDbEntity
  8
2D DXF
370
    -3
100
AcDbSpline
210
0.0
220
0.0
230
1.0
 70
     8
 71
     2
 72
    11
 73
     8
 74
     0
 42
0.0000000001
 43
0.0000000001
 40
5.680717783787134
 40
5.680717783787134
 40
5.680717783787134
 40
6.680717783787134
 40
7.680717783787134
 40
8.680717783787134
 40
9.680717783787134
 40
10.68071778378713
 40
11.68071778378713
 40
11.68071778378713
 40
11.68071778378713
 10
8.728760744628175
 20
0.235613107897791
 30
0.0
 10
8.732230551533235
 20
0.1675195173596222
 30
0.0
 10
8.619014422736768
 20
0.1042100018568561
 30
0.0
 10
8.500554000374962
 20
0.0752002932940457
 30
0.0
 10
8.379087038194427
 20
0.0567357110502087
 30
0.0
 10
8.25743212433838
 20
0.0495910983255641
 30
0.0
 10
8.130079358399314
 20
0.0714025190257104
 30
0.0
 10
8.10724698286981
 20
0.1347699481424911
 30
0.0
  0
LINE
  5
87
330
1F
100
AcDbEntity
  8
2D DXF
370
    -3
100
AcDbLine
 10
8.698720152131017
 20
0.4434822576207722
 30
0.0
 11
8.728760744628175
 21
0.235613107897791
 31
0.0
  0
LINE
  5
88
330
1F
100
AcDbEntity
  8
2D DXF
370
    -3
100
AcDbLine
 10
5.371560195573863
 20
23.08953952354072
 30
0.0
 11
8.698720152131017
 21
0.4434822576207722
 31
0.0
  0
SPLINE
  5
89
330
1F
100
AcDbEntity
  8
2D DXF
370
    -3
100
AcDbSpline
210
0.0
220
0.0
230
1.0
 70
     8
 71
     2
 72
     9
 73
     6
 74
     0
 42
0.0000000001
 43
0.0000000001
 40
0.0
 40
0.0
 40
0.0
 40
1.0
 40
2.0
 40
3.0
 40
4.0
 40
4.0
 40
4.0
 10
4.508560725407619
 20
24.40007849438997
 30
0.0
 10
4.695477154641139
 20
24.31393991656044
 30
0.0
 10
4.994148231360612
 20
24.03172614118989
 30
0.0
 10
5.207580500177357
 20
23.6818521878586
 30
0.0
 10
5.341099159884436
 20
23.2950446702536
 30
0.0
 10
5.371560195573863
 20
23.08953952354072
 30
0.0
  0
LINE
  5
8A
330
1F
100
AcDbEntity
  8
2D DXF
370
    -3
100
AcDbLine
 10
9.390867106542089
 20
0.3897172047165753
 30
0.0
 11
8.766346192600139
 21
0.3068098585455346
 31
0.0
  0
LINE
  5
8B
330
1F
100
AcDbEntity
  8
2D DXF
370
    -3
100
AcDbLine
 10
8.697832648712165
 20
0.4442780247340608
 30
0.0
 11
8.07477432598074
 21
0.3509976910165165
 31
0.0
  0
SPLINE
  5
8C
330
1F
100
AcDbEntity
  8
2D DXF
370
    -3
100
AcDbSpline
210
0.0
220
0.0
230
1.0
 70
     8
 71
     2
 72
     9
 73
     6
 74
     0
 42
0.0000000001
 43
0.0000000001
 40
17.76383152720142
 40
17.76383152720142
 40
17.76383152720142
 40
18.76383152720142
 40
19.76383152720142
 40
20.76383152720142
 40
21.76383152720142
 40
21.76383152720142
 40
21.76383152720142
 10
-3.621855374134157
 20
23.82488107206463
 30
0.0
 10
-3.565796310563996
 20
23.82220444737573
 30
0.0
 10
-3.48024809198688
 20
23.89240991629379
 30
0.0
 10
-3.429643180456708
 20
23.98780168922711
 30
0.0
 10
-3.405023611567628
 20
24.09274208393319
 30
0.0
 10
-3.404853199065258
 20
24.14659436439651
 30
0.0
  0
LINE
  5
8D
330
1F
100
AcDbEntity
  8
2D DXF
370
    -3
100
AcDbLine
 10
-4.013517960922513
 20
23.86569856689765
 30
0.0
 11
-3.621855374134157
 21
23.82488107206463
 31
0.0
  0
SPLINE
  5
8E
330
1F
100
AcDbEntity
  8
2D DXF
370
    -3
100
AcDbSpline
210
0.0
220
0.0
230
1.0
 70
     8
 71
     2
 72
     9
 73
     6
 74
     0
 42
0.0000000001
 43
0.0000000001
 40
13.37004776703073
 40
13.37004776703073
 40
13.37004776703073
 40
14.37004776703073
 40
15.37004776703073
 40
16.37004776703073
 40
17.37004776703073
 40
17.37004776703073
 40
17.37004776703073
 10
-4.747617406440327
 20
22.99472952031934
 30
0.0
 10
-4.725185381407869
 20
23.14966097868222
 30
0.0
 10
-4.620003748216277
 20
23.44479192464249
 30
0.0
 10
-4.443787933392798
 20
23.70554574824688
 30
0.0
 10
-4.175149975847035
 20
23.87936881575763
 30
0.0
 10
-4.013517960922513
 20
23.86569856689765
 30
0.0
  0
LINE
  5
8F
330
1F
100
AcDbEntity
  8
2D DXF
370
    -3
100
AcDbLine
 10
-8.074415207001891
 20
0.3511084495331716
 30
0.0
 11
-4.747617406440327
 21
22.99472952031934
 31
0.0
  0
LINE
  5
90
330
1F
100
AcDbEntity
  8
2D DXF
370
    -3
100
AcDbLine
 10
-8.106134168082917
 20
0.1347699481424911
 30
0.0
 11
-8.074415207001891
 21
0.3511084495331716
 31
0.0
  0
SPLINE
  5
91
330
1F
100
AcDbEntity
  8
2D DXF
370
    -3
100
AcDbSpline
210
0.0
220
0.0
230
1.0
 70
     8
 71
     2
 72
    11
 73
     8
 74
     0
 42
0.0000000001
 43
0.0000000001
 40
5.680717783787134
 40
5.680717783787134
 40
5.680717783787134
 40
6.680717783787134
 40
7.680717783787134
 40
8.680717783787134
 40
9.680717783787134
 40
10.68071778378713
 40
11.68071778378713
 40
11.68071778378713
 40
11.68071778378713
 10
-8.727647929841226
 20
0.235613107897791
 30
0.0
 10
-8.731117736746342
 20
0.1675195173596222
 30
0.0
 10
-8.617901607949818
 20
0.1042100018568561
 30
0.0
 10
-8.499441185588012
 20
0.0752002932940457
 30
0.0
 10
-8.377974223407477
 20
0.0567357110502087
 30
0.0
 10
-8.256319309551486
 20
0.0495910983255641
 30
0.0
 10
-8.128966543612364
 20
0.0714025190257104
 30
0.0
 10
-8.106134168082917
 20
0.1347699481424911
 30
0.0
  0
LINE
  5
92
330
1F
100
AcDbEntity
  8
2D DXF
370
    -3
100
AcDbLine
 10
-8.697607337344095
 20
0.4434822576207722
 30
0.0
 11
-8.727647929841226
 21
0.235613107897791
 31
0.0
  0
LINE
  5
93
330
1F
100
AcDbEntity
  8
2D DXF
370
    -3
100
AcDbLine
 10
-5.37044738078697
 20
23.08953952354072
 30
0.0
 11
-8.697607337344095
 21
0.4434822576207722
 31
0.0
  0
SPLINE
  5
94
330
1F
100
AcDbEntity
  8
2D DXF
370
    -3
100
AcDbSpline
210
0.0
220
0.0
230
1.0
 70
     8
 71
     2
 72
     9
 73
     6
 74
     0
 42
0.0000000001
 43
0.0000000001
 40
0.0
 40
0.0
 40
0.0
 40
1.0
 40
2.0
 40
3.0
 40
4.0
 40
4.0
 40
4.0
 10
-4.50744791062067
 20
24.40007849438997
 30
0.0
 10
-4.694364339854189
 20
24.31393991656044
 30
0.0
 10
-4.993035416573662
 20
24.03172614118989
 30
0.0
 10
-5.206467685390464
 20
23.6818521878586
 30
0.0
 10
-5.339986345097486
 20
23.2950446702536
 30
0.0
 10
-5.37044738078697
 20
23.08953952354072
 30
0.0
  0
LINE
  5
95
330
1F
100
AcDbEntity
  8
2D DXF
370
    -3
100
AcDbLine
 10
-9.389754291755168
 20
0.3897172047165753
 30
0.0
 11
-8.765233377813217
 21
0.3068098585455346
 31
0.0
  0
LINE
  5
96
330
1F
100
AcDbEntity
  8
2D DXF
370
    -3
100
AcDbLine
 10
-8.696719833925272
 20
0.4442780247340608
 30
0.0
 11
-8.073661511193848
 21
0.3509976910165165
 31
0.0
  0
SPLINE
  5
97
330
1F
100
AcDbEntity
  8
2D DXF
370
    -3
100
AcDbSpline
210
0.0
220
0.0
230
1.0
 70
     8
 71
     2
 72
     7
 73
     4
 74
     0
 42
0.0000000001
 43
0.0000000001
 40
0.0
 40
0.0
 40
0.0
 40
1.0
 40
2.0
 40
2.0
 40
2.0
 10
6.457214540388406
 20
48.55861166206689
 30
0.0
 10
6.093094830970642
 20
48.32574210863919
 30
0.0
 10
5.292002200891375
 20
48.00101298011876
 30
0.0
 10
4.868443158777154
 20
47.91488144640356
 30
0.0
  0
SPLINE
  5
98
330
1F
100
AcDbEntity
  8
2D DXF
370
    -3
100
AcDbSpline
210
0.0
220
0.0
230
1.0
 70
    12
 71
     3
 72
     8
 73
     4
 74
     0
 42
0.0000000001
 43
0.0000000001
 40
4.248507748629283
 40
4.248507748629283
 40
4.248507748629283
 40
4.248507748629283
 40
4.700582955841645
 40
4.700582955841645
 40
4.700582955841645
 40
4.700582955841645
 10
7.659163402458381
 20
64.17300159252443
 30
0.0
 41
0.9999999999999993
 10
7.552421242374583
 20
64.2778498689998
 30
0.0
 41
0.9999999999999993
 10
7.441189563753431
 20
64.37813161531241
 30
0.0
 41
0.9999999999999993
 10
7.325919421661415
 20
64.4735554275947
 30
0.0
 41
0.9999999999999993
  0
SPLINE
  5
99
330
1F
100
AcDbEntity
  8
2D DXF
370
    -3
100
AcDbSpline
210
0.0
220
0.0
230
1.0
 70
     8
 71
     2
 72
    11
 73
     8
 74
     0
 42
0.0000000001
 43
0.0000000001
 40
13.876
 40
13.876
 40
13.876
 40
14.876
 40
15.876
 40
16.876
 40
17.876
 40
18.876
 40
19.876
 40
19.876
 40
19.876
 10
9.249187516181621
 20
60.38172926219221
 30
0.0
 10
9.249307093698803
 20
60.67974419777164
 30
0.0
 10
9.18247586424917
 20
61.2720072820201
 30
0.0
 10
9.050114775493483
 20
61.853140653738
 30
0.0
 10
8.85363350334245
 20
62.41584960114918
 30
0.0
 10
8.594983388557836
 20
62.95282617069449
 30
0.0
 10
8.278267418281246
 20
63.45772191456882
 30
0.0
 10
8.092874591974635
 20
63.69103874852217
 30
0.0
  0
SPLINE
  5
9A
330
1F
100
AcDbEntity
  8
2D DXF
370
    -3
100
AcDbSpline
210
0.0
220
0.0
230
1.0
 70
    28
 71
     3
 72
     8
 73
     4
 74
     0
 42
0.0000000001
 43
0.0000000001
 40
6.0
 40
6.0
 40
6.0
 40
6.0
 40
13.876
 40
13.876
 40
13.876
 40
13.876
 10
9.249187516181621
 20
52.5057292621922
 30
0.0
 41
1.0
 10
9.24918751618165
 20
55.13106259552552
 30
0.0
 41
1.0
 10
9.249187516181617
 20
57.75639592885889
 30
0.0
 41
1.0
 10
9.249187516181621
 20
60.38172926219221
 30
0.0
 41
1.0
  0
SPLINE
  5
9B
330
1F
100
AcDbEntity
  8
2D DXF
370
    -3
100
AcDbSpline
210
0.0
220
0.0
230
1.0
 70
     8
 71
     2
 72
    11
 73
     8
 74
     0
 42
0.0000000001
 43
0.0000000001
 40
0.0
 40
0.0
 40
0.0
 40
1.0
 40
2.0
 40
3.0
 40
4.0
 40
5.0
 40
6.0
 40
6.0
 40
6.0
 10
7.338601729137906
 20
48.42443221539182
 30
0.0
 10
7.637147864776807
 20
48.67304413417224
 30
0.0
 10
8.154695164181987
 20
49.25255896348399
 30
0.0
 10
8.582830302705219
 20
49.90091409808117
 30
0.0
 10
8.912764177743753
 20
50.60435826380254
 30
0.0
 10
9.136072316208583
 20
51.34855729115003
 30
0.0
 10
9.249282616144455
 20
52.11723616625704
 30
0.0
 10
9.249187516181621
 20
52.5057292621922
 30
0.0
  0
SPLINE
  5
9C
330
1F
100
AcDbEntity
  8
2D DXF
370
    -3
100
AcDbSpline
210
0.0
220
0.0
230
1.0
 70
     8
 71
     2
 72
    11
 73
     8
 74
     0
 42
0.0000000001
 43
0.0000000001
 40
13.876
 40
13.876
 40
13.876
 40
14.876
 40
15.876
 40
16.876
 40
17.876
 40
18.876
 40
19.876
 40
19.876
 40
19.876
 10
8.619187516181626
 20
52.5057292621922
 30
0.0
 10
8.619273063128787
 20
52.166468830182
 30
0.0
 10
8.521313615255622
 20
51.49507032310606
 30
0.0
 10
8.328065107801478
 20
50.84465628891576
 30
0.0
 10
8.042449035721575
 20
50.22918829402121
 30
0.0
 10
7.671603105547831
 20
49.66100718824754
 30
0.0
 10
7.223100546507624
 20
49.15186628968314
 30
0.0
 10
6.964168091913677
 20
48.93264143724713
 30
0.0
  0
SPLINE
  5
9D
330
1F
100
AcDbEntity
  8
2D DXF
370
    -3
100
AcDbSpline
210
0.0
220
0.0
230
1.0
 70
    28
 71
     3
 72
     8
 73
     4
 74
     0
 42
0.0000000001
 43
0.0000000001
 40
6.0
 40
6.0
 40
6.0
 40
6.0
 40
13.876
 40
13.876
 40
13.876
 40
13.876
 10
8.619187516181626
 20
60.38172926219221
 30
0.0
 41
1.0
 10
8.619187516181622
 20
57.75639592885889
 30
0.0
 41
1.0
 10
8.619187516181654
 20
55.13106259552552
 30
0.0
 41
1.0
 10
8.619187516181626
 20
52.5057292621922
 30
0.0
 41
1.0
  0
SPLINE
  5
9E
330
1F
100
AcDbEntity
  8
2D DXF
370
    -3
100
AcDbSpline
210
0.0
220
0.0
230
1.0
 70
     8
 71
     2
 72
    11
 73
     8
 74
     0
 42
0.0000000001
 43
0.0000000001
 40
0.0
 40
0.0
 40
0.0
 40
1.0
 40
2.0
 40
3.0
 40
4.0
 40
5.0
 40
6.0
 40
6.0
 40
6.0
 10
7.786532380314299
 20
63.04725046235956
 30
0.0
 10
7.921049031784662
 20
62.85272605847177
 30
0.0
 10
8.149886608017454
 20
62.43875040151104
 30
0.0
 10
8.335858189477165
 20
62.00382176292723
 30
0.0
 10
8.47670415180312
 20
61.55225684194255
 30
0.0
 10
8.571503989608374
 20
61.08884065040161
 30
0.0
 10
8.619291836516709
 20
60.61824131053186
 30
0.0
 10
8.619187516181626
 20
60.38172926219221
 30
0.0
  0
SPLINE
  5
9F
330
1F
100
AcDbEntity
  8
2D DXF
370
    -3
100
AcDbSpline
210
0.0
220
0.0
230
1.0
 70
     8
 71
     2
 72
    11
 73
     8
 74
     0
 42
0.0000000001
 43
0.0000000001
 40
7.874000000000009
 40
7.874000000000009
 40
7.874000000000009
 40
8.87400000000001
 40
9.87400000000001
 40
10.87400000000001
 40
11.87400000000001
 40
12.87400000000001
 40
13.87400000000001
 40
13.87400000000001
 40
13.87400000000001
 10
3.934187516181623
 20
47.19072926219221
 30
0.0
 10
4.189692112793978
 20
47.19061243536243
 30
0.0
 10
4.698325432629048
 20
47.23978568563479
 30
0.0
 10
5.199913212783798
 20
47.33740192521861
 30
0.0
 10
5.689883540864855
 20
47.48250375995516
 30
0.0
 10
6.163553421356056
 20
47.67424205186086
 30
0.0
 10
6.61655975184442
 20
47.91069015923046
 30
0.0
 10
6.830776520876782
 20
48.04993839027186
 30
0.0
  0
SPLINE
  5
A0
330
1F
100
AcDbEntity
  8
2D DXF
370
    -3
100
AcDbSpline
210
0.0
220
0.0
230
1.0
 70
    28
 71
     3
 72
     8
 73
     4
 74
     0
 42
0.0000000001
 43
0.0000000001
 40
6.943339093079723
 40
6.943339093079723
 40
6.943339093079723
 40
6.943339093079723
 40
7.874000000000009
 40
7.874000000000009
 40
7.874000000000009
 40
7.874000000000009
 10
3.003526609261343
 20
47.19072926219221
 30
0.0
 41
1.0
 10
3.313746911568103
 20
47.19072926219221
 30
0.0
 41
1.0
 10
3.623967213874863
 20
47.19072926219221
 30
0.0
 41
1.0
 10
3.934187516181623
 20
47.19072926219221
 30
0.0
 41
1.0
  0
LINE
  5
A1
330
1F
100
AcDbEntity
  8
2D DXF
370
    -3
100
AcDbLine
 10
8.638072249707363
 20
46.66069403476575
 30
0.0
 11
6.68842574113097
 21
49.30689949419363
 31
0.0
  0
SPLINE
  5
A2
330
1F
100
AcDbEntity
  8
2D DXF
370
    -3
100
AcDbSpline
210
0.0
220
0.0
230
1.0
 70
    12
 71
     2
 72
    10
 73
     7
 74
     0
 42
0.0000000001
 43
0.0000000001
 40
15.86212548702655
 40
15.86212548702655
 40
15.86212548702655
 40
16.15878608118745
 40
16.15878608118745
 40
16.65358692412784
 40
16.65358692412784
 40
16.85172717290732
 40
16.85172717290732
 40
16.85172717290732
 10
8.130869764198014
 20
46.28700213133041
 30
0.0
 41
0.8593593007471605
 10
8.224136772596596
 20
46.16041320060719
 30
0.0
 41
0.8243942435454477
 10
8.38447100695265
 20
46.16493293902138
 30
0.0
 41
1.0
 10
8.696249949178249
 20
46.17372182473611
 30
0.0
 41
0.7071067811865477
 10
8.69624994917825
 20
46.48263696876283
 30
0.0
 41
1.0
 10
8.69624994917833
 20
46.58173092772061
 30
0.0
 41
0.8827125376411068
 10
8.638072249707356
 20
46.66069403476575
 30
0.0
 41
0.859359300747163
  0
LINE
  5
A3
330
1F
100
AcDbEntity
  8
2D DXF
370
    -3
100
AcDbLine
 10
6.237645566805611
 20
48.8566270274451
 30
0.0
 11
8.130869764197996
 21
46.2870021313304
 31
0.0
  0
LINE
  5
A4
330
1F
100
AcDbEntity
  8
2D DXF
370
    -3
100
AcDbLine
 10
8.8193554968189
 20
65.81165016123299
 30
0.0
 11
7.585977672827255
 21
64.06538262316784
 31
0.0
  0
SPLINE
  5
A5
330
1F
100
AcDbEntity
  8
2D DXF
370
    -3
100
AcDbSpline
210
0.0
220
0.0
230
1.0
 70
    12
 71
     2
 72
    10
 73
     7
 74
     0
 42
0.0000000001
 43
0.0000000001
 40
15.20881904819654
 40
15.20881904819654
 40
15.20881904819654
 40
15.3760903849171
 40
15.3760903849171
 40
15.87089122785749
 40
15.87089122785749
 40
16.19842073407742
 40
16.19842073407742
 40
16.19842073407742
 10
9.33394549565939
 20
65.44819846830333
 30
0.0
 41
0.8689157816187301
 10
9.380931763896234
 20
65.51472357793378
 30
0.0
 41
0.9009851318438161
 10
9.387897788781089
 20
65.59640033182396
 30
0.0
 41
1.0
 10
9.414153666856034
 20
65.90425092482832
 30
0.0
 41
0.7071067811865476
 10
9.102906374314102
 20
65.93777490777254
 30
0.0
 41
1.0
 10
8.922184800772822
 20
65.9572401596614
 30
0.0
 41
0.8061216493426762
 10
8.81935549681893
 20
65.81165016123299
 30
0.0
 41
0.8689157816187658
  0
LINE
  5
A6
330
1F
100
AcDbEntity
  8
2D DXF
370
    -3
100
AcDbLine
 10
7.870888616917085
 20
63.37674178731521
 30
0.0
 11
9.33394549565935
 21
65.44819846830333
 31
0.0
  0
SPLINE
  5
A7
330
1F
100
AcDbEntity
  8
2D DXF
370
    -3
100
AcDbSpline
210
0.0
220
0.0
230
1.0
 70
     8
 71
     2
 72
    11
 73
     8
 74
     0
 42
0.0000000001
 43
0.0000000001
 40
0.0
 40
0.0
 40
0.0
 40
1.0
 40
2.0
 40
3.0
 40
4.0
 40
5.0
 40
6.0
 40
6.0
 40
6.0
 10
9.358673501659922
 20
65.48320940600621
 30
0.0
 10
9.409160576690113
 20
65.55288741706426
 30
0.0
 10
9.421937077916937
 20
65.7242580857129
 30
0.0
 10
9.345007485224926
 20
65.87768762941874
 30
0.0
 10
9.202131164097807
 20
65.9724911549223
 30
0.0
 10
9.030819822984938
 20
65.98353602747665
 30
0.0
 10
8.878160519906004
 20
65.90455518615221
 30
0.0
 10
8.833991065996088
 20
65.83070004007084
 30
0.0
  0
SPLINE
  5
A8
330
1F
100
AcDbEntity
  8
2D DXF
370
    -3
100
AcDbSpline
210
0.0
220
0.0
230
1.0
 70
    12
 71
     2
 72
     8
 73
     5
 74
     0
 42
0.0000000001
 43
0.0000000001
 40
0.8700426236162374
 40
0.8700426236162374
 40
0.8700426236162374
 40
1.107383433081686
 40
1.107383433081686
 40
1.363892850647072
 40
1.363892850647072
 40
1.363892850647072
 10
8.14686436012387
 20
46.26722734664204
 30
0.0
 41
0.8655283375181975
 10
8.235970073338438
 20
46.12092087480139
 30
0.0
 41
0.8116763040783244
 10
8.410592907445306
 20
46.12339349402902
 30
0.0
 41
1.0
 10
8.602923013959314
 20
46.12611684416733
 30
0.0
 41
0.7964665172271512
 10
8.69164155498653
 20
46.29771737600854
 30
0.0
 41
0.875806627618849
  0
SPLINE
  5
A9
330
1F
100
AcDbEntity
  8
2D DXF
370
    -3
100
AcDbSpline
210
0.0
220
0.0
230
1.0
 70
    12
 71
     2
 72
     8
 73
     5
 74
     0
 42
0.0000000001
 43
0.0000000001
 40
-0.1112400671284108
 40
-0.1112400671284108
 40
-0.1112400671284108
 40
0.0
 40
0.0
 40
0.1523777177939843
 40
0.1523777177939843
 40
0.1523777177939843
 10
8.692503168197574
 20
46.2993960817598
 30
0.0
 41
0.8766674465830944
 10
8.725723156841386
 20
46.36459398046485
 30
0.0
 41
0.9117339296879439
 10
8.726754874384909
 20
46.43681638595031
 30
0.0
 41
1.0
 10
8.728220606779647
 20
46.53942074700434
 30
0.0
 41
0.8790922848215417
 10
8.667479395477104
 20
46.62077026452404
 30
0.0
 41
0.8580071305674866
  0
SPLINE
  5
AA
330
1F
100
AcDbEntity
  8
2D DXF
370
    -3
100
AcDbSpline
210
0.0
220
0.0
230
1.0
 70
     8
 71
     3
 72
     8
 73
     4
 74
     0
 42
0.0000000001
 43
0.0000000001
 40
0.0
 40
0.0
 40
0.0
 40
0.0
 40
0.0443194491542292
 40
0.0443194491542292
 40
0.0443194491542292
 40
0.0443194491542292
 10
9.36164108156541
 20
65.48741102882354
 30
0.0
 10
9.370030441995397
 20
65.49928903368067
 30
0.0
 10
9.377548982159993
 20
65.51174762251165
 30
0.0
 10
9.384144364930023
 20
65.52469179002395
 30
0.0
  0
SPLINE
  5
AB
330
1F
100
AcDbEntity
  8
2D DXF
370
    -3
100
AcDbSpline
210
0.0
220
0.0
230
1.0
 70
    12
 71
     2
 72
     6
 73
     3
 74
     0
 42
0.0000000001
 43
0.0000000001
 40
1.782832737999294
 40
1.782832737999294
 40
1.782832737999294
 40
1.825297125700358
 40
1.825297125700358
 40
1.825297125700358
 10
9.33394549568681
 20
65.44819846830339
 30
0.0
 41
0.8597839346895491
 10
9.34637035662272
 20
65.46579010234724
 30
0.0
 41
0.8649686758373502
 10
9.356152999831133
 20
65.48498962067958
 30
0.0
 41
0.8744678942369488
  0
SPLINE
  5
AC
330
1F
100
AcDbEntity
  8
2D DXF
370
    -3
100
AcDbSpline
210
0.0
220
0.0
230
1.0
 70
     8
 71
     2
 72
     7
 73
     4
 74
     0
 42
0.0000000001
 43
0.0000000001
 40
0.0
 40
0.0
 40
0.0
 40
1.0
 40
2.0
 40
2.0
 40
2.0
 10
-6.458062526822573
 20
48.55861166206689
 30
0.0
 10
-6.093942817404809
 20
48.32574210863919
 30
0.0
 10
-5.292850187325541
 20
48.00101298011876
 30
0.0
 10
-4.869291145211321
 20
47.91488144640356
 30
0.0
  0
SPLINE
  5
AD
330
1F
100
AcDbEntity
  8
2D DXF
370
    -3
100
AcDbSpline
210
0.0
220
0.0
230
1.0
 70
    12
 71
     3
 72
     8
 73
     4
 74
     0
 42
0.0000000001
 43
0.0000000001
 40
4.248507748629283
 40
4.248507748629283
 40
4.248507748629283
 40
4.248507748629283
 40
4.700582955841645
 40
4.700582955841645
 40
4.700582955841645
 40
4.700582955841645
 10
-7.660011388892491
 20
64.17300159252443
 30
0.0
 41
0.9999999999999993
 10
-7.553269228808693
 20
64.2778498689998
 30
0.0
 41
0.9999999999999993
 10
-7.442037550187484
 20
64.37813161531241
 30
0.0
 41
0.9999999999999993
 10
-7.326767408095525
 20
64.4735554275947
 30
0.0
 41
0.9999999999999993
  0
SPLINE
  5
AE
330
1F
100
AcDbEntity
  8
2D DXF
370
    -3
100
AcDbSpline
210
0.0
220
0.0
230
1.0
 70
     8
 71
     2
 72
    11
 73
     8
 74
     0
 42
0.0000000001
 43
0.0000000001
 40
13.876
 40
13.876
 40
13.876
 40
14.876
 40
15.876
 40
16.876
 40
17.876
 40
18.876
 40
19.876
 40
19.876
 40
19.876
 10
-9.250035502615788
 20
60.38172926219221
 30
0.0
 10
-9.25015508013297
 20
60.67974419777164
 30
0.0
 10
-9.183323850683337
 20
61.2720072820201
 30
0.0
 10
-9.05096276192765
 20
61.853140653738
 30
0.0
 10
-8.854481489776617
 20
62.41584960114918
 30
0.0
 10
-8.595831374992002
 20
62.95282617069449
 30
0.0
 10
-8.279115404715412
 20
63.45772191456882
 30
0.0
 10
-8.093722578408801
 20
63.69103874852217
 30
0.0
  0
SPLINE
  5
AF
330
1F
100
AcDbEntity
  8
2D DXF
370
    -3
100
AcDbSpline
210
0.0
220
0.0
230
1.0
 70
    28
 71
     3
 72
     8
 73
     4
 74
     0
 42
0.0000000001
 43
0.0000000001
 40
6.0
 40
6.0
 40
6.0
 40
6.0
 40
13.876
 40
13.876
 40
13.876
 40
13.876
 10
-9.250035502615788
 20
52.5057292621922
 30
0.0
 41
1.0
 10
-9.250035502615816
 20
55.13106259552552
 30
0.0
 41
1.0
 10
-9.250035502615841
 20
57.75639592885889
 30
0.0
 41
1.0
 10
-9.250035502615788
 20
60.38172926219221
 30
0.0
 41
1.0
  0
SPLINE
  5
B0
330
1F
100
AcDbEntity
  8
2D DXF
370
    -3
100
AcDbSpline
210
0.0
220
0.0
230
1.0
 70
     8
 71
     2
 72
    11
 73
     8
 74
     0
 42
0.0000000001
 43
0.0000000001
 40
0.0
 40
0.0
 40
0.0
 40
1.0
 40
2.0
 40
3.0
 40
4.0
 40
5.0
 40
6.0
 40
6.0
 40
6.0
 10
-7.339449715572073
 20
48.42443221539182
 30
0.0
 10
-7.637995851210974
 20
48.67304413417224
 30
0.0
 10
-8.155543150616154
 20
49.25255896348399
 30
0.0
 10
-8.583678289139385
 20
49.90091409808117
 30
0.0
 10
-8.91361216417792
 20
50.60435826380254
 30
0.0
 10
-9.13692030264275
 20
51.34855729115003
 30
0.0
 10
-9.250130602578622
 20
52.11723616625704
 30
0.0
 10
-9.250035502615788
 20
52.5057292621922
 30
0.0
  0
SPLINE
  5
B1
330
1F
100
AcDbEntity
  8
2D DXF
370
    -3
100
AcDbSpline
210
0.0
220
0.0
230
1.0
 70
     8
 71
     2
 72
    11
 73
     8
 74
     0
 42
0.0000000001
 43
0.0000000001
 40
13.876
 40
13.876
 40
13.876
 40
14.876
 40
15.876
 40
16.876
 40
17.876
 40
18.876
 40
19.876
 40
19.876
 40
19.876
 10
-8.620035502615792
 20
52.5057292621922
 30
0.0
 10
-8.620121049562954
 20
52.166468830182
 30
0.0
 10
-8.522161601689788
 20
51.49507032310606
 30
0.0
 10
-8.328913094235645
 20
50.84465628891576
 30
0.0
 10
-8.043297022155741
 20
50.22918829402121
 30
0.0
 10
-7.672451091981998
 20
49.66100718824754
 30
0.0
 10
-7.22394853294179
 20
49.15186628968314
 30
0.0
 10
-6.965016078347844
 20
48.93264143724713
 30
0.0
  0
SPLINE
  5
B2
330
1F
100
AcDbEntity
  8
2D DXF
370
    -3
100
AcDbSpline
210
0.0
220
0.0
230
1.0
 70
    28
 71
     3
 72
     8
 73
     4
 74
     0
 42
0.0000000001
 43
0.0000000001
 40
6.0
 40
6.0
 40
6.0
 40
6.0
 40
13.876
 40
13.876
 40
13.876
 40
13.876
 10
-8.620035502615792
 20
60.38172926219221
 30
0.0
 41
1.0
 10
-8.620035502615846
 20
57.75639592885889
 30
0.0
 41
1.0
 10
-8.62003550261582
 20
55.13106259552552
 30
0.0
 41
1.0
 10
-8.620035502615792
 20
52.5057292621922
 30
0.0
 41
1.0
  0
SPLINE
  5
B3
330
1F
100
AcDbEntity
  8
2D DXF
370
    -3
100
AcDbSpline
210
0.0
220
0.0
230
1.0
 70
     8
 71
     2
 72
    11
 73
     8
 74
     0
 42
0.0000000001
 43
0.0000000001
 40
0.0
 40
0.0
 40
0.0
 40
1.0
 40
2.0
 40
3.0
 40
4.0
 40
5.0
 40
6.0
 40
6.0
 40
6.0
 10
-7.787380366748465
 20
63.04725046235956
 30
0.0
 10
-7.921897018218829
 20
62.85272605847177
 30
0.0
 10
-8.15073459445162
 20
62.43875040151104
 30
0.0
 10
-8.336706175911331
 20
62.00382176292723
 30
0.0
 10
-8.477552138237286
 20
61.55225684194255
 30
0.0
 10
-8.57235197604254
 20
61.08884065040161
 30
0.0
 10
-8.620139822950875
 20
60.61824131053186
 30
0.0
 10
-8.620035502615792
 20
60.38172926219221
 30
0.0
  0
SPLINE
  5
B4
330
1F
100
AcDbEntity
  8
2D DXF
370
    -3
100
AcDbSpline
210
0.0
220
0.0
230
1.0
 70
     8
 71
     2
 72
    11
 73
     8
 74
     0
 42
0.0000000001
 43
0.0000000001
 40
7.874000000000009
 40
7.874000000000009
 40
7.874000000000009
 40
8.87400000000001
 40
9.87400000000001
 40
10.87400000000001
 40
11.87400000000001
 40
12.87400000000001
 40
13.87400000000001
 40
13.87400000000001
 40
13.87400000000001
 10
-3.93503550261579
 20
47.19072926219221
 30
0.0
 10
-4.190540099228144
 20
47.19061243536243
 30
0.0
 10
-4.699173419063214
 20
47.23978568563479
 30
0.0
 10
-5.200761199217965
 20
47.33740192521861
 30
0.0
 10
-5.690731527299022
 20
47.48250375995516
 30
0.0
 10
-6.164401407790223
 20
47.67424205186086
 30
0.0
 10
-6.617407738278587
 20
47.91069015923046
 30
0.0
 10
-6.831624507310949
 20
48.04993839027186
 30
0.0
  0
SPLINE
  5
B5
330
1F
100
AcDbEntity
  8
2D DXF
370
    -3
100
AcDbSpline
210
0.0
220
0.0
230
1.0
 70
    28
 71
     3
 72
     8
 73
     4
 74
     0
 42
0.0000000001
 43
0.0000000001
 40
6.943339093079723
 40
6.943339093079723
 40
6.943339093079723
 40
6.943339093079723
 40
7.874000000000009
 40
7.874000000000009
 40
7.874000000000009
 40
7.874000000000009
 10
-3.004374595695509
 20
47.19072926219221
 30
0.0
 41
1.0
 10
-3.314594898002269
 20
47.19072926219221
 30
0.0
 41
1.0
 10
-3.62481520030903
 20
47.19072926219221
 30
0.0
 41
1.0
 10
-3.93503550261579
 20
47.19072926219221
 30
0.0
 41
1.0
  0
LINE
  5
B6
330
1F
100
AcDbEntity
  8
2D DXF
370
    -3
100
AcDbLine
 10
-8.63892023614153
 20
46.66069403476575
 30
0.0
 11
-6.689273727565137
 21
49.30689949419363
 31
0.0
  0
SPLINE
  5
B7
330
1F
100
AcDbEntity
  8
2D DXF
370
    -3
100
AcDbSpline
210
0.0
220
0.0
230
1.0
 70
    12
 71
     2
 72
    10
 73
     7
 74
     0
 42
0.0000000001
 43
0.0000000001
 40
15.86212548702655
 40
15.86212548702655
 40
15.86212548702655
 40
16.15878608118745
 40
16.15878608118745
 40
16.65358692412784
 40
16.65358692412784
 40
16.85172717290732
 40
16.85172717290732
 40
16.85172717290732
 10
-8.131717750632161
 20
46.28700213133041
 30
0.0
 41
0.8593593007471605
 10
-8.224984759030832
 20
46.16041320060719
 30
0.0
 41
0.8243942435454477
 10
-8.385318993386859
 20
46.16493293902138
 30
0.0
 41
1.0
 10
-8.69709793561246
 20
46.17372182473611
 30
0.0
 41
0.7071067811865477
 10
-8.69709793561246
 20
46.48263696876283
 30
0.0
 41
1.0
 10
-8.697097935612433
 20
46.58173092772061
 30
0.0
 41
0.8827125376411068
 10
-8.638920236141551
 20
46.66069403476575
 30
0.0
 41
0.859359300747163
  0
LINE
  5
B8
330
1F
100
AcDbEntity
  8
2D DXF
370
    -3
100
AcDbLine
 10
-6.238493553239778
 20
48.8566270274451
 30
0.0
 11
-8.131717750632163
 21
46.2870021313304
 31
0.0
  0
LINE
  5
B9
330
1F
100
AcDbEntity
  8
2D DXF
370
    -3
100
AcDbLine
 10
-8.820203483253067
 20
65.81165016123299
 30
0.0
 11
-7.586825659261422
 21
64.06538262316784
 31
0.0
  0
SPLINE
  5
BA
330
1F
100
AcDbEntity
  8
2D DXF
370
    -3
100
AcDbSpline
210
0.0
220
0.0
230
1.0
 70
    12
 71
     2
 72
    10
 73
     7
 74
     0
 42
0.0000000001
 43
0.0000000001
 40
15.20881904819654
 40
15.20881904819654
 40
15.20881904819654
 40
15.3760903849171
 40
15.3760903849171
 40
15.87089122785749
 40
15.87089122785749
 40
16.19842073407742
 40
16.19842073407742
 40
16.19842073407742
 10
-9.334793482093486
 20
65.44819846830333
 30
0.0
 41
0.8689157816187301
 10
-9.38177975033033
 20
65.51472357793378
 30
0.0
 41
0.9009851318438161
 10
-9.388745775215256
 20
65.59640033182396
 30
0.0
 41
1.0
 10
-9.415001653290185
 20
65.90425092482832
 30
0.0
 41
0.7071067811865476
 10
-9.103754360748269
 20
65.93777490777254
 30
0.0
 41
1.0
 10
-8.92303278720709
 20
65.9572401596614
 30
0.0
 41
0.8061216493426762
 10
-8.820203483253058
 20
65.81165016123299
 30
0.0
 41
0.8689157816187658
  0
LINE
  5
BB
330
1F
100
AcDbEntity
  8
2D DXF
370
    -3
100
AcDbLine
 10
-7.871736603351252
 20
63.37674178731521
 30
0.0
 11
-9.334793482093517
 21
65.44819846830333
 31
0.0
  0
ARC
  5
BC
330
1F
100
AcDbEntity
  8
2D DXF
370
    -3
100
AcDbCircle
 10
-0.441730927960009
 20
48.38311322223977
 30
0.0
 40
24.6845296803502
210
0.0
220
0.0
230
-1.0
100
AcDbArc
 50
256.2922916864438
 51
259.571267688757
  0
SPLINE
  5
BD
330
1F
100
AcDbEntity
  8
2D DXF
370
    -3
100
AcDbSpline
210
0.0
220
0.0
230
1.0
 70
     8
 71
     3
 72
    34
 73
    30
 74
     0
 42
0.0000000001
 43
0.0000000001
 40
41.0
 40
41.0
 40
41.0
 40
41.0
 40
42.0
 40
43.0
 40
44.0
 40
45.0
 40
46.0
 40
47.0
 40
48.0
 40
49.0
 40
50.0
 40
51.0
 40
52.0
 40
53.0
 40
54.0
 40
55.0
 40
56.0
 40
57.0
 40
58.0
 40
59.0
 40
60.0
 40
61.0
 40
62.0
 40
63.0
 40
64.0
 40
65.0
 40
66.0
 40
67.0
 40
68.0
 40
68.0
 40
68.0
 40
68.0
 10
7.619335071948228
 20
25.63561523717186
 30
0.0
 10
7.662601605010877
 20
25.64192770042239
 30
0.0
 10
7.7627871670324
 20
25.65498755010347
 30
0.0
 10
7.893587777523976
 20
25.66552283627989
 30
0.0
 10
8.024830741732046
 20
25.66765368416274
 30
0.0
 10
8.155854222076584
 20
25.65742711413847
 30
0.0
 10
8.284122355343186
 20
25.62795845638774
 30
0.0
 10
8.402569043092
 20
25.56653174623401
 30
0.0
 10
8.488225966131722
 20
25.46572295816044
 30
0.0
 10
8.535115293079002
 20
25.33626173169084
 30
0.0
 10
8.491366828739615
 20
25.20698485470513
 30
0.0
 10
8.391446052822289
 20
25.11819445149625
 30
0.0
 10
8.282800814192115
 20
25.04534434183832
 30
0.0
 10
8.1672487798117
 20
24.98275372828479
 30
0.0
 10
8.048807589604792
 20
24.92641008945529
 30
0.0
 10
7.92814193760762
 20
24.87487835218029
 30
0.0
 10
7.805932494117258
 20
24.82718876288848
 30
0.0
 10
7.682484073631315
 20
24.78280027736419
 30
0.0
 10
7.558036930601816
 20
24.74130738783781
 30
0.0
 10
7.432769052260085
 20
24.70236271537431
 30
0.0
 10
7.306730448475378
 20
24.66599366794566
 30
0.0
 10
7.180095285531308
 20
24.63177323300405
 30
0.0
 10
7.053468503098031
 20
24.59753327815305
 30
0.0
 10
6.926706464045992
 20
24.56379352868642
 30
0.0
 10
6.799847703970102
 20
24.53042071038082
 30
0.0
 10
6.672877748393717
 20
24.49747292366646
 30
0.0
 10
6.54579215254563
 20
24.46497401346659
 30
0.0
 10
6.418579201118803
 20
24.43297698214498
 30
0.0
 10
6.333675166003843
 20
24.41202833834593
 30
0.0
 10
6.291195581590841
 20
24.40166687707506
 30
0.0
  0
SPLINE
  5
BE
330
1F
100
AcDbEntity
  8
2D DXF
370
    -3
100
AcDbSpline
210
0.0
220
0.0
230
1.0
 70
     8
 71
     3
 72
    34
 73
    30
 74
     0
 42
0.0000000001
 43
0.0000000001
 40
-0.0000000000000036
 40
-0.0000000000000036
 40
-0.0000000000000036
 40
-0.0000000000000036
 40
0.9999999999999967
 40
1.999999999999997
 40
2.999999999999997
 40
3.999999999999997
 40
4.999999999999997
 40
5.999999999999998
 40
6.999999999999998
 40
7.999999999999998
 40
8.999999999999998
 40
9.999999999999998
 40
11.0
 40
12.0
 40
13.0
 40
14.0
 40
15.0
 40
16.0
 40
17.0
 40
18.0
 40
19.0
 40
20.0
 40
21.0
 40
22.0
 40
23.0
 40
24.0
 40
25.0
 40
26.0
 40
27.0
 40
27.0
 40
27.0
 40
27.0
 10
-6.290082766803891
 20
24.40166687707507
 30
0.0
 10
-6.33256235121695
 20
24.41202833834595
 30
0.0
 10
-6.41746638633191
 20
24.43297698214498
 30
0.0
 10
-6.544679337758737
 20
24.46497401346659
 30
0.0
 10
-6.671764933606823
 20
24.49747292366646
 30
0.0
 10
-6.798734889183208
 20
24.53042071038082
 30
0.0
 10
-6.925593649259099
 20
24.56379352868642
 30
0.0
 10
-7.052355688311138
 20
24.59753327815305
 30
0.0
 10
-7.178982470744415
 20
24.63177323300405
 30
0.0
 10
-7.305617633688485
 20
24.66599366794566
 30
0.0
 10
-7.431656237473192
 20
24.70236271537431
 30
0.0
 10
-7.556924115814923
 20
24.74130738783781
 30
0.0
 10
-7.681371258844422
 20
24.78280027736419
 30
0.0
 10
-7.804819679330365
 20
24.82718876288848
 30
0.0
 10
-7.927029122820727
 20
24.87487835218029
 30
0.0
 10
-8.047694774817899
 20
24.92641008945529
 30
0.0
 10
-8.166135965024807
 20
24.98275372828479
 30
0.0
 10
-8.281687999405221
 20
25.04534434183832
 30
0.0
 10
-8.390333238035396
 20
25.11819445149625
 30
0.0
 10
-8.490254013952722
 20
25.20698485470513
 30
0.0
 10
-8.53400247829211
 20
25.33626173169084
 30
0.0
 10
-8.487113151344829
 20
25.46572295816044
 30
0.0
 10
-8.401456228305108
 20
25.56653174623401
 30
0.0
 10
-8.283009540556293
 20
25.62795845638774
 30
0.0
 10
-8.154741407289691
 20
25.65742711413847
 30
0.0
 10
-8.023717926945153
 20
25.66765368416274
 30
0.0
 10
-7.892474962737083
 20
25.66552283627989
 30
0.0
 10
-7.761674352245507
 20
25.65498755010347
 30
0.0
 10
-7.661488790223984
 20
25.64192770042239
 30
0.0
 10
-7.618222257161335
 20
25.63561523717186
 30
0.0
  0
ARC
  5
BF
330
1F
100
AcDbEntity
  8
2D DXF
370
    -3
100
AcDbCircle
 10
0.4406181133991254
 20
48.38311322131295
 30
0.0
 40
24.6845296793962
210
0.0
220
0.0
230
-1.0
100
AcDbArc
 50
280.4309720936023
 51
283.7077083135562
  0
SPLINE
  5
C0
330
1F
100
AcDbEntity
  8
2D DXF
370
    -3
100
AcDbSpline
210
0.0
220
0.0
230
1.0
 70
    12
 71
     3
 72
     8
 73
     4
 74
     0
 42
0.0000000001
 43
0.0000000001
 40
0.0
 40
0.0
 40
0.0
 40
0.0
 40
4.323967219719583
 40
4.323967219719583
 40
4.323967219719583
 40
4.323967219719583
 10
-3.057480607086282
 20
23.12621064035836
 30
0.0
 41
0.8566589076371499
 10
-2.037884222066527
 20
23.23287386959634
 30
0.0
 41
0.85665890763715
 10
-1.018941641541328
 20
23.33942966913898
 30
0.0
 41
0.85665890763715
 10
0.0000009389837378
 20
23.44598546868159
 30
0.0
 41
0.8566589076371499
  0
SPLINE
  5
C1
330
1F
100
AcDbEntity
  8
2D DXF
370
    -3
100
AcDbSpline
210
0.0
220
0.0
230
1.0
 70
     8
 71
     2
 72
     7
 73
     4
 74
     0
 42
0.0000000001
 43
0.0000000001
 40
-2.0
 40
-2.0
 40
-2.0
 40
-1.0
 40
0.0
 40
0.0
 40
0.0
 10
-3.214753267525907
 20
23.22394231907447
 30
0.0
 10
-3.189178656607567
 20
23.18218607029992
 30
0.0
 10
-3.108633237323488
 20
23.12312492877328
 30
0.0
 10
-3.057480607086234
 20
23.12621064035838
 30
0.0
  0
SPLINE
  5
C2
330
1F
100
AcDbEntity
  8
2D DXF
370
    -3
100
AcDbSpline
210
0.0
220
0.0
230
1.0
 70
    28
 71
     2
 72
     6
 73
     3
 74
     0
 42
0.0000000001
 43
0.0000000001
 40
10.17314974777304
 40
10.17314974777304
 40
10.17314974777304
 40
11.2251296580876
 40
11.2251296580876
 40
11.2251296580876
 10
-4.025583063859657
 20
22.79619326704191
 30
0.0
 41
0.8560172248609055
 10
-4.14331820809264
 20
23.30813578250641
 30
0.0
 41
0.8560172248609056
 10
-4.261053352325624
 20
23.82007829797092
 30
0.0
 41
0.8560172248609057
  0
SPLINE
  5
C3
330
1F
100
AcDbEntity
  8
2D DXF
370
    -3
100
AcDbSpline
210
0.0
220
0.0
230
1.0
 70
     8
 71
     2
 72
     9
 73
     6
 74
     0
 42
0.0000000001
 43
0.0000000001
 40
6.173149747773035
 40
6.173149747773035
 40
6.173149747773035
 40
7.173153238922044
 40
8.173156730071053
 40
9.173160221220064
 40
10.17314974777304
 40
10.17314974777304
 40
10.17314974777304
 10
-3.799095280981305
 20
22.55891938679684
 30
0.0
 10
-3.84334546592504
 20
22.56309956330051
 30
0.0
 10
-3.919578900421584
 20
22.60808241260182
 30
0.0
 10
-3.977293675063436
 20
22.67451378781448
 30
0.0
 10
-4.016198051359254
 20
22.75328674196547
 30
0.0
 10
-4.025583063859642
 20
22.7961932670419
 30
0.0
  0
LINE
  5
C4
330
1F
100
AcDbEntity
  8
2D DXF
370
    -3
100
AcDbLine
 10
-3.359995941367117
 20
22.5139051510249
 30
0.0
 11
-3.799095280981305
 21
22.55891938679684
 31
0.0
  0
LINE
  5
C5
330
1F
100
AcDbEntity
  8
2D DXF
370
    -3
100
AcDbLine
 10
-2.857281199954173
 20
22.56315836626213
 30
0.0
 11
-3.359995941367117
 21
22.5139051510249
 31
0.0
  0
SPLINE
  5
C6
330
1F
100
AcDbEntity
  8
2D DXF
370
    -3
100
AcDbSpline
210
0.0
220
0.0
230
1.0
 70
     8
 71
     2
 72
     9
 73
     6
 74
     0
 42
0.0000000001
 43
0.0000000001
 40
1.22662736504897
 40
1.22662736504897
 40
1.22662736504897
 40
2.22662736504897
 40
3.226627365048969
 40
4.226627365048969
 40
5.226627365048969
 40
5.226627365048969
 40
5.226627365048969
 10
-2.654548225430744
 20
22.76976504010756
 30
0.0
 10
-2.663359314779143
 20
22.73202184783713
 30
0.0
 10
-2.697781452007519
 20
22.66248713181361
 30
0.0
 10
-2.749797079172936
 20
22.60463588124699
 30
0.0
 10
-2.818421194017674
 20
22.56741855151574
 30
0.0
 10
-2.857281199954173
 20
22.56315836626213
 30
0.0
  0
SPLINE
  5
C7
330
1F
100
AcDbEntity
  8
2D DXF
370
    -3
100
AcDbSpline
210
0.0
220
0.0
230
1.0
 70
    28
 71
     2
 72
     6
 73
     3
 74
     0
 42
0.0000000001
 43
0.0000000001
 40
0.7984423683647881
 40
0.7984423683647881
 40
0.7984423683647881
 40
1.22662736504897
 40
1.22662736504897
 40
1.22662736504897
 10
-2.557355222870202
 20
23.17855025128071
 30
0.0
 41
0.8563898439284926
 10
-2.605951724150469
 20
22.97415764569413
 30
0.0
 41
0.8563898439284932
 10
-2.654548225430739
 20
22.76976504010756
 30
0.0
 41
0.8563898439284937
  0
SPLINE
  5
C8
330
1F
100
AcDbEntity
  8
2D DXF
370
    -3
100
AcDbSpline
210
0.0
220
0.0
230
1.0
 70
    28
 71
     2
 72
     6
 73
     3
 74
     0
 42
0.0000000001
 43
0.0000000001
 40
10.18033768239874
 40
10.18033768239874
 40
10.18033768239874
 40
10.59986979928274
 40
10.59986979928274
 40
10.59986979928274
 10
-4.025445442828232
 20
23.46856003047916
 30
0.0
 41
0.8563898439579778
 10
-4.072395020543028
 20
23.66602544434629
 30
0.0
 41
0.8563898439579778
 10
-4.119344598257824
 20
23.86349085821342
 30
0.0
 41
0.8563898439579779
  0
SPLINE
  5
C9
330
1F
100
AcDbEntity
  8
2D DXF
370
    -3
100
AcDbSpline
210
0.0
220
0.0
230
1.0
 70
     8
 71
     2
 72
     9
 73
     6
 74
     0
 42
0.0000000001
 43
0.0000000001
 40
6.180337682398743
 40
6.180337682398743
 40
6.180337682398743
 40
7.180442332011739
 40
8.180546981624735
 40
9.18065163123773
 40
10.18033768239874
 40
10.18033768239874
 40
10.18033768239874
 10
-3.823209241441589
 20
23.26166616897383
 30
0.0
 10
-3.862045236522818
 20
23.26599762187932
 30
0.0
 10
-3.930146718877097
 20
23.30393129964179
 30
0.0
 10
-3.98230355647803
 20
23.36147753924432
 30
0.0
 10
-4.017006202485277
 20
23.43077124554566
 30
0.0
 10
-4.025445442828243
 20
23.46856003047915
 30
0.0
  0
LINE
  5
CA
330
1F
100
AcDbEntity
  8
2D DXF
370
    -3
100
AcDbLine
 10
-3.319993847285616
 20
23.21268300095612
 30
0.0
 11
-3.823209241441589
 21
23.26166616897383
 31
0.0
  0
LINE
  5
CB
330
1F
100
AcDbEntity
  8
2D DXF
370
    -3
100
AcDbLine
 10
-2.88022759838384
 20
23.25775755258991
 30
0.0
 11
-3.319993847285616
 21
23.21268300095612
 31
0.0
  0
SPLINE
  5
CC
330
1F
100
AcDbEntity
  8
2D DXF
370
    -3
100
AcDbSpline
210
0.0
220
0.0
230
1.0
 70
     8
 71
     2
 72
     9
 73
     6
 74
     0
 42
0.0000000001
 43
0.0000000001
 40
1.232673681168818
 40
1.232673681168818
 40
1.232673681168818
 40
2.232671278259504
 40
3.232672079229276
 40
4.232672880199047
 40
5.232673681168818
 40
5.232673681168818
 40
5.232673681168818
 10
-2.654406927415835
 20
23.49497019205424
 30
0.0
 10
-2.664141413999346
 20
23.45227368365846
 30
0.0
 10
-2.702422145652122
 20
23.37341831623102
 30
0.0
 10
-2.759919233223627
 20
23.30701766881035
 30
0.0
 10
-2.836225560515516
 20
23.26260844233305
 30
0.0
 10
-2.88022759838384
 20
23.25775755258991
 30
0.0
  0
SPLINE
  5
CD
330
1F
100
AcDbEntity
  8
2D DXF
370
    -3
100
AcDbSpline
210
0.0
220
0.0
230
1.0
 70
    28
 71
     2
 72
     6
 73
     3
 74
     0
 42
0.0000000001
 43
0.0000000001
 40
0.6892278622060378
 40
0.6892278622060378
 40
0.6892278622060378
 40
1.232673681168818
 40
1.232673681168818
 40
1.232673681168818
 10
-2.532764470863353
 20
24.02390268576966
 30
0.0
 41
0.8560172248711451
 10
-2.593585699139604
 20
23.75943643891196
 30
0.0
 41
0.8560172248711454
 10
-2.654406927415855
 20
23.49497019205425
 30
0.0
 41
0.8560172248711457
  0
SPLINE
  5
CE
330
1F
100
AcDbEntity
  8
2D DXF
370
    -3
100
AcDbSpline
210
0.0
220
0.0
230
1.0
 70
    28
 71
     2
 72
     6
 73
     3
 74
     0
 42
0.0000000001
 43
0.0000000001
 40
4.610333950763096
 40
4.610333950763096
 40
4.610333950763096
 40
5.008596212091838
 40
5.008596212091838
 40
5.008596212091838
 10
-3.518536401090444
 20
22.84919990041608
 30
0.0
 41
1.0
 10
-3.548904856811021
 20
23.04449851349496
 30
0.0
 41
1.0
 10
-3.579273312531598
 20
23.23979712657383
 30
0.0
 41
1.0
  0
SPLINE
  5
CF
330
1F
100
AcDbEntity
  8
2D DXF
370
    -3
100
AcDbSpline
210
0.0
220
0.0
230
1.0
 70
     8
 71
     2
 72
     9
 73
     6
 74
     0
 42
0.0000000001
 43
0.0000000001
 40
0.6103339507630958
 40
0.6103339507630958
 40
0.6103339507630958
 40
1.610333950763096
 40
2.610333950763096
 40
3.610333950763096
 40
4.610333950763096
 40
4.610333950763096
 40
4.610333950763096
 10
-3.320004058632833
 20
22.60833029679938
 30
0.0
 10
-3.36249473500834
 20
22.61277838121723
 30
0.0
 10
-3.431901413762432
 20
22.66163763179497
 30
0.0
 10
-3.4812064828335
 20
22.72973664556599
 30
0.0
 10
-3.512178752294858
 20
22.8077385121708
 30
0.0
 10
-3.518536401090444
 20
22.84919990041608
 30
0.0
  0
SPLINE
  5
D0
330
1F
100
AcDbEntity
  8
2D DXF
370
    -3
100
AcDbSpline
210
0.0
220
0.0
230
1.0
 70
    24
 71
     2
 72
     6
 73
     3
 74
     0
 42
0.0000000001
 43
0.0000000001
 40
-0.0000000000000012
 40
-0.0000000000000012
 40
-0.0000000000000012
 40
0.6103339507630958
 40
0.6103339507630958
 40
0.6103339507630958
 10
-2.888336990810899
 20
22.56322882985467
 30
0.0
 10
-3.104170524721866
 20
22.58577956332702
 30
0.0
 10
-3.320004058632833
 20
22.60833029679938
 30
0.0
  0
SPLINE
  5
D1
330
1F
100
AcDbEntity
  8
2D DXF
370
    -3
100
AcDbSpline
210
0.0
220
0.0
230
1.0
 70
    24
 71
     2
 72
     6
 73
     3
 74
     0
 42
0.0000000001
 43
0.0000000001
 40
4.003985166117586
 40
4.003985166117586
 40
4.003985166117586
 40
4.614319116880683
 40
4.614319116880683
 40
4.614319116880683
 10
-3.359985730020526
 20
23.30710815816249
 30
0.0
 10
-3.575819263931351
 20
23.28455742468841
 30
0.0
 10
-3.791652797842175
 20
23.26200669121432
 30
0.0
  0
SPLINE
  5
D2
330
1F
100
AcDbEntity
  8
2D DXF
370
    -3
100
AcDbSpline
210
0.0
220
0.0
230
1.0
 70
     8
 71
     2
 72
     9
 73
     6
 74
     0
 42
0.0000000001
 43
0.0000000001
 40
0.0039851661175855
 40
0.0039851661175855
 40
0.0039851661175855
 40
1.003985166117586
 40
2.003985166117586
 40
3.003985166117586
 40
4.003985166117586
 40
4.003985166117586
 40
4.003985166117586
 10
-3.161453384884112
 20
23.5479777616454
 30
0.0
 10
-3.168177469512216
 20
23.50661021976394
 30
0.0
 10
-3.198748549743357
 20
23.42849618331459
 30
0.0
 10
-3.247784656115755
 20
23.3601685380284
 30
0.0
 10
-3.317664731742411
 20
23.31211214454632
 30
0.0
 10
-3.359985730020526
 20
23.30710815816249
 30
0.0
  0
SPLINE
  5
D3
330
1F
100
AcDbEntity
  8
2D DXF
370
    -3
100
AcDbSpline
210
0.0
220
0.0
230
1.0
 70
    28
 71
     2
 72
     6
 73
     3
 74
     0
 42
0.0000000001
 43
0.0000000001
 40
-0.5528646837850709
 40
-0.5528646837850709
 40
-0.5528646837850709
 40
0.0039851661175855
 40
0.0039851661175855
 40
0.0039851661175855
 10
-3.076531096477025
 20
24.09411036771437
 30
0.0
 41
1.0
 10
-3.118992240680596
 20
23.82104406467989
 30
0.0
 41
1.0
 10
-3.161453384884167
 20
23.5479777616454
 30
0.0
 41
1.0
  0
SPLINE
  5
D4
330
1F
100
AcDbEntity
  8
2D DXF
370
    -3
100
AcDbSpline
210
0.0
220
0.0
230
1.0
 70
    24
 71
     2
 72
     6
 73
     3
 74
     0
 42
0.0000000001
 43
0.0000000001
 40
0.000000000000001
 40
0.000000000000001
 40
0.000000000000001
 40
0.6103339507630969
 40
0.6103339507630969
 40
0.6103339507630969
 10
-2.888326779463966
 20
23.25778446790427
 30
0.0
 10
-3.104160313374791
 20
23.2352337344302
 30
0.0
 10
-3.319993847285616
 20
23.21268300095612
 30
0.0
  0
SPLINE
  5
D5
330
1F
100
AcDbEntity
  8
2D DXF
370
    -3
100
AcDbSpline
210
0.0
220
0.0
230
1.0
 70
    12
 71
     2
 72
     6
 73
     3
 74
     0
 42
0.0000000001
 43
0.0000000001
 40
0.0931404683516954
 40
0.0931404683516954
 40
0.0931404683516954
 40
0.1158637182037069
 40
0.1158637182037069
 40
0.1158637182037069
 10
-3.38262241338975
 20
22.51818369655345
 30
0.0
 41
0.8892833237614565
 10
-3.375738686075896
 20
22.51467626229965
 30
0.0
 41
0.9105152908287699
 10
-3.368309253648413
 20
22.51390001985181
 30
0.0
 41
0.9486969526683089
  0
SPLINE
  5
D6
330
1F
100
AcDbEntity
  8
2D DXF
370
    -3
100
AcDbSpline
210
0.0
220
0.0
230
1.0
 70
     8
 71
     3
 72
     8
 73
     4
 74
     0
 42
0.0000000001
 43
0.0000000001
 40
2.044911702315788
 40
2.044911702315788
 40
2.044911702315788
 40
2.044911702315788
 40
2.115874797478824
 40
2.115874797478824
 40
2.115874797478824
 40
2.115874797478824
 10
-2.691804924760334
 20
24.03900975762846
 30
0.0
 10
-2.688079354623255
 20
24.04168607537848
 30
0.0
 10
-2.68616716166423
 20
24.04453088870687
 30
0.0
 10
-2.686215596618297
 20
24.04755345931503
 30
0.0
  0
SPLINE
  5
D7
330
1F
100
AcDbEntity
  8
2D DXF
370
    -3
100
AcDbSpline
210
0.0
220
0.0
230
1.0
 70
    28
 71
     3
 72
     8
 73
     4
 74
     0
 42
0.0000000001
 43
0.0000000001
 40
1.99450461069922
 40
1.99450461069922
 40
1.99450461069922
 40
1.99450461069922
 40
5.584448213357721
 40
5.584448213357721
 40
5.584448213357721
 40
5.584448213357721
 10
-2.603405009945257
 20
23.71823614071737
 30
0.0
 41
0.8566589076371487
 10
-1.757435044735803
 20
23.62976893191204
 30
0.0
 41
0.8566589076371486
 10
-0.911465079526464
 20
23.54130172310675
 30
0.0
 41
0.8566589076371487
 10
-0.0654951143171253
 20
23.45283451430146
 30
0.0
 41
0.8566589076371488
  0
SPLINE
  5
D8
330
1F
100
AcDbEntity
  8
2D DXF
370
    -3
100
AcDbSpline
210
0.0
220
0.0
230
1.0
 70
    28
 71
     3
 72
     8
 73
     4
 74
     0
 42
0.0000000001
 43
0.0000000001
 40
0.1480224217458351
 40
0.1480224217458351
 40
0.1480224217458351
 40
0.1480224217458351
 40
0.8593290760227089
 40
0.8593290760227089
 40
0.8593290760227089
 40
0.8593290760227089
 10
-4.693170000719626
 20
23.2426294112997
 30
0.0
 41
0.8547228508968872
 10
-4.495498832404169
 20
23.20109455026351
 30
0.0
 41
0.8547228508968868
 10
-4.297827664089806
 20
23.1595596892275
 30
0.0
 41
0.854722850896887
 10
-4.100156495774105
 20
23.11802482819126
 30
0.0
 41
0.8547228508968873
  0
SPLINE
  5
D9
330
1F
100
AcDbEntity
  8
2D DXF
370
    -3
100
AcDbSpline
210
0.0
220
0.0
230
1.0
 70
     8
 71
     3
 72
     8
 73
     4
 74
     0
 42
0.0000000001
 43
0.0000000001
 40
2.705597747790026
 40
2.705597747790026
 40
2.705597747790026
 40
2.705597747790026
 40
2.723204868881017
 40
2.723204868881017
 40
2.723204868881017
 40
2.723204868881017
 10
-5.459461531215311
 20
24.67229347901771
 30
0.0
 10
-5.462822748665531
 20
24.67195341011379
 30
0.0
 10
-5.466181943533229
 20
24.6716234659706
 30
0.0
 10
-5.469538917862167
 20
24.67130353339971
 30
0.0
  0
SPLINE
  5
DA
330
1F
100
AcDbEntity
  8
2D DXF
370
    -3
100
AcDbSpline
210
0.0
220
0.0
230
1.0
 70
    24
 71
     3
 72
    11
 73
     7
 74
     0
 42
0.0000000001
 43
0.0000000001
 40
0.0
 40
0.0
 40
0.0
 40
0.0
 40
0.3276515494938902
 40
0.3276515494938902
 40
0.3276515494938902
 40
0.7499992541381634
 40
0.7499992541381634
 40
0.7499992541381634
 40
0.7499992541381634
 10
0.0
 20
23.44942869517295
 30
0.0
 10
0.0
 20
23.46045447704709
 30
0.0
 10
0.0
 20
23.49891675671562
 30
0.0
 10
0.0
 20
23.56729274584103
 30
0.0
 10
0.0
 20
23.65764304370065
 30
0.0
 10
0.0
 20
23.77803748044593
 30
0.0
 10
0.0
 20
23.88084656243781
 30
0.0
  0
SPLINE
  5
DB
330
1F
100
AcDbEntity
  8
2D DXF
370
    -3
100
AcDbSpline
210
0.0
220
0.0
230
1.0
 70
    12
 71
     3
 72
     8
 73
     4
 74
     0
 42
0.0000000001
 43
0.0000000001
 40
0.0
 40
0.0
 40
0.0
 40
0.0
 40
4.323967219719583
 40
4.323967219719583
 40
4.323967219719583
 40
4.323967219719583
 10
3.057480607086299
 20
23.12621064035836
 30
0.0
 41
0.8566589076371499
 10
2.03788422206661
 20
23.23287386959634
 30
0.0
 41
0.85665890763715
 10
1.018941641541411
 20
23.33942966913898
 30
0.0
 41
0.85665890763715
 10
-0.0000009389837876
 20
23.44598546868159
 30
0.0
 41
0.8566589076371499
  0
SPLINE
  5
DC
330
1F
100
AcDbEntity
  8
2D DXF
370
    -3
100
AcDbSpline
210
0.0
220
0.0
230
1.0
 70
     8
 71
     2
 72
     7
 73
     4
 74
     0
 42
0.0000000001
 43
0.0000000001
 40
-2.0
 40
-2.0
 40
-2.0
 40
-1.0
 40
0.0
 40
0.0
 40
0.0
 10
3.214753267525964
 20
23.22394231907447
 30
0.0
 10
3.189178656607623
 20
23.18218607029992
 30
0.0
 10
3.108633237323488
 20
23.12312492877328
 30
0.0
 10
3.057480607086291
 20
23.12621064035838
 30
0.0
  0
SPLINE
  5
DD
330
1F
100
AcDbEntity
  8
2D DXF
370
    -3
100
AcDbSpline
210
0.0
220
0.0
230
1.0
 70
    28
 71
     2
 72
     6
 73
     3
 74
     0
 42
0.0000000001
 43
0.0000000001
 40
10.17314974777304
 40
10.17314974777304
 40
10.17314974777304
 40
11.2251296580876
 40
11.2251296580876
 40
11.2251296580876
 10
4.025583063859707
 20
22.79619326704191
 30
0.0
 41
0.8560172248609055
 10
4.143318208092706
 20
23.30813578250641
 30
0.0
 41
0.8560172248609056
 10
4.261053352325706
 20
23.82007829797092
 30
0.0
 41
0.8560172248609057
  0
SPLINE
  5
DE
330
1F
100
AcDbEntity
  8
2D DXF
370
    -3
100
AcDbSpline
210
0.0
220
0.0
230
1.0
 70
     8
 71
     2
 72
     9
 73
     6
 74
     0
 42
0.0000000001
 43
0.0000000001
 40
6.173149747773035
 40
6.173149747773035
 40
6.173149747773035
 40
7.173153238922044
 40
8.173156730071053
 40
9.173160221220064
 40
10.17314974777304
 40
10.17314974777304
 40
10.17314974777304
 10
3.799095280981362
 20
22.55891938679684
 30
0.0
 10
3.843345465925097
 20
22.56309956330051
 30
0.0
 10
3.919578900421641
 20
22.60808241260182
 30
0.0
 10
3.977293675063436
 20
22.67451378781448
 30
0.0
 10
4.016198051359311
 20
22.75328674196547
 30
0.0
 10
4.025583063859699
 20
22.7961932670419
 30
0.0
  0
LINE
  5
DF
330
1F
100
AcDbEntity
  8
2D DXF
370
    -3
100
AcDbLine
 10
3.359995941367174
 20
22.5139051510249
 30
0.0
 11
3.799095280981362
 21
22.55891938679684
 31
0.0
  0
LINE
  5
E0
330
1F
100
AcDbEntity
  8
2D DXF
370
    -3
100
AcDbLine
 10
2.857281199954173
 20
22.56315836626213
 30
0.0
 11
3.359995941367174
 21
22.5139051510249
 31
0.0
  0
SPLINE
  5
E1
330
1F
100
AcDbEntity
  8
2D DXF
370
    -3
100
AcDbSpline
210
0.0
220
0.0
230
1.0
 70
     8
 71
     2
 72
     9
 73
     6
 74
     0
 42
0.0000000001
 43
0.0000000001
 40
1.22662736504897
 40
1.22662736504897
 40
1.22662736504897
 40
2.22662736504897
 40
3.226627365048969
 40
4.226627365048969
 40
5.226627365048969
 40
5.226627365048969
 40
5.226627365048969
 10
2.654548225430744
 20
22.76976504010756
 30
0.0
 10
2.663359314779143
 20
22.73202184783713
 30
0.0
 10
2.697781452007519
 20
22.66248713181361
 30
0.0
 10
2.749797079172936
 20
22.60463588124699
 30
0.0
 10
2.818421194017674
 20
22.56741855151574
 30
0.0
 10
2.857281199954173
 20
22.56315836626213
 30
0.0
  0
SPLINE
  5
E2
330
1F
100
AcDbEntity
  8
2D DXF
370
    -3
100
AcDbSpline
210
0.0
220
0.0
230
1.0
 70
    28
 71
     2
 72
     6
 73
     3
 74
     0
 42
0.0000000001
 43
0.0000000001
 40
0.7984423683647881
 40
0.7984423683647881
 40
0.7984423683647881
 40
1.22662736504897
 40
1.22662736504897
 40
1.22662736504897
 10
2.557355222870234
 20
23.17855025128071
 30
0.0
 41
0.8563898439284926
 10
2.605951724150502
 20
22.97415764569413
 30
0.0
 41
0.8563898439284932
 10
2.654548225430771
 20
22.76976504010756
 30
0.0
 41
0.8563898439284937
  0
SPLINE
  5
E3
330
1F
100
AcDbEntity
  8
2D DXF
370
    -3
100
AcDbSpline
210
0.0
220
0.0
230
1.0
 70
    28
 71
     2
 72
     6
 73
     3
 74
     0
 42
0.0000000001
 43
0.0000000001
 40
10.18033768239874
 40
10.18033768239874
 40
10.18033768239874
 40
10.59986979928274
 40
10.59986979928274
 40
10.59986979928274
 10
4.025445442828248
 20
23.46856003047916
 30
0.0
 41
0.8563898439579778
 10
4.072395020543061
 20
23.66602544434629
 30
0.0
 41
0.8563898439579778
 10
4.119344598257873
 20
23.86349085821342
 30
0.0
 41
0.8563898439579779
  0
SPLINE
  5
E4
330
1F
100
AcDbEntity
  8
2D DXF
370
    -3
100
AcDbSpline
210
0.0
220
0.0
230
1.0
 70
     8
 71
     2
 72
     9
 73
     6
 74
     0
 42
0.0000000001
 43
0.0000000001
 40
6.180337682398743
 40
6.180337682398743
 40
6.180337682398743
 40
7.180442332011739
 40
8.180546981624735
 40
9.18065163123773
 40
10.18033768239874
 40
10.18033768239874
 40
10.18033768239874
 10
3.823209241441589
 20
23.26166616897383
 30
0.0
 10
3.862045236522874
 20
23.26599762187932
 30
0.0
 10
3.930146718877154
 20
23.30393129964179
 30
0.0
 10
3.982303556478087
 20
23.36147753924432
 30
0.0
 10
4.017006202485334
 20
23.43077124554566
 30
0.0
 10
4.0254454428283
 20
23.46856003047915
 30
0.0
  0
LINE
  5
E5
330
1F
100
AcDbEntity
  8
2D DXF
370
    -3
100
AcDbLine
 10
3.319993847285616
 20
23.21268300095612
 30
0.0
 11
3.823209241441589
 21
23.26166616897383
 31
0.0
  0
LINE
  5
E6
330
1F
100
AcDbEntity
  8
2D DXF
370
    -3
100
AcDbLine
 10
2.88022759838384
 20
23.25775755258991
 30
0.0
 11
3.319993847285616
 21
23.21268300095612
 31
0.0
  0
SPLINE
  5
E7
330
1F
100
AcDbEntity
  8
2D DXF
370
    -3
100
AcDbSpline
210
0.0
220
0.0
230
1.0
 70
     8
 71
     2
 72
     9
 73
     6
 74
     0
 42
0.0000000001
 43
0.0000000001
 40
1.232673681168818
 40
1.232673681168818
 40
1.232673681168818
 40
2.232671278259504
 40
3.232672079229276
 40
4.232672880199047
 40
5.232673681168818
 40
5.232673681168818
 40
5.232673681168818
 10
2.654406927415891
 20
23.49497019205424
 30
0.0
 10
2.664141413999403
 20
23.45227368365846
 30
0.0
 10
2.702422145652179
 20
23.37341831623102
 30
0.0
 10
2.759919233223684
 20
23.30701766881035
 30
0.0
 10
2.836225560515572
 20
23.26260844233305
 30
0.0
 10
2.88022759838384
 20
23.25775755258991
 30
0.0
  0
SPLINE
  5
E8
330
1F
100
AcDbEntity
  8
2D DXF
370
    -3
100
AcDbSpline
210
0.0
220
0.0
230
1.0
 70
    28
 71
     2
 72
     6
 73
     3
 74
     0
 42
0.0000000001
 43
0.0000000001
 40
0.6892278622060378
 40
0.6892278622060378
 40
0.6892278622060378
 40
1.232673681168818
 40
1.232673681168818
 40
1.232673681168818
 10
2.532764470863337
 20
24.02390268576966
 30
0.0
 41
0.8560172248711451
 10
2.593585699139621
 20
23.75943643891196
 30
0.0
 41
0.8560172248711454
 10
2.654406927415904
 20
23.49497019205425
 30
0.0
 41
0.8560172248711457
  0
SPLINE
  5
E9
330
1F
100
AcDbEntity
  8
2D DXF
370
    -3
100
AcDbSpline
210
0.0
220
0.0
230
1.0
 70
    28
 71
     2
 72
     6
 73
     3
 74
     0
 42
0.0000000001
 43
0.0000000001
 40
4.610333950763096
 40
4.610333950763096
 40
4.610333950763096
 40
5.008596212091838
 40
5.008596212091838
 40
5.008596212091838
 10
3.518536401090444
 20
22.84919990041608
 30
0.0
 41
1.0
 10
3.548904856811049
 20
23.04449851349496
 30
0.0
 41
1.0
 10
3.579273312531654
 20
23.23979712657383
 30
0.0
 41
1.0
  0
SPLINE
  5
EA
330
1F
100
AcDbEntity
  8
2D DXF
370
    -3
100
AcDbSpline
210
0.0
220
0.0
230
1.0
 70
     8
 71
     2
 72
     9
 73
     6
 74
     0
 42
0.0000000001
 43
0.0000000001
 40
0.6103339507630958
 40
0.6103339507630958
 40
0.6103339507630958
 40
1.610333950763096
 40
2.610333950763096
 40
3.610333950763096
 40
4.610333950763096
 40
4.610333950763096
 40
4.610333950763096
 10
3.32000405863289
 20
22.60833029679938
 30
0.0
 10
3.362494735008397
 20
22.61277838121723
 30
0.0
 10
3.431901413762489
 20
22.66163763179497
 30
0.0
 10
3.4812064828335
 20
22.72973664556599
 30
0.0
 10
3.512178752294915
 20
22.8077385121708
 30
0.0
 10
3.518536401090444
 20
22.84919990041608
 30
0.0
  0
SPLINE
  5
EB
330
1F
100
AcDbEntity
  8
2D DXF
370
    -3
100
AcDbSpline
210
0.0
220
0.0
230
1.0
 70
    24
 71
     2
 72
     6
 73
     3
 74
     0
 42
0.0000000001
 43
0.0000000001
 40
-0.0000000000000012
 40
-0.0000000000000012
 40
-0.0000000000000012
 40
0.6103339507630958
 40
0.6103339507630958
 40
0.6103339507630958
 10
2.888336990810899
 20
22.56322882985467
 30
0.0
 10
3.104170524721894
 20
22.58577956332702
 30
0.0
 10
3.32000405863289
 20
22.60833029679938
 30
0.0
  0
SPLINE
  5
EC
330
1F
100
AcDbEntity
  8
2D DXF
370
    -3
100
AcDbSpline
210
0.0
220
0.0
230
1.0
 70
    24
 71
     2
 72
     6
 73
     3
 74
     0
 42
0.0000000001
 43
0.0000000001
 40
4.003985166117586
 40
4.003985166117586
 40
4.003985166117586
 40
4.614319116880683
 40
4.614319116880683
 40
4.614319116880683
 10
3.359985730020526
 20
23.30710815816249
 30
0.0
 10
3.575819263931351
 20
23.28455742468841
 30
0.0
 10
3.791652797842175
 20
23.26200669121432
 30
0.0
  0
SPLINE
  5
ED
330
1F
100
AcDbEntity
  8
2D DXF
370
    -3
100
AcDbSpline
210
0.0
220
0.0
230
1.0
 70
     8
 71
     2
 72
     9
 73
     6
 74
     0
 42
0.0000000001
 43
0.0000000001
 40
0.0039851661175855
 40
0.0039851661175855
 40
0.0039851661175855
 40
1.003985166117586
 40
2.003985166117586
 40
3.003985166117586
 40
4.003985166117586
 40
4.003985166117586
 40
4.003985166117586
 10
3.161453384884169
 20
23.5479777616454
 30
0.0
 10
3.168177469512216
 20
23.50661021976394
 30
0.0
 10
3.198748549743357
 20
23.42849618331459
 30
0.0
 10
3.247784656115812
 20
23.3601685380284
 30
0.0
 10
3.317664731742468
 20
23.31211214454632
 30
0.0
 10
3.359985730020526
 20
23.30710815816249
 30
0.0
  0
SPLINE
  5
EE
330
1F
100
AcDbEntity
  8
2D DXF
370
    -3
100
AcDbSpline
210
0.0
220
0.0
230
1.0
 70
    28
 71
     2
 72
     6
 73
     3
 74
     0
 42
0.0000000001
 43
0.0000000001
 40
-0.5528646837850709
 40
-0.5528646837850709
 40
-0.5528646837850709
 40
0.0039851661175855
 40
0.0039851661175855
 40
0.0039851661175855
 10
3.076531096477025
 20
24.09411036771437
 30
0.0
 41
1.0
 10
3.118992240680568
 20
23.82104406467989
 30
0.0
 41
1.0
 10
3.161453384884111
 20
23.5479777616454
 30
0.0
 41
1.0
  0
SPLINE
  5
EF
330
1F
100
AcDbEntity
  8
2D DXF
370
    -3
100
AcDbSpline
210
0.0
220
0.0
230
1.0
 70
    24
 71
     2
 72
     6
 73
     3
 74
     0
 42
0.0000000001
 43
0.0000000001
 40
0.000000000000001
 40
0.000000000000001
 40
0.000000000000001
 40
0.6103339507630969
 40
0.6103339507630969
 40
0.6103339507630969
 10
2.888326779463966
 20
23.25778446790427
 30
0.0
 10
3.104160313374791
 20
23.2352337344302
 30
0.0
 10
3.319993847285616
 20
23.21268300095612
 30
0.0
  0
SPLINE
  5
F0
330
1F
100
AcDbEntity
  8
2D DXF
370
    -3
100
AcDbSpline
210
0.0
220
0.0
230
1.0
 70
    12
 71
     2
 72
     6
 73
     3
 74
     0
 42
0.0000000001
 43
0.0000000001
 40
0.0931404683516954
 40
0.0931404683516954
 40
0.0931404683516954
 40
0.1158637182037069
 40
0.1158637182037069
 40
0.1158637182037069
 10
3.38262241338975
 20
22.51818369655345
 30
0.0
 41
0.8892833237614565
 10
3.375738686075974
 20
22.51467626229965
 30
0.0
 41
0.9105152908287699
 10
3.368309253648444
 20
22.51390001985181
 30
0.0
 41
0.9486969526683089
  0
SPLINE
  5
F1
330
1F
100
AcDbEntity
  8
2D DXF
370
    -3
100
AcDbSpline
210
0.0
220
0.0
230
1.0
 70
     8
 71
     3
 72
     8
 73
     4
 74
     0
 42
0.0000000001
 43
0.0000000001
 40
2.044911702315788
 40
2.044911702315788
 40
2.044911702315788
 40
2.044911702315788
 40
2.115874797478824
 40
2.115874797478824
 40
2.115874797478824
 40
2.115874797478824
 10
2.691804924760334
 20
24.03900975762846
 30
0.0
 10
2.688079354623312
 20
24.04168607537848
 30
0.0
 10
2.686167161664287
 20
24.04453088870687
 30
0.0
 10
2.686215596618354
 20
24.04755345931503
 30
0.0
  0
SPLINE
  5
F2
330
1F
100
AcDbEntity
  8
2D DXF
370
    -3
100
AcDbSpline
210
0.0
220
0.0
230
1.0
 70
    28
 71
     3
 72
     8
 73
     4
 74
     0
 42
0.0000000001
 43
0.0000000001
 40
1.99450461069922
 40
1.99450461069922
 40
1.99450461069922
 40
1.99450461069922
 40
5.584448213357721
 40
5.584448213357721
 40
5.584448213357721
 40
5.584448213357721
 10
2.60340500994529
 20
23.71823614071737
 30
0.0
 41
0.8566589076371487
 10
1.757435044735852
 20
23.62976893191204
 30
0.0
 41
0.8566589076371486
 10
0.911465079526497
 20
23.54130172310675
 30
0.0
 41
0.8566589076371487
 10
0.0654951143171419
 20
23.45283451430146
 30
0.0
 41
0.8566589076371488
  0
SPLINE
  5
F3
330
1F
100
AcDbEntity
  8
2D DXF
370
    -3
100
AcDbSpline
210
0.0
220
0.0
230
1.0
 70
    28
 71
     3
 72
     8
 73
     4
 74
     0
 42
0.0000000001
 43
0.0000000001
 40
0.1480224217458351
 40
0.1480224217458351
 40
0.1480224217458351
 40
0.1480224217458351
 40
0.8593290760227089
 40
0.8593290760227089
 40
0.8593290760227089
 40
0.8593290760227089
 10
4.693170000719644
 20
23.2426294112997
 30
0.0
 41
0.8547228508968872
 10
4.495498832404219
 20
23.20109455026351
 30
0.0
 41
0.8547228508968868
 10
4.297827664089823
 20
23.1595596892275
 30
0.0
 41
0.854722850896887
 10
4.100156495774105
 20
23.11802482819126
 30
0.0
 41
0.8547228508968873
  0
SPLINE
  5
F4
330
1F
100
AcDbEntity
  8
2D DXF
370
    -3
100
AcDbSpline
210
0.0
220
0.0
230
1.0
 70
     8
 71
     3
 72
     8
 73
     4
 74
     0
 42
0.0000000001
 43
0.0000000001
 40
2.705597747790026
 40
2.705597747790026
 40
2.705597747790026
 40
2.705597747790026
 40
2.723204868881017
 40
2.723204868881017
 40
2.723204868881017
 40
2.723204868881017
 10
5.459461531215368
 20
24.67229347901771
 30
0.0
 10
5.462822748665587
 20
24.67195341011379
 30
0.0
 10
5.466181943533229
 20
24.6716234659706
 30
0.0
 10
5.469538917862167
 20
24.67130353339971
 30
0.0
  0
SPLINE
  5
F5
330
1F
100
AcDbEntity
  8
2D DXF
370
    -3
100
AcDbSpline
210
0.0
220
0.0
230
1.0
 70
     8
 71
     3
 72
    29
 73
    25
 74
     0
 42
0.0000000001
 43
0.0000000001
 40
0.0
 40
0.0
 40
0.0
 40
0.0
 40
1.0
 40
2.0
 40
3.0
 40
4.0
 40
5.0
 40
6.0
 40
7.0
 40
8.0
 40
9.0
 40
10.0
 40
11.0
 40
12.0
 40
13.0
 40
14.0
 40
15.0
 40
16.0
 40
17.0
 40
18.0
 40
19.0
 40
20.0
 40
21.0
 40
22.0
 40
22.0
 40
22.0
 40
22.0
 10
0.0005564073934465
 20
23.88440189664465
 30
0.0
 10
-0.1326755935584174
 20
23.88440011346337
 30
0.0
 10
-0.3971625448072018
 20
23.8863180929422
 30
0.0
 10
-0.7938042959700056
 20
23.89524645885278
 30
0.0
 10
-1.190248903424617
 20
23.9106632924275
 30
0.0
 10
-1.586357066431788
 20
23.93317002842105
 30
0.0
 10
-1.981951761002222
 20
23.96344475571286
 30
0.0
 10
-2.376790689007009
 20
24.00239654778485
 30
0.0
 10
-2.77059337191838
 20
24.05075958763791
 30
0.0
 10
-3.163004249426876
 20
24.10937941155768
 30
0.0
 10
-3.553665039987322
 20
24.1787308012579
 30
0.0
 10
-3.942205248588323
 20
24.25912734251891
 30
0.0
 10
-4.328368791386424
 20
24.35022078062256
 30
0.0
 10
-4.71224331610216
 20
24.45049132631047
 30
0.0
 10
-5.093963243545375
 20
24.55865833105247
 30
0.0
 10
-5.473505102621516
 20
24.67422714698537
 30
0.0
 10
-5.85088676372834
 20
24.79666011604253
 30
0.0
 10
-6.226023538150457
 20
24.92582725187023
 30
0.0
 10
-6.601817632627103
 20
25.05281556486773
 30
0.0
 10
-6.980366010704074
 20
25.17245321139333
 30
0.0
 10
-7.361454032488723
 20
25.27974040777622
 30
0.0
 10
-7.751038280123851
 20
25.37126024952364
 30
0.0
 10
-8.133724433079749
 20
25.4193359286725
 30
0.0
 10
-8.427194304897625
 20
25.42332319999738
 30
0.0
 10
-8.498444335532326
 20
25.30155794193095
 30
0.0
  0
SPLINE
  5
F6
330
1F
100
AcDbEntity
  8
2D DXF
370
    -3
100
AcDbSpline
210
0.0
220
0.0
230
1.0
 70
     8
 71
     3
 72
    29
 73
    25
 74
     0
 42
0.0000000001
 43
0.0000000001
 40
-22.0
 40
-22.0
 40
-22.0
 40
-22.0
 40
-21.0
 40
-20.0
 40
-19.0
 40
-18.0
 40
-17.0
 40
-16.0
 40
-15.0
 40
-14.0
 40
-13.0
 40
-12.0
 40
-11.0
 40
-10.0
 40
-9.0
 40
-8.0
 40
-7.0
 40
-6.0
 40
-5.0
 40
-4.0
 40
-3.0
 40
-2.0
 40
-1.0
 40
0.0
 40
0.0
 40
0.0
 40
0.0
 10
8.49955715031922
 20
25.30155794193095
 30
0.0
 10
8.428307119684519
 20
25.42332319999738
 30
0.0
 10
8.134837247866642
 20
25.4193359286725
 30
0.0
 10
7.752151094910744
 20
25.37126024952364
 30
0.0
 10
7.362566847275616
 20
25.27974040777622
 30
0.0
 10
6.981478825490967
 20
25.17245321139333
 30
0.0
 10
6.602930447413996
 20
25.05281556486773
 30
0.0
 10
6.22713635293735
 20
24.92582725187023
 30
0.0
 10
5.851999578515233
 20
24.79666011604253
 30
0.0
 10
5.474617917408409
 20
24.67422714698537
 30
0.0
 10
5.095076058332268
 20
24.55865833105247
 30
0.0
 10
4.713356130889053
 20
24.45049132631047
 30
0.0
 10
4.329481606173317
 20
24.35022078062256
 30
0.0
 10
3.943318063375216
 20
24.25912734251891
 30
0.0
 10
3.554777854774215
 20
24.1787308012579
 30
0.0
 10
3.164117064213769
 20
24.10937941155768
 30
0.0
 10
2.771706186705273
 20
24.05075958763791
 30
0.0
 10
2.377903503793902
 20
24.00239654778485
 30
0.0
 10
1.983064575789115
 20
23.96344475571286
 30
0.0
 10
1.587469881218681
 20
23.93317002842105
 30
0.0
 10
1.19136171821151
 20
23.9106632924275
 30
0.0
 10
0.7949171107568986
 20
23.89524645885278
 30
0.0
 10
0.3982753595940949
 20
23.8863180929422
 30
0.0
 10
0.1337884083453105
 20
23.88440011346337
 30
0.0
 10
0.0005564073934465
 20
23.88440189664465
 30
0.0
  0
SPLINE
  5
F7
330
1F
100
AcDbEntity
  8
2D DXF
370
    -3
100
AcDbSpline
210
0.0
220
0.0
230
1.0
 70
    11
 71
     3
 72
    65
 73
    61
 74
     0
 42
0.0000000001
 43
0.0000000001
 40
0.0
 40
0.0
 40
0.0
 40
0.0
 40
1.0
 40
2.0
 40
3.0
 40
4.0
 40
5.0
 40
6.0
 40
7.0
 40
8.0
 40
9.0
 40
10.0
 40
11.0
 40
12.0
 40
13.0
 40
13.0
 40
13.0
 40
14.0
 40
15.0
 40
16.0
 40
17.0
 40
18.0
 40
19.0
 40
20.0
 40
21.0
 40
22.0
 40
23.0
 40
24.0
 40
25.0
 40
26.0
 40
26.0
 40
26.0
 40
27.0
 40
28.0
 40
29.0
 40
30.0
 40
31.0
 40
32.0
 40
33.0
 40
34.0
 40
35.0
 40
36.0
 40
37.0
 40
38.0
 40
39.0
 40
39.0
 40
39.0
 40
40.0
 40
41.0
 40
42.0
 40
43.0
 40
44.0
 40
45.0
 40
46.0
 40
47.0
 40
48.0
 40
49.0
 40
50.0
 40
51.0
 40
52.0
 40
52.0
 40
52.0
 40
52.0
 10
0.0
 20
26.33020233419091
 30
0.0
 10
-0.2849002703576389
 20
26.33020233419091
 30
0.0
 10
-0.9595529511767609
 20
26.35592028383817
 30
0.0
 10
-1.809434144539011
 20
26.45222192466363
 30
0.0
 10
-2.648894757158416
 20
26.61710987778011
 30
0.0
 10
-3.470240774125386
 20
26.85680021960717
 30
0.0
 10
-4.265464530063127
 20
27.17295316956734
 30
0.0
 10
-5.022891259536493
 20
27.5719076001356
 30
0.0
 10
-5.72742927318285
 20
28.05881848225408
 30
0.0
 10
-6.36111170300785
 20
28.63548712197604
 30
0.0
 10
-6.904296879872106
 20
29.2986376510184
 30
0.0
 10
-7.337550200898022
 20
30.03847759461254
 30
0.0
 10
-7.649645057711211
 20
30.83700600495074
 30
0.0
 10
-7.833973833532184
 20
31.67414118933974
 30
0.0
 10
-7.873241639852552
 20
32.24835837086775
 30
0.0
 10
-7.87435914930478
 20
32.5332345929246
 30
0.0
 10
-7.87540860720884
 20
32.8007630709303
 30
0.0
 10
-7.844120655094287
 20
33.33960859445446
 30
0.0
 10
-7.702479859821494
 20
34.13221951196749
 30
0.0
 10
-7.438978918194209
 20
34.88955467415859
 30
0.0
 10
-7.023704686950282
 20
35.5965718550966
 30
0.0
 10
-6.342254207729923
 20
36.04046839991969
 30
0.0
 10
-5.582031091907027
 20
36.30577023363153
 30
0.0
 10
-4.79975790811244
 20
36.48595525482909
 30
0.0
 10
-4.005908838837797
 20
36.6056962694926
 30
0.0
 10
-3.207581855928538
 20
36.68698142597839
 30
0.0
 10
-2.406827830759994
 20
36.73909859538901
 30
0.0
 10
-1.604997279332963
 20
36.76894650685526
 30
0.0
 10
-0.8027572471764302
 20
36.78287740767172
 30
0.0
 10
-0.2678633183911643
 20
36.78481401056348
 30
0.0
 10
0.0
 20
36.7848111858447
 30
0.0
 10
0.2678633183911643
 20
36.78481401056348
 30
0.0
 10
0.8027572471764302
 20
36.78287740767172
 30
0.0
 10
1.604997279332963
 20
36.76894650685526
 30
0.0
 10
2.406827830759994
 20
36.73909859538901
 30
0.0
 10
3.207581855928538
 20
36.68698142597839
 30
0.0
 10
4.005908838837797
 20
36.6056962694926
 30
0.0
 10
4.79975790811244
 20
36.48595525482909
 30
0.0
 10
5.582031091907027
 20
36.30577023363153
 30
0.0
 10
6.342254207729923
 20
36.04046839991969
 30
0.0
 10
7.023704686950282
 20
35.5965718550966
 30
0.0
 10
7.438978918194209
 20
34.88955467415859
 30
0.0
 10
7.702479859821494
 20
34.13221951196749
 30
0.0
 10
7.844120655094287
 20
33.33960859445446
 30
0.0
 10
7.875408607208783
 20
32.8007630709303
 30
0.0
 10
7.87435914930478
 20
32.5332345929246
 30
0.0
 10
7.873241639852608
 20
32.24835837086775
 30
0.0
 10
7.833973833532184
 20
31.67414118933974
 30
0.0
 10
7.649645057711211
 20
30.83700600495074
 30
0.0
 10
7.337550200898022
 20
30.03847759461254
 30
0.0
 10
6.904296879872106
 20
29.2986376510184
 30
0.0
 10
6.36111170300785
 20
28.63548712197604
 30
0.0
 10
5.72742927318285
 20
28.05881848225408
 30
0.0
 10
5.022891259536493
 20
27.5719076001356
 30
0.0
 10
4.265464530063127
 20
27.17295316956734
 30
0.0
 10
3.470240774125386
 20
26.85680021960717
 30
0.0
 10
2.648894757158416
 20
26.61710987778011
 30
0.0
 10
1.809434144539011
 20
26.45222192466363
 30
0.0
 10
0.9595529511767609
 20
26.35592028383817
 30
0.0
 10
0.2849002703576389
 20
26.33020233419091
 30
0.0
 10
0.0
 20
26.33020233419091
 30
0.0
  0
SPLINE
  5
F8
330
1F
100
AcDbEntity
  8
2D DXF
370
    -3
100
AcDbSpline
210
0.0
220
0.0
230
1.0
 70
    28
 71
     3
 72
     8
 73
     4
 74
     0
 42
0.0000000001
 43
0.0000000001
 40
1.096513440296276
 40
1.096513440296276
 40
1.096513440296276
 40
1.096513440296276
 40
8.742393638717676
 40
8.742393638717676
 40
8.742393638717676
 40
8.742393638717676
 10
6.545738951167116
 20
61.50053988881006
 30
0.0
 41
0.8689157816187647
 10
6.875461038089542
 20
61.96737411087523
 30
0.0
 41
0.8689157816187646
 10
7.205183125011948
 20
62.43420833294035
 30
0.0
 41
0.8689157816187645
 10
7.534905211934307
 20
62.9010425550055
 30
0.0
 41
0.8689157816187645
  0
SPLINE
  5
F9
330
1F
100
AcDbEntity
  8
2D DXF
370
    -3
100
AcDbSpline
210
0.0
220
0.0
230
1.0
 70
    28
 71
     3
 72
     8
 73
     4
 74
     0
 42
0.0000000001
 43
0.0000000001
 40
8.629947423803616
 40
8.629947423803616
 40
8.629947423803616
 40
8.629947423803616
 40
13.04943539406968
 40
13.04943539406968
 40
13.04943539406968
 40
13.04943539406968
 10
6.740415067465204
 20
62.86819999916309
 30
0.0
 41
0.8689157816187674
 10
6.549828403946016
 20
62.59835948702018
 30
0.0
 41
0.8689157816187674
 10
6.359241740426829
 20
62.32851897487726
 30
0.0
 41
0.8689157816187674
 10
6.168655076907641
 20
62.05867846273432
 30
0.0
 41
0.8689157816187674
  0
SPLINE
  5
FA
330
1F
100
AcDbEntity
  8
2D DXF
370
    -3
100
AcDbSpline
210
0.0
220
0.0
230
1.0
 70
     8
 71
     3
 72
    64
 73
    60
 74
     0
 42
0.0000000001
 43
0.0000000001
 40
57.0
 40
57.0
 40
57.0
 40
57.0
 40
58.0
 40
59.0
 40
60.0
 40
61.0
 40
62.0
 40
63.0
 40
64.0
 40
65.0
 40
66.0
 40
67.0
 40
68.0
 40
69.0
 40
70.0
 40
71.0
 40
72.0
 40
73.0
 40
74.0
 40
75.0
 40
76.0
 40
77.0
 40
78.0
 40
79.0
 40
80.0
 40
81.0
 40
82.0
 40
83.0
 40
84.0
 40
85.0
 40
86.0
 40
87.0
 40
88.0
 40
89.0
 40
90.0
 40
91.0
 40
92.0
 40
93.0
 40
94.0
 40
95.0
 40
96.0
 40
97.0
 40
98.0
 40
99.0
 40
100.0
 40
101.0
 40
102.0
 40
103.0
 40
104.0
 40
105.0
 40
106.0
 40
107.0
 40
108.0
 40
109.0
 40
110.0
 40
111.0
 40
112.0
 40
113.0
 40
114.0
 40
114.0
 40
114.0
 40
114.0
 10
-0.0004239932615917
 20
67.84721929184869
 30
0.0
 10
0.1044419878168412
 20
67.84722185822633
 30
0.0
 10
0.3141748176728072
 20
67.84490414798447
 30
0.0
 10
0.6286120623026648
 20
67.83419686755067
 30
0.0
 10
0.942707095478653
 20
67.8160032827532
 30
0.0
 10
1.25625795544525
 20
67.79005419488547
 30
0.0
 10
1.569043840501905
 20
67.75608320013939
 30
0.0
 10
1.88082044369267
 20
67.71383050359745
 30
0.0
 10
2.191321765598815
 20
67.66303351059796
 30
0.0
 10
2.500234782911008
 20
67.60331677364238
 30
0.0
 10
2.807237193787813
 20
67.53443611761386
 30
0.0
 10
3.111930931578144
 20
67.4559551009618
 30
0.0
 10
3.413922851401281
 20
67.36764062745405
 30
0.0
 10
3.712736055660599
 20
67.26908105678453
 30
0.0
 10
4.007764829376896
 20
67.15969795662338
 30
0.0
 10
4.298349378450695
 20
67.0389823554751
 30
0.0
 10
4.583711785142754
 20
66.90637449850917
 30
0.0
 10
4.862814599027587
 20
66.76100150724258
 30
0.0
 10
5.134007047353435
 20
66.60133637276991
 30
0.0
 10
5.397203347366286
 20
66.42886881967016
 30
0.0
 10
5.653258884698943
 20
66.24597416337636
 30
0.0
 10
5.900879475083258
 20
66.05178946034422
 30
0.0
 10
6.13923826786035
 20
65.84633510842318
 30
0.0
 10
6.36925128437494
 20
65.63168343813905
 30
0.0
 10
6.594848879878867
 20
65.41231494789244
 30
0.0
 10
6.806839235077774
 20
65.17958025304287
 30
0.0
 10
7.00128875542319
 20
64.93209067509505
 30
0.0
 10
7.185844260617301
 20
64.67730092504371
 30
0.0
 10
7.364917181807101
 20
64.41856854546461
 30
0.0
 10
7.536073708194152
 20
64.15471521677856
 30
0.0
 10
7.692746373644269
 20
63.88101081839025
 30
0.0
 10
7.821501679919578
 20
63.59562158510681
 30
0.0
 10
7.910260016035494
 20
63.28485913812523
 30
0.0
 10
7.777261002054757
 20
62.96965826097639
 30
0.0
 10
7.459117161705166
 20
62.87102664343126
 30
0.0
 10
7.148303842051433
 20
62.84908670084388
 30
0.0
 10
6.832662336567893
 20
62.8586900055644
 30
0.0
 10
6.51951902596997
 20
62.88699345346825
 30
0.0
 10
6.207343255836719
 20
62.92679129455524
 30
0.0
 10
5.896431000576314
 20
62.97481601694142
 30
0.0
 10
5.586463394045694
 20
63.0286822051184
 30
0.0
 10
5.277306167916237
 20
63.08696317298671
 30
0.0
 10
4.96879618695138
 20
63.14857544621091
 30
0.0
 10
4.660789951194118
 20
63.21264706653523
 30
0.0
 10
4.353132267959751
 20
63.27836732680902
 30
0.0
 10
4.04572884629593
 20
63.34526618238331
 30
0.0
 10
3.738349951469701
 20
63.41227458281637
 30
0.0
 10
3.431015354430116
 20
63.47948783624676
 30
0.0
 10
3.123182993664983
 20
63.54441144808703
 30
0.0
 10
2.814224452995262
 20
63.60377981235195
 30
0.0
 10
2.504423748362143
 20
63.65856947718245
 30
0.0
 10
2.193641229807753
 20
63.70751221707238
 30
0.0
 10
1.881986912748658
 20
63.75055473228178
 30
0.0
 10
1.569554179870039
 20
63.78753377070731
 30
0.0
 10
1.256438122819674
 20
63.81820771284021
 30
0.0
 10
0.9427487384960216
 20
63.84232950700337
 30
0.0
 10
0.6286134063072097
 20
63.8597282219564
 30
0.0
 10
0.3141739158224652
 20
63.87029663197194
 30
0.0
 10
0.1044422844711619
 20
63.87268603834275
 30
0.0
 10
-0.0004239932170833
 20
63.87268878595637
 30
0.0
  0
SPLINE
  5
FB
330
1F
100
AcDbEntity
  8
2D DXF
370
    -3
100
AcDbSpline
210
0.0
220
0.0
230
1.0
 70
     8
 71
     3
 72
    64
 73
    60
 74
     0
 42
0.0000000001
 43
0.0000000001
 40
0.0
 40
0.0
 40
0.0
 40
0.0
 40
1.0
 40
2.0
 40
3.0
 40
4.0
 40
5.0
 40
6.0
 40
7.0
 40
8.0
 40
9.0
 40
10.0
 40
11.0
 40
12.0
 40
13.0
 40
14.0
 40
15.0
 40
16.0
 40
17.0
 40
18.0
 40
19.0
 40
20.0
 40
21.0
 40
22.0
 40
23.0
 40
24.0
 40
25.0
 40
26.0
 40
27.0
 40
28.0
 40
29.0
 40
30.0
 40
31.0
 40
32.0
 40
33.0
 40
34.0
 40
35.0
 40
36.0
 40
37.0
 40
38.0
 40
39.0
 40
40.0
 40
41.0
 40
42.0
 40
43.0
 40
44.0
 40
45.0
 40
46.0
 40
47.0
 40
48.0
 40
49.0
 40
50.0
 40
51.0
 40
52.0
 40
53.0
 40
54.0
 40
55.0
 40
56.0
 40
57.0
 40
57.0
 40
57.0
 40
57.0
 10
-0.0004239932170833
 20
63.87268878595637
 30
0.0
 10
-0.1052902709053285
 20
63.87268603834275
 30
0.0
 10
-0.3150219022566318
 20
63.87029663197194
 30
0.0
 10
-0.6294613927413764
 20
63.8597282219564
 30
0.0
 10
-0.9435967249301882
 20
63.84232950700337
 30
0.0
 10
-1.25728610925384
 20
63.81820771284021
 30
0.0
 10
-1.570402166304206
 20
63.78753377070731
 30
0.0
 10
-1.882834899182825
 20
63.75055473228178
 30
0.0
 10
-2.194489216241919
 20
63.70751221707238
 30
0.0
 10
-2.50527173479631
 20
63.65856947718245
 30
0.0
 10
-2.815072439429429
 20
63.60377981235195
 30
0.0
 10
-3.12403098009915
 20
63.54441144808703
 30
0.0
 10
-3.431863340864282
 20
63.47948783624676
 30
0.0
 10
-3.739197937903867
 20
63.41227458281637
 30
0.0
 10
-4.046576832730096
 20
63.34526618238331
 30
0.0
 10
-4.353980254393917
 20
63.27836732680902
 30
0.0
 10
-4.661637937628285
 20
63.21264706653523
 30
0.0
 10
-4.969644173385547
 20
63.14857544621091
 30
0.0
 10
-5.278154154350403
 20
63.08696317298671
 30
0.0
 10
-5.587311380479861
 20
63.0286822051184
 30
0.0
 10
-5.89727898701048
 20
62.97481601694142
 30
0.0
 10
-6.208191242270885
 20
62.92679129455524
 30
0.0
 10
-6.520367012404137
 20
62.88699345346825
 30
0.0
 10
-6.833510323002059
 20
62.8586900055644
 30
0.0
 10
-7.1491518284856
 20
62.84908670084388
 30
0.0
 10
-7.459965148139332
 20
62.87102664343126
 30
0.0
 10
-7.778108988488924
 20
62.96965826097639
 30
0.0
 10
-7.911108002469661
 20
63.28485913812523
 30
0.0
 10
-7.822349666353745
 20
63.59562158510681
 30
0.0
 10
-7.693594360078436
 20
63.88101081839025
 30
0.0
 10
-7.536921694628319
 20
64.15471521677856
 30
0.0
 10
-7.365765168241268
 20
64.41856854546461
 30
0.0
 10
-7.186692247051468
 20
64.67730092504371
 30
0.0
 10
-7.002136741857356
 20
64.93209067509505
 30
0.0
 10
-6.807687221511941
 20
65.17958025304287
 30
0.0
 10
-6.595696866313034
 20
65.41231494789244
 30
0.0
 10
-6.370099270809106
 20
65.63168343813905
 30
0.0
 10
-6.140086254294516
 20
65.84633510842318
 30
0.0
 10
-5.901727461517424
 20
66.05178946034422
 30
0.0
 10
-5.654106871133109
 20
66.24597416337636
 30
0.0
 10
-5.398051333800453
 20
66.42886881967016
 30
0.0
 10
-5.134855033787602
 20
66.60133637276991
 30
0.0
 10
-4.863662585461753
 20
66.76100150724258
 30
0.0
 10
-4.58455977157692
 20
66.90637449850917
 30
0.0
 10
-4.299197364884861
 20
67.0389823554751
 30
0.0
 10
-4.008612815811063
 20
67.15969795662338
 30
0.0
 10
-3.713584042094766
 20
67.26908105678453
 30
0.0
 10
-3.414770837835448
 20
67.36764062745405
 30
0.0
 10
-3.11277891801231
 20
67.4559551009618
 30
0.0
 10
-2.80808518022198
 20
67.53443611761386
 30
0.0
 10
-2.501082769345174
 20
67.60331677364238
 30
0.0
 10
-2.192169752032981
 20
67.66303351059796
 30
0.0
 10
-1.881668430126837
 20
67.71383050359745
 30
0.0
 10
-1.569891826936072
 20
67.75608320013939
 30
0.0
 10
-1.257105941879416
 20
67.79005419488547
 30
0.0
 10
-0.9435550819128196
 20
67.8160032827532
 30
0.0
 10
-0.6294600487368314
 20
67.83419686755067
 30
0.0
 10
-0.3150228041069738
 20
67.84490414798447
 30
0.0
 10
-0.1052899742510078
 20
67.84722185822633
 30
0.0
 10
-0.0004239931725749
 20
67.84721929184869
 30
0.0
  0
SPLINE
  5
FC
330
1F
100
AcDbEntity
  8
2D DXF
370
    -3
100
AcDbSpline
210
0.0
220
0.0
230
1.0
 70
     8
 71
     3
 72
    24
 73
    20
 74
     0
 42
0.0000000001
 43
0.0000000001
 40
-17.0
 40
-17.0
 40
-17.0
 40
-17.0
 40
-16.0
 40
-15.0
 40
-14.0
 40
-13.0
 40
-12.0
 40
-11.0
 40
-10.0
 40
-9.0
 40
-8.0
 40
-7.0
 40
-6.0
 40
-5.0
 40
-4.0
 40
-3.0
 40
-2.0
 40
-1.0
 40
0.0
 40
0.0
 40
0.0
 40
0.0
 10
-0.0004604240224069
 20
46.81230117997642
 30
0.0
 10
0.4365063261310809
 20
46.81230117997642
 30
0.0
 10
1.310555167058311
 20
46.85668194239011
 30
0.0
 10
2.606959675211925
 20
47.06521279816329
 30
0.0
 10
3.868552666755448
 20
47.43256262641628
 30
0.0
 10
5.064027143782965
 20
47.97944756603877
 30
0.0
 10
6.153490444069377
 20
48.71996817883166
 30
0.0
 10
7.059435940581949
 20
49.67916388241603
 30
0.0
 10
7.716649568212489
 20
50.82234740468371
 30
0.0
 10
8.164819798686636
 20
52.05807762133841
 30
0.0
 10
8.430579619266979
 20
53.34491144647451
 30
0.0
 10
8.534833655932317
 20
54.65389295168411
 30
0.0
 10
8.491595113580246
 20
55.96618810413592
 30
0.0
 10
8.299339044936431
 20
57.26504736432611
 30
0.0
 10
7.966499148383406
 20
58.53498425381468
 30
0.0
 10
7.502311136719726
 20
59.76282565661251
 30
0.0
 10
6.913633855910945
 20
60.93630728507969
 30
0.0
 10
6.204397213617057
 20
62.04056272979977
 30
0.0
 10
5.670431183004013
 20
62.73341649411378
 30
0.0
 10
5.387420332193102
 20
63.06642151349351
 30
0.0
  0
SPLINE
  5
FD
330
1F
100
AcDbEntity
  8
2D DXF
370
    -3
100
AcDbSpline
210
0.0
220
0.0
230
1.0
 70
     8
 71
     3
 72
    24
 73
    20
 74
     0
 42
0.0000000001
 43
0.0000000001
 40
0.0
 40
0.0
 40
0.0
 40
0.0
 40
1.0
 40
2.0
 40
3.0
 40
4.0
 40
5.0
 40
6.0
 40
7.0
 40
8.0
 40
9.0
 40
10.0
 40
11.0
 40
12.0
 40
13.0
 40
14.0
 40
15.0
 40
16.0
 40
17.0
 40
17.0
 40
17.0
 40
17.0
 10
-5.388341180237916
 20
63.06642151349351
 30
0.0
 10
-5.671352031048826
 20
62.73341649411378
 30
0.0
 10
-6.20531806166187
 20
62.04056272979977
 30
0.0
 10
-6.914554703955758
 20
60.93630728507969
 30
0.0
 10
-7.50323198476454
 20
59.76282565661251
 30
0.0
 10
-7.96741999642822
 20
58.53498425381468
 30
0.0
 10
-8.300259892981245
 20
57.26504736432611
 30
0.0
 10
-8.49251596162506
 20
55.96618810413592
 30
0.0
 10
-8.535754503977131
 20
54.65389295168411
 30
0.0
 10
-8.431500467311793
 20
53.34491144647451
 30
0.0
 10
-8.16574064673145
 20
52.05807762133841
 30
0.0
 10
-7.717570416257303
 20
50.82234740468371
 30
0.0
 10
-7.060356788626763
 20
49.67916388241603
 30
0.0
 10
-6.15441129211419
 20
48.71996817883166
 30
0.0
 10
-5.064947991827779
 20
47.97944756603877
 30
0.0
 10
-3.869473514800262
 20
47.43256262641628
 30
0.0
 10
-2.607880523256739
 20
47.06521279816329
 30
0.0
 10
-1.311476015103125
 20
46.85668194239011
 30
0.0
 10
-0.4374271741758946
 20
46.81230117997642
 30
0.0
 10
-0.0004604240224069
 20
46.81230117997642
 30
0.0
  0
SPLINE
  5
FE
330
1F
100
AcDbEntity
  8
2D DXF
370
    -3
100
AcDbSpline
210
0.0
220
0.0
230
1.0
 70
    28
 71
     3
 72
     8
 73
     4
 74
     0
 42
0.0000000001
 43
0.0000000001
 40
1.096513440296276
 40
1.096513440296276
 40
1.096513440296276
 40
1.096513440296276
 40
8.742393638717676
 40
8.742393638717676
 40
8.742393638717676
 40
8.742393638717676
 10
-6.546586937601275
 20
61.50053988881006
 30
0.0
 41
0.8689157816187647
 10
-6.876309024523636
 20
61.96737411087523
 30
0.0
 41
0.8689157816187646
 10
-7.20603111144601
 20
62.43420833294035
 30
0.0
 41
0.8689157816187645
 10
-7.535753198368369
 20
62.9010425550055
 30
0.0
 41
0.8689157816187645
  0
SPLINE
  5
FF
330
1F
100
AcDbEntity
  8
2D DXF
370
    -3
100
AcDbSpline
210
0.0
220
0.0
230
1.0
 70
    28
 71
     3
 72
     8
 73
     4
 74
     0
 42
0.0000000001
 43
0.0000000001
 40
8.629947423803616
 40
8.629947423803616
 40
8.629947423803616
 40
8.629947423803616
 40
13.04943539406968
 40
13.04943539406968
 40
13.04943539406968
 40
13.04943539406968
 10
-6.741263053899429
 20
62.86819999916309
 30
0.0
 41
0.8689157816187674
 10
-6.550676390380241
 20
62.59835948702018
 30
0.0
 41
0.8689157816187674
 10
-6.360089726861054
 20
62.32851897487726
 30
0.0
 41
0.8689157816187674
 10
-6.169503063341867
 20
62.05867846273432
 30
0.0
 41
0.8689157816187674
  0
SPLINE
  5
100
330
1F
100
AcDbEntity
  8
2D DXF
370
    -3
100
AcDbSpline
210
0.0
220
0.0
230
1.0
 70
    12
 71
     2
 72
     8
 73
     5
 74
     0
 42
0.0000000001
 43
0.0000000001
 40
0.8700426236162374
 40
0.8700426236162374
 40
0.8700426236162374
 40
1.107383433081686
 40
1.107383433081686
 40
1.363892850647072
 40
1.363892850647072
 40
1.363892850647072
 10
-8.14771234655803
 20
46.26722734664204
 30
0.0
 41
0.8655283375181975
 10
-8.236818059772638
 20
46.12092087480139
 30
0.0
 41
0.8116763040783244
 10
-8.411440893879472
 20
46.12339349402902
 30
0.0
 41
1.0
 10
-8.603771000393468
 20
46.12611684416733
 30
0.0
 41
0.7964665172271512
 10
-8.692489541420738
 20
46.29771737600854
 30
0.0
 41
0.875806627618849
  0
SPLINE
  5
101
330
1F
100
AcDbEntity
  8
2D DXF
370
    -3
100
AcDbSpline
210
0.0
220
0.0
230
1.0
 70
    12
 71
     2
 72
     8
 73
     5
 74
     0
 42
0.0000000001
 43
0.0000000001
 40
-0.1112400671284108
 40
-0.1112400671284108
 40
-0.1112400671284108
 40
0.0
 40
0.0
 40
0.1523777177939843
 40
0.1523777177939843
 40
0.1523777177939843
 10
-8.69335115463177
 20
46.2993960817598
 30
0.0
 41
0.8766674465830944
 10
-8.726571143275482
 20
46.36459398046485
 30
0.0
 41
0.9117339296879439
 10
-8.727602860819076
 20
46.43681638595031
 30
0.0
 41
1.0
 10
-8.729068593213762
 20
46.53942074700434
 30
0.0
 41
0.8790922848215417
 10
-8.66832738191125
 20
46.62077026452404
 30
0.0
 41
0.8580071305674866
  0
SPLINE
  5
102
330
1F
100
AcDbEntity
  8
2D DXF
370
    -3
100
AcDbSpline
210
0.0
220
0.0
230
1.0
 70
     8
 71
     3
 72
     8
 73
     4
 74
     0
 42
0.0000000001
 43
0.0000000001
 40
0.0
 40
0.0
 40
0.0
 40
0.0
 40
0.0443194491542292
 40
0.0443194491542292
 40
0.0443194491542292
 40
0.0443194491542292
 10
-9.362489067999576
 20
65.48741102882354
 30
0.0
 10
-9.370878428429563
 20
65.49928903368067
 30
0.0
 10
-9.37839696859416
 20
65.51174762251165
 30
0.0
 10
-9.38499235136419
 20
65.52469179002395
 30
0.0
  0
SPLINE
  5
103
330
1F
100
AcDbEntity
  8
2D DXF
370
    -3
100
AcDbSpline
210
0.0
220
0.0
230
1.0
 70
    12
 71
     2
 72
    10
 73
     7
 74
     0
 42
0.0000000001
 43
0.0000000001
 40
-0.1148160447229585
 40
-0.1148160447229585
 40
-0.1148160447229585
 40
0.0
 40
0.0
 40
0.3691278110272287
 40
0.3691278110272287
 40
0.6093941512987853
 40
0.6093941512987853
 40
0.6093941512987853
 10
-9.384696572143755
 20
65.52420218119954
 30
0.0
 41
0.8744678942369386
 10
-9.418438784116443
 20
65.59042500089605
 30
0.0
 41
0.9088964854293897
 10
-9.417523952453053
 20
65.66535641400267
 30
0.0
 41
1.0
 10
-9.413743491167553
 20
65.97500387993456
 30
0.0
 41
0.7071067811865476
 10
-9.10141360729375
 20
65.97878434122006
 30
0.0
 41
1.0
 10
-8.923800231493498
 20
65.98093418510521
 30
0.0
 41
0.8093549722551969
 10
-8.834839052457703
 20
65.83070004007087
 30
0.0
 41
0.8668927242350803
  0
SPLINE
  5
104
330
1F
100
AcDbEntity
  8
2D DXF
370
    -3
100
AcDbSpline
210
0.0
220
0.0
230
1.0
 70
    12
 71
     2
 72
     6
 73
     3
 74
     0
 42
0.0000000001
 43
0.0000000001
 40
1.782832737999294
 40
1.782832737999294
 40
1.782832737999294
 40
1.825297125700358
 40
1.825297125700358
 40
1.825297125700358
 10
-9.334793482120984
 20
65.44819846830339
 30
0.0
 41
0.8597839346895491
 10
-9.34721834305694
 20
65.46579010234724
 30
0.0
 41
0.8649686758373502
 10
-9.357000986265291
 20
65.48498962067958
 30
0.0
 41
0.8744678942369488
  0
SPLINE
  5
105
330
1F
100
AcDbEntity
  8
2D DXF
370
    -3
100
AcDbSpline
210
0.0
220
0.0
230
1.0
 70
    28
 71
     3
 72
    11
 73
     7
 74
     0
 42
0.0000000001
 43
0.0000000001
 40
8.894198103931968
 40
8.894198103931968
 40
8.894198103931968
 40
8.894198103931968
 40
10.78646256821504
 40
10.78646256821504
 40
10.78646256821504
 40
11.74197960070331
 40
11.74197960070331
 40
11.74197960070331
 40
11.74197960070331
 10
22.57546054286035
 20
7.533276465127168
 30
0.0
 41
1.0
 10
22.57573274283614
 20
7.533276465127161
 30
0.0
 41
0.9999999999999993
 10
22.69574331964759
 20
7.53327646512717
 30
0.0
 41
1.0
 10
22.92650754354309
 20
7.533276465127166
 30
0.0
 41
1.0
 10
23.04292621476468
 20
7.533276465127166
 30
0.0
 41
1.0
 10
23.18753302165355
 20
7.533276465127166
 30
0.0
 41
1.0
 10
23.3572278453912
 20
7.533276465127166
 30
0.0
 41
1.0
  0
SPLINE
  5
106
330
1F
100
AcDbEntity
  8
2D DXF
370
    -3
100
AcDbSpline
210
0.0
220
0.0
230
1.0
 70
    12
 71
     2
 72
     8
 73
     5
 74
     0
 42
0.0000000001
 43
0.0000000001
 40
7.904596418051183
 40
7.904596418051183
 40
7.904596418051183
 40
8.399397518722592
 40
8.399397518722592
 40
8.894198103931968
 40
8.894198103931968
 40
8.894198103931968
 10
22.57546100693912
 20
8.163276465127165
 30
0.0
 41
1.0
 10
22.26046100693916
 20
8.16327646512717
 30
0.0
 41
0.7071067811865476
 10
22.26046100693912
 20
7.848276465127167
 30
0.0
 41
1.0
 10
22.26046100693915
 20
7.533276929205607
 30
0.0
 41
0.7071070863098269
 10
22.57546054286032
 20
7.533276465127172
 30
0.0
 41
0.9999993897540771
  0
SPLINE
  5
107
330
1F
100
AcDbEntity
  8
2D DXF
370
    -3
100
AcDbSpline
210
0.0
220
0.0
230
1.0
 70
    28
 71
     3
 72
    11
 73
     7
 74
     0
 42
0.0000000001
 43
0.0000000001
 40
4.839909784072178
 40
4.839909784072178
 40
4.839909784072178
 40
4.839909784072178
 40
6.008571652835871
 40
6.008571652835871
 40
6.008571652835871
 40
7.904596418051183
 40
7.904596418051183
 40
7.904596418051183
 40
7.904596418051183
 10
23.47499962390355
 20
8.163276465127161
 30
0.0
 41
1.0
 10
23.25372859622069
 20
8.163276465127161
 30
0.0
 41
1.0
 10
23.0690029777993
 20
8.163276465127163
 30
0.0
 41
1.0
 10
22.9265075435431
 20
8.163276465127165
 30
0.0
 41
1.0
 10
22.69511011858402
 20
8.163276465127169
 30
0.0
 41
0.9999999999999996
 10
22.57507497527932
 20
8.163276465127174
 30
0.0
 41
0.9999999999999989
 10
22.57546100693918
 20
8.163276465127167
 30
0.0
 41
0.9999999999999998
  0
SPLINE
  5
108
330
1F
100
AcDbEntity
  8
2D DXF
370
    -3
100
AcDbSpline
210
0.0
220
0.0
230
1.0
 70
    28
 71
     3
 72
     8
 73
     4
 74
     0
 42
0.0000000001
 43
0.0000000001
 40
8.894198103927184
 40
8.894198103927184
 40
8.894198103927184
 40
8.894198103927184
 40
10.30633328556356
 40
10.30633328556356
 40
10.30633328556356
 40
10.30633328556356
 10
40.45146146480675
 20
8.163276465127165
 30
0.0
 41
1.0
 10
40.45125985431147
 20
8.163276465127167
 30
0.0
 41
0.9999999999999999
 10
40.38447953814119
 20
8.163276465127165
 30
0.0
 41
1.0
 10
40.2548394240676
 20
8.163276465127165
 30
0.0
 41
1.0
  0
SPLINE
  5
109
330
1F
100
AcDbEntity
  8
2D DXF
370
    -3
100
AcDbSpline
210
0.0
220
0.0
230
1.0
 70
    12
 71
     2
 72
     8
 73
     5
 74
     0
 42
0.0000000001
 43
0.0000000001
 40
7.904596418046399
 40
7.904596418046399
 40
7.904596418046399
 40
8.399397515268385
 40
8.399397515268385
 40
8.894198103927184
 40
8.894198103927184
 40
8.894198103927184
 10
40.45146100693916
 20
7.53327646512717
 30
0.0
 41
1.0
 10
40.76646100693915
 20
7.533276465127165
 30
0.0
 41
0.7071067811865476
 10
40.76646100693915
 20
7.848276465127167
 30
0.0
 41
1.0
 10
40.76646100693915
 20
8.16327600725987
 30
0.0
 41
0.7071070822261153
 10
40.45146146480673
 20
8.16327646512718
 30
0.0
 41
0.9999993979214834
  0
SPLINE
  5
10A
330
1F
100
AcDbEntity
  8
2D DXF
370
    -3
100
AcDbSpline
210
0.0
220
0.0
230
1.0
 70
    28
 71
     3
 72
     8
 73
     4
 74
     0
 42
0.0000000001
 43
0.0000000001
 40
7.056590117588028
 40
7.056590117588028
 40
7.056590117588028
 40
7.056590117588028
 40
7.904596418046399
 40
7.904596418046399
 40
7.904596418046399
 40
7.904596418046399
 10
40.38052332681042
 20
7.53327646512717
 30
0.0
 41
1.0
 10
40.42771693242139
 20
7.53327646512717
 30
0.0
 41
1.0
 10
40.45163249643457
 20
7.53327646512717
 30
0.0
 41
1.0
 10
40.45146100693915
 20
7.533276465127168
 30
0.0
 41
1.0
  0
LINE
  5
10B
330
1F
100
AcDbEntity
  8
2D DXF
370
    -3
100
AcDbLine
 10
23.99684461188178
 20
7.533276465127155
 30
0.0
 11
39.73872099795932
 21
7.533276465127098
 31
0.0
  0
LINE
  5
10C
330
1F
100
AcDbEntity
  8
2D DXF
370
    -3
100
AcDbLine
 10
39.61306308363544
 20
8.163276465127108
 30
0.0
 11
24.11642762190002
 21
8.163276465127165
 31
0.0
  0
LINE
  5
10D
330
1F
100
AcDbEntity
  8
2D DXF
370
    -3
100
AcDbLine
 10
36.65682470256468
 20
22.98470804861021
 30
0.0
 11
41.17331498103016
 21
0.340779166428387
 31
0.0
  0
LINE
  5
10E
330
1F
100
AcDbEntity
  8
2D DXF
370
    -3
100
AcDbLine
 10
41.79225733010918
 20
0.4584244198039862
 30
0.0
 11
37.27523025072924
 21
23.10507494992708
 31
0.0
  0
LINE
  5
10F
330
1F
100
AcDbEntity
  8
2D DXF
370
    -3
100
AcDbLine
 10
41.17331311805702
 20
0.3407787948452743
 30
0.0
 11
41.79225733010998
 21
0.4584244198041283
 31
0.0
  0
SPLINE
  5
110
330
1F
100
AcDbEntity
  8
2D DXF
370
    -3
100
AcDbSpline
210
0.0
220
0.0
230
1.0
 70
    12
 71
     3
 72
     8
 73
     4
 74
     0
 42
0.0000000001
 43
0.0000000001
 40
55.02666686578567
 40
55.02666686578567
 40
55.02666686578567
 40
55.02666686578567
 40
55.84219450825106
 40
55.84219450825106
 40
55.84219450825106
 40
55.84219450825106
 10
35.79454556556306
 20
24.4951825343336
 30
0.0
 41
0.8537101292836784
 10
35.60335116111737
 20
24.47508720892929
 30
0.0
 41
0.8537101292836784
 10
35.41215675836212
 20
24.45499186744055
 30
0.0
 41
0.8537101292836784
 10
35.22096235560693
 20
24.43489652595181
 30
0.0
 41
0.8537101292836784
  0
SPLINE
  5
111
330
1F
100
AcDbEntity
  8
2D DXF
370
    -3
100
AcDbSpline
210
0.0
220
0.0
230
1.0
 70
     8
 71
     2
 72
    11
 73
     8
 74
     0
 42
0.0000000001
 43
0.0000000001
 40
49.02666686578567
 40
49.02666686578567
 40
49.02666686578567
 40
50.02668929264278
 40
51.02671171949989
 40
52.02673414635699
 40
53.02675657321409
 40
54.0267790000712
 40
55.02666686578567
 40
55.02666686578567
 40
55.02666686578567
 10
37.27523025072924
 20
23.10507494992708
 30
0.0
 10
37.23902483708468
 20
23.28751121025908
 30
0.0
 10
37.10868599721232
 20
23.63603446875446
 30
0.0
 10
36.917380086619
 20
23.95554368155568
 30
0.0
 10
36.6621714712511
 20
24.22745589635295
 30
0.0
 10
36.344669053095
 20
24.42475268837192
 30
0.0
 10
35.98102073403487
 20
24.51449925208672
 30
0.0
 10
35.79454556556311
 20
24.4951825343336
 30
0.0
  0
SPLINE
  5
112
330
1F
100
AcDbEntity
  8
2D DXF
370
    -3
100
AcDbSpline
210
0.0
220
0.0
230
1.0
 70
     8
 71
     2
 72
    11
 73
     8
 74
     0
 42
0.0000000001
 43
0.0000000001
 40
10.67814378418416
 40
10.67814378418416
 40
10.67814378418416
 40
11.67814378418416
 40
12.67814378418416
 40
13.67814378418416
 40
14.67814378418416
 40
15.67814378418416
 40
16.67814378418416
 40
16.67814378418416
 40
16.67814378418416
 10
35.86054904030209
 20
23.86864961173219
 30
0.0
 10
35.96959979327573
 20
23.8791280597851
 30
0.0
 10
36.17274013339693
 20
23.80037434615549
 30
0.0
 10
36.3381995042343
 20
23.66106608989358
 30
0.0
 10
36.46772746591051
 20
23.48868350341426
 30
0.0
 10
36.5656677916453
 20
23.29687094368283
 30
0.0
 10
36.63490774411093
 20
23.09304283670576
 30
0.0
 10
36.65682470256468
 20
22.98470804861021
 30
0.0
  0
SPLINE
  5
113
330
1F
100
AcDbEntity
  8
2D DXF
370
    -3
100
AcDbSpline
210
0.0
220
0.0
230
1.0
 70
    12
 71
     3
 72
     8
 73
     4
 74
     0
 42
0.0000000001
 43
0.0000000001
 40
10.15069138359446
 40
10.15069138359446
 40
10.15069138359446
 40
10.15069138359446
 40
10.67814378418416
 40
10.67814378418416
 40
10.67814378418416
 40
10.67814378418416
 10
35.47303363637867
 20
23.82792006902482
 30
0.0
 41
0.8537101292836782
 10
35.60220543768579
 20
23.84149658326091
 30
0.0
 41
0.8537101292836782
 10
35.7066106695186
 20
23.85246997736533
 30
0.0
 41
0.8537101292836782
 10
35.86054904030211
 20
23.86864961173218
 30
0.0
 41
0.8537101292836783
  0
LINE
  5
114
330
1F
100
AcDbEntity
  8
2D DXF
370
    -3
100
AcDbLine
 10
41.83461723972687
 20
0.2439144007116276
 30
0.0
 11
41.79225733010998
 21
0.4584244198041283
 31
0.0
  0
SPLINE
  5
115
330
1F
100
AcDbEntity
  8
2D DXF
370
    -3
100
AcDbSpline
210
0.0
220
0.0
230
1.0
 70
     8
 71
     2
 72
    11
 73
     8
 74
     0
 42
0.0000000001
 43
0.0000000001
 40
0.2100281833390025
 40
0.2100281833390025
 40
0.2100281833390025
 40
1.210028183339003
 40
2.210028183339003
 40
3.210028183339003
 40
4.210028183339002
 40
5.210028183339002
 40
6.210028183339002
 40
6.210028183339002
 40
6.210028183339002
 10
41.21550935980224
 20
0.1292229366017033
 30
0.0
 10
41.23520963218465
 20
0.0639490834873122
 30
0.0
 10
41.36314487649827
 20
0.0425350732309049
 30
0.0
 10
41.48444840062587
 20
0.0551798306928326
 30
0.0
 10
41.6050256078816
 20
0.0787658602273318
 30
0.0
 10
41.72196172846924
 20
0.1130719421694657
 30
0.0
 10
41.83449547055085
 20
0.1765591216500972
 30
0.0
 10
41.83461723972687
 20
0.2439144007116276
 30
0.0
  0
LINE
  5
116
330
1F
100
AcDbEntity
  8
2D DXF
370
    -3
100
AcDbLine
 10
41.17442704205638
 20
0.3351940048742073
 30
0.0
 11
41.21550935980224
 21
0.1292229366017033
 31
0.0
  0
LINE
  5
117
330
1F
100
AcDbEntity
  8
2D DXF
370
    -3
100
AcDbLine
 10
22.63673944777457
 20
0.289527136332719
 30
0.0
 11
26.78535308288463
 21
22.36155918050093
 31
0.0
  0
LINE
  5
118
330
1F
100
AcDbEntity
  8
2D DXF
370
    -3
100
AcDbLine
 10
26.16629956801808
 20
22.47849037924508
 30
0.0
 11
22.01768692451378
 21
0.406464298667526
 31
0.0
  0
LINE
  5
119
330
1F
100
AcDbEntity
  8
2D DXF
370
    -3
100
AcDbLine
 10
22.01768692451412
 20
0.4064642986674407
 30
0.0
 11
22.63673944771131
 21
0.2895271363445993
 31
0.0
  0
SPLINE
  5
11A
330
1F
100
AcDbEntity
  8
2D DXF
370
    -3
100
AcDbSpline
210
0.0
220
0.0
230
1.0
 70
     8
 71
     2
 72
    11
 73
     8
 74
     0
 42
0.0000000001
 43
0.0000000001
 40
44.92596112850195
 40
44.92596112850195
 40
44.92596112850195
 40
45.9252792909757
 40
46.92541565848096
 40
47.92555202598621
 40
48.92568839349146
 40
49.9258247609967
 40
50.92596112850195
 40
50.92596112850195
 40
50.92596112850195
 10
27.89013030348394
 20
23.11763760373502
 30
0.0
 10
27.92514104703287
 20
23.10593130711454
 30
0.0
 10
27.99695279608341
 20
23.08866580643875
 30
0.0
 10
28.06993482166126
 20
23.07717548261862
 30
0.0
 10
28.14355528591585
 20
23.07104415645709
 30
0.0
 10
28.21741630985571
 20
23.06985747681494
 30
0.0
 10
28.29120671312131
 20
23.07320424705787
 30
0.0
 10
28.32794836991945
 20
23.07694976659314
 30
0.0
  0
SPLINE
  5
11B
330
1F
100
AcDbEntity
  8
2D DXF
370
    -3
100
AcDbSpline
210
0.0
220
0.0
230
1.0
 70
    12
 71
     3
 72
     8
 73
     4
 74
     0
 42
0.0000000001
 43
0.0000000001
 40
43.99312017529963
 40
43.99312017529963
 40
43.99312017529963
 40
43.99312017529963
 40
44.92596112850195
 40
44.92596112850195
 40
44.92596112850195
 40
44.92596112850195
 10
27.40154944555003
 20
23.28106667070183
 30
0.0
 41
0.8740614809312288
 10
27.56448125744267
 20
23.22656634282961
 30
0.0
 41
0.8740614809312284
 10
27.72730578411013
 20
23.17210196325888
 30
0.0
 41
0.8740614809312286
 10
27.89013030348394
 20
23.11763760373501
 30
0.0
 41
0.8740614809312288
  0
SPLINE
  5
11C
330
1F
100
AcDbEntity
  8
2D DXF
370
    -3
100
AcDbSpline
210
0.0
220
0.0
230
1.0
 70
     8
 71
     2
 72
    11
 73
     8
 74
     0
 42
0.0000000001
 43
0.0000000001
 40
37.99312017529963
 40
37.99312017529963
 40
37.99312017529963
 40
38.99312017529963
 40
39.99312017529963
 40
40.99312017529963
 40
41.99312017529963
 40
42.99312017529963
 40
43.99312017529963
 40
43.99312017529963
 40
43.99312017529963
 10
26.78535308288463
 20
22.36155918050092
 30
0.0
 10
26.80360052414881
 20
22.4588783381431
 30
0.0
 10
26.85674593025288
 20
22.64965824873284
 30
0.0
 10
26.92785242792576
 20
22.83453146977359
 30
0.0
 10
27.02055080477885
 20
23.00983977501883
 30
0.0
 10
27.13866800278504
 20
23.16850589362825
 30
0.0
 10
27.29905331859106
 20
23.29535955627466
 30
0.0
 10
27.40154944555002
 20
23.28106667070184
 30
0.0
  0
SPLINE
  5
11D
330
1F
100
AcDbEntity
  8
2D DXF
370
    -3
100
AcDbSpline
210
0.0
220
0.0
230
1.0
 70
     8
 71
     2
 72
    11
 73
     8
 74
     0
 42
0.0000000001
 43
0.0000000001
 40
0.9480123846230162
 40
0.9480123846230162
 40
0.9480123846230162
 40
1.948012384623016
 40
2.948012384623016
 40
3.948012384623016
 40
4.948012384623016
 40
5.948012384623016
 40
6.948012384623016
 40
6.948012384623016
 40
6.948012384623016
 10
27.60172069270732
 20
23.87842030628988
 30
0.0
 10
27.41913536958532
 20
23.93936156576725
 30
0.0
 10
27.04101179800125
 20
23.87295578261188
 30
0.0
 10
26.72684223873478
 20
23.65719466983817
 30
0.0
 10
26.49042460015119
 20
23.36132337070788
 30
0.0
 10
26.31898059752848
 20
23.0246050422957
 30
0.0
 10
26.20145440181989
 20
22.6658580579932
 30
0.0
 10
26.16629956801808
 20
22.4784903792451
 30
0.0
  0
LINE
  5
11E
330
1F
100
AcDbEntity
  8
2D DXF
370
    -3
100
AcDbLine
 10
28.0900942661799
 20
23.71506072529881
 30
0.0
 11
27.60172069270732
 21
23.87842030628988
 31
0.0
  0
SPLINE
  5
11F
330
1F
100
AcDbEntity
  8
2D DXF
370
    -3
100
AcDbSpline
210
0.0
220
0.0
230
1.0
 70
     8
 71
     3
 72
    11
 73
     7
 74
     0
 42
0.0000000001
 43
0.0000000001
 40
0.0
 40
0.0
 40
0.0
 40
0.0
 40
0.0484024614707266
 40
0.0484024614707266
 40
0.0484024614707266
 40
0.4331018655948884
 40
0.4331018655948884
 40
0.4331018655948884
 40
0.4331018655948884
 10
28.26724064674005
 20
23.70403091452698
 30
0.0
 10
28.25799783014423
 20
23.70305631077393
 30
0.0
 10
28.24900383393157
 20
23.70228193056826
 30
0.0
 10
28.24027206411546
 20
23.70169699001812
 30
0.0
 10
28.17012927682981
 20
23.69699813040006
 30
0.0
 10
28.11989934686721
 20
23.70507271741931
 30
0.0
 10
28.0900942661799
 20
23.71506072529881
 30
0.0
  0
LINE
  5
120
330
1F
100
AcDbEntity
  8
2D DXF
370
    -3
100
AcDbLine
 10
28.44605116989464
 20
23.72282466116101
 30
0.0
 11
28.26724064674005
 21
23.70403091452698
 31
0.0
  0
LINE
  5
121
330
1F
100
AcDbEntity
  8
2D DXF
370
    -3
100
AcDbLine
 10
22.59604469435544
 20
0.0752765070742747
 30
0.0
 11
22.63684498421242
 21
0.2900886263352866
 31
0.0
  0
SPLINE
  5
122
330
1F
100
AcDbEntity
  8
2D DXF
370
    -3
100
AcDbSpline
210
0.0
220
0.0
230
1.0
 70
     8
 71
     2
 72
    11
 73
     8
 74
     0
 42
0.0000000001
 43
0.0000000001
 40
0.2100281833390025
 40
0.2100281833390025
 40
0.2100281833390025
 40
1.210028183339003
 40
2.210028183339003
 40
3.210028183339003
 40
4.210028183339002
 40
5.210028183339002
 40
6.210028183339002
 40
6.210028183339002
 40
6.210028183339002
 10
21.97888982761771
 20
0.2000505804481882
 30
0.0
 10
21.9727924734492
 20
0.1321418261930596
 30
0.0
 10
22.08347876615227
 20
0.0645065456029634
 30
0.0
 10
22.2007302798753
 20
0.0309429136973698
 30
0.0
 10
22.32139339868149
 20
0.0078004104024352
 30
0.0
 10
22.44268156632438
 20
-0.004037830435383
 30
0.0
 10
22.57078177009424
 20
0.0128382727706047
 30
0.0
 10
22.59604469435544
 20
0.0752765070742747
 30
0.0
  0
LINE
  5
123
330
1F
100
AcDbEntity
  8
2D DXF
370
    -3
100
AcDbLine
 10
22.01768692451412
 20
0.4064642986674265
 30
0.0
 11
21.97888982761771
 21
0.2000505804481882
 31
0.0
  0
SPLINE
  5
124
330
1F
100
AcDbEntity
  8
2D DXF
370
    -3
100
AcDbSpline
210
0.0
220
0.0
230
1.0
 70
     8
 71
     2
 72
     7
 73
     4
 74
     0
 42
0.0000000001
 43
0.0000000001
 40
13.40106775401131
 40
13.40106775401131
 40
13.40106775401131
 40
14.40106775401131
 40
15.40106775401131
 40
15.40106775401131
 40
15.40106775401131
 10
28.4810969055053
 20
23.38946767009535
 30
0.0
 10
28.49192282200727
 20
23.29432640854646
 30
0.0
 10
28.42747192064007
 20
23.1029246419084
 30
0.0
 10
28.32793416778054
 20
23.0767188781857
 30
0.0
  0
LINE
  5
125
330
1F
100
AcDbEntity
  8
2D DXF
370
    -3
100
AcDbLine
 10
28.42734070868573
 20
23.90084277656839
 30
0.0
 11
28.4810969055053
 21
23.38946767009535
 31
0.0
  0
SPLINE
  5
126
330
1F
100
AcDbEntity
  8
2D DXF
370
    -3
100
AcDbSpline
210
0.0
220
0.0
230
1.0
 70
     8
 71
     2
 72
     7
 73
     4
 74
     0
 42
0.0000000001
 43
0.0000000001
 40
10.88546531432997
 40
10.88546531432997
 40
10.88546531432997
 40
11.88546531432997
 40
12.88546531432997
 40
12.88546531432997
 40
12.88546531432997
 10
28.4985400456527
 20
23.98876811434159
 30
0.0
 10
28.46570343997223
 20
23.98496059366091
 30
0.0
 10
28.42423737015861
 20
23.93375340050379
 30
0.0
 10
28.42734070868573
 20
23.90084277656839
 30
0.0
  0
LINE
  5
127
330
1F
100
AcDbEntity
  8
2D DXF
370
    -3
100
AcDbLine
 10
28.78149962633768
 20
24.0185083646806
 30
0.0
 11
28.4985400456527
 21
23.98876811434159
 31
0.0
  0
LINE
  5
128
330
1F
100
AcDbEntity
  8
2D DXF
370
    -3
100
AcDbLine
 10
29.34448900554662
 20
24.07768093284505
 30
0.0
 11
28.78149962633768
 21
24.0185083646806
 31
0.0
  0
ARC
  5
129
330
1F
100
AcDbEntity
  8
2D DXF
370
    -3
100
AcDbCircle
 10
29.35307915411505
 20
24.00248081936392
 30
0.0
 40
0.0756891519307933
100
AcDbArc
 50
77.5019814014356
 51
96.51668048199421
  0
SPLINE
  5
12A
330
1F
100
AcDbEntity
  8
2D DXF
370
    -3
100
AcDbSpline
210
0.0
220
0.0
230
1.0
 70
     8
 71
     2
 72
     7
 73
     4
 74
     0
 42
0.0000000001
 43
0.0000000001
 40
7.657492393997497
 40
7.657492393997497
 40
7.657492393997497
 40
8.657492393997497
 40
9.657492393997497
 40
9.657492393997497
 40
9.657492393997497
 10
29.43224022060122
 20
23.98825021347274
 30
0.0
 10
29.43579749037593
 20
24.01913881023641
 30
0.0
 10
29.39981469742639
 20
24.06964774794389
 30
0.0
 10
29.36945872949252
 20
24.07637640265856
 30
0.0
  0
SPLINE
  5
12B
330
1F
100
AcDbEntity
  8
2D DXF
370
    -3
100
AcDbSpline
210
0.0
220
0.0
230
1.0
 70
    28
 71
     2
 72
     6
 73
     3
 74
     0
 42
0.0000000001
 43
0.0000000001
 40
6.50481871282868
 40
6.50481871282868
 40
6.50481871282868
 40
7.657492393997497
 40
7.657492393997497
 40
7.657492393997497
 10
29.29170861830359
 20
22.85777239591132
 30
0.0
 41
0.856073142531669
 10
29.36197441945237
 20
23.42301130469202
 30
0.0
 41
0.8560731425316691
 10
29.43224022060116
 20
23.98825021347273
 30
0.0
 41
0.8560731425316692
  0
SPLINE
  5
12C
330
1F
100
AcDbEntity
  8
2D DXF
370
    -3
100
AcDbSpline
210
0.0
220
0.0
230
1.0
 70
     8
 71
     2
 72
     7
 73
     4
 74
     0
 42
0.0000000001
 43
0.0000000001
 40
4.50481871282868
 40
4.50481871282868
 40
4.50481871282868
 40
5.504850921676796
 40
6.50481871282868
 40
6.50481871282868
 40
6.50481871282868
 10
29.08403106814183
 20
22.61140588578965
 30
0.0
 10
29.17542954183017
 20
22.62570754242472
 30
0.0
 10
29.28228133931412
 20
22.77016054398417
 30
0.0
 10
29.29170861830357
 20
22.85777239591131
 30
0.0
  0
LINE
  5
12D
330
1F
100
AcDbEntity
  8
2D DXF
370
    -3
100
AcDbLine
 10
28.61511662772034
 20
22.5621384587943
 30
0.0
 11
29.08403106814183
 21
22.61140588578965
 31
0.0
  0
LINE
  5
12E
330
1F
100
AcDbEntity
  8
2D DXF
370
    -3
100
AcDbLine
 10
28.18372981037987
 20
22.5167967930457
 30
0.0
 11
28.61511662772034
 21
22.5621384587943
 31
0.0
  0
SPLINE
  5
12F
330
1F
100
AcDbEntity
  8
2D DXF
370
    -3
100
AcDbSpline
210
0.0
220
0.0
230
1.0
 70
     8
 71
     2
 72
     7
 73
     4
 74
     0
 42
0.0000000001
 43
0.0000000001
 40
1.232673681168816
 40
1.232673681168816
 40
1.232673681168816
 40
2.232666359644853
 40
3.232673681168816
 40
3.232673681168816
 40
3.232673681168816
 10
27.92824586145031
 20
22.7144580972147
 30
0.0
 10
27.95607540319656
 20
22.63017133845078
 30
0.0
 10
28.09178402825779
 20
22.51107275097293
 30
0.0
 10
28.18372981037987
 20
22.5167967930457
 30
0.0
  0
LINE
  5
130
330
1F
100
AcDbEntity
  8
2D DXF
370
    -3
100
AcDbLine
 10
27.77547067074443
 20
23.15599094296858
 30
0.0
 11
27.92824586145025
 21
22.71445809721471
 31
0.0
  0
LINE
  5
131
330
1F
100
AcDbEntity
  8
2D DXF
370
    -3
100
AcDbLine
 10
35.93803086396315
 20
23.55654156306981
 30
0.0
 11
35.9764236205973
 21
23.8653844198526
 31
0.0
  0
SPLINE
  5
132
330
1F
100
AcDbEntity
  8
2D DXF
370
    -3
100
AcDbSpline
210
0.0
220
0.0
230
1.0
 70
     8
 71
     2
 72
     7
 73
     4
 74
     0
 42
0.0000000001
 43
0.0000000001
 40
7.306249570421159
 40
7.306249570421159
 40
7.306249570421159
 40
8.306256891946019
 40
9.306249570421159
 40
9.306249570421159
 40
9.306249570421159
 10
35.72922595279414
 20
23.31008153224822
 30
0.0
 10
35.82035259494023
 20
23.32359917974388
 30
0.0
 10
35.92833366770014
 20
23.46831058510703
 30
0.0
 10
35.93803086396321
 20
23.55654156306981
 30
0.0
  0
LINE
  5
133
330
1F
100
AcDbEntity
  8
2D DXF
370
    -3
100
AcDbLine
 10
35.29669001607374
 20
23.26462125752446
 30
0.0
 11
35.72922595279414
 21
23.31008153224822
 31
0.0
  0
LINE
  5
134
330
1F
100
AcDbEntity
  8
2D DXF
370
    -3
100
AcDbLine
 10
34.8289281022428
 20
23.21544002113468
 30
0.0
 11
35.29669001607374
 21
23.26462125752446
 31
0.0
  0
SPLINE
  5
135
330
1F
100
AcDbEntity
  8
2D DXF
370
    -3
100
AcDbSpline
210
0.0
220
0.0
230
1.0
 70
     8
 71
     2
 72
     7
 73
     4
 74
     0
 42
0.0000000001
 43
0.0000000001
 40
4.037371271146342
 40
4.037371271146342
 40
4.037371271146342
 40
5.037339062304119
 40
6.037371271146342
 40
6.037371271146342
 40
6.037371271146342
 10
34.57456632292099
 20
23.41324423979732
 30
0.0
 10
34.60200312347229
 20
23.3295069568867
 30
0.0
 10
34.73655342342846
 20
23.21042633926343
 30
0.0
 10
34.8289281022428
 20
23.21544002113468
 30
0.0
  0
SPLINE
  5
136
330
1F
100
AcDbEntity
  8
2D DXF
370
    -3
100
AcDbSpline
210
0.0
220
0.0
230
1.0
 70
    28
 71
     2
 72
     6
 73
     3
 74
     0
 42
0.0000000001
 43
0.0000000001
 40
2.884697589977524
 40
2.884697589977524
 40
2.884697589977524
 40
4.037371271146342
 40
4.037371271146342
 40
4.037371271146342
 10
34.20174385999353
 20
24.49077159354851
 30
0.0
 41
0.8560731425110866
 10
34.38815509145726
 20
23.95200791667292
 30
0.0
 41
0.8560731425110863
 10
34.57456632292099
 20
23.41324423979733
 30
0.0
 41
0.8560731425110862
  0
SPLINE
  5
137
330
1F
100
AcDbEntity
  8
2D DXF
370
    -3
100
AcDbSpline
210
0.0
220
0.0
230
1.0
 70
     8
 71
     2
 72
     7
 73
     4
 74
     0
 42
0.0000000001
 43
0.0000000001
 40
0.8846975899775236
 40
0.8846975899775236
 40
0.8846975899775236
 40
1.884697589977524
 40
2.884697589977524
 40
2.884697589977524
 40
2.884697589977524
 10
34.26930605212021
 20
24.59552118795723
 30
0.0
 10
34.23174163325427
 20
24.59097921751951
 30
0.0
 10
34.19053203414148
 20
24.52798011975464
 30
0.0
 10
34.20174385999354
 20
24.49077159354851
 30
0.0
  0
SPLINE
  5
138
330
1F
100
AcDbEntity
  8
2D DXF
370
    -3
100
AcDbSpline
210
0.0
220
0.0
230
1.0
 70
    24
 71
     2
 72
     6
 73
     3
 74
     0
 42
0.0000000001
 43
0.0000000001
 40
0.0843024100224767
 40
0.0843024100224767
 40
0.0843024100224767
 40
0.8846975899775236
 40
0.8846975899775236
 40
0.8846975899775236
 10
34.83229543036362
 20
24.65469376901269
 30
0.0
 10
34.55080074124191
 20
24.62510747848496
 30
0.0
 10
34.26930605212021
 20
24.59552118795723
 30
0.0
  0
SPLINE
  5
139
330
1F
100
AcDbEntity
  8
2D DXF
370
    -3
100
AcDbSpline
210
0.0
220
0.0
230
1.0
 70
    28
 71
     2
 72
     6
 73
     3
 74
     0
 42
0.0000000001
 43
0.0000000001
 40
5.58027268840272
 40
5.58027268840272
 40
5.58027268840272
 40
5.764182542701008
 40
5.764182542701008
 40
5.764182542701008
 10
35.65960821401234
 20
24.66541712314199
 30
0.0
 41
1.0
 10
35.66243439462335
 20
24.57350563684788
 30
0.0
 41
1.0
 10
35.66526057523436
 20
24.48159415055377
 30
0.0
 41
1.0
  0
SPLINE
  5
13A
330
1F
100
AcDbEntity
  8
2D DXF
370
    -3
100
AcDbSpline
210
0.0
220
0.0
230
1.0
 70
     8
 71
     2
 72
     7
 73
     4
 74
     0
 42
0.0000000001
 43
0.0000000001
 40
3.58027268840272
 40
3.58027268840272
 40
3.58027268840272
 40
4.58027268840272
 40
5.58027268840272
 40
5.58027268840272
 40
5.58027268840272
 10
35.70785267061893
 20
24.74671854318812
 30
0.0
 10
35.68046502700315
 20
24.74124557553516
 30
0.0
 10
35.65750090645514
 20
24.69164343346557
 30
0.0
 10
35.65960821401234
 20
24.66541712314199
 30
0.0
  0
SPLINE
  5
13B
330
1F
100
AcDbEntity
  8
2D DXF
370
    -3
100
AcDbSpline
210
0.0
220
0.0
230
1.0
 70
    24
 71
     2
 72
     6
 73
     3
 74
     0
 42
0.0000000001
 43
0.0000000001
 40
3.177813839152324
 40
3.177813839152324
 40
3.177813839152324
 40
3.58027268840272
 40
3.58027268840272
 40
3.58027268840272
 10
35.9908122513034
 20
24.77645879352931
 30
0.0
 10
35.84933246096116
 20
24.76158866835872
 30
0.0
 10
35.70785267061893
 20
24.74671854318812
 30
0.0
  0
ARC
  5
13C
330
1F
100
AcDbEntity
  8
2D DXF
370
    -3
100
AcDbCircle
 10
35.99940943955676
 20
24.70138133809713
 30
0.0
 40
0.0755680882385853
100
AcDbArc
 50
77.47125213979278
 51
96.53253822394014
  0
SPLINE
  5
13D
330
1F
100
AcDbEntity
  8
2D DXF
370
    -3
100
AcDbSpline
210
0.0
220
0.0
230
1.0
 70
     8
 71
     2
 72
     7
 73
     4
 74
     0
 42
0.0000000001
 43
0.0000000001
 40
1.152673681168807
 40
1.152673681168807
 40
1.152673681168807
 40
2.152673681168807
 40
3.152673681168807
 40
3.152673681168807
 40
3.152673681168807
 10
36.0785634729462
 20
24.68702807450627
 30
0.0
 10
36.08212203415337
 20
24.71791037669169
 30
0.0
 10
36.04614405143349
 20
24.7684073852798
 30
0.0
 10
36.01580238247902
 20
24.77514994512195
 30
0.0
  0
LINE
  5
13E
330
1F
100
AcDbEntity
  8
2D DXF
370
    -3
100
AcDbLine
 10
36.05415243819931
 20
24.49065842073101
 30
0.0
 11
36.0785634729462
 21
24.68702807450627
 31
0.0
  0
SPLINE
  5
13F
330
1F
100
AcDbEntity
  8
2D DXF
370
    -3
100
AcDbSpline
210
0.0
220
0.0
230
1.0
 70
     8
 71
     2
 72
     7
 73
     4
 74
     0
 42
0.0000000001
 43
0.0000000001
 40
-77.0
 40
-77.0
 40
-77.0
 40
-76.0
 40
-75.91881111300634
 40
-75.91881111300634
 40
-75.91881111300634
 10
27.91562397317489
 20
23.95202102286799
 30
0.0
 10
27.69945811086563
 20
23.9321614503865
 30
0.0
 10
27.4654414550846
 20
23.9142466241895
 30
0.0
 10
27.44786684868018
 20
23.91292738033307
 30
0.0
  0
LINE
  5
140
330
1F
100
AcDbEntity
  8
2D DXF
370
    -3
100
AcDbLine
 10
27.93565941675888
 20
23.91867644519143
 30
0.0
 11
27.91562397317495
 21
23.95202102286798
 31
0.0
  0
LINE
  5
141
330
1F
100
AcDbEntity
  8
2D DXF
370
    -3
100
AcDbLine
 10
28.0307716401303
 20
23.7603831233137
 30
0.0
 11
27.96899995751772
 21
23.86318846727604
 31
0.0
  0
ARC
  5
142
330
1F
100
AcDbEntity
  8
2D DXF
370
    -3
100
AcDbCircle
 10
-28.12236123793775
 20
23.81541570574887
 30
0.0
 40
0.1068514836397989
210
0.0
220
0.0
230
-1.0
100
AcDbArc
 50
294.6443848349465
 51
328.9999999999692
  0
SPLINE
  5
143
330
1F
100
AcDbEntity
  8
2D DXF
370
    -3
100
AcDbSpline
210
0.0
220
0.0
230
1.0
 70
     8
 71
     2
 72
     6
 73
     3
 74
     0
 42
0.0000000001
 43
0.0000000001
 40
2.32223942419359
 40
2.32223942419359
 40
2.32223942419359
 40
2.883370325416598
 40
2.883370325416598
 40
2.883370325416598
 10
27.62298280539773
 20
23.89674334017327
 30
0.0
 10
27.60210797422928
 20
23.89422810437102
 30
0.0
 10
27.58644577398513
 20
23.8833503378558
 30
0.0
  0
SPLINE
  5
144
330
1F
100
AcDbEntity
  8
2D DXF
370
    -3
100
AcDbSpline
210
0.0
220
0.0
230
1.0
 70
    24
 71
     2
 72
     6
 73
     3
 74
     0
 42
0.0000000001
 43
0.0000000001
 40
1.919780574943195
 40
1.919780574943195
 40
1.919780574943195
 40
2.32223942419359
 40
2.32223942419359
 40
2.32223942419359
 10
27.9059423860823
 20
23.92648359051222
 30
0.0
 10
27.76446259574001
 20
23.91161346534274
 30
0.0
 10
27.62298280539773
 20
23.89674334017327
 30
0.0
  0
SPLINE
  5
145
330
1F
100
AcDbEntity
  8
2D DXF
370
    -3
100
AcDbSpline
210
0.0
220
0.0
230
1.0
 70
     8
 71
     2
 72
     7
 73
     4
 74
     0
 42
0.0000000001
 43
0.0000000001
 40
-0.0802194250568052
 40
-0.0802194250568052
 40
-0.0802194250568052
 40
0.9197805749431949
 40
1.919780574943195
 40
1.919780574943195
 40
1.919780574943195
 10
27.96992998215796
 20
23.85770057208859
 30
0.0
 10
27.9661616813388
 20
23.88409729184171
 30
0.0
 10
27.93345727939629
 20
23.92688961743853
 30
0.0
 10
27.9059423860823
 20
23.92648359051222
 30
0.0
  0
SPLINE
  5
146
330
1F
100
AcDbEntity
  8
2D DXF
370
    -3
100
AcDbSpline
210
0.0
220
0.0
230
1.0
 70
    28
 71
     2
 72
     6
 73
     3
 74
     0
 42
0.0000000001
 43
0.0000000001
 40
-0.1905776913670985
 40
-0.1905776913670985
 40
-0.1905776913670985
 40
-0.0802194250568052
 40
-0.0802194250568052
 40
-0.0802194250568052
 10
27.98960999584654
 20
23.74867242992306
 30
0.0
 41
1.0
 10
27.97976998900225
 20
23.80318650100582
 30
0.0
 41
1.0
 10
27.96992998215796
 20
23.85770057208859
 30
0.0
 41
1.0
  0
SPLINE
  5
147
330
1F
100
AcDbEntity
  8
2D DXF
370
    -3
100
AcDbSpline
210
0.0
220
0.0
230
1.0
 70
     8
 71
     2
 72
    53
 73
    50
 74
     0
 42
0.0000000001
 43
0.0000000001
 40
-48.0
 40
-48.0
 40
-48.0
 40
-47.0
 40
-46.0
 40
-45.0
 40
-44.0
 40
-43.0
 40
-42.0
 40
-41.0
 40
-40.0
 40
-39.0
 40
-38.0
 40
-37.0
 40
-36.0
 40
-35.0
 40
-34.0
 40
-33.0
 40
-32.0
 40
-31.0
 40
-30.0
 40
-29.0
 40
-28.0
 40
-27.0
 40
-26.0
 40
-25.0
 40
-24.0
 40
-23.0
 40
-22.0
 40
-21.0
 40
-20.0
 40
-19.0
 40
-18.0
 40
-17.0
 40
-16.0
 40
-15.0
 40
-14.0
 40
-13.0
 40
-12.0
 40
-11.0
 40
-10.0
 40
-9.0
 40
-8.0
 40
-7.0
 40
-6.0
 40
-5.0
 40
-4.0
 40
-3.0
 40
-2.0
 40
-1.0
 40
0.0
 40
0.0
 40
0.0
 10
22.36011520026182
 20
31.92983627640575
 30
0.0
 10
22.60826561483293
 20
31.84860468599103
 30
0.0
 10
22.99795479637555
 20
31.51479739770668
 30
0.0
 10
23.19175573410212
 20
31.03060228850189
 30
0.0
 10
23.31786073063938
 20
30.53436628588421
 30
0.0
 10
23.39388481695153
 20
30.02658087001774
 30
0.0
 10
23.46192171572375
 20
29.51827295909451
 30
0.0
 10
23.51410064917161
 20
29.0079679410753
 30
0.0
 10
23.55393874965
 20
28.49659133923006
 30
0.0
 10
23.58476249669434
 20
27.98459915696301
 30
0.0
 10
23.61225285315879
 20
27.47242532495212
 30
0.0
 10
23.64436382798067
 20
26.96050292817997
 30
0.0
 10
23.6964862193106
 20
26.45005102224996
 30
0.0
 10
23.79259338875374
 20
25.9458789804667
 30
0.0
 10
23.9549778523841
 20
25.45673236725474
 30
0.0
 10
24.2609461159534
 20
25.03864067170481
 30
0.0
 10
24.7041344282618
 20
24.76816998151225
 30
0.0
 10
25.21049449563031
 20
24.66684939309755
 30
0.0
 10
25.72412650152683
 20
24.66520637734706
 30
0.0
 10
26.23548993716031
 20
24.7065734477934
 30
0.0
 10
26.74523180247036
 20
24.76362135279711
 30
0.0
 10
27.2540457400255
 20
24.82837139799797
 30
0.0
 10
27.76239536552282
 20
24.89663083364976
 30
0.0
 10
28.27055342831181
 20
24.96629607496272
 30
0.0
 10
28.77870110820061
 20
25.03604149638199
 30
0.0
 10
29.28696384308034
 20
25.10494185117609
 30
0.0
 10
29.79544113824272
 20
25.17224373805939
 30
0.0
 10
30.3042043588282
 20
25.23735185365903
 30
0.0
 10
30.81330275759979
 20
25.29978785893409
 30
0.0
 10
31.32275690231063
 20
25.35925322128294
 30
0.0
 10
31.83255367000913
 20
25.41570283606164
 30
0.0
 10
32.34266106511905
 20
25.4692780585823
 30
0.0
 10
32.85314236827207
 20
25.51917770295639
 30
0.0
 10
33.36407785842789
 20
25.56421498613379
 30
0.0
 10
33.87554387791295
 20
25.60280482362269
 30
0.0
 10
34.38754317367432
 20
25.63357294439092
 30
0.0
 10
34.90000762593024
 20
25.65533413252592
 30
0.0
 10
35.41280842847482
 20
25.66689598224316
 30
0.0
 10
35.92574724782742
 20
25.66650695342974
 30
0.0
 10
36.43849003749597
 20
25.65191277775217
 30
0.0
 10
36.95049185587391
 20
25.6204613512144
 30
0.0
 10
37.4608839264273
 20
25.56888767993363
 30
0.0
 10
37.96827683804599
 20
25.49302649480236
 30
0.0
 10
38.47035163853582
 20
25.38723917755312
 30
0.0
 10
38.9630711279757
 20
25.24344513758946
 30
0.0
 10
39.43935869589734
 20
25.05238828443865
 30
0.0
 10
39.90362763869103
 20
24.83404081159763
 30
0.0
 10
40.35480182073763
 20
24.5899510971528
 30
0.0
 10
40.79980790593856
 20
24.33473860126646
 30
0.0
 10
41.02889407947487
 20
24.21934008471447
 30
0.0
  0
SPLINE
  5
148
330
1F
100
AcDbEntity
  8
2D DXF
370
    -3
100
AcDbSpline
210
0.0
220
0.0
230
1.0
 70
     8
 71
     3
 72
     8
 73
     4
 74
     0
 42
0.0000000001
 43
0.0000000001
 40
-49.0
 40
-49.0
 40
-49.0
 40
-49.0
 40
-48.0
 40
-48.0
 40
-48.0
 40
-48.0
 10
22.17451333142856
 20
31.86469202789646
 30
0.0
 10
22.15381101765797
 20
31.95173571050988
 30
0.0
 10
22.27792732753301
 20
31.95674032823298
 30
0.0
 10
22.36011520026182
 20
31.92983627640575
 30
0.0
  0
SPLINE
  5
149
330
1F
100
AcDbEntity
  8
2D DXF
370
    -3
100
AcDbSpline
210
0.0
220
0.0
230
1.0
 70
     8
 71
     2
 72
    32
 73
    29
 74
     0
 42
0.0000000001
 43
0.0000000001
 40
-75.27948194726402
 40
-75.27948194726402
 40
-75.27948194726402
 40
-75.0
 40
-74.0
 40
-73.0
 40
-72.0
 40
-71.0
 40
-70.0
 40
-69.0
 40
-68.0
 40
-67.0
 40
-66.0
 40
-65.0
 40
-64.0
 40
-63.0
 40
-62.0
 40
-61.0
 40
-60.0
 40
-59.0
 40
-58.0
 40
-57.0
 40
-56.0
 40
-55.0
 40
-54.0
 40
-53.0
 40
-52.0
 40
-51.0
 40
-50.0
 40
-49.0
 40
-49.0
 40
-49.0
 10
27.17097125938506
 20
23.89376387763181
 30
0.0
 10
27.11042494348021
 20
23.8899278978791
 30
0.0
 10
26.83314476191913
 20
23.87377818825307
 30
0.0
 10
26.39923547957517
 20
23.85872438414885
 30
0.0
 10
25.9650577208605
 20
23.85660679012566
 30
0.0
 10
25.53107244801186
 20
23.87116661344031
 30
0.0
 10
25.09851739345515
 20
23.91003708042035
 30
0.0
 10
24.67007949180993
 20
23.98186668569644
 30
0.0
 10
24.25056766287037
 20
24.09546721505212
 30
0.0
 10
23.84933004057405
 20
24.26340787124947
 30
0.0
 10
23.48315118529263
 20
24.49969199679783
 30
0.0
 10
23.18344582379041
 20
24.8171381477445
 30
0.0
 10
22.97937243332592
 20
25.20270238534985
 30
0.0
 10
22.85500262524363
 20
25.61960663823109
 30
0.0
 10
22.78253153087496
 20
26.04798097024722
 30
0.0
 10
22.7401734133947
 20
26.48015753509007
 30
0.0
 10
22.71329650510393
 20
26.91349565561387
 30
0.0
 10
22.69795340465021
 20
27.34738502957512
 30
0.0
 10
22.68752501257711
 20
27.78140450706708
 30
0.0
 10
22.67565745459149
 20
28.21539038324685
 30
0.0
 10
22.65722521845055
 20
28.64915702217445
 30
0.0
 10
22.6289396236848
 20
29.08240168138982
 30
0.0
 10
22.5891873756301
 20
29.51474926519421
 30
0.0
 10
22.53760148008359
 20
29.94584502380622
 30
0.0
 10
22.47454064584622
 20
30.3754097282739
 30
0.0
 10
22.40077817208032
 20
30.8032633189289
 30
0.0
 10
22.31719459835188
 20
31.22930368760818
 30
0.0
 10
22.22474183289341
 20
31.65350434191607
 30
0.0
 10
22.17451333142856
 20
31.86469202789646
 30
0.0
  0
SPLINE
  5
14A
330
1F
100
AcDbEntity
  8
2D DXF
370
    -3
100
AcDbSpline
210
0.0
220
0.0
230
1.0
 70
     8
 71
     3
 72
     8
 73
     4
 74
     0
 42
0.0000000001
 43
0.0000000001
 40
30.24920543449504
 40
30.24920543449504
 40
30.24920543449504
 40
30.24920543449504
 40
31.24920543449504
 40
31.24920543449504
 40
31.24920543449504
 40
31.24920543449504
 10
40.96837608142027
 20
23.92250442177102
 30
0.0
 10
41.18382119680189
 20
23.82748333301592
 30
0.0
 10
41.21925651456462
 20
24.12344803554589
 30
0.0
 10
41.02889407947487
 20
24.21934008471447
 30
0.0
  0
SPLINE
  5
14B
330
1F
100
AcDbEntity
  8
2D DXF
370
    -3
100
AcDbSpline
210
0.0
220
0.0
230
1.0
 70
     8
 71
     2
 72
    11
 73
     8
 74
     0
 42
0.0000000001
 43
0.0000000001
 40
24.58515055566001
 40
24.58515055566001
 40
24.58515055566001
 40
25.24920543449504
 40
26.24920543449504
 40
27.24920543449504
 40
28.24920543449504
 40
29.24920543449504
 40
30.24920543449504
 40
30.24920543449504
 40
30.24920543449504
 10
35.99577192113475
 20
24.78099609789764
 30
0.0
 10
36.29500264938974
 20
24.79466764936901
 30
0.0
 10
37.04515021258032
 20
24.81468984864653
 30
0.0
 10
37.94689786877393
 20
24.78365169337101
 30
0.0
 10
38.84117466486418
 20
24.66008126512348
 30
0.0
 10
39.71373217158066
 20
24.42862456662084
 30
0.0
 10
40.55581114297991
 20
24.10446431240655
 30
0.0
 10
40.96837608142027
 20
23.92250442177102
 30
0.0
  0
SPLINE
  5
14C
330
1F
100
AcDbEntity
  8
2D DXF
370
    -3
100
AcDbSpline
210
0.0
220
0.0
230
1.0
 70
     8
 71
     2
 72
     6
 73
     3
 74
     0
 42
0.0000000001
 43
0.0000000001
 40
24.24920543449504
 40
24.24920543449504
 40
24.24920543449504
 40
24.58515055566001
 40
24.58515055566001
 40
24.58515055566001
 10
35.69304167877192
 20
24.76570913363348
 30
0.0
 10
35.84439120477543
 20
24.77407966499134
 30
0.0
 10
35.99577192113475
 20
24.78099609789764
 30
0.0
  0
SPLINE
  5
14D
330
1F
100
AcDbEntity
  8
2D DXF
370
    -3
100
AcDbSpline
210
0.0
220
0.0
230
1.0
 70
    12
 71
     3
 72
     8
 73
     4
 74
     0
 42
0.0000000001
 43
0.0000000001
 40
24.21627622710411
 40
24.21627622710411
 40
24.21627622710411
 40
24.21627622710411
 40
24.24920543449504
 40
24.24920543449504
 40
24.24920543449504
 40
24.24920543449504
 10
35.68221240120397
 20
24.73456795144929
 30
0.0
 41
0.9998948912510897
 10
35.68581707685914
 20
24.74494806436093
 30
0.0
 41
0.9998948912510897
 10
35.68942658574132
 20
24.75532844457885
 30
0.0
 41
0.9998948912510897
 10
35.69304167877191
 20
24.76570913363348
 30
0.0
 41
0.9998948912510898
  0
SPLINE
  5
14E
330
1F
100
AcDbEntity
  8
2D DXF
370
    -3
100
AcDbSpline
210
0.0
220
0.0
230
1.0
 70
    12
 71
     3
 72
     8
 73
     4
 74
     0
 42
0.0000000001
 43
0.0000000001
 40
24.0043308142028
 40
24.0043308142028
 40
24.0043308142028
 40
24.0043308142028
 40
24.14662680869747
 40
24.14662680869747
 40
24.14662680869747
 40
24.14662680869747
 10
35.61300949725866
 20
24.53415855278972
 30
0.0
 41
0.9998948912510895
 10
35.62845184536338
 20
24.57900638813243
 30
0.0
 41
0.9998948912510894
 10
35.64389419346816
 20
24.62385422347512
 30
0.0
 41
0.9998948912510897
 10
35.65939713543694
 20
24.66870541001984
 30
0.0
 41
0.9998948912510897
  0
SPLINE
  5
14F
330
1F
100
AcDbEntity
  8
2D DXF
370
    -3
100
AcDbSpline
210
0.0
220
0.0
230
1.0
 70
     8
 71
     2
 72
     7
 73
     4
 74
     0
 42
0.0000000001
 43
0.0000000001
 40
22.0043308142028
 40
22.0043308142028
 40
22.0043308142028
 40
23.0043308142028
 40
24.0043308142028
 40
24.0043308142028
 40
24.0043308142028
 10
35.52891048602544
 20
24.46726317869856
 30
0.0
 10
35.55701793402307
 20
24.4731465685124
 30
0.0
 10
35.60369646535742
 20
24.50626301865388
 30
0.0
 10
35.61300949725864
 20
24.53415855278972
 30
0.0
  0
LINE
  5
150
330
1F
100
AcDbEntity
  8
2D DXF
370
    -3
100
AcDbLine
 10
35.22190969404585
 20
24.43499609523158
 30
0.0
 11
35.52891048602544
 21
24.46726317869856
 31
0.0
  0
SPLINE
  5
151
330
1F
100
AcDbEntity
  8
2D DXF
370
    -3
100
AcDbSpline
210
0.0
220
0.0
230
1.0
 70
    12
 71
     3
 72
     8
 73
     4
 74
     0
 42
0.0000000001
 43
0.0000000001
 40
18.96393641439282
 40
18.96393641439282
 40
18.96393641439282
 40
18.96393641439282
 40
19.03468092327298
 40
19.03468092327298
 40
19.03468092327298
 40
19.03468092327298
 10
34.53790769779028
 20
24.6885122656032
 30
0.0
 41
0.9998948912511187
 10
34.5501823574854
 20
24.66818810269557
 30
0.0
 41
0.9998948912511187
 10
34.56242578036898
 20
24.64789072665225
 30
0.0
 41
0.9998948912511187
 10
34.57464551346674
 20
24.62761366558507
 30
0.0
 41
0.9998948912511187
  0
SPLINE
  5
152
330
1F
100
AcDbEntity
  8
2D DXF
370
    -3
100
AcDbSpline
210
0.0
220
0.0
230
1.0
 70
     8
 71
     3
 72
    10
 73
     6
 74
     0
 42
0.0000000001
 43
0.0000000001
 40
16.79483486452972
 40
16.79483486452972
 40
16.79483486452972
 40
16.79483486452972
 40
17.24447515632863
 40
18.17147567688618
 40
18.96393641439282
 40
18.96393641439282
 40
18.96393641439282
 40
18.96393641439282
 10
32.29862384716989
 20
24.47479213960217
 30
0.0
 10
32.45431688532778
 20
24.49254239776662
 30
0.0
 10
32.93117977718134
 20
24.54510854838986
 30
0.0
 10
33.68213008157625
 20
24.61816340332893
 30
0.0
 10
34.26920144809992
 20
24.668102837738
 30
0.0
 10
34.53790769779027
 20
24.68851226560319
 30
0.0
  0
SPLINE
  5
153
330
1F
100
AcDbEntity
  8
2D DXF
370
    -3
100
AcDbSpline
210
0.0
220
0.0
230
1.0
 70
     8
 71
     3
 72
     8
 73
     4
 74
     0
 42
0.0000000001
 43
0.0000000001
 40
16.31747463577107
 40
16.31747463577107
 40
16.31747463577107
 40
16.31747463577107
 40
16.79483486452972
 40
16.79483486452972
 40
16.79483486452972
 40
16.79483486452972
 10
31.80307076565111
 20
24.41637803635234
 30
0.0
 10
31.9681149148239
 20
24.43644882444377
 30
0.0
 10
32.13333524952009
 20
24.45594791050474
 30
0.0
 10
32.29862384716989
 20
24.47479213960217
 30
0.0
  0
SPLINE
  5
154
330
1F
100
AcDbEntity
  8
2D DXF
370
    -3
100
AcDbSpline
210
0.0
220
0.0
230
1.0
 70
     8
 71
     3
 72
    44
 73
    40
 74
     0
 42
0.0000000001
 43
0.0000000001
 40
3.568124814608516
 40
3.568124814608516
 40
3.568124814608516
 40
3.568124814608516
 40
4.788183826542491
 40
4.788183826542491
 40
4.788183826542491
 40
5.788188722156311
 40
5.788188722156311
 40
5.788188722156311
 40
6.78819361777013
 40
6.78819361777013
 40
6.78819361777013
 40
7.78819851338395
 40
7.78819851338395
 40
7.78819851338395
 40
8.78820340899777
 40
8.78820340899777
 40
8.78820340899777
 40
9.788208304611588
 40
9.788208304611588
 40
9.788208304611588
 40
10.78821320022541
 40
10.78821320022541
 40
10.78821320022541
 40
11.78821809583923
 40
11.78821809583923
 40
11.78821809583923
 40
12.78822299145305
 40
12.78822299145305
 40
12.78822299145305
 40
13.78822788706687
 40
13.78822788706687
 40
13.78822788706687
 40
14.78823278268069
 40
14.78823278268069
 40
14.78823278268069
 40
15.78823767829451
 40
15.78823767829451
 40
15.78823767829451
 40
16.31747463577107
 40
16.31747463577107
 40
16.31747463577107
 40
16.31747463577107
 10
29.0489211381323
 20
24.07183127828175
 30
0.0
 10
29.45277403175476
 20
24.11885129567207
 30
0.0
 10
29.85637898912205
 20
24.16939088533554
 30
0.0
 10
30.25991370606323
 20
24.22092906319602
 30
0.0
 10
30.30461733548691
 20
24.2266492856492
 30
0.0
 10
30.34932096491059
 20
24.23236950810238
 30
0.0
 10
30.39402459433427
 20
24.23808973055555
 30
0.0
 10
30.43871230408695
 20
24.24382389519685
 30
0.0
 10
30.48340001383974
 20
24.24955805983816
 30
0.0
 10
30.52808772359242
 20
24.25529222447946
 30
0.0
 10
30.57275919292988
 20
24.26103180489647
 30
0.0
 10
30.61743066226745
 20
24.26677138531349
 30
0.0
 10
30.66210213160491
 20
24.2725109657305
 30
0.0
 10
30.70675706742679
 20
24.27824743944634
 30
0.0
 10
30.75141200324856
 20
24.2839839131622
 30
0.0
 10
30.79606693907033
 20
24.28972038687804
 30
0.0
 10
30.84070508348066
 20
24.29544523624851
 30
0.0
 10
30.88534322789087
 20
24.30117008561897
 30
0.0
 10
30.9299813723012
 20
24.30689493498944
 30
0.0
 10
30.97460251323457
 20
24.3125996483571
 30
0.0
 10
31.01922365416806
 20
24.31830436172478
 30
0.0
 10
31.06384479510143
 20
24.32400907509246
 30
0.0
 10
31.1084487804153
 20
24.32968514819984
 30
0.0
 10
31.15305276572917
 20
24.33536122130723
 30
0.0
 10
31.19765675104316
 20
24.34103729441462
 30
0.0
 10
31.24224350596307
 20
24.3466762319999
 30
0.0
 10
31.28683026088299
 20
24.35231516958519
 30
0.0
 10
31.33141701580291
 20
24.35795410717048
 30
0.0
 10
31.3759865623822
 20
24.36354742451266
 30
0.0
 10
31.42055610896159
 20
24.36914074185483
 30
0.0
 10
31.46512565554087
 20
24.37473405919701
 30
0.0
 10
31.50967813039017
 20
24.38027328310231
 30
0.0
 10
31.55423060523947
 20
24.38581250700762
 30
0.0
 10
31.59878308008877
 20
24.39135173091293
 30
0.0
 10
31.64331874262473
 20
24.3968283992224
 30
0.0
 10
31.68785440516069
 20
24.40230506753188
 30
0.0
 10
31.73239006769666
 20
24.40778173584136
 30
0.0
 10
31.7559508342955
 20
24.41064277226381
 30
0.0
 10
31.77951160089447
 20
24.41350380868628
 30
0.0
 10
31.80307076565111
 20
24.41637803635234
 30
0.0
  0
SPLINE
  5
155
330
1F
100
AcDbEntity
  8
2D DXF
370
    -3
100
AcDbSpline
210
0.0
220
0.0
230
1.0
 70
    28
 71
     3
 72
     8
 73
     4
 74
     0
 42
0.0000000001
 43
0.0000000001
 40
2.222067854936725
 40
2.222067854936725
 40
2.222067854936725
 40
2.222067854936725
 40
2.249737975162182
 40
2.249737975162182
 40
2.249737975162182
 40
2.249737975162182
 10
29.03991262815692
 20
24.0456686656195
 30
0.0
 41
0.9998948912511111
 10
29.04291546481547
 20
24.05438953650691
 30
0.0
 41
0.999894891251111
 10
29.04591830147387
 20
24.06311040739433
 30
0.0
 41
0.9998948912511109
 10
29.04892113813231
 20
24.07183127828175
 30
0.0
 41
0.9998948912511108
  0
SPLINE
  5
156
330
1F
100
AcDbEntity
  8
2D DXF
370
    -3
100
AcDbSpline
210
0.0
220
0.0
230
1.0
 70
     8
 71
     2
 72
     8
 73
     5
 74
     0
 42
0.0000000001
 43
0.0000000001
 40
0.0
 40
0.0
 40
0.0
 40
1.0
 40
2.0
 40
3.0
 40
3.0
 40
3.0
 10
35.47050067264161
 20
23.82766118705495
 30
0.0
 10
35.4034647847102
 20
23.82625858719245
 30
0.0
 10
35.31086084571751
 20
23.91971306642712
 30
0.0
 10
35.26356919646241
 20
24.03839021366987
 30
0.0
 10
35.25691862322083
 20
24.10185567892857
 30
0.0
  0
ARC
  5
157
330
1F
100
AcDbEntity
  8
2D DXF
370
    -3
100
AcDbCircle
 10
35.12375678994755
 20
24.60753536831954
 30
0.0
 40
0.0773671944389988
100
AcDbArc
 50
77.69484845802657
 51
96.30889852110818
  0
SPLINE
  5
158
330
1F
100
AcDbEntity
  8
2D DXF
370
    -3
100
AcDbSpline
210
0.0
220
0.0
230
1.0
 70
     8
 71
     2
 72
     7
 73
     4
 74
     0
 42
0.0000000001
 43
0.0000000001
 40
0.0
 40
0.0
 40
0.0
 40
1.0
 40
2.0
 40
2.0
 40
2.0
 10
35.2031791782079
 20
24.61323323665676
 30
0.0
 10
35.20032570272087
 20
24.63904702699785
 30
0.0
 10
35.16561952487666
 20
24.67759026261981
 30
0.0
 10
35.14024514971231
 20
24.68312516106718
 30
0.0
  0
SPLINE
  5
159
330
1F
100
AcDbEntity
  8
2D DXF
370
    -3
100
AcDbSpline
210
0.0
220
0.0
230
1.0
 70
     8
 71
     2
 72
     7
 73
     4
 74
     0
 42
0.0000000001
 43
0.0000000001
 40
3.152673681168819
 40
3.152673681168819
 40
3.152673681168819
 40
4.152673681168819
 40
5.152673681168819
 40
5.152673681168819
 40
5.152673681168819
 10
28.84630323599242
 20
23.92345000543585
 30
0.0
 10
28.84923352248052
 20
23.95621209360241
 30
0.0
 10
28.8167603529472
 20
24.01728042017724
 30
0.0
 10
28.78149962633768
 20
24.0185083646806
 30
0.0
  0
SPLINE
  5
15A
330
1F
100
AcDbEntity
  8
2D DXF
370
    -3
100
AcDbSpline
210
0.0
220
0.0
230
1.0
 70
    28
 71
     2
 72
     6
 73
     3
 74
     0
 42
0.0000000001
 43
0.0000000001
 40
2.0
 40
2.0
 40
2.0
 40
3.152673681168819
 40
3.152673681168819
 40
3.152673681168819
 10
28.78757730217217
 20
22.80155917478423
 30
0.0
 41
1.0
 10
28.81694026908229
 20
23.36250459011004
 30
0.0
 41
1.0
 10
28.84630323599242
 20
23.92345000543585
 30
0.0
 41
1.0
  0
SPLINE
  5
15B
330
1F
100
AcDbEntity
  8
2D DXF
370
    -3
100
AcDbSpline
210
0.0
220
0.0
230
1.0
 70
     8
 71
     2
 72
     7
 73
     4
 74
     0
 42
0.0000000001
 43
0.0000000001
 40
0.0
 40
0.0
 40
0.0
 40
1.0
 40
2.0
 40
2.0
 40
2.0
 10
28.61323030506946
 20
22.56194019829463
 30
0.0
 10
28.69766426488758
 20
22.57586297960351
 30
0.0
 10
28.78429160017282
 20
22.72008380178216
 30
0.0
 10
28.78757730217217
 20
22.80155917478423
 30
0.0
  0
SPLINE
  5
15C
330
1F
100
AcDbEntity
  8
2D DXF
370
    -3
100
AcDbSpline
210
0.0
220
0.0
230
1.0
 70
     8
 71
     2
 72
     7
 73
     4
 74
     0
 42
0.0000000001
 43
0.0000000001
 40
0.0
 40
0.0
 40
0.0
 40
1.0
 40
2.0
 40
2.0
 40
2.0
 10
35.29972523096626
 20
23.26494027153934
 30
0.0
 10
35.21424164646692
 20
23.26100399943349
 30
0.0
 10
35.09952212999048
 20
23.38406241454944
 30
0.0
 10
35.07936854481875
 20
23.46307421938924
 30
0.0
  0
SPLINE
  5
15D
330
1F
100
AcDbEntity
  8
2D DXF
370
    -3
100
AcDbSpline
210
0.0
220
0.0
230
1.0
 70
     8
 71
     2
 72
     7
 73
     4
 74
     0
 42
0.0000000001
 43
0.0000000001
 40
0.0
 40
0.0
 40
0.0
 40
1.0
 40
2.0
 40
2.0
 40
2.0
 10
34.78867168048578
 20
24.54823923506195
 30
0.0
 10
34.77899380625956
 20
24.57967615195643
 30
0.0
 10
34.79806053927405
 20
24.64616154076192
 30
0.0
 10
34.83229543036362
 20
24.65469376901269
 30
0.0
  0
LINE
  5
15E
330
1F
100
AcDbEntity
  8
2D DXF
370
    -3
100
AcDbLine
 10
29.3315091079503
 20
23.18241983009663
 30
0.0
 11
34.46764699131302
 21
23.72224967454688
 31
0.0
  0
LINE
  5
15F
330
1F
100
AcDbEntity
  8
2D DXF
370
    -3
100
AcDbLine
 10
34.25615089563348
 20
24.3334907552738
 30
0.0
 11
29.41171751661568
 21
23.8243202896763
 31
0.0
  0
SPLINE
  5
160
330
1F
100
AcDbEntity
  8
2D DXF
370
    -3
100
AcDbSpline
210
0.0
220
0.0
230
1.0
 70
    28
 71
     2
 72
     6
 73
     3
 74
     0
 42
0.0000000001
 43
0.0000000001
 40
0.0
 40
0.0
 40
0.0
 40
0.5156024396811688
 40
0.5156024396811688
 40
0.5156024396811688
 10
35.25691848188274
 20
24.10185704451612
 30
0.0
 41
0.8530688685202268
 10
35.23004883002864
 20
24.35754514070055
 30
0.0
 41
0.8530688685202321
 10
35.20317917817455
 20
24.61323323688497
 30
0.0
 41
0.8530688685202376
  0
SPLINE
  5
161
330
1F
100
AcDbEntity
  8
2D DXF
370
    -3
100
AcDbSpline
210
0.0
220
0.0
230
1.0
 70
    28
 71
     2
 72
     6
 73
     3
 74
     0
 42
0.0000000001
 43
0.0000000001
 40
0.1092288140722163
 40
0.1092288140722163
 40
0.1092288140722163
 40
1.26190249524103
 40
1.26190249524103
 40
1.26190249524103
 10
34.78867168048578
 20
24.54823923506195
 30
0.0
 41
1.0
 10
34.93402011265226
 20
24.0056567272256
 30
0.0
 41
1.0
 10
35.07936854481875
 20
23.46307421938924
 30
0.0
 41
1.0
  0
SPLINE
  5
162
330
1F
100
AcDbEntity
  8
2D DXF
370
    -3
100
AcDbSpline
210
0.0
220
0.0
230
1.0
 70
    24
 71
     3
 72
    14
 73
    10
 74
     0
 42
0.0000000001
 43
0.0000000001
 40
0.0
 40
0.0
 40
0.0
 40
0.0
 40
0.6041693560049914
 40
0.6041693560049914
 40
0.6041693560049914
 40
0.6510228588170114
 40
0.6510228588170114
 40
0.6510228588170114
 40
1.255192214822014
 40
1.255192214822014
 40
1.255192214822014
 40
1.255192214822014
 10
31.89974939632236
 20
23.45322350463956
 30
0.0
 10
31.89889930612179
 20
23.46131157262652
 30
0.0
 10
31.89000689206097
 20
23.54591724087943
 30
0.0
 10
31.86935327231379
 20
23.74242330645262
 30
0.0
 10
31.86772896245378
 20
23.75787758244753
 30
0.0
 10
31.86609793599314
 20
23.77339576262863
 30
0.0
 10
31.86447362613308
 20
23.78885003862355
 30
0.0
 10
31.84382000638595
 20
23.98535610419675
 30
0.0
 10
31.83492759232507
 20
24.06996177244964
 30
0.0
 10
31.83407750212456
 20
24.0780498404366
 30
0.0
  0
SPLINE
  5
163
330
1F
100
AcDbEntity
  8
2D DXF
370
    -3
100
AcDbSpline
210
0.0
220
0.0
230
1.0
 70
    24
 71
     2
 72
     6
 73
     3
 74
     0
 42
0.0000000001
 43
0.0000000001
 40
0.0759171652887041
 40
0.0759171652887041
 40
0.0759171652887041
 40
0.4783760145391238
 40
0.4783760145391238
 40
0.4783760145391238
 10
35.1152550110487
 20
24.68443401935397
 30
0.0
 10
34.97377522070616
 20
24.66956389418333
 30
0.0
 10
34.83229543036362
 20
24.65469376901269
 30
0.0
  0
SPLINE
  5
164
330
1F
100
AcDbEntity
  8
2D DXF
370
    -3
100
AcDbSpline
210
0.0
220
0.0
230
1.0
 70
     8
 71
     2
 72
    11
 73
     8
 74
     0
 42
0.0000000001
 43
0.0000000001
 40
1.632577816608413
 40
1.632577816608413
 40
1.632577816608413
 40
2.632577427346236
 40
3.632577505198671
 40
4.632577583051106
 40
5.632577660903541
 40
6.632577738755977
 40
7.632577816608412
 40
7.632577816608412
 40
7.632577816608412
 10
23.73640855190422
 20
29.40821545542709
 30
0.0
 10
23.7536363242383
 20
29.45582575533451
 30
0.0
 10
23.76062342591365
 20
29.5567974450625
 30
0.0
 10
23.75965954239405
 20
29.65751629142555
 30
0.0
 10
23.75276791603483
 20
29.75806873296279
 30
0.0
 10
23.74129587864741
 20
29.85817975761416
 30
0.0
 10
23.72583929370489
 20
29.95775388729832
 30
0.0
 10
23.71623001294745
 20
30.0072116577446
 30
0.0
  0
SPLINE
  5
165
330
1F
100
AcDbEntity
  8
2D DXF
370
    -3
100
AcDbSpline
210
0.0
220
0.0
230
1.0
 70
     8
 71
     3
 72
    11
 73
     7
 74
     0
 42
0.0000000001
 43
0.0000000001
 40
1.106384034209326
 40
1.106384034209326
 40
1.106384034209326
 40
1.106384034209326
 40
1.617990370078946
 40
1.617990370078946
 40
1.617990370078946
 40
1.632577816608413
 40
1.632577816608413
 40
1.632577816608413
 40
1.632577816608413
 10
23.51936417880722
 20
28.93069014633476
 30
0.0
 10
23.58972413639219
 20
29.08551608557007
 30
0.0
 10
23.66007039083524
 20
29.24029505244345
 30
0.0
 10
23.73039087562415
 20
29.39497984712152
 30
0.0
 10
23.73239662003891
 20
29.39939190662166
 30
0.0
 10
23.73440233229155
 20
29.40380386118221
 30
0.0
 10
23.73640855190422
 20
29.40821545542709
 30
0.0
  0
SPLINE
  5
166
330
1F
100
AcDbEntity
  8
2D DXF
370
    -3
100
AcDbSpline
210
0.0
220
0.0
230
1.0
 70
     8
 71
     3
 72
     8
 73
     4
 74
     0
 42
0.0000000001
 43
0.0000000001
 40
2.942255389416193
 40
2.942255389416193
 40
2.942255389416193
 40
2.942255389416193
 40
3.256087856163177
 40
3.256087856163177
 40
3.256087856163177
 40
3.256087856163177
 10
23.35807491003391
 20
31.43434098310651
 30
0.0
 10
23.27325787747839
 20
31.37300696925572
 30
0.0
 10
23.18845467741562
 20
31.31173671792702
 30
0.0
 10
23.10363561947418
 20
31.25057393321901
 30
0.0
  0
SPLINE
  5
167
330
1F
100
AcDbEntity
  8
2D DXF
370
    -3
100
AcDbSpline
210
0.0
220
0.0
230
1.0
 70
     8
 71
     3
 72
     8
 73
     4
 74
     0
 42
0.0000000001
 43
0.0000000001
 40
2.868978274657099
 40
2.868978274657099
 40
2.868978274657099
 40
2.868978274657099
 40
2.942255389416193
 40
2.942255389416193
 40
2.942255389416193
 40
2.942255389416193
 10
23.36896866880591
 20
31.43808302660753
 30
0.0
 10
23.36505741271856
 20
31.4380057419025
 30
0.0
 10
23.36142184169671
 20
31.43676117492911
 30
0.0
 10
23.35807491003391
 20
31.43434098310651
 30
0.0
  0
SPLINE
  5
168
330
1F
100
AcDbEntity
  8
2D DXF
370
    -3
100
AcDbSpline
210
0.0
220
0.0
230
1.0
 70
     8
 71
     3
 72
    11
 73
     7
 74
     0
 42
0.0000000001
 43
0.0000000001
 40
2.0
 40
2.0
 40
2.0
 40
2.0
 40
2.50156835232133
 40
2.50156835232133
 40
2.50156835232133
 40
2.868978274657099
 40
2.868978274657099
 40
2.868978274657099
 40
2.868978274657099
 10
23.55981650210208
 20
30.85698807759762
 30
0.0
 10
23.52912185109835
 20
31.00514573199734
 30
0.0
 10
23.4878649883276
 20
31.18694610994289
 30
0.0
 10
23.44736784971269
 20
31.30540800960638
 30
0.0
 10
23.41484431047149
 20
31.4005456013983
 30
0.0
 10
23.38899421549525
 20
31.4386072500489
 30
0.0
 10
23.36896866880591
 20
31.43808302660753
 30
0.0
  0
SPLINE
  5
169
330
1F
100
AcDbEntity
  8
2D DXF
370
    -3
100
AcDbSpline
210
0.0
220
0.0
230
1.0
 70
     8
 71
     2
 72
     7
 73
     4
 74
     0
 42
0.0000000001
 43
0.0000000001
 40
0.0
 40
0.0
 40
0.0
 40
1.0
 40
2.0
 40
2.0
 40
2.0
 10
23.71623001294734
 20
30.00721165774462
 30
0.0
 10
23.71068517041113
 20
30.0357297624824
 30
0.0
 10
23.56997286074943
 20
30.82964870130085
 30
0.0
 10
23.55981650210208
 20
30.85698807759762
 30
0.0
  0
SPLINE
  5
16A
330
1F
100
AcDbEntity
  8
2D DXF
370
    -3
100
AcDbSpline
210
0.0
220
0.0
230
1.0
 70
     8
 71
     2
 72
    18
 73
    15
 74
     0
 42
0.0000000001
 43
0.0000000001
 40
0.0
 40
0.0
 40
0.0
 40
1.0
 40
2.0
 40
3.0
 40
4.0
 40
5.0
 40
6.0
 40
7.0
 40
8.0
 40
9.0
 40
10.0
 40
11.0
 40
12.0
 40
12.99112390467558
 40
12.99112390467558
 40
12.99112390467558
 10
20.20925279626067
 20
36.51254791142482
 30
0.0
 10
20.44993711135976
 20
36.4478420739747
 30
0.0
 10
20.9242983723733
 20
36.29408542069349
 30
0.0
 10
21.37754906487805
 20
36.08357151050207
 30
0.0
 10
21.77314880173162
 20
35.77612918250881
 30
0.0
 10
22.07321798030569
 20
35.37506245211524
 30
0.0
 10
22.2833899996275
 20
34.92190793564954
 30
0.0
 10
22.43787553341429
 20
34.44777756063657
 30
0.0
 10
22.5821797151998
 20
33.9707497092525
 30
0.0
 10
22.71236476748277
 20
33.48961331303617
 30
0.0
 10
22.83059883777582
 20
33.00542220255905
 30
0.0
 10
22.9375784543372
 20
32.51862195932577
 30
0.0
 10
23.03478044954636
 20
32.02978558238429
 30
0.0
 10
23.12729570160388
 20
31.54230031693168
 30
0.0
 10
23.1710655281895
 20
31.29922129223541
 30
0.0
  0
SPLINE
  5
16B
330
1F
100
AcDbEntity
  8
2D DXF
370
    -3
100
AcDbSpline
210
0.0
220
0.0
230
1.0
 70
     8
 71
     2
 72
    53
 73
    50
 74
     0
 42
0.0000000001
 43
0.0000000001
 40
0.0854334264385601
 40
0.0854334264385601
 40
0.0854334264385601
 40
1.0
 40
2.0
 40
3.0
 40
4.0
 40
5.0
 40
6.0
 40
7.0
 40
8.0
 40
9.0
 40
10.0
 40
11.0
 40
12.0
 40
13.0
 40
14.0
 40
15.0
 40
16.0
 40
17.0
 40
18.0
 40
19.0
 40
20.0
 40
21.0
 40
22.0
 40
23.0
 40
24.0
 40
25.0
 40
26.0
 40
27.0
 40
28.0
 40
29.0
 40
30.0
 40
31.0
 40
32.0
 40
33.0
 40
34.0
 40
35.0
 40
36.0
 40
37.0
 40
38.0
 40
39.0
 40
40.0
 40
41.0
 40
42.0
 40
43.0
 40
44.0
 40
45.0
 40
46.0
 40
47.0
 40
48.0
 40
48.0
 40
48.0
 10
41.00265615771195
 20
23.91017357416095
 30
0.0
 10
40.79052366972235
 20
24.01737793878838
 30
0.0
 10
40.36223395315358
 20
24.27068959748408
 30
0.0
 10
39.91022397988587
 20
24.52719031402823
 30
0.0
 10
39.44400732297424
 20
24.75703908749763
 30
0.0
 10
38.9653542347437
 20
24.96026296674136
 30
0.0
 10
38.46776471607336
 20
25.11160745323209
 30
0.0
 10
37.95950099729305
 20
25.22093454744211
 30
0.0
 10
37.44553716462531
 20
25.29859512662159
 30
0.0
 10
36.92841426278926
 20
25.35081690649373
 30
0.0
 10
36.40964654936738
 20
25.38233316422248
 30
0.0
 10
35.89013850152708
 20
25.39669581450474
 30
0.0
 10
35.37044248087557
 20
25.39665240687084
 30
0.0
 10
34.85089500391234
 20
25.38458782562814
 30
0.0
 10
34.33169578280729
 20
25.36217999927409
 30
0.0
 10
33.81296813661231
 20
25.33075195817342
 30
0.0
 10
33.29477521041986
 20
25.29152730274651
 30
0.0
 10
32.77709291616918
 20
25.24609016418347
 30
0.0
 10
32.25982410402651
 20
25.19619653158757
 30
0.0
 10
31.74289644932639
 20
25.14288703252791
 30
0.0
 10
31.22628646901569
 20
25.08658485979656
 30
0.0
 10
30.71002683733843
 20
25.0271582730281
 30
0.0
 10
30.19408197754069
 20
24.96505665723117
 30
0.0
 10
29.67846143236829
 20
24.90032115196999
 30
0.0
 10
29.16309407571578
 20
24.83360380501543
 30
0.0
 10
28.64789417451709
 20
24.76560742213207
 30
0.0
 10
28.13275948883177
 20
24.69712015632743
 30
0.0
 10
27.6174989963215
 20
24.62957837184613
 30
0.0
 10
27.10182919789258
 20
24.56522907379282
 30
0.0
 10
26.58551727710505
 20
24.50614677182115
 30
0.0
 10
26.0679991473736
 20
24.45863594673279
 30
0.0
 10
25.54855203787429
 20
24.4352586678754
 30
0.0
 10
25.02933084914889
 20
24.46913316573299
 30
0.0
 10
24.5202773497009
 20
24.58806851100963
 30
0.0
 10
24.07622926125669
 20
24.86765494330018
 30
0.0
 10
23.75580248617905
 20
25.28298954750876
 30
0.0
 10
23.57436015523547
 20
25.77249140384826
 30
0.0
 10
23.4691505233726
 20
26.28196153851954
 30
0.0
 10
23.407138268719
 20
26.79805426822149
 30
0.0
 10
23.37358662897736
 20
27.31671832074521
 30
0.0
 10
23.34772704609065
 20
27.83573491703477
 30
0.0
 10
23.3197573754012
 20
28.35465658994292
 30
0.0
 10
23.2829214207635
 20
28.87303230033055
 30
0.0
 10
23.23340421138607
 20
29.39038709212621
 30
0.0
 10
23.16716530460565
 20
29.90578285159003
 30
0.0
 10
23.08975105343029
 20
30.42002540053849
 30
0.0
 10
22.973992083692
 20
30.92580239900529
 30
0.0
 10
22.79257582012565
 20
31.42018967912899
 30
0.0
 10
22.43449210164522
 20
31.79420852213651
 30
0.0
 10
22.17451333142856
 20
31.86469202789646
 30
0.0
  0
SPLINE
  5
16C
330
1F
100
AcDbEntity
  8
2D DXF
370
    -3
100
AcDbSpline
210
0.0
220
0.0
230
1.0
 70
     8
 71
     2
 72
    11
 73
     8
 74
     0
 42
0.0000000001
 43
0.0000000001
 40
21.0
 40
21.0
 40
21.0
 40
22.0
 40
23.0
 40
24.0
 40
25.0
 40
26.0
 40
27.0
 40
27.0
 40
27.0
 10
20.22431576366444
 20
36.78288969602433
 30
0.0
 10
20.18996337201247
 20
36.78992066811499
 30
0.0
 10
20.1279344491345
 20
36.75898835534898
 30
0.0
 10
20.10066822006434
 20
36.6953745715348
 30
0.0
 10
20.09786460478301
 20
36.62813416214222
 30
0.0
 10
20.12522616958142
 20
36.56589941364062
 30
0.0
 10
20.17655126046941
 20
36.52158376839552
 30
0.0
 10
20.20925279626067
 20
36.51254791142482
 30
0.0
  0
SPLINE
  5
16D
330
1F
100
AcDbEntity
  8
2D DXF
370
    -3
100
AcDbSpline
210
0.0
220
0.0
230
1.0
 70
     8
 71
     2
 72
    19
 73
    16
 74
     0
 42
0.0000000001
 43
0.0000000001
 40
7.0
 40
7.0
 40
7.0
 40
8.0
 40
9.0
 40
10.0
 40
11.0
 40
12.0
 40
13.0
 40
14.0
 40
15.0
 40
16.0
 40
17.0
 40
18.0
 40
19.0
 40
20.0
 40
21.0
 40
21.0
 40
21.0
 10
24.0614354799103
 20
26.36331276615774
 30
0.0
 10
24.37140280214226
 20
26.71872503293291
 30
0.0
 10
24.80048325365158
 20
27.55731268523835
 30
0.0
 10
25.01880240242872
 20
28.47312141789457
 30
0.0
 10
25.10718098908126
 20
29.40794761691192
 30
0.0
 10
25.0998060091955
 20
30.34670085544654
 30
0.0
 10
25.01729388220906
 20
31.28150514953888
 30
0.0
 10
24.87328857477883
 20
32.20903146544715
 30
0.0
 10
24.64774207066534
 20
33.12038125015326
 30
0.0
 10
24.31163020014355
 20
33.99804209898483
 30
0.0
 10
23.84716218861467
 20
34.81495219008221
 30
0.0
 10
23.23976979149052
 20
35.53604798885361
 30
0.0
 10
22.45244630693867
 20
36.05673040810268
 30
0.0
 10
21.57474107501287
 20
36.39191715164556
 30
0.0
 10
20.68417105966466
 20
36.68877020109446
 30
0.0
 10
20.22431576366444
 20
36.78288969602433
 30
0.0
  0
SPLINE
  5
16E
330
1F
100
AcDbEntity
  8
2D DXF
370
    -3
100
AcDbSpline
210
0.0
220
0.0
230
1.0
 70
     8
 71
     2
 72
     9
 73
     6
 74
     0
 42
0.0000000001
 43
0.0000000001
 40
3.0
 40
3.0
 40
3.0
 40
4.0
 40
5.0
 40
6.0
 40
7.0
 40
7.0
 40
7.0
 10
23.81558534085889
 20
26.46696171777733
 30
0.0
 10
23.81934151023825
 20
26.42524681935916
 30
0.0
 10
23.86872916370635
 20
26.35749825643799
 30
0.0
 10
23.9460242157063
 20
26.32574364358919
 30
0.0
 10
24.03400670299504
 20
26.33186260003023
 30
0.0
 10
24.0614354799103
 20
26.36331276615774
 30
0.0
  0
SPLINE
  5
16F
330
1F
100
AcDbEntity
  8
2D DXF
370
    -3
100
AcDbSpline
210
0.0
220
0.0
230
1.0
 70
     8
 71
     2
 72
     8
 73
     5
 74
     0
 42
0.0000000001
 43
0.0000000001
 40
0.0
 40
0.0
 40
0.0
 40
1.0
 40
2.0
 40
3.0
 40
3.0
 40
3.0
 10
23.5361226541055
 20
28.96756656954035
 30
0.0
 10
23.5913703372579
 20
28.55182019485316
 30
0.0
 10
23.69268563294543
 20
27.71913819521258
 30
0.0
 10
23.7792625375115
 20
26.88479652834055
 30
0.0
 10
23.81558534085889
 20
26.46696171777733
 30
0.0
  0
SPLINE
  5
170
330
1F
100
AcDbEntity
  8
2D DXF
370
    -3
100
AcDbSpline
210
0.0
220
0.0
230
1.0
 70
     8
 71
     2
 72
    19
 73
    16
 74
     0
 42
0.0000000001
 43
0.0000000001
 40
0.0
 40
0.0
 40
0.0
 40
1.0
 40
2.0
 40
3.0
 40
4.0
 40
5.0
 40
6.0
 40
7.0
 40
8.0
 40
9.0
 40
10.0
 40
11.0
 40
12.0
 40
13.0
 40
14.0
 40
14.0
 40
14.0
 10
20.21375473577939
 20
36.51190141817175
 30
0.0
 10
20.65377526811619
 20
36.41526760316286
 30
0.0
 10
21.50716264301298
 20
36.12513834575387
 30
0.0
 10
22.33922548308169
 20
35.77849398213176
 30
0.0
 10
23.10569276400042
 20
35.29694741725503
 30
0.0
 10
23.67727510571581
 20
34.59210601915861
 30
0.0
 10
24.10210407198213
 20
33.79657378431492
 30
0.0
 10
24.41475630550565
 20
32.95049285056209
 30
0.0
 10
24.61951829796965
 20
32.07290129728612
 30
0.0
 10
24.75506809376373
 20
31.18221890966894
 30
0.0
 10
24.82983949665083
 20
30.28442201858303
 30
0.0
 10
24.83314343545214
 20
29.38324714610858
 30
0.0
 10
24.74515435627472
 20
28.4861981676934
 30
0.0
 10
24.5336102586848
 20
27.60740294565086
 30
0.0
 10
24.1163996974135
 20
26.80495144259997
 30
0.0
 10
23.8155839125975
 20
26.46696162058054
 30
0.0
  0
SPLINE
  5
171
330
1F
100
AcDbEntity
  8
2D DXF
370
    -3
100
AcDbSpline
210
0.0
220
0.0
230
1.0
 70
    24
 71
     2
 72
     6
 73
     3
 74
     0
 42
0.0000000001
 43
0.0000000001
 40
0.0000269165430604
 40
0.0000269165430604
 40
0.0000269165430604
 40
0.3195090605941237
 40
0.3195090605941237
 40
0.3195090605941237
 10
23.71623001294734
 20
30.00721165774462
 30
0.0
 10
23.55779469126139
 20
29.99226548823109
 30
0.0
 10
23.39935936957545
 20
29.97731931871756
 30
0.0
  0
ENDSEC
  0
SECTION
  2
OBJECTS
  0
DICTIONARY
  5
C
330
0
100
AcDbDictionary
281
     1
  3
ACAD_DETAILVIEWSTYLE
350
1AD
  3
ACAD_GROUP
350
D
  3
ACAD_LAYOUT
350
1A
  3
ACAD_MATERIAL
350
43
  3
ACAD_MLEADERSTYLE
350
5B
  3
ACAD_MLINESTYLE
350
17
  3
ACAD_PLOTSETTINGS
350
19
  3
ACAD_PLOTSTYLENAME
350
E
  3
ACAD_SCALELIST
350
47
  3
ACAD_SECTIONVIEWSTYLE
350
1AE
  3
ACAD_TABLESTYLE
350
59
  3
ACAD_VISUALSTYLE
350
2A
  3
ACDB_RECOMPOSE_DATA
350
1AA
  3
AcDbVariableDictionary
350
172
  0
SUN
  5
5D
330
29
100
AcDbSun
 90
        1
290
     0
 63
     7
421
 16777215
 40
1.0
291
     1
 91
  2455826
 92
 54000000
292
     0
 70
     2
 71
   256
280
     1
  0
DICTIONARY
  5
1AD
102
{ACAD_REACTORS
330
C
102
}
330
C
100
AcDbDictionary
281
     1
  0
DICTIONARY
  5
D
102
{ACAD_REACTORS
330
C
102
}
330
C
100
AcDbDictionary
281
     1
  0
DICTIONARY
  5
1A
102
{ACAD_REACTORS
330
C
102
}
330
C
100
AcDbDictionary
281
     1
  3
Layout1
350
1E
  3
Layout2
350
26
  3
Model
350
22
  0
DICTIONARY
  5
43
102
{ACAD_REACTORS
330
C
102
}
330
C
100
AcDbDictionary
281
     1
  3
ByBlock
350
45
  3
ByLayer
350
44
  3
Global
350
46
  0
DICTIONARY
  5
5B
102
{ACAD_REACTORS
330
C
102
}
330
C
100
AcDbDictionary
281
     1
  3
Standard
350
5C
  0
DICTIONARY
  5
17
102
{ACAD_REACTORS
330
C
102
}
330
C
100
AcDbDictionary
281
     1
  3
Standard
350
18
  0
DICTIONARY
  5
19
102
{ACAD_REACTORS
330
C
102
}
330
C
100
AcDbDictionary
281
     1
  0
ACDBDICTIONARYWDFLT
  5
E
102
{ACAD_REACTORS
330
C
102
}
330
C
100
AcDbDictionary
281
     1
  3
Normal
350
F
100
AcDbDictionaryWithDefault
340
F
  0
DICTIONARY
  5
47
102
{ACAD_REACTORS
330
C
102
}
330
C
100
AcDbDictionary
281
     1
  3
A0
350
48
  3
A1
350
49
  3
A2
350
4A
  3
A3
350
4B
  3
A4
350
4C
  3
A5
350
4D
  3
A6
350
4E
  3
A7
350
4F
  3
A8
350
50
  3
A9
350
51
  3
B1
350
52
  3
B2
350
53
  3
B3
350
54
  3
B4
350
55
  3
B5
350
56
  3
B6
350
57
  3
B7
350
58
  0
DICTIONARY
  5
1AE
102
{ACAD_REACTORS
330
C
102
}
330
C
100
AcDbDictionary
281
     1
  0
DICTIONARY
  5
59
102
{ACAD_REACTORS
330
C
102
}
330
C
100
AcDbDictionary
281
     1
  3
Standard
350
5A
  0
DICTIONARY
  5
2A
102
{ACAD_REACTORS
330
C
102
}
330
C
100
AcDbDictionary
281
     1
  3
2dWireframe
350
2F
  3
Basic
350
32
  3
Brighten
350
36
  3
ColorChange
350
3A
  3
Conceptual
350
34
  3
Dim
350
35
  3
EdgeColorOff
350
3D
  3
Facepattern
350
39
  3
Flat
350
2B
  3
FlatWithEdges
350
2C
  3
Gouraud
350
2D
  3
GouraudWithEdges
350
2E
  3
Hidden
350
31
  3
JitterOff
350
3B
  3
Linepattern
350
38
  3
OverhangOff
350
3C
  3
Realistic
350
33
  3
Shaded
350
42
  3
Shaded with edges
350
41
  3
Shades of Gray
350
3E
  3
Sketchy
350
3F
  3
Thicken
350
37
  3
Wireframe
350
30
  3
X-Ray
350
40
  0
XRECORD
  5
1AA
102
{ACAD_REACTORS
330
C
102
}
330
C
100
AcDbXrecord
280
     1
 90
        1
330
5A
  0
DICTIONARY
  5
172
102
{ACAD_REACTORS
330
C
102
}
330
C
100
AcDbDictionary
281
     1
  3
CANNOSCALE
350
173
  3
CMLEADERSTYLE
350
1AC
  3
CTABLESTYLE
350
1AB
  3
XCLIPFRAME
350
174
  0
LAYOUT
  5
1E
102
{ACAD_REACTORS
330
1A
102
}
330
1A
100
AcDbPlotSettings
  1

  2
none_device
  4

  6

 40
0.0
 41
0.0
 42
0.0
 43
0.0
 44
0.0
 45
0.0
 46
0.0
 47
0.0
 48
0.0
 49
0.0
140
0.0
141
0.0
142
1.0
143
1.0
 70
   688
 72
     0
 73
     0
 74
     5
  7

 75
    16
 76
     0
 77
     2
 78
   300
147
1.0
148
0.0
149
0.0
100
AcDbLayout
  1
Layout1
 70
     1
 71
     1
 10
0.0
 20
0.0
 11
12.0
 21
9.0
 12
0.0
 22
0.0
 32
0.0
 14
1.000000000000000E+20
 24
1.000000000000000E+20
 34
1.000000000000000E+20
 15
-1.000000000000000E+20
 25
-1.000000000000000E+20
 35
-1.000000000000000E+20
146
0.0
 13
0.0
 23
0.0
 33
0.0
 16
1.0
 26
0.0
 36
0.0
 17
0.0
 27
1.0
 37
0.0
 76
     0
330
1B
  0
LAYOUT
  5
26
102
{ACAD_REACTORS
330
1A
102
}
330
1A
100
AcDbPlotSettings
  1

  2
none_device
  4

  6

 40
0.0
 41
0.0
 42
0.0
 43
0.0
 44
0.0
 45
0.0
 46
0.0
 47
0.0
 48
0.0
 49
0.0
140
0.0
141
0.0
142
1.0
143
1.0
 70
   688
 72
     0
 73
     0
 74
     5
  7

 75
    16
 76
     0
 77
     2
 78
   300
147
1.0
148
0.0
149
0.0
100
AcDbLayout
  1
Layout2
 70
     1
 71
     2
 10
0.0
 20
0.0
 11
0.0
 21
0.0
 12
0.0
 22
0.0
 32
0.0
 14
0.0
 24
0.0
 34
0.0
 15
0.0
 25
0.0
 35
0.0
146
0.0
 13
0.0
 23
0.0
 33
0.0
 16
1.0
 26
0.0
 36
0.0
 17
0.0
 27
1.0
 37
0.0
 76
     0
330
23
  0
LAYOUT
  5
22
102
{ACAD_REACTORS
330
1A
102
}
330
1A
100
AcDbPlotSettings
  1

  2
none_device
  4
Letter_(8.50_x_11.00_Inches)
  6

 40
6.35
 41
6.35
 42
6.35000508
 43
6.35000508
 44
215.9
 45
279.4
 46
0.0
 47
0.0
 48
0.0
 49
0.0
140
0.0
141
0.0
142
1.0
143
1.0
 70
  1712
 72
     0
 73
     0
 74
     0
  7

 75
     0
 76
     0
 77
     2
 78
   300
147
1.0
148
0.0
149
0.0
100
AcDbLayout
  1
Model
 70
     1
 71
     0
 10
0.0
 20
0.0
 11
12.0
 21
9.0
 12
0.0
 22
0.0
 32
0.0
 14
1.000000000000000E+20
 24
1.000000000000000E+20
 34
1.000000000000000E+20
 15
-1.000000000000000E+20
 25
-1.000000000000000E+20
 35
-1.000000000000000E+20
146
0.0
 13
0.0
 23
0.0
 33
0.0
 16
1.0
 26
0.0
 36
0.0
 17
0.0
 27
1.0
 37
0.0
 76
     0
330
1F
331
29
  0
MATERIAL
  5
45
102
{ACAD_REACTORS
330
43
102
}
330
43
100
AcDbMaterial
  1
ByBlock
 72
     1
 94
      127
  0
MATERIAL
  5
44
102
{ACAD_REACTORS
330
43
102
}
330
43
100
AcDbMaterial
  1
ByLayer
 72
     1
 94
      127
  0
MATERIAL
  5
46
102
{ACAD_REACTORS
330
43
102
}
330
43
100
AcDbMaterial
  1
Global
 72
     1
 94
      127
  0
MLEADERSTYLE
  5
5C
102
{ACAD_REACTORS
330
5B
102
}
102
{ACAD_XDICTIONARY
360
1A8
102
}
330
5B
100
AcDbMLeaderStyle
170
     2
171
     1
172
     0
 90
        2
 40
0.0
 41
0.0
173
     1
 91
-1056964608
340
14
 92
       -2
290
     1
 42
0.09
291
     1
 43
0.36
  3
Standard
341
0
 44
0.18
300

342
11
174
     1
178
     6
175
     1
176
     0
 93
-1056964608
 45
0.18
292
     0
297
     0
 46
0.18
343
0
 94
-1056964608
 47
1.0
 49
1.0
140
1.0
293
     1
141
0.0
294
     1
177
     0
142
1.0
295
     0
296
     0
143
0.125
1001
ACAD_MLEADERVER
1070
     2
  0
MLINESTYLE
  5
18
102
{ACAD_REACTORS
330
17
102
}
330
17
100
AcDbMlineStyle
  2
Standard
 70
     0
  3

 62
   256
 51
90.0
 52
90.0
 71
     2
 49
0.5
 62
   256
  6
BYLAYER
 49
-0.5
 62
   256
  6
BYLAYER
  0
ACDBPLACEHOLDER
  5
F
102
{ACAD_REACTORS
330
E
102
}
330
E
  0
SCALE
  5
48
102
{ACAD_REACTORS
330
47
102
}
330
47
100
AcDbScale
 70
     0
300
1:1
140
1.0
141
1.0
290
     1
  0
SCALE
  5
49
102
{ACAD_REACTORS
330
47
102
}
330
47
100
AcDbScale
 70
     0
300
1/128" = 1'-0"
140
0.0078125
141
12.0
290
     0
  0
SCALE
  5
4A
102
{ACAD_REACTORS
330
47
102
}
330
47
100
AcDbScale
 70
     0
300
1/64" = 1'-0"
140
0.015625
141
12.0
290
     0
  0
SCALE
  5
4B
102
{ACAD_REACTORS
330
47
102
}
330
47
100
AcDbScale
 70
     0
300
1/32" = 1'-0"
140
0.03125
141
12.0
290
     0
  0
SCALE
  5
4C
102
{ACAD_REACTORS
330
47
102
}
330
47
100
AcDbScale
 70
     0
300
1/16" = 1'-0"
140
0.0625
141
12.0
290
     0
  0
SCALE
  5
4D
102
{ACAD_REACTORS
330
47
102
}
330
47
100
AcDbScale
 70
     0
300
3/32" = 1'-0"
140
0.09375
141
12.0
290
     0
  0
SCALE
  5
4E
102
{ACAD_REACTORS
330
47
102
}
330
47
100
AcDbScale
 70
     0
300
1/8" = 1'-0"
140
0.125
141
12.0
290
     0
  0
SCALE
  5
4F
102
{ACAD_REACTORS
330
47
102
}
330
47
100
AcDbScale
 70
     0
300
3/16" = 1'-0"
140
0.1875
141
12.0
290
     0
  0
SCALE
  5
50
102
{ACAD_REACTORS
330
47
102
}
330
47
100
AcDbScale
 70
     0
300
1/4" = 1'-0"
140
0.25
141
12.0
290
     0
  0
SCALE
  5
51
102
{ACAD_REACTORS
330
47
102
}
330
47
100
AcDbScale
 70
     0
300
3/8" = 1'-0"
140
0.375
141
12.0
290
     0
  0
SCALE
  5
52
102
{ACAD_REACTORS
330
47
102
}
330
47
100
AcDbScale
 70
     0
300
1/2" = 1'-0"
140
0.5
141
12.0
290
     0
  0
SCALE
  5
53
102
{ACAD_REACTORS
330
47
102
}
330
47
100
AcDbScale
 70
     0
300
3/4" = 1'-0"
140
0.75
141
12.0
290
     0
  0
SCALE
  5
54
102
{ACAD_REACTORS
330
47
102
}
330
47
100
AcDbScale
 70
     0
300
1" = 1'-0"
140
1.0
141
12.0
290
     0
  0
SCALE
  5
55
102
{ACAD_REACTORS
330
47
102
}
330
47
100
AcDbScale
 70
     0
300
1-1/2" = 1'-0"
140
1.5
141
12.0
290
     0
  0
SCALE
  5
56
102
{ACAD_REACTORS
330
47
102
}
330
47
100
AcDbScale
 70
     0
300
3" = 1'-0"
140
3.0
141
12.0
290
     0
  0
SCALE
  5
57
102
{ACAD_REACTORS
330
47
102
}
330
47
100
AcDbScale
 70
     0
300
6" = 1'-0"
140
6.0
141
12.0
290
     0
  0
SCALE
  5
58
102
{ACAD_REACTORS
330
47
102
}
330
47
100
AcDbScale
 70
     0
300
1'-0" = 1'-0"
140
12.0
141
12.0
290
     0
  0
TABLESTYLE
  5
5A
102
{ACAD_REACTORS
330
59
102
}
102
{ACAD_XDICTIONARY
360
1A5
102
}
330
59
100
AcDbTableStyle
  3
Standard
 70
     0
 71
     0
 40
0.06
 41
0.06
280
     0
281
     0
  7
Standard
140
0.18
170
     2
 62
     0
 63
   257
283
     0
 90
        4
 91
        0
  1

274
    -2
284
     1
 64
     0
275
    -2
285
     1
 65
     0
276
    -2
286
     1
 66
     0
277
    -2
287
     1
 67
     0
278
    -2
288
     1
 68
     0
279
    -2
289
     1
 69
     0
  7
Standard
140
0.25
170
     5
 62
     0
 63
   257
283
     0
 90
        4
 91
        0
  1

274
    -2
284
     1
 64
     0
275
    -2
285
     1
 65
     0
276
    -2
286
     1
 66
     0
277
    -2
287
     1
 67
     0
278
    -2
288
     1
 68
     0
279
    -2
289
     1
 69
     0
  7
Standard
140
0.18
170
     5
 62
     0
 63
   257
283
     0
 90
        4
 91
        0
  1

274
    -2
284
     1
 64
     0
275
    -2
285
     1
 65
     0
276
    -2
286
     1
 66
     0
277
    -2
287
     1
 67
     0
278
    -2
288
     1
 68
     0
279
    -2
289
     1
 69
     0
  0
VISUALSTYLE
  5
2F
102
{ACAD_REACTORS
330
2A
102
}
102
{ACAD_XDICTIONARY
360
17D
102
}
330
2A
100
AcDbVisualStyle
  2
2dWireframe
 70
     4
 71
     0
 72
     2
 73
     0
 90
        0
 40
0.6
 41
30.0
 62
     5
 63
     7
421
 16777215
 74
     1
 91
        4
 64
     7
 65
   257
 75
     1
175
     1
 42
1.0
 92
        0
 66
   257
 43
1.0
 76
     1
 77
     6
 78
     2
 67
     7
 79
     5
170
     0
171
     0
290
     0
174
     0
 93
        1
 44
0.0
173
     0
291
     0
 45
0.0
  0
VISUALSTYLE
  5
32
102
{ACAD_REACTORS
330
2A
102
}
102
{ACAD_XDICTIONARY
360
183
102
}
330
2A
100
AcDbVisualStyle
  2
Basic
 70
     7
 71
     1
 72
     0
 73
     1
 90
        0
 40
0.6
 41
30.0
 62
     5
 63
     7
421
 16777215
 74
     0
 91
        4
 64
     7
 65
   257
 75
     1
175
     1
 42
1.0
 92
        8
 66
     7
 43
1.0
 76
     1
 77
     6
 78
     2
 67
     7
 79
     5
170
     0
171
     0
290
     0
174
     0
 93
        1
 44
0.0
173
     0
291
     1
 45
0.0
  0
VISUALSTYLE
  5
36
102
{ACAD_REACTORS
330
2A
102
}
102
{ACAD_XDICTIONARY
360
18B
102
}
330
2A
100
AcDbVisualStyle
  2
Brighten
 70
    12
 71
     2
 72
     2
 73
     0
 90
        0
 40
0.6
 41
30.0
 62
     5
 63
     7
421
 16777215
 74
     1
 91
        4
 64
     7
 65
   257
 75
     1
175
     1
 42
1.0
 92
        8
 66
     7
 43
1.0
 76
     1
 77
     6
 78
     2
 67
     7
 79
     5
170
     0
171
     0
290
     0
174
     0
 93
        1
 44
50.0
173
     0
291
     1
 45
0.0
  0
VISUALSTYLE
  5
3A
102
{ACAD_REACTORS
330
2A
102
}
102
{ACAD_XDICTIONARY
360
193
102
}
330
2A
100
AcDbVisualStyle
  2
ColorChange
 70
    16
 71
     2
 72
     2
 73
     3
 90
        0
 40
0.6
 41
30.0
 62
     5
 63
     8
421
  8421504
 74
     1
 91
        4
 64
     7
 65
   257
 75
     1
175
     1
 42
1.0
 92
        8
 66
     8
424
  8421504
 43
1.0
 76
     1
 77
     6
 78
     2
 67
     7
 79
     5
170
     0
171
     0
290
     0
174
     0
 93
        1
 44
0.0
173
     0
291
     1
 45
0.0
  0
VISUALSTYLE
  5
34
102
{ACAD_REACTORS
330
2A
102
}
102
{ACAD_XDICTIONARY
360
187
102
}
330
2A
100
AcDbVisualStyle
  2
Conceptual
 70
     9
 71
     3
 72
     2
 73
     0
 90
        0
 40
0.6
 41
30.0
 62
     5
 63
     7
421
 16777215
 74
     2
 91
        2
 64
     7
 65
   257
 75
     1
175
     1
 42
179.0
 92
        8
 66
     7
 43
1.0
 76
     1
 77
     6
 78
     2
 67
     7
 79
     3
170
     0
171
     0
290
     0
174
     0
 93
        1
 44
0.0
173
     0
291
     0
 45
0.0
  0
VISUALSTYLE
  5
35
102
{ACAD_REACTORS
330
2A
102
}
102
{ACAD_XDICTIONARY
360
189
102
}
330
2A
100
AcDbVisualStyle
  2
Dim
 70
    11
 71
     2
 72
     2
 73
     0
 90
        0
 40
0.6
 41
30.0
 62
     5
 63
     7
421
 16777215
 74
     1
 91
        4
 64
     7
 65
   257
 75
     1
175
     1
 42
1.0
 92
        8
 66
     7
 43
1.0
 76
     1
 77
     6
 78
     2
 67
     7
 79
     5
170
     0
171
     0
290
     0
174
     0
 93
        1
 44
-50.0
173
     0
291
     1
 45
0.0
  0
VISUALSTYLE
  5
3D
102
{ACAD_REACTORS
330
2A
102
}
102
{ACAD_XDICTIONARY
360
199
102
}
330
2A
100
AcDbVisualStyle
  2
EdgeColorOff
 70
    22
 71
     2
 72
     2
 73
     0
 90
        0
 40
0.6
 41
30.0
 62
     5
 63
     7
421
 16777215
 74
     1
 91
        4
 64
     7
 65
   257
 75
     1
175
     1
 42
1.0
 92
        8
 66
     7
 43
1.0
 76
     1
 77
     6
 78
     2
 67
     7
 79
     5
170
     0
171
     0
290
     0
174
     0
 93
        1
 44
0.0
173
     0
291
     1
 45
0.0
  0
VISUALSTYLE
  5
39
102
{ACAD_REACTORS
330
2A
102
}
102
{ACAD_XDICTIONARY
360
191
102
}
330
2A
100
AcDbVisualStyle
  2
Facepattern
 70
    15
 71
     2
 72
     2
 73
     0
 90
        0
 40
0.6
 41
30.0
 62
     5
 63
     7
421
 16777215
 74
     1
 91
        4
 64
     7
 65
   257
 75
     1
175
     1
 42
1.0
 92
        8
 66
     7
 43
1.0
 76
     1
 77
     6
 78
     2
 67
     7
 79
     5
170
     0
171
     0
290
     0
174
     0
 93
        1
 44
0.0
173
     0
291
     1
 45
0.0
  0
VISUALSTYLE
  5
2B
102
{ACAD_REACTORS
330
2A
102
}
102
{ACAD_XDICTIONARY
360
175
102
}
330
2A
100
AcDbVisualStyle
  2
Flat
 70
     0
 71
     2
 72
     1
 73
     1
 90
        2
 40
0.6
 41
30.0
 62
     5
 63
     7
421
 16777215
 74
     0
 91
        0
 64
     7
 65
   257
 75
     1
175
     1
 42
1.0
 92
        8
 66
     7
 43
1.0
 76
     1
 77
     6
 78
     2
 67
     7
 79
     5
170
     0
171
     0
290
     0
174
     0
 93
       13
 44
0.0
173
     0
291
     1
 45
0.0
  0
VISUALSTYLE
  5
2C
102
{ACAD_REACTORS
330
2A
102
}
102
{ACAD_XDICTIONARY
360
177
102
}
330
2A
100
AcDbVisualStyle
  2
FlatWithEdges
 70
     1
 71
     2
 72
     1
 73
     1
 90
        2
 40
0.6
 41
30.0
 62
     5
 63
     7
421
 16777215
 74
     1
 91
        0
 64
     7
 65
   257
 75
     1
175
     1
 42
1.0
 92
        0
 66
   257
 43
1.0
 76
     1
 77
     6
 78
     2
 67
     7
 79
     5
170
     0
171
     0
290
     0
174
     0
 93
       13
 44
0.0
173
     0
291
     1
 45
0.0
  0
VISUALSTYLE
  5
2D
102
{ACAD_REACTORS
330
2A
102
}
102
{ACAD_XDICTIONARY
360
179
102
}
330
2A
100
AcDbVisualStyle
  2
Gouraud
 70
     2
 71
     2
 72
     2
 73
     1
 90
        2
 40
0.6
 41
30.0
 62
     5
 63
     7
421
 16777215
 74
     0
 91
        0
 64
     7
 65
   257
 75
     1
175
     1
 42
1.0
 92
        0
 66
     7
 43
1.0
 76
     1
 77
     6
 78
     2
 67
     7
 79
     5
170
     0
171
     0
290
     0
174
     0
 93
       13
 44
0.0
173
     0
291
     1
 45
0.0
  0
VISUALSTYLE
  5
2E
102
{ACAD_REACTORS
330
2A
102
}
102
{ACAD_XDICTIONARY
360
17B
102
}
330
2A
100
AcDbVisualStyle
  2
GouraudWithEdges
 70
     3
 71
     2
 72
     2
 73
     1
 90
        2
 40
0.6
 41
30.0
 62
     5
 63
     7
421
 16777215
 74
     1
 91
        0
 64
     7
 65
   257
 75
     1
175
     1
 42
1.0
 92
        0
 66
   257
 43
1.0
 76
     1
 77
     6
 78
     2
 67
     7
 79
     5
170
     0
171
     0
290
     0
174
     0
 93
       13
 44
0.0
173
     0
291
     1
 45
0.0
  0
VISUALSTYLE
  5
31
102
{ACAD_REACTORS
330
2A
102
}
102
{ACAD_XDICTIONARY
360
181
102
}
330
2A
100
AcDbVisualStyle
  2
Hidden
 70
     6
 71
     1
 72
     2
 73
     2
 90
        0
 40
0.6
 41
30.0
 62
     5
 63
     7
421
 16777215
 74
     2
 91
        2
 64
     7
 65
   257
 75
     2
175
     1
 42
40.0
 92
        0
 66
   257
 43
1.0
 76
     1
 77
     6
 78
     2
 67
     7
 79
     3
170
     0
171
     0
290
     0
174
     0
 93
        1
 44
0.0
173
     0
291
     0
 45
0.0
  0
VISUALSTYLE
  5
3B
102
{ACAD_REACTORS
330
2A
102
}
102
{ACAD_XDICTIONARY
360
195
102
}
330
2A
100
AcDbVisualStyle
  2
JitterOff
 70
    20
 71
     2
 72
     2
 73
     0
 90
        0
 40
0.6
 41
30.0
 62
     5
 63
     7
421
 16777215
 74
     1
 91
        4
 64
     7
 65
   257
 75
     1
175
     1
 42
1.0
 92
       10
 66
     7
 43
1.0
 76
     1
 77
     6
 78
     2
 67
     7
 79
     5
170
     0
171
     0
290
     0
174
     0
 93
        1
 44
0.0
173
     0
291
     1
 45
0.0
  0
VISUALSTYLE
  5
38
102
{ACAD_REACTORS
330
2A
102
}
102
{ACAD_XDICTIONARY
360
18F
102
}
330
2A
100
AcDbVisualStyle
  2
Linepattern
 70
    14
 71
     2
 72
     2
 73
     0
 90
        0
 40
0.6
 41
30.0
 62
     5
 63
     7
421
 16777215
 74
     1
 91
        4
 64
     7
 65
   257
 75
     7
175
     7
 42
1.0
 92
        8
 66
     7
 43
1.0
 76
     1
 77
     6
 78
     2
 67
     7
 79
     5
170
     0
171
     0
290
     0
174
     0
 93
        1
 44
0.0
173
     0
291
     1
 45
0.0
  0
VISUALSTYLE
  5
3C
102
{ACAD_REACTORS
330
2A
102
}
102
{ACAD_XDICTIONARY
360
197
102
}
330
2A
100
AcDbVisualStyle
  2
OverhangOff
 70
    21
 71
     2
 72
     2
 73
     0
 90
        0
 40
0.6
 41
30.0
 62
     5
 63
     7
421
 16777215
 74
     1
 91
        4
 64
     7
 65
   257
 75
     1
175
     1
 42
1.0
 92
        9
 66
     7
 43
1.0
 76
     1
 77
     6
 78
     2
 67
     7
 79
     5
170
     0
171
     0
290
     0
174
     0
 93
        1
 44
0.0
173
     0
291
     1
 45
0.0
  0
VISUALSTYLE
  5
33
102
{ACAD_REACTORS
330
2A
102
}
102
{ACAD_XDICTIONARY
360
185
102
}
330
2A
100
AcDbVisualStyle
  2
Realistic
 70
     8
 71
     2
 72
     3
 73
     0
 90
        2
 40
0.6
 41
30.0
 62
     5
 63
     7
421
 16777215
 74
     0
 91
        0
 64
     7
 65
   257
 75
     1
175
     1
 42
1.0
 92
        8
 66
   257
 43
1.0
 76
     1
 77
     6
 78
     2
 67
     7
 79
     3
170
     0
171
     0
290
     0
174
     0
 93
       13
 44
0.0
173
     0
291
     0
 45
0.0
  0
VISUALSTYLE
  5
42
102
{ACAD_REACTORS
330
2A
102
}
102
{ACAD_XDICTIONARY
360
1A3
102
}
330
2A
100
AcDbVisualStyle
  2
Shaded
 70
    27
 71
     2
 72
     2
 73
     1
 90
        2
 40
0.6
 41
30.0
 62
     5
 63
     7
421
 16777215
 74
     0
 91
        4
 64
     7
 65
   257
 75
     1
175
     1
 42
1.0
 92
        8
 66
   257
 43
1.0
 76
     1
 77
     6
 78
     2
 67
     8
425
  7895160
 79
     3
170
     0
171
     0
290
     0
174
     0
 93
        5
 44
0.0
173
     0
291
     0
 45
0.0
  0
VISUALSTYLE
  5
41
102
{ACAD_REACTORS
330
2A
102
}
102
{ACAD_XDICTIONARY
360
1A1
102
}
330
2A
100
AcDbVisualStyle
  2
Shaded with edges
 70
    26
 71
     2
 72
     2
 73
     1
 90
        2
 40
0.6
 41
30.0
 62
     5
 63
     7
421
 16777215
 74
     1
 91
       10
 64
     7
 65
   257
 75
     2
175
     1
 42
1.0
 92
        8
 66
   257
 43
1.0
 76
     1
 77
     6
 78
     2
 67
     7
 79
     3
170
     0
171
     0
290
     0
174
     0
 93
        5
 44
0.0
173
     0
291
     0
 45
0.0
  0
VISUALSTYLE
  5
3E
102
{ACAD_REACTORS
330
2A
102
}
102
{ACAD_XDICTIONARY
360
19B
102
}
330
2A
100
AcDbVisualStyle
  2
Shades of Gray
 70
    23
 71
     2
 72
     2
 73
     3
 90
        0
 40
0.6
 41
30.0
 62
     5
 63
     7
421
 16777215
 74
     2
 91
        2
 64
     7
 65
     7
 75
     1
175
     1
 42
40.0
 92
        8
 66
     7
 43
1.0
 76
     1
 77
     6
 78
     2
 67
     7
 79
     3
170
     0
171
     0
290
     0
174
     0
 93
        1
 44
0.0
173
     0
291
     0
 45
0.0
  0
VISUALSTYLE
  5
3F
102
{ACAD_REACTORS
330
2A
102
}
102
{ACAD_XDICTIONARY
360
19D
102
}
330
2A
100
AcDbVisualStyle
  2
Sketchy
 70
    24
 71
     1
 72
     2
 73
     2
 90
        0
 40
0.6
 41
30.0
 62
     5
 63
     7
421
 16777215
 74
     2
 91
        2
 64
     7
 65
     7
 75
     1
175
     1
 42
40.0
 92
       11
 66
     7
 43
1.0
 76
     1
 77
     6
 78
     2
 67
     7
 79
     6
170
     0
171
     0
290
     0
174
     0
 93
        1
 44
0.0
173
     0
291
     0
 45
0.0
  0
VISUALSTYLE
  5
37
102
{ACAD_REACTORS
330
2A
102
}
102
{ACAD_XDICTIONARY
360
18D
102
}
330
2A
100
AcDbVisualStyle
  2
Thicken
 70
    13
 71
     2
 72
     2
 73
     0
 90
        0
 40
0.6
 41
30.0
 62
     5
 63
     7
421
 16777215
 74
     1
 91
        4
 64
     7
 65
   257
 75
     1
175
     1
 42
1.0
 92
       12
 66
     7
 43
1.0
 76
     1
 77
     6
 78
     2
 67
     7
 79
     5
170
     0
171
     0
290
     0
174
     0
 93
        1
 44
0.0
173
     0
291
     1
 45
0.0
  0
VISUALSTYLE
  5
30
102
{ACAD_REACTORS
330
2A
102
}
102
{ACAD_XDICTIONARY
360
17F
102
}
330
2A
100
AcDbVisualStyle
  2
Wireframe
 70
     5
 71
     0
 72
     2
 73
     0
 90
        0
 40
0.6
 41
30.0
 62
     5
 63
     7
421
 16777215
 74
     1
 91
        4
 64
     7
 65
   257
 75
     1
175
     1
 42
1.0
 92
        0
 66
   257
 43
1.0
 76
     1
 77
     6
 78
     2
 67
     7
 79
     3
170
     0
171
     0
290
     0
174
     0
 93
        1
 44
0.0
173
     0
291
     0
 45
0.0
  0
VISUALSTYLE
  5
40
102
{ACAD_REACTORS
330
2A
102
}
102
{ACAD_XDICTIONARY
360
19F
102
}
330
2A
100
AcDbVisualStyle
  2
X-Ray
 70
    25
 71
     2
 72
     2
 73
     1
 90
        1
 40
0.5
 41
30.0
 62
     5
 63
     7
421
 16777215
 74
     1
 91
        0
 64
     7
 65
   257
 75
     1
175
     1
 42
1.0
 92
        8
 66
     7
 43
1.0
 76
     1
 77
     6
 78
     2
 67
     7
 79
     3
170
     0
171
     0
290
     0
174
     0
 93
       13
 44
0.0
173
     0
291
     0
 45
0.0
  0
DICTIONARYVAR
  5
173
102
{ACAD_REACTORS
330
172
102
}
330
172
100
DictionaryVariables
280
     0
  1
1:1
  0
DICTIONARYVAR
  5
1AC
102
{ACAD_REACTORS
330
172
102
}
330
172
100
DictionaryVariables
280
     0
  1
Standard
  0
DICTIONARYVAR
  5
1AB
102
{ACAD_REACTORS
330
172
102
}
330
172
100
DictionaryVariables
280
     0
  1
Standard
  0
DICTIONARYVAR
  5
174
102
{ACAD_REACTORS
330
172
102
}
330
172
100
DictionaryVariables
280
     0
  1
2
  0
DICTIONARY
  5
1A8
330
5C
100
AcDbDictionary
280
     1
281
     1
  3
ACAD_XREC_ROUNDTRIP
360
1A9
  0
DICTIONARY
  5
1A5
330
5A
100
AcDbDictionary
280
     1
281
     1
  3
ACAD_ROUNDTRIP_2008_TABLESTYLE_CELLSTYLEMAP
360
1A6
  0
DICTIONARY
  5
17D
330
2F
100
AcDbDictionary
280
     1
281
     1
  3
ACAD_XREC_ROUNDTRIP
360
17E
  0
DICTIONARY
  5
183
330
32
100
AcDbDictionary
280
     1
281
     1
  3
ACAD_XREC_ROUNDTRIP
360
184
  0
DICTIONARY
  5
18B
330
36
100
AcDbDictionary
280
     1
281
     1
  3
ACAD_XREC_ROUNDTRIP
360
18C
  0
DICTIONARY
  5
193
330
3A
100
AcDbDictionary
280
     1
281
     1
  3
ACAD_XREC_ROUNDTRIP
360
194
  0
DICTIONARY
  5
187
330
34
100
AcDbDictionary
280
     1
281
     1
  3
ACAD_XREC_ROUNDTRIP
360
188
  0
DICTIONARY
  5
189
330
35
100
AcDbDictionary
280
     1
281
     1
  3
ACAD_XREC_ROUNDTRIP
360
18A
  0
DICTIONARY
  5
199
330
3D
100
AcDbDictionary
280
     1
281
     1
  3
ACAD_XREC_ROUNDTRIP
360
19A
  0
DICTIONARY
  5
191
330
39
100
AcDbDictionary
280
     1
281
     1
  3
ACAD_XREC_ROUNDTRIP
360
192
  0
DICTIONARY
  5
175
330
2B
100
AcDbDictionary
280
     1
281
     1
  3
ACAD_XREC_ROUNDTRIP
360
176
  0
DICTIONARY
  5
177
330
2C
100
AcDbDictionary
280
     1
281
     1
  3
ACAD_XREC_ROUNDTRIP
360
178
  0
DICTIONARY
  5
179
330
2D
100
AcDbDictionary
280
     1
281
     1
  3
ACAD_XREC_ROUNDTRIP
360
17A
  0
DICTIONARY
  5
17B
330
2E
100
AcDbDictionary
280
     1
281
     1
  3
ACAD_XREC_ROUNDTRIP
360
17C
  0
DICTIONARY
  5
181
330
31
100
AcDbDictionary
280
     1
281
     1
  3
ACAD_XREC_ROUNDTRIP
360
182
  0
DICTIONARY
  5
195
330
3B
100
AcDbDictionary
280
     1
281
     1
  3
ACAD_XREC_ROUNDTRIP
360
196
  0
DICTIONARY
  5
18F
330
38
100
AcDbDictionary
280
     1
281
     1
  3
ACAD_XREC_ROUNDTRIP
360
190
  0
DICTIONARY
  5
197
330
3C
100
AcDbDictionary
280
     1
281
     1
  3
ACAD_XREC_ROUNDTRIP
360
198
  0
DICTIONARY
  5
185
330
33
100
AcDbDictionary
280
     1
281
     1
  3
ACAD_XREC_ROUNDTRIP
360
186
  0
DICTIONARY
  5
1A3
330
42
100
AcDbDictionary
280
     1
281
     1
  3
ACAD_XREC_ROUNDTRIP
360
1A4
  0
DICTIONARY
  5
1A1
330
41
100
AcDbDictionary
280
     1
281
     1
  3
ACAD_XREC_ROUNDTRIP
360
1A2
  0
DICTIONARY
  5
19B
330
3E
100
AcDbDictionary
280
     1
281
     1
  3
ACAD_XREC_ROUNDTRIP
360
19C
  0
DICTIONARY
  5
19D
330
3F
100
AcDbDictionary
280
     1
281
     1
  3
ACAD_XREC_ROUNDTRIP
360
19E
  0
DICTIONARY
  5
18D
330
37
100
AcDbDictionary
280
     1
281
     1
  3
ACAD_XREC_ROUNDTRIP
360
18E
  0
DICTIONARY
  5
17F
330
30
100
AcDbDictionary
280
     1
281
     1
  3
ACAD_XREC_ROUNDTRIP
360
180
  0
DICTIONARY
  5
19F
330
40
100
AcDbDictionary
280
     1
281
     1
  3
ACAD_XREC_ROUNDTRIP
360
1A0
  0
XRECORD
  5
1A9
102
{ACAD_REACTORS
330
1A8
102
}
330
1A8
100
AcDbXrecord
280
     1
102
ACAD_ROUNDTRIP_2010_MLEADER_STYLE
  0
CELLSTYLEMAP
  5
1A6
102
{ACAD_REACTORS
330
1A5
102
}
330
1A5
100
AcDbCellStyleMap
 90
        3
300
CELLSTYLE
  1
TABLEFORMAT_BEGIN
 90
        5
170
     1
 91
        0
 92
    32768
 62
   257
 93
        1
300
CONTENTFORMAT
  1
CONTENTFORMAT_BEGIN
 90
        0
 91
        0
 92
        4
 93
        0
300

 40
0.0
140
1.0
 94
        5
 62
     0
340
11
144
0.25
309
CONTENTFORMAT_END
171
     1
301
MARGIN
  1
CELLMARGIN_BEGIN
 40
0.06
 40
0.06
 40
0.06
 40
0.06
 40
0.06
 40
0.06
309
CELLMARGIN_END
 94
        6
 95
        1
302
GRIDFORMAT
  1
GRIDFORMAT_BEGIN
 90
        0
 91
        1
 62
     0
 92
       -2
340
14
 93
        0
 40
0.045
309
GRIDFORMAT_END
 95
        2
302
GRIDFORMAT
  1
GRIDFORMAT_BEGIN
 90
        0
 91
        1
 62
     0
 92
       -2
340
14
 93
        0
 40
0.045
309
GRIDFORMAT_END
 95
        4
302
GRIDFORMAT
  1
GRIDFORMAT_BEGIN
 90
        0
 91
        1
 62
     0
 92
       -2
340
14
 93
        0
 40
0.045
309
GRIDFORMAT_END
 95
        8
302
GRIDFORMAT
  1
GRIDFORMAT_BEGIN
 90
        0
 91
        1
 62
     0
 92
       -2
340
14
 93
        0
 40
0.045
309
GRIDFORMAT_END
 95
       16
302
GRIDFORMAT
  1
GRIDFORMAT_BEGIN
 90
        0
 91
        1
 62
     0
 92
       -2
340
14
 93
        0
 40
0.045
309
GRIDFORMAT_END
 95
       32
302
GRIDFORMAT
  1
GRIDFORMAT_BEGIN
 90
        0
 91
        1
 62
     0
 92
       -2
340
14
 93
        0
 40
0.045
309
GRIDFORMAT_END
309
TABLEFORMAT_END
  1
CELLSTYLE_BEGIN
 90
        1
 91
        1
300
_TITLE
309
CELLSTYLE_END
300
CELLSTYLE
  1
TABLEFORMAT_BEGIN
 90
        5
170
     1
 91
        0
 92
        0
 62
   257
 93
        1
300
CONTENTFORMAT
  1
CONTENTFORMAT_BEGIN
 90
        0
 91
        0
 92
        4
 93
        0
300

 40
0.0
140
1.0
 94
        5
 62
     0
340
11
144
0.18
309
CONTENTFORMAT_END
171
     1
301
MARGIN
  1
CELLMARGIN_BEGIN
 40
0.06
 40
0.06
 40
0.06
 40
0.06
 40
0.06
 40
0.06
309
CELLMARGIN_END
 94
        6
 95
        1
302
GRIDFORMAT
  1
GRIDFORMAT_BEGIN
 90
        0
 91
        1
 62
     0
 92
       -2
340
14
 93
        0
 40
0.045
309
GRIDFORMAT_END
 95
        2
302
GRIDFORMAT
  1
GRIDFORMAT_BEGIN
 90
        0
 91
        1
 62
     0
 92
       -2
340
14
 93
        0
 40
0.045
309
GRIDFORMAT_END
 95
        4
302
GRIDFORMAT
  1
GRIDFORMAT_BEGIN
 90
        0
 91
        1
 62
     0
 92
       -2
340
14
 93
        0
 40
0.045
309
GRIDFORMAT_END
 95
        8
302
GRIDFORMAT
  1
GRIDFORMAT_BEGIN
 90
        0
 91
        1
 62
     0
 92
       -2
340
14
 93
        0
 40
0.045
309
GRIDFORMAT_END
 95
       16
302
GRIDFORMAT
  1
GRIDFORMAT_BEGIN
 90
        0
 91
        1
 62
     0
 92
       -2
340
14
 93
        0
 40
0.045
309
GRIDFORMAT_END
 95
       32
302
GRIDFORMAT
  1
GRIDFORMAT_BEGIN
 90
        0
 91
        1
 62
     0
 92
       -2
340
14
 93
        0
 40
0.045
309
GRIDFORMAT_END
309
TABLEFORMAT_END
  1
CELLSTYLE_BEGIN
 90
        2
 91
        1
300
_HEADER
309
CELLSTYLE_END
300
CELLSTYLE
  1
TABLEFORMAT_BEGIN
 90
        5
170
     1
 91
        0
 92
        0
 62
   257
 93
        1
300
CONTENTFORMAT
  1
CONTENTFORMAT_BEGIN
 90
        0
 91
        0
 92
        4
 93
        0
300

 40
0.0
140
1.0
 94
        2
 62
     0
340
11
144
0.18
309
CONTENTFORMAT_END
171
     1
301
MARGIN
  1
CELLMARGIN_BEGIN
 40
0.06
 40
0.06
 40
0.06
 40
0.06
 40
0.06
 40
0.06
309
CELLMARGIN_END
 94
        6
 95
        1
302
GRIDFORMAT
  1
GRIDFORMAT_BEGIN
 90
        0
 91
        1
 62
     0
 92
       -2
340
14
 93
        0
 40
0.045
309
GRIDFORMAT_END
 95
        2
302
GRIDFORMAT
  1
GRIDFORMAT_BEGIN
 90
        0
 91
        1
 62
     0
 92
       -2
340
14
 93
        0
 40
0.045
309
GRIDFORMAT_END
 95
        4
302
GRIDFORMAT
  1
GRIDFORMAT_BEGIN
 90
        0
 91
        1
 62
     0
 92
       -2
340
14
 93
        0
 40
0.045
309
GRIDFORMAT_END
 95
        8
302
GRIDFORMAT
  1
GRIDFORMAT_BEGIN
 90
        0
 91
        1
 62
     0
 92
       -2
340
14
 93
        0
 40
0.045
309
GRIDFORMAT_END
 95
       16
302
GRIDFORMAT
  1
GRIDFORMAT_BEGIN
 90
        0
 91
        1
 62
     0
 92
       -2
340
14
 93
        0
 40
0.045
309
GRIDFORMAT_END
 95
       32
302
GRIDFORMAT
  1
GRIDFORMAT_BEGIN
 90
        0
 91
        1
 62
     0
 92
       -2
340
14
 93
        0
 40
0.045
309
GRIDFORMAT_END
309
TABLEFORMAT_END
  1
CELLSTYLE_BEGIN
 90
        3
 91
        2
300
_DATA
309
CELLSTYLE_END
  0
XRECORD
  5
17E
102
{ACAD_REACTORS
330
17D
102
}
330
17D
100
AcDbXrecord
280
     1
102
RTVSPropertyOp0
 70
     1
102
RTVSPropertyOp1
 70
     1
102
RTVSPropertyOp2
 70
     1
102
RTVSPropertyOp3
 70
     1
102
RTVSPropertyOp4
 70
     1
102
RTVSPropertyOp5
 70
     1
102
RTVSPropertyOp6
 70
     1
102
RTVSPropertyOp7
 70
     1
102
RTVSPropertyOp8
 70
     1
102
RTVSPropertyOp9
 70
     1
102
RTVSPropertyOp10
 70
     1
102
RTVSPropertyOp11
 70
     1
102
RTVSPropertyOp12
 70
     1
102
RTVSPropertyOp13
 70
     1
102
RTVSPropertyOp14
 70
     1
102
RTVSPropertyOp15
 70
     1
102
RTVSPropertyOp16
 70
     1
102
RTVSPropertyOp17
 70
     1
102
RTVSPropertyOp18
 70
     1
102
RTVSPropertyOp19
 70
     1
102
RTVSPropertyOp20
 70
     1
102
RTVSPropertyOp21
 70
     1
102
RTVSPropertyOp22
 70
     1
102
RTVSPropertyOp23
 70
     1
102
RTVSPropertyOp24
 70
     1
102
RTVSPropertyOp25
 70
     1
102
RTVSPropertyOp26
 70
     1
102
RTVSPropertyOp27
 70
     1
102
RTVSPropertyOp28
 70
     1
102
RTVSPropertyOp29
 70
     1
102
RTVSPropertyOp30
 70
     1
102
RTVSPropertyOp31
 70
     1
102
RTVSPropertyOp32
 70
     1
102
RTVSPropertyOp33
 70
     1
102
RTVSPropertyOp34
 70
     1
102
RTVSPropertyOp35
 70
     1
102
RTVSPropertyOp36
 70
     1
102
RTVSPropertyOp37
 70
     1
102
RTVSPropertyOp38
 70
     1
102
RTVSPropertyOp39
 70
     1
102
RTVSPropertyOp40
 70
     1
102
RTVSPropertyOp41
 70
     1
102
RTVSPropertyOp42
 70
     1
102
RTVSPropertyOp43
 70
     1
102
RTVSPropertyOp44
 70
     1
102
RTVSPropertyOp45
 70
     1
102
RTVSPropertyOp46
 70
     1
102
RTVSPropertyOp47
 70
     1
102
RTVSPropertyOp48
 70
     1
102
RTVSPropertyOp49
 70
     1
102
RTVSPropertyOp50
 70
     1
102
RTVSPropertyOp51
 70
     0
102
RTVSPropertyOp52
 70
     0
102
RTVSPropertyOp53
 70
     1
102
RTVSPropertyOp54
 70
     1
102
RTVSPropertyOp55
 70
     1
102
RTVSPropertyOp56
 70
     1
102
RTVSPropertyOp57
 70
     1
102
RTVSPost2010Prop28
280
     1
102
RTVSPost2010PropOp28
 70
     1
102
RTVSPost2010Prop29
280
     1
102
RTVSPost2010PropOp29
 70
     1
102
RTVSPost2010Prop30
280
     0
102
RTVSPost2010PropOp30
 70
     1
102
RTVSPost2010Prop31
280
     0
102
RTVSPost2010PropOp31
 70
     1
102
RTVSPost2010Prop32
280
     0
102
RTVSPost2010PropOp32
 70
     1
102
RTVSPost2010Prop33
280
     0
102
RTVSPost2010PropOp33
 70
     1
102
RTVSPost2010Prop34
280
     0
102
RTVSPost2010PropOp34
 70
     1
102
RTVSPost2010Prop35
280
     0
102
RTVSPost2010PropOp35
 70
     1
102
RTVSPost2010Prop36
280
     0
102
RTVSPost2010PropOp36
 70
     1
102
RTVSPost2010Prop37
 90
       50
102
RTVSPost2010PropOp37
 70
     1
102
RTVSPost2010Prop38
140
0.0
102
RTVSPost2010PropOp38
 70
     1
102
RTVSPost2010Prop39
140
1.0
102
RTVSPost2010PropOp39
 70
     1
102
RTVSPost2010Prop40
 90
        0
102
RTVSPost2010PropOp40
 70
     1
102
RTVSPost2010Prop41ColorIndex
 90
       18
102
RTVSPost2010Prop41ColorRGB
 90
        0
102
RTVSPost2010PropOp41
 70
     1
102
RTVSPost2010Prop42
 90
       50
102
RTVSPost2010PropOp42
 70
     1
102
RTVSPost2010Prop43
 90
        3
102
RTVSPost2010PropOp43
 70
     1
102
RTVSPost2010Prop44ColorIndex
 90
        5
102
RTVSPost2010Prop44ColorRGB
 90
      255
102
RTVSPost2010PropOp44
 70
     1
102
RTVSPost2010Prop45
280
     0
102
RTVSPost2010PropOp45
 70
     1
102
RTVSPost2010Prop46
 90
       50
102
RTVSPost2010PropOp46
 70
     1
102
RTVSPost2010Prop47
 90
       50
102
RTVSPost2010PropOp47
 70
     1
102
RTVSPost2010Prop48
 90
       50
102
RTVSPost2010PropOp48
 70
     1
102
RTVSPost2010Prop49
280
     0
102
RTVSPost2010PropOp49
 70
     1
102
RTVSPost2010Prop50
 90
       50
102
RTVSPost2010PropOp50
 70
     1
102
RTVSPost2010Prop51ColorIndex
 90
      256
102
RTVSPost2010Prop51ColorRGB
 90
-16777216
102
RTVSPost2010PropOp51
 70
     0
102
RTVSPost2010Prop52
140
1.0
102
RTVSPost2010PropOp52
 70
     0
102
RTVSPost2010Prop53
 90
        2
102
RTVSPost2010PropOp53
 70
     1
102
RTVSPost2010Prop54
  1
strokes_ogs.tif
102
RTVSPost2010PropOp54
 70
     1
102
RTVSPost2010Prop55
280
     0
102
RTVSPost2010PropOp55
 70
     1
102
RTVSPost2010Prop56
140
1.0
102
RTVSPost2010PropOp56
 70
     1
102
RTVSPost2010Prop57
140
1.0
102
RTVSPost2010PropOp57
 70
     1
  0
XRECORD
  5
184
102
{ACAD_REACTORS
330
183
102
}
330
183
100
AcDbXrecord
280
     1
102
RTVSPropertyOp0
 70
     1
102
RTVSPropertyOp1
 70
     1
102
RTVSPropertyOp2
 70
     1
102
RTVSPropertyOp3
 70
     1
102
RTVSPropertyOp4
 70
     1
102
RTVSPropertyOp5
 70
     1
102
RTVSPropertyOp6
 70
     1
102
RTVSPropertyOp7
 70
     1
102
RTVSPropertyOp8
 70
     1
102
RTVSPropertyOp9
 70
     1
102
RTVSPropertyOp10
 70
     1
102
RTVSPropertyOp11
 70
     1
102
RTVSPropertyOp12
 70
     1
102
RTVSPropertyOp13
 70
     1
102
RTVSPropertyOp14
 70
     1
102
RTVSPropertyOp15
 70
     1
102
RTVSPropertyOp16
 70
     1
102
RTVSPropertyOp17
 70
     1
102
RTVSPropertyOp18
 70
     1
102
RTVSPropertyOp19
 70
     1
102
RTVSPropertyOp20
 70
     1
102
RTVSPropertyOp21
 70
     1
102
RTVSPropertyOp22
 70
     1
102
RTVSPropertyOp23
 70
     1
102
RTVSPropertyOp24
 70
     1
102
RTVSPropertyOp25
 70
     1
102
RTVSPropertyOp26
 70
     1
102
RTVSPropertyOp27
 70
     1
102
RTVSPropertyOp28
 70
     1
102
RTVSPropertyOp29
 70
     1
102
RTVSPropertyOp30
 70
     1
102
RTVSPropertyOp31
 70
     1
102
RTVSPropertyOp32
 70
     1
102
RTVSPropertyOp33
 70
     1
102
RTVSPropertyOp34
 70
     1
102
RTVSPropertyOp35
 70
     1
102
RTVSPropertyOp36
 70
     1
102
RTVSPropertyOp37
 70
     1
102
RTVSPropertyOp38
 70
     1
102
RTVSPropertyOp39
 70
     1
102
RTVSPropertyOp40
 70
     1
102
RTVSPropertyOp41
 70
     1
102
RTVSPropertyOp42
 70
     1
102
RTVSPropertyOp43
 70
     1
102
RTVSPropertyOp44
 70
     1
102
RTVSPropertyOp45
 70
     1
102
RTVSPropertyOp46
 70
     1
102
RTVSPropertyOp47
 70
     1
102
RTVSPropertyOp48
 70
     1
102
RTVSPropertyOp49
 70
     1
102
RTVSPropertyOp50
 70
     1
102
RTVSPropertyOp51
 70
     0
102
RTVSPropertyOp52
 70
     0
102
RTVSPropertyOp53
 70
     1
102
RTVSPropertyOp54
 70
     1
102
RTVSPropertyOp55
 70
     1
102
RTVSPropertyOp56
 70
     1
102
RTVSPropertyOp57
 70
     1
102
RTVSPost2010Prop28
280
     0
102
RTVSPost2010PropOp28
 70
     1
102
RTVSPost2010Prop29
280
     1
102
RTVSPost2010PropOp29
 70
     1
102
RTVSPost2010Prop30
280
     1
102
RTVSPost2010PropOp30
 70
     1
102
RTVSPost2010Prop31
280
     0
102
RTVSPost2010PropOp31
 70
     1
102
RTVSPost2010Prop32
280
     0
102
RTVSPost2010PropOp32
 70
     1
102
RTVSPost2010Prop33
280
     0
102
RTVSPost2010PropOp33
 70
     1
102
RTVSPost2010Prop34
280
     0
102
RTVSPost2010PropOp34
 70
     1
102
RTVSPost2010Prop35
280
     0
102
RTVSPost2010PropOp35
 70
     1
102
RTVSPost2010Prop36
280
     0
102
RTVSPost2010PropOp36
 70
     1
102
RTVSPost2010Prop37
 90
       50
102
RTVSPost2010PropOp37
 70
     1
102
RTVSPost2010Prop38
140
0.0
102
RTVSPost2010PropOp38
 70
     1
102
RTVSPost2010Prop39
140
1.0
102
RTVSPost2010PropOp39
 70
     1
102
RTVSPost2010Prop40
 90
        0
102
RTVSPost2010PropOp40
 70
     1
102
RTVSPost2010Prop41ColorIndex
 90
       18
102
RTVSPost2010Prop41ColorRGB
 90
        0
102
RTVSPost2010PropOp41
 70
     1
102
RTVSPost2010Prop42
 90
       50
102
RTVSPost2010PropOp42
 70
     1
102
RTVSPost2010Prop43
 90
        3
102
RTVSPost2010PropOp43
 70
     1
102
RTVSPost2010Prop44ColorIndex
 90
        5
102
RTVSPost2010Prop44ColorRGB
 90
      255
102
RTVSPost2010PropOp44
 70
     1
102
RTVSPost2010Prop45
280
     0
102
RTVSPost2010PropOp45
 70
     1
102
RTVSPost2010Prop46
 90
       50
102
RTVSPost2010PropOp46
 70
     1
102
RTVSPost2010Prop47
 90
       50
102
RTVSPost2010PropOp47
 70
     1
102
RTVSPost2010Prop48
 90
       50
102
RTVSPost2010PropOp48
 70
     1
102
RTVSPost2010Prop49
280
     0
102
RTVSPost2010PropOp49
 70
     1
102
RTVSPost2010Prop50
 90
       50
102
RTVSPost2010PropOp50
 70
     1
102
RTVSPost2010Prop51ColorIndex
 90
      256
102
RTVSPost2010Prop51ColorRGB
 90
-16777216
102
RTVSPost2010PropOp51
 70
     0
102
RTVSPost2010Prop52
140
1.0
102
RTVSPost2010PropOp52
 70
     0
102
RTVSPost2010Prop53
 90
        2
102
RTVSPost2010PropOp53
 70
     1
102
RTVSPost2010Prop54
  1
strokes_ogs.tif
102
RTVSPost2010PropOp54
 70
     1
102
RTVSPost2010Prop55
280
     0
102
RTVSPost2010PropOp55
 70
     1
102
RTVSPost2010Prop56
140
1.0
102
RTVSPost2010PropOp56
 70
     1
102
RTVSPost2010Prop57
140
1.0
102
RTVSPost2010PropOp57
 70
     1
  0
XRECORD
  5
18C
102
{ACAD_REACTORS
330
18B
102
}
330
18B
100
AcDbXrecord
280
     1
102
RTVSPropertyOp0
 70
     1
102
RTVSPropertyOp1
 70
     1
102
RTVSPropertyOp2
 70
     1
102
RTVSPropertyOp3
 70
     1
102
RTVSPropertyOp4
 70
     1
102
RTVSPropertyOp5
 70
     1
102
RTVSPropertyOp6
 70
     1
102
RTVSPropertyOp7
 70
     1
102
RTVSPropertyOp8
 70
     1
102
RTVSPropertyOp9
 70
     1
102
RTVSPropertyOp10
 70
     1
102
RTVSPropertyOp11
 70
     1
102
RTVSPropertyOp12
 70
     1
102
RTVSPropertyOp13
 70
     1
102
RTVSPropertyOp14
 70
     1
102
RTVSPropertyOp15
 70
     1
102
RTVSPropertyOp16
 70
     1
102
RTVSPropertyOp17
 70
     1
102
RTVSPropertyOp18
 70
     1
102
RTVSPropertyOp19
 70
     1
102
RTVSPropertyOp20
 70
     1
102
RTVSPropertyOp21
 70
     1
102
RTVSPropertyOp22
 70
     1
102
RTVSPropertyOp23
 70
     1
102
RTVSPropertyOp24
 70
     1
102
RTVSPropertyOp25
 70
     1
102
RTVSPropertyOp26
 70
     1
102
RTVSPropertyOp27
 70
     1
102
RTVSPropertyOp28
 70
     1
102
RTVSPropertyOp29
 70
     1
102
RTVSPropertyOp30
 70
     1
102
RTVSPropertyOp31
 70
     1
102
RTVSPropertyOp32
 70
     1
102
RTVSPropertyOp33
 70
     1
102
RTVSPropertyOp34
 70
     1
102
RTVSPropertyOp35
 70
     1
102
RTVSPropertyOp36
 70
     1
102
RTVSPropertyOp37
 70
     1
102
RTVSPropertyOp38
 70
     1
102
RTVSPropertyOp39
 70
     1
102
RTVSPropertyOp40
 70
     1
102
RTVSPropertyOp41
 70
     1
102
RTVSPropertyOp42
 70
     1
102
RTVSPropertyOp43
 70
     1
102
RTVSPropertyOp44
 70
     1
102
RTVSPropertyOp45
 70
     1
102
RTVSPropertyOp46
 70
     1
102
RTVSPropertyOp47
 70
     1
102
RTVSPropertyOp48
 70
     1
102
RTVSPropertyOp49
 70
     1
102
RTVSPropertyOp50
 70
     1
102
RTVSPropertyOp51
 70
     0
102
RTVSPropertyOp52
 70
     0
102
RTVSPropertyOp53
 70
     1
102
RTVSPropertyOp54
 70
     1
102
RTVSPropertyOp55
 70
     1
102
RTVSPropertyOp56
 70
     1
102
RTVSPropertyOp57
 70
     1
102
RTVSPost2010Prop28
280
     0
102
RTVSPost2010PropOp28
 70
     1
102
RTVSPost2010Prop29
280
     1
102
RTVSPost2010PropOp29
 70
     1
102
RTVSPost2010Prop30
280
     1
102
RTVSPost2010PropOp30
 70
     1
102
RTVSPost2010Prop31
280
     0
102
RTVSPost2010PropOp31
 70
     1
102
RTVSPost2010Prop32
280
     0
102
RTVSPost2010PropOp32
 70
     1
102
RTVSPost2010Prop33
280
     0
102
RTVSPost2010PropOp33
 70
     1
102
RTVSPost2010Prop34
280
     0
102
RTVSPost2010PropOp34
 70
     1
102
RTVSPost2010Prop35
280
     0
102
RTVSPost2010PropOp35
 70
     1
102
RTVSPost2010Prop36
280
     0
102
RTVSPost2010PropOp36
 70
     1
102
RTVSPost2010Prop37
 90
       50
102
RTVSPost2010PropOp37
 70
     1
102
RTVSPost2010Prop38
140
0.0
102
RTVSPost2010PropOp38
 70
     1
102
RTVSPost2010Prop39
140
1.0
102
RTVSPost2010PropOp39
 70
     1
102
RTVSPost2010Prop40
 90
        0
102
RTVSPost2010PropOp40
 70
     1
102
RTVSPost2010Prop41ColorIndex
 90
       18
102
RTVSPost2010Prop41ColorRGB
 90
        0
102
RTVSPost2010PropOp41
 70
     1
102
RTVSPost2010Prop42
 90
       50
102
RTVSPost2010PropOp42
 70
     1
102
RTVSPost2010Prop43
 90
        3
102
RTVSPost2010PropOp43
 70
     1
102
RTVSPost2010Prop44ColorIndex
 90
        5
102
RTVSPost2010Prop44ColorRGB
 90
      255
102
RTVSPost2010PropOp44
 70
     1
102
RTVSPost2010Prop45
280
     0
102
RTVSPost2010PropOp45
 70
     1
102
RTVSPost2010Prop46
 90
       50
102
RTVSPost2010PropOp46
 70
     1
102
RTVSPost2010Prop47
 90
       50
102
RTVSPost2010PropOp47
 70
     1
102
RTVSPost2010Prop48
 90
       50
102
RTVSPost2010PropOp48
 70
     1
102
RTVSPost2010Prop49
280
     0
102
RTVSPost2010PropOp49
 70
     1
102
RTVSPost2010Prop50
 90
       50
102
RTVSPost2010PropOp50
 70
     1
102
RTVSPost2010Prop51ColorIndex
 90
      256
102
RTVSPost2010Prop51ColorRGB
 90
-16777216
102
RTVSPost2010PropOp51
 70
     0
102
RTVSPost2010Prop52
140
1.0
102
RTVSPost2010PropOp52
 70
     0
102
RTVSPost2010Prop53
 90
        2
102
RTVSPost2010PropOp53
 70
     1
102
RTVSPost2010Prop54
  1
strokes_ogs.tif
102
RTVSPost2010PropOp54
 70
     1
102
RTVSPost2010Prop55
280
     0
102
RTVSPost2010PropOp55
 70
     1
102
RTVSPost2010Prop56
140
1.0
102
RTVSPost2010PropOp56
 70
     1
102
RTVSPost2010Prop57
140
1.0
102
RTVSPost2010PropOp57
 70
     1
  0
XRECORD
  5
194
102
{ACAD_REACTORS
330
193
102
}
330
193
100
AcDbXrecord
280
     1
102
RTVSPropertyOp0
 70
     1
102
RTVSPropertyOp1
 70
     1
102
RTVSPropertyOp2
 70
     1
102
RTVSPropertyOp3
 70
     1
102
RTVSPropertyOp4
 70
     1
102
RTVSPropertyOp5
 70
     1
102
RTVSPropertyOp6
 70
     1
102
RTVSPropertyOp7
 70
     1
102
RTVSPropertyOp8
 70
     1
102
RTVSPropertyOp9
 70
     1
102
RTVSPropertyOp10
 70
     1
102
RTVSPropertyOp11
 70
     1
102
RTVSPropertyOp12
 70
     1
102
RTVSPropertyOp13
 70
     1
102
RTVSPropertyOp14
 70
     1
102
RTVSPropertyOp15
 70
     1
102
RTVSPropertyOp16
 70
     1
102
RTVSPropertyOp17
 70
     1
102
RTVSPropertyOp18
 70
     1
102
RTVSPropertyOp19
 70
     1
102
RTVSPropertyOp20
 70
     1
102
RTVSPropertyOp21
 70
     1
102
RTVSPropertyOp22
 70
     1
102
RTVSPropertyOp23
 70
     1
102
RTVSPropertyOp24
 70
     1
102
RTVSPropertyOp25
 70
     1
102
RTVSPropertyOp26
 70
     1
102
RTVSPropertyOp27
 70
     1
102
RTVSPropertyOp28
 70
     1
102
RTVSPropertyOp29
 70
     1
102
RTVSPropertyOp30
 70
     1
102
RTVSPropertyOp31
 70
     1
102
RTVSPropertyOp32
 70
     1
102
RTVSPropertyOp33
 70
     1
102
RTVSPropertyOp34
 70
     1
102
RTVSPropertyOp35
 70
     1
102
RTVSPropertyOp36
 70
     1
102
RTVSPropertyOp37
 70
     1
102
RTVSPropertyOp38
 70
     1
102
RTVSPropertyOp39
 70
     1
102
RTVSPropertyOp40
 70
     1
102
RTVSPropertyOp41
 70
     1
102
RTVSPropertyOp42
 70
     1
102
RTVSPropertyOp43
 70
     1
102
RTVSPropertyOp44
 70
     1
102
RTVSPropertyOp45
 70
     1
102
RTVSPropertyOp46
 70
     1
102
RTVSPropertyOp47
 70
     1
102
RTVSPropertyOp48
 70
     1
102
RTVSPropertyOp49
 70
     1
102
RTVSPropertyOp50
 70
     1
102
RTVSPropertyOp51
 70
     0
102
RTVSPropertyOp52
 70
     0
102
RTVSPropertyOp53
 70
     1
102
RTVSPropertyOp54
 70
     1
102
RTVSPropertyOp55
 70
     1
102
RTVSPropertyOp56
 70
     1
102
RTVSPropertyOp57
 70
     1
102
RTVSPost2010Prop28
280
     0
102
RTVSPost2010PropOp28
 70
     1
102
RTVSPost2010Prop29
280
     1
102
RTVSPost2010PropOp29
 70
     1
102
RTVSPost2010Prop30
280
     1
102
RTVSPost2010PropOp30
 70
     1
102
RTVSPost2010Prop31
280
     0
102
RTVSPost2010PropOp31
 70
     1
102
RTVSPost2010Prop32
280
     0
102
RTVSPost2010PropOp32
 70
     1
102
RTVSPost2010Prop33
280
     0
102
RTVSPost2010PropOp33
 70
     1
102
RTVSPost2010Prop34
280
     0
102
RTVSPost2010PropOp34
 70
     1
102
RTVSPost2010Prop35
280
     0
102
RTVSPost2010PropOp35
 70
     1
102
RTVSPost2010Prop36
280
     0
102
RTVSPost2010PropOp36
 70
     1
102
RTVSPost2010Prop37
 90
       50
102
RTVSPost2010PropOp37
 70
     1
102
RTVSPost2010Prop38
140
0.0
102
RTVSPost2010PropOp38
 70
     1
102
RTVSPost2010Prop39
140
1.0
102
RTVSPost2010PropOp39
 70
     1
102
RTVSPost2010Prop40
 90
        0
102
RTVSPost2010PropOp40
 70
     1
102
RTVSPost2010Prop41ColorIndex
 90
       18
102
RTVSPost2010Prop41ColorRGB
 90
        0
102
RTVSPost2010PropOp41
 70
     1
102
RTVSPost2010Prop42
 90
       50
102
RTVSPost2010PropOp42
 70
     1
102
RTVSPost2010Prop43
 90
        3
102
RTVSPost2010PropOp43
 70
     1
102
RTVSPost2010Prop44ColorIndex
 90
        5
102
RTVSPost2010Prop44ColorRGB
 90
      255
102
RTVSPost2010PropOp44
 70
     1
102
RTVSPost2010Prop45
280
     0
102
RTVSPost2010PropOp45
 70
     1
102
RTVSPost2010Prop46
 90
       50
102
RTVSPost2010PropOp46
 70
     1
102
RTVSPost2010Prop47
 90
       50
102
RTVSPost2010PropOp47
 70
     1
102
RTVSPost2010Prop48
 90
       50
102
RTVSPost2010PropOp48
 70
     1
102
RTVSPost2010Prop49
280
     0
102
RTVSPost2010PropOp49
 70
     1
102
RTVSPost2010Prop50
 90
       50
102
RTVSPost2010PropOp50
 70
     1
102
RTVSPost2010Prop51ColorIndex
 90
      256
102
RTVSPost2010Prop51ColorRGB
 90
-16777216
102
RTVSPost2010PropOp51
 70
     0
102
RTVSPost2010Prop52
140
1.0
102
RTVSPost2010PropOp52
 70
     0
102
RTVSPost2010Prop53
 90
        2
102
RTVSPost2010PropOp53
 70
     1
102
RTVSPost2010Prop54
  1
strokes_ogs.tif
102
RTVSPost2010PropOp54
 70
     1
102
RTVSPost2010Prop55
280
     0
102
RTVSPost2010PropOp55
 70
     1
102
RTVSPost2010Prop56
140
1.0
102
RTVSPost2010PropOp56
 70
     1
102
RTVSPost2010Prop57
140
1.0
102
RTVSPost2010PropOp57
 70
     1
  0
XRECORD
  5
188
102
{ACAD_REACTORS
330
187
102
}
330
187
100
AcDbXrecord
280
     1
102
RTVSPropertyOp0
 70
     1
102
RTVSPropertyOp1
 70
     1
102
RTVSPropertyOp2
 70
     1
102
RTVSPropertyOp3
 70
     1
102
RTVSPropertyOp4
 70
     1
102
RTVSPropertyOp5
 70
     1
102
RTVSPropertyOp6
 70
     1
102
RTVSPropertyOp7
 70
     1
102
RTVSPropertyOp8
 70
     1
102
RTVSPropertyOp9
 70
     1
102
RTVSPropertyOp10
 70
     1
102
RTVSPropertyOp11
 70
     1
102
RTVSPropertyOp12
 70
     1
102
RTVSPropertyOp13
 70
     1
102
RTVSPropertyOp14
 70
     1
102
RTVSPropertyOp15
 70
     1
102
RTVSPropertyOp16
 70
     1
102
RTVSPropertyOp17
 70
     1
102
RTVSPropertyOp18
 70
     1
102
RTVSPropertyOp19
 70
     1
102
RTVSPropertyOp20
 70
     1
102
RTVSPropertyOp21
 70
     1
102
RTVSPropertyOp22
 70
     1
102
RTVSPropertyOp23
 70
     1
102
RTVSPropertyOp24
 70
     1
102
RTVSPropertyOp25
 70
     1
102
RTVSPropertyOp26
 70
     1
102
RTVSPropertyOp27
 70
     1
102
RTVSPropertyOp28
 70
     1
102
RTVSPropertyOp29
 70
     1
102
RTVSPropertyOp30
 70
     1
102
RTVSPropertyOp31
 70
     1
102
RTVSPropertyOp32
 70
     1
102
RTVSPropertyOp33
 70
     1
102
RTVSPropertyOp34
 70
     1
102
RTVSPropertyOp35
 70
     1
102
RTVSPropertyOp36
 70
     1
102
RTVSPropertyOp37
 70
     1
102
RTVSPropertyOp38
 70
     1
102
RTVSPropertyOp39
 70
     1
102
RTVSPropertyOp40
 70
     1
102
RTVSPropertyOp41
 70
     1
102
RTVSPropertyOp42
 70
     1
102
RTVSPropertyOp43
 70
     1
102
RTVSPropertyOp44
 70
     1
102
RTVSPropertyOp45
 70
     1
102
RTVSPropertyOp46
 70
     1
102
RTVSPropertyOp47
 70
     1
102
RTVSPropertyOp48
 70
     1
102
RTVSPropertyOp49
 70
     1
102
RTVSPropertyOp50
 70
     1
102
RTVSPropertyOp51
 70
     0
102
RTVSPropertyOp52
 70
     0
102
RTVSPropertyOp53
 70
     1
102
RTVSPropertyOp54
 70
     1
102
RTVSPropertyOp55
 70
     1
102
RTVSPropertyOp56
 70
     1
102
RTVSPropertyOp57
 70
     1
102
RTVSPost2010Prop28
280
     0
102
RTVSPost2010PropOp28
 70
     1
102
RTVSPost2010Prop29
280
     1
102
RTVSPost2010PropOp29
 70
     1
102
RTVSPost2010Prop30
280
     1
102
RTVSPost2010PropOp30
 70
     1
102
RTVSPost2010Prop31
280
     0
102
RTVSPost2010PropOp31
 70
     1
102
RTVSPost2010Prop32
280
     0
102
RTVSPost2010PropOp32
 70
     1
102
RTVSPost2010Prop33
280
     0
102
RTVSPost2010PropOp33
 70
     1
102
RTVSPost2010Prop34
280
     0
102
RTVSPost2010PropOp34
 70
     1
102
RTVSPost2010Prop35
280
     0
102
RTVSPost2010PropOp35
 70
     1
102
RTVSPost2010Prop36
280
     0
102
RTVSPost2010PropOp36
 70
     1
102
RTVSPost2010Prop37
 90
       50
102
RTVSPost2010PropOp37
 70
     1
102
RTVSPost2010Prop38
140
0.0
102
RTVSPost2010PropOp38
 70
     1
102
RTVSPost2010Prop39
140
1.0
102
RTVSPost2010PropOp39
 70
     1
102
RTVSPost2010Prop40
 90
        0
102
RTVSPost2010PropOp40
 70
     1
102
RTVSPost2010Prop41ColorIndex
 90
       18
102
RTVSPost2010Prop41ColorRGB
 90
        0
102
RTVSPost2010PropOp41
 70
     1
102
RTVSPost2010Prop42
 90
       50
102
RTVSPost2010PropOp42
 70
     1
102
RTVSPost2010Prop43
 90
        3
102
RTVSPost2010PropOp43
 70
     1
102
RTVSPost2010Prop44ColorIndex
 90
        5
102
RTVSPost2010Prop44ColorRGB
 90
      255
102
RTVSPost2010PropOp44
 70
     1
102
RTVSPost2010Prop45
280
     0
102
RTVSPost2010PropOp45
 70
     1
102
RTVSPost2010Prop46
 90
       50
102
RTVSPost2010PropOp46
 70
     1
102
RTVSPost2010Prop47
 90
       50
102
RTVSPost2010PropOp47
 70
     1
102
RTVSPost2010Prop48
 90
       50
102
RTVSPost2010PropOp48
 70
     1
102
RTVSPost2010Prop49
280
     0
102
RTVSPost2010PropOp49
 70
     1
102
RTVSPost2010Prop50
 90
       50
102
RTVSPost2010PropOp50
 70
     1
102
RTVSPost2010Prop51ColorIndex
 90
      256
102
RTVSPost2010Prop51ColorRGB
 90
-16777216
102
RTVSPost2010PropOp51
 70
     0
102
RTVSPost2010Prop52
140
1.0
102
RTVSPost2010PropOp52
 70
     0
102
RTVSPost2010Prop53
 90
        2
102
RTVSPost2010PropOp53
 70
     1
102
RTVSPost2010Prop54
  1
strokes_ogs.tif
102
RTVSPost2010PropOp54
 70
     1
102
RTVSPost2010Prop55
280
     0
102
RTVSPost2010PropOp55
 70
     1
102
RTVSPost2010Prop56
140
1.0
102
RTVSPost2010PropOp56
 70
     1
102
RTVSPost2010Prop57
140
1.0
102
RTVSPost2010PropOp57
 70
     1
  0
XRECORD
  5
18A
102
{ACAD_REACTORS
330
189
102
}
330
189
100
AcDbXrecord
280
     1
102
RTVSPropertyOp0
 70
     1
102
RTVSPropertyOp1
 70
     1
102
RTVSPropertyOp2
 70
     1
102
RTVSPropertyOp3
 70
     1
102
RTVSPropertyOp4
 70
     1
102
RTVSPropertyOp5
 70
     1
102
RTVSPropertyOp6
 70
     1
102
RTVSPropertyOp7
 70
     1
102
RTVSPropertyOp8
 70
     1
102
RTVSPropertyOp9
 70
     1
102
RTVSPropertyOp10
 70
     1
102
RTVSPropertyOp11
 70
     1
102
RTVSPropertyOp12
 70
     1
102
RTVSPropertyOp13
 70
     1
102
RTVSPropertyOp14
 70
     1
102
RTVSPropertyOp15
 70
     1
102
RTVSPropertyOp16
 70
     1
102
RTVSPropertyOp17
 70
     1
102
RTVSPropertyOp18
 70
     1
102
RTVSPropertyOp19
 70
     1
102
RTVSPropertyOp20
 70
     1
102
RTVSPropertyOp21
 70
     1
102
RTVSPropertyOp22
 70
     1
102
RTVSPropertyOp23
 70
     1
102
RTVSPropertyOp24
 70
     1
102
RTVSPropertyOp25
 70
     1
102
RTVSPropertyOp26
 70
     1
102
RTVSPropertyOp27
 70
     1
102
RTVSPropertyOp28
 70
     1
102
RTVSPropertyOp29
 70
     1
102
RTVSPropertyOp30
 70
     1
102
RTVSPropertyOp31
 70
     1
102
RTVSPropertyOp32
 70
     1
102
RTVSPropertyOp33
 70
     1
102
RTVSPropertyOp34
 70
     1
102
RTVSPropertyOp35
 70
     1
102
RTVSPropertyOp36
 70
     1
102
RTVSPropertyOp37
 70
     1
102
RTVSPropertyOp38
 70
     1
102
RTVSPropertyOp39
 70
     1
102
RTVSPropertyOp40
 70
     1
102
RTVSPropertyOp41
 70
     1
102
RTVSPropertyOp42
 70
     1
102
RTVSPropertyOp43
 70
     1
102
RTVSPropertyOp44
 70
     1
102
RTVSPropertyOp45
 70
     1
102
RTVSPropertyOp46
 70
     1
102
RTVSPropertyOp47
 70
     1
102
RTVSPropertyOp48
 70
     1
102
RTVSPropertyOp49
 70
     1
102
RTVSPropertyOp50
 70
     1
102
RTVSPropertyOp51
 70
     0
102
RTVSPropertyOp52
 70
     0
102
RTVSPropertyOp53
 70
     1
102
RTVSPropertyOp54
 70
     1
102
RTVSPropertyOp55
 70
     1
102
RTVSPropertyOp56
 70
     1
102
RTVSPropertyOp57
 70
     1
102
RTVSPost2010Prop28
280
     0
102
RTVSPost2010PropOp28
 70
     1
102
RTVSPost2010Prop29
280
     1
102
RTVSPost2010PropOp29
 70
     1
102
RTVSPost2010Prop30
280
     1
102
RTVSPost2010PropOp30
 70
     1
102
RTVSPost2010Prop31
280
     0
102
RTVSPost2010PropOp31
 70
     1
102
RTVSPost2010Prop32
280
     0
102
RTVSPost2010PropOp32
 70
     1
102
RTVSPost2010Prop33
280
     0
102
RTVSPost2010PropOp33
 70
     1
102
RTVSPost2010Prop34
280
     0
102
RTVSPost2010PropOp34
 70
     1
102
RTVSPost2010Prop35
280
     0
102
RTVSPost2010PropOp35
 70
     1
102
RTVSPost2010Prop36
280
     0
102
RTVSPost2010PropOp36
 70
     1
102
RTVSPost2010Prop37
 90
       50
102
RTVSPost2010PropOp37
 70
     1
102
RTVSPost2010Prop38
140
0.0
102
RTVSPost2010PropOp38
 70
     1
102
RTVSPost2010Prop39
140
1.0
102
RTVSPost2010PropOp39
 70
     1
102
RTVSPost2010Prop40
 90
        0
102
RTVSPost2010PropOp40
 70
     1
102
RTVSPost2010Prop41ColorIndex
 90
       18
102
RTVSPost2010Prop41ColorRGB
 90
        0
102
RTVSPost2010PropOp41
 70
     1
102
RTVSPost2010Prop42
 90
       50
102
RTVSPost2010PropOp42
 70
     1
102
RTVSPost2010Prop43
 90
        3
102
RTVSPost2010PropOp43
 70
     1
102
RTVSPost2010Prop44ColorIndex
 90
        5
102
RTVSPost2010Prop44ColorRGB
 90
      255
102
RTVSPost2010PropOp44
 70
     1
102
RTVSPost2010Prop45
280
     0
102
RTVSPost2010PropOp45
 70
     1
102
RTVSPost2010Prop46
 90
       50
102
RTVSPost2010PropOp46
 70
     1
102
RTVSPost2010Prop47
 90
       50
102
RTVSPost2010PropOp47
 70
     1
102
RTVSPost2010Prop48
 90
       50
102
RTVSPost2010PropOp48
 70
     1
102
RTVSPost2010Prop49
280
     0
102
RTVSPost2010PropOp49
 70
     1
102
RTVSPost2010Prop50
 90
       50
102
RTVSPost2010PropOp50
 70
     1
102
RTVSPost2010Prop51ColorIndex
 90
      256
102
RTVSPost2010Prop51ColorRGB
 90
-16777216
102
RTVSPost2010PropOp51
 70
     0
102
RTVSPost2010Prop52
140
1.0
102
RTVSPost2010PropOp52
 70
     0
102
RTVSPost2010Prop53
 90
        2
102
RTVSPost2010PropOp53
 70
     1
102
RTVSPost2010Prop54
  1
strokes_ogs.tif
102
RTVSPost2010PropOp54
 70
     1
102
RTVSPost2010Prop55
280
     0
102
RTVSPost2010PropOp55
 70
     1
102
RTVSPost2010Prop56
140
1.0
102
RTVSPost2010PropOp56
 70
     1
102
RTVSPost2010Prop57
140
1.0
102
RTVSPost2010PropOp57
 70
     1
  0
XRECORD
  5
19A
102
{ACAD_REACTORS
330
199
102
}
330
199
100
AcDbXrecord
280
     1
102
RTVSPropertyOp0
 70
     0
102
RTVSPropertyOp1
 70
     0
102
RTVSPropertyOp2
 70
     0
102
RTVSPropertyOp3
 70
     0
102
RTVSPropertyOp4
 70
     0
102
RTVSPropertyOp5
 70
     0
102
RTVSPropertyOp6
 70
     0
102
RTVSPropertyOp7
 70
     0
102
RTVSPropertyOp8
 70
     0
102
RTVSPropertyOp9
 70
     0
102
RTVSPropertyOp10
 70
     0
102
RTVSPropertyOp11
 70
     0
102
RTVSPropertyOp12
 70
     0
102
RTVSPropertyOp13
 70
     0
102
RTVSPropertyOp14
 70
     2
102
RTVSPropertyOp15
 70
     0
102
RTVSPropertyOp16
 70
     0
102
RTVSPropertyOp17
 70
     0
102
RTVSPropertyOp18
 70
     0
102
RTVSPropertyOp19
 70
     0
102
RTVSPropertyOp20
 70
     0
102
RTVSPropertyOp21
 70
     0
102
RTVSPropertyOp22
 70
     0
102
RTVSPropertyOp23
 70
     0
102
RTVSPropertyOp24
 70
     0
102
RTVSPropertyOp25
 70
     0
102
RTVSPropertyOp26
 70
     0
102
RTVSPropertyOp27
 70
     0
102
RTVSPropertyOp28
 70
     0
102
RTVSPropertyOp29
 70
     0
102
RTVSPropertyOp30
 70
     0
102
RTVSPropertyOp31
 70
     0
102
RTVSPropertyOp32
 70
     0
102
RTVSPropertyOp33
 70
     0
102
RTVSPropertyOp34
 70
     0
102
RTVSPropertyOp35
 70
     0
102
RTVSPropertyOp36
 70
     0
102
RTVSPropertyOp37
 70
     0
102
RTVSPropertyOp38
 70
     0
102
RTVSPropertyOp39
 70
     0
102
RTVSPropertyOp40
 70
     0
102
RTVSPropertyOp41
 70
     0
102
RTVSPropertyOp42
 70
     0
102
RTVSPropertyOp43
 70
     0
102
RTVSPropertyOp44
 70
     0
102
RTVSPropertyOp45
 70
     0
102
RTVSPropertyOp46
 70
     0
102
RTVSPropertyOp47
 70
     0
102
RTVSPropertyOp48
 70
     0
102
RTVSPropertyOp49
 70
     0
102
RTVSPropertyOp50
 70
     0
102
RTVSPropertyOp51
 70
     0
102
RTVSPropertyOp52
 70
     0
102
RTVSPropertyOp53
 70
     0
102
RTVSPropertyOp54
 70
     0
102
RTVSPropertyOp55
 70
     0
102
RTVSPropertyOp56
 70
     0
102
RTVSPropertyOp57
 70
     0
102
RTVSPost2010Prop28
280
     0
102
RTVSPost2010PropOp28
 70
     0
102
RTVSPost2010Prop29
280
     1
102
RTVSPost2010PropOp29
 70
     0
102
RTVSPost2010Prop30
280
     1
102
RTVSPost2010PropOp30
 70
     0
102
RTVSPost2010Prop31
280
     0
102
RTVSPost2010PropOp31
 70
     0
102
RTVSPost2010Prop32
280
     0
102
RTVSPost2010PropOp32
 70
     0
102
RTVSPost2010Prop33
280
     0
102
RTVSPost2010PropOp33
 70
     0
102
RTVSPost2010Prop34
280
     0
102
RTVSPost2010PropOp34
 70
     0
102
RTVSPost2010Prop35
280
     0
102
RTVSPost2010PropOp35
 70
     0
102
RTVSPost2010Prop36
280
     0
102
RTVSPost2010PropOp36
 70
     0
102
RTVSPost2010Prop37
 90
       50
102
RTVSPost2010PropOp37
 70
     0
102
RTVSPost2010Prop38
140
0.0
102
RTVSPost2010PropOp38
 70
     0
102
RTVSPost2010Prop39
140
1.0
102
RTVSPost2010PropOp39
 70
     0
102
RTVSPost2010Prop40
 90
        0
102
RTVSPost2010PropOp40
 70
     0
102
RTVSPost2010Prop41ColorIndex
 90
       18
102
RTVSPost2010Prop41ColorRGB
 90
        0
102
RTVSPost2010PropOp41
 70
     0
102
RTVSPost2010Prop42
 90
       50
102
RTVSPost2010PropOp42
 70
     0
102
RTVSPost2010Prop43
 90
        3
102
RTVSPost2010PropOp43
 70
     0
102
RTVSPost2010Prop44ColorIndex
 90
        5
102
RTVSPost2010Prop44ColorRGB
 90
      255
102
RTVSPost2010PropOp44
 70
     0
102
RTVSPost2010Prop45
280
     0
102
RTVSPost2010PropOp45
 70
     0
102
RTVSPost2010Prop46
 90
       50
102
RTVSPost2010PropOp46
 70
     0
102
RTVSPost2010Prop47
 90
       50
102
RTVSPost2010PropOp47
 70
     0
102
RTVSPost2010Prop48
 90
       50
102
RTVSPost2010PropOp48
 70
     0
102
RTVSPost2010Prop49
280
     0
102
RTVSPost2010PropOp49
 70
     0
102
RTVSPost2010Prop50
 90
       50
102
RTVSPost2010PropOp50
 70
     0
102
RTVSPost2010Prop51ColorIndex
 90
      256
102
RTVSPost2010Prop51ColorRGB
 90
-16777216
102
RTVSPost2010PropOp51
 70
     0
102
RTVSPost2010Prop52
140
1.0
102
RTVSPost2010PropOp52
 70
     0
102
RTVSPost2010Prop53
 90
        2
102
RTVSPost2010PropOp53
 70
     0
102
RTVSPost2010Prop54
  1
strokes_ogs.tif
102
RTVSPost2010PropOp54
 70
     0
102
RTVSPost2010Prop55
280
     0
102
RTVSPost2010PropOp55
 70
     0
102
RTVSPost2010Prop56
140
1.0
102
RTVSPost2010PropOp56
 70
     0
102
RTVSPost2010Prop57
140
1.0
102
RTVSPost2010PropOp57
 70
     0
  0
XRECORD
  5
192
102
{ACAD_REACTORS
330
191
102
}
330
191
100
AcDbXrecord
280
     1
102
RTVSPropertyOp0
 70
     1
102
RTVSPropertyOp1
 70
     1
102
RTVSPropertyOp2
 70
     1
102
RTVSPropertyOp3
 70
     1
102
RTVSPropertyOp4
 70
     1
102
RTVSPropertyOp5
 70
     1
102
RTVSPropertyOp6
 70
     1
102
RTVSPropertyOp7
 70
     1
102
RTVSPropertyOp8
 70
     1
102
RTVSPropertyOp9
 70
     1
102
RTVSPropertyOp10
 70
     1
102
RTVSPropertyOp11
 70
     1
102
RTVSPropertyOp12
 70
     1
102
RTVSPropertyOp13
 70
     1
102
RTVSPropertyOp14
 70
     1
102
RTVSPropertyOp15
 70
     1
102
RTVSPropertyOp16
 70
     1
102
RTVSPropertyOp17
 70
     1
102
RTVSPropertyOp18
 70
     1
102
RTVSPropertyOp19
 70
     1
102
RTVSPropertyOp20
 70
     1
102
RTVSPropertyOp21
 70
     1
102
RTVSPropertyOp22
 70
     1
102
RTVSPropertyOp23
 70
     1
102
RTVSPropertyOp24
 70
     1
102
RTVSPropertyOp25
 70
     1
102
RTVSPropertyOp26
 70
     1
102
RTVSPropertyOp27
 70
     1
102
RTVSPropertyOp28
 70
     1
102
RTVSPropertyOp29
 70
     1
102
RTVSPropertyOp30
 70
     1
102
RTVSPropertyOp31
 70
     1
102
RTVSPropertyOp32
 70
     1
102
RTVSPropertyOp33
 70
     1
102
RTVSPropertyOp34
 70
     1
102
RTVSPropertyOp35
 70
     1
102
RTVSPropertyOp36
 70
     1
102
RTVSPropertyOp37
 70
     1
102
RTVSPropertyOp38
 70
     1
102
RTVSPropertyOp39
 70
     1
102
RTVSPropertyOp40
 70
     1
102
RTVSPropertyOp41
 70
     1
102
RTVSPropertyOp42
 70
     1
102
RTVSPropertyOp43
 70
     1
102
RTVSPropertyOp44
 70
     1
102
RTVSPropertyOp45
 70
     1
102
RTVSPropertyOp46
 70
     1
102
RTVSPropertyOp47
 70
     1
102
RTVSPropertyOp48
 70
     1
102
RTVSPropertyOp49
 70
     1
102
RTVSPropertyOp50
 70
     1
102
RTVSPropertyOp51
 70
     0
102
RTVSPropertyOp52
 70
     0
102
RTVSPropertyOp53
 70
     1
102
RTVSPropertyOp54
 70
     1
102
RTVSPropertyOp55
 70
     1
102
RTVSPropertyOp56
 70
     1
102
RTVSPropertyOp57
 70
     1
102
RTVSPost2010Prop28
280
     0
102
RTVSPost2010PropOp28
 70
     1
102
RTVSPost2010Prop29
280
     1
102
RTVSPost2010PropOp29
 70
     1
102
RTVSPost2010Prop30
280
     1
102
RTVSPost2010PropOp30
 70
     1
102
RTVSPost2010Prop31
280
     0
102
RTVSPost2010PropOp31
 70
     1
102
RTVSPost2010Prop32
280
     0
102
RTVSPost2010PropOp32
 70
     1
102
RTVSPost2010Prop33
280
     0
102
RTVSPost2010PropOp33
 70
     1
102
RTVSPost2010Prop34
280
     0
102
RTVSPost2010PropOp34
 70
     1
102
RTVSPost2010Prop35
280
     0
102
RTVSPost2010PropOp35
 70
     1
102
RTVSPost2010Prop36
280
     0
102
RTVSPost2010PropOp36
 70
     1
102
RTVSPost2010Prop37
 90
       50
102
RTVSPost2010PropOp37
 70
     1
102
RTVSPost2010Prop38
140
0.0
102
RTVSPost2010PropOp38
 70
     1
102
RTVSPost2010Prop39
140
1.0
102
RTVSPost2010PropOp39
 70
     1
102
RTVSPost2010Prop40
 90
        0
102
RTVSPost2010PropOp40
 70
     1
102
RTVSPost2010Prop41ColorIndex
 90
       18
102
RTVSPost2010Prop41ColorRGB
 90
        0
102
RTVSPost2010PropOp41
 70
     1
102
RTVSPost2010Prop42
 90
       50
102
RTVSPost2010PropOp42
 70
     1
102
RTVSPost2010Prop43
 90
        3
102
RTVSPost2010PropOp43
 70
     1
102
RTVSPost2010Prop44ColorIndex
 90
        5
102
RTVSPost2010Prop44ColorRGB
 90
      255
102
RTVSPost2010PropOp44
 70
     1
102
RTVSPost2010Prop45
280
     0
102
RTVSPost2010PropOp45
 70
     1
102
RTVSPost2010Prop46
 90
       50
102
RTVSPost2010PropOp46
 70
     1
102
RTVSPost2010Prop47
 90
       50
102
RTVSPost2010PropOp47
 70
     1
102
RTVSPost2010Prop48
 90
       50
102
RTVSPost2010PropOp48
 70
     1
102
RTVSPost2010Prop49
280
     0
102
RTVSPost2010PropOp49
 70
     1
102
RTVSPost2010Prop50
 90
       50
102
RTVSPost2010PropOp50
 70
     1
102
RTVSPost2010Prop51ColorIndex
 90
      256
102
RTVSPost2010Prop51ColorRGB
 90
-16777216
102
RTVSPost2010PropOp51
 70
     0
102
RTVSPost2010Prop52
140
1.0
102
RTVSPost2010PropOp52
 70
     0
102
RTVSPost2010Prop53
 90
        2
102
RTVSPost2010PropOp53
 70
     1
102
RTVSPost2010Prop54
  1
strokes_ogs.tif
102
RTVSPost2010PropOp54
 70
     1
102
RTVSPost2010Prop55
280
     0
102
RTVSPost2010PropOp55
 70
     1
102
RTVSPost2010Prop56
140
1.0
102
RTVSPost2010PropOp56
 70
     1
102
RTVSPost2010Prop57
140
1.0
102
RTVSPost2010PropOp57
 70
     1
  0
XRECORD
  5
176
102
{ACAD_REACTORS
330
175
102
}
330
175
100
AcDbXrecord
280
     1
102
RTVSPropertyOp0
 70
     1
102
RTVSPropertyOp1
 70
     1
102
RTVSPropertyOp2
 70
     1
102
RTVSPropertyOp3
 70
     1
102
RTVSPropertyOp4
 70
     1
102
RTVSPropertyOp5
 70
     1
102
RTVSPropertyOp6
 70
     1
102
RTVSPropertyOp7
 70
     1
102
RTVSPropertyOp8
 70
     1
102
RTVSPropertyOp9
 70
     1
102
RTVSPropertyOp10
 70
     1
102
RTVSPropertyOp11
 70
     1
102
RTVSPropertyOp12
 70
     1
102
RTVSPropertyOp13
 70
     1
102
RTVSPropertyOp14
 70
     1
102
RTVSPropertyOp15
 70
     1
102
RTVSPropertyOp16
 70
     1
102
RTVSPropertyOp17
 70
     1
102
RTVSPropertyOp18
 70
     1
102
RTVSPropertyOp19
 70
     1
102
RTVSPropertyOp20
 70
     1
102
RTVSPropertyOp21
 70
     1
102
RTVSPropertyOp22
 70
     1
102
RTVSPropertyOp23
 70
     1
102
RTVSPropertyOp24
 70
     1
102
RTVSPropertyOp25
 70
     1
102
RTVSPropertyOp26
 70
     1
102
RTVSPropertyOp27
 70
     1
102
RTVSPropertyOp28
 70
     1
102
RTVSPropertyOp29
 70
     1
102
RTVSPropertyOp30
 70
     1
102
RTVSPropertyOp31
 70
     1
102
RTVSPropertyOp32
 70
     1
102
RTVSPropertyOp33
 70
     1
102
RTVSPropertyOp34
 70
     1
102
RTVSPropertyOp35
 70
     1
102
RTVSPropertyOp36
 70
     1
102
RTVSPropertyOp37
 70
     1
102
RTVSPropertyOp38
 70
     1
102
RTVSPropertyOp39
 70
     1
102
RTVSPropertyOp40
 70
     1
102
RTVSPropertyOp41
 70
     1
102
RTVSPropertyOp42
 70
     1
102
RTVSPropertyOp43
 70
     1
102
RTVSPropertyOp44
 70
     1
102
RTVSPropertyOp45
 70
     1
102
RTVSPropertyOp46
 70
     1
102
RTVSPropertyOp47
 70
     1
102
RTVSPropertyOp48
 70
     1
102
RTVSPropertyOp49
 70
     1
102
RTVSPropertyOp50
 70
     1
102
RTVSPropertyOp51
 70
     0
102
RTVSPropertyOp52
 70
     0
102
RTVSPropertyOp53
 70
     1
102
RTVSPropertyOp54
 70
     1
102
RTVSPropertyOp55
 70
     1
102
RTVSPropertyOp56
 70
     1
102
RTVSPropertyOp57
 70
     1
102
RTVSPost2010Prop28
280
     0
102
RTVSPost2010PropOp28
 70
     1
102
RTVSPost2010Prop29
280
     1
102
RTVSPost2010PropOp29
 70
     1
102
RTVSPost2010Prop30
280
     1
102
RTVSPost2010PropOp30
 70
     1
102
RTVSPost2010Prop31
280
     0
102
RTVSPost2010PropOp31
 70
     1
102
RTVSPost2010Prop32
280
     0
102
RTVSPost2010PropOp32
 70
     1
102
RTVSPost2010Prop33
280
     0
102
RTVSPost2010PropOp33
 70
     1
102
RTVSPost2010Prop34
280
     0
102
RTVSPost2010PropOp34
 70
     1
102
RTVSPost2010Prop35
280
     0
102
RTVSPost2010PropOp35
 70
     1
102
RTVSPost2010Prop36
280
     0
102
RTVSPost2010PropOp36
 70
     1
102
RTVSPost2010Prop37
 90
       50
102
RTVSPost2010PropOp37
 70
     1
102
RTVSPost2010Prop38
140
0.0
102
RTVSPost2010PropOp38
 70
     1
102
RTVSPost2010Prop39
140
1.0
102
RTVSPost2010PropOp39
 70
     1
102
RTVSPost2010Prop40
 90
        0
102
RTVSPost2010PropOp40
 70
     1
102
RTVSPost2010Prop41ColorIndex
 90
       18
102
RTVSPost2010Prop41ColorRGB
 90
        0
102
RTVSPost2010PropOp41
 70
     1
102
RTVSPost2010Prop42
 90
       50
102
RTVSPost2010PropOp42
 70
     1
102
RTVSPost2010Prop43
 90
        3
102
RTVSPost2010PropOp43
 70
     1
102
RTVSPost2010Prop44ColorIndex
 90
        5
102
RTVSPost2010Prop44ColorRGB
 90
      255
102
RTVSPost2010PropOp44
 70
     1
102
RTVSPost2010Prop45
280
     0
102
RTVSPost2010PropOp45
 70
     1
102
RTVSPost2010Prop46
 90
       50
102
RTVSPost2010PropOp46
 70
     1
102
RTVSPost2010Prop47
 90
       50
102
RTVSPost2010PropOp47
 70
     1
102
RTVSPost2010Prop48
 90
       50
102
RTVSPost2010PropOp48
 70
     1
102
RTVSPost2010Prop49
280
     0
102
RTVSPost2010PropOp49
 70
     1
102
RTVSPost2010Prop50
 90
       50
102
RTVSPost2010PropOp50
 70
     1
102
RTVSPost2010Prop51ColorIndex
 90
      256
102
RTVSPost2010Prop51ColorRGB
 90
-16777216
102
RTVSPost2010PropOp51
 70
     0
102
RTVSPost2010Prop52
140
1.0
102
RTVSPost2010PropOp52
 70
     0
102
RTVSPost2010Prop53
 90
        2
102
RTVSPost2010PropOp53
 70
     1
102
RTVSPost2010Prop54
  1
strokes_ogs.tif
102
RTVSPost2010PropOp54
 70
     1
102
RTVSPost2010Prop55
280
     0
102
RTVSPost2010PropOp55
 70
     1
102
RTVSPost2010Prop56
140
1.0
102
RTVSPost2010PropOp56
 70
     1
102
RTVSPost2010Prop57
140
1.0
102
RTVSPost2010PropOp57
 70
     1
  0
XRECORD
  5
178
102
{ACAD_REACTORS
330
177
102
}
330
177
100
AcDbXrecord
280
     1
102
RTVSPropertyOp0
 70
     1
102
RTVSPropertyOp1
 70
     1
102
RTVSPropertyOp2
 70
     1
102
RTVSPropertyOp3
 70
     1
102
RTVSPropertyOp4
 70
     1
102
RTVSPropertyOp5
 70
     1
102
RTVSPropertyOp6
 70
     1
102
RTVSPropertyOp7
 70
     1
102
RTVSPropertyOp8
 70
     1
102
RTVSPropertyOp9
 70
     1
102
RTVSPropertyOp10
 70
     1
102
RTVSPropertyOp11
 70
     1
102
RTVSPropertyOp12
 70
     1
102
RTVSPropertyOp13
 70
     1
102
RTVSPropertyOp14
 70
     1
102
RTVSPropertyOp15
 70
     1
102
RTVSPropertyOp16
 70
     1
102
RTVSPropertyOp17
 70
     1
102
RTVSPropertyOp18
 70
     1
102
RTVSPropertyOp19
 70
     1
102
RTVSPropertyOp20
 70
     1
102
RTVSPropertyOp21
 70
     1
102
RTVSPropertyOp22
 70
     1
102
RTVSPropertyOp23
 70
     1
102
RTVSPropertyOp24
 70
     1
102
RTVSPropertyOp25
 70
     1
102
RTVSPropertyOp26
 70
     1
102
RTVSPropertyOp27
 70
     1
102
RTVSPropertyOp28
 70
     1
102
RTVSPropertyOp29
 70
     1
102
RTVSPropertyOp30
 70
     1
102
RTVSPropertyOp31
 70
     1
102
RTVSPropertyOp32
 70
     1
102
RTVSPropertyOp33
 70
     1
102
RTVSPropertyOp34
 70
     1
102
RTVSPropertyOp35
 70
     1
102
RTVSPropertyOp36
 70
     1
102
RTVSPropertyOp37
 70
     1
102
RTVSPropertyOp38
 70
     1
102
RTVSPropertyOp39
 70
     1
102
RTVSPropertyOp40
 70
     1
102
RTVSPropertyOp41
 70
     1
102
RTVSPropertyOp42
 70
     1
102
RTVSPropertyOp43
 70
     1
102
RTVSPropertyOp44
 70
     1
102
RTVSPropertyOp45
 70
     1
102
RTVSPropertyOp46
 70
     1
102
RTVSPropertyOp47
 70
     1
102
RTVSPropertyOp48
 70
     1
102
RTVSPropertyOp49
 70
     1
102
RTVSPropertyOp50
 70
     1
102
RTVSPropertyOp51
 70
     0
102
RTVSPropertyOp52
 70
     0
102
RTVSPropertyOp53
 70
     1
102
RTVSPropertyOp54
 70
     1
102
RTVSPropertyOp55
 70
     1
102
RTVSPropertyOp56
 70
     1
102
RTVSPropertyOp57
 70
     1
102
RTVSPost2010Prop28
280
     0
102
RTVSPost2010PropOp28
 70
     1
102
RTVSPost2010Prop29
280
     1
102
RTVSPost2010PropOp29
 70
     1
102
RTVSPost2010Prop30
280
     1
102
RTVSPost2010PropOp30
 70
     1
102
RTVSPost2010Prop31
280
     0
102
RTVSPost2010PropOp31
 70
     1
102
RTVSPost2010Prop32
280
     0
102
RTVSPost2010PropOp32
 70
     1
102
RTVSPost2010Prop33
280
     0
102
RTVSPost2010PropOp33
 70
     1
102
RTVSPost2010Prop34
280
     0
102
RTVSPost2010PropOp34
 70
     1
102
RTVSPost2010Prop35
280
     0
102
RTVSPost2010PropOp35
 70
     1
102
RTVSPost2010Prop36
280
     0
102
RTVSPost2010PropOp36
 70
     1
102
RTVSPost2010Prop37
 90
       50
102
RTVSPost2010PropOp37
 70
     1
102
RTVSPost2010Prop38
140
0.0
102
RTVSPost2010PropOp38
 70
     1
102
RTVSPost2010Prop39
140
1.0
102
RTVSPost2010PropOp39
 70
     1
102
RTVSPost2010Prop40
 90
        0
102
RTVSPost2010PropOp40
 70
     1
102
RTVSPost2010Prop41ColorIndex
 90
       18
102
RTVSPost2010Prop41ColorRGB
 90
        0
102
RTVSPost2010PropOp41
 70
     1
102
RTVSPost2010Prop42
 90
       50
102
RTVSPost2010PropOp42
 70
     1
102
RTVSPost2010Prop43
 90
        3
102
RTVSPost2010PropOp43
 70
     1
102
RTVSPost2010Prop44ColorIndex
 90
        5
102
RTVSPost2010Prop44ColorRGB
 90
      255
102
RTVSPost2010PropOp44
 70
     1
102
RTVSPost2010Prop45
280
     0
102
RTVSPost2010PropOp45
 70
     1
102
RTVSPost2010Prop46
 90
       50
102
RTVSPost2010PropOp46
 70
     1
102
RTVSPost2010Prop47
 90
       50
102
RTVSPost2010PropOp47
 70
     1
102
RTVSPost2010Prop48
 90
       50
102
RTVSPost2010PropOp48
 70
     1
102
RTVSPost2010Prop49
280
     0
102
RTVSPost2010PropOp49
 70
     1
102
RTVSPost2010Prop50
 90
       50
102
RTVSPost2010PropOp50
 70
     1
102
RTVSPost2010Prop51ColorIndex
 90
      256
102
RTVSPost2010Prop51ColorRGB
 90
-16777216
102
RTVSPost2010PropOp51
 70
     0
102
RTVSPost2010Prop52
140
1.0
102
RTVSPost2010PropOp52
 70
     0
102
RTVSPost2010Prop53
 90
        2
102
RTVSPost2010PropOp53
 70
     1
102
RTVSPost2010Prop54
  1
strokes_ogs.tif
102
RTVSPost2010PropOp54
 70
     1
102
RTVSPost2010Prop55
280
     0
102
RTVSPost2010PropOp55
 70
     1
102
RTVSPost2010Prop56
140
1.0
102
RTVSPost2010PropOp56
 70
     1
102
RTVSPost2010Prop57
140
1.0
102
RTVSPost2010PropOp57
 70
     1
  0
XRECORD
  5
17A
102
{ACAD_REACTORS
330
179
102
}
330
179
100
AcDbXrecord
280
     1
102
RTVSPropertyOp0
 70
     1
102
RTVSPropertyOp1
 70
     1
102
RTVSPropertyOp2
 70
     1
102
RTVSPropertyOp3
 70
     1
102
RTVSPropertyOp4
 70
     1
102
RTVSPropertyOp5
 70
     1
102
RTVSPropertyOp6
 70
     1
102
RTVSPropertyOp7
 70
     1
102
RTVSPropertyOp8
 70
     1
102
RTVSPropertyOp9
 70
     1
102
RTVSPropertyOp10
 70
     1
102
RTVSPropertyOp11
 70
     1
102
RTVSPropertyOp12
 70
     1
102
RTVSPropertyOp13
 70
     1
102
RTVSPropertyOp14
 70
     1
102
RTVSPropertyOp15
 70
     1
102
RTVSPropertyOp16
 70
     1
102
RTVSPropertyOp17
 70
     1
102
RTVSPropertyOp18
 70
     1
102
RTVSPropertyOp19
 70
     1
102
RTVSPropertyOp20
 70
     1
102
RTVSPropertyOp21
 70
     1
102
RTVSPropertyOp22
 70
     1
102
RTVSPropertyOp23
 70
     1
102
RTVSPropertyOp24
 70
     1
102
RTVSPropertyOp25
 70
     1
102
RTVSPropertyOp26
 70
     1
102
RTVSPropertyOp27
 70
     1
102
RTVSPropertyOp28
 70
     1
102
RTVSPropertyOp29
 70
     1
102
RTVSPropertyOp30
 70
     1
102
RTVSPropertyOp31
 70
     1
102
RTVSPropertyOp32
 70
     1
102
RTVSPropertyOp33
 70
     1
102
RTVSPropertyOp34
 70
     1
102
RTVSPropertyOp35
 70
     1
102
RTVSPropertyOp36
 70
     1
102
RTVSPropertyOp37
 70
     1
102
RTVSPropertyOp38
 70
     1
102
RTVSPropertyOp39
 70
     1
102
RTVSPropertyOp40
 70
     1
102
RTVSPropertyOp41
 70
     1
102
RTVSPropertyOp42
 70
     1
102
RTVSPropertyOp43
 70
     1
102
RTVSPropertyOp44
 70
     1
102
RTVSPropertyOp45
 70
     1
102
RTVSPropertyOp46
 70
     1
102
RTVSPropertyOp47
 70
     1
102
RTVSPropertyOp48
 70
     1
102
RTVSPropertyOp49
 70
     1
102
RTVSPropertyOp50
 70
     1
102
RTVSPropertyOp51
 70
     0
102
RTVSPropertyOp52
 70
     0
102
RTVSPropertyOp53
 70
     1
102
RTVSPropertyOp54
 70
     1
102
RTVSPropertyOp55
 70
     1
102
RTVSPropertyOp56
 70
     1
102
RTVSPropertyOp57
 70
     1
102
RTVSPost2010Prop28
280
     0
102
RTVSPost2010PropOp28
 70
     1
102
RTVSPost2010Prop29
280
     1
102
RTVSPost2010PropOp29
 70
     1
102
RTVSPost2010Prop30
280
     1
102
RTVSPost2010PropOp30
 70
     1
102
RTVSPost2010Prop31
280
     0
102
RTVSPost2010PropOp31
 70
     1
102
RTVSPost2010Prop32
280
     0
102
RTVSPost2010PropOp32
 70
     1
102
RTVSPost2010Prop33
280
     0
102
RTVSPost2010PropOp33
 70
     1
102
RTVSPost2010Prop34
280
     0
102
RTVSPost2010PropOp34
 70
     1
102
RTVSPost2010Prop35
280
     0
102
RTVSPost2010PropOp35
 70
     1
102
RTVSPost2010Prop36
280
     0
102
RTVSPost2010PropOp36
 70
     1
102
RTVSPost2010Prop37
 90
       50
102
RTVSPost2010PropOp37
 70
     1
102
RTVSPost2010Prop38
140
0.0
102
RTVSPost2010PropOp38
 70
     1
102
RTVSPost2010Prop39
140
1.0
102
RTVSPost2010PropOp39
 70
     1
102
RTVSPost2010Prop40
 90
        0
102
RTVSPost2010PropOp40
 70
     1
102
RTVSPost2010Prop41ColorIndex
 90
       18
102
RTVSPost2010Prop41ColorRGB
 90
        0
102
RTVSPost2010PropOp41
 70
     1
102
RTVSPost2010Prop42
 90
       50
102
RTVSPost2010PropOp42
 70
     1
102
RTVSPost2010Prop43
 90
        3
102
RTVSPost2010PropOp43
 70
     1
102
RTVSPost2010Prop44ColorIndex
 90
        5
102
RTVSPost2010Prop44ColorRGB
 90
      255
102
RTVSPost2010PropOp44
 70
     1
102
RTVSPost2010Prop45
280
     0
102
RTVSPost2010PropOp45
 70
     1
102
RTVSPost2010Prop46
 90
       50
102
RTVSPost2010PropOp46
 70
     1
102
RTVSPost2010Prop47
 90
       50
102
RTVSPost2010PropOp47
 70
     1
102
RTVSPost2010Prop48
 90
       50
102
RTVSPost2010PropOp48
 70
     1
102
RTVSPost2010Prop49
280
     0
102
RTVSPost2010PropOp49
 70
     1
102
RTVSPost2010Prop50
 90
       50
102
RTVSPost2010PropOp50
 70
     1
102
RTVSPost2010Prop51ColorIndex
 90
      256
102
RTVSPost2010Prop51ColorRGB
 90
-16777216
102
RTVSPost2010PropOp51
 70
     0
102
RTVSPost2010Prop52
140
1.0
102
RTVSPost2010PropOp52
 70
     0
102
RTVSPost2010Prop53
 90
        2
102
RTVSPost2010PropOp53
 70
     1
102
RTVSPost2010Prop54
  1
strokes_ogs.tif
102
RTVSPost2010PropOp54
 70
     1
102
RTVSPost2010Prop55
280
     0
102
RTVSPost2010PropOp55
 70
     1
102
RTVSPost2010Prop56
140
1.0
102
RTVSPost2010PropOp56
 70
     1
102
RTVSPost2010Prop57
140
1.0
102
RTVSPost2010PropOp57
 70
     1
  0
XRECORD
  5
17C
102
{ACAD_REACTORS
330
17B
102
}
330
17B
100
AcDbXrecord
280
     1
102
RTVSPropertyOp0
 70
     1
102
RTVSPropertyOp1
 70
     1
102
RTVSPropertyOp2
 70
     1
102
RTVSPropertyOp3
 70
     1
102
RTVSPropertyOp4
 70
     1
102
RTVSPropertyOp5
 70
     1
102
RTVSPropertyOp6
 70
     1
102
RTVSPropertyOp7
 70
     1
102
RTVSPropertyOp8
 70
     1
102
RTVSPropertyOp9
 70
     1
102
RTVSPropertyOp10
 70
     1
102
RTVSPropertyOp11
 70
     1
102
RTVSPropertyOp12
 70
     1
102
RTVSPropertyOp13
 70
     1
102
RTVSPropertyOp14
 70
     1
102
RTVSPropertyOp15
 70
     1
102
RTVSPropertyOp16
 70
     1
102
RTVSPropertyOp17
 70
     1
102
RTVSPropertyOp18
 70
     1
102
RTVSPropertyOp19
 70
     1
102
RTVSPropertyOp20
 70
     1
102
RTVSPropertyOp21
 70
     1
102
RTVSPropertyOp22
 70
     1
102
RTVSPropertyOp23
 70
     1
102
RTVSPropertyOp24
 70
     1
102
RTVSPropertyOp25
 70
     1
102
RTVSPropertyOp26
 70
     1
102
RTVSPropertyOp27
 70
     1
102
RTVSPropertyOp28
 70
     1
102
RTVSPropertyOp29
 70
     1
102
RTVSPropertyOp30
 70
     1
102
RTVSPropertyOp31
 70
     1
102
RTVSPropertyOp32
 70
     1
102
RTVSPropertyOp33
 70
     1
102
RTVSPropertyOp34
 70
     1
102
RTVSPropertyOp35
 70
     1
102
RTVSPropertyOp36
 70
     1
102
RTVSPropertyOp37
 70
     1
102
RTVSPropertyOp38
 70
     1
102
RTVSPropertyOp39
 70
     1
102
RTVSPropertyOp40
 70
     1
102
RTVSPropertyOp41
 70
     1
102
RTVSPropertyOp42
 70
     1
102
RTVSPropertyOp43
 70
     1
102
RTVSPropertyOp44
 70
     1
102
RTVSPropertyOp45
 70
     1
102
RTVSPropertyOp46
 70
     1
102
RTVSPropertyOp47
 70
     1
102
RTVSPropertyOp48
 70
     1
102
RTVSPropertyOp49
 70
     1
102
RTVSPropertyOp50
 70
     1
102
RTVSPropertyOp51
 70
     0
102
RTVSPropertyOp52
 70
     0
102
RTVSPropertyOp53
 70
     1
102
RTVSPropertyOp54
 70
     1
102
RTVSPropertyOp55
 70
     1
102
RTVSPropertyOp56
 70
     1
102
RTVSPropertyOp57
 70
     1
102
RTVSPost2010Prop28
280
     0
102
RTVSPost2010PropOp28
 70
     1
102
RTVSPost2010Prop29
280
     1
102
RTVSPost2010PropOp29
 70
     1
102
RTVSPost2010Prop30
280
     1
102
RTVSPost2010PropOp30
 70
     1
102
RTVSPost2010Prop31
280
     0
102
RTVSPost2010PropOp31
 70
     1
102
RTVSPost2010Prop32
280
     0
102
RTVSPost2010PropOp32
 70
     1
102
RTVSPost2010Prop33
280
     0
102
RTVSPost2010PropOp33
 70
     1
102
RTVSPost2010Prop34
280
     0
102
RTVSPost2010PropOp34
 70
     1
102
RTVSPost2010Prop35
280
     0
102
RTVSPost2010PropOp35
 70
     1
102
RTVSPost2010Prop36
280
     0
102
RTVSPost2010PropOp36
 70
     1
102
RTVSPost2010Prop37
 90
       50
102
RTVSPost2010PropOp37
 70
     1
102
RTVSPost2010Prop38
140
0.0
102
RTVSPost2010PropOp38
 70
     1
102
RTVSPost2010Prop39
140
1.0
102
RTVSPost2010PropOp39
 70
     1
102
RTVSPost2010Prop40
 90
        0
102
RTVSPost2010PropOp40
 70
     1
102
RTVSPost2010Prop41ColorIndex
 90
       18
102
RTVSPost2010Prop41ColorRGB
 90
        0
102
RTVSPost2010PropOp41
 70
     1
102
RTVSPost2010Prop42
 90
       50
102
RTVSPost2010PropOp42
 70
     1
102
RTVSPost2010Prop43
 90
        3
102
RTVSPost2010PropOp43
 70
     1
102
RTVSPost2010Prop44ColorIndex
 90
        5
102
RTVSPost2010Prop44ColorRGB
 90
      255
102
RTVSPost2010PropOp44
 70
     1
102
RTVSPost2010Prop45
280
     0
102
RTVSPost2010PropOp45
 70
     1
102
RTVSPost2010Prop46
 90
       50
102
RTVSPost2010PropOp46
 70
     1
102
RTVSPost2010Prop47
 90
       50
102
RTVSPost2010PropOp47
 70
     1
102
RTVSPost2010Prop48
 90
       50
102
RTVSPost2010PropOp48
 70
     1
102
RTVSPost2010Prop49
280
     0
102
RTVSPost2010PropOp49
 70
     1
102
RTVSPost2010Prop50
 90
       50
102
RTVSPost2010PropOp50
 70
     1
102
RTVSPost2010Prop51ColorIndex
 90
      256
102
RTVSPost2010Prop51ColorRGB
 90
-16777216
102
RTVSPost2010PropOp51
 70
     0
102
RTVSPost2010Prop52
140
1.0
102
RTVSPost2010PropOp52
 70
     0
102
RTVSPost2010Prop53
 90
        2
102
RTVSPost2010PropOp53
 70
     1
102
RTVSPost2010Prop54
  1
strokes_ogs.tif
102
RTVSPost2010PropOp54
 70
     1
102
RTVSPost2010Prop55
280
     0
102
RTVSPost2010PropOp55
 70
     1
102
RTVSPost2010Prop56
140
1.0
102
RTVSPost2010PropOp56
 70
     1
102
RTVSPost2010Prop57
140
1.0
102
RTVSPost2010PropOp57
 70
     1
  0
XRECORD
  5
182
102
{ACAD_REACTORS
330
181
102
}
330
181
100
AcDbXrecord
280
     1
102
RTVSPropertyOp0
 70
     1
102
RTVSPropertyOp1
 70
     1
102
RTVSPropertyOp2
 70
     1
102
RTVSPropertyOp3
 70
     1
102
RTVSPropertyOp4
 70
     1
102
RTVSPropertyOp5
 70
     1
102
RTVSPropertyOp6
 70
     1
102
RTVSPropertyOp7
 70
     1
102
RTVSPropertyOp8
 70
     1
102
RTVSPropertyOp9
 70
     1
102
RTVSPropertyOp10
 70
     1
102
RTVSPropertyOp11
 70
     1
102
RTVSPropertyOp12
 70
     1
102
RTVSPropertyOp13
 70
     1
102
RTVSPropertyOp14
 70
     1
102
RTVSPropertyOp15
 70
     1
102
RTVSPropertyOp16
 70
     1
102
RTVSPropertyOp17
 70
     1
102
RTVSPropertyOp18
 70
     1
102
RTVSPropertyOp19
 70
     1
102
RTVSPropertyOp20
 70
     1
102
RTVSPropertyOp21
 70
     1
102
RTVSPropertyOp22
 70
     1
102
RTVSPropertyOp23
 70
     1
102
RTVSPropertyOp24
 70
     1
102
RTVSPropertyOp25
 70
     1
102
RTVSPropertyOp26
 70
     1
102
RTVSPropertyOp27
 70
     1
102
RTVSPropertyOp28
 70
     1
102
RTVSPropertyOp29
 70
     1
102
RTVSPropertyOp30
 70
     1
102
RTVSPropertyOp31
 70
     1
102
RTVSPropertyOp32
 70
     1
102
RTVSPropertyOp33
 70
     1
102
RTVSPropertyOp34
 70
     1
102
RTVSPropertyOp35
 70
     1
102
RTVSPropertyOp36
 70
     1
102
RTVSPropertyOp37
 70
     1
102
RTVSPropertyOp38
 70
     1
102
RTVSPropertyOp39
 70
     1
102
RTVSPropertyOp40
 70
     1
102
RTVSPropertyOp41
 70
     1
102
RTVSPropertyOp42
 70
     1
102
RTVSPropertyOp43
 70
     1
102
RTVSPropertyOp44
 70
     1
102
RTVSPropertyOp45
 70
     1
102
RTVSPropertyOp46
 70
     1
102
RTVSPropertyOp47
 70
     1
102
RTVSPropertyOp48
 70
     1
102
RTVSPropertyOp49
 70
     1
102
RTVSPropertyOp50
 70
     1
102
RTVSPropertyOp51
 70
     0
102
RTVSPropertyOp52
 70
     0
102
RTVSPropertyOp53
 70
     1
102
RTVSPropertyOp54
 70
     1
102
RTVSPropertyOp55
 70
     1
102
RTVSPropertyOp56
 70
     1
102
RTVSPropertyOp57
 70
     1
102
RTVSPost2010Prop28
280
     0
102
RTVSPost2010PropOp28
 70
     1
102
RTVSPost2010Prop29
280
     1
102
RTVSPost2010PropOp29
 70
     1
102
RTVSPost2010Prop30
280
     1
102
RTVSPost2010PropOp30
 70
     1
102
RTVSPost2010Prop31
280
     0
102
RTVSPost2010PropOp31
 70
     1
102
RTVSPost2010Prop32
280
     0
102
RTVSPost2010PropOp32
 70
     1
102
RTVSPost2010Prop33
280
     0
102
RTVSPost2010PropOp33
 70
     1
102
RTVSPost2010Prop34
280
     0
102
RTVSPost2010PropOp34
 70
     1
102
RTVSPost2010Prop35
280
     0
102
RTVSPost2010PropOp35
 70
     1
102
RTVSPost2010Prop36
280
     0
102
RTVSPost2010PropOp36
 70
     1
102
RTVSPost2010Prop37
 90
       50
102
RTVSPost2010PropOp37
 70
     1
102
RTVSPost2010Prop38
140
0.0
102
RTVSPost2010PropOp38
 70
     1
102
RTVSPost2010Prop39
140
1.0
102
RTVSPost2010PropOp39
 70
     1
102
RTVSPost2010Prop40
 90
        0
102
RTVSPost2010PropOp40
 70
     1
102
RTVSPost2010Prop41ColorIndex
 90
       18
102
RTVSPost2010Prop41ColorRGB
 90
        0
102
RTVSPost2010PropOp41
 70
     1
102
RTVSPost2010Prop42
 90
       50
102
RTVSPost2010PropOp42
 70
     1
102
RTVSPost2010Prop43
 90
        3
102
RTVSPost2010PropOp43
 70
     1
102
RTVSPost2010Prop44ColorIndex
 90
        5
102
RTVSPost2010Prop44ColorRGB
 90
      255
102
RTVSPost2010PropOp44
 70
     1
102
RTVSPost2010Prop45
280
     0
102
RTVSPost2010PropOp45
 70
     1
102
RTVSPost2010Prop46
 90
       50
102
RTVSPost2010PropOp46
 70
     1
102
RTVSPost2010Prop47
 90
       50
102
RTVSPost2010PropOp47
 70
     1
102
RTVSPost2010Prop48
 90
       50
102
RTVSPost2010PropOp48
 70
     1
102
RTVSPost2010Prop49
280
     0
102
RTVSPost2010PropOp49
 70
     1
102
RTVSPost2010Prop50
 90
       50
102
RTVSPost2010PropOp50
 70
     1
102
RTVSPost2010Prop51ColorIndex
 90
      256
102
RTVSPost2010Prop51ColorRGB
 90
-16777216
102
RTVSPost2010PropOp51
 70
     0
102
RTVSPost2010Prop52
140
1.0
102
RTVSPost2010PropOp52
 70
     0
102
RTVSPost2010Prop53
 90
        2
102
RTVSPost2010PropOp53
 70
     1
102
RTVSPost2010Prop54
  1
strokes_ogs.tif
102
RTVSPost2010PropOp54
 70
     1
102
RTVSPost2010Prop55
280
     0
102
RTVSPost2010PropOp55
 70
     1
102
RTVSPost2010Prop56
140
1.0
102
RTVSPost2010PropOp56
 70
     1
102
RTVSPost2010Prop57
140
1.0
102
RTVSPost2010PropOp57
 70
     1
  0
XRECORD
  5
196
102
{ACAD_REACTORS
330
195
102
}
330
195
100
AcDbXrecord
280
     1
102
RTVSPropertyOp0
 70
     0
102
RTVSPropertyOp1
 70
     0
102
RTVSPropertyOp2
 70
     0
102
RTVSPropertyOp3
 70
     0
102
RTVSPropertyOp4
 70
     0
102
RTVSPropertyOp5
 70
     0
102
RTVSPropertyOp6
 70
     0
102
RTVSPropertyOp7
 70
     0
102
RTVSPropertyOp8
 70
     0
102
RTVSPropertyOp9
 70
     0
102
RTVSPropertyOp10
 70
     0
102
RTVSPropertyOp11
 70
     0
102
RTVSPropertyOp12
 70
     0
102
RTVSPropertyOp13
 70
     0
102
RTVSPropertyOp14
 70
     2
102
RTVSPropertyOp15
 70
     0
102
RTVSPropertyOp16
 70
     0
102
RTVSPropertyOp17
 70
     0
102
RTVSPropertyOp18
 70
     0
102
RTVSPropertyOp19
 70
     0
102
RTVSPropertyOp20
 70
     0
102
RTVSPropertyOp21
 70
     0
102
RTVSPropertyOp22
 70
     0
102
RTVSPropertyOp23
 70
     0
102
RTVSPropertyOp24
 70
     0
102
RTVSPropertyOp25
 70
     0
102
RTVSPropertyOp26
 70
     0
102
RTVSPropertyOp27
 70
     0
102
RTVSPropertyOp28
 70
     0
102
RTVSPropertyOp29
 70
     0
102
RTVSPropertyOp30
 70
     0
102
RTVSPropertyOp31
 70
     0
102
RTVSPropertyOp32
 70
     0
102
RTVSPropertyOp33
 70
     0
102
RTVSPropertyOp34
 70
     0
102
RTVSPropertyOp35
 70
     0
102
RTVSPropertyOp36
 70
     0
102
RTVSPropertyOp37
 70
     0
102
RTVSPropertyOp38
 70
     0
102
RTVSPropertyOp39
 70
     0
102
RTVSPropertyOp40
 70
     0
102
RTVSPropertyOp41
 70
     0
102
RTVSPropertyOp42
 70
     0
102
RTVSPropertyOp43
 70
     0
102
RTVSPropertyOp44
 70
     0
102
RTVSPropertyOp45
 70
     0
102
RTVSPropertyOp46
 70
     0
102
RTVSPropertyOp47
 70
     0
102
RTVSPropertyOp48
 70
     0
102
RTVSPropertyOp49
 70
     0
102
RTVSPropertyOp50
 70
     0
102
RTVSPropertyOp51
 70
     0
102
RTVSPropertyOp52
 70
     0
102
RTVSPropertyOp53
 70
     0
102
RTVSPropertyOp54
 70
     0
102
RTVSPropertyOp55
 70
     0
102
RTVSPropertyOp56
 70
     0
102
RTVSPropertyOp57
 70
     0
102
RTVSPost2010Prop28
280
     0
102
RTVSPost2010PropOp28
 70
     0
102
RTVSPost2010Prop29
280
     1
102
RTVSPost2010PropOp29
 70
     0
102
RTVSPost2010Prop30
280
     1
102
RTVSPost2010PropOp30
 70
     0
102
RTVSPost2010Prop31
280
     0
102
RTVSPost2010PropOp31
 70
     0
102
RTVSPost2010Prop32
280
     0
102
RTVSPost2010PropOp32
 70
     0
102
RTVSPost2010Prop33
280
     0
102
RTVSPost2010PropOp33
 70
     0
102
RTVSPost2010Prop34
280
     0
102
RTVSPost2010PropOp34
 70
     0
102
RTVSPost2010Prop35
280
     0
102
RTVSPost2010PropOp35
 70
     0
102
RTVSPost2010Prop36
280
     0
102
RTVSPost2010PropOp36
 70
     0
102
RTVSPost2010Prop37
 90
       50
102
RTVSPost2010PropOp37
 70
     0
102
RTVSPost2010Prop38
140
0.0
102
RTVSPost2010PropOp38
 70
     0
102
RTVSPost2010Prop39
140
1.0
102
RTVSPost2010PropOp39
 70
     0
102
RTVSPost2010Prop40
 90
        0
102
RTVSPost2010PropOp40
 70
     0
102
RTVSPost2010Prop41ColorIndex
 90
       18
102
RTVSPost2010Prop41ColorRGB
 90
        0
102
RTVSPost2010PropOp41
 70
     0
102
RTVSPost2010Prop42
 90
       50
102
RTVSPost2010PropOp42
 70
     0
102
RTVSPost2010Prop43
 90
        3
102
RTVSPost2010PropOp43
 70
     0
102
RTVSPost2010Prop44ColorIndex
 90
        5
102
RTVSPost2010Prop44ColorRGB
 90
      255
102
RTVSPost2010PropOp44
 70
     0
102
RTVSPost2010Prop45
280
     0
102
RTVSPost2010PropOp45
 70
     0
102
RTVSPost2010Prop46
 90
       50
102
RTVSPost2010PropOp46
 70
     0
102
RTVSPost2010Prop47
 90
       50
102
RTVSPost2010PropOp47
 70
     0
102
RTVSPost2010Prop48
 90
       50
102
RTVSPost2010PropOp48
 70
     0
102
RTVSPost2010Prop49
280
     0
102
RTVSPost2010PropOp49
 70
     0
102
RTVSPost2010Prop50
 90
       50
102
RTVSPost2010PropOp50
 70
     0
102
RTVSPost2010Prop51ColorIndex
 90
      256
102
RTVSPost2010Prop51ColorRGB
 90
-16777216
102
RTVSPost2010PropOp51
 70
     0
102
RTVSPost2010Prop52
140
1.0
102
RTVSPost2010PropOp52
 70
     0
102
RTVSPost2010Prop53
 90
        2
102
RTVSPost2010PropOp53
 70
     0
102
RTVSPost2010Prop54
  1
strokes_ogs.tif
102
RTVSPost2010PropOp54
 70
     0
102
RTVSPost2010Prop55
280
     0
102
RTVSPost2010PropOp55
 70
     0
102
RTVSPost2010Prop56
140
1.0
102
RTVSPost2010PropOp56
 70
     0
102
RTVSPost2010Prop57
140
1.0
102
RTVSPost2010PropOp57
 70
     0
  0
XRECORD
  5
190
102
{ACAD_REACTORS
330
18F
102
}
330
18F
100
AcDbXrecord
280
     1
102
RTVSPropertyOp0
 70
     1
102
RTVSPropertyOp1
 70
     1
102
RTVSPropertyOp2
 70
     1
102
RTVSPropertyOp3
 70
     1
102
RTVSPropertyOp4
 70
     1
102
RTVSPropertyOp5
 70
     1
102
RTVSPropertyOp6
 70
     1
102
RTVSPropertyOp7
 70
     1
102
RTVSPropertyOp8
 70
     1
102
RTVSPropertyOp9
 70
     1
102
RTVSPropertyOp10
 70
     1
102
RTVSPropertyOp11
 70
     1
102
RTVSPropertyOp12
 70
     1
102
RTVSPropertyOp13
 70
     1
102
RTVSPropertyOp14
 70
     1
102
RTVSPropertyOp15
 70
     1
102
RTVSPropertyOp16
 70
     1
102
RTVSPropertyOp17
 70
     1
102
RTVSPropertyOp18
 70
     1
102
RTVSPropertyOp19
 70
     1
102
RTVSPropertyOp20
 70
     1
102
RTVSPropertyOp21
 70
     1
102
RTVSPropertyOp22
 70
     1
102
RTVSPropertyOp23
 70
     1
102
RTVSPropertyOp24
 70
     1
102
RTVSPropertyOp25
 70
     1
102
RTVSPropertyOp26
 70
     1
102
RTVSPropertyOp27
 70
     1
102
RTVSPropertyOp28
 70
     1
102
RTVSPropertyOp29
 70
     1
102
RTVSPropertyOp30
 70
     1
102
RTVSPropertyOp31
 70
     1
102
RTVSPropertyOp32
 70
     1
102
RTVSPropertyOp33
 70
     1
102
RTVSPropertyOp34
 70
     1
102
RTVSPropertyOp35
 70
     1
102
RTVSPropertyOp36
 70
     1
102
RTVSPropertyOp37
 70
     1
102
RTVSPropertyOp38
 70
     1
102
RTVSPropertyOp39
 70
     1
102
RTVSPropertyOp40
 70
     1
102
RTVSPropertyOp41
 70
     1
102
RTVSPropertyOp42
 70
     1
102
RTVSPropertyOp43
 70
     1
102
RTVSPropertyOp44
 70
     1
102
RTVSPropertyOp45
 70
     1
102
RTVSPropertyOp46
 70
     1
102
RTVSPropertyOp47
 70
     1
102
RTVSPropertyOp48
 70
     1
102
RTVSPropertyOp49
 70
     1
102
RTVSPropertyOp50
 70
     1
102
RTVSPropertyOp51
 70
     0
102
RTVSPropertyOp52
 70
     0
102
RTVSPropertyOp53
 70
     1
102
RTVSPropertyOp54
 70
     1
102
RTVSPropertyOp55
 70
     1
102
RTVSPropertyOp56
 70
     1
102
RTVSPropertyOp57
 70
     1
102
RTVSPost2010Prop28
280
     0
102
RTVSPost2010PropOp28
 70
     1
102
RTVSPost2010Prop29
280
     1
102
RTVSPost2010PropOp29
 70
     1
102
RTVSPost2010Prop30
280
     1
102
RTVSPost2010PropOp30
 70
     1
102
RTVSPost2010Prop31
280
     0
102
RTVSPost2010PropOp31
 70
     1
102
RTVSPost2010Prop32
280
     0
102
RTVSPost2010PropOp32
 70
     1
102
RTVSPost2010Prop33
280
     0
102
RTVSPost2010PropOp33
 70
     1
102
RTVSPost2010Prop34
280
     0
102
RTVSPost2010PropOp34
 70
     1
102
RTVSPost2010Prop35
280
     0
102
RTVSPost2010PropOp35
 70
     1
102
RTVSPost2010Prop36
280
     0
102
RTVSPost2010PropOp36
 70
     1
102
RTVSPost2010Prop37
 90
       50
102
RTVSPost2010PropOp37
 70
     1
102
RTVSPost2010Prop38
140
0.0
102
RTVSPost2010PropOp38
 70
     1
102
RTVSPost2010Prop39
140
1.0
102
RTVSPost2010PropOp39
 70
     1
102
RTVSPost2010Prop40
 90
        0
102
RTVSPost2010PropOp40
 70
     1
102
RTVSPost2010Prop41ColorIndex
 90
       18
102
RTVSPost2010Prop41ColorRGB
 90
        0
102
RTVSPost2010PropOp41
 70
     1
102
RTVSPost2010Prop42
 90
       50
102
RTVSPost2010PropOp42
 70
     1
102
RTVSPost2010Prop43
 90
        3
102
RTVSPost2010PropOp43
 70
     1
102
RTVSPost2010Prop44ColorIndex
 90
        5
102
RTVSPost2010Prop44ColorRGB
 90
      255
102
RTVSPost2010PropOp44
 70
     1
102
RTVSPost2010Prop45
280
     0
102
RTVSPost2010PropOp45
 70
     1
102
RTVSPost2010Prop46
 90
       50
102
RTVSPost2010PropOp46
 70
     1
102
RTVSPost2010Prop47
 90
       50
102
RTVSPost2010PropOp47
 70
     1
102
RTVSPost2010Prop48
 90
       50
102
RTVSPost2010PropOp48
 70
     1
102
RTVSPost2010Prop49
280
     0
102
RTVSPost2010PropOp49
 70
     1
102
RTVSPost2010Prop50
 90
       50
102
RTVSPost2010PropOp50
 70
     1
102
RTVSPost2010Prop51ColorIndex
 90
      256
102
RTVSPost2010Prop51ColorRGB
 90
-16777216
102
RTVSPost2010PropOp51
 70
     0
102
RTVSPost2010Prop52
140
1.0
102
RTVSPost2010PropOp52
 70
     0
102
RTVSPost2010Prop53
 90
        2
102
RTVSPost2010PropOp53
 70
     1
102
RTVSPost2010Prop54
  1
strokes_ogs.tif
102
RTVSPost2010PropOp54
 70
     1
102
RTVSPost2010Prop55
280
     0
102
RTVSPost2010PropOp55
 70
     1
102
RTVSPost2010Prop56
140
1.0
102
RTVSPost2010PropOp56
 70
     1
102
RTVSPost2010Prop57
140
1.0
102
RTVSPost2010PropOp57
 70
     1
  0
XRECORD
  5
198
102
{ACAD_REACTORS
330
197
102
}
330
197
100
AcDbXrecord
280
     1
102
RTVSPropertyOp0
 70
     0
102
RTVSPropertyOp1
 70
     0
102
RTVSPropertyOp2
 70
     0
102
RTVSPropertyOp3
 70
     0
102
RTVSPropertyOp4
 70
     0
102
RTVSPropertyOp5
 70
     0
102
RTVSPropertyOp6
 70
     0
102
RTVSPropertyOp7
 70
     0
102
RTVSPropertyOp8
 70
     0
102
RTVSPropertyOp9
 70
     0
102
RTVSPropertyOp10
 70
     0
102
RTVSPropertyOp11
 70
     0
102
RTVSPropertyOp12
 70
     0
102
RTVSPropertyOp13
 70
     0
102
RTVSPropertyOp14
 70
     2
102
RTVSPropertyOp15
 70
     0
102
RTVSPropertyOp16
 70
     0
102
RTVSPropertyOp17
 70
     0
102
RTVSPropertyOp18
 70
     0
102
RTVSPropertyOp19
 70
     0
102
RTVSPropertyOp20
 70
     0
102
RTVSPropertyOp21
 70
     0
102
RTVSPropertyOp22
 70
     0
102
RTVSPropertyOp23
 70
     0
102
RTVSPropertyOp24
 70
     0
102
RTVSPropertyOp25
 70
     0
102
RTVSPropertyOp26
 70
     0
102
RTVSPropertyOp27
 70
     0
102
RTVSPropertyOp28
 70
     0
102
RTVSPropertyOp29
 70
     0
102
RTVSPropertyOp30
 70
     0
102
RTVSPropertyOp31
 70
     0
102
RTVSPropertyOp32
 70
     0
102
RTVSPropertyOp33
 70
     0
102
RTVSPropertyOp34
 70
     0
102
RTVSPropertyOp35
 70
     0
102
RTVSPropertyOp36
 70
     0
102
RTVSPropertyOp37
 70
     0
102
RTVSPropertyOp38
 70
     0
102
RTVSPropertyOp39
 70
     0
102
RTVSPropertyOp40
 70
     0
102
RTVSPropertyOp41
 70
     0
102
RTVSPropertyOp42
 70
     0
102
RTVSPropertyOp43
 70
     0
102
RTVSPropertyOp44
 70
     0
102
RTVSPropertyOp45
 70
     0
102
RTVSPropertyOp46
 70
     0
102
RTVSPropertyOp47
 70
     0
102
RTVSPropertyOp48
 70
     0
102
RTVSPropertyOp49
 70
     0
102
RTVSPropertyOp50
 70
     0
102
RTVSPropertyOp51
 70
     0
102
RTVSPropertyOp52
 70
     0
102
RTVSPropertyOp53
 70
     0
102
RTVSPropertyOp54
 70
     0
102
RTVSPropertyOp55
 70
     0
102
RTVSPropertyOp56
 70
     0
102
RTVSPropertyOp57
 70
     0
102
RTVSPost2010Prop28
280
     0
102
RTVSPost2010PropOp28
 70
     0
102
RTVSPost2010Prop29
280
     1
102
RTVSPost2010PropOp29
 70
     0
102
RTVSPost2010Prop30
280
     1
102
RTVSPost2010PropOp30
 70
     0
102
RTVSPost2010Prop31
280
     0
102
RTVSPost2010PropOp31
 70
     0
102
RTVSPost2010Prop32
280
     0
102
RTVSPost2010PropOp32
 70
     0
102
RTVSPost2010Prop33
280
     0
102
RTVSPost2010PropOp33
 70
     0
102
RTVSPost2010Prop34
280
     0
102
RTVSPost2010PropOp34
 70
     0
102
RTVSPost2010Prop35
280
     0
102
RTVSPost2010PropOp35
 70
     0
102
RTVSPost2010Prop36
280
     0
102
RTVSPost2010PropOp36
 70
     0
102
RTVSPost2010Prop37
 90
       50
102
RTVSPost2010PropOp37
 70
     0
102
RTVSPost2010Prop38
140
0.0
102
RTVSPost2010PropOp38
 70
     0
102
RTVSPost2010Prop39
140
1.0
102
RTVSPost2010PropOp39
 70
     0
102
RTVSPost2010Prop40
 90
        0
102
RTVSPost2010PropOp40
 70
     0
102
RTVSPost2010Prop41ColorIndex
 90
       18
102
RTVSPost2010Prop41ColorRGB
 90
        0
102
RTVSPost2010PropOp41
 70
     0
102
RTVSPost2010Prop42
 90
       50
102
RTVSPost2010PropOp42
 70
     0
102
RTVSPost2010Prop43
 90
        3
102
RTVSPost2010PropOp43
 70
     0
102
RTVSPost2010Prop44ColorIndex
 90
        5
102
RTVSPost2010Prop44ColorRGB
 90
      255
102
RTVSPost2010PropOp44
 70
     0
102
RTVSPost2010Prop45
280
     0
102
RTVSPost2010PropOp45
 70
     0
102
RTVSPost2010Prop46
 90
       50
102
RTVSPost2010PropOp46
 70
     0
102
RTVSPost2010Prop47
 90
       50
102
RTVSPost2010PropOp47
 70
     0
102
RTVSPost2010Prop48
 90
       50
102
RTVSPost2010PropOp48
 70
     0
102
RTVSPost2010Prop49
280
     0
102
RTVSPost2010PropOp49
 70
     0
102
RTVSPost2010Prop50
 90
       50
102
RTVSPost2010PropOp50
 70
     0
102
RTVSPost2010Prop51ColorIndex
 90
      256
102
RTVSPost2010Prop51ColorRGB
 90
-16777216
102
RTVSPost2010PropOp51
 70
     0
102
RTVSPost2010Prop52
140
1.0
102
RTVSPost2010PropOp52
 70
     0
102
RTVSPost2010Prop53
 90
        2
102
RTVSPost2010PropOp53
 70
     0
102
RTVSPost2010Prop54
  1
strokes_ogs.tif
102
RTVSPost2010PropOp54
 70
     0
102
RTVSPost2010Prop55
280
     0
102
RTVSPost2010PropOp55
 70
     0
102
RTVSPost2010Prop56
140
1.0
102
RTVSPost2010PropOp56
 70
     0
102
RTVSPost2010Prop57
140
1.0
102
RTVSPost2010PropOp57
 70
     0
  0
XRECORD
  5
186
102
{ACAD_REACTORS
330
185
102
}
330
185
100
AcDbXrecord
280
     1
102
RTVSPropertyOp0
 70
     1
102
RTVSPropertyOp1
 70
     1
102
RTVSPropertyOp2
 70
     1
102
RTVSPropertyOp3
 70
     1
102
RTVSPropertyOp4
 70
     1
102
RTVSPropertyOp5
 70
     1
102
RTVSPropertyOp6
 70
     1
102
RTVSPropertyOp7
 70
     1
102
RTVSPropertyOp8
 70
     1
102
RTVSPropertyOp9
 70
     1
102
RTVSPropertyOp10
 70
     1
102
RTVSPropertyOp11
 70
     1
102
RTVSPropertyOp12
 70
     1
102
RTVSPropertyOp13
 70
     1
102
RTVSPropertyOp14
 70
     1
102
RTVSPropertyOp15
 70
     1
102
RTVSPropertyOp16
 70
     1
102
RTVSPropertyOp17
 70
     1
102
RTVSPropertyOp18
 70
     1
102
RTVSPropertyOp19
 70
     1
102
RTVSPropertyOp20
 70
     1
102
RTVSPropertyOp21
 70
     1
102
RTVSPropertyOp22
 70
     1
102
RTVSPropertyOp23
 70
     1
102
RTVSPropertyOp24
 70
     1
102
RTVSPropertyOp25
 70
     1
102
RTVSPropertyOp26
 70
     1
102
RTVSPropertyOp27
 70
     1
102
RTVSPropertyOp28
 70
     1
102
RTVSPropertyOp29
 70
     1
102
RTVSPropertyOp30
 70
     1
102
RTVSPropertyOp31
 70
     1
102
RTVSPropertyOp32
 70
     1
102
RTVSPropertyOp33
 70
     1
102
RTVSPropertyOp34
 70
     1
102
RTVSPropertyOp35
 70
     1
102
RTVSPropertyOp36
 70
     1
102
RTVSPropertyOp37
 70
     1
102
RTVSPropertyOp38
 70
     1
102
RTVSPropertyOp39
 70
     1
102
RTVSPropertyOp40
 70
     1
102
RTVSPropertyOp41
 70
     1
102
RTVSPropertyOp42
 70
     1
102
RTVSPropertyOp43
 70
     1
102
RTVSPropertyOp44
 70
     1
102
RTVSPropertyOp45
 70
     1
102
RTVSPropertyOp46
 70
     1
102
RTVSPropertyOp47
 70
     1
102
RTVSPropertyOp48
 70
     1
102
RTVSPropertyOp49
 70
     1
102
RTVSPropertyOp50
 70
     1
102
RTVSPropertyOp51
 70
     0
102
RTVSPropertyOp52
 70
     0
102
RTVSPropertyOp53
 70
     1
102
RTVSPropertyOp54
 70
     1
102
RTVSPropertyOp55
 70
     1
102
RTVSPropertyOp56
 70
     1
102
RTVSPropertyOp57
 70
     1
102
RTVSPost2010Prop28
280
     0
102
RTVSPost2010PropOp28
 70
     1
102
RTVSPost2010Prop29
280
     1
102
RTVSPost2010PropOp29
 70
     1
102
RTVSPost2010Prop30
280
     1
102
RTVSPost2010PropOp30
 70
     1
102
RTVSPost2010Prop31
280
     0
102
RTVSPost2010PropOp31
 70
     1
102
RTVSPost2010Prop32
280
     0
102
RTVSPost2010PropOp32
 70
     1
102
RTVSPost2010Prop33
280
     0
102
RTVSPost2010PropOp33
 70
     1
102
RTVSPost2010Prop34
280
     0
102
RTVSPost2010PropOp34
 70
     1
102
RTVSPost2010Prop35
280
     0
102
RTVSPost2010PropOp35
 70
     1
102
RTVSPost2010Prop36
280
     0
102
RTVSPost2010PropOp36
 70
     1
102
RTVSPost2010Prop37
 90
       50
102
RTVSPost2010PropOp37
 70
     1
102
RTVSPost2010Prop38
140
0.0
102
RTVSPost2010PropOp38
 70
     1
102
RTVSPost2010Prop39
140
1.0
102
RTVSPost2010PropOp39
 70
     1
102
RTVSPost2010Prop40
 90
        0
102
RTVSPost2010PropOp40
 70
     1
102
RTVSPost2010Prop41ColorIndex
 90
       18
102
RTVSPost2010Prop41ColorRGB
 90
        0
102
RTVSPost2010PropOp41
 70
     1
102
RTVSPost2010Prop42
 90
       50
102
RTVSPost2010PropOp42
 70
     1
102
RTVSPost2010Prop43
 90
        3
102
RTVSPost2010PropOp43
 70
     1
102
RTVSPost2010Prop44ColorIndex
 90
        5
102
RTVSPost2010Prop44ColorRGB
 90
      255
102
RTVSPost2010PropOp44
 70
     1
102
RTVSPost2010Prop45
280
     0
102
RTVSPost2010PropOp45
 70
     1
102
RTVSPost2010Prop46
 90
       50
102
RTVSPost2010PropOp46
 70
     1
102
RTVSPost2010Prop47
 90
       50
102
RTVSPost2010PropOp47
 70
     1
102
RTVSPost2010Prop48
 90
       50
102
RTVSPost2010PropOp48
 70
     1
102
RTVSPost2010Prop49
280
     0
102
RTVSPost2010PropOp49
 70
     1
102
RTVSPost2010Prop50
 90
       50
102
RTVSPost2010PropOp50
 70
     1
102
RTVSPost2010Prop51ColorIndex
 90
      256
102
RTVSPost2010Prop51ColorRGB
 90
-16777216
102
RTVSPost2010PropOp51
 70
     0
102
RTVSPost2010Prop52
140
1.0
102
RTVSPost2010PropOp52
 70
     0
102
RTVSPost2010Prop53
 90
        2
102
RTVSPost2010PropOp53
 70
     1
102
RTVSPost2010Prop54
  1
strokes_ogs.tif
102
RTVSPost2010PropOp54
 70
     1
102
RTVSPost2010Prop55
280
     0
102
RTVSPost2010PropOp55
 70
     1
102
RTVSPost2010Prop56
140
1.0
102
RTVSPost2010PropOp56
 70
     1
102
RTVSPost2010Prop57
140
1.0
102
RTVSPost2010PropOp57
 70
     1
  0
XRECORD
  5
1A4
102
{ACAD_REACTORS
330
1A3
102
}
330
1A3
100
AcDbXrecord
280
     1
102
RTVSPropertyOp0
 70
     1
102
RTVSPropertyOp1
 70
     1
102
RTVSPropertyOp2
 70
     1
102
RTVSPropertyOp3
 70
     1
102
RTVSPropertyOp4
 70
     1
102
RTVSPropertyOp5
 70
     1
102
RTVSPropertyOp6
 70
     1
102
RTVSPropertyOp7
 70
     1
102
RTVSPropertyOp8
 70
     1
102
RTVSPropertyOp9
 70
     1
102
RTVSPropertyOp10
 70
     1
102
RTVSPropertyOp11
 70
     1
102
RTVSPropertyOp12
 70
     1
102
RTVSPropertyOp13
 70
     1
102
RTVSPropertyOp14
 70
     1
102
RTVSPropertyOp15
 70
     1
102
RTVSPropertyOp16
 70
     1
102
RTVSPropertyOp17
 70
     1
102
RTVSPropertyOp18
 70
     1
102
RTVSPropertyOp19
 70
     1
102
RTVSPropertyOp20
 70
     1
102
RTVSPropertyOp21
 70
     1
102
RTVSPropertyOp22
 70
     1
102
RTVSPropertyOp23
 70
     1
102
RTVSPropertyOp24
 70
     1
102
RTVSPropertyOp25
 70
     1
102
RTVSPropertyOp26
 70
     1
102
RTVSPropertyOp27
 70
     1
102
RTVSPropertyOp28
 70
     1
102
RTVSPropertyOp29
 70
     1
102
RTVSPropertyOp30
 70
     1
102
RTVSPropertyOp31
 70
     1
102
RTVSPropertyOp32
 70
     1
102
RTVSPropertyOp33
 70
     1
102
RTVSPropertyOp34
 70
     1
102
RTVSPropertyOp35
 70
     1
102
RTVSPropertyOp36
 70
     1
102
RTVSPropertyOp37
 70
     1
102
RTVSPropertyOp38
 70
     1
102
RTVSPropertyOp39
 70
     1
102
RTVSPropertyOp40
 70
     1
102
RTVSPropertyOp41
 70
     1
102
RTVSPropertyOp42
 70
     1
102
RTVSPropertyOp43
 70
     1
102
RTVSPropertyOp44
 70
     1
102
RTVSPropertyOp45
 70
     1
102
RTVSPropertyOp46
 70
     1
102
RTVSPropertyOp47
 70
     1
102
RTVSPropertyOp48
 70
     1
102
RTVSPropertyOp49
 70
     1
102
RTVSPropertyOp50
 70
     1
102
RTVSPropertyOp51
 70
     0
102
RTVSPropertyOp52
 70
     0
102
RTVSPropertyOp53
 70
     1
102
RTVSPropertyOp54
 70
     1
102
RTVSPropertyOp55
 70
     1
102
RTVSPropertyOp56
 70
     1
102
RTVSPropertyOp57
 70
     1
102
RTVSPost2010Prop28
280
     0
102
RTVSPost2010PropOp28
 70
     1
102
RTVSPost2010Prop29
280
     1
102
RTVSPost2010PropOp29
 70
     1
102
RTVSPost2010Prop30
280
     1
102
RTVSPost2010PropOp30
 70
     1
102
RTVSPost2010Prop31
280
     0
102
RTVSPost2010PropOp31
 70
     1
102
RTVSPost2010Prop32
280
     0
102
RTVSPost2010PropOp32
 70
     1
102
RTVSPost2010Prop33
280
     0
102
RTVSPost2010PropOp33
 70
     1
102
RTVSPost2010Prop34
280
     0
102
RTVSPost2010PropOp34
 70
     1
102
RTVSPost2010Prop35
280
     0
102
RTVSPost2010PropOp35
 70
     1
102
RTVSPost2010Prop36
280
     0
102
RTVSPost2010PropOp36
 70
     1
102
RTVSPost2010Prop37
 90
       50
102
RTVSPost2010PropOp37
 70
     1
102
RTVSPost2010Prop38
140
0.0
102
RTVSPost2010PropOp38
 70
     1
102
RTVSPost2010Prop39
140
1.0
102
RTVSPost2010PropOp39
 70
     1
102
RTVSPost2010Prop40
 90
        0
102
RTVSPost2010PropOp40
 70
     1
102
RTVSPost2010Prop41ColorIndex
 90
       18
102
RTVSPost2010Prop41ColorRGB
 90
        0
102
RTVSPost2010PropOp41
 70
     1
102
RTVSPost2010Prop42
 90
       50
102
RTVSPost2010PropOp42
 70
     1
102
RTVSPost2010Prop43
 90
        3
102
RTVSPost2010PropOp43
 70
     1
102
RTVSPost2010Prop44ColorIndex
 90
        5
102
RTVSPost2010Prop44ColorRGB
 90
      255
102
RTVSPost2010PropOp44
 70
     1
102
RTVSPost2010Prop45
280
     0
102
RTVSPost2010PropOp45
 70
     1
102
RTVSPost2010Prop46
 90
       50
102
RTVSPost2010PropOp46
 70
     1
102
RTVSPost2010Prop47
 90
       50
102
RTVSPost2010PropOp47
 70
     1
102
RTVSPost2010Prop48
 90
       50
102
RTVSPost2010PropOp48
 70
     1
102
RTVSPost2010Prop49
280
     0
102
RTVSPost2010PropOp49
 70
     1
102
RTVSPost2010Prop50
 90
       50
102
RTVSPost2010PropOp50
 70
     1
102
RTVSPost2010Prop51ColorIndex
 90
      256
102
RTVSPost2010Prop51ColorRGB
 90
-16777216
102
RTVSPost2010PropOp51
 70
     0
102
RTVSPost2010Prop52
140
1.0
102
RTVSPost2010PropOp52
 70
     0
102
RTVSPost2010Prop53
 90
        2
102
RTVSPost2010PropOp53
 70
     1
102
RTVSPost2010Prop54
  1
strokes_ogs.tif
102
RTVSPost2010PropOp54
 70
     1
102
RTVSPost2010Prop55
280
     0
102
RTVSPost2010PropOp55
 70
     1
102
RTVSPost2010Prop56
140
1.0
102
RTVSPost2010PropOp56
 70
     1
102
RTVSPost2010Prop57
140
1.0
102
RTVSPost2010PropOp57
 70
     1
  0
XRECORD
  5
1A2
102
{ACAD_REACTORS
330
1A1
102
}
330
1A1
100
AcDbXrecord
280
     1
102
RTVSPropertyOp0
 70
     1
102
RTVSPropertyOp1
 70
     1
102
RTVSPropertyOp2
 70
     1
102
RTVSPropertyOp3
 70
     1
102
RTVSPropertyOp4
 70
     1
102
RTVSPropertyOp5
 70
     1
102
RTVSPropertyOp6
 70
     1
102
RTVSPropertyOp7
 70
     1
102
RTVSPropertyOp8
 70
     1
102
RTVSPropertyOp9
 70
     1
102
RTVSPropertyOp10
 70
     1
102
RTVSPropertyOp11
 70
     1
102
RTVSPropertyOp12
 70
     1
102
RTVSPropertyOp13
 70
     1
102
RTVSPropertyOp14
 70
     1
102
RTVSPropertyOp15
 70
     1
102
RTVSPropertyOp16
 70
     1
102
RTVSPropertyOp17
 70
     1
102
RTVSPropertyOp18
 70
     1
102
RTVSPropertyOp19
 70
     1
102
RTVSPropertyOp20
 70
     1
102
RTVSPropertyOp21
 70
     1
102
RTVSPropertyOp22
 70
     1
102
RTVSPropertyOp23
 70
     1
102
RTVSPropertyOp24
 70
     1
102
RTVSPropertyOp25
 70
     1
102
RTVSPropertyOp26
 70
     1
102
RTVSPropertyOp27
 70
     1
102
RTVSPropertyOp28
 70
     1
102
RTVSPropertyOp29
 70
     1
102
RTVSPropertyOp30
 70
     1
102
RTVSPropertyOp31
 70
     1
102
RTVSPropertyOp32
 70
     1
102
RTVSPropertyOp33
 70
     1
102
RTVSPropertyOp34
 70
     1
102
RTVSPropertyOp35
 70
     1
102
RTVSPropertyOp36
 70
     1
102
RTVSPropertyOp37
 70
     1
102
RTVSPropertyOp38
 70
     1
102
RTVSPropertyOp39
 70
     1
102
RTVSPropertyOp40
 70
     1
102
RTVSPropertyOp41
 70
     1
102
RTVSPropertyOp42
 70
     1
102
RTVSPropertyOp43
 70
     1
102
RTVSPropertyOp44
 70
     1
102
RTVSPropertyOp45
 70
     1
102
RTVSPropertyOp46
 70
     1
102
RTVSPropertyOp47
 70
     1
102
RTVSPropertyOp48
 70
     1
102
RTVSPropertyOp49
 70
     1
102
RTVSPropertyOp50
 70
     1
102
RTVSPropertyOp51
 70
     0
102
RTVSPropertyOp52
 70
     0
102
RTVSPropertyOp53
 70
     1
102
RTVSPropertyOp54
 70
     1
102
RTVSPropertyOp55
 70
     1
102
RTVSPropertyOp56
 70
     1
102
RTVSPropertyOp57
 70
     1
102
RTVSPost2010Prop28
280
     0
102
RTVSPost2010PropOp28
 70
     1
102
RTVSPost2010Prop29
280
     1
102
RTVSPost2010PropOp29
 70
     1
102
RTVSPost2010Prop30
280
     1
102
RTVSPost2010PropOp30
 70
     1
102
RTVSPost2010Prop31
280
     0
102
RTVSPost2010PropOp31
 70
     1
102
RTVSPost2010Prop32
280
     0
102
RTVSPost2010PropOp32
 70
     1
102
RTVSPost2010Prop33
280
     0
102
RTVSPost2010PropOp33
 70
     1
102
RTVSPost2010Prop34
280
     0
102
RTVSPost2010PropOp34
 70
     1
102
RTVSPost2010Prop35
280
     0
102
RTVSPost2010PropOp35
 70
     1
102
RTVSPost2010Prop36
280
     0
102
RTVSPost2010PropOp36
 70
     1
102
RTVSPost2010Prop37
 90
       50
102
RTVSPost2010PropOp37
 70
     1
102
RTVSPost2010Prop38
140
0.0
102
RTVSPost2010PropOp38
 70
     1
102
RTVSPost2010Prop39
140
1.0
102
RTVSPost2010PropOp39
 70
     1
102
RTVSPost2010Prop40
 90
        0
102
RTVSPost2010PropOp40
 70
     1
102
RTVSPost2010Prop41ColorIndex
 90
       18
102
RTVSPost2010Prop41ColorRGB
 90
        0
102
RTVSPost2010PropOp41
 70
     1
102
RTVSPost2010Prop42
 90
       50
102
RTVSPost2010PropOp42
 70
     1
102
RTVSPost2010Prop43
 90
        3
102
RTVSPost2010PropOp43
 70
     1
102
RTVSPost2010Prop44ColorIndex
 90
        5
102
RTVSPost2010Prop44ColorRGB
 90
      255
102
RTVSPost2010PropOp44
 70
     1
102
RTVSPost2010Prop45
280
     0
102
RTVSPost2010PropOp45
 70
     1
102
RTVSPost2010Prop46
 90
       50
102
RTVSPost2010PropOp46
 70
     1
102
RTVSPost2010Prop47
 90
       50
102
RTVSPost2010PropOp47
 70
     1
102
RTVSPost2010Prop48
 90
       50
102
RTVSPost2010PropOp48
 70
     1
102
RTVSPost2010Prop49
280
     0
102
RTVSPost2010PropOp49
 70
     1
102
RTVSPost2010Prop50
 90
       50
102
RTVSPost2010PropOp50
 70
     1
102
RTVSPost2010Prop51ColorIndex
 90
      256
102
RTVSPost2010Prop51ColorRGB
 90
-16777216
102
RTVSPost2010PropOp51
 70
     0
102
RTVSPost2010Prop52
140
1.0
102
RTVSPost2010PropOp52
 70
     0
102
RTVSPost2010Prop53
 90
        2
102
RTVSPost2010PropOp53
 70
     1
102
RTVSPost2010Prop54
  1
strokes_ogs.tif
102
RTVSPost2010PropOp54
 70
     1
102
RTVSPost2010Prop55
280
     0
102
RTVSPost2010PropOp55
 70
     1
102
RTVSPost2010Prop56
140
1.0
102
RTVSPost2010PropOp56
 70
     1
102
RTVSPost2010Prop57
140
1.0
102
RTVSPost2010PropOp57
 70
     1
  0
XRECORD
  5
19C
102
{ACAD_REACTORS
330
19B
102
}
330
19B
100
AcDbXrecord
280
     1
102
RTVSPropertyOp0
 70
     1
102
RTVSPropertyOp1
 70
     1
102
RTVSPropertyOp2
 70
     1
102
RTVSPropertyOp3
 70
     1
102
RTVSPropertyOp4
 70
     1
102
RTVSPropertyOp5
 70
     1
102
RTVSPropertyOp6
 70
     1
102
RTVSPropertyOp7
 70
     1
102
RTVSPropertyOp8
 70
     1
102
RTVSPropertyOp9
 70
     1
102
RTVSPropertyOp10
 70
     1
102
RTVSPropertyOp11
 70
     1
102
RTVSPropertyOp12
 70
     1
102
RTVSPropertyOp13
 70
     1
102
RTVSPropertyOp14
 70
     1
102
RTVSPropertyOp15
 70
     1
102
RTVSPropertyOp16
 70
     1
102
RTVSPropertyOp17
 70
     1
102
RTVSPropertyOp18
 70
     1
102
RTVSPropertyOp19
 70
     1
102
RTVSPropertyOp20
 70
     1
102
RTVSPropertyOp21
 70
     1
102
RTVSPropertyOp22
 70
     1
102
RTVSPropertyOp23
 70
     1
102
RTVSPropertyOp24
 70
     1
102
RTVSPropertyOp25
 70
     1
102
RTVSPropertyOp26
 70
     1
102
RTVSPropertyOp27
 70
     1
102
RTVSPropertyOp28
 70
     1
102
RTVSPropertyOp29
 70
     1
102
RTVSPropertyOp30
 70
     1
102
RTVSPropertyOp31
 70
     1
102
RTVSPropertyOp32
 70
     1
102
RTVSPropertyOp33
 70
     1
102
RTVSPropertyOp34
 70
     1
102
RTVSPropertyOp35
 70
     1
102
RTVSPropertyOp36
 70
     1
102
RTVSPropertyOp37
 70
     1
102
RTVSPropertyOp38
 70
     1
102
RTVSPropertyOp39
 70
     1
102
RTVSPropertyOp40
 70
     1
102
RTVSPropertyOp41
 70
     1
102
RTVSPropertyOp42
 70
     1
102
RTVSPropertyOp43
 70
     1
102
RTVSPropertyOp44
 70
     1
102
RTVSPropertyOp45
 70
     1
102
RTVSPropertyOp46
 70
     1
102
RTVSPropertyOp47
 70
     1
102
RTVSPropertyOp48
 70
     1
102
RTVSPropertyOp49
 70
     1
102
RTVSPropertyOp50
 70
     1
102
RTVSPropertyOp51
 70
     0
102
RTVSPropertyOp52
 70
     0
102
RTVSPropertyOp53
 70
     1
102
RTVSPropertyOp54
 70
     1
102
RTVSPropertyOp55
 70
     1
102
RTVSPropertyOp56
 70
     1
102
RTVSPropertyOp57
 70
     1
102
RTVSPost2010Prop28
280
     0
102
RTVSPost2010PropOp28
 70
     1
102
RTVSPost2010Prop29
280
     1
102
RTVSPost2010PropOp29
 70
     1
102
RTVSPost2010Prop30
280
     1
102
RTVSPost2010PropOp30
 70
     1
102
RTVSPost2010Prop31
280
     0
102
RTVSPost2010PropOp31
 70
     1
102
RTVSPost2010Prop32
280
     0
102
RTVSPost2010PropOp32
 70
     1
102
RTVSPost2010Prop33
280
     0
102
RTVSPost2010PropOp33
 70
     1
102
RTVSPost2010Prop34
280
     0
102
RTVSPost2010PropOp34
 70
     1
102
RTVSPost2010Prop35
280
     0
102
RTVSPost2010PropOp35
 70
     1
102
RTVSPost2010Prop36
280
     0
102
RTVSPost2010PropOp36
 70
     1
102
RTVSPost2010Prop37
 90
       50
102
RTVSPost2010PropOp37
 70
     1
102
RTVSPost2010Prop38
140
0.0
102
RTVSPost2010PropOp38
 70
     1
102
RTVSPost2010Prop39
140
1.0
102
RTVSPost2010PropOp39
 70
     1
102
RTVSPost2010Prop40
 90
        0
102
RTVSPost2010PropOp40
 70
     1
102
RTVSPost2010Prop41ColorIndex
 90
       18
102
RTVSPost2010Prop41ColorRGB
 90
        0
102
RTVSPost2010PropOp41
 70
     1
102
RTVSPost2010Prop42
 90
       50
102
RTVSPost2010PropOp42
 70
     1
102
RTVSPost2010Prop43
 90
        3
102
RTVSPost2010PropOp43
 70
     1
102
RTVSPost2010Prop44ColorIndex
 90
        5
102
RTVSPost2010Prop44ColorRGB
 90
      255
102
RTVSPost2010PropOp44
 70
     1
102
RTVSPost2010Prop45
280
     0
102
RTVSPost2010PropOp45
 70
     1
102
RTVSPost2010Prop46
 90
       50
102
RTVSPost2010PropOp46
 70
     1
102
RTVSPost2010Prop47
 90
       50
102
RTVSPost2010PropOp47
 70
     1
102
RTVSPost2010Prop48
 90
       50
102
RTVSPost2010PropOp48
 70
     1
102
RTVSPost2010Prop49
280
     0
102
RTVSPost2010PropOp49
 70
     1
102
RTVSPost2010Prop50
 90
       50
102
RTVSPost2010PropOp50
 70
     1
102
RTVSPost2010Prop51ColorIndex
 90
      256
102
RTVSPost2010Prop51ColorRGB
 90
-16777216
102
RTVSPost2010PropOp51
 70
     0
102
RTVSPost2010Prop52
140
1.0
102
RTVSPost2010PropOp52
 70
     0
102
RTVSPost2010Prop53
 90
        2
102
RTVSPost2010PropOp53
 70
     1
102
RTVSPost2010Prop54
  1
strokes_ogs.tif
102
RTVSPost2010PropOp54
 70
     1
102
RTVSPost2010Prop55
280
     0
102
RTVSPost2010PropOp55
 70
     1
102
RTVSPost2010Prop56
140
1.0
102
RTVSPost2010PropOp56
 70
     1
102
RTVSPost2010Prop57
140
1.0
102
RTVSPost2010PropOp57
 70
     1
  0
XRECORD
  5
19E
102
{ACAD_REACTORS
330
19D
102
}
330
19D
100
AcDbXrecord
280
     1
102
RTVSPropertyOp0
 70
     1
102
RTVSPropertyOp1
 70
     1
102
RTVSPropertyOp2
 70
     1
102
RTVSPropertyOp3
 70
     1
102
RTVSPropertyOp4
 70
     1
102
RTVSPropertyOp5
 70
     1
102
RTVSPropertyOp6
 70
     1
102
RTVSPropertyOp7
 70
     1
102
RTVSPropertyOp8
 70
     1
102
RTVSPropertyOp9
 70
     1
102
RTVSPropertyOp10
 70
     1
102
RTVSPropertyOp11
 70
     1
102
RTVSPropertyOp12
 70
     1
102
RTVSPropertyOp13
 70
     1
102
RTVSPropertyOp14
 70
     1
102
RTVSPropertyOp15
 70
     1
102
RTVSPropertyOp16
 70
     1
102
RTVSPropertyOp17
 70
     1
102
RTVSPropertyOp18
 70
     1
102
RTVSPropertyOp19
 70
     1
102
RTVSPropertyOp20
 70
     1
102
RTVSPropertyOp21
 70
     1
102
RTVSPropertyOp22
 70
     1
102
RTVSPropertyOp23
 70
     1
102
RTVSPropertyOp24
 70
     1
102
RTVSPropertyOp25
 70
     1
102
RTVSPropertyOp26
 70
     1
102
RTVSPropertyOp27
 70
     1
102
RTVSPropertyOp28
 70
     1
102
RTVSPropertyOp29
 70
     1
102
RTVSPropertyOp30
 70
     1
102
RTVSPropertyOp31
 70
     1
102
RTVSPropertyOp32
 70
     1
102
RTVSPropertyOp33
 70
     1
102
RTVSPropertyOp34
 70
     1
102
RTVSPropertyOp35
 70
     1
102
RTVSPropertyOp36
 70
     1
102
RTVSPropertyOp37
 70
     1
102
RTVSPropertyOp38
 70
     1
102
RTVSPropertyOp39
 70
     1
102
RTVSPropertyOp40
 70
     1
102
RTVSPropertyOp41
 70
     1
102
RTVSPropertyOp42
 70
     1
102
RTVSPropertyOp43
 70
     1
102
RTVSPropertyOp44
 70
     1
102
RTVSPropertyOp45
 70
     1
102
RTVSPropertyOp46
 70
     1
102
RTVSPropertyOp47
 70
     1
102
RTVSPropertyOp48
 70
     1
102
RTVSPropertyOp49
 70
     1
102
RTVSPropertyOp50
 70
     1
102
RTVSPropertyOp51
 70
     0
102
RTVSPropertyOp52
 70
     0
102
RTVSPropertyOp53
 70
     1
102
RTVSPropertyOp54
 70
     1
102
RTVSPropertyOp55
 70
     1
102
RTVSPropertyOp56
 70
     1
102
RTVSPropertyOp57
 70
     1
102
RTVSPost2010Prop28
280
     0
102
RTVSPost2010PropOp28
 70
     1
102
RTVSPost2010Prop29
280
     1
102
RTVSPost2010PropOp29
 70
     1
102
RTVSPost2010Prop30
280
     1
102
RTVSPost2010PropOp30
 70
     1
102
RTVSPost2010Prop31
280
     0
102
RTVSPost2010PropOp31
 70
     1
102
RTVSPost2010Prop32
280
     0
102
RTVSPost2010PropOp32
 70
     1
102
RTVSPost2010Prop33
280
     0
102
RTVSPost2010PropOp33
 70
     1
102
RTVSPost2010Prop34
280
     0
102
RTVSPost2010PropOp34
 70
     1
102
RTVSPost2010Prop35
280
     0
102
RTVSPost2010PropOp35
 70
     1
102
RTVSPost2010Prop36
280
     0
102
RTVSPost2010PropOp36
 70
     1
102
RTVSPost2010Prop37
 90
       50
102
RTVSPost2010PropOp37
 70
     1
102
RTVSPost2010Prop38
140
0.0
102
RTVSPost2010PropOp38
 70
     1
102
RTVSPost2010Prop39
140
1.0
102
RTVSPost2010PropOp39
 70
     1
102
RTVSPost2010Prop40
 90
        0
102
RTVSPost2010PropOp40
 70
     1
102
RTVSPost2010Prop41ColorIndex
 90
       18
102
RTVSPost2010Prop41ColorRGB
 90
        0
102
RTVSPost2010PropOp41
 70
     1
102
RTVSPost2010Prop42
 90
       50
102
RTVSPost2010PropOp42
 70
     1
102
RTVSPost2010Prop43
 90
        3
102
RTVSPost2010PropOp43
 70
     1
102
RTVSPost2010Prop44ColorIndex
 90
        5
102
RTVSPost2010Prop44ColorRGB
 90
      255
102
RTVSPost2010PropOp44
 70
     1
102
RTVSPost2010Prop45
280
     0
102
RTVSPost2010PropOp45
 70
     1
102
RTVSPost2010Prop46
 90
       50
102
RTVSPost2010PropOp46
 70
     1
102
RTVSPost2010Prop47
 90
       50
102
RTVSPost2010PropOp47
 70
     1
102
RTVSPost2010Prop48
 90
       50
102
RTVSPost2010PropOp48
 70
     1
102
RTVSPost2010Prop49
280
     0
102
RTVSPost2010PropOp49
 70
     1
102
RTVSPost2010Prop50
 90
       50
102
RTVSPost2010PropOp50
 70
     1
102
RTVSPost2010Prop51ColorIndex
 90
      256
102
RTVSPost2010Prop51ColorRGB
 90
-16777216
102
RTVSPost2010PropOp51
 70
     0
102
RTVSPost2010Prop52
140
1.0
102
RTVSPost2010PropOp52
 70
     0
102
RTVSPost2010Prop53
 90
        2
102
RTVSPost2010PropOp53
 70
     1
102
RTVSPost2010Prop54
  1
strokes_ogs.tif
102
RTVSPost2010PropOp54
 70
     1
102
RTVSPost2010Prop55
280
     0
102
RTVSPost2010PropOp55
 70
     1
102
RTVSPost2010Prop56
140
1.0
102
RTVSPost2010PropOp56
 70
     1
102
RTVSPost2010Prop57
140
1.0
102
RTVSPost2010PropOp57
 70
     1
  0
XRECORD
  5
18E
102
{ACAD_REACTORS
330
18D
102
}
330
18D
100
AcDbXrecord
280
     1
102
RTVSPropertyOp0
 70
     1
102
RTVSPropertyOp1
 70
     1
102
RTVSPropertyOp2
 70
     1
102
RTVSPropertyOp3
 70
     1
102
RTVSPropertyOp4
 70
     1
102
RTVSPropertyOp5
 70
     1
102
RTVSPropertyOp6
 70
     1
102
RTVSPropertyOp7
 70
     1
102
RTVSPropertyOp8
 70
     1
102
RTVSPropertyOp9
 70
     1
102
RTVSPropertyOp10
 70
     1
102
RTVSPropertyOp11
 70
     1
102
RTVSPropertyOp12
 70
     1
102
RTVSPropertyOp13
 70
     1
102
RTVSPropertyOp14
 70
     1
102
RTVSPropertyOp15
 70
     1
102
RTVSPropertyOp16
 70
     1
102
RTVSPropertyOp17
 70
     1
102
RTVSPropertyOp18
 70
     1
102
RTVSPropertyOp19
 70
     1
102
RTVSPropertyOp20
 70
     1
102
RTVSPropertyOp21
 70
     1
102
RTVSPropertyOp22
 70
     1
102
RTVSPropertyOp23
 70
     1
102
RTVSPropertyOp24
 70
     1
102
RTVSPropertyOp25
 70
     1
102
RTVSPropertyOp26
 70
     1
102
RTVSPropertyOp27
 70
     1
102
RTVSPropertyOp28
 70
     1
102
RTVSPropertyOp29
 70
     1
102
RTVSPropertyOp30
 70
     1
102
RTVSPropertyOp31
 70
     1
102
RTVSPropertyOp32
 70
     1
102
RTVSPropertyOp33
 70
     1
102
RTVSPropertyOp34
 70
     1
102
RTVSPropertyOp35
 70
     1
102
RTVSPropertyOp36
 70
     1
102
RTVSPropertyOp37
 70
     1
102
RTVSPropertyOp38
 70
     1
102
RTVSPropertyOp39
 70
     1
102
RTVSPropertyOp40
 70
     1
102
RTVSPropertyOp41
 70
     1
102
RTVSPropertyOp42
 70
     1
102
RTVSPropertyOp43
 70
     1
102
RTVSPropertyOp44
 70
     1
102
RTVSPropertyOp45
 70
     1
102
RTVSPropertyOp46
 70
     1
102
RTVSPropertyOp47
 70
     1
102
RTVSPropertyOp48
 70
     1
102
RTVSPropertyOp49
 70
     1
102
RTVSPropertyOp50
 70
     1
102
RTVSPropertyOp51
 70
     0
102
RTVSPropertyOp52
 70
     0
102
RTVSPropertyOp53
 70
     1
102
RTVSPropertyOp54
 70
     1
102
RTVSPropertyOp55
 70
     1
102
RTVSPropertyOp56
 70
     1
102
RTVSPropertyOp57
 70
     1
102
RTVSPost2010Prop28
280
     0
102
RTVSPost2010PropOp28
 70
     1
102
RTVSPost2010Prop29
280
     1
102
RTVSPost2010PropOp29
 70
     1
102
RTVSPost2010Prop30
280
     1
102
RTVSPost2010PropOp30
 70
     1
102
RTVSPost2010Prop31
280
     0
102
RTVSPost2010PropOp31
 70
     1
102
RTVSPost2010Prop32
280
     0
102
RTVSPost2010PropOp32
 70
     1
102
RTVSPost2010Prop33
280
     0
102
RTVSPost2010PropOp33
 70
     1
102
RTVSPost2010Prop34
280
     0
102
RTVSPost2010PropOp34
 70
     1
102
RTVSPost2010Prop35
280
     0
102
RTVSPost2010PropOp35
 70
     1
102
RTVSPost2010Prop36
280
     0
102
RTVSPost2010PropOp36
 70
     1
102
RTVSPost2010Prop37
 90
       50
102
RTVSPost2010PropOp37
 70
     1
102
RTVSPost2010Prop38
140
0.0
102
RTVSPost2010PropOp38
 70
     1
102
RTVSPost2010Prop39
140
1.0
102
RTVSPost2010PropOp39
 70
     1
102
RTVSPost2010Prop40
 90
        0
102
RTVSPost2010PropOp40
 70
     1
102
RTVSPost2010Prop41ColorIndex
 90
       18
102
RTVSPost2010Prop41ColorRGB
 90
        0
102
RTVSPost2010PropOp41
 70
     1
102
RTVSPost2010Prop42
 90
       50
102
RTVSPost2010PropOp42
 70
     1
102
RTVSPost2010Prop43
 90
        3
102
RTVSPost2010PropOp43
 70
     1
102
RTVSPost2010Prop44ColorIndex
 90
        5
102
RTVSPost2010Prop44ColorRGB
 90
      255
102
RTVSPost2010PropOp44
 70
     1
102
RTVSPost2010Prop45
280
     0
102
RTVSPost2010PropOp45
 70
     1
102
RTVSPost2010Prop46
 90
       50
102
RTVSPost2010PropOp46
 70
     1
102
RTVSPost2010Prop47
 90
       50
102
RTVSPost2010PropOp47
 70
     1
102
RTVSPost2010Prop48
 90
       50
102
RTVSPost2010PropOp48
 70
     1
102
RTVSPost2010Prop49
280
     0
102
RTVSPost2010PropOp49
 70
     1
102
RTVSPost2010Prop50
 90
       50
102
RTVSPost2010PropOp50
 70
     1
102
RTVSPost2010Prop51ColorIndex
 90
      256
102
RTVSPost2010Prop51ColorRGB
 90
-16777216
102
RTVSPost2010PropOp51
 70
     0
102
RTVSPost2010Prop52
140
1.0
102
RTVSPost2010PropOp52
 70
     0
102
RTVSPost2010Prop53
 90
        2
102
RTVSPost2010PropOp53
 70
     1
102
RTVSPost2010Prop54
  1
strokes_ogs.tif
102
RTVSPost2010PropOp54
 70
     1
102
RTVSPost2010Prop55
280
     0
102
RTVSPost2010PropOp55
 70
     1
102
RTVSPost2010Prop56
140
1.0
102
RTVSPost2010PropOp56
 70
     1
102
RTVSPost2010Prop57
140
1.0
102
RTVSPost2010PropOp57
 70
     1
  0
XRECORD
  5
180
102
{ACAD_REACTORS
330
17F
102
}
330
17F
100
AcDbXrecord
280
     1
102
RTVSPropertyOp0
 70
     1
102
RTVSPropertyOp1
 70
     1
102
RTVSPropertyOp2
 70
     1
102
RTVSPropertyOp3
 70
     1
102
RTVSPropertyOp4
 70
     1
102
RTVSPropertyOp5
 70
     1
102
RTVSPropertyOp6
 70
     1
102
RTVSPropertyOp7
 70
     1
102
RTVSPropertyOp8
 70
     1
102
RTVSPropertyOp9
 70
     1
102
RTVSPropertyOp10
 70
     1
102
RTVSPropertyOp11
 70
     1
102
RTVSPropertyOp12
 70
     1
102
RTVSPropertyOp13
 70
     1
102
RTVSPropertyOp14
 70
     1
102
RTVSPropertyOp15
 70
     1
102
RTVSPropertyOp16
 70
     1
102
RTVSPropertyOp17
 70
     1
102
RTVSPropertyOp18
 70
     1
102
RTVSPropertyOp19
 70
     1
102
RTVSPropertyOp20
 70
     1
102
RTVSPropertyOp21
 70
     1
102
RTVSPropertyOp22
 70
     1
102
RTVSPropertyOp23
 70
     1
102
RTVSPropertyOp24
 70
     1
102
RTVSPropertyOp25
 70
     1
102
RTVSPropertyOp26
 70
     1
102
RTVSPropertyOp27
 70
     1
102
RTVSPropertyOp28
 70
     1
102
RTVSPropertyOp29
 70
     1
102
RTVSPropertyOp30
 70
     1
102
RTVSPropertyOp31
 70
     1
102
RTVSPropertyOp32
 70
     1
102
RTVSPropertyOp33
 70
     1
102
RTVSPropertyOp34
 70
     1
102
RTVSPropertyOp35
 70
     1
102
RTVSPropertyOp36
 70
     1
102
RTVSPropertyOp37
 70
     1
102
RTVSPropertyOp38
 70
     1
102
RTVSPropertyOp39
 70
     1
102
RTVSPropertyOp40
 70
     1
102
RTVSPropertyOp41
 70
     1
102
RTVSPropertyOp42
 70
     1
102
RTVSPropertyOp43
 70
     1
102
RTVSPropertyOp44
 70
     1
102
RTVSPropertyOp45
 70
     1
102
RTVSPropertyOp46
 70
     1
102
RTVSPropertyOp47
 70
     1
102
RTVSPropertyOp48
 70
     1
102
RTVSPropertyOp49
 70
     1
102
RTVSPropertyOp50
 70
     1
102
RTVSPropertyOp51
 70
     0
102
RTVSPropertyOp52
 70
     0
102
RTVSPropertyOp53
 70
     1
102
RTVSPropertyOp54
 70
     1
102
RTVSPropertyOp55
 70
     1
102
RTVSPropertyOp56
 70
     1
102
RTVSPropertyOp57
 70
     1
102
RTVSPost2010Prop28
280
     0
102
RTVSPost2010PropOp28
 70
     1
102
RTVSPost2010Prop29
280
     1
102
RTVSPost2010PropOp29
 70
     1
102
RTVSPost2010Prop30
280
     1
102
RTVSPost2010PropOp30
 70
     1
102
RTVSPost2010Prop31
280
     0
102
RTVSPost2010PropOp31
 70
     1
102
RTVSPost2010Prop32
280
     0
102
RTVSPost2010PropOp32
 70
     1
102
RTVSPost2010Prop33
280
     0
102
RTVSPost2010PropOp33
 70
     1
102
RTVSPost2010Prop34
280
     0
102
RTVSPost2010PropOp34
 70
     1
102
RTVSPost2010Prop35
280
     0
102
RTVSPost2010PropOp35
 70
     1
102
RTVSPost2010Prop36
280
     0
102
RTVSPost2010PropOp36
 70
     1
102
RTVSPost2010Prop37
 90
       50
102
RTVSPost2010PropOp37
 70
     1
102
RTVSPost2010Prop38
140
0.0
102
RTVSPost2010PropOp38
 70
     1
102
RTVSPost2010Prop39
140
1.0
102
RTVSPost2010PropOp39
 70
     1
102
RTVSPost2010Prop40
 90
        0
102
RTVSPost2010PropOp40
 70
     1
102
RTVSPost2010Prop41ColorIndex
 90
       18
102
RTVSPost2010Prop41ColorRGB
 90
        0
102
RTVSPost2010PropOp41
 70
     1
102
RTVSPost2010Prop42
 90
       50
102
RTVSPost2010PropOp42
 70
     1
102
RTVSPost2010Prop43
 90
        3
102
RTVSPost2010PropOp43
 70
     1
102
RTVSPost2010Prop44ColorIndex
 90
        5
102
RTVSPost2010Prop44ColorRGB
 90
      255
102
RTVSPost2010PropOp44
 70
     1
102
RTVSPost2010Prop45
280
     0
102
RTVSPost2010PropOp45
 70
     1
102
RTVSPost2010Prop46
 90
       50
102
RTVSPost2010PropOp46
 70
     1
102
RTVSPost2010Prop47
 90
       50
102
RTVSPost2010PropOp47
 70
     1
102
RTVSPost2010Prop48
 90
       50
102
RTVSPost2010PropOp48
 70
     1
102
RTVSPost2010Prop49
280
     0
102
RTVSPost2010PropOp49
 70
     1
102
RTVSPost2010Prop50
 90
       50
102
RTVSPost2010PropOp50
 70
     1
102
RTVSPost2010Prop51ColorIndex
 90
      256
102
RTVSPost2010Prop51ColorRGB
 90
-16777216
102
RTVSPost2010PropOp51
 70
     0
102
RTVSPost2010Prop52
140
1.0
102
RTVSPost2010PropOp52
 70
     0
102
RTVSPost2010Prop53
 90
        2
102
RTVSPost2010PropOp53
 70
     1
102
RTVSPost2010Prop54
  1
strokes_ogs.tif
102
RTVSPost2010PropOp54
 70
     1
102
RTVSPost2010Prop55
280
     0
102
RTVSPost2010PropOp55
 70
     1
102
RTVSPost2010Prop56
140
1.0
102
RTVSPost2010PropOp56
 70
     1
102
RTVSPost2010Prop57
140
1.0
102
RTVSPost2010PropOp57
 70
     1
  0
XRECORD
  5
1A0
102
{ACAD_REACTORS
330
19F
102
}
330
19F
100
AcDbXrecord
280
     1
102
RTVSPropertyOp0
 70
     1
102
RTVSPropertyOp1
 70
     1
102
RTVSPropertyOp2
 70
     1
102
RTVSPropertyOp3
 70
     1
102
RTVSPropertyOp4
 70
     1
102
RTVSPropertyOp5
 70
     1
102
RTVSPropertyOp6
 70
     1
102
RTVSPropertyOp7
 70
     1
102
RTVSPropertyOp8
 70
     1
102
RTVSPropertyOp9
 70
     1
102
RTVSPropertyOp10
 70
     1
102
RTVSPropertyOp11
 70
     1
102
RTVSPropertyOp12
 70
     1
102
RTVSPropertyOp13
 70
     1
102
RTVSPropertyOp14
 70
     1
102
RTVSPropertyOp15
 70
     1
102
RTVSPropertyOp16
 70
     1
102
RTVSPropertyOp17
 70
     1
102
RTVSPropertyOp18
 70
     1
102
RTVSPropertyOp19
 70
     1
102
RTVSPropertyOp20
 70
     1
102
RTVSPropertyOp21
 70
     1
102
RTVSPropertyOp22
 70
     1
102
RTVSPropertyOp23
 70
     1
102
RTVSPropertyOp24
 70
     1
102
RTVSPropertyOp25
 70
     1
102
RTVSPropertyOp26
 70
     1
102
RTVSPropertyOp27
 70
     1
102
RTVSPropertyOp28
 70
     1
102
RTVSPropertyOp29
 70
     1
102
RTVSPropertyOp30
 70
     1
102
RTVSPropertyOp31
 70
     1
102
RTVSPropertyOp32
 70
     1
102
RTVSPropertyOp33
 70
     1
102
RTVSPropertyOp34
 70
     1
102
RTVSPropertyOp35
 70
     1
102
RTVSPropertyOp36
 70
     1
102
RTVSPropertyOp37
 70
     1
102
RTVSPropertyOp38
 70
     1
102
RTVSPropertyOp39
 70
     1
102
RTVSPropertyOp40
 70
     1
102
RTVSPropertyOp41
 70
     1
102
RTVSPropertyOp42
 70
     1
102
RTVSPropertyOp43
 70
     1
102
RTVSPropertyOp44
 70
     1
102
RTVSPropertyOp45
 70
     1
102
RTVSPropertyOp46
 70
     1
102
RTVSPropertyOp47
 70
     1
102
RTVSPropertyOp48
 70
     1
102
RTVSPropertyOp49
 70
     1
102
RTVSPropertyOp50
 70
     1
102
RTVSPropertyOp51
 70
     0
102
RTVSPropertyOp52
 70
     0
102
RTVSPropertyOp53
 70
     1
102
RTVSPropertyOp54
 70
     1
102
RTVSPropertyOp55
 70
     1
102
RTVSPropertyOp56
 70
     1
102
RTVSPropertyOp57
 70
     1
102
RTVSPost2010Prop28
280
     0
102
RTVSPost2010PropOp28
 70
     1
102
RTVSPost2010Prop29
280
     1
102
RTVSPost2010PropOp29
 70
     1
102
RTVSPost2010Prop30
280
     1
102
RTVSPost2010PropOp30
 70
     1
102
RTVSPost2010Prop31
280
     0
102
RTVSPost2010PropOp31
 70
     1
102
RTVSPost2010Prop32
280
     0
102
RTVSPost2010PropOp32
 70
     1
102
RTVSPost2010Prop33
280
     0
102
RTVSPost2010PropOp33
 70
     1
102
RTVSPost2010Prop34
280
     0
102
RTVSPost2010PropOp34
 70
     1
102
RTVSPost2010Prop35
280
     0
102
RTVSPost2010PropOp35
 70
     1
102
RTVSPost2010Prop36
280
     0
102
RTVSPost2010PropOp36
 70
     1
102
RTVSPost2010Prop37
 90
       50
102
RTVSPost2010PropOp37
 70
     1
102
RTVSPost2010Prop38
140
0.0
102
RTVSPost2010PropOp38
 70
     1
102
RTVSPost2010Prop39
140
1.0
102
RTVSPost2010PropOp39
 70
     1
102
RTVSPost2010Prop40
 90
        0
102
RTVSPost2010PropOp40
 70
     1
102
RTVSPost2010Prop41ColorIndex
 90
       18
102
RTVSPost2010Prop41ColorRGB
 90
        0
102
RTVSPost2010PropOp41
 70
     1
102
RTVSPost2010Prop42
 90
       50
102
RTVSPost2010PropOp42
 70
     1
102
RTVSPost2010Prop43
 90
        3
102
RTVSPost2010PropOp43
 70
     1
102
RTVSPost2010Prop44ColorIndex
 90
        5
102
RTVSPost2010Prop44ColorRGB
 90
      255
102
RTVSPost2010PropOp44
 70
     1
102
RTVSPost2010Prop45
280
     0
102
RTVSPost2010PropOp45
 70
     1
102
RTVSPost2010Prop46
 90
       50
102
RTVSPost2010PropOp46
 70
     1
102
RTVSPost2010Prop47
 90
       50
102
RTVSPost2010PropOp47
 70
     1
102
RTVSPost2010Prop48
 90
       50
102
RTVSPost2010PropOp48
 70
     1
102
RTVSPost2010Prop49
280
     0
102
RTVSPost2010PropOp49
 70
     1
102
RTVSPost2010Prop50
 90
       50
102
RTVSPost2010PropOp50
 70
     1
102
RTVSPost2010Prop51ColorIndex
 90
      256
102
RTVSPost2010Prop51ColorRGB
 90
-16777216
102
RTVSPost2010PropOp51
 70
     0
102
RTVSPost2010Prop52
140
1.0
102
RTVSPost2010PropOp52
 70
     0
102
RTVSPost2010Prop53
 90
        2
102
RTVSPost2010PropOp53
 70
     1
102
RTVSPost2010Prop54
  1
strokes_ogs.tif
102
RTVSPost2010PropOp54
 70
     1
102
RTVSPost2010Prop55
280
     0
102
RTVSPost2010PropOp55
 70
     1
102
RTVSPost2010Prop56
140
1.0
102
RTVSPost2010PropOp56
 70
     1
102
RTVSPost2010Prop57
140
1.0
102
RTVSPost2010PropOp57
 70
     1
  0
ENDSEC
  0
EOF
