  0
SECTION
  2
HEADER
  9
$ACADVER
  1
AC1021
  9
$ACADMAINTVER
 70
    25
  9
$DWGCODEPAGE
  3
ANSI_1252
  9
$LASTSAVEDBY
  1
User
  9
$INSBASE
 10
0.0
 20
0.0
 30
0.0
  9
$EXTMIN
 10
1.000000000000000E+20
 20
1.000000000000000E+20
 30
1.000000000000000E+20
  9
$EXTMAX
 10
-1.000000000000000E+20
 20
-1.000000000000000E+20
 30
-1.000000000000000E+20
  9
$LIMMIN
 10
0.0
 20
0.0
  9
$LIMMAX
 10
12.0
 20
9.0
  9
$ORTHOMODE
 70
     0
  9
$REGENMODE
 70
     1
  9
$FILLMODE
 70
     1
  9
$QTEXTMODE
 70
     0
  9
$MIRRTEXT
 70
     1
  9
$LTSCALE
 40
1.0
  9
$ATTMODE
 70
     1
  9
$TEXTSIZE
 40
0.2
  9
$TRACEWID
 40
0.05
  9
$TEXTSTYLE
  7
Standard
  9
$CLAYER
  8
0
  9
$CELTYPE
  6
ByLayer
  9
$CECOLOR
 62
   256
  9
$CELTSCALE
 40
1.0
  9
$DISPSILH
 70
     0
  9
$DIMSCALE
 40
1.0
  9
$DIMASZ
 40
0.18
  9
$DIMEXO
 40
0.0625
  9
$DIMDLI
 40
0.38
  9
$DIMRND
 40
0.0
  9
$DIMDLE
 40
0.0
  9
$DIMEXE
 40
0.18
  9
$DIMTP
 40
0.0
  9
$DIMTM
 40
0.0
  9
$DIMTXT
 40
0.18
  9
$DIMCEN
 40
0.09
  9
$DIMTSZ
 40
0.0
  9
$DIMTOL
 70
     0
  9
$DIMLIM
 70
     0
  9
$DIMTIH
 70
     1
  9
$DIMTOH
 70
     1
  9
$DIMSE1
 70
     0
  9
$DIMSE2
 70
     0
  9
$DIMTAD
 70
     0
  9
$DIMZIN
 70
     0
  9
$DIMBLK
  1

  9
$DIMASO
 70
     1
  9
$DIMSHO
 70
     1
  9
$DIMPOST
  1

  9
$DIMAPOST
  1

  9
$DIMALT
 70
     0
  9
$DIMALTD
 70
     2
  9
$DIMALTF
 40
25.4
  9
$DIMLFAC
 40
1.0
  9
$DIMTOFL
 70
     0
  9
$DIMTVP
 40
0.0
  9
$DIMTIX
 70
     0
  9
$DIMSOXD
 70
     0
  9
$DIMSAH
 70
     0
  9
$DIMBLK1
  1

  9
$DIMBLK2
  1

  9
$DIMSTYLE
  2
STANDARD_ACAD
  9
$DIMCLRD
 70
     0
  9
$DIMCLRE
 70
     0
  9
$DIMCLRT
 70
     0
  9
$DIMTFAC
 40
1.0
  9
$DIMGAP
 40
0.09
  9
$DIMJUST
 70
     0
  9
$DIMSD1
 70
     0
  9
$DIMSD2
 70
     0
  9
$DIMTOLJ
 70
     1
  9
$DIMTZIN
 70
     0
  9
$DIMALTZ
 70
     0
  9
$DIMALTTZ
 70
     0
  9
$DIMUPT
 70
     0
  9
$DIMDEC
 70
     4
  9
$DIMTDEC
 70
     4
  9
$DIMALTU
 70
     2
  9
$DIMALTTD
 70
     2
  9
$DIMTXSTY
  7
Standard
  9
$DIMAUNIT
 70
     0
  9
$DIMADEC
 70
     0
  9
$DIMALTRND
 40
0.0
  9
$DIMAZIN
 70
     0
  9
$DIMDSEP
 70
    46
  9
$DIMATFIT
 70
     3
  9
$DIMFRAC
 70
     0
  9
$DIMLDRBLK
  1

  9
$DIMLUNIT
 70
     2
  9
$DIMLWD
 70
    -2
  9
$DIMLWE
 70
    -2
  9
$DIMTMOVE
 70
     2
  9
$DIMFXL
 40
1.0
  9
$DIMFXLON
 70
     0
  9
$DIMJOGANG
 40
0.7853981633974483
  9
$DIMTFILL
 70
     0
  9
$DIMTFILLCLR
 70
     0
  9
$DIMARCSYM
 70
     0
  9
$DIMLTYPE
  6

  9
$DIMLTEX1
  6

  9
$DIMLTEX2
  6

  9
$LUNITS
 70
     2
  9
$LUPREC
 70
     3
  9
$SKETCHINC
 40
0.1
  9
$FILLETRAD
 40
0.0
  9
$AUNITS
 70
     0
  9
$AUPREC
 70
     0
  9
$MENU
  1
.
  9
$ELEVATION
 40
0.0
  9
$PELEVATION
 40
0.0
  9
$THICKNESS
 40
0.0
  9
$LIMCHECK
 70
     0
  9
$CHAMFERA
 40
0.0
  9
$CHAMFERB
 40
0.0
  9
$CHAMFERC
 40
0.0
  9
$CHAMFERD
 40
0.0
  9
$SKPOLY
 70
     0
  9
$TDCREATE
 40
2459551.890446562
  9
$TDUCREATE
 40
2459552.098779896
  9
$TDUPDATE
 40
2459551.890461829
  9
$TDUUPDATE
 40
2459552.098795162
  9
$TDINDWG
 40
0.0000000116
  9
$TDUSRTIMER
 40
0.0000000116
  9
$USRTIMER
 70
     1
  9
$ANGBASE
 50
0.0
  9
$ANGDIR
 70
     0
  9
$PDMODE
 70
     0
  9
$PDSIZE
 40
0.0
  9
$PLINEWID
 40
0.0
  9
$SPLFRAME
 70
     0
  9
$SPLINETYPE
 70
     6
  9
$SPLINESEGS
 70
     8
  9
$HANDSEED
  5
1A3
  9
$SURFTAB1
 70
     6
  9
$SURFTAB2
 70
     6
  9
$SURFTYPE
 70
     6
  9
$SURFU
 70
     6
  9
$SURFV
 70
     6
  9
$UCSBASE
  2

  9
$UCSNAME
  2

  9
$UCSORG
 10
0.0
 20
0.0
 30
0.0
  9
$UCSXDIR
 10
1.0
 20
0.0
 30
0.0
  9
$UCSYDIR
 10
0.0
 20
1.0
 30
0.0
  9
$UCSORTHOREF
  2

  9
$UCSORTHOVIEW
 70
     0
  9
$UCSORGTOP
 10
0.0
 20
0.0
 30
0.0
  9
$UCSORGBOTTOM
 10
0.0
 20
0.0
 30
0.0
  9
$UCSORGLEFT
 10
0.0
 20
0.0
 30
0.0
  9
$UCSORGRIGHT
 10
0.0
 20
0.0
 30
0.0
  9
$UCSORGFRONT
 10
0.0
 20
0.0
 30
0.0
  9
$UCSORGBACK
 10
0.0
 20
0.0
 30
0.0
  9
$PUCSBASE
  2

  9
$PUCSNAME
  2

  9
$PUCSORG
 10
0.0
 20
0.0
 30
0.0
  9
$PUCSXDIR
 10
1.0
 20
0.0
 30
0.0
  9
$PUCSYDIR
 10
0.0
 20
1.0
 30
0.0
  9
$PUCSORTHOREF
  2

  9
$PUCSORTHOVIEW
 70
     0
  9
$PUCSORGTOP
 10
0.0
 20
0.0
 30
0.0
  9
$PUCSORGBOTTOM
 10
0.0
 20
0.0
 30
0.0
  9
$PUCSORGLEFT
 10
0.0
 20
0.0
 30
0.0
  9
$PUCSORGRIGHT
 10
0.0
 20
0.0
 30
0.0
  9
$PUCSORGFRONT
 10
0.0
 20
0.0
 30
0.0
  9
$PUCSORGBACK
 10
0.0
 20
0.0
 30
0.0
  9
$USERI1
 70
     0
  9
$USERI2
 70
     0
  9
$USERI3
 70
     0
  9
$USERI4
 70
     0
  9
$USERI5
 70
     0
  9
$USERR1
 40
0.0
  9
$USERR2
 40
0.0
  9
$USERR3
 40
0.0
  9
$USERR4
 40
0.0
  9
$USERR5
 40
0.0
  9
$WORLDVIEW
 70
     1
  9
$SHADEDGE
 70
     3
  9
$SHADEDIF
 70
    70
  9
$TILEMODE
 70
     1
  9
$MAXACTVP
 70
    64
  9
$PINSBASE
 10
0.0
 20
0.0
 30
0.0
  9
$PLIMCHECK
 70
     0
  9
$PEXTMIN
 10
1.000000000000000E+20
 20
1.000000000000000E+20
 30
1.000000000000000E+20
  9
$PEXTMAX
 10
-1.000000000000000E+20
 20
-1.000000000000000E+20
 30
-1.000000000000000E+20
  9
$PLIMMIN
 10
0.0
 20
0.0
  9
$PLIMMAX
 10
12.0
 20
9.0
  9
$UNITMODE
 70
     0
  9
$VISRETAIN
 70
     1
  9
$PLINEGEN
 70
     0
  9
$PSLTSCALE
 70
     1
  9
$TREEDEPTH
 70
  3020
  9
$CMLSTYLE
  2
Standard
  9
$CMLJUST
 70
     0
  9
$CMLSCALE
 40
1.0
  9
$PROXYGRAPHICS
 70
     1
  9
$MEASUREMENT
 70
     0
  9
$CELWEIGHT
370
    -1
  9
$ENDCAPS
280
     0
  9
$JOINSTYLE
280
     0
  9
$LWDISPLAY
290
     0
  9
$INSUNITS
 70
     1
  9
$HYPERLINKBASE
  1

  9
$STYLESHEET
  1

  9
$XEDIT
290
     1
  9
$CEPSNTYPE
380
     0
  9
$PSTYLEMODE
290
     1
  9
$FINGERPRINTGUID
  2
{b0d234b0-44d6-47d1-9986-8fe447028210}
  9
$VERSIONGUID
  2
{FAEB1C32-E019-11D5-929B-00C0DF256EC4}
  9
$EXTNAMES
290
     1
  9
$PSVPSCALE
 40
0.0
  9
$OLESTARTUP
290
     0
  9
$SORTENTS
280
   127
  9
$INDEXCTL
280
     0
  9
$HIDETEXT
280
     1
  9
$XCLIPFRAME
290
     0
  9
$HALOGAP
280
     0
  9
$OBSCOLOR
 70
   257
  9
$OBSLTYPE
280
     0
  9
$INTERSECTIONDISPLAY
280
     0
  9
$INTERSECTIONCOLOR
 70
   257
  9
$DIMASSOC
280
     2
  9
$PROJECTNAME
  1

  9
$CAMERADISPLAY
290
     0
  9
$LENSLENGTH
 40
50.0
  9
$CAMERAHEIGHT
 40
0.0
  9
$STEPSPERSEC
 40
2.0
  9
$STEPSIZE
 40
6.0
  9
$3DDWFPREC
 40
2.0
  9
$PSOLWIDTH
 40
0.25
  9
$PSOLHEIGHT
 40
4.0
  9
$LOFTANG1
 40
1.570796326794897
  9
$LOFTANG2
 40
1.570796326794897
  9
$LOFTMAG1
 40
0.0
  9
$LOFTMAG2
 40
0.0
  9
$LOFTPARAM
 70
     7
  9
$LOFTNORMALS
280
     1
  9
$LATITUDE
 40
37.795
  9
$LONGITUDE
 40
-122.394
  9
$NORTHDIRECTION
 40
0.0
  9
$TIMEZONE
 70
 -8000
  9
$LIGHTGLYPHDISPLAY
280
     1
  9
$TILEMODELIGHTSYNCH
280
     1
  9
$CMATERIAL
347
44
  9
$SOLIDHIST
280
     0
  9
$SHOWHIST
280
     1
  9
$DWFFRAME
280
     2
  9
$DGNFRAME
280
     2
  9
$REALWORLDSCALE
290
     1
  9
$INTERFERECOLOR
 62
   256
  9
$CSHADOW
280
     0
  9
$SHADOWPLANELOCATION
 40
0.0
  0
ENDSEC
  0
SECTION
  2
CLASSES
  0
CLASS
  1
ACDBDICTIONARYWDFLT
  2
AcDbDictionaryWithDefault
  3
ObjectDBX Classes
 90
        0
 91
        3
280
     0
281
     0
  0
CLASS
  1
VISUALSTYLE
  2
AcDbVisualStyle
  3
ObjectDBX Classes
 90
     4095
 91
        3
280
     0
281
     0
  0
CLASS
  1
MATERIAL
  2
AcDbMaterial
  3
ObjectDBX Classes
 90
     1153
 91
        3
280
     0
281
     0
  0
CLASS
  1
SCALE
  2
AcDbScale
  3
ObjectDBX Classes
 90
     1153
 91
        3
280
     0
281
     0
  0
CLASS
  1
TABLESTYLE
  2
AcDbTableStyle
  3
ObjectDBX Classes
 90
     4095
 91
        3
280
     0
281
     0
  0
CLASS
  1
MLEADERSTYLE
  2
AcDbMLeaderStyle
  3
ACDB_MLEADERSTYLE_CLASS
 90
     4095
 91
        3
280
     0
281
     0
  0
CLASS
  1
SUN
  2
AcDbSun
  3
SCENEOE
 90
     1153
 91
        3
280
     0
281
     0
  0
CLASS
  1
DICTIONARYVAR
  2
AcDbDictionaryVar
  3
ObjectDBX Classes
 90
        0
 91
        3
280
     0
281
     0
  0
CLASS
  1
CELLSTYLEMAP
  2
AcDbCellStyleMap
  3
ObjectDBX Classes
 90
     1152
 91
        3
280
     0
281
     0
  0
ENDSEC
  0
SECTION
  2
TABLES
  0
TABLE
  2
VPORT
  5
8
330
0
100
AcDbSymbolTable
 70
     1
  0
VPORT
  5
29
330
8
100
AcDbSymbolTableRecord
100
AcDbViewportTableRecord
  2
*Active
 70
     0
 10
0.0
 20
0.0
 11
1.0
 21
1.0
 12
10.42990654205607
 22
4.5
 13
0.0
 23
0.0
 14
0.5
 24
0.5
 15
0.5
 25
0.5
 16
0.0
 26
0.0
 36
1.0
 17
0.0
 27
0.0
 37
0.0
 40
9.0
 41
1.972972972850329
 42
50.0
 43
0.0
 44
0.0
 50
0.0
 51
0.0
 71
     0
 72
   100
 73
     1
 74
     3
 75
     0
 76
     0
 77
     0
 78
     0
281
     0
 65
     1
110
0.0
120
0.0
130
0.0
111
1.0
121
0.0
131
0.0
112
0.0
122
1.0
132
0.0
 79
     0
146
0.0
348
2F
 60
     3
 61
     5
292
     1
282
     1
141
0.0
142
0.0
 63
   250
361
5D
  0
ENDTAB
  0
TABLE
  2
LTYPE
  5
5
330
0
100
AcDbSymbolTable
 70
     1
  0
LTYPE
  5
14
330
5
100
AcDbSymbolTableRecord
100
AcDbLinetypeTableRecord
  2
ByBlock
 70
     0
  3

 72
    65
 73
     0
 40
0.0
  0
LTYPE
  5
15
330
5
100
AcDbSymbolTableRecord
100
AcDbLinetypeTableRecord
  2
ByLayer
 70
     0
  3

 72
    65
 73
     0
 40
0.0
  0
LTYPE
  5
16
330
5
100
AcDbSymbolTableRecord
100
AcDbLinetypeTableRecord
  2
Continuous
 70
     0
  3
Solid line
 72
    65
 73
     0
 40
0.0
  0
ENDTAB
  0
TABLE
  2
LAYER
  5
2
330
0
100
AcDbSymbolTable
 70
     3
  0
LAYER
  5
10
330
2
100
AcDbSymbolTableRecord
100
AcDbLayerTableRecord
  2
0
 70
     0
 62
     7
  6
Continuous
370
    -3
390
F
347
46
  0
LAYER
  5
5F
330
2
100
AcDbSymbolTableRecord
100
AcDbLayerTableRecord
  2
2D DXF
 70
     0
 62
    18
420
        0
  6
Continuous
370
    -3
390
F
347
46
  0
LAYER
  5
62
330
2
100
AcDbSymbolTableRecord
100
AcDbLayerTableRecord
  2
Make2D$Visible$Curves
 70
     0
 62
    18
420
        0
  6
Continuous
370
    -3
390
F
347
46
  0
ENDTAB
  0
TABLE
  2
STYLE
  5
3
330
0
100
AcDbSymbolTable
 70
     1
  0
STYLE
  5
11
330
3
100
AcDbSymbolTableRecord
100
AcDbTextStyleTableRecord
  2
Standard
 70
     0
 40
0.0
 41
1.0
 50
0.0
 71
     0
 42
0.2
  3
txt
  4

  0
ENDTAB
  0
TABLE
  2
VIEW
  5
6
330
0
100
AcDbSymbolTable
 70
     0
  0
ENDTAB
  0
TABLE
  2
UCS
  5
7
330
0
100
AcDbSymbolTable
 70
     0
  0
ENDTAB
  0
TABLE
  2
APPID
  5
9
330
0
100
AcDbSymbolTable
 70
     3
  0
APPID
  5
12
330
9
100
AcDbSymbolTableRecord
100
AcDbRegAppTableRecord
  2
ACAD
 70
     0
  0
APPID
  5
5E
330
9
100
AcDbSymbolTableRecord
100
AcDbRegAppTableRecord
  2
Rhino
 70
     0
  0
APPID
  5
19B
330
9
100
AcDbSymbolTableRecord
100
AcDbRegAppTableRecord
  2
ACAD_MLEADERVER
 70
     0
  0
ENDTAB
  0
TABLE
  2
DIMSTYLE
  5
A
330
0
100
AcDbSymbolTable
 70
     1
100
AcDbDimStyleTable
  0
DIMSTYLE
105
27
330
A
100
AcDbSymbolTableRecord
100
AcDbDimStyleTableRecord
  2
STANDARD_ACAD
 70
     0
178
     0
340
11
  0
ENDTAB
  0
TABLE
  2
BLOCK_RECORD
  5
1
330
0
100
AcDbSymbolTable
 70
     1
  0
BLOCK_RECORD
  5
1F
330
1
100
AcDbSymbolTableRecord
100
AcDbBlockTableRecord
  2
*Model_Space
340
22
 70
     0
280
     1
281
     0
  0
BLOCK_RECORD
  5
1B
330
1
100
AcDbSymbolTableRecord
100
AcDbBlockTableRecord
  2
*Paper_Space
340
1E
 70
     0
280
     1
281
     0
  0
BLOCK_RECORD
  5
23
330
1
100
AcDbSymbolTableRecord
100
AcDbBlockTableRecord
  2
*Paper_Space0
340
26
 70
     0
280
     1
281
     0
  0
ENDTAB
  0
ENDSEC
  0
SECTION
  2
BLOCKS
  0
BLOCK
  5
20
330
1F
100
AcDbEntity
  8
0
100
AcDbBlockBegin
  2
*Model_Space
 70
     0
 10
0.0
 20
0.0
 30
0.0
  3
*Model_Space
  1

  0
ENDBLK
  5
21
330
1F
100
AcDbEntity
  8
0
100
AcDbBlockEnd
  0
BLOCK
  5
1C
330
1B
100
AcDbEntity
 67
     1
  8
0
100
AcDbBlockBegin
  2
*Paper_Space
 70
     0
 10
0.0
 20
0.0
 30
0.0
  3
*Paper_Space
  1

  0
ENDBLK
  5
1D
330
1B
100
AcDbEntity
 67
     1
  8
0
100
AcDbBlockEnd
  0
BLOCK
  5
24
330
23
100
AcDbEntity
  8
0
100
AcDbBlockBegin
  2
*Paper_Space0
 70
     0
 10
0.0
 20
0.0
 30
0.0
  3
*Paper_Space0
  1

  0
ENDBLK
  5
25
330
23
100
AcDbEntity
  8
0
100
AcDbBlockEnd
  0
ENDSEC
  0
SECTION
  2
ENTITIES
  0
SPLINE
  5
60
330
1F
100
AcDbEntity
  8
2D DXF
370
    -3
100
AcDbSpline
210
0.0
220
0.0
230
1.0
 70
     8
 71
     3
 72
    10
 73
     6
 74
     0
 42
0.0000000001
 43
0.0000000001
 40
0.0
 40
0.0
 40
0.0
 40
0.0
 40
1.0
 40
2.0
 40
2.181890410364645
 40
2.181890410364645
 40
2.181890410364645
 40
2.181890410364645
 10
-4.181076522057651
 20
32.12237072120078
 30
0.0
 10
-4.21939628221719
 20
31.90944458931581
 30
0.0
 10
-4.298162899438353
 20
31.48387884251015
 30
0.0
 10
-4.391155120293064
 20
31.02121187019351
 30
0.0
 10
-4.448296549373147
 20
30.77177572731996
 30
0.0
 10
-4.457383895633554
 20
30.73346335970691
 30
0.0
  0
SPLINE
  5
61
330
1F
100
AcDbEntity
  8
2D DXF
370
    -3
100
AcDbSpline
210
0.0
220
0.0
230
1.0
 70
     8
 71
     3
 72
    10
 73
     6
 74
     0
 42
0.0000000001
 43
0.0000000001
 40
0.0
 40
0.0
 40
0.0
 40
0.0
 40
1.0
 40
2.0
 40
2.180577255345778
 40
2.180577255345778
 40
2.180577255345778
 40
2.180577255345778
 10
4.182428361976477
 20
32.12237072120078
 30
0.0
 10
4.220748122136015
 20
31.90944458931581
 30
0.0
 10
4.299514739357178
 20
31.48387884251015
 30
0.0
 10
4.392450993513952
 20
31.02149032297642
 30
0.0
 10
4.449521422162746
 20
30.77233000745017
 30
0.0
 10
4.458538963510041
 20
30.73429315811209
 30
0.0
  0
SPLINE
  5
63
330
1F
100
AcDbEntity
  8
Make2D$Visible$Curves
 62
    18
420
        0
370
    -3
100
AcDbSpline
210
0.0
220
0.0
230
1.0
 70
     8
 71
     3
 72
    27
 73
    23
 74
     0
 42
0.0000000001
 43
0.0000000001
 40
0.0
 40
0.0
 40
0.0
 40
0.0
 40
1.0
 40
2.0
 40
3.0
 40
4.0
 40
5.0
 40
6.0
 40
7.0
 40
8.0
 40
9.0
 40
9.0
 40
9.0
 40
10.0
 40
11.0
 40
12.0
 40
13.0
 40
14.0
 40
15.0
 40
16.0
 40
17.0
 40
18.0
 40
18.0
 40
18.0
 40
18.0
 10
-8.518960550853862
 20
30.34649690850937
 30
0.0
 10
-8.381998375015314
 20
30.69661294790944
 30
0.0
 10
-7.63328528457302
 20
30.63392265847347
 30
0.0
 10
-6.719209766796723
 20
30.40588325741298
 30
0.0
 10
-5.780269472512799
 20
30.09488657187975
 30
0.0
 10
-4.848682111124262
 20
29.80327446615106
 30
0.0
 10
-3.899228888627391
 20
29.56017342650201
 30
0.0
 10
-2.936533500734782
 20
29.38123245866322
 30
0.0
 10
-1.963738554005644
 20
29.26798023484928
 30
0.0
 10
-0.9864434415880936
 20
29.20886285582201
 30
0.0
 10
-0.3338864900892702
 20
29.19678453212808
 30
0.0
 10
-0.0076146783454192
 20
29.19679437906378
 30
0.0
 10
0.318655175028951
 20
29.19566388596827
 30
0.0
 10
0.9712497627869539
 20
29.20550080020338
 30
0.0
 10
1.948742161066676
 20
29.26126111372169
 30
0.0
 10
2.921920357224764
 20
29.37117140943162
 30
0.0
 10
3.885224675334499
 20
29.54680475066245
 30
0.0
 10
4.835507276841227
 20
29.78664326813146
 30
0.0
 10
5.768090743645288
 20
30.07505392942902
 30
0.0
 10
6.708093680214262
 20
30.38282380106095
 30
0.0
 10
7.622947053449778
 20
30.60772228063265
 30
0.0
 10
8.371871049949078
 20
30.66784059445387
 30
0.0
 10
8.507629873884227
 20
30.31725619608542
 30
0.0
  0
SPLINE
  5
64
330
1F
100
AcDbEntity
  8
Make2D$Visible$Curves
 62
    18
420
        0
370
    -3
100
AcDbSpline
210
0.0
220
0.0
230
1.0
 70
    12
 71
     3
 72
    41
 73
    37
 74
     0
 42
0.0000000001
 43
0.0000000001
 40
-0.0671572777863575
 40
-0.0671572777863575
 40
-0.0671572777863575
 40
-0.0671572777863575
 40
0.0
 40
0.0
 40
0.0
 40
1.000000150794276
 40
2.000000301588552
 40
3.000000452382829
 40
4.000000603177105
 40
5.000000753971381
 40
6.000000904765657
 40
7.000001055559935
 40
8.00000120635421
 40
9.000001357148488
 40
10.00000150794276
 40
11.00000165873704
 40
12.00000180953132
 40
13.0
 40
13.0
 40
13.0
 40
13.99999819046868
 40
14.99999834126296
 40
15.99999849205724
 40
16.99999864285151
 40
17.99999879364579
 40
18.99999894444007
 40
19.99999909523434
 40
20.99999924602862
 40
21.99999939682289
 40
22.99999954761717
 40
23.99999969841145
 40
24.99999984920573
 40
26.0
 40
26.0
 40
26.0
 40
26.06715727778636
 40
26.06715727778636
 40
26.06715727778636
 40
26.06715727778636
 10
-8.272959498171705
 20
30.59799938535048
 30
0.0
 41
1.0
 10
-8.27157607977176
 20
30.61398503349924
 30
0.0
 41
0.9989377936654854
 10
-8.269292832929871
 20
30.62986714850525
 30
0.0
 41
0.9989377936654854
 10
-8.266117033483813
 20
30.64559512011903
 30
0.0
 41
1.0
 10
-8.218853175321428
 20
30.87966677110377
 30
0.0
 41
1.0
 10
-7.77390964355466
 20
31.05468459513502
 30
0.0
 41
1.0
 10
-7.131109342387347
 20
31.04835514563849
 30
0.0
 41
1.0
 10
-6.483343369821839
 20
30.97225288827836
 30
0.0
 41
1.0
 10
-5.840561297351442
 20
30.88162181768185
 30
0.0
 41
1.0
 10
-5.195126174709586
 20
30.80494974629532
 30
0.0
 41
1.0
 10
-4.548733617901888
 20
30.73905133020113
 30
0.0
 41
1.0
 10
-3.900915722936148
 20
30.68809377158765
 30
0.0
 41
1.0
 10
-3.252222389782403
 20
30.65039921043359
 30
0.0
 41
1.0
 10
-2.60295814998922
 20
30.62438047102548
 30
0.0
 41
1.0
 10
-1.953392648143108
 20
30.60786638606749
 30
0.0
 41
1.0
 10
-1.303691586174466
 20
30.59849652478326
 30
0.0
 41
1.0
 10
-0.6539417499170099
 20
30.59404567482369
 30
0.0
 41
1.0
 10
-0.220766965272702
 20
30.59332968677963
 30
0.0
 41
1.0
 10
-0.0041800062426631
 20
30.59333775898401
 30
0.0
 41
1.0
 10
0.2124069527873758
 20
30.59332968677963
 30
0.0
 41
1.0
 10
0.6455817374316837
 20
30.59404567482369
 30
0.0
 41
1.0
 10
1.29533157368914
 20
30.59849652478326
 30
0.0
 41
1.0
 10
1.945032635657782
 20
30.60786638606749
 30
0.0
 41
1.0
 10
2.594598137503894
 20
30.62438047102548
 30
0.0
 41
1.0
 10
3.243862377297077
 20
30.65039921043359
 30
0.0
 41
1.0
 10
3.892555710450821
 20
30.68809377158765
 30
0.0
 41
1.0
 10
4.540373605416562
 20
30.73905133020113
 30
0.0
 41
1.0
 10
5.186766162224259
 20
30.80494974629532
 30
0.0
 41
1.0
 10
5.832201284866116
 20
30.88162181768185
 30
0.0
 41
1.0
 10
6.474983357336512
 20
30.97225288827836
 30
0.0
 41
1.0
 10
7.122749329902021
 20
31.04835514563849
 30
0.0
 41
1.0
 10
7.765549631069334
 20
31.05468459513502
 30
0.0
 41
1.0
 10
8.210493162836102
 20
30.87966677110377
 30
0.0
 41
1.0
 10
8.257757020998486
 20
30.64559512011903
 30
0.0
 41
1.0
 10
8.260932820444545
 20
30.62986714850525
 30
0.0
 41
0.9989377936654854
 10
8.263216067286436
 20
30.61398503349924
 30
0.0
 41
0.9989377936654854
 10
8.264599485686379
 20
30.59799938535048
 30
0.0
 41
1.0
  0
SPLINE
  5
65
330
1F
100
AcDbEntity
  8
Make2D$Visible$Curves
 62
    18
420
        0
370
    -3
100
AcDbSpline
210
0.0
220
0.0
230
1.0
 70
    12
 71
     3
 72
    48
 73
    44
 74
     0
 42
0.0000000001
 43
0.0000000001
 40
0.0
 40
0.0
 40
0.0
 40
0.0
 40
1.0
 40
1.0
 40
1.0
 40
2.0
 40
3.0
 40
4.0
 40
5.0
 40
6.0
 40
7.0
 40
7.0
 40
7.0
 40
8.0
 40
8.0
 40
9.0
 40
9.0
 40
10.0
 40
10.0
 40
11.0
 40
11.0
 40
12.0
 40
12.0
 40
13.0
 40
13.0
 40
14.0
 40
14.0
 40
15.0
 40
15.0
 40
16.0
 40
16.0
 40
17.0
 40
17.0
 40
18.0
 40
18.0
 40
19.0
 40
19.0
 40
20.0
 40
20.0
 40
21.0
 40
21.0
 40
21.0
 40
21.40578199946958
 40
21.40578199946958
 40
21.40578199946958
 40
21.40578199946958
 10
40.92740597333025
 20
29.24270331781111
 30
0.0
 41
1.0
 10
40.9709387737544
 20
29.22245785013983
 30
0.0
 41
1.0
 10
41.02972234486295
 20
29.25498676111611
 30
0.0
 41
1.0
 10
41.04965686912082
 20
29.29866282304184
 30
0.0
 41
1.0
 10
41.07228446056932
 20
29.34823933023858
 30
0.0
 41
1.0
 10
41.08170690800189
 20
29.462449402918
 30
0.0
 41
1.0
 10
40.99924698729777
 20
29.60841962542029
 30
0.0
 41
1.0
 10
40.88229589539623
 20
29.72269164379325
 30
0.0
 41
1.0
 10
40.74961544678359
 20
29.81825055366777
 30
0.0
 41
1.0
 10
40.60851737298323
 20
29.90036024815803
 30
0.0
 41
1.0
 10
40.51008260582019
 20
29.94675027169777
 30
0.0
 41
1.0
 10
40.46133299570066
 20
29.97084584788617
 30
0.0
 41
1.0
 10
40.14141454741905
 20
30.12897263753122
 30
0.0
 41
1.0
 10
39.81698799658708
 20
30.27769202759352
 30
0.0
 41
1.0
 10
39.15911868982246
 20
30.55631600855264
 30
0.0
 41
1.0
 10
38.82169957100303
 20
30.67094806213986
 30
0.0
 41
1.0
 10
38.12989240248999
 20
30.85085229552962
 30
0.0
 41
1.0
 10
37.77984278133554
 20
30.91888299919145
 30
0.0
 41
1.0
 10
37.07145146523078
 20
31.01110158044905
 30
0.0
 41
1.0
 10
36.71604635440058
 20
31.04227196428194
 30
0.0
 41
1.0
 10
36.00281722718453
 20
31.0747349183559
 30
0.0
 41
1.0
 10
35.64606939194973
 20
31.08014742799583
 30
0.0
 41
1.0
 10
34.93230717822654
 20
31.06933451248159
 30
0.0
 41
1.0
 10
34.57573152149449
 20
31.05617906746356
 30
0.0
 41
1.0
 10
33.86319110828946
 20
31.01437020290567
 30
0.0
 41
1.0
 10
33.50736456721739
 20
30.9876849941021
 30
0.0
 41
1.0
 10
32.79659881613413
 20
30.92275302344568
 30
0.0
 41
1.0
 10
32.44161229429006
 20
30.88647289580495
 30
0.0
 41
1.0
 10
31.73243195799707
 20
30.80628435589843
 30
0.0
 41
1.0
 10
31.37811031496579
 20
30.7639645015925
 30
0.0
 41
1.0
 10
30.67000407913369
 20
30.67487362427532
 30
0.0
 41
1.0
 10
30.31618862908364
 20
30.62851212768976
 30
0.0
 41
1.0
 10
29.60903306471552
 20
30.53215701866472
 30
0.0
 41
1.0
 10
29.25570667999979
 20
30.4822137653973
 30
0.0
 41
1.0
 10
28.54955670550502
 20
30.3787958613527
 30
0.0
 41
1.0
 10
28.19719661702245
 20
30.32231444047549
 30
0.0
 41
1.0
 10
27.49390623758697
 20
30.19980666101124
 30
0.0
 41
1.0
 10
27.14464576933382
 20
30.12722282342354
 30
0.0
 41
1.0
 10
26.45089427575673
 20
29.959395252537
 30
0.0
 41
1.0
 10
26.10485490531363
 20
29.87229836913344
 30
0.0
 41
1.0
 10
25.759651911216
 20
29.78201838776959
 30
0.0
 41
1.0
 10
25.61957442299757
 20
29.74538431088705
 30
0.0
 41
0.9999953304417449
 10
25.47963503031357
 20
29.70822620719682
 30
0.0
 41
0.9999953304417449
 10
25.33983569352944
 20
29.67054459723469
 30
0.0
 41
1.0
  0
SPLINE
  5
66
330
1F
100
AcDbEntity
  8
Make2D$Visible$Curves
 62
    18
420
        0
370
    -3
100
AcDbSpline
210
0.0
220
0.0
230
1.0
 70
    11
 71
     2
 72
    34
 73
    31
 74
     0
 42
0.0000000001
 43
0.0000000001
 40
0.0
 40
0.0
 40
0.0
 40
1.000000040306232
 40
2.000000080612463
 40
3.000000120918695
 40
4.000000161224927
 40
5.000000201531158
 40
6.00000024183739
 40
7.00000028214362
 40
8.000000322449853
 40
9.000000362756083
 40
10.00000040306232
 40
11.00000044336855
 40
12.00000048367478
 40
13.00000052398101
 40
14.0
 40
14.0
 40
14.99999947601899
 40
15.99999951632522
 40
16.99999955663145
 40
17.99999959693768
 40
18.99999963724391
 40
19.99999967755015
 40
20.99999971785638
 40
21.99999975816261
 40
22.99999979846884
 40
23.99999983877507
 40
24.9999998790813
 40
25.99999991938754
 40
26.99999995969377
 40
28.0
 40
28.0
 40
28.0
 10
0.001152226959718
 20
68.02282595737094
 30
0.0
 10
0.9501494029678099
 20
68.02798577096831
 30
0.0
 10
2.837927060720716
 20
67.8331428587707
 30
0.0
 10
4.677321632600339
 20
67.3268375758684
 30
0.0
 10
6.252040483876144
 20
66.2334522718916
 30
0.0
 10
7.321112114887143
 20
64.64775151721348
 30
0.0
 10
7.927660625936213
 20
62.84328893444111
 30
0.0
 10
8.261357220732023
 20
60.97373531416353
 30
0.0
 10
8.27514872924121
 20
59.07295891966173
 30
0.0
 10
7.966458915243393
 20
57.19706418885825
 30
0.0
 10
7.285393710623595
 20
55.41738911681442
 30
0.0
 10
6.146784355169316
 20
53.88515068696195
 30
0.0
 10
4.608560818744365
 20
52.75569470556213
 30
0.0
 10
2.829319012002713
 20
52.07393993419263
 30
0.0
 10
0.9509873169360645
 20
51.77925277615753
 30
0.0
 10
0.001152226959718
 20
51.7821301296779
 30
0.0
 10
-0.9486828630166286
 20
51.77925277615753
 30
0.0
 10
-2.827014558083278
 20
52.07393993419263
 30
0.0
 10
-4.60625636482493
 20
52.75569470556213
 30
0.0
 10
-6.144479901249881
 20
53.88515068696195
 30
0.0
 10
-7.283089256704159
 20
55.41738911681442
 30
0.0
 10
-7.964154461323957
 20
57.19706418885825
 30
0.0
 10
-8.272844275321773
 20
59.07295891966173
 30
0.0
 10
-8.259052766812587
 20
60.97373531416353
 30
0.0
 10
-7.925356172016777
 20
62.84328893444111
 30
0.0
 10
-7.318807660967707
 20
64.64775151721348
 30
0.0
 10
-6.249736029956708
 20
66.2334522718916
 30
0.0
 10
-4.675017178680903
 20
67.3268375758684
 30
0.0
 10
-2.83562260680128
 20
67.8331428587707
 30
0.0
 10
-0.947844949048374
 20
68.02798577096831
 30
0.0
 10
0.001152226959718
 20
68.02282595737094
 30
0.0
  0
LINE
  5
67
330
1F
100
AcDbEntity
  8
2D DXF
370
    -3
100
AcDbLine
 10
9.484751101302791
 20
71.71940215302004
 30
0.0
 11
7.587378693709596
 21
69.03302351173932
 31
0.0
  0
SPLINE
  5
68
330
1F
100
AcDbEntity
  8
2D DXF
370
    -3
100
AcDbSpline
210
0.0
220
0.0
230
1.0
 70
    12
 71
     2
 72
    10
 73
     7
 74
     0
 42
0.0000000001
 43
0.0000000001
 40
15.20881904819654
 40
15.20881904819654
 40
15.20881904819654
 40
15.3760903849171
 40
15.3760903849171
 40
15.87089122785749
 40
15.87089122785749
 40
16.19842073407742
 40
16.19842073407742
 40
16.19842073407742
 10
9.999341100143242
 20
71.35595046009043
 30
0.0
 41
0.8689157816187301
 10
10.04632736838011
 20
71.42247556972086
 30
0.0
 41
0.9009851318438161
 10
10.05329339326501
 20
71.50415232361104
 30
0.0
 41
1.0
 10
10.07954927133989
 20
71.81200291661537
 30
0.0
 41
0.7071067811865476
 10
9.768301978797993
 20
71.84552689955962
 30
0.0
 41
1.0
 10
9.587580405256698
 20
71.86499215144846
 30
0.0
 41
0.8061216493426762
 10
9.484751101302718
 20
71.71940215302004
 30
0.0
 41
0.8689157816187658
  0
LINE
  5
69
330
1F
100
AcDbEntity
  8
2D DXF
370
    -3
100
AcDbLine
 10
7.871395829894666
 20
68.34311718554073
 30
0.0
 11
9.99934110014324
 21
71.35595046009041
 31
0.0
  0
LINE
  5
6A
330
1F
100
AcDbEntity
  8
2D DXF
370
    -3
100
AcDbLine
 10
-9.485360062605082
 20
71.71940215302004
 30
0.0
 11
-7.587987655011887
 21
69.03302351173932
 31
0.0
  0
SPLINE
  5
6B
330
1F
100
AcDbEntity
  8
2D DXF
370
    -3
100
AcDbSpline
210
0.0
220
0.0
230
1.0
 70
    12
 71
     2
 72
    10
 73
     7
 74
     0
 42
0.0000000001
 43
0.0000000001
 40
15.20881904819654
 40
15.20881904819654
 40
15.20881904819654
 40
15.3760903849171
 40
15.3760903849171
 40
15.87089122785749
 40
15.87089122785749
 40
16.19842073407742
 40
16.19842073407742
 40
16.19842073407742
 10
-9.999950061445496
 20
71.35595046009043
 30
0.0
 41
0.8689157816187301
 10
-10.04693632968231
 20
71.42247556972086
 30
0.0
 41
0.9009851318438161
 10
-10.05390235456724
 20
71.50415232361104
 30
0.0
 41
1.0
 10
-10.08015823264218
 20
71.81200291661537
 30
0.0
 41
0.7071067811865476
 10
-9.768910940100284
 20
71.84552689955962
 30
0.0
 41
1.0
 10
-9.58818936655906
 20
71.86499215144846
 30
0.0
 41
0.8061216493426762
 10
-9.48536006260512
 20
71.71940215302004
 30
0.0
 41
0.8689157816187658
  0
LINE
  5
6C
330
1F
100
AcDbEntity
  8
2D DXF
370
    -3
100
AcDbLine
 10
-7.872004791196957
 20
68.34311718554073
 30
0.0
 11
-9.999950061445531
 21
71.35595046009041
 31
0.0
  0
LINE
  5
6D
330
1F
100
AcDbEntity
  8
2D DXF
370
    -3
100
AcDbLine
 10
9.373173874271188
 20
50.63681275367475
 30
0.0
 11
6.691381308885596
 21
54.27674137476531
 31
0.0
  0
SPLINE
  5
6E
330
1F
100
AcDbEntity
  8
2D DXF
370
    -3
100
AcDbSpline
210
0.0
220
0.0
230
1.0
 70
    12
 71
     2
 72
    10
 73
     7
 74
     0
 42
0.0000000001
 43
0.0000000001
 40
15.86212548702655
 40
15.86212548702655
 40
15.86212548702655
 40
16.15878608118745
 40
16.15878608118745
 40
16.65358692412784
 40
16.65358692412784
 40
16.85172717290732
 40
16.85172717290732
 40
16.85172717290732
 10
8.865971388761828
 20
50.26312085023942
 30
0.0
 41
0.8593593007471605
 10
8.959238397160409
 20
50.13653191951617
 30
0.0
 41
0.8243942435454477
 10
9.119572631516503
 20
50.14105165793036
 30
0.0
 41
1.0
 10
9.431351573742019
 20
50.14984054364509
 30
0.0
 41
0.7071067811865477
 10
9.431351573742104
 20
50.45875568767181
 30
0.0
 41
1.0
 10
9.431351573742157
 20
50.55784964662962
 30
0.0
 41
0.8827125376411068
 10
9.373173874271112
 20
50.63681275367475
 30
0.0
 41
0.859359300747163
  0
LINE
  5
6F
330
1F
100
AcDbEntity
  8
2D DXF
370
    -3
100
AcDbLine
 10
6.240601134560237
 20
53.82646890801679
 30
0.0
 11
8.865971388761821
 21
50.26312085023939
 31
0.0
  0
SPLINE
  5
70
330
1F
100
AcDbEntity
  8
2D DXF
370
    -3
100
AcDbSpline
210
0.0
220
0.0
230
1.0
 70
     8
 71
     2
 72
    11
 73
     8
 74
     0
 42
0.0000000001
 43
0.0000000001
 40
0.0
 40
0.0
 40
0.0
 40
1.0
 40
2.0
 40
3.0
 40
4.0
 40
5.0
 40
6.0
 40
6.0
 40
6.0
 10
9.402581020040785
 20
50.59688898343306
 30
0.0
 10
9.453564125284416
 20
50.52792624590711
 30
0.0
 10
9.467521996990072
 20
50.35723682855226
 30
0.0
 10
9.392103741209738
 20
50.20380629590029
 30
0.0
 10
9.251021147188581
 20
50.1075018784754
 30
0.0
 10
9.080536682210791
 20
50.09376265966344
 30
0.0
 10
8.927164633518842
 20
50.17005585874878
 30
0.0
 10
8.882139710981804
 20
50.24306117732139
 30
0.0
  0
SPLINE
  5
71
330
1F
100
AcDbEntity
  8
2D DXF
370
    -3
100
AcDbSpline
210
0.0
220
0.0
230
1.0
 70
     8
 71
     2
 72
    11
 73
     8
 74
     0
 42
0.0000000001
 43
0.0000000001
 40
0.0
 40
0.0
 40
0.0
 40
1.0
 40
2.0
 40
3.0
 40
4.0
 40
5.0
 40
6.0
 40
6.0
 40
6.0
 10
10.02406910614384
 20
71.39096139779326
 30
0.0
 10
10.074556181174
 20
71.4606394088513
 30
0.0
 10
10.08733268240083
 20
71.63201007749996
 30
0.0
 10
10.01040308970882
 20
71.7854396212058
 30
0.0
 10
9.867526768581698
 20
71.88024314670935
 30
0.0
 10
9.696215427468829
 20
71.8912880192637
 30
0.0
 10
9.543556124389923
 20
71.81230717793926
 30
0.0
 10
9.499386670479979
 20
71.73845203185789
 30
0.0
  0
LINE
  5
72
330
1F
100
AcDbEntity
  8
2D DXF
370
    -3
100
AcDbLine
 10
-9.373782835573422
 20
50.63681275367475
 30
0.0
 11
-6.69199027018783
 21
54.27674137476531
 31
0.0
  0
SPLINE
  5
73
330
1F
100
AcDbEntity
  8
2D DXF
370
    -3
100
AcDbSpline
210
0.0
220
0.0
230
1.0
 70
    12
 71
     2
 72
    10
 73
     7
 74
     0
 42
0.0000000001
 43
0.0000000001
 40
15.86212548702655
 40
15.86212548702655
 40
15.86212548702655
 40
16.15878608118745
 40
16.15878608118745
 40
16.65358692412784
 40
16.65358692412784
 40
16.85172717290732
 40
16.85172717290732
 40
16.85172717290732
 10
-8.86658035006408
 20
50.26312085023942
 30
0.0
 41
0.8593593007471605
 10
-8.959847358462769
 20
50.13653191951617
 30
0.0
 41
0.8243942435454477
 10
-9.12018159281878
 20
50.14105165793036
 30
0.0
 41
1.0
 10
-9.431960535044395
 20
50.14984054364509
 30
0.0
 41
0.7071067811865477
 10
-9.43196053504438
 20
50.45875568767181
 30
0.0
 41
1.0
 10
-9.431960535044372
 20
50.55784964662962
 30
0.0
 41
0.8827125376411068
 10
-9.373782835573452
 20
50.63681275367475
 30
0.0
 41
0.859359300747163
  0
LINE
  5
74
330
1F
100
AcDbEntity
  8
2D DXF
370
    -3
100
AcDbLine
 10
-6.241210095862527
 20
53.82646890801679
 30
0.0
 11
-8.866580350064112
 21
50.26312085023939
 31
0.0
  0
SPLINE
  5
75
330
1F
100
AcDbEntity
  8
2D DXF
370
    -3
100
AcDbSpline
210
0.0
220
0.0
230
1.0
 70
     8
 71
     2
 72
    11
 73
     8
 74
     0
 42
0.0000000001
 43
0.0000000001
 40
0.0
 40
0.0
 40
0.0
 40
1.0
 40
2.0
 40
3.0
 40
4.0
 40
5.0
 40
6.0
 40
6.0
 40
6.0
 10
-9.403189981343075
 20
50.59688898343306
 30
0.0
 10
-9.45417308658665
 20
50.52792624590711
 30
0.0
 10
-9.468130958292306
 20
50.35723682855226
 30
0.0
 10
-9.392712702512028
 20
50.20380629590029
 30
0.0
 10
-9.251630108490872
 20
50.1075018784754
 30
0.0
 10
-9.081145643513025
 20
50.09376265966344
 30
0.0
 10
-8.927773594821133
 20
50.17005585874878
 30
0.0
 10
-8.882748672284094
 20
50.24306117732139
 30
0.0
  0
SPLINE
  5
76
330
1F
100
AcDbEntity
  8
2D DXF
370
    -3
100
AcDbSpline
210
0.0
220
0.0
230
1.0
 70
     8
 71
     2
 72
    11
 73
     8
 74
     0
 42
0.0000000001
 43
0.0000000001
 40
0.0
 40
0.0
 40
0.0
 40
1.0
 40
2.0
 40
3.0
 40
4.0
 40
5.0
 40
6.0
 40
6.0
 40
6.0
 10
-10.02467806744608
 20
71.39096139779326
 30
0.0
 10
-10.07516514247629
 20
71.4606394088513
 30
0.0
 10
-10.08794164370312
 20
71.63201007749996
 30
0.0
 10
-10.01101205101111
 20
71.7854396212058
 30
0.0
 10
-9.868135729883988
 20
71.88024314670935
 30
0.0
 10
-9.69682438877112
 20
71.8912880192637
 30
0.0
 10
-9.544165085692157
 20
71.81230717793926
 30
0.0
 10
-9.49999563178227
 20
71.73845203185789
 30
0.0
  0
SPLINE
  5
77
330
1F
100
AcDbEntity
  8
2D DXF
370
    -3
100
AcDbSpline
210
0.0
220
0.0
230
1.0
 70
     8
 71
     2
 72
     7
 73
     4
 74
     0
 42
0.0000000001
 43
0.0000000001
 40
0.0
 40
0.0
 40
0.0
 40
1.0
 40
2.0
 40
2.0
 40
2.0
 10
6.457334052954323
 20
53.52845354263857
 30
0.0
 10
6.093214343536616
 20
53.29558398921087
 30
0.0
 10
5.292121713457348
 20
52.97085486069044
 30
0.0
 10
4.868562671343128
 20
52.88472332697523
 30
0.0
  0
SPLINE
  5
78
330
1F
100
AcDbEntity
  8
2D DXF
370
    -3
100
AcDbSpline
210
0.0
220
0.0
230
1.0
 70
    12
 71
     3
 72
     8
 73
     4
 74
     0
 42
0.0000000001
 43
0.0000000001
 40
4.248507748629283
 40
4.248507748629283
 40
4.248507748629283
 40
4.248507748629283
 40
4.700582955841645
 40
4.700582955841645
 40
4.700582955841645
 40
4.700582955841645
 10
7.659282915024326
 20
69.1428434730961
 30
0.0
 41
0.9999999999999993
 10
7.552540754940528
 20
69.24769174957146
 30
0.0
 41
0.9999999999999993
 10
7.441309076319376
 20
69.34797349588408
 30
0.0
 41
0.9999999999999993
 10
7.32603893422736
 20
69.44339730816637
 30
0.0
 41
0.9999999999999993
  0
SPLINE
  5
79
330
1F
100
AcDbEntity
  8
2D DXF
370
    -3
100
AcDbSpline
210
0.0
220
0.0
230
1.0
 70
     8
 71
     2
 72
    11
 73
     8
 74
     0
 42
0.0000000001
 43
0.0000000001
 40
13.876
 40
13.876
 40
13.876
 40
14.876
 40
15.876
 40
16.876
 40
17.876
 40
18.876
 40
19.876
 40
19.876
 40
19.876
 10
9.249307028747594
 20
65.35157114276387
 30
0.0
 10
9.249426606264777
 20
65.6495860783433
 30
0.0
 10
9.182595376815087
 20
66.24184916259179
 30
0.0
 10
9.050234288059428
 20
66.82298253430969
 30
0.0
 10
8.853753015908424
 20
67.38569148172087
 30
0.0
 10
8.59510290112378
 20
67.92266805126616
 30
0.0
 10
8.278386930847219
 20
68.42756379514049
 30
0.0
 10
8.092994104540608
 20
68.66088062909387
 30
0.0
  0
SPLINE
  5
7A
330
1F
100
AcDbEntity
  8
2D DXF
370
    -3
100
AcDbSpline
210
0.0
220
0.0
230
1.0
 70
    28
 71
     3
 72
     8
 73
     4
 74
     0
 42
0.0000000001
 43
0.0000000001
 40
6.0
 40
6.0
 40
6.0
 40
6.0
 40
13.876
 40
13.876
 40
13.876
 40
13.876
 10
9.249307028747594
 20
57.4755711427639
 30
0.0
 41
1.0
 10
9.249307028747594
 20
60.10090447609718
 30
0.0
 41
1.0
 10
9.249307028747534
 20
62.72623780943059
 30
0.0
 41
1.0
 10
9.249307028747594
 20
65.35157114276387
 30
0.0
 41
1.0
  0
SPLINE
  5
7B
330
1F
100
AcDbEntity
  8
2D DXF
370
    -3
100
AcDbSpline
210
0.0
220
0.0
230
1.0
 70
     8
 71
     2
 72
    11
 73
     8
 74
     0
 42
0.0000000001
 43
0.0000000001
 40
0.0
 40
0.0
 40
0.0
 40
1.0
 40
2.0
 40
3.0
 40
4.0
 40
5.0
 40
6.0
 40
6.0
 40
6.0
 10
7.33872124170388
 20
53.3942740959635
 30
0.0
 10
7.637267377342781
 20
53.64288601474392
 30
0.0
 10
8.15481467674796
 20
54.22240084405567
 30
0.0
 10
8.582949815271164
 20
54.87075597865285
 30
0.0
 10
8.912883690309698
 20
55.57420014437422
 30
0.0
 10
9.136191828774557
 20
56.31839917172171
 30
0.0
 10
9.249402128710429
 20
57.08707804682871
 30
0.0
 10
9.249307028747594
 20
57.4755711427639
 30
0.0
  0
SPLINE
  5
7C
330
1F
100
AcDbEntity
  8
2D DXF
370
    -3
100
AcDbSpline
210
0.0
220
0.0
230
1.0
 70
     8
 71
     2
 72
    11
 73
     8
 74
     0
 42
0.0000000001
 43
0.0000000001
 40
13.876
 40
13.876
 40
13.876
 40
14.876
 40
15.876
 40
16.876
 40
17.876
 40
18.876
 40
19.876
 40
19.876
 40
19.876
 10
8.619307028747599
 20
57.4755711427639
 30
0.0
 10
8.61939257569476
 20
57.13631071075366
 30
0.0
 10
8.521433127821595
 20
56.46491220367774
 30
0.0
 10
8.328184620367395
 20
55.81449816948744
 30
0.0
 10
8.042568548287548
 20
55.19903017459289
 30
0.0
 10
7.671722618113805
 20
54.63084906881922
 30
0.0
 10
7.223220059073597
 20
54.12170817025482
 30
0.0
 10
6.964287604479594
 20
53.90248331781881
 30
0.0
  0
SPLINE
  5
7D
330
1F
100
AcDbEntity
  8
2D DXF
370
    -3
100
AcDbSpline
210
0.0
220
0.0
230
1.0
 70
    28
 71
     3
 72
     8
 73
     4
 74
     0
 42
0.0000000001
 43
0.0000000001
 40
6.0
 40
6.0
 40
6.0
 40
6.0
 40
13.876
 40
13.876
 40
13.876
 40
13.876
 10
8.619307028747599
 20
65.35157114276387
 30
0.0
 41
1.0
 10
8.619307028747539
 20
62.72623780943059
 30
0.0
 41
1.0
 10
8.619307028747599
 20
60.10090447609718
 30
0.0
 41
1.0
 10
8.619307028747599
 20
57.4755711427639
 30
0.0
 41
1.0
  0
SPLINE
  5
7E
330
1F
100
AcDbEntity
  8
2D DXF
370
    -3
100
AcDbSpline
210
0.0
220
0.0
230
1.0
 70
     8
 71
     2
 72
    11
 73
     8
 74
     0
 42
0.0000000001
 43
0.0000000001
 40
0.0
 40
0.0
 40
0.0
 40
1.0
 40
2.0
 40
3.0
 40
4.0
 40
5.0
 40
6.0
 40
6.0
 40
6.0
 10
7.786651892880244
 20
68.01709234293122
 30
0.0
 10
7.921168544350635
 20
67.82256793904344
 30
0.0
 10
8.150006120583399
 20
67.40859228208274
 30
0.0
 10
8.335977702043081
 20
66.97366364349892
 30
0.0
 10
8.476823664369093
 20
66.52209872251422
 30
0.0
 10
8.571623502174319
 20
66.05868253097327
 30
0.0
 10
8.619411349082682
 20
65.58808319110352
 30
0.0
 10
8.619307028747599
 20
65.35157114276387
 30
0.0
  0
SPLINE
  5
7F
330
1F
100
AcDbEntity
  8
2D DXF
370
    -3
100
AcDbSpline
210
0.0
220
0.0
230
1.0
 70
     8
 71
     2
 72
    11
 73
     8
 74
     0
 42
0.0000000001
 43
0.0000000001
 40
7.874000000000009
 40
7.874000000000009
 40
7.874000000000009
 40
8.87400000000001
 40
9.87400000000001
 40
10.87400000000001
 40
11.87400000000001
 40
12.87400000000001
 40
13.87400000000001
 40
13.87400000000001
 40
13.87400000000001
 10
3.934307028747597
 20
52.16057114276389
 30
0.0
 10
4.189811625359951
 20
52.1604543159341
 30
0.0
 10
4.698444945194993
 20
52.20962756620646
 30
0.0
 10
5.200032725349743
 20
52.30724380579029
 30
0.0
 10
5.690003053430772
 20
52.45234564052684
 30
0.0
 10
6.163672933922001
 20
52.64408393243254
 30
0.0
 10
6.616679264410394
 20
52.88053203980213
 30
0.0
 10
6.830896033442755
 20
53.01978027084354
 30
0.0
  0
SPLINE
  5
80
330
1F
100
AcDbEntity
  8
2D DXF
370
    -3
100
AcDbSpline
210
0.0
220
0.0
230
1.0
 70
    28
 71
     3
 72
     8
 73
     4
 74
     0
 42
0.0000000001
 43
0.0000000001
 40
6.943339093079723
 40
6.943339093079723
 40
6.943339093079723
 40
6.943339093079723
 40
7.874000000000009
 40
7.874000000000009
 40
7.874000000000009
 40
7.874000000000009
 10
3.003646121827288
 20
52.16057114276389
 30
0.0
 41
1.0
 10
3.313866424134076
 20
52.16057114276389
 30
0.0
 41
1.0
 10
3.624086726440808
 20
52.16057114276389
 30
0.0
 41
1.0
 10
3.934307028747597
 20
52.16057114276389
 30
0.0
 41
1.0
  0
SPLINE
  5
81
330
1F
100
AcDbEntity
  8
2D DXF
370
    -3
100
AcDbSpline
210
0.0
220
0.0
230
1.0
 70
     8
 71
     3
 72
     8
 73
     4
 74
     0
 42
0.0000000001
 43
0.0000000001
 40
0.0
 40
0.0
 40
0.0
 40
0.0
 40
0.0443194491542292
 40
0.0443194491542292
 40
0.0443194491542292
 40
0.0443194491542292
 10
9.361760594131354
 20
70.45725290939521
 30
0.0
 10
9.370149954561342
 20
70.46913091425233
 30
0.0
 10
9.377668494725938
 20
70.48158950308334
 30
0.0
 10
9.384263877495997
 20
70.49453367059562
 30
0.0
  0
SPLINE
  5
82
330
1F
100
AcDbEntity
  8
2D DXF
370
    -3
100
AcDbSpline
210
0.0
220
0.0
230
1.0
 70
    12
 71
     2
 72
     6
 73
     3
 74
     0
 42
0.0000000001
 43
0.0000000001
 40
1.782832737999294
 40
1.782832737999294
 40
1.782832737999294
 40
1.825297125700358
 40
1.825297125700358
 40
1.825297125700358
 10
9.334065008252761
 20
70.41804034887508
 30
0.0
 41
0.8597839346895491
 10
9.34648986918871
 20
70.43563198291892
 30
0.0
 41
0.8649686758373502
 10
9.35627251239705
 20
70.45483150125126
 30
0.0
 41
0.8744678942369488
  0
SPLINE
  5
83
330
1F
100
AcDbEntity
  8
2D DXF
370
    -3
100
AcDbSpline
210
0.0
220
0.0
230
1.0
 70
     8
 71
     2
 72
     7
 73
     4
 74
     0
 42
0.0000000001
 43
0.0000000001
 40
0.0
 40
0.0
 40
0.0
 40
1.0
 40
2.0
 40
2.0
 40
2.0
 10
-6.457943014256614
 20
53.52845354263857
 30
0.0
 10
-6.09382330483885
 20
53.29558398921087
 30
0.0
 10
-5.292730674759582
 20
52.97085486069044
 30
0.0
 10
-4.869171632645418
 20
52.88472332697523
 30
0.0
  0
SPLINE
  5
84
330
1F
100
AcDbEntity
  8
2D DXF
370
    -3
100
AcDbSpline
210
0.0
220
0.0
230
1.0
 70
    12
 71
     3
 72
     8
 73
     4
 74
     0
 42
0.0000000001
 43
0.0000000001
 40
4.248507748629283
 40
4.248507748629283
 40
4.248507748629283
 40
4.248507748629283
 40
4.700582955841645
 40
4.700582955841645
 40
4.700582955841645
 40
4.700582955841645
 10
-7.659891876326546
 20
69.1428434730961
 30
0.0
 41
0.9999999999999993
 10
-7.553149716242748
 20
69.24769174957146
 30
0.0
 41
0.9999999999999993
 10
-7.441918037621539
 20
69.34797349588408
 30
0.0
 41
0.9999999999999993
 10
-7.32664789552958
 20
69.44339730816637
 30
0.0
 41
0.9999999999999993
  0
SPLINE
  5
85
330
1F
100
AcDbEntity
  8
2D DXF
370
    -3
100
AcDbSpline
210
0.0
220
0.0
230
1.0
 70
     8
 71
     2
 72
    11
 73
     8
 74
     0
 42
0.0000000001
 43
0.0000000001
 40
13.876
 40
13.876
 40
13.876
 40
14.876
 40
15.876
 40
16.876
 40
17.876
 40
18.876
 40
19.876
 40
19.876
 40
19.876
 10
-9.249915990049828
 20
65.35157114276387
 30
0.0
 10
-9.250035567567068
 20
65.6495860783433
 30
0.0
 10
-9.183204338117378
 20
66.24184916259179
 30
0.0
 10
-9.05084324936172
 20
66.82298253430969
 30
0.0
 10
-8.854361977210658
 20
67.38569148172087
 30
0.0
 10
-8.595711862426072
 20
67.92266805126616
 30
0.0
 10
-8.278995892149453
 20
68.42756379514049
 30
0.0
 10
-8.093603065842842
 20
68.66088062909387
 30
0.0
  0
SPLINE
  5
86
330
1F
100
AcDbEntity
  8
2D DXF
370
    -3
100
AcDbSpline
210
0.0
220
0.0
230
1.0
 70
    28
 71
     3
 72
     8
 73
     4
 74
     0
 42
0.0000000001
 43
0.0000000001
 40
6.0
 40
6.0
 40
6.0
 40
6.0
 40
13.876
 40
13.876
 40
13.876
 40
13.876
 10
-9.249915990049828
 20
57.4755711427639
 30
0.0
 41
1.0
 10
-9.249915990049885
 20
60.10090447609718
 30
0.0
 41
1.0
 10
-9.24991599004991
 20
62.72623780943059
 30
0.0
 41
1.0
 10
-9.249915990049828
 20
65.35157114276387
 30
0.0
 41
1.0
  0
SPLINE
  5
87
330
1F
100
AcDbEntity
  8
2D DXF
370
    -3
100
AcDbSpline
210
0.0
220
0.0
230
1.0
 70
     8
 71
     2
 72
    11
 73
     8
 74
     0
 42
0.0000000001
 43
0.0000000001
 40
0.0
 40
0.0
 40
0.0
 40
1.0
 40
2.0
 40
3.0
 40
4.0
 40
5.0
 40
6.0
 40
6.0
 40
6.0
 10
-7.339330203006114
 20
53.3942740959635
 30
0.0
 10
-7.637876338645015
 20
53.64288601474392
 30
0.0
 10
-8.155423638050195
 20
54.22240084405567
 30
0.0
 10
-8.583558776573454
 20
54.87075597865285
 30
0.0
 10
-8.913492651611989
 20
55.57420014437422
 30
0.0
 10
-9.136800790076848
 20
56.31839917172171
 30
0.0
 10
-9.250011090012663
 20
57.08707804682871
 30
0.0
 10
-9.249915990049828
 20
57.4755711427639
 30
0.0
  0
SPLINE
  5
88
330
1F
100
AcDbEntity
  8
2D DXF
370
    -3
100
AcDbSpline
210
0.0
220
0.0
230
1.0
 70
     8
 71
     2
 72
    11
 73
     8
 74
     0
 42
0.0000000001
 43
0.0000000001
 40
13.876
 40
13.876
 40
13.876
 40
14.876
 40
15.876
 40
16.876
 40
17.876
 40
18.876
 40
19.876
 40
19.876
 40
19.876
 10
-8.619915990049833
 20
57.4755711427639
 30
0.0
 10
-8.620001536996995
 20
57.13631071075366
 30
0.0
 10
-8.522042089123829
 20
56.46491220367774
 30
0.0
 10
-8.328793581669686
 20
55.81449816948744
 30
0.0
 10
-8.043177509589782
 20
55.19903017459289
 30
0.0
 10
-7.672331579416038
 20
54.63084906881922
 30
0.0
 10
-7.223829020375831
 20
54.12170817025482
 30
0.0
 10
-6.964896565781885
 20
53.90248331781881
 30
0.0
  0
SPLINE
  5
89
330
1F
100
AcDbEntity
  8
2D DXF
370
    -3
100
AcDbSpline
210
0.0
220
0.0
230
1.0
 70
    28
 71
     3
 72
     8
 73
     4
 74
     0
 42
0.0000000001
 43
0.0000000001
 40
6.0
 40
6.0
 40
6.0
 40
6.0
 40
13.876
 40
13.876
 40
13.876
 40
13.876
 10
-8.619915990049833
 20
65.35157114276387
 30
0.0
 41
1.0
 10
-8.619915990049915
 20
62.72623780943059
 30
0.0
 41
1.0
 10
-8.61991599004989
 20
60.10090447609718
 30
0.0
 41
1.0
 10
-8.619915990049833
 20
57.4755711427639
 30
0.0
 41
1.0
  0
SPLINE
  5
8A
330
1F
100
AcDbEntity
  8
2D DXF
370
    -3
100
AcDbSpline
210
0.0
220
0.0
230
1.0
 70
     8
 71
     2
 72
    11
 73
     8
 74
     0
 42
0.0000000001
 43
0.0000000001
 40
0.0
 40
0.0
 40
0.0
 40
1.0
 40
2.0
 40
3.0
 40
4.0
 40
5.0
 40
6.0
 40
6.0
 40
6.0
 10
-7.787260854182534
 20
68.01709234293122
 30
0.0
 10
-7.921777505652869
 20
67.82256793904344
 30
0.0
 10
-8.15061508188569
 20
67.40859228208274
 30
0.0
 10
-8.336586663345372
 20
66.97366364349892
 30
0.0
 10
-8.477432625671327
 20
66.52209872251422
 30
0.0
 10
-8.57223246347661
 20
66.05868253097327
 30
0.0
 10
-8.620020310384916
 20
65.58808319110352
 30
0.0
 10
-8.619915990049833
 20
65.35157114276387
 30
0.0
  0
SPLINE
  5
8B
330
1F
100
AcDbEntity
  8
2D DXF
370
    -3
100
AcDbSpline
210
0.0
220
0.0
230
1.0
 70
     8
 71
     2
 72
    11
 73
     8
 74
     0
 42
0.0000000001
 43
0.0000000001
 40
7.874000000000009
 40
7.874000000000009
 40
7.874000000000009
 40
8.87400000000001
 40
9.87400000000001
 40
10.87400000000001
 40
11.87400000000001
 40
12.87400000000001
 40
13.87400000000001
 40
13.87400000000001
 40
13.87400000000001
 10
-3.934915990049831
 20
52.16057114276389
 30
0.0
 10
-4.190420586662185
 20
52.1604543159341
 30
0.0
 10
-4.699053906497284
 20
52.20962756620646
 30
0.0
 10
-5.200641686652034
 20
52.30724380579029
 30
0.0
 10
-5.690612014733063
 20
52.45234564052684
 30
0.0
 10
-6.164281895224292
 20
52.64408393243254
 30
0.0
 10
-6.617288225712684
 20
52.88053203980213
 30
0.0
 10
-6.831504994744989
 20
53.01978027084354
 30
0.0
  0
SPLINE
  5
8C
330
1F
100
AcDbEntity
  8
2D DXF
370
    -3
100
AcDbSpline
210
0.0
220
0.0
230
1.0
 70
    28
 71
     3
 72
     8
 73
     4
 74
     0
 42
0.0000000001
 43
0.0000000001
 40
6.943339093079723
 40
6.943339093079723
 40
6.943339093079723
 40
6.943339093079723
 40
7.874000000000009
 40
7.874000000000009
 40
7.874000000000009
 40
7.874000000000009
 10
-3.004255083129564
 20
52.16057114276389
 30
0.0
 41
1.0
 10
-3.31447538543631
 20
52.16057114276389
 30
0.0
 41
1.0
 10
-3.624695687743099
 20
52.16057114276389
 30
0.0
 41
1.0
 10
-3.934915990049831
 20
52.16057114276389
 30
0.0
 41
1.0
  0
SPLINE
  5
8D
330
1F
100
AcDbEntity
  8
2D DXF
370
    -3
100
AcDbSpline
210
0.0
220
0.0
230
1.0
 70
    28
 71
     3
 72
     8
 73
     4
 74
     0
 42
0.0000000001
 43
0.0000000001
 40
1.096513440296276
 40
1.096513440296276
 40
1.096513440296276
 40
1.096513440296276
 40
8.742393638717676
 40
8.742393638717676
 40
8.742393638717676
 40
8.742393638717676
 10
6.545858463733066
 20
66.47038176938173
 30
0.0
 41
0.8689157816187647
 10
6.875580550655457
 20
66.93721599144689
 30
0.0
 41
0.8689157816187646
 10
7.205302637577888
 20
67.40405021351204
 30
0.0
 41
0.8689157816187645
 10
7.535024724500246
 20
67.87088443557718
 30
0.0
 41
0.8689157816187645
  0
SPLINE
  5
8E
330
1F
100
AcDbEntity
  8
2D DXF
370
    -3
100
AcDbSpline
210
0.0
220
0.0
230
1.0
 70
    28
 71
     3
 72
     8
 73
     4
 74
     0
 42
0.0000000001
 43
0.0000000001
 40
8.629947423803616
 40
8.629947423803616
 40
8.629947423803616
 40
8.629947423803616
 40
13.04943539406968
 40
13.04943539406968
 40
13.04943539406968
 40
13.04943539406968
 10
6.740534580031111
 20
67.83804187973476
 30
0.0
 41
0.8689157816187674
 10
6.549947916511925
 20
67.56820136759184
 30
0.0
 41
0.8689157816187674
 10
6.359361252992737
 20
67.29836085544893
 30
0.0
 41
0.8689157816187674
 10
6.16877458947355
 20
67.028520343306
 30
0.0
 41
0.8689157816187674
  0
SPLINE
  5
8F
330
1F
100
AcDbEntity
  8
2D DXF
370
    -3
100
AcDbSpline
210
0.0
220
0.0
230
1.0
 70
     8
 71
     3
 72
    64
 73
    60
 74
     0
 42
0.0000000001
 43
0.0000000001
 40
57.0
 40
57.0
 40
57.0
 40
57.0
 40
58.0
 40
59.0
 40
60.0
 40
61.0
 40
62.0
 40
63.0
 40
64.0
 40
65.0
 40
66.0
 40
67.0
 40
68.0
 40
69.0
 40
70.0
 40
71.0
 40
72.0
 40
73.0
 40
74.0
 40
75.0
 40
76.0
 40
77.0
 40
78.0
 40
79.0
 40
80.0
 40
81.0
 40
82.0
 40
83.0
 40
84.0
 40
85.0
 40
86.0
 40
87.0
 40
88.0
 40
89.0
 40
90.0
 40
91.0
 40
92.0
 40
93.0
 40
94.0
 40
95.0
 40
96.0
 40
97.0
 40
98.0
 40
99.0
 40
100.0
 40
101.0
 40
102.0
 40
103.0
 40
104.0
 40
105.0
 40
106.0
 40
107.0
 40
108.0
 40
109.0
 40
110.0
 40
111.0
 40
112.0
 40
113.0
 40
114.0
 40
114.0
 40
114.0
 40
114.0
 10
-0.0003044806956467
 20
72.81706117242038
 30
0.0
 10
0.1045615003827862
 20
72.81706373879803
 30
0.0
 10
0.3142943302387522
 20
72.81474602855616
 30
0.0
 10
0.6287315748686098
 20
72.80403874812237
 30
0.0
 10
0.942826608044598
 20
72.7858451633249
 30
0.0
 10
1.256377468011195
 20
72.75989607545716
 30
0.0
 10
1.56916335306785
 20
72.72592508071108
 30
0.0
 10
1.880939956258615
 20
72.68367238416914
 30
0.0
 10
2.19144127816476
 20
72.63287539116965
 30
0.0
 10
2.500354295476953
 20
72.57315865421407
 30
0.0
 10
2.807356706353758
 20
72.50427799818556
 30
0.0
 10
3.112050444144089
 20
72.4257969815335
 30
0.0
 10
3.414042363967226
 20
72.33748250802574
 30
0.0
 10
3.712855568226544
 20
72.23892293735622
 30
0.0
 10
4.007884341942841
 20
72.12953983719507
 30
0.0
 10
4.29846889101664
 20
72.00882423604679
 30
0.0
 10
4.583831297708699
 20
71.87621637908086
 30
0.0
 10
4.862934111593532
 20
71.73084338781428
 30
0.0
 10
5.13412655991938
 20
71.5711782533416
 30
0.0
 10
5.397322859932231
 20
71.39871070024185
 30
0.0
 10
5.653378397264888
 20
71.21581604394805
 30
0.0
 10
5.900998987649203
 20
71.02163134091592
 30
0.0
 10
6.139357780426295
 20
70.81617698899487
 30
0.0
 10
6.369370796940885
 20
70.60152531871074
 30
0.0
 10
6.594968392444812
 20
70.38215682846413
 30
0.0
 10
6.806958747643719
 20
70.14942213361456
 30
0.0
 10
7.001408267989135
 20
69.90193255566675
 30
0.0
 10
7.185963773183246
 20
69.64714280561537
 30
0.0
 10
7.365036694373046
 20
69.38841042603627
 30
0.0
 10
7.536193220760097
 20
69.12455709735025
 30
0.0
 10
7.692865886210214
 20
68.85085269896194
 30
0.0
 10
7.821621192485523
 20
68.56546346567848
 30
0.0
 10
7.910379528601439
 20
68.25470101869689
 30
0.0
 10
7.777380514620702
 20
67.93950014154808
 30
0.0
 10
7.459236674271111
 20
67.84086852400293
 30
0.0
 10
7.148423354617378
 20
67.81892858141555
 30
0.0
 10
6.832781849133838
 20
67.82853188613609
 30
0.0
 10
6.519638538535915
 20
67.85683533403994
 30
0.0
 10
6.207462768402664
 20
67.89663317512691
 30
0.0
 10
5.896550513142259
 20
67.94465789751308
 30
0.0
 10
5.586582906611639
 20
67.99852408569006
 30
0.0
 10
5.277425680482182
 20
68.05680505355838
 30
0.0
 10
4.968915699517325
 20
68.1184173267826
 30
0.0
 10
4.660909463760063
 20
68.18248894710689
 30
0.0
 10
4.353251780525696
 20
68.24820920738068
 30
0.0
 10
4.045848358861875
 20
68.315108062955
 30
0.0
 10
3.738469464035646
 20
68.38211646338806
 30
0.0
 10
3.431134866996061
 20
68.44932971681845
 30
0.0
 10
3.123302506230928
 20
68.5142533286587
 30
0.0
 10
2.814343965561207
 20
68.57362169292361
 30
0.0
 10
2.504543260928088
 20
68.62841135775415
 30
0.0
 10
2.193760742373698
 20
68.67735409764407
 30
0.0
 10
1.882106425314603
 20
68.72039661285345
 30
0.0
 10
1.569673692435984
 20
68.757375651279
 30
0.0
 10
1.256557635385619
 20
68.78804959341187
 30
0.0
 10
0.9428682510619666
 20
68.81217138757506
 30
0.0
 10
0.6287329188731547
 20
68.82957010252807
 30
0.0
 10
0.3142934283884102
 20
68.8401385125436
 30
0.0
 10
0.1045617970371069
 20
68.84252791891441
 30
0.0
 10
-0.0003044806511383
 20
68.84253066652803
 30
0.0
  0
SPLINE
  5
90
330
1F
100
AcDbEntity
  8
2D DXF
370
    -3
100
AcDbSpline
210
0.0
220
0.0
230
1.0
 70
     8
 71
     3
 72
    64
 73
    60
 74
     0
 42
0.0000000001
 43
0.0000000001
 40
0.0
 40
0.0
 40
0.0
 40
0.0
 40
1.0
 40
2.0
 40
3.0
 40
4.0
 40
5.0
 40
6.0
 40
7.0
 40
8.0
 40
9.0
 40
10.0
 40
11.0
 40
12.0
 40
13.0
 40
14.0
 40
15.0
 40
16.0
 40
17.0
 40
18.0
 40
19.0
 40
20.0
 40
21.0
 40
22.0
 40
23.0
 40
24.0
 40
25.0
 40
26.0
 40
27.0
 40
28.0
 40
29.0
 40
30.0
 40
31.0
 40
32.0
 40
33.0
 40
34.0
 40
35.0
 40
36.0
 40
37.0
 40
38.0
 40
39.0
 40
40.0
 40
41.0
 40
42.0
 40
43.0
 40
44.0
 40
45.0
 40
46.0
 40
47.0
 40
48.0
 40
49.0
 40
50.0
 40
51.0
 40
52.0
 40
53.0
 40
54.0
 40
55.0
 40
56.0
 40
57.0
 40
57.0
 40
57.0
 40
57.0
 10
-0.0003044806511383
 20
68.84253066652803
 30
0.0
 10
-0.1051707583393835
 20
68.84252791891441
 30
0.0
 10
-0.3149023896906868
 20
68.8401385125436
 30
0.0
 10
-0.6293418801754314
 20
68.82957010252807
 30
0.0
 10
-0.9434772123642432
 20
68.81217138757506
 30
0.0
 10
-1.257166596687895
 20
68.78804959341187
 30
0.0
 10
-1.570282653738261
 20
68.757375651279
 30
0.0
 10
-1.88271538661688
 20
68.72039661285345
 30
0.0
 10
-2.194369703675974
 20
68.67735409764407
 30
0.0
 10
-2.505152222230365
 20
68.62841135775415
 30
0.0
 10
-2.814952926863484
 20
68.57362169292361
 30
0.0
 10
-3.123911467533205
 20
68.5142533286587
 30
0.0
 10
-3.431743828298352
 20
68.44932971681845
 30
0.0
 10
-3.739078425337937
 20
68.38211646338806
 30
0.0
 10
-4.046457320164166
 20
68.315108062955
 30
0.0
 10
-4.353860741827987
 20
68.24820920738068
 30
0.0
 10
-4.661518425062354
 20
68.18248894710689
 30
0.0
 10
-4.969524660819616
 20
68.1184173267826
 30
0.0
 10
-5.278034641784473
 20
68.05680505355838
 30
0.0
 10
-5.58719186791393
 20
67.99852408569006
 30
0.0
 10
-5.89715947444455
 20
67.94465789751308
 30
0.0
 10
-6.208071729704955
 20
67.89663317512691
 30
0.0
 10
-6.520247499838206
 20
67.85683533403994
 30
0.0
 10
-6.833390810436129
 20
67.82853188613609
 30
0.0
 10
-7.149032315919669
 20
67.81892858141555
 30
0.0
 10
-7.459845635573402
 20
67.84086852400293
 30
0.0
 10
-7.777989475922993
 20
67.93950014154808
 30
0.0
 10
-7.91098848990373
 20
68.25470101869689
 30
0.0
 10
-7.822230153787814
 20
68.56546346567848
 30
0.0
 10
-7.693474847512505
 20
68.85085269896194
 30
0.0
 10
-7.536802182062388
 20
69.12455709735025
 30
0.0
 10
-7.365645655675337
 20
69.38841042603627
 30
0.0
 10
-7.186572734485537
 20
69.64714280561537
 30
0.0
 10
-7.002017229291425
 20
69.90193255566675
 30
0.0
 10
-6.80756770894601
 20
70.14942213361456
 30
0.0
 10
-6.595577353747103
 20
70.38215682846413
 30
0.0
 10
-6.369979758243176
 20
70.60152531871074
 30
0.0
 10
-6.139966741728585
 20
70.81617698899487
 30
0.0
 10
-5.901607948951494
 20
71.02163134091592
 30
0.0
 10
-5.653987358567178
 20
71.21581604394805
 30
0.0
 10
-5.397931821234522
 20
71.39871070024185
 30
0.0
 10
-5.134735521221671
 20
71.5711782533416
 30
0.0
 10
-4.863543072895823
 20
71.73084338781428
 30
0.0
 10
-4.584440259010989
 20
71.87621637908086
 30
0.0
 10
-4.299077852318931
 20
72.00882423604679
 30
0.0
 10
-4.008493303245132
 20
72.12953983719507
 30
0.0
 10
-3.713464529528835
 20
72.23892293735622
 30
0.0
 10
-3.414651325269517
 20
72.33748250802574
 30
0.0
 10
-3.112659405446365
 20
72.4257969815335
 30
0.0
 10
-2.807965667656035
 20
72.50427799818556
 30
0.0
 10
-2.500963256779229
 20
72.57315865421407
 30
0.0
 10
-2.192050239467036
 20
72.63287539116965
 30
0.0
 10
-1.881548917560892
 20
72.68367238416914
 30
0.0
 10
-1.569772314370127
 20
72.72592508071108
 30
0.0
 10
-1.256986429313471
 20
72.75989607545716
 30
0.0
 10
-0.9434355693468746
 20
72.7858451633249
 30
0.0
 10
-0.6293405361708864
 20
72.80403874812237
 30
0.0
 10
-0.3149032915410288
 20
72.81474602855616
 30
0.0
 10
-0.1051704616850628
 20
72.81706373879803
 30
0.0
 10
-0.0003044806066299
 20
72.81706117242038
 30
0.0
  0
SPLINE
  5
91
330
1F
100
AcDbEntity
  8
2D DXF
370
    -3
100
AcDbSpline
210
0.0
220
0.0
230
1.0
 70
     8
 71
     3
 72
    24
 73
    20
 74
     0
 42
0.0000000001
 43
0.0000000001
 40
-17.0
 40
-17.0
 40
-17.0
 40
-17.0
 40
-16.0
 40
-15.0
 40
-14.0
 40
-13.0
 40
-12.0
 40
-11.0
 40
-10.0
 40
-9.0
 40
-8.0
 40
-7.0
 40
-6.0
 40
-5.0
 40
-4.0
 40
-3.0
 40
-2.0
 40
-1.0
 40
0.0
 40
0.0
 40
0.0
 40
0.0
 10
-0.0003409114564619
 20
51.78214306054809
 30
0.0
 10
0.4366258386970259
 20
51.78214306054809
 30
0.0
 10
1.310674679624256
 20
51.82652382296179
 30
0.0
 10
2.60707918777787
 20
52.03505467873497
 30
0.0
 10
3.868672179321393
 20
52.40240450698796
 30
0.0
 10
5.06414665634891
 20
52.94928944661045
 30
0.0
 10
6.153609956635322
 20
53.68981005940334
 30
0.0
 10
7.059555453147894
 20
54.64900576298771
 30
0.0
 10
7.716769080778434
 20
55.79218928525539
 30
0.0
 10
8.164939311252581
 20
57.02791950191009
 30
0.0
 10
8.430699131832924
 20
58.31475332704619
 30
0.0
 10
8.534953168498262
 20
59.62373483225579
 30
0.0
 10
8.49171462614619
 20
60.9360299847076
 30
0.0
 10
8.299458557502376
 20
62.2348892448978
 30
0.0
 10
7.966618660949351
 20
63.50482613438635
 30
0.0
 10
7.502430649285671
 20
64.73266753718417
 30
0.0
 10
6.91375336847689
 20
65.90614916565136
 30
0.0
 10
6.204516726183002
 20
67.01040461037144
 30
0.0
 10
5.670550695569958
 20
67.70325837468545
 30
0.0
 10
5.387539844759047
 20
68.0362633940652
 30
0.0
  0
SPLINE
  5
92
330
1F
100
AcDbEntity
  8
2D DXF
370
    -3
100
AcDbSpline
210
0.0
220
0.0
230
1.0
 70
     8
 71
     3
 72
    24
 73
    20
 74
     0
 42
0.0000000001
 43
0.0000000001
 40
0.0
 40
0.0
 40
0.0
 40
0.0
 40
1.0
 40
2.0
 40
3.0
 40
4.0
 40
5.0
 40
6.0
 40
7.0
 40
8.0
 40
9.0
 40
10.0
 40
11.0
 40
12.0
 40
13.0
 40
14.0
 40
15.0
 40
16.0
 40
17.0
 40
17.0
 40
17.0
 40
17.0
 10
-5.388221667671985
 20
68.0362633940652
 30
0.0
 10
-5.671232518482896
 20
67.70325837468545
 30
0.0
 10
-6.20519854909594
 20
67.01040461037144
 30
0.0
 10
-6.914435191389828
 20
65.90614916565136
 30
0.0
 10
-7.503112472198609
 20
64.73266753718417
 30
0.0
 10
-7.967300483862289
 20
63.50482613438635
 30
0.0
 10
-8.300140380415314
 20
62.2348892448978
 30
0.0
 10
-8.492396449059129
 20
60.9360299847076
 30
0.0
 10
-8.5356349914112
 20
59.62373483225579
 30
0.0
 10
-8.431380954745862
 20
58.31475332704619
 30
0.0
 10
-8.16562113416552
 20
57.02791950191009
 30
0.0
 10
-7.717450903691372
 20
55.79218928525539
 30
0.0
 10
-7.060237276060832
 20
54.64900576298771
 30
0.0
 10
-6.154291779548259
 20
53.68981005940334
 30
0.0
 10
-5.064828479261848
 20
52.94928944661045
 30
0.0
 10
-3.869354002234331
 20
52.40240450698796
 30
0.0
 10
-2.607761010690794
 20
52.03505467873497
 30
0.0
 10
-1.31135650253718
 20
51.82652382296179
 30
0.0
 10
-0.4373076616099496
 20
51.78214306054809
 30
0.0
 10
-0.0003409114564619
 20
51.78214306054809
 30
0.0
  0
SPLINE
  5
93
330
1F
100
AcDbEntity
  8
2D DXF
370
    -3
100
AcDbSpline
210
0.0
220
0.0
230
1.0
 70
    28
 71
     3
 72
     8
 73
     4
 74
     0
 42
0.0000000001
 43
0.0000000001
 40
1.096513440296276
 40
1.096513440296276
 40
1.096513440296276
 40
1.096513440296276
 40
8.742393638717676
 40
8.742393638717676
 40
8.742393638717676
 40
8.742393638717676
 10
-6.546467425035327
 20
66.47038176938173
 30
0.0
 41
0.8689157816187647
 10
-6.876189511957712
 20
66.93721599144689
 30
0.0
 41
0.8689157816187646
 10
-7.205911598880068
 20
67.40405021351204
 30
0.0
 41
0.8689157816187645
 10
-7.535633685802426
 20
67.87088443557718
 30
0.0
 41
0.8689157816187645
  0
SPLINE
  5
94
330
1F
100
AcDbEntity
  8
2D DXF
370
    -3
100
AcDbSpline
210
0.0
220
0.0
230
1.0
 70
    28
 71
     3
 72
     8
 73
     4
 74
     0
 42
0.0000000001
 43
0.0000000001
 40
8.629947423803616
 40
8.629947423803616
 40
8.629947423803616
 40
8.629947423803616
 40
13.04943539406968
 40
13.04943539406968
 40
13.04943539406968
 40
13.04943539406968
 10
-6.74114354133352
 20
67.83804187973476
 30
0.0
 41
0.8689157816187674
 10
-6.550556877814333
 20
67.56820136759184
 30
0.0
 41
0.8689157816187674
 10
-6.359970214295146
 20
67.29836085544893
 30
0.0
 41
0.8689157816187674
 10
-6.169383550775959
 20
67.028520343306
 30
0.0
 41
0.8689157816187674
  0
SPLINE
  5
95
330
1F
100
AcDbEntity
  8
2D DXF
370
    -3
100
AcDbSpline
210
0.0
220
0.0
230
1.0
 70
     8
 71
     3
 72
     8
 73
     4
 74
     0
 42
0.0000000001
 43
0.0000000001
 40
0.0
 40
0.0
 40
0.0
 40
0.0
 40
0.0443194491542292
 40
0.0443194491542292
 40
0.0443194491542292
 40
0.0443194491542292
 10
-9.362369555433645
 20
70.45725290939521
 30
0.0
 10
-9.370758915863632
 20
70.46913091425233
 30
0.0
 10
-9.37827745602823
 20
70.48158950308334
 30
0.0
 10
-9.38487283879823
 20
70.49453367059562
 30
0.0
  0
SPLINE
  5
96
330
1F
100
AcDbEntity
  8
2D DXF
370
    -3
100
AcDbSpline
210
0.0
220
0.0
230
1.0
 70
    12
 71
     2
 72
     6
 73
     3
 74
     0
 42
0.0000000001
 43
0.0000000001
 40
1.782832737999294
 40
1.782832737999294
 40
1.782832737999294
 40
1.825297125700358
 40
1.825297125700358
 40
1.825297125700358
 10
-9.334673969555034
 20
70.41804034887508
 30
0.0
 41
0.8597839346895491
 10
-9.347098830491005
 20
70.43563198291892
 30
0.0
 41
0.8649686758373502
 10
-9.35688147369934
 20
70.45483150125126
 30
0.0
 41
0.8744678942369488
  0
SPLINE
  5
97
330
1F
100
AcDbEntity
  8
2D DXF
370
    -3
100
AcDbSpline
210
0.0
220
0.0
230
1.0
 70
    12
 71
     3
 72
    24
 73
    20
 74
     0
 42
0.0000000001
 43
0.0000000001
 40
40.63233521957797
 40
40.63233521957797
 40
40.63233521957797
 40
40.63233521957797
 40
63.96364431611421
 40
63.96364431611421
 40
63.96364431611421
 40
64.96366674297131
 40
64.96366674297131
 40
65.96368916982841
 40
65.96368916982841
 40
66.96371159668551
 40
66.96371159668551
 40
67.96373402354263
 40
67.96373402354263
 40
68.96375645039973
 40
68.96375645039973
 40
69.9636443161142
 40
69.9636443161142
 40
69.9636443161142
 40
70.77917195857958
 40
70.77917195857958
 40
70.77917195857958
 40
70.77917195857958
 10
42.77801851064729
 20
0.4363847886317355
 30
0.0
 41
0.8537101292836783
 10
39.46511398653509
 20
17.13705107020343
 30
0.0
 41
0.8537101292836783
 10
39.10949300403525
 20
18.86207281654306
 30
0.0
 41
0.8537101292836783
 10
37.27523025072923
 20
28.07491683049874
 30
0.0
 41
0.8537101292836783
 10
37.25109330829971
 20
28.19654100405342
 30
0.0
 41
0.8537101292836783
 10
37.2173016971057
 20
28.31544030057994
 30
0.0
 41
0.8537101292836783
 10
37.13040913719028
 20
28.54778913957689
 30
0.0
 41
0.8537101292836783
 10
37.07680167878058
 20
28.65912788479296
 30
0.0
 41
0.8537101292836783
 10
36.94926440505134
 20
28.87213402666049
 30
0.0
 41
0.8537101292836783
 10
36.87484531739105
 20
28.97070426459359
 30
0.0
 41
0.8537101292836783
 10
36.7047062404789
 20
29.15197907445842
 30
0.0
 41
0.8537101292836783
 10
36.60925440155847
 20
29.2301805755944
 30
0.0
 41
0.8537101292836783
 10
36.39758612278828
 20
29.36171177027395
 30
0.0
 41
0.8537101292836783
 10
36.28405692199098
 20
29.40955333597449
 30
0.0
 41
0.8537101292836783
 10
36.04162470928338
 20
29.46938437845109
 30
0.0
 41
0.8537101292836783
 10
35.91886234454439
 20
29.47790222674066
 30
0.0
 41
0.8537101292836783
 10
35.79454556556309
 20
29.46502441490526
 30
0.0
 41
0.8537101292836783
 10
35.6033511611174
 20
29.44492908950094
 30
0.0
 41
0.8537101292836783
 10
35.41215675836214
 20
29.42483374801224
 30
0.0
 41
0.8537101292836783
 10
35.22096235560689
 20
29.40473840652347
 30
0.0
 41
0.8537101292836783
  0
LINE
  5
98
330
1F
100
AcDbEntity
  8
2D DXF
370
    -3
100
AcDbLine
 10
42.15907523008111
 20
0.3187393494644795
 30
0.0
 11
42.77801851064733
 21
0.4363847886317416
 31
0.0
  0
SPLINE
  5
99
330
1F
100
AcDbEntity
  8
2D DXF
370
    -3
100
AcDbSpline
210
0.0
220
0.0
230
1.0
 70
    12
 71
     3
 72
    24
 73
    20
 74
     0
 42
0.0000000001
 43
0.0000000001
 40
10.15069138359446
 40
10.15069138359446
 40
10.15069138359446
 40
10.15069138359446
 40
10.67814378418416
 40
10.67814378418416
 40
10.67814378418416
 40
11.67814378418416
 40
11.67814378418416
 40
12.67814378418416
 40
12.67814378418416
 40
13.67814378418416
 40
13.67814378418416
 40
14.67814378418416
 40
14.67814378418416
 40
15.67814378418416
 40
15.67814378418416
 40
16.67814378418416
 40
16.67814378418416
 40
16.67814378418416
 40
40.00230948144828
 40
40.00230948144828
 40
40.00230948144828
 40
40.00230948144828
 10
35.47303363637867
 20
28.79776194959648
 30
0.0
 41
0.8537101292836782
 10
35.60220543768574
 20
28.81133846383256
 30
0.0
 41
0.8537101292836782
 10
35.70661066951867
 20
28.82231185793701
 30
0.0
 41
0.8537101292836782
 10
35.86054904030208
 20
28.83849149230385
 30
0.0
 41
0.8537101292836783
 10
35.93324954228432
 20
28.84547712433916
 30
0.0
 41
0.8537101292836783
 10
36.00345651662974
 20
28.83584432141841
 30
0.0
 41
0.8537101292836783
 10
36.13888341004349
 20
28.78334184566548
 30
0.0
 41
0.8537101292836783
 10
36.20031669520331
 20
28.74699818401678
 30
0.0
 41
0.8537101292836783
 10
36.31062294242798
 20
28.6541260131753
 30
0.0
 41
0.8537101292836783
 10
36.35978749784718
 20
28.60217753938545
 30
0.0
 41
0.8537101292836783
 10
36.44613947229786
 20
28.48725581506569
 30
0.0
 41
0.8537101292836783
 10
36.48405085353275
 20
28.42655662403004
 30
0.0
 41
0.8537101292836783
 10
36.54934440402366
 20
28.29868158421078
 30
0.0
 41
0.8537101292836783
 10
36.57720778372266
 20
28.23274147309147
 30
0.0
 41
0.8537101292836783
 10
36.62336775203353
 20
28.09685606844021
 30
0.0
 41
0.8537101292836783
 10
36.64221339692879
 20
28.02677312124562
 30
0.0
 41
0.8537101292836783
 10
36.65682470256463
 20
27.95454992918188
 30
0.0
 41
0.8537101292836783
 10
38.490908211739
 20
18.74261306927614
 30
0.0
 41
0.8537101292836783
 10
38.84634995010153
 20
17.01849847698623
 30
0.0
 41
0.8537101292836783
 10
42.15907523008113
 20
0.318739349464474
 30
0.0
 41
0.8537101292836783
  0
LINE
  5
9A
330
1F
100
AcDbEntity
  8
2D DXF
370
    -3
100
AcDbLine
 10
42.82037842026439
 20
0.2218747695392693
 30
0.0
 11
42.7780185106471
 21
0.4363847886317131
 31
0.0
  0
SPLINE
  5
9B
330
1F
100
AcDbEntity
  8
2D DXF
370
    -3
100
AcDbSpline
210
0.0
220
0.0
230
1.0
 70
     8
 71
     2
 72
    11
 73
     8
 74
     0
 42
0.0000000001
 43
0.0000000001
 40
0.2100281833390025
 40
0.2100281833390025
 40
0.2100281833390025
 40
1.210028183339003
 40
2.210028183339003
 40
3.210028183339003
 40
4.210028183339002
 40
5.210028183339002
 40
6.210028183339002
 40
6.210028183339002
 40
6.210028183339002
 10
42.20127054033976
 20
0.1071833054293592
 30
0.0
 10
42.22097081272217
 20
0.0419094523149539
 30
0.0
 10
42.34890605703579
 20
0.0204954420585608
 30
0.0
 10
42.47020958116339
 20
0.0331401995204743
 30
0.0
 10
42.59078678841918
 20
0.0567262290549735
 30
0.0
 10
42.70772290900676
 20
0.0910323109971074
 30
0.0
 10
42.82025665108837
 20
0.1545194904777389
 30
0.0
 10
42.82037842026439
 20
0.2218747695392693
 30
0.0
  0
LINE
  5
9C
330
1F
100
AcDbEntity
  8
2D DXF
370
    -3
100
AcDbLine
 10
42.16018822259396
 20
0.3131543737018632
 30
0.0
 11
42.20127054033976
 21
0.1071833054293592
 31
0.0
  0
SPLINE
  5
9D
330
1F
100
AcDbEntity
  8
2D DXF
370
    -3
100
AcDbSpline
210
0.0
220
0.0
230
1.0
 70
    12
 71
     3
 72
    21
 73
    17
 74
     0
 42
0.0000000001
 43
0.0000000001
 40
58.87237440434966
 40
58.87237440434966
 40
58.87237440434966
 40
58.87237440434966
 40
59.80521535755197
 40
59.80521535755197
 40
59.80521535755197
 40
60.80453352002571
 40
60.80453352002571
 40
61.80466988753098
 40
61.80466988753098
 40
62.80480625503623
 40
62.80480625503623
 40
63.80494262254147
 40
63.80494262254147
 40
64.80507899004672
 40
64.80507899004672
 40
65.80521535755197
 40
65.80521535755197
 40
65.80521535755197
 40
65.80521535755197
 10
27.40154944555003
 20
28.2509085512735
 30
0.0
 41
1.0
 10
27.56448125744277
 20
28.19640822340128
 30
0.0
 41
0.9999999999999994
 10
27.72730578410985
 20
28.14194384383054
 30
0.0
 41
0.9999999999999998
 10
27.8901303034839
 20
28.08747948430668
 30
0.0
 41
1.0
 10
27.91347079917939
 20
28.07967528655936
 30
0.0
 41
1.0
 10
27.93710477414608
 20
28.07289678178866
 30
0.0
 41
1.0
 10
27.98497927350958
 20
28.06138644800373
 30
0.0
 41
1.0
 10
28.00911646701515
 20
28.05659263304064
 30
0.0
 41
1.0
 10
28.05777115073188
 20
28.04893241716024
 30
0.0
 41
1.0
 10
28.08220489903563
 20
28.04599547549576
 30
0.0
 41
1.0
 10
28.13128520853867
 20
28.04190792472204
 30
0.0
 41
1.0
 10
28.15586545657386
 20
28.04068825708869
 30
0.0
 41
1.0
 10
28.20510613919659
 20
28.03989713732638
 30
0.0
 41
1.0
 10
28.22971471040007
 20
28.04025715242709
 30
0.0
 41
1.0
 10
28.27890831258084
 20
28.04248833259051
 30
0.0
 41
1.0
 10
28.30345393205444
 20
28.04429463414186
 30
0.0
 41
1.0
 10
28.32794836991947
 20
28.04679164716481
 30
0.0
 41
1.0
  0
SPLINE
  5
9E
330
1F
100
AcDbEntity
  8
2D DXF
370
    -3
100
AcDbSpline
210
0.0
220
0.0
230
1.0
 70
    12
 71
     3
 72
    21
 73
    17
 74
     0
 42
0.0000000001
 43
0.0000000001
 40
30.22350564207482
 40
30.22350564207482
 40
30.22350564207482
 40
30.22350564207482
 40
52.87237440434966
 40
52.87237440434966
 40
52.87237440434966
 40
53.87237440434966
 40
53.87237440434966
 40
54.87237440434966
 40
54.87237440434966
 40
55.87237440434966
 40
55.87237440434966
 40
56.87237440434966
 40
56.87237440434966
 40
57.87237440434966
 40
57.87237440434966
 40
58.87237440434966
 40
58.87237440434966
 40
58.87237440434966
 40
58.87237440434966
 10
21.69885572064216
 20
0.2695093920356584
 30
0.0
 41
1.0
 10
24.80122000820496
 20
16.77513994444411
 30
0.0
 41
1.0
 10
25.08985396213582
 20
18.31077050472697
 30
0.0
 41
1.0
 10
26.78535308288458
 20
27.33140106107258
 30
0.0
 41
1.0
 10
26.79751804372735
 20
27.39628049950147
 30
0.0
 41
1.0
 10
26.81245809183237
 20
27.46051687047816
 30
0.0
 41
1.0
 10
26.84788836256958
 20
27.5877034775404
 30
0.0
 41
1.0
 10
26.86859701319794
 20
27.65031233281016
 30
0.0
 41
1.0
 10
26.91600134498061
 20
27.77356114683882
 30
0.0
 41
1.0
 10
26.94330215740122
 20
27.83359140121941
 30
0.0
 41
1.0
 10
27.0051010753037
 20
27.95046360471655
 30
0.0
 41
1.0
 10
27.04023700444669
 20
28.00612600869201
 30
0.0
 41
1.0
 10
27.11898180311734
 20
28.11190342109843
 30
0.0
 41
1.0
 10
27.16539888875276
 20
28.15949005130764
 30
0.0
 41
1.0
 10
27.27232243262331
 20
28.24405915973854
 30
0.0
 41
1.0
 10
27.33321869424408
 20
28.2604371416554
 30
0.0
 41
1.0
 10
27.40154944555003
 20
28.2509085512735
 30
0.0
 41
1.0
  0
LINE
  5
9F
330
1F
100
AcDbEntity
  8
2D DXF
370
    -3
100
AcDbLine
 10
21.07977681330381
 20
0.3863061818638158
 30
0.0
 11
21.69885572064216
 21
0.2695093920356584
 31
0.0
  0
SPLINE
  5
A0
330
1F
100
AcDbEntity
  8
2D DXF
370
    -3
100
AcDbSpline
210
0.0
220
0.0
230
1.0
 70
    12
 71
     3
 72
    33
 73
    29
 74
     0
 42
0.0000000001
 43
0.0000000001
 40
-0.1797954599331371
 40
-0.1797954599331371
 40
-0.1797954599331371
 40
-0.1797954599331371
 40
0.0
 40
0.0
 40
0.0
 40
0.0484024614707266
 40
0.0484024614707266
 40
0.0484024614707266
 40
0.4331018655948884
 40
0.4331018655948884
 40
0.4331018655948884
 40
0.9480123846230162
 40
0.9480123846230162
 40
0.9480123846230162
 40
1.948012384623016
 40
1.948012384623016
 40
2.948012384623016
 40
2.948012384623016
 40
3.948012384623016
 40
3.948012384623016
 40
4.948012384623016
 40
4.948012384623016
 40
5.948012384623016
 40
5.948012384623016
 40
6.948012384623016
 40
6.948012384623016
 40
6.948012384623016
 40
29.59350564207487
 40
29.59350564207487
 40
29.59350564207487
 40
29.59350564207487
 10
28.44605116818578
 20
28.69266653961283
 30
0.0
 41
1.0
 10
28.38644766103717
 20
28.68640195810809
 30
0.0
 41
1.0
 10
28.32684415388867
 20
28.68013737660338
 30
0.0
 41
1.0
 10
28.26724064674006
 20
28.67387279509865
 30
0.0
 41
1.0
 10
28.25799783014425
 20
28.6728981913456
 30
0.0
 41
1.0
 10
28.24900383393158
 20
28.67212381113991
 30
0.0
 41
1.0
 10
28.24027206411547
 20
28.67153887058979
 30
0.0
 41
1.0
 10
28.17012927683312
 20
28.66684001097174
 30
0.0
 41
1.0
 10
28.11989934686723
 20
28.67491459799098
 30
0.0
 41
1.0
 10
28.09009426617992
 20
28.68490260587048
 30
0.0
 41
1.0
 10
27.92730307502241
 20
28.7393557995326
 30
0.0
 41
1.0
 10
27.76451188386484
 20
28.79380899319662
 30
0.0
 41
1.0
 10
27.60172069270727
 20
28.84826218686155
 30
0.0
 41
1.0
 10
27.47999714395941
 20
28.88888969318226
 30
0.0
 41
1.0
 10
27.35611477432123
 20
28.89813581581305
 30
0.0
 41
1.0
 10
27.10403239326543
 20
28.8538652937094
 30
0.0
 41
1.0
 10
26.98865020478969
 20
28.80683747772132
 30
0.0
 41
1.0
 10
26.77920383194574
 20
28.66299673587213
 30
0.0
 41
1.0
 10
26.68743929897046
 20
28.57772466722147
 30
0.0
 41
1.0
 10
26.52982753991525
 20
28.38047713446792
 30
0.0
 41
1.0
 10
26.4618505997138
 20
28.2750455298775
 30
0.0
 41
1.0
 10
26.34755459796561
 20
28.0505666442694
 30
0.0
 41
1.0
 10
26.29939289824377
 20
27.93465575881696
 30
0.0
 41
1.0
 10
26.22104210110463
 20
27.69549110261529
 30
0.0
 41
1.0
 10
26.18973612388596
 20
27.57324404564882
 30
0.0
 41
1.0
 10
26.16629956801809
 20
27.44833225981675
 30
0.0
 41
1.0
 10
24.4707919831131
 20
18.42765690049929
 30
0.0
 41
1.0
 10
24.18214956502392
 20
16.89198153724431
 30
0.0
 41
1.0
 10
21.07977681330381
 20
0.3863061818638158
 30
0.0
 41
1.0
  0
LINE
  5
A1
330
1F
100
AcDbEntity
  8
2D DXF
370
    -3
100
AcDbLine
 10
21.65813458314524
 20
0.0551183902706356
 30
0.0
 11
21.69888210478327
 21
0.2696497645303566
 31
0.0
  0
SPLINE
  5
A2
330
1F
100
AcDbEntity
  8
2D DXF
370
    -3
100
AcDbSpline
210
0.0
220
0.0
230
1.0
 70
     8
 71
     2
 72
    11
 73
     8
 74
     0
 42
0.0000000001
 43
0.0000000001
 40
29.80353382541387
 40
29.80353382541387
 40
29.80353382541387
 40
30.80353382541387
 40
31.80353382541387
 40
32.80353382541387
 40
33.80353382541387
 40
34.80353382541387
 40
35.80353382541387
 40
35.80353382541387
 40
35.80353382541387
 10
21.04097971640751
 20
0.1798924636445491
 30
0.0
 10
21.034882362239
 20
0.1119837093894205
 30
0.0
 10
21.14556865494201
 20
0.0443484287993243
 30
0.0
 10
21.2628201686651
 20
0.0107847968937307
 30
0.0
 10
21.38348328747129
 20
-0.0123577064012039
 30
0.0
 10
21.50477145511418
 20
-0.0241959472390221
 30
0.0
 10
21.63287165888404
 20
-0.0073198440330344
 30
0.0
 10
21.65813458314524
 20
0.0551183902706356
 30
0.0
  0
LINE
  5
A3
330
1F
100
AcDbEntity
  8
2D DXF
370
    -3
100
AcDbLine
 10
21.07977681330375
 20
0.38630618186383
 30
0.0
 11
21.04097971640751
 21
0.1798924636445491
 31
0.0
  0
SPLINE
  5
A4
330
1F
100
AcDbEntity
  8
2D DXF
370
    -3
100
AcDbSpline
210
0.0
220
0.0
230
1.0
 70
    28
 71
     3
 72
    11
 73
     7
 74
     0
 42
0.0000000001
 43
0.0000000001
 40
8.894198103931968
 40
8.894198103931968
 40
8.894198103931968
 40
8.894198103931968
 40
10.78646256821504
 40
10.78646256821504
 40
10.78646256821504
 40
11.74197960070331
 40
11.74197960070331
 40
11.74197960070331
 40
11.74197960070331
 10
22.57546054286034
 20
12.50311834569883
 30
0.0
 41
1.0
 10
22.57573274283612
 20
12.50311834569883
 30
0.0
 41
0.9999999999999993
 10
22.6957433196476
 20
12.50311834569884
 30
0.0
 41
1.0
 10
22.9265075435431
 20
12.50311834569883
 30
0.0
 41
1.0
 10
23.04292621476469
 20
12.50311834569883
 30
0.0
 41
1.0
 10
23.18753302165357
 20
12.50311834569883
 30
0.0
 41
1.0
 10
23.35722784539115
 20
12.50311834569883
 30
0.0
 41
1.0
  0
SPLINE
  5
A5
330
1F
100
AcDbEntity
  8
2D DXF
370
    -3
100
AcDbSpline
210
0.0
220
0.0
230
1.0
 70
    12
 71
     2
 72
     8
 73
     5
 74
     0
 42
0.0000000001
 43
0.0000000001
 40
7.904596418051183
 40
7.904596418051183
 40
7.904596418051183
 40
8.399397518722592
 40
8.399397518722592
 40
8.894198103931968
 40
8.894198103931968
 40
8.894198103931968
 10
22.57546100693914
 20
13.13311834569883
 30
0.0
 41
1.0
 10
22.26046100693915
 20
13.13311834569883
 30
0.0
 41
0.7071067811865476
 10
22.26046100693914
 20
12.81811834569884
 30
0.0
 41
1.0
 10
22.26046100693913
 20
12.50311880977728
 30
0.0
 41
0.7071070863098269
 10
22.57546054286036
 20
12.50311834569884
 30
0.0
 41
0.9999993897540771
  0
SPLINE
  5
A6
330
1F
100
AcDbEntity
  8
2D DXF
370
    -3
100
AcDbSpline
210
0.0
220
0.0
230
1.0
 70
    28
 71
     3
 72
    11
 73
     7
 74
     0
 42
0.0000000001
 43
0.0000000001
 40
4.839909784072178
 40
4.839909784072178
 40
4.839909784072178
 40
4.839909784072178
 40
6.008571652835871
 40
6.008571652835871
 40
6.008571652835871
 40
7.904596418051183
 40
7.904596418051183
 40
7.904596418051183
 40
7.904596418051183
 10
23.47499962390356
 20
13.13311834569883
 30
0.0
 41
1.0
 10
23.2537285962207
 20
13.13311834569883
 30
0.0
 41
1.0
 10
23.06900297779928
 20
13.13311834569883
 30
0.0
 41
1.0
 10
22.92650754354311
 20
13.13311834569883
 30
0.0
 41
1.0
 10
22.69511011858398
 20
13.13311834569884
 30
0.0
 41
0.9999999999999996
 10
22.5750749752793
 20
13.13311834569885
 30
0.0
 41
0.9999999999999989
 10
22.57546100693914
 20
13.13311834569884
 30
0.0
 41
0.9999999999999998
  0
SPLINE
  5
A7
330
1F
100
AcDbEntity
  8
2D DXF
370
    -3
100
AcDbSpline
210
0.0
220
0.0
230
1.0
 70
    28
 71
     3
 72
     8
 73
     4
 74
     0
 42
0.0000000001
 43
0.0000000001
 40
8.894198103927184
 40
8.894198103927184
 40
8.894198103927184
 40
8.894198103927184
 40
10.30633328556356
 40
10.30633328556356
 40
10.30633328556356
 40
10.30633328556356
 10
40.45146146480677
 20
13.13311834569883
 30
0.0
 41
1.0
 10
40.45125985431144
 20
13.13311834569884
 30
0.0
 41
0.9999999999999999
 10
40.38447953814121
 20
13.13311834569883
 30
0.0
 41
1.0
 10
40.25483942406761
 20
13.13311834569883
 30
0.0
 41
1.0
  0
SPLINE
  5
A8
330
1F
100
AcDbEntity
  8
2D DXF
370
    -3
100
AcDbSpline
210
0.0
220
0.0
230
1.0
 70
    12
 71
     2
 72
     8
 73
     5
 74
     0
 42
0.0000000001
 43
0.0000000001
 40
7.904596418046399
 40
7.904596418046399
 40
7.904596418046399
 40
8.399397515268385
 40
8.399397515268385
 40
8.894198103927184
 40
8.894198103927184
 40
8.894198103927184
 10
40.45146100693917
 20
12.50311834569884
 30
0.0
 41
1.0
 10
40.76646100693915
 20
12.50311834569883
 30
0.0
 41
0.7071067811865476
 10
40.76646100693917
 20
12.81811834569884
 30
0.0
 41
1.0
 10
40.76646100693912
 20
13.13311788783154
 30
0.0
 41
0.7071070822261153
 10
40.45146146480679
 20
13.13311834569885
 30
0.0
 41
0.9999993979214834
  0
SPLINE
  5
A9
330
1F
100
AcDbEntity
  8
2D DXF
370
    -3
100
AcDbSpline
210
0.0
220
0.0
230
1.0
 70
    28
 71
     3
 72
     8
 73
     4
 74
     0
 42
0.0000000001
 43
0.0000000001
 40
7.056590117588028
 40
7.056590117588028
 40
7.056590117588028
 40
7.056590117588028
 40
7.904596418046399
 40
7.904596418046399
 40
7.904596418046399
 40
7.904596418046399
 10
40.38052332681043
 20
12.50311834569884
 30
0.0
 41
1.0
 10
40.4277169324214
 20
12.50311834569884
 30
0.0
 41
1.0
 10
40.45163249643458
 20
12.50311834569884
 30
0.0
 41
1.0
 10
40.45146100693913
 20
12.50311834569883
 30
0.0
 41
1.0
  0
LINE
  5
AA
330
1F
100
AcDbEntity
  8
2D DXF
370
    -3
100
AcDbLine
 10
23.9968446118818
 20
12.50311834569882
 30
0.0
 11
39.73872099795933
 21
12.50311834569877
 31
0.0
  0
LINE
  5
AB
330
1F
100
AcDbEntity
  8
2D DXF
370
    -3
100
AcDbLine
 10
39.61306308363545
 20
13.13311834569878
 30
0.0
 11
24.11642762190003
 21
13.13311834569883
 31
0.0
  0
SPLINE
  5
AC
330
1F
100
AcDbEntity
  8
2D DXF
370
    -3
100
AcDbSpline
210
0.0
220
0.0
230
1.0
 70
     8
 71
     2
 72
     7
 73
     4
 74
     0
 42
0.0000000001
 43
0.0000000001
 40
13.40106775401131
 40
13.40106775401131
 40
13.40106775401131
 40
14.40106775401131
 40
15.40106775401131
 40
15.40106775401131
 40
15.40106775401131
 10
28.48109690550531
 20
28.35930955066702
 30
0.0
 10
28.49192282200723
 20
28.26416828911813
 30
0.0
 10
28.42747192064003
 20
28.07276652248007
 30
0.0
 10
28.32793416778055
 20
28.04656075875737
 30
0.0
  0
LINE
  5
AD
330
1F
100
AcDbEntity
  8
2D DXF
370
    -3
100
AcDbLine
 10
28.42734070868569
 20
28.87068465714006
 30
0.0
 11
28.48109690550531
 21
28.35930955066702
 31
0.0
  0
SPLINE
  5
AE
330
1F
100
AcDbEntity
  8
2D DXF
370
    -3
100
AcDbSpline
210
0.0
220
0.0
230
1.0
 70
     8
 71
     2
 72
     7
 73
     4
 74
     0
 42
0.0000000001
 43
0.0000000001
 40
10.88546531432997
 40
10.88546531432997
 40
10.88546531432997
 40
11.88546531432997
 40
12.88546531432997
 40
12.88546531432997
 40
12.88546531432997
 10
28.49854004565272
 20
28.95860999491326
 30
0.0
 10
28.46570343997224
 20
28.95480247423258
 30
0.0
 10
28.42423737015862
 20
28.90359528107545
 30
0.0
 10
28.42734070868575
 20
28.87068465714006
 30
0.0
  0
LINE
  5
AF
330
1F
100
AcDbEntity
  8
2D DXF
370
    -3
100
AcDbLine
 10
28.78149962633769
 20
28.98835024525226
 30
0.0
 11
28.49854004565272
 21
28.95860999491326
 31
0.0
  0
LINE
  5
B0
330
1F
100
AcDbEntity
  8
2D DXF
370
    -3
100
AcDbLine
 10
29.34448900554663
 20
29.04752281341672
 30
0.0
 11
28.78149962633769
 21
28.98835024525226
 31
0.0
  0
ARC
  5
B1
330
1F
100
AcDbEntity
  8
2D DXF
370
    -3
100
AcDbCircle
 10
29.35307915411506
 20
28.97232269993559
 30
0.0
 40
0.0756891519307933
100
AcDbArc
 50
77.5019814014356
 51
96.51668048199421
  0
SPLINE
  5
B2
330
1F
100
AcDbEntity
  8
2D DXF
370
    -3
100
AcDbSpline
210
0.0
220
0.0
230
1.0
 70
     8
 71
     2
 72
     7
 73
     4
 74
     0
 42
0.0000000001
 43
0.0000000001
 40
7.657492393997497
 40
7.657492393997497
 40
7.657492393997497
 40
8.657492393997497
 40
9.657492393997497
 40
9.657492393997497
 40
9.657492393997497
 10
29.43224022060117
 20
28.9580920940444
 30
0.0
 10
29.43579749037595
 20
28.98898069080808
 30
0.0
 10
29.39981469742641
 20
29.03948962851555
 30
0.0
 10
29.36945872949254
 20
29.04621828323023
 30
0.0
  0
SPLINE
  5
B3
330
1F
100
AcDbEntity
  8
2D DXF
370
    -3
100
AcDbSpline
210
0.0
220
0.0
230
1.0
 70
    28
 71
     2
 72
     6
 73
     3
 74
     0
 42
0.0000000001
 43
0.0000000001
 40
6.50481871282868
 40
6.50481871282868
 40
6.50481871282868
 40
7.657492393997497
 40
7.657492393997497
 40
7.657492393997497
 10
29.29170861830352
 20
27.82761427648299
 30
0.0
 41
0.856073142531669
 10
29.36197441945234
 20
28.39285318526369
 30
0.0
 41
0.8560731425316691
 10
29.43224022060117
 20
28.95809209404441
 30
0.0
 41
0.8560731425316692
  0
SPLINE
  5
B4
330
1F
100
AcDbEntity
  8
2D DXF
370
    -3
100
AcDbSpline
210
0.0
220
0.0
230
1.0
 70
     8
 71
     2
 72
     7
 73
     4
 74
     0
 42
0.0000000001
 43
0.0000000001
 40
4.50481871282868
 40
4.50481871282868
 40
4.50481871282868
 40
5.504850921676796
 40
6.50481871282868
 40
6.50481871282868
 40
6.50481871282868
 10
29.08403106814184
 20
27.58124776636132
 30
0.0
 10
29.17542954183018
 20
27.59554942299638
 30
0.0
 10
29.28228133931414
 20
27.74000242455584
 30
0.0
 10
29.29170861830359
 20
27.82761427648298
 30
0.0
  0
LINE
  5
B5
330
1F
100
AcDbEntity
  8
2D DXF
370
    -3
100
AcDbLine
 10
28.61511662772035
 20
27.53198033936597
 30
0.0
 11
29.08403106814184
 21
27.58124776636132
 31
0.0
  0
LINE
  5
B6
330
1F
100
AcDbEntity
  8
2D DXF
370
    -3
100
AcDbLine
 10
28.18372981037989
 20
27.48663867361736
 30
0.0
 11
28.61511662772035
 21
27.53198033936597
 31
0.0
  0
SPLINE
  5
B7
330
1F
100
AcDbEntity
  8
2D DXF
370
    -3
100
AcDbSpline
210
0.0
220
0.0
230
1.0
 70
     8
 71
     2
 72
     7
 73
     4
 74
     0
 42
0.0000000001
 43
0.0000000001
 40
1.232673681168816
 40
1.232673681168816
 40
1.232673681168816
 40
2.232666359644853
 40
3.232673681168816
 40
3.232673681168816
 40
3.232673681168816
 10
27.92824586145032
 20
27.68429997778637
 30
0.0
 10
27.95607540319658
 20
27.60001321902244
 30
0.0
 10
28.09178402825781
 20
27.48091463154459
 30
0.0
 10
28.18372981037989
 20
27.48663867361736
 30
0.0
  0
LINE
  5
B8
330
1F
100
AcDbEntity
  8
2D DXF
370
    -3
100
AcDbLine
 10
27.77547067074444
 20
28.12583282354025
 30
0.0
 11
27.92824586145026
 21
27.68429997778638
 31
0.0
  0
LINE
  5
B9
330
1F
100
AcDbEntity
  8
2D DXF
370
    -3
100
AcDbLine
 10
35.93803086396316
 20
28.52638344364148
 30
0.0
 11
35.97642362059726
 21
28.83522630042427
 31
0.0
  0
SPLINE
  5
BA
330
1F
100
AcDbEntity
  8
2D DXF
370
    -3
100
AcDbSpline
210
0.0
220
0.0
230
1.0
 70
     8
 71
     2
 72
     7
 73
     4
 74
     0
 42
0.0000000001
 43
0.0000000001
 40
7.306249570421159
 40
7.306249570421159
 40
7.306249570421159
 40
8.306256891946019
 40
9.306249570421159
 40
9.306249570421159
 40
9.306249570421159
 10
35.72922595279415
 20
28.27992341281988
 30
0.0
 10
35.82035259494019
 20
28.29344106031554
 30
0.0
 10
35.92833366770016
 20
28.4381524656787
 30
0.0
 10
35.93803086396322
 20
28.52638344364148
 30
0.0
  0
LINE
  5
BB
330
1F
100
AcDbEntity
  8
2D DXF
370
    -3
100
AcDbLine
 10
35.29669001607375
 20
28.23446313809613
 30
0.0
 11
35.72922595279415
 21
28.27992341281988
 31
0.0
  0
LINE
  5
BC
330
1F
100
AcDbEntity
  8
2D DXF
370
    -3
100
AcDbLine
 10
34.82892810224281
 20
28.18528190170635
 30
0.0
 11
35.29669001607375
 21
28.23446313809613
 31
0.0
  0
SPLINE
  5
BD
330
1F
100
AcDbEntity
  8
2D DXF
370
    -3
100
AcDbSpline
210
0.0
220
0.0
230
1.0
 70
     8
 71
     2
 72
     7
 73
     4
 74
     0
 42
0.0000000001
 43
0.0000000001
 40
4.037371271146342
 40
4.037371271146342
 40
4.037371271146342
 40
5.037339062304119
 40
6.037371271146342
 40
6.037371271146342
 40
6.037371271146342
 10
34.574566322921
 20
28.38308612036899
 30
0.0
 10
34.60200312347224
 20
28.29934883745837
 30
0.0
 10
34.73655342342848
 20
28.1802682198351
 30
0.0
 10
34.82892810224281
 20
28.18528190170635
 30
0.0
  0
SPLINE
  5
BE
330
1F
100
AcDbEntity
  8
2D DXF
370
    -3
100
AcDbSpline
210
0.0
220
0.0
230
1.0
 70
    28
 71
     2
 72
     6
 73
     3
 74
     0
 42
0.0000000001
 43
0.0000000001
 40
2.884697589977524
 40
2.884697589977524
 40
2.884697589977524
 40
4.037371271146342
 40
4.037371271146342
 40
4.037371271146342
 10
34.20174385999353
 20
29.46061347412018
 30
0.0
 41
0.8560731425110866
 10
34.38815509145729
 20
28.92184979724459
 30
0.0
 41
0.8560731425110863
 10
34.57456632292104
 20
28.38308612036899
 30
0.0
 41
0.8560731425110862
  0
SPLINE
  5
BF
330
1F
100
AcDbEntity
  8
2D DXF
370
    -3
100
AcDbSpline
210
0.0
220
0.0
230
1.0
 70
     8
 71
     2
 72
     7
 73
     4
 74
     0
 42
0.0000000001
 43
0.0000000001
 40
0.8846975899775236
 40
0.8846975899775236
 40
0.8846975899775236
 40
1.884697589977524
 40
2.884697589977524
 40
2.884697589977524
 40
2.884697589977524
 10
34.26930605212023
 20
29.5653630685289
 30
0.0
 10
34.23174163325429
 20
29.56082109809118
 30
0.0
 10
34.1905320341415
 20
29.49782200032631
 30
0.0
 10
34.20174385999356
 20
29.46061347412018
 30
0.0
  0
SPLINE
  5
C0
330
1F
100
AcDbEntity
  8
2D DXF
370
    -3
100
AcDbSpline
210
0.0
220
0.0
230
1.0
 70
    24
 71
     2
 72
     6
 73
     3
 74
     0
 42
0.0000000001
 43
0.0000000001
 40
0.0843024100224767
 40
0.0843024100224767
 40
0.0843024100224767
 40
0.8846975899775236
 40
0.8846975899775236
 40
0.8846975899775236
 10
34.83229543036363
 20
29.62453564958436
 30
0.0
 10
34.55080074124193
 20
29.59494935905663
 30
0.0
 10
34.26930605212023
 20
29.5653630685289
 30
0.0
  0
SPLINE
  5
C1
330
1F
100
AcDbEntity
  8
2D DXF
370
    -3
100
AcDbSpline
210
0.0
220
0.0
230
1.0
 70
    28
 71
     2
 72
     6
 73
     3
 74
     0
 42
0.0000000001
 43
0.0000000001
 40
5.58027268840272
 40
5.58027268840272
 40
5.58027268840272
 40
5.764182542701008
 40
5.764182542701008
 40
5.764182542701008
 10
35.65960821401235
 20
29.63525900371366
 30
0.0
 41
1.0
 10
35.66243439462333
 20
29.54334751741955
 30
0.0
 41
1.0
 10
35.66526057523431
 20
29.45143603112544
 30
0.0
 41
1.0
  0
SPLINE
  5
C2
330
1F
100
AcDbEntity
  8
2D DXF
370
    -3
100
AcDbSpline
210
0.0
220
0.0
230
1.0
 70
     8
 71
     2
 72
     7
 73
     4
 74
     0
 42
0.0000000001
 43
0.0000000001
 40
3.58027268840272
 40
3.58027268840272
 40
3.58027268840272
 40
4.58027268840272
 40
5.58027268840272
 40
5.58027268840272
 40
5.58027268840272
 10
35.70785267061895
 20
29.71656042375979
 30
0.0
 10
35.68046502700311
 20
29.71108745610682
 30
0.0
 10
35.65750090645516
 20
29.66148531403724
 30
0.0
 10
35.65960821401235
 20
29.63525900371366
 30
0.0
  0
SPLINE
  5
C3
330
1F
100
AcDbEntity
  8
2D DXF
370
    -3
100
AcDbSpline
210
0.0
220
0.0
230
1.0
 70
    24
 71
     2
 72
     6
 73
     3
 74
     0
 42
0.0000000001
 43
0.0000000001
 40
3.177813839152324
 40
3.177813839152324
 40
3.177813839152324
 40
3.58027268840272
 40
3.58027268840272
 40
3.58027268840272
 10
35.99081225130341
 20
29.74630067410098
 30
0.0
 10
35.84933246096118
 20
29.73143054893038
 30
0.0
 10
35.70785267061895
 20
29.71656042375979
 30
0.0
  0
ARC
  5
C4
330
1F
100
AcDbEntity
  8
2D DXF
370
    -3
100
AcDbCircle
 10
35.99940943955677
 20
29.6712232186688
 30
0.0
 40
0.0755680882385853
100
AcDbArc
 50
77.47125213979278
 51
96.53253822394014
  0
SPLINE
  5
C5
330
1F
100
AcDbEntity
  8
2D DXF
370
    -3
100
AcDbSpline
210
0.0
220
0.0
230
1.0
 70
     8
 71
     2
 72
     7
 73
     4
 74
     0
 42
0.0000000001
 43
0.0000000001
 40
1.152673681168807
 40
1.152673681168807
 40
1.152673681168807
 40
2.152673681168807
 40
3.152673681168807
 40
3.152673681168807
 40
3.152673681168807
 10
36.07856347294621
 20
29.65686995507794
 30
0.0
 10
36.08212203415339
 20
29.68775225726336
 30
0.0
 10
36.0461440514335
 20
29.73824926585146
 30
0.0
 10
36.01580238247904
 20
29.74499182569362
 30
0.0
  0
LINE
  5
C6
330
1F
100
AcDbEntity
  8
2D DXF
370
    -3
100
AcDbLine
 10
36.05415243819932
 20
29.46050030130267
 30
0.0
 11
36.07856347294621
 21
29.65686995507794
 31
0.0
  0
SPLINE
  5
C7
330
1F
100
AcDbEntity
  8
2D DXF
370
    -3
100
AcDbSpline
210
0.0
220
0.0
230
1.0
 70
     8
 71
     2
 72
     7
 73
     4
 74
     0
 42
0.0000000001
 43
0.0000000001
 40
-77.0
 40
-77.0
 40
-77.0
 40
-76.0
 40
-75.91881111300634
 40
-75.91881111300634
 40
-75.91881111300634
 10
27.9156239731749
 20
28.92186290343966
 30
0.0
 10
27.69945811086565
 20
28.90200333095817
 30
0.0
 10
27.46544145508462
 20
28.88408850476117
 30
0.0
 10
27.44786684868019
 20
28.88276926090474
 30
0.0
  0
LINE
  5
C8
330
1F
100
AcDbEntity
  8
2D DXF
370
    -3
100
AcDbLine
 10
27.9356594167589
 20
28.8885183257631
 30
0.0
 11
27.91562397317496
 21
28.92186290343965
 31
0.0
  0
LINE
  5
C9
330
1F
100
AcDbEntity
  8
2D DXF
370
    -3
100
AcDbLine
 10
28.03077164013025
 20
28.73022500388537
 30
0.0
 11
27.96899995751774
 21
28.83303034784771
 31
0.0
  0
ARC
  5
CA
330
1F
100
AcDbEntity
  8
2D DXF
370
    -3
100
AcDbCircle
 10
-28.12236123793777
 20
28.78525758632054
 30
0.0
 40
0.1068514836397989
210
0.0
220
0.0
230
-1.0
100
AcDbArc
 50
294.6443848349465
 51
328.9999999999692
  0
SPLINE
  5
CB
330
1F
100
AcDbEntity
  8
2D DXF
370
    -3
100
AcDbSpline
210
0.0
220
0.0
230
1.0
 70
     8
 71
     2
 72
     6
 73
     3
 74
     0
 42
0.0000000001
 43
0.0000000001
 40
2.32223942419359
 40
2.32223942419359
 40
2.32223942419359
 40
2.883370325416598
 40
2.883370325416598
 40
2.883370325416598
 10
27.62298280539774
 20
28.86658522074494
 30
0.0
 10
27.60210797422924
 20
28.86406998494269
 30
0.0
 10
27.58644577398509
 20
28.85319221842747
 30
0.0
  0
SPLINE
  5
CC
330
1F
100
AcDbEntity
  8
2D DXF
370
    -3
100
AcDbSpline
210
0.0
220
0.0
230
1.0
 70
    24
 71
     2
 72
     6
 73
     3
 74
     0
 42
0.0000000001
 43
0.0000000001
 40
1.919780574943195
 40
1.919780574943195
 40
1.919780574943195
 40
2.32223942419359
 40
2.32223942419359
 40
2.32223942419359
 10
27.90594238608226
 20
28.89632547108388
 30
0.0
 10
27.76446259574
 20
28.88145534591441
 30
0.0
 10
27.62298280539774
 20
28.86658522074494
 30
0.0
  0
SPLINE
  5
CD
330
1F
100
AcDbEntity
  8
2D DXF
370
    -3
100
AcDbSpline
210
0.0
220
0.0
230
1.0
 70
     8
 71
     2
 72
     7
 73
     4
 74
     0
 42
0.0000000001
 43
0.0000000001
 40
-0.0802194250568052
 40
-0.0802194250568052
 40
-0.0802194250568052
 40
0.9197805749431949
 40
1.919780574943195
 40
1.919780574943195
 40
1.919780574943195
 10
27.96992998215798
 20
28.82754245266025
 30
0.0
 10
27.96616168133882
 20
28.85393917241338
 30
0.0
 10
27.93345727939625
 20
28.8967314980102
 30
0.0
 10
27.90594238608226
 20
28.89632547108388
 30
0.0
  0
SPLINE
  5
CE
330
1F
100
AcDbEntity
  8
2D DXF
370
    -3
100
AcDbSpline
210
0.0
220
0.0
230
1.0
 70
    28
 71
     2
 72
     6
 73
     3
 74
     0
 42
0.0000000001
 43
0.0000000001
 40
-0.1905776913670985
 40
-0.1905776913670985
 40
-0.1905776913670985
 40
-0.0802194250568052
 40
-0.0802194250568052
 40
-0.0802194250568052
 10
27.98960999584655
 20
28.71851431049473
 30
0.0
 41
1.0
 10
27.97976998900226
 20
28.77302838157749
 30
0.0
 41
1.0
 10
27.96992998215798
 20
28.82754245266025
 30
0.0
 41
1.0
  0
SPLINE
  5
CF
330
1F
100
AcDbEntity
  8
2D DXF
370
    -3
100
AcDbSpline
210
0.0
220
0.0
230
1.0
 70
     8
 71
     2
 72
    53
 73
    50
 74
     0
 42
0.0000000001
 43
0.0000000001
 40
-48.0
 40
-48.0
 40
-48.0
 40
-47.0
 40
-46.0
 40
-45.0
 40
-44.0
 40
-43.0
 40
-42.0
 40
-41.0
 40
-40.0
 40
-39.0
 40
-38.0
 40
-37.0
 40
-36.0
 40
-35.0
 40
-34.0
 40
-33.0
 40
-32.0
 40
-31.0
 40
-30.0
 40
-29.0
 40
-28.0
 40
-27.0
 40
-26.0
 40
-25.0
 40
-24.0
 40
-23.0
 40
-22.0
 40
-21.0
 40
-20.0
 40
-19.0
 40
-18.0
 40
-17.0
 40
-16.0
 40
-15.0
 40
-14.0
 40
-13.0
 40
-12.0
 40
-11.0
 40
-10.0
 40
-9.0
 40
-8.0
 40
-7.0
 40
-6.0
 40
-5.0
 40
-4.0
 40
-3.0
 40
-2.0
 40
-1.0
 40
0.0
 40
0.0
 40
0.0
 10
22.36011520026183
 20
36.89967815697742
 30
0.0
 10
22.60826561483294
 20
36.8184465665627
 30
0.0
 10
22.99795479637557
 20
36.48463927827835
 30
0.0
 10
23.19175573410213
 20
36.00044416907356
 30
0.0
 10
23.31786073063934
 20
35.50420816645588
 30
0.0
 10
23.39388481695148
 20
34.9964227505894
 30
0.0
 10
23.46192171572376
 20
34.48811483966618
 30
0.0
 10
23.51410064917162
 20
33.97780982164697
 30
0.0
 10
23.55393874964996
 20
33.46643321980173
 30
0.0
 10
23.5847624966943
 20
32.95444103753468
 30
0.0
 10
23.61225285315881
 20
32.44226720552379
 30
0.0
 10
23.64436382798068
 20
31.93034480875164
 30
0.0
 10
23.69648621931056
 20
31.41989290282163
 30
0.0
 10
23.79259338875376
 20
30.91572086103837
 30
0.0
 10
23.95497785238406
 20
30.42657424782641
 30
0.0
 10
24.26094611595336
 20
30.00848255227648
 30
0.0
 10
24.70413442826175
 20
29.73801186208392
 30
0.0
 10
25.21049449563033
 20
29.63669127366921
 30
0.0
 10
25.72412650152678
 20
29.63504825791873
 30
0.0
 10
26.23548993716032
 20
29.67641532836507
 30
0.0
 10
26.74523180247031
 20
29.73346323336878
 30
0.0
 10
27.25404574002546
 20
29.79821327856963
 30
0.0
 10
27.76239536552283
 20
29.86647271422143
 30
0.0
 10
28.27055342831183
 20
29.93613795553439
 30
0.0
 10
28.77870110820056
 20
30.00588337695366
 30
0.0
 10
29.28696384308036
 20
30.07478373174776
 30
0.0
 10
29.79544113824268
 20
30.14208561863106
 30
0.0
 10
30.30420435882816
 20
30.2071937342307
 30
0.0
 10
30.8133027575998
 20
30.26962973950576
 30
0.0
 10
31.32275690231064
 20
30.32909510185461
 30
0.0
 10
31.83255367000909
 20
30.38554471663331
 30
0.0
 10
32.34266106511906
 20
30.43911993915397
 30
0.0
 10
32.85314236827203
 20
30.48901958352806
 30
0.0
 10
33.36407785842785
 20
30.53405686670546
 30
0.0
 10
33.8755438779129
 20
30.57264670419436
 30
0.0
 10
34.38754317367427
 20
30.60341482496258
 30
0.0
 10
34.9000076259302
 20
30.62517601309759
 30
0.0
 10
35.41280842847483
 20
30.63673786281483
 30
0.0
 10
35.92574724782743
 20
30.63634883400141
 30
0.0
 10
36.43849003749598
 20
30.62175465832384
 30
0.0
 10
36.95049185587386
 20
30.59030323178607
 30
0.0
 10
37.46088392642726
 20
30.5387295605053
 30
0.0
 10
37.96827683804595
 20
30.46286837537403
 30
0.0
 10
38.47035163853577
 20
30.35708105812479
 30
0.0
 10
38.96307112797565
 20
30.21328701816113
 30
0.0
 10
39.43935869589735
 20
30.02223016501031
 30
0.0
 10
39.90362763869105
 20
29.8038826921693
 30
0.0
 10
40.35480182073765
 20
29.55979297772447
 30
0.0
 10
40.79980790593852
 20
29.30458048183813
 30
0.0
 10
41.02889407947482
 20
29.18918196528614
 30
0.0
  0
SPLINE
  5
D0
330
1F
100
AcDbEntity
  8
2D DXF
370
    -3
100
AcDbSpline
210
0.0
220
0.0
230
1.0
 70
     8
 71
     3
 72
     8
 73
     4
 74
     0
 42
0.0000000001
 43
0.0000000001
 40
-49.0
 40
-49.0
 40
-49.0
 40
-49.0
 40
-48.0
 40
-48.0
 40
-48.0
 40
-48.0
 10
22.17451333142857
 20
36.83453390846813
 30
0.0
 10
22.15381101765799
 20
36.92157759108154
 30
0.0
 10
22.27792732753296
 20
36.92658220880465
 30
0.0
 10
22.36011520026183
 20
36.89967815697742
 30
0.0
  0
SPLINE
  5
D1
330
1F
100
AcDbEntity
  8
2D DXF
370
    -3
100
AcDbSpline
210
0.0
220
0.0
230
1.0
 70
     8
 71
     2
 72
    32
 73
    29
 74
     0
 42
0.0000000001
 43
0.0000000001
 40
-75.27948194726402
 40
-75.27948194726402
 40
-75.27948194726402
 40
-75.0
 40
-74.0
 40
-73.0
 40
-72.0
 40
-71.0
 40
-70.0
 40
-69.0
 40
-68.0
 40
-67.0
 40
-66.0
 40
-65.0
 40
-64.0
 40
-63.0
 40
-62.0
 40
-61.0
 40
-60.0
 40
-59.0
 40
-58.0
 40
-57.0
 40
-56.0
 40
-55.0
 40
-54.0
 40
-53.0
 40
-52.0
 40
-51.0
 40
-50.0
 40
-49.0
 40
-49.0
 40
-49.0
 10
27.17097125938507
 20
28.86360575820348
 30
0.0
 10
27.11042494348017
 20
28.85976977845077
 30
0.0
 10
26.83314476191914
 20
28.84362006882473
 30
0.0
 10
26.39923547957518
 20
28.82856626472052
 30
0.0
 10
25.96505772086051
 20
28.82644867069733
 30
0.0
 10
25.53107244801181
 20
28.84100849401197
 30
0.0
 10
25.09851739345511
 20
28.87987896099202
 30
0.0
 10
24.67007949180989
 20
28.95170856626811
 30
0.0
 10
24.25056766287038
 20
29.06530909562379
 30
0.0
 10
23.849330040574
 20
29.23324975182113
 30
0.0
 10
23.48315118529264
 20
29.4695338773695
 30
0.0
 10
23.18344582379042
 20
29.78698002831617
 30
0.0
 10
22.97937243332593
 20
30.17254426592152
 30
0.0
 10
22.85500262524364
 20
30.58944851880275
 30
0.0
 10
22.78253153087498
 20
31.01782285081889
 30
0.0
 10
22.74017341339471
 20
31.44999941566174
 30
0.0
 10
22.71329650510388
 20
31.88333753618554
 30
0.0
 10
22.69795340465022
 20
32.31722691014679
 30
0.0
 10
22.68752501257713
 20
32.75124638763874
 30
0.0
 10
22.67565745459144
 20
33.18523226381852
 30
0.0
 10
22.65722521845056
 20
33.61899890274611
 30
0.0
 10
22.62893962368481
 20
34.05224356196149
 30
0.0
 10
22.58918737563006
 20
34.48459114576588
 30
0.0
 10
22.53760148008361
 20
34.91568690437789
 30
0.0
 10
22.47454064584618
 20
35.34525160884557
 30
0.0
 10
22.40077817208028
 20
35.77310519950056
 30
0.0
 10
22.31719459835189
 20
36.19914556817984
 30
0.0
 10
22.22474183289343
 20
36.62334622248774
 30
0.0
 10
22.17451333142857
 20
36.83453390846813
 30
0.0
  0
SPLINE
  5
D2
330
1F
100
AcDbEntity
  8
2D DXF
370
    -3
100
AcDbSpline
210
0.0
220
0.0
230
1.0
 70
     8
 71
     3
 72
     8
 73
     4
 74
     0
 42
0.0000000001
 43
0.0000000001
 40
30.24920543449504
 40
30.24920543449504
 40
30.24920543449504
 40
30.24920543449504
 40
31.24920543449504
 40
31.24920543449504
 40
31.24920543449504
 40
31.24920543449504
 10
40.96837608142029
 20
28.89234630234269
 30
0.0
 10
41.1838211968019
 20
28.79732521358758
 30
0.0
 10
41.21925651456463
 20
29.09328991611756
 30
0.0
 10
41.02889407947482
 20
29.18918196528614
 30
0.0
  0
SPLINE
  5
D3
330
1F
100
AcDbEntity
  8
2D DXF
370
    -3
100
AcDbSpline
210
0.0
220
0.0
230
1.0
 70
     8
 71
     2
 72
    11
 73
     8
 74
     0
 42
0.0000000001
 43
0.0000000001
 40
24.58515055566001
 40
24.58515055566001
 40
24.58515055566001
 40
25.24920543449504
 40
26.24920543449504
 40
27.24920543449504
 40
28.24920543449504
 40
29.24920543449504
 40
30.24920543449504
 40
30.24920543449504
 40
30.24920543449504
 10
35.99577192113476
 20
29.75083797846931
 30
0.0
 10
36.29500264938976
 20
29.76450952994068
 30
0.0
 10
37.04515021258028
 20
29.7845317292182
 30
0.0
 10
37.94689786877395
 20
29.75349357394268
 30
0.0
 10
38.84117466486414
 20
29.62992314569514
 30
0.0
 10
39.71373217158062
 20
29.3984664471925
 30
0.0
 10
40.55581114297986
 20
29.07430619297821
 30
0.0
 10
40.96837608142029
 20
28.89234630234269
 30
0.0
  0
SPLINE
  5
D4
330
1F
100
AcDbEntity
  8
2D DXF
370
    -3
100
AcDbSpline
210
0.0
220
0.0
230
1.0
 70
     8
 71
     2
 72
     6
 73
     3
 74
     0
 42
0.0000000001
 43
0.0000000001
 40
24.24920543449504
 40
24.24920543449504
 40
24.24920543449504
 40
24.58515055566001
 40
24.58515055566001
 40
24.58515055566001
 10
35.69304167877193
 20
29.73555101420514
 30
0.0
 10
35.84439120477545
 20
29.74392154556301
 30
0.0
 10
35.99577192113476
 20
29.75083797846931
 30
0.0
  0
SPLINE
  5
D5
330
1F
100
AcDbEntity
  8
2D DXF
370
    -3
100
AcDbSpline
210
0.0
220
0.0
230
1.0
 70
    12
 71
     3
 72
     8
 73
     4
 74
     0
 42
0.0000000001
 43
0.0000000001
 40
24.21627622710411
 40
24.21627622710411
 40
24.21627622710411
 40
24.21627622710411
 40
24.24920543449504
 40
24.24920543449504
 40
24.24920543449504
 40
24.24920543449504
 10
35.68221240120403
 20
29.70440983202095
 30
0.0
 41
0.9998948912510897
 10
35.68581707685914
 20
29.71478994493259
 30
0.0
 41
0.9998948912510897
 10
35.68942658574132
 20
29.72517032515051
 30
0.0
 41
0.9998948912510897
 10
35.6930416787719
 20
29.73555101420514
 30
0.0
 41
0.9998948912510898
  0
SPLINE
  5
D6
330
1F
100
AcDbEntity
  8
2D DXF
370
    -3
100
AcDbSpline
210
0.0
220
0.0
230
1.0
 70
    12
 71
     3
 72
     8
 73
     4
 74
     0
 42
0.0000000001
 43
0.0000000001
 40
24.0043308142028
 40
24.0043308142028
 40
24.0043308142028
 40
24.0043308142028
 40
24.14662680869747
 40
24.14662680869747
 40
24.14662680869747
 40
24.14662680869747
 10
35.61300949725871
 20
29.50400043336138
 30
0.0
 41
0.9998948912510895
 10
35.62845184536345
 20
29.54884826870409
 30
0.0
 41
0.9998948912510894
 10
35.64389419346822
 20
29.59369610404678
 30
0.0
 41
0.9998948912510897
 10
35.65939713543694
 20
29.63854729059151
 30
0.0
 41
0.9998948912510897
  0
SPLINE
  5
D7
330
1F
100
AcDbEntity
  8
2D DXF
370
    -3
100
AcDbSpline
210
0.0
220
0.0
230
1.0
 70
     8
 71
     2
 72
     7
 73
     4
 74
     0
 42
0.0000000001
 43
0.0000000001
 40
22.0043308142028
 40
22.0043308142028
 40
22.0043308142028
 40
23.0043308142028
 40
24.0043308142028
 40
24.0043308142028
 40
24.0043308142028
 10
35.52891048602545
 20
29.43710505927022
 30
0.0
 10
35.55701793402302
 20
29.44298844908407
 30
0.0
 10
35.60369646535737
 20
29.47610489922555
 30
0.0
 10
35.61300949725866
 20
29.50400043336138
 30
0.0
  0
LINE
  5
D8
330
1F
100
AcDbEntity
  8
2D DXF
370
    -3
100
AcDbLine
 10
35.22190969404586
 20
29.40483797580325
 30
0.0
 11
35.52891048602545
 21
29.43710505927022
 31
0.0
  0
SPLINE
  5
D9
330
1F
100
AcDbEntity
  8
2D DXF
370
    -3
100
AcDbSpline
210
0.0
220
0.0
230
1.0
 70
    12
 71
     3
 72
     8
 73
     4
 74
     0
 42
0.0000000001
 43
0.0000000001
 40
18.96393641439282
 40
18.96393641439282
 40
18.96393641439282
 40
18.96393641439282
 40
19.03468092327298
 40
19.03468092327298
 40
19.03468092327298
 40
19.03468092327298
 10
34.53790769779025
 20
29.65835414617486
 30
0.0
 41
0.9998948912511187
 10
34.55018235748535
 20
29.63802998326723
 30
0.0
 41
0.9998948912511187
 10
34.56242578036894
 20
29.61773260722391
 30
0.0
 41
0.9998948912511187
 10
34.57464551346664
 20
29.59745554615673
 30
0.0
 41
0.9998948912511187
  0
SPLINE
  5
DA
330
1F
100
AcDbEntity
  8
2D DXF
370
    -3
100
AcDbSpline
210
0.0
220
0.0
230
1.0
 70
     8
 71
     3
 72
    10
 73
     6
 74
     0
 42
0.0000000001
 43
0.0000000001
 40
16.79483486452972
 40
16.79483486452972
 40
16.79483486452972
 40
16.79483486452972
 40
17.24447515632863
 40
18.17147567688618
 40
18.96393641439282
 40
18.96393641439282
 40
18.96393641439282
 40
18.96393641439282
 10
32.29862384716991
 20
29.44463402017384
 30
0.0
 10
32.4543168853278
 20
29.46238427833829
 30
0.0
 10
32.93117977718136
 20
29.51495042896153
 30
0.0
 10
33.68213008157626
 20
29.5880052839006
 30
0.0
 10
34.26920144809993
 20
29.63794471830967
 30
0.0
 10
34.53790769779029
 20
29.65835414617486
 30
0.0
  0
SPLINE
  5
DB
330
1F
100
AcDbEntity
  8
2D DXF
370
    -3
100
AcDbSpline
210
0.0
220
0.0
230
1.0
 70
     8
 71
     3
 72
     8
 73
     4
 74
     0
 42
0.0000000001
 43
0.0000000001
 40
16.31747463577107
 40
16.31747463577107
 40
16.31747463577107
 40
16.31747463577107
 40
16.79483486452972
 40
16.79483486452972
 40
16.79483486452972
 40
16.79483486452972
 10
31.80307076565107
 20
29.38621991692401
 30
0.0
 10
31.96811491482386
 20
29.40629070501544
 30
0.0
 10
32.1333352495201
 20
29.42578979107641
 30
0.0
 10
32.29862384716991
 20
29.44463402017384
 30
0.0
  0
SPLINE
  5
DC
330
1F
100
AcDbEntity
  8
2D DXF
370
    -3
100
AcDbSpline
210
0.0
220
0.0
230
1.0
 70
     8
 71
     3
 72
    44
 73
    40
 74
     0
 42
0.0000000001
 43
0.0000000001
 40
3.568124814608516
 40
3.568124814608516
 40
3.568124814608516
 40
3.568124814608516
 40
4.788183826542491
 40
4.788183826542491
 40
4.788183826542491
 40
5.788188722156311
 40
5.788188722156311
 40
5.788188722156311
 40
6.78819361777013
 40
6.78819361777013
 40
6.78819361777013
 40
7.78819851338395
 40
7.78819851338395
 40
7.78819851338395
 40
8.78820340899777
 40
8.78820340899777
 40
8.78820340899777
 40
9.788208304611588
 40
9.788208304611588
 40
9.788208304611588
 40
10.78821320022541
 40
10.78821320022541
 40
10.78821320022541
 40
11.78821809583923
 40
11.78821809583923
 40
11.78821809583923
 40
12.78822299145305
 40
12.78822299145305
 40
12.78822299145305
 40
13.78822788706687
 40
13.78822788706687
 40
13.78822788706687
 40
14.78823278268069
 40
14.78823278268069
 40
14.78823278268069
 40
15.78823767829451
 40
15.78823767829451
 40
15.78823767829451
 40
16.31747463577107
 40
16.31747463577107
 40
16.31747463577107
 40
16.31747463577107
 10
29.04892113813231
 20
29.04167315885341
 30
0.0
 10
29.45277403175477
 20
29.08869317624374
 30
0.0
 10
29.85637898912206
 20
29.13923276590721
 30
0.0
 10
30.25991370606324
 20
29.19077094376769
 30
0.0
 10
30.30461733548692
 20
29.19649116622087
 30
0.0
 10
30.3493209649106
 20
29.20221138867404
 30
0.0
 10
30.39402459433428
 20
29.20793161112722
 30
0.0
 10
30.43871230408696
 20
29.21366577576852
 30
0.0
 10
30.48340001383976
 20
29.21939994040983
 30
0.0
 10
30.52808772359244
 20
29.22513410505113
 30
0.0
 10
30.57275919292989
 20
29.23087368546814
 30
0.0
 10
30.61743066226747
 20
29.23661326588515
 30
0.0
 10
30.66210213160493
 20
29.24235284630217
 30
0.0
 10
30.70675706742675
 20
29.24808932001801
 30
0.0
 10
30.75141200324857
 20
29.25382579373387
 30
0.0
 10
30.79606693907034
 20
29.25956226744971
 30
0.0
 10
30.84070508348067
 20
29.26528711682018
 30
0.0
 10
30.88534322789089
 20
29.27101196619064
 30
0.0
 10
30.92998137230121
 20
29.27673681556111
 30
0.0
 10
30.97460251323459
 20
29.28244152892877
 30
0.0
 10
31.01922365416807
 20
29.28814624229645
 30
0.0
 10
31.06384479510145
 20
29.29385095566413
 30
0.0
 10
31.10844878041532
 20
29.29952702877151
 30
0.0
 10
31.15305276572919
 20
29.3052031018789
 30
0.0
 10
31.19765675104317
 20
29.31087917498628
 30
0.0
 10
31.24224350596309
 20
29.31651811257157
 30
0.0
 10
31.28683026088301
 20
29.32215705015686
 30
0.0
 10
31.33141701580293
 20
29.32779598774215
 30
0.0
 10
31.37598656238221
 20
29.33338930508432
 30
0.0
 10
31.42055610896161
 20
29.3389826224265
 30
0.0
 10
31.46512565554089
 20
29.34457593976867
 30
0.0
 10
31.50967813039018
 20
29.35011516367398
 30
0.0
 10
31.55423060523948
 20
29.35565438757929
 30
0.0
 10
31.59878308008878
 20
29.36119361148459
 30
0.0
 10
31.64331874262474
 20
29.36667027979406
 30
0.0
 10
31.68785440516071
 20
29.37214694810355
 30
0.0
 10
31.73239006769667
 20
29.37762361641303
 30
0.0
 10
31.75595083429546
 20
29.38048465283548
 30
0.0
 10
31.77951160089442
 20
29.38334568925795
 30
0.0
 10
31.80307076565107
 20
29.38621991692401
 30
0.0
  0
SPLINE
  5
DD
330
1F
100
AcDbEntity
  8
2D DXF
370
    -3
100
AcDbSpline
210
0.0
220
0.0
230
1.0
 70
    28
 71
     3
 72
     8
 73
     4
 74
     0
 42
0.0000000001
 43
0.0000000001
 40
2.222067854936725
 40
2.222067854936725
 40
2.222067854936725
 40
2.222067854936725
 40
2.249737975162182
 40
2.249737975162182
 40
2.249737975162182
 40
2.249737975162182
 10
29.03991262815689
 20
29.01551054619116
 30
0.0
 41
0.9998948912511111
 10
29.04291546481543
 20
29.02423141707857
 30
0.0
 41
0.999894891251111
 10
29.04591830147385
 20
29.032952287966
 30
0.0
 41
0.9998948912511109
 10
29.04892113813231
 20
29.04167315885342
 30
0.0
 41
0.9998948912511108
  0
SPLINE
  5
DE
330
1F
100
AcDbEntity
  8
2D DXF
370
    -3
100
AcDbSpline
210
0.0
220
0.0
230
1.0
 70
     8
 71
     2
 72
     8
 73
     5
 74
     0
 42
0.0000000001
 43
0.0000000001
 40
0.0
 40
0.0
 40
0.0
 40
1.0
 40
2.0
 40
3.0
 40
3.0
 40
3.0
 10
35.47050067264156
 20
28.79750306762662
 30
0.0
 10
35.40346478471021
 20
28.79610046776412
 30
0.0
 10
35.31086084571753
 20
28.88955494699879
 30
0.0
 10
35.26356919646243
 20
29.00823209424154
 30
0.0
 10
35.25691862322078
 20
29.07169755950024
 30
0.0
  0
ARC
  5
DF
330
1F
100
AcDbEntity
  8
2D DXF
370
    -3
100
AcDbCircle
 10
35.12375678994756
 20
29.57737724889121
 30
0.0
 40
0.0773671944389988
100
AcDbArc
 50
77.69484845802657
 51
96.30889852110818
  0
SPLINE
  5
E0
330
1F
100
AcDbEntity
  8
2D DXF
370
    -3
100
AcDbSpline
210
0.0
220
0.0
230
1.0
 70
     8
 71
     2
 72
     7
 73
     4
 74
     0
 42
0.0000000001
 43
0.0000000001
 40
0.0
 40
0.0
 40
0.0
 40
1.0
 40
2.0
 40
2.0
 40
2.0
 10
35.20317917820792
 20
29.58307511722843
 30
0.0
 10
35.20032570272089
 20
29.60888890756952
 30
0.0
 10
35.16561952487667
 20
29.64743214319148
 30
0.0
 10
35.14024514971227
 20
29.65296704163885
 30
0.0
  0
SPLINE
  5
E1
330
1F
100
AcDbEntity
  8
2D DXF
370
    -3
100
AcDbSpline
210
0.0
220
0.0
230
1.0
 70
     8
 71
     2
 72
     7
 73
     4
 74
     0
 42
0.0000000001
 43
0.0000000001
 40
3.152673681168819
 40
3.152673681168819
 40
3.152673681168819
 40
4.152673681168819
 40
5.152673681168819
 40
5.152673681168819
 40
5.152673681168819
 10
28.84630323599238
 20
28.89329188600752
 30
0.0
 10
28.84923352248053
 20
28.92605397417408
 30
0.0
 10
28.81676035294716
 20
28.98712230074891
 30
0.0
 10
28.78149962633769
 20
28.98835024525226
 30
0.0
  0
SPLINE
  5
E2
330
1F
100
AcDbEntity
  8
2D DXF
370
    -3
100
AcDbSpline
210
0.0
220
0.0
230
1.0
 70
    28
 71
     2
 72
     6
 73
     3
 74
     0
 42
0.0000000001
 43
0.0000000001
 40
2.0
 40
2.0
 40
2.0
 40
3.152673681168819
 40
3.152673681168819
 40
3.152673681168819
 10
28.78757730217218
 20
27.77140105535589
 30
0.0
 41
1.0
 10
28.81694026908228
 20
28.33234647068171
 30
0.0
 41
1.0
 10
28.84630323599238
 20
28.89329188600752
 30
0.0
 41
1.0
  0
SPLINE
  5
E3
330
1F
100
AcDbEntity
  8
2D DXF
370
    -3
100
AcDbSpline
210
0.0
220
0.0
230
1.0
 70
     8
 71
     2
 72
     7
 73
     4
 74
     0
 42
0.0000000001
 43
0.0000000001
 40
0.0
 40
0.0
 40
0.0
 40
1.0
 40
2.0
 40
2.0
 40
2.0
 10
28.61323030506948
 20
27.5317820788663
 30
0.0
 10
28.69766426488759
 20
27.54570486017518
 30
0.0
 10
28.78429160017284
 20
27.68992568235383
 30
0.0
 10
28.78757730217218
 20
27.77140105535589
 30
0.0
  0
SPLINE
  5
E4
330
1F
100
AcDbEntity
  8
2D DXF
370
    -3
100
AcDbSpline
210
0.0
220
0.0
230
1.0
 70
     8
 71
     2
 72
     7
 73
     4
 74
     0
 42
0.0000000001
 43
0.0000000001
 40
0.0
 40
0.0
 40
0.0
 40
1.0
 40
2.0
 40
2.0
 40
2.0
 10
35.29972523096627
 20
28.23478215211101
 30
0.0
 10
35.21424164646687
 20
28.23084588000516
 30
0.0
 10
35.09952212999049
 20
28.35390429512111
 30
0.0
 10
35.07936854481871
 20
28.43291609996091
 30
0.0
  0
SPLINE
  5
E5
330
1F
100
AcDbEntity
  8
2D DXF
370
    -3
100
AcDbSpline
210
0.0
220
0.0
230
1.0
 70
     8
 71
     2
 72
     7
 73
     4
 74
     0
 42
0.0000000001
 43
0.0000000001
 40
0.0
 40
0.0
 40
0.0
 40
1.0
 40
2.0
 40
2.0
 40
2.0
 10
34.78867168048573
 20
29.51808111563362
 30
0.0
 10
34.77899380625958
 20
29.5495180325281
 30
0.0
 10
34.79806053927406
 20
29.61600342133359
 30
0.0
 10
34.83229543036363
 20
29.62453564958436
 30
0.0
  0
LINE
  5
E6
330
1F
100
AcDbEntity
  8
2D DXF
370
    -3
100
AcDbLine
 10
29.33150910795025
 20
28.1522617106683
 30
0.0
 11
34.46764699131303
 21
28.69209155511855
 31
0.0
  0
LINE
  5
E7
330
1F
100
AcDbEntity
  8
2D DXF
370
    -3
100
AcDbLine
 10
34.25615089563344
 20
29.30333263584546
 30
0.0
 11
29.4117175166157
 21
28.79416217024797
 31
0.0
  0
SPLINE
  5
E8
330
1F
100
AcDbEntity
  8
2D DXF
370
    -3
100
AcDbSpline
210
0.0
220
0.0
230
1.0
 70
    28
 71
     2
 72
     6
 73
     3
 74
     0
 42
0.0000000001
 43
0.0000000001
 40
0.0
 40
0.0
 40
0.0
 40
0.5156024396811688
 40
0.5156024396811688
 40
0.5156024396811688
 10
35.25691848188274
 20
29.07169892508779
 30
0.0
 41
0.8530688685202268
 10
35.23004883002865
 20
29.32738702127222
 30
0.0
 41
0.8530688685202321
 10
35.20317917817456
 20
29.58307511745664
 30
0.0
 41
0.8530688685202376
  0
SPLINE
  5
E9
330
1F
100
AcDbEntity
  8
2D DXF
370
    -3
100
AcDbSpline
210
0.0
220
0.0
230
1.0
 70
    28
 71
     2
 72
     6
 73
     3
 74
     0
 42
0.0000000001
 43
0.0000000001
 40
0.1092288140722163
 40
0.1092288140722163
 40
0.1092288140722163
 40
1.26190249524103
 40
1.26190249524103
 40
1.26190249524103
 10
34.78867168048573
 20
29.51808111563362
 30
0.0
 41
1.0
 10
34.93402011265222
 20
28.97549860779726
 30
0.0
 41
1.0
 10
35.07936854481871
 20
28.43291609996091
 30
0.0
 41
1.0
  0
SPLINE
  5
EA
330
1F
100
AcDbEntity
  8
2D DXF
370
    -3
100
AcDbSpline
210
0.0
220
0.0
230
1.0
 70
    24
 71
     3
 72
    14
 73
    10
 74
     0
 42
0.0000000001
 43
0.0000000001
 40
0.0
 40
0.0
 40
0.0
 40
0.0
 40
0.6041693560049914
 40
0.6041693560049914
 40
0.6041693560049914
 40
0.6510228588170114
 40
0.6510228588170114
 40
0.6510228588170114
 40
1.255192214822014
 40
1.255192214822014
 40
1.255192214822014
 40
1.255192214822014
 10
31.89974939632238
 20
28.42306538521123
 30
0.0
 10
31.89889930612181
 20
28.43115345319819
 30
0.0
 10
31.89000689206098
 20
28.5157591214511
 30
0.0
 10
31.8693532723138
 20
28.71226518702429
 30
0.0
 10
31.8677289624538
 20
28.7277194630192
 30
0.0
 10
31.86609793599315
 20
28.7432376432003
 30
0.0
 10
31.86447362613309
 20
28.75869191919521
 30
0.0
 10
31.84382000638597
 20
28.95519798476842
 30
0.0
 10
31.83492759232509
 20
29.03980365302131
 30
0.0
 10
31.83407750212457
 20
29.04789172100827
 30
0.0
  0
SPLINE
  5
EB
330
1F
100
AcDbEntity
  8
2D DXF
370
    -3
100
AcDbSpline
210
0.0
220
0.0
230
1.0
 70
    24
 71
     2
 72
     6
 73
     3
 74
     0
 42
0.0000000001
 43
0.0000000001
 40
0.0759171652887041
 40
0.0759171652887041
 40
0.0759171652887041
 40
0.4783760145391238
 40
0.4783760145391238
 40
0.4783760145391238
 10
35.11525501104872
 20
29.65427589992564
 30
0.0
 10
34.97377522070617
 20
29.639405774755
 30
0.0
 10
34.83229543036363
 20
29.62453564958436
 30
0.0
  0
SPLINE
  5
EC
330
1F
100
AcDbEntity
  8
2D DXF
370
    -3
100
AcDbSpline
210
0.0
220
0.0
230
1.0
 70
     8
 71
     2
 72
    11
 73
     8
 74
     0
 42
0.0000000001
 43
0.0000000001
 40
1.632577816608413
 40
1.632577816608413
 40
1.632577816608413
 40
2.632577427346236
 40
3.632577505198671
 40
4.632577583051106
 40
5.632577660903541
 40
6.632577738755977
 40
7.632577816608412
 40
7.632577816608412
 40
7.632577816608412
 10
23.73640855190423
 20
34.37805733599876
 30
0.0
 10
23.75363632423831
 20
34.42566763590618
 30
0.0
 10
23.76062342591366
 20
34.52663932563416
 30
0.0
 10
23.75965954239406
 20
34.62735817199722
 30
0.0
 10
23.75276791603484
 20
34.72791061353446
 30
0.0
 10
23.74129587864742
 20
34.82802163818583
 30
0.0
 10
23.72583929370491
 20
34.92759576786999
 30
0.0
 10
23.71623001294741
 20
34.97705353831627
 30
0.0
  0
SPLINE
  5
ED
330
1F
100
AcDbEntity
  8
2D DXF
370
    -3
100
AcDbSpline
210
0.0
220
0.0
230
1.0
 70
     8
 71
     3
 72
    11
 73
     7
 74
     0
 42
0.0000000001
 43
0.0000000001
 40
1.106384034209326
 40
1.106384034209326
 40
1.106384034209326
 40
1.106384034209326
 40
1.617990370078946
 40
1.617990370078946
 40
1.617990370078946
 40
1.632577816608413
 40
1.632577816608413
 40
1.632577816608413
 40
1.632577816608413
 10
23.51936417880718
 20
33.90053202690643
 30
0.0
 10
23.58972413639215
 20
34.05535796614174
 30
0.0
 10
23.6600703908352
 20
34.21013693301512
 30
0.0
 10
23.73039087562417
 20
34.36482172769318
 30
0.0
 10
23.73239662003893
 20
34.36923378719332
 30
0.0
 10
23.73440233229157
 20
34.37364574175388
 30
0.0
 10
23.73640855190423
 20
34.37805733599876
 30
0.0
  0
SPLINE
  5
EE
330
1F
100
AcDbEntity
  8
2D DXF
370
    -3
100
AcDbSpline
210
0.0
220
0.0
230
1.0
 70
     8
 71
     3
 72
     8
 73
     4
 74
     0
 42
0.0000000001
 43
0.0000000001
 40
2.942255389416193
 40
2.942255389416193
 40
2.942255389416193
 40
2.942255389416193
 40
3.256087856163177
 40
3.256087856163177
 40
3.256087856163177
 40
3.256087856163177
 10
23.35807491003392
 20
36.40418286367817
 30
0.0
 10
23.27325787747834
 20
36.34284884982739
 30
0.0
 10
23.18845467741563
 20
36.28157859849868
 30
0.0
 10
23.10363561947413
 20
36.22041581379068
 30
0.0
  0
SPLINE
  5
EF
330
1F
100
AcDbEntity
  8
2D DXF
370
    -3
100
AcDbSpline
210
0.0
220
0.0
230
1.0
 70
     8
 71
     3
 72
     8
 73
     4
 74
     0
 42
0.0000000001
 43
0.0000000001
 40
2.868978274657099
 40
2.868978274657099
 40
2.868978274657099
 40
2.868978274657099
 40
2.942255389416193
 40
2.942255389416193
 40
2.942255389416193
 40
2.942255389416193
 10
23.36896866880592
 20
36.40792490717919
 30
0.0
 10
23.36505741271851
 20
36.40784762247416
 30
0.0
 10
23.36142184169667
 20
36.40660305550078
 30
0.0
 10
23.35807491003392
 20
36.40418286367817
 30
0.0
  0
SPLINE
  5
F0
330
1F
100
AcDbEntity
  8
2D DXF
370
    -3
100
AcDbSpline
210
0.0
220
0.0
230
1.0
 70
     8
 71
     3
 72
    11
 73
     7
 74
     0
 42
0.0000000001
 43
0.0000000001
 40
2.0
 40
2.0
 40
2.0
 40
2.0
 40
2.50156835232133
 40
2.50156835232133
 40
2.50156835232133
 40
2.868978274657099
 40
2.868978274657099
 40
2.868978274657099
 40
2.868978274657099
 10
23.55981650210209
 20
35.82682995816928
 30
0.0
 10
23.52912185109831
 20
35.97498761256901
 30
0.0
 10
23.48786498832762
 20
36.15678799051456
 30
0.0
 10
23.44736784971271
 20
36.27524989017805
 30
0.0
 10
23.41484431047151
 20
36.37038748196997
 30
0.0
 10
23.3889942154952
 20
36.40844913062057
 30
0.0
 10
23.36896866880592
 20
36.40792490717919
 30
0.0
  0
SPLINE
  5
F1
330
1F
100
AcDbEntity
  8
2D DXF
370
    -3
100
AcDbSpline
210
0.0
220
0.0
230
1.0
 70
     8
 71
     2
 72
     7
 73
     4
 74
     0
 42
0.0000000001
 43
0.0000000001
 40
0.0
 40
0.0
 40
0.0
 40
1.0
 40
2.0
 40
2.0
 40
2.0
 10
23.71623001294735
 20
34.97705353831628
 30
0.0
 10
23.71068517041114
 20
35.00557164305407
 30
0.0
 10
23.56997286074939
 20
35.79949058187252
 30
0.0
 10
23.55981650210209
 20
35.82682995816928
 30
0.0
  0
SPLINE
  5
F2
330
1F
100
AcDbEntity
  8
2D DXF
370
    -3
100
AcDbSpline
210
0.0
220
0.0
230
1.0
 70
     8
 71
     2
 72
    18
 73
    15
 74
     0
 42
0.0000000001
 43
0.0000000001
 40
0.0
 40
0.0
 40
0.0
 40
1.0
 40
2.0
 40
3.0
 40
4.0
 40
5.0
 40
6.0
 40
7.0
 40
8.0
 40
9.0
 40
10.0
 40
11.0
 40
12.0
 40
12.99112390467558
 40
12.99112390467558
 40
12.99112390467558
 10
20.20925279626069
 20
41.48238979199648
 30
0.0
 10
20.44993711135977
 20
41.41768395454636
 30
0.0
 10
20.92429837237331
 20
41.26392730126516
 30
0.0
 10
21.37754906487801
 20
41.05341339107373
 30
0.0
 10
21.77314880173164
 20
40.74597106308048
 30
0.0
 10
22.0732179803057
 20
40.34490433268691
 30
0.0
 10
22.28338999962752
 20
39.89174981622121
 30
0.0
 10
22.4378755334143
 20
39.41761944120823
 30
0.0
 10
22.58217971519981
 20
38.94059158982417
 30
0.0
 10
22.71236476748278
 20
38.45945519360784
 30
0.0
 10
22.83059883777584
 20
37.97526408313071
 30
0.0
 10
22.93757845433721
 20
37.48846383989743
 30
0.0
 10
23.03478044954632
 20
36.99962746295596
 30
0.0
 10
23.1272957016039
 20
36.51214219750335
 30
0.0
 10
23.17106552818952
 20
36.26906317280708
 30
0.0
  0
SPLINE
  5
F3
330
1F
100
AcDbEntity
  8
2D DXF
370
    -3
100
AcDbSpline
210
0.0
220
0.0
230
1.0
 70
     8
 71
     2
 72
    53
 73
    50
 74
     0
 42
0.0000000001
 43
0.0000000001
 40
0.0854334264385601
 40
0.0854334264385601
 40
0.0854334264385601
 40
1.0
 40
2.0
 40
3.0
 40
4.0
 40
5.0
 40
6.0
 40
7.0
 40
8.0
 40
9.0
 40
10.0
 40
11.0
 40
12.0
 40
13.0
 40
14.0
 40
15.0
 40
16.0
 40
17.0
 40
18.0
 40
19.0
 40
20.0
 40
21.0
 40
22.0
 40
23.0
 40
24.0
 40
25.0
 40
26.0
 40
27.0
 40
28.0
 40
29.0
 40
30.0
 40
31.0
 40
32.0
 40
33.0
 40
34.0
 40
35.0
 40
36.0
 40
37.0
 40
38.0
 40
39.0
 40
40.0
 40
41.0
 40
42.0
 40
43.0
 40
44.0
 40
45.0
 40
46.0
 40
47.0
 40
48.0
 40
48.0
 40
48.0
 10
41.00265615771191
 20
28.88001545473261
 30
0.0
 10
40.79052366972236
 20
28.98721981936005
 30
0.0
 10
40.36223395315359
 20
29.24053147805574
 30
0.0
 10
39.91022397988588
 20
29.4970321945999
 30
0.0
 10
39.44400732297426
 20
29.7268809680693
 30
0.0
 10
38.96535423474371
 20
29.93010484731303
 30
0.0
 10
38.46776471607338
 20
30.08144933380376
 30
0.0
 10
37.95950099729306
 20
30.19077642801378
 30
0.0
 10
37.44553716462526
 20
30.26843700719326
 30
0.0
 10
36.92841426278927
 20
30.3206587870654
 30
0.0
 10
36.40964654936739
 20
30.35217504479415
 30
0.0
 10
35.89013850152709
 20
30.3665376950764
 30
0.0
 10
35.37044248087558
 20
30.36649428744251
 30
0.0
 10
34.85089500391236
 20
30.35442970619981
 30
0.0
 10
34.33169578280724
 20
30.33202187984575
 30
0.0
 10
33.81296813661227
 20
30.30059383874509
 30
0.0
 10
33.29477521041987
 20
30.26136918331818
 30
0.0
 10
32.7770929161692
 20
30.21593204475514
 30
0.0
 10
32.25982410402646
 20
30.16603841215924
 30
0.0
 10
31.74289644932641
 20
30.11272891309957
 30
0.0
 10
31.2262864690157
 20
30.05642674036822
 30
0.0
 10
30.71002683733845
 20
29.99700015359977
 30
0.0
 10
30.19408197754065
 20
29.93489853780284
 30
0.0
 10
29.67846143236831
 20
29.87016303254165
 30
0.0
 10
29.16309407571573
 20
29.80344568558709
 30
0.0
 10
28.64789417451705
 20
29.73544930270374
 30
0.0
 10
28.13275948883178
 20
29.66696203689909
 30
0.0
 10
27.61749899632152
 20
29.5994202524178
 30
0.0
 10
27.10182919789254
 20
29.53507095436449
 30
0.0
 10
26.58551727710507
 20
29.47598865239281
 30
0.0
 10
26.06799914737356
 20
29.42847782730446
 30
0.0
 10
25.54855203787425
 20
29.40510054844707
 30
0.0
 10
25.02933084914891
 20
29.43897504630466
 30
0.0
 10
24.52027734970092
 20
29.5579103915813
 30
0.0
 10
24.0762292612567
 20
29.83749682387185
 30
0.0
 10
23.75580248617906
 20
30.25283142808043
 30
0.0
 10
23.57436015523548
 20
30.74233328441993
 30
0.0
 10
23.46915052337262
 20
31.2518034190912
 30
0.0
 10
23.40713826871895
 20
31.76789614879316
 30
0.0
 10
23.37358662897738
 20
32.28656020131687
 30
0.0
 10
23.34772704609061
 20
32.80557679760643
 30
0.0
 10
23.31975737540115
 20
33.32449847051458
 30
0.0
 10
23.28292142076351
 20
33.84287418090221
 30
0.0
 10
23.23340421138609
 20
34.36022897269788
 30
0.0
 10
23.16716530460566
 20
34.8756247321617
 30
0.0
 10
23.08975105343031
 20
35.38986728111016
 30
0.0
 10
22.97399208369195
 20
35.89564427957696
 30
0.0
 10
22.79257582012566
 20
36.39003155970066
 30
0.0
 10
22.43449210164518
 20
36.76405040270818
 30
0.0
 10
22.17451333142857
 20
36.83453390846813
 30
0.0
  0
SPLINE
  5
F4
330
1F
100
AcDbEntity
  8
2D DXF
370
    -3
100
AcDbSpline
210
0.0
220
0.0
230
1.0
 70
     8
 71
     2
 72
    11
 73
     8
 74
     0
 42
0.0000000001
 43
0.0000000001
 40
21.0
 40
21.0
 40
21.0
 40
22.0
 40
23.0
 40
24.0
 40
25.0
 40
26.0
 40
27.0
 40
27.0
 40
27.0
 10
20.22431576366445
 20
41.75273157659599
 30
0.0
 10
20.18996337201243
 20
41.75976254868665
 30
0.0
 10
20.12793444913451
 20
41.72883023592064
 30
0.0
 10
20.10066822006429
 20
41.66521645210646
 30
0.0
 10
20.09786460478297
 20
41.59797604271388
 30
0.0
 10
20.12522616958144
 20
41.53574129421229
 30
0.0
 10
20.17655126046937
 20
41.49142564896718
 30
0.0
 10
20.20925279626069
 20
41.48238979199648
 30
0.0
  0
SPLINE
  5
F5
330
1F
100
AcDbEntity
  8
2D DXF
370
    -3
100
AcDbSpline
210
0.0
220
0.0
230
1.0
 70
     8
 71
     2
 72
    19
 73
    16
 74
     0
 42
0.0000000001
 43
0.0000000001
 40
7.0
 40
7.0
 40
7.0
 40
8.0
 40
9.0
 40
10.0
 40
11.0
 40
12.0
 40
13.0
 40
14.0
 40
15.0
 40
16.0
 40
17.0
 40
18.0
 40
19.0
 40
20.0
 40
21.0
 40
21.0
 40
21.0
 10
24.06143547991026
 20
31.33315464672941
 30
0.0
 10
24.37140280214221
 20
31.68856691350457
 30
0.0
 10
24.80048325365154
 20
32.52715456581002
 30
0.0
 10
25.01880240242868
 20
33.44296329846624
 30
0.0
 10
25.10718098908121
 20
34.37778949748359
 30
0.0
 10
25.09980600919546
 20
35.31654273601821
 30
0.0
 10
25.01729388220907
 20
36.25134703011055
 30
0.0
 10
24.87328857477878
 20
37.17887334601882
 30
0.0
 10
24.6477420706653
 20
38.09022313072492
 30
0.0
 10
24.31163020014351
 20
38.96788397955649
 30
0.0
 10
23.84716218861469
 20
39.78479407065387
 30
0.0
 10
23.23976979149047
 20
40.50588986942527
 30
0.0
 10
22.45244630693868
 20
41.02657228867434
 30
0.0
 10
21.57474107501288
 20
41.36175903221722
 30
0.0
 10
20.68417105966468
 20
41.65861208166612
 30
0.0
 10
20.22431576366445
 20
41.75273157659599
 30
0.0
  0
SPLINE
  5
F6
330
1F
100
AcDbEntity
  8
2D DXF
370
    -3
100
AcDbSpline
210
0.0
220
0.0
230
1.0
 70
     8
 71
     2
 72
     9
 73
     6
 74
     0
 42
0.0000000001
 43
0.0000000001
 40
3.0
 40
3.0
 40
3.0
 40
4.0
 40
5.0
 40
6.0
 40
7.0
 40
7.0
 40
7.0
 10
23.8155853408589
 20
31.436803598349
 30
0.0
 10
23.81934151023826
 20
31.39508869993082
 30
0.0
 10
23.86872916370636
 20
31.32734013700966
 30
0.0
 10
23.94602421570632
 20
31.29558552416086
 30
0.0
 10
24.03400670299506
 20
31.3017044806019
 30
0.0
 10
24.06143547991026
 20
31.33315464672941
 30
0.0
  0
SPLINE
  5
F7
330
1F
100
AcDbEntity
  8
2D DXF
370
    -3
100
AcDbSpline
210
0.0
220
0.0
230
1.0
 70
     8
 71
     2
 72
     8
 73
     5
 74
     0
 42
0.0000000001
 43
0.0000000001
 40
0.0
 40
0.0
 40
0.0
 40
1.0
 40
2.0
 40
3.0
 40
3.0
 40
3.0
 10
23.53612265410545
 20
33.93740845011202
 30
0.0
 10
23.59137033725791
 20
33.52166207542483
 30
0.0
 10
23.69268563294544
 20
32.68898007578424
 30
0.0
 10
23.77926253751151
 20
31.85463840891222
 30
0.0
 10
23.8155853408589
 20
31.436803598349
 30
0.0
  0
SPLINE
  5
F8
330
1F
100
AcDbEntity
  8
2D DXF
370
    -3
100
AcDbSpline
210
0.0
220
0.0
230
1.0
 70
     8
 71
     2
 72
    19
 73
    16
 74
     0
 42
0.0000000001
 43
0.0000000001
 40
0.0
 40
0.0
 40
0.0
 40
1.0
 40
2.0
 40
3.0
 40
4.0
 40
5.0
 40
6.0
 40
7.0
 40
8.0
 40
9.0
 40
10.0
 40
11.0
 40
12.0
 40
13.0
 40
14.0
 40
14.0
 40
14.0
 10
20.21375473577935
 20
41.48174329874341
 30
0.0
 10
20.65377526811615
 20
41.38510948373452
 30
0.0
 10
21.50716264301299
 20
41.09498022632553
 30
0.0
 10
22.33922548308171
 20
40.74833586270343
 30
0.0
 10
23.10569276400044
 20
40.26678929782669
 30
0.0
 10
23.67727510571576
 20
39.56194789973027
 30
0.0
 10
24.10210407198208
 20
38.76641566488658
 30
0.0
 10
24.41475630550561
 20
37.92033473113375
 30
0.0
 10
24.61951829796961
 20
37.04274317785779
 30
0.0
 10
24.75506809376368
 20
36.15206079024061
 30
0.0
 10
24.82983949665085
 20
35.25426389915469
 30
0.0
 10
24.8331434354521
 20
34.35308902668025
 30
0.0
 10
24.74515435627468
 20
33.45604004826507
 30
0.0
 10
24.53361025868482
 20
32.57724482622253
 30
0.0
 10
24.11639969741351
 20
31.77479332317164
 30
0.0
 10
23.81558391259746
 20
31.43680350115221
 30
0.0
  0
SPLINE
  5
F9
330
1F
100
AcDbEntity
  8
2D DXF
370
    -3
100
AcDbSpline
210
0.0
220
0.0
230
1.0
 70
    24
 71
     2
 72
     6
 73
     3
 74
     0
 42
0.0000000001
 43
0.0000000001
 40
0.0000269165430604
 40
0.0000269165430604
 40
0.0000269165430604
 40
0.3195090605941237
 40
0.3195090605941237
 40
0.3195090605941237
 10
23.71623001294735
 20
34.97705353831628
 30
0.0
 10
23.55779469126141
 20
34.96210736880276
 30
0.0
 10
23.39935936957546
 20
34.94716119928923
 30
0.0
  0
LINE
  5
FA
330
1F
100
AcDbEntity
  8
2D DXF
370
    -3
100
AcDbLine
 10
9.223281807577806
 20
1.873218029253323
 30
0.0
 11
7.812507787973587
 21
12.50310541482861
 31
0.0
  0
LINE
  5
FB
330
1F
100
AcDbEntity
  8
2D DXF
370
    -3
100
AcDbLine
 10
8.448031958348409
 20
12.50310541482857
 30
0.0
 11
10.05835754294368
 21
0.369638882004196
 31
0.0
  0
LINE
  5
FC
330
1F
100
AcDbEntity
  8
2D DXF
370
    -3
100
AcDbLine
 10
5.376009270304749
 20
28.0593814041124
 30
0.0
 11
9.43623726737674
 21
0.42375314008099
 31
0.0
  0
SPLINE
  5
FD
330
1F
100
AcDbEntity
  8
2D DXF
370
    -3
100
AcDbSpline
210
0.0
220
0.0
230
1.0
 70
     8
 71
     2
 72
     9
 73
     6
 74
     0
 42
0.0000000001
 43
0.0000000001
 40
0.0
 40
0.0
 40
0.0
 40
1.0
 40
2.0
 40
3.0
 40
4.0
 40
4.0
 40
4.0
 10
4.513009800138505
 20
29.36992037496165
 30
0.0
 10
4.699926229372025
 20
29.28378179713212
 30
0.0
 10
4.99859730609144
 20
29.00156802176157
 30
0.0
 10
5.212029574908243
 20
28.65169406843027
 30
0.0
 10
5.345548234615265
 20
28.26488655082528
 30
0.0
 10
5.376009270304749
 20
28.0593814041124
 30
0.0
  0
SPLINE
  5
FE
330
1F
100
AcDbEntity
  8
2D DXF
370
    -3
100
AcDbSpline
210
0.0
220
0.0
230
1.0
 70
     8
 71
     2
 72
     9
 73
     6
 74
     0
 42
0.0000000001
 43
0.0000000001
 40
17.76383152720142
 40
17.76383152720142
 40
17.76383152720142
 40
18.76383152720142
 40
19.76383152720142
 40
20.76383152720142
 40
21.76383152720142
 40
21.76383152720142
 40
21.76383152720142
 10
3.627417263651935
 20
28.79472295263631
 30
0.0
 10
3.571358200081775
 20
28.7920463279474
 30
0.0
 10
3.485809981504715
 20
28.86225179686546
 30
0.0
 10
3.435205069974486
 20
28.95764356979879
 30
0.0
 10
3.410585501085407
 20
29.06258396450487
 30
0.0
 10
3.410415088583036
 20
29.11643624496818
 30
0.0
  0
LINE
  5
FF
330
1F
100
AcDbEntity
  8
2D DXF
370
    -3
100
AcDbLine
 10
4.019079850440292
 20
28.83554044746933
 30
0.0
 11
3.627417263651935
 21
28.79472295263631
 31
0.0
  0
SPLINE
  5
100
330
1F
100
AcDbEntity
  8
2D DXF
370
    -3
100
AcDbSpline
210
0.0
220
0.0
230
1.0
 70
     8
 71
     2
 72
     9
 73
     6
 74
     0
 42
0.0000000001
 43
0.0000000001
 40
13.37004776703073
 40
13.37004776703073
 40
13.37004776703073
 40
14.37004776703073
 40
15.37004776703073
 40
16.37004776703073
 40
17.37004776703073
 40
17.37004776703073
 40
17.37004776703073
 10
4.753179295958105
 20
27.96457140089102
 30
0.0
 10
4.730747270925647
 20
28.1195028592539
 30
0.0
 10
4.625565637734056
 20
28.41463380521417
 30
0.0
 10
4.449349822910634
 20
28.67538762881856
 30
0.0
 10
4.180711865364813
 20
28.84921069632931
 30
0.0
 10
4.019079850440292
 20
28.83554044746933
 30
0.0
  0
LINE
  5
101
330
1F
100
AcDbEntity
  8
2D DXF
370
    -3
100
AcDbLine
 10
8.813110651297578
 20
0.3309270693384576
 30
0.0
 11
4.753179295958105
 21
27.96457140089102
 31
0.0
  0
LINE
  5
102
330
1F
100
AcDbEntity
  8
2D DXF
370
    -3
100
AcDbLine
 10
10.05775621565529
 20
0.3695590752387687
 30
0.0
 11
10.08500719869257
 21
0.1613059232370659
 31
0.0
  0
LINE
  5
103
330
1F
100
AcDbEntity
  8
2D DXF
370
    -3
100
AcDbLine
 10
9.433235301555513
 20
0.2866517290467527
 30
0.0
 11
10.05775621565529
 21
0.3695590752387687
 31
0.0
  0
LINE
  5
104
330
1F
100
AcDbEntity
  8
2D DXF
370
    -3
100
AcDbLine
 10
9.462034891103556
 20
0.0699045944630399
 30
0.0
 11
9.433235301555513
 21
0.2866517290467527
 31
0.0
  0
SPLINE
  5
105
330
1F
100
AcDbEntity
  8
2D DXF
370
    -3
100
AcDbSpline
210
0.0
220
0.0
230
1.0
 70
     8
 71
     2
 72
    11
 73
     8
 74
     0
 42
0.0000000001
 43
0.0000000001
 40
13.12765323360827
 40
13.12765323360827
 40
13.12765323360827
 40
14.12765323360827
 40
15.12765323360827
 40
16.12765323360827
 40
17.12765323360827
 40
18.12765323360827
 40
19.12765323360827
 40
19.12765323360827
 40
19.12765323360827
 10
10.08500719869257
 20
0.1613059232370659
 30
0.0
 10
10.08744342277744
 20
0.0931675240443184
 30
0.0
 10
9.973279732354698
 20
0.0315831237312665
 30
0.0
 10
9.854392782708842
 20
0.0043741535017858
 30
0.0
 10
9.732659640445789
 20
-0.0122452861266851
 30
0.0
 10
9.610910325931243
 20
-0.0175432075616442
 30
0.0
 10
9.483903164864174
 20
0.0061980245669844
 30
0.0
 10
9.462034891103556
 20
0.0699045944630399
 30
0.0
  0
LINE
  5
106
330
1F
100
AcDbEntity
  8
2D DXF
370
    -3
100
AcDbLine
 10
9.43564844194016
 20
0.4236666298160543
 30
0.0
 11
9.46613278614673
 21
0.2153995965364288
 31
0.0
  0
LINE
  5
107
330
1F
100
AcDbEntity
  8
2D DXF
370
    -3
100
AcDbLine
 10
8.812523215403374
 20
0.3308395589134818
 30
0.0
 11
9.43564844194016
 21
0.4236666298160543
 31
0.0
  0
LINE
  5
108
330
1F
100
AcDbEntity
  8
2D DXF
370
    -3
100
AcDbLine
 10
8.844619024388422
 20
0.1145564367811289
 30
0.0
 11
8.812523215403374
 21
0.3308395589134818
 31
0.0
  0
SPLINE
  5
109
330
1F
100
AcDbEntity
  8
2D DXF
370
    -3
100
AcDbSpline
210
0.0
220
0.0
230
1.0
 70
     8
 71
     2
 72
    11
 73
     8
 74
     0
 42
0.0000000001
 43
0.0000000001
 40
13.10939845449781
 40
13.10939845449781
 40
13.10939845449781
 40
14.10939845449781
 40
15.10939845449781
 40
16.10939845449781
 40
17.10939845449781
 40
18.10939845449781
 40
19.10939845449781
 40
19.10939845449781
 40
19.10939845449781
 10
9.46613278614673
 20
0.2153995965364288
 30
0.0
 10
9.469602593051846
 20
0.14730600599826
 30
0.0
 10
9.356386464255323
 20
0.083996490495494
 30
0.0
 10
9.237926041893516
 20
0.0549867819326835
 30
0.0
 10
9.116459079712982
 20
0.0365221996888465
 30
0.0
 10
8.99480416585699
 20
0.0293775869642019
 30
0.0
 10
8.867451399917869
 20
0.0511890076643482
 30
0.0
 10
8.844619024388422
 20
0.1145564367811289
 30
0.0
  0
LINE
  5
10A
330
1F
100
AcDbEntity
  8
2D DXF
370
    -3
100
AcDbLine
 10
-9.217600405494068
 20
1.873218029253323
 30
0.0
 11
-7.806826385889849
 21
12.50310541482861
 31
0.0
  0
LINE
  5
10B
330
1F
100
AcDbEntity
  8
2D DXF
370
    -3
100
AcDbLine
 10
-8.442350556264671
 20
12.50310541482857
 30
0.0
 11
-10.05267614085994
 21
0.369638882004196
 31
0.0
  0
LINE
  5
10C
330
1F
100
AcDbEntity
  8
2D DXF
370
    -3
100
AcDbLine
 10
-5.370327868221011
 20
28.0593814041124
 30
0.0
 11
-9.430555865293002
 21
0.42375314008099
 31
0.0
  0
SPLINE
  5
10D
330
1F
100
AcDbEntity
  8
2D DXF
370
    -3
100
AcDbSpline
210
0.0
220
0.0
230
1.0
 70
     8
 71
     2
 72
     9
 73
     6
 74
     0
 42
0.0000000001
 43
0.0000000001
 40
0.0
 40
0.0
 40
0.0
 40
1.0
 40
2.0
 40
3.0
 40
4.0
 40
4.0
 40
4.0
 10
-4.507328398054767
 20
29.36992037496165
 30
0.0
 10
-4.694244827288287
 20
29.28378179713212
 30
0.0
 10
-4.992915904007702
 20
29.00156802176157
 30
0.0
 10
-5.206348172824505
 20
28.65169406843027
 30
0.0
 10
-5.339866832531527
 20
28.26488655082528
 30
0.0
 10
-5.370327868221011
 20
28.0593814041124
 30
0.0
  0
SPLINE
  5
10E
330
1F
100
AcDbEntity
  8
2D DXF
370
    -3
100
AcDbSpline
210
0.0
220
0.0
230
1.0
 70
     8
 71
     2
 72
     9
 73
     6
 74
     0
 42
0.0000000001
 43
0.0000000001
 40
17.76383152720142
 40
17.76383152720142
 40
17.76383152720142
 40
18.76383152720142
 40
19.76383152720142
 40
20.76383152720142
 40
21.76383152720142
 40
21.76383152720142
 40
21.76383152720142
 10
-3.621735861568197
 20
28.79472295263631
 30
0.0
 10
-3.565676797998037
 20
28.7920463279474
 30
0.0
 10
-3.480128579420978
 20
28.86225179686546
 30
0.0
 10
-3.429523667890749
 20
28.95764356979879
 30
0.0
 10
-3.404904099001669
 20
29.06258396450487
 30
0.0
 10
-3.404733686499299
 20
29.11643624496818
 30
0.0
  0
LINE
  5
10F
330
1F
100
AcDbEntity
  8
2D DXF
370
    -3
100
AcDbLine
 10
-4.013398448356554
 20
28.83554044746933
 30
0.0
 11
-3.621735861568197
 21
28.79472295263631
 31
0.0
  0
SPLINE
  5
110
330
1F
100
AcDbEntity
  8
2D DXF
370
    -3
100
AcDbSpline
210
0.0
220
0.0
230
1.0
 70
     8
 71
     2
 72
     9
 73
     6
 74
     0
 42
0.0000000001
 43
0.0000000001
 40
13.37004776703073
 40
13.37004776703073
 40
13.37004776703073
 40
14.37004776703073
 40
15.37004776703073
 40
16.37004776703073
 40
17.37004776703073
 40
17.37004776703073
 40
17.37004776703073
 10
-4.747497893874367
 20
27.96457140089102
 30
0.0
 10
-4.725065868841909
 20
28.1195028592539
 30
0.0
 10
-4.619884235650318
 20
28.41463380521417
 30
0.0
 10
-4.443668420826896
 20
28.67538762881856
 30
0.0
 10
-4.175030463281075
 20
28.84921069632931
 30
0.0
 10
-4.013398448356554
 20
28.83554044746933
 30
0.0
  0
LINE
  5
111
330
1F
100
AcDbEntity
  8
2D DXF
370
    -3
100
AcDbLine
 10
-8.80742924921384
 20
0.3309270693384576
 30
0.0
 11
-4.747497893874367
 21
27.96457140089102
 31
0.0
  0
LINE
  5
112
330
1F
100
AcDbEntity
  8
2D DXF
370
    -3
100
AcDbLine
 10
-10.05207481357155
 20
0.3695590752387687
 30
0.0
 11
-10.07932579660883
 21
0.1613059232370659
 31
0.0
  0
LINE
  5
113
330
1F
100
AcDbEntity
  8
2D DXF
370
    -3
100
AcDbLine
 10
-9.427553899471775
 20
0.2866517290467527
 30
0.0
 11
-10.05207481357155
 21
0.3695590752387687
 31
0.0
  0
LINE
  5
114
330
1F
100
AcDbEntity
  8
2D DXF
370
    -3
100
AcDbLine
 10
-9.456353489019818
 20
0.0699045944630399
 30
0.0
 11
-9.427553899471775
 21
0.2866517290467527
 31
0.0
  0
SPLINE
  5
115
330
1F
100
AcDbEntity
  8
2D DXF
370
    -3
100
AcDbSpline
210
0.0
220
0.0
230
1.0
 70
     8
 71
     2
 72
    11
 73
     8
 74
     0
 42
0.0000000001
 43
0.0000000001
 40
13.12765323360827
 40
13.12765323360827
 40
13.12765323360827
 40
14.12765323360827
 40
15.12765323360827
 40
16.12765323360827
 40
17.12765323360827
 40
18.12765323360827
 40
19.12765323360827
 40
19.12765323360827
 40
19.12765323360827
 10
-10.07932579660883
 20
0.1613059232370659
 30
0.0
 10
-10.0817620206937
 20
0.0931675240443184
 30
0.0
 10
-9.96759833027096
 20
0.0315831237312665
 30
0.0
 10
-9.848711380625105
 20
0.0043741535017858
 30
0.0
 10
-9.72697823836205
 20
-0.0122452861266851
 30
0.0
 10
-9.605228923847505
 20
-0.0175432075616442
 30
0.0
 10
-9.478221762780436
 20
0.0061980245669844
 30
0.0
 10
-9.456353489019818
 20
0.0699045944630399
 30
0.0
  0
LINE
  5
116
330
1F
100
AcDbEntity
  8
2D DXF
370
    -3
100
AcDbLine
 10
-9.429967039856422
 20
0.4236666298160543
 30
0.0
 11
-9.460451384062992
 21
0.2153995965364288
 31
0.0
  0
LINE
  5
117
330
1F
100
AcDbEntity
  8
2D DXF
370
    -3
100
AcDbLine
 10
-8.806841813319636
 20
0.3308395589134818
 30
0.0
 11
-9.429967039856422
 21
0.4236666298160543
 31
0.0
  0
LINE
  5
118
330
1F
100
AcDbEntity
  8
2D DXF
370
    -3
100
AcDbLine
 10
-8.838937622304684
 20
0.1145564367811289
 30
0.0
 11
-8.806841813319636
 21
0.3308395589134818
 31
0.0
  0
SPLINE
  5
119
330
1F
100
AcDbEntity
  8
2D DXF
370
    -3
100
AcDbSpline
210
0.0
220
0.0
230
1.0
 70
     8
 71
     2
 72
    11
 73
     8
 74
     0
 42
0.0000000001
 43
0.0000000001
 40
13.10939845449781
 40
13.10939845449781
 40
13.10939845449781
 40
14.10939845449781
 40
15.10939845449781
 40
16.10939845449781
 40
17.10939845449781
 40
18.10939845449781
 40
19.10939845449781
 40
19.10939845449781
 40
19.10939845449781
 10
-9.460451384062992
 20
0.2153995965364288
 30
0.0
 10
-9.463921190968108
 20
0.14730600599826
 30
0.0
 10
-9.350705062171585
 20
0.083996490495494
 30
0.0
 10
-9.232244639809778
 20
0.0549867819326835
 30
0.0
 10
-9.110777677629244
 20
0.0365221996888465
 30
0.0
 10
-8.989122763773253
 20
0.0293775869642019
 30
0.0
 10
-8.86176999783413
 20
0.0511890076643482
 30
0.0
 10
-8.838937622304684
 20
0.1145564367811289
 30
0.0
  0
LINE
  5
11A
330
1F
100
AcDbEntity
  8
2D DXF
370
    -3
100
AcDbLine
 10
7.020446263124498
 20
12.50310541482841
 30
0.0
 11
-7.01595895080419
 21
12.50310541482857
 31
0.0
  0
LINE
  5
11B
330
1F
100
AcDbEntity
  8
2D DXF
370
    -3
100
AcDbLine
 10
-6.925499290495907
 20
13.13310541482858
 30
0.0
 11
6.927886746790833
 21
13.13310541482868
 31
0.0
  0
SPLINE
  5
11C
330
1F
100
AcDbEntity
  8
2D DXF
370
    -3
100
AcDbSpline
210
0.0
220
0.0
230
1.0
 70
     8
 71
     2
 72
     9
 73
     6
 74
     0
 42
0.0000000001
 43
0.0000000001
 40
13.40660984821153
 40
13.40660984821153
 40
13.40660984821153
 40
14.40660984821153
 40
15.40660984821153
 40
16.40660984821153
 40
17.40660984821153
 40
17.40660984821153
 40
17.40660984821153
 10
5.838532657806994
 20
27.34397311327761
 30
0.0
 10
5.822504987628648
 20
27.46565620000653
 30
0.0
 10
5.747856556308889
 20
27.69699855365204
 30
0.0
 10
5.627785039371773
 20
27.9086009128917
 30
0.0
 10
5.461338214142316
 20
28.08663917205959
 30
0.0
 10
5.356561431045705
 20
28.14913160579555
 30
0.0
  0
LINE
  5
11D
330
1F
100
AcDbEntity
  8
2D DXF
370
    -3
100
AcDbLine
 10
7.724566085800816
 20
13.13310541482859
 30
0.0
 11
5.838532657806994
 21
27.34397311327761
 31
0.0
  0
LINE
  5
11E
330
1F
100
AcDbEntity
  8
2D DXF
370
    -3
100
AcDbLine
 10
6.462890932914163
 20
27.42810556841671
 30
0.0
 11
8.360090254875743
 21
13.13310541482859
 31
0.0
  0
SPLINE
  5
11F
330
1F
100
AcDbEntity
  8
2D DXF
370
    -3
100
AcDbSpline
210
0.0
220
0.0
230
1.0
 70
     8
 71
     2
 72
     9
 73
     6
 74
     0
 42
0.0000000001
 43
0.0000000001
 40
0.0
 40
0.0
 40
0.0
 40
1.00000119212835
 40
2.0000023842567
 40
3.00000357638505
 40
4.0
 40
4.0
 40
4.0
 10
5.065289425643485
 20
28.88197403332417
 30
0.0
 10
5.341640387510282
 20
28.86328451885637
 30
0.0
 10
5.836090197518914
 20
28.6148481000573
 30
0.0
 10
6.206115676631114
 20
28.20512896382381
 30
0.0
 10
6.427197735007681
 20
27.7008344306296
 30
0.0
 10
6.462890932914163
 20
27.42810556841671
 30
0.0
  0
SPLINE
  5
120
330
1F
100
AcDbEntity
  8
2D DXF
370
    -3
100
AcDbSpline
210
0.0
220
0.0
230
1.0
 70
     8
 71
     2
 72
     9
 73
     6
 74
     0
 42
0.0000000001
 43
0.0000000001
 40
13.40660984821153
 40
13.40660984821153
 40
13.40660984821153
 40
14.40660984821153
 40
15.40660984821153
 40
16.40660984821153
 40
17.40660984821153
 40
17.40660984821153
 40
17.40660984821153
 10
-5.837180817888168
 20
27.34397311327761
 30
0.0
 10
-5.821153147709822
 20
27.46565620000653
 30
0.0
 10
-5.746504716390064
 20
27.69699855365204
 30
0.0
 10
-5.626433199452947
 20
27.9086009128917
 30
0.0
 10
-5.45998637422349
 20
28.08663917205959
 30
0.0
 10
-5.355209591126879
 20
28.14913160579555
 30
0.0
  0
LINE
  5
121
330
1F
100
AcDbEntity
  8
2D DXF
370
    -3
100
AcDbLine
 10
-7.723214245881991
 20
13.13310541482859
 30
0.0
 11
-5.837180817888168
 21
27.34397311327761
 31
0.0
  0
LINE
  5
122
330
1F
100
AcDbEntity
  8
2D DXF
370
    -3
100
AcDbLine
 10
-6.461539092995338
 20
27.42810556841671
 30
0.0
 11
-8.358738414956917
 21
13.13310541482859
 31
0.0
  0
SPLINE
  5
123
330
1F
100
AcDbEntity
  8
2D DXF
370
    -3
100
AcDbSpline
210
0.0
220
0.0
230
1.0
 70
     8
 71
     2
 72
     9
 73
     6
 74
     0
 42
0.0000000001
 43
0.0000000001
 40
0.0
 40
0.0
 40
0.0
 40
1.00000119212835
 40
2.0000023842567
 40
3.00000357638505
 40
4.0
 40
4.0
 40
4.0
 10
-5.063937585724659
 20
28.88197403332417
 30
0.0
 10
-5.340288547591456
 20
28.86328451885637
 30
0.0
 10
-5.834738357600088
 20
28.6148481000573
 30
0.0
 10
-6.204763836712289
 20
28.20512896382381
 30
0.0
 10
-6.425845895088855
 20
27.7008344306296
 30
0.0
 10
-6.461539092995338
 20
27.42810556841671
 30
0.0
  0
SPLINE
  5
124
330
1F
100
AcDbEntity
  8
2D DXF
370
    -3
100
AcDbSpline
210
0.0
220
0.0
230
1.0
 70
    28
 71
     3
 72
    11
 73
     7
 74
     0
 42
0.0000000001
 43
0.0000000001
 40
8.894198103952213
 40
8.894198103952213
 40
8.894198103952213
 40
8.894198103952213
 40
10.78612243234828
 40
10.78612243234828
 40
10.78612243234828
 40
12.71201355822138
 40
12.71201355822138
 40
12.71201355822138
 40
12.71201355822138
 10
8.935150825132283
 20
13.13310541482858
 30
0.0
 41
1.0
 10
8.934880457648507
 20
13.13310541482858
 30
0.0
 41
0.9999999999999996
 10
8.814875793171737
 20
13.13310541482858
 30
0.0
 41
1.0
 10
8.584105751137045
 20
13.13310541482858
 30
0.0
 41
1.0
 10
8.349412674064425
 20
13.13310541482858
 30
0.0
 41
1.0
 10
8.00015623975908
 20
13.13310541482858
 30
0.0
 41
0.9999999999999998
 10
7.561751805950978
 20
13.13310541482858
 30
0.0
 41
0.9999999999999998
  0
SPLINE
  5
125
330
1F
100
AcDbEntity
  8
2D DXF
370
    -3
100
AcDbSpline
210
0.0
220
0.0
230
1.0
 70
    12
 71
     2
 72
     8
 73
     5
 74
     0
 42
0.0000000001
 43
0.0000000001
 40
7.904596418071428
 40
7.904596418071428
 40
7.904596418071428
 40
8.399397515293096
 40
8.399397515293096
 40
8.894198103952213
 40
8.894198103952213
 40
8.894198103952213
 10
8.935150367265194
 20
12.50310541482857
 30
0.0
 41
1.0
 10
9.250150367265215
 20
12.50310541482857
 30
0.0
 41
0.7071067811865476
 10
9.250150367265249
 20
12.81810541482858
 30
0.0
 41
1.0
 10
9.250150367265261
 20
13.13310495696185
 30
0.0
 41
0.7071070822257394
 10
8.935150825132261
 20
13.13310541482859
 30
0.0
 41
0.9999993979222352
  0
SPLINE
  5
126
330
1F
100
AcDbEntity
  8
2D DXF
370
    -3
100
AcDbSpline
210
0.0
220
0.0
230
1.0
 70
    28
 71
     3
 72
    11
 73
     7
 74
     0
 42
0.0000000001
 43
0.0000000001
 40
4.219144922376998
 40
4.219144922376998
 40
4.219144922376998
 40
4.219144922376998
 40
6.008576315590144
 40
6.008576315590144
 40
6.008576315590144
 40
7.904596418071428
 40
7.904596418071428
 40
7.904596418071428
 40
7.904596418071428
 10
7.652926136669992
 20
12.50310541482859
 30
0.0
 41
0.9999999999999998
 10
8.048719767436028
 20
12.50310541482857
 30
0.0
 41
0.9999999999999998
 10
8.365919939371125
 20
12.50310541482858
 30
0.0
 41
1.0
 10
8.584105751137045
 20
12.50310541482857
 30
0.0
 41
1.0
 10
8.815504769072064
 20
12.50310541482857
 30
0.0
 41
1.0
 10
8.935533792876033
 20
12.50310541482857
 30
0.0
 41
0.9999999999999996
 10
8.935150367265194
 20
12.50310541482857
 30
0.0
 41
1.0
  0
SPLINE
  5
127
330
1F
100
AcDbEntity
  8
2D DXF
370
    -3
100
AcDbSpline
210
0.0
220
0.0
230
1.0
 70
    28
 71
     3
 72
    11
 73
     7
 74
     0
 42
0.0000000001
 43
0.0000000001
 40
8.894198103952213
 40
8.894198103952213
 40
8.894198103952213
 40
8.894198103952213
 40
10.78612243234828
 40
10.78612243234828
 40
10.78612243234828
 40
12.71201355822138
 40
12.71201355822138
 40
12.71201355822138
 40
12.71201355822138
 10
-8.93491180000035
 20
13.13310541482858
 30
0.0
 41
1.0
 10
-8.934641432516546
 20
13.13310541482858
 30
0.0
 41
0.9999999999999996
 10
-8.814636768039804
 20
13.13310541482858
 30
0.0
 41
1.0
 10
-8.583866726005112
 20
13.13310541482858
 30
0.0
 41
1.0
 10
-8.349173648932492
 20
13.13310541482858
 30
0.0
 41
1.0
 10
-7.999917214627134
 20
13.13310541482858
 30
0.0
 41
0.9999999999999998
 10
-7.561512780819031
 20
13.13310541482858
 30
0.0
 41
0.9999999999999998
  0
SPLINE
  5
128
330
1F
100
AcDbEntity
  8
2D DXF
370
    -3
100
AcDbSpline
210
0.0
220
0.0
230
1.0
 70
    12
 71
     2
 72
     8
 73
     5
 74
     0
 42
0.0000000001
 43
0.0000000001
 40
7.904596418071428
 40
7.904596418071428
 40
7.904596418071428
 40
8.399397515293096
 40
8.399397515293096
 40
8.894198103952213
 40
8.894198103952213
 40
8.894198103952213
 10
-8.934911342133262
 20
12.50310541482857
 30
0.0
 41
1.0
 10
-9.24991134213332
 20
12.50310541482857
 30
0.0
 41
0.7071067811865476
 10
-9.249911342133316
 20
12.81810541482858
 30
0.0
 41
1.0
 10
-9.249911342133316
 20
13.13310495696185
 30
0.0
 41
0.7071070822257394
 10
-8.934911800000341
 20
13.13310541482859
 30
0.0
 41
0.9999993979222352
  0
SPLINE
  5
129
330
1F
100
AcDbEntity
  8
2D DXF
370
    -3
100
AcDbSpline
210
0.0
220
0.0
230
1.0
 70
    28
 71
     3
 72
    11
 73
     7
 74
     0
 42
0.0000000001
 43
0.0000000001
 40
4.219144922376998
 40
4.219144922376998
 40
4.219144922376998
 40
4.219144922376998
 40
6.008576315590144
 40
6.008576315590144
 40
6.008576315590144
 40
7.904596418071428
 40
7.904596418071428
 40
7.904596418071428
 40
7.904596418071428
 10
-7.652687111538045
 20
12.50310541482859
 30
0.0
 41
0.9999999999999998
 10
-8.048480742304081
 20
12.50310541482857
 30
0.0
 41
0.9999999999999998
 10
-8.365680914239192
 20
12.50310541482858
 30
0.0
 41
1.0
 10
-8.583866726005112
 20
12.50310541482857
 30
0.0
 41
1.0
 10
-8.815265743940131
 20
12.50310541482857
 30
0.0
 41
1.0
 10
-8.935294767744072
 20
12.50310541482857
 30
0.0
 41
0.9999999999999996
 10
-8.934911342133262
 20
12.50310541482857
 30
0.0
 41
1.0
  0
ARC
  5
12A
330
1F
100
AcDbEntity
  8
2D DXF
370
    -3
100
AcDbCircle
 10
-0.4418504405259256
 20
53.35295510281145
 30
0.0
 40
24.6845296803502
210
0.0
220
0.0
230
-1.0
100
AcDbArc
 50
256.2922916864438
 51
259.571267688757
  0
SPLINE
  5
12B
330
1F
100
AcDbEntity
  8
2D DXF
370
    -3
100
AcDbSpline
210
0.0
220
0.0
230
1.0
 70
     8
 71
     3
 72
    34
 73
    30
 74
     0
 42
0.0000000001
 43
0.0000000001
 40
41.0
 40
41.0
 40
41.0
 40
41.0
 40
42.0
 40
43.0
 40
44.0
 40
45.0
 40
46.0
 40
47.0
 40
48.0
 40
49.0
 40
50.0
 40
51.0
 40
52.0
 40
53.0
 40
54.0
 40
55.0
 40
56.0
 40
57.0
 40
58.0
 40
59.0
 40
60.0
 40
61.0
 40
62.0
 40
63.0
 40
64.0
 40
65.0
 40
66.0
 40
67.0
 40
68.0
 40
68.0
 40
68.0
 40
68.0
 10
7.619454584514202
 20
30.60545711774354
 30
0.0
 10
7.662721117576851
 20
30.61176958099406
 30
0.0
 10
7.762906679598373
 20
30.62482943067515
 30
0.0
 10
7.893707290089949
 20
30.63536471685157
 30
0.0
 10
8.02495025429802
 20
30.63749556473442
 30
0.0
 10
8.155973734642558
 20
30.62726899471015
 30
0.0
 10
8.28424186790916
 20
30.59780033695942
 30
0.0
 10
8.402688555657974
 20
30.53637362680568
 30
0.0
 10
8.488345478697696
 20
30.43556483873212
 30
0.0
 10
8.535234805644976
 20
30.30610361226252
 30
0.0
 10
8.491486341305588
 20
30.1768267352768
 30
0.0
 10
8.391565565388262
 20
30.08803633206793
 30
0.0
 10
8.282920326758088
 20
30.01518622240999
 30
0.0
 10
8.167368292377674
 20
29.95259560885647
 30
0.0
 10
8.048927102170765
 20
29.89625197002697
 30
0.0
 10
7.928261450173594
 20
29.84472023275197
 30
0.0
 10
7.806052006683231
 20
29.79703064346016
 30
0.0
 10
7.682603586197288
 20
29.75264215793587
 30
0.0
 10
7.558156443167789
 20
29.71114926840949
 30
0.0
 10
7.432888564826058
 20
29.67220459594598
 30
0.0
 10
7.306849961041351
 20
29.63583554851733
 30
0.0
 10
7.180214798097282
 20
29.60161511357573
 30
0.0
 10
7.053588015664005
 20
29.56737515872473
 30
0.0
 10
6.926825976611966
 20
29.5336354092581
 30
0.0
 10
6.799967216536075
 20
29.5002625909525
 30
0.0
 10
6.67299726095969
 20
29.46731480423814
 30
0.0
 10
6.545911665111603
 20
29.43481589403827
 30
0.0
 10
6.418698713684776
 20
29.40281886271666
 30
0.0
 10
6.333794678569816
 20
29.38187021891761
 30
0.0
 10
6.291315094156815
 20
29.37150875764674
 30
0.0
  0
SPLINE
  5
12C
330
1F
100
AcDbEntity
  8
2D DXF
370
    -3
100
AcDbSpline
210
0.0
220
0.0
230
1.0
 70
     8
 71
     3
 72
    34
 73
    30
 74
     0
 42
0.0000000001
 43
0.0000000001
 40
-0.0000000000000036
 40
-0.0000000000000036
 40
-0.0000000000000036
 40
-0.0000000000000036
 40
0.9999999999999967
 40
1.999999999999997
 40
2.999999999999997
 40
3.999999999999997
 40
4.999999999999997
 40
5.999999999999998
 40
6.999999999999998
 40
7.999999999999998
 40
8.999999999999998
 40
9.999999999999998
 40
11.0
 40
12.0
 40
13.0
 40
14.0
 40
15.0
 40
16.0
 40
17.0
 40
18.0
 40
19.0
 40
20.0
 40
21.0
 40
22.0
 40
23.0
 40
24.0
 40
25.0
 40
26.0
 40
27.0
 40
27.0
 40
27.0
 40
27.0
 10
-6.289963254237932
 20
29.37150875764675
 30
0.0
 10
-6.332442838650991
 20
29.38187021891763
 30
0.0
 10
-6.41734687376595
 20
29.40281886271666
 30
0.0
 10
-6.544559825192778
 20
29.43481589403827
 30
0.0
 10
-6.671645421040864
 20
29.46731480423814
 30
0.0
 10
-6.798615376617249
 20
29.5002625909525
 30
0.0
 10
-6.92547413669314
 20
29.5336354092581
 30
0.0
 10
-7.052236175745179
 20
29.56737515872473
 30
0.0
 10
-7.178862958178456
 20
29.60161511357573
 30
0.0
 10
-7.305498121122525
 20
29.63583554851733
 30
0.0
 10
-7.431536724907232
 20
29.67220459594598
 30
0.0
 10
-7.556804603248963
 20
29.71114926840949
 30
0.0
 10
-7.681251746278463
 20
29.75264215793587
 30
0.0
 10
-7.804700166764405
 20
29.79703064346016
 30
0.0
 10
-7.926909610254768
 20
29.84472023275197
 30
0.0
 10
-8.04757526225194
 20
29.89625197002697
 30
0.0
 10
-8.166016452458848
 20
29.95259560885647
 30
0.0
 10
-8.281568486839262
 20
30.01518622240999
 30
0.0
 10
-8.390213725469437
 20
30.08803633206793
 30
0.0
 10
-8.490134501386763
 20
30.1768267352768
 30
0.0
 10
-8.53388296572615
 20
30.30610361226252
 30
0.0
 10
-8.48699363877887
 20
30.43556483873212
 30
0.0
 10
-8.401336715739149
 20
30.53637362680568
 30
0.0
 10
-8.282890027990334
 20
30.59780033695942
 30
0.0
 10
-8.154621894723732
 20
30.62726899471015
 30
0.0
 10
-8.023598414379194
 20
30.63749556473442
 30
0.0
 10
-7.892355450171124
 20
30.63536471685157
 30
0.0
 10
-7.761554839679548
 20
30.62482943067515
 30
0.0
 10
-7.661369277658025
 20
30.61176958099406
 30
0.0
 10
-7.618102744595376
 20
30.60545711774354
 30
0.0
  0
ARC
  5
12D
330
1F
100
AcDbEntity
  8
2D DXF
370
    -3
100
AcDbCircle
 10
0.4404986008332088
 20
53.35295510188463
 30
0.0
 40
24.6845296793962
210
0.0
220
0.0
230
-1.0
100
AcDbArc
 50
280.4309720936023
 51
283.7077083135562
  0
SPLINE
  5
12E
330
1F
100
AcDbEntity
  8
2D DXF
370
    -3
100
AcDbSpline
210
0.0
220
0.0
230
1.0
 70
    12
 71
     3
 72
     8
 73
     4
 74
     0
 42
0.0000000001
 43
0.0000000001
 40
0.0
 40
0.0
 40
0.0
 40
0.0
 40
4.323967219719583
 40
4.323967219719583
 40
4.323967219719583
 40
4.323967219719583
 10
-3.057361094520327
 20
28.09605252093005
 30
0.0
 41
0.8566589076371499
 10
-2.037764709500606
 20
28.20271575016802
 30
0.0
 41
0.85665890763715
 10
-1.018822128975408
 20
28.30927154971066
 30
0.0
 41
0.85665890763715
 10
0.0001204515496917
 20
28.41582734925327
 30
0.0
 41
0.8566589076371499
  0
SPLINE
  5
12F
330
1F
100
AcDbEntity
  8
2D DXF
370
    -3
100
AcDbSpline
210
0.0
220
0.0
230
1.0
 70
     8
 71
     2
 72
     7
 73
     4
 74
     0
 42
0.0000000001
 43
0.0000000001
 40
-2.0
 40
-2.0
 40
-2.0
 40
-1.0
 40
0.0
 40
0.0
 40
0.0
 10
-3.214633754959948
 20
28.19378419964615
 30
0.0
 10
-3.189059144041664
 20
28.1520279508716
 30
0.0
 10
-3.108513724757515
 20
28.09296680934496
 30
0.0
 10
-3.057361094520317
 20
28.09605252093006
 30
0.0
  0
SPLINE
  5
130
330
1F
100
AcDbEntity
  8
2D DXF
370
    -3
100
AcDbSpline
210
0.0
220
0.0
230
1.0
 70
    28
 71
     2
 72
     6
 73
     3
 74
     0
 42
0.0000000001
 43
0.0000000001
 40
10.17314974777304
 40
10.17314974777304
 40
10.17314974777304
 40
11.2251296580876
 40
11.2251296580876
 40
11.2251296580876
 10
-4.025463551293736
 20
27.7660351476136
 30
0.0
 41
0.8560172248609055
 10
-4.143198695526698
 20
28.2779776630781
 30
0.0
 41
0.8560172248609056
 10
-4.260933839759661
 20
28.78992017854261
 30
0.0
 41
0.8560172248609057
  0
SPLINE
  5
131
330
1F
100
AcDbEntity
  8
2D DXF
370
    -3
100
AcDbSpline
210
0.0
220
0.0
230
1.0
 70
     8
 71
     2
 72
     9
 73
     6
 74
     0
 42
0.0000000001
 43
0.0000000001
 40
6.173149747773035
 40
6.173149747773035
 40
6.173149747773035
 40
7.173153238922044
 40
8.173156730071053
 40
9.173160221220064
 40
10.17314974777304
 40
10.17314974777304
 40
10.17314974777304
 10
-3.798975768415346
 20
27.52876126736852
 30
0.0
 10
-3.843225953359081
 20
27.53294144387219
 30
0.0
 10
-3.919459387855625
 20
27.5779242931735
 30
0.0
 10
-3.977174162497477
 20
27.64435566838615
 30
0.0
 10
-4.016078538793352
 20
27.72312862253715
 30
0.0
 10
-4.02546355129374
 20
27.76603514761358
 30
0.0
  0
LINE
  5
132
330
1F
100
AcDbEntity
  8
2D DXF
370
    -3
100
AcDbLine
 10
-3.359876428801215
 20
27.48374703159658
 30
0.0
 11
-3.798975768415346
 21
27.52876126736852
 31
0.0
  0
LINE
  5
133
330
1F
100
AcDbEntity
  8
2D DXF
370
    -3
100
AcDbLine
 10
-2.857161687388199
 20
27.53300024683381
 30
0.0
 11
-3.359876428801215
 21
27.48374703159658
 31
0.0
  0
SPLINE
  5
134
330
1F
100
AcDbEntity
  8
2D DXF
370
    -3
100
AcDbSpline
210
0.0
220
0.0
230
1.0
 70
     8
 71
     2
 72
     9
 73
     6
 74
     0
 42
0.0000000001
 43
0.0000000001
 40
1.22662736504897
 40
1.22662736504897
 40
1.22662736504897
 40
2.22662736504897
 40
3.226627365048969
 40
4.226627365048969
 40
5.226627365048969
 40
5.226627365048969
 40
5.226627365048969
 10
-2.654428712864771
 20
27.73960692067924
 30
0.0
 10
-2.66323980221317
 20
27.70186372840881
 30
0.0
 10
-2.697661939441545
 20
27.63232901238528
 30
0.0
 10
-2.749677566606962
 20
27.57447776181867
 30
0.0
 10
-2.8183016814517
 20
27.53726043208742
 30
0.0
 10
-2.857161687388199
 20
27.53300024683381
 30
0.0
  0
SPLINE
  5
135
330
1F
100
AcDbEntity
  8
2D DXF
370
    -3
100
AcDbSpline
210
0.0
220
0.0
230
1.0
 70
    28
 71
     2
 72
     6
 73
     3
 74
     0
 42
0.0000000001
 43
0.0000000001
 40
0.7984423683647881
 40
0.7984423683647881
 40
0.7984423683647881
 40
1.22662736504897
 40
1.22662736504897
 40
1.22662736504897
 10
-2.557235710304262
 20
28.14839213185239
 30
0.0
 41
0.8563898439284926
 10
-2.605832211584513
 20
27.94399952626581
 30
0.0
 41
0.8563898439284932
 10
-2.654428712864766
 20
27.73960692067923
 30
0.0
 41
0.8563898439284937
  0
SPLINE
  5
136
330
1F
100
AcDbEntity
  8
2D DXF
370
    -3
100
AcDbSpline
210
0.0
220
0.0
230
1.0
 70
    28
 71
     2
 72
     6
 73
     3
 74
     0
 42
0.0000000001
 43
0.0000000001
 40
10.18033768239874
 40
10.18033768239874
 40
10.18033768239874
 40
10.59986979928274
 40
10.59986979928274
 40
10.59986979928274
 10
-4.025325930262247
 20
28.43840191105083
 30
0.0
 41
0.8563898439579778
 10
-4.072275507977068
 20
28.63586732491797
 30
0.0
 41
0.8563898439579778
 10
-4.119225085691888
 20
28.8333327387851
 30
0.0
 41
0.8563898439579779
  0
SPLINE
  5
137
330
1F
100
AcDbEntity
  8
2D DXF
370
    -3
100
AcDbSpline
210
0.0
220
0.0
230
1.0
 70
     8
 71
     2
 72
     9
 73
     6
 74
     0
 42
0.0000000001
 43
0.0000000001
 40
6.180337682398743
 40
6.180337682398743
 40
6.180337682398743
 40
7.180442332011739
 40
8.180546981624735
 40
9.18065163123773
 40
10.18033768239874
 40
10.18033768239874
 40
10.18033768239874
 10
-3.82308972887563
 20
28.23150804954551
 30
0.0
 10
-3.861925723956858
 20
28.235839502451
 30
0.0
 10
-3.930027206311195
 20
28.27377318021347
 30
0.0
 10
-3.982184043912127
 20
28.331319419816
 30
0.0
 10
-4.016886689919318
 20
28.40061312611734
 30
0.0
 10
-4.025325930262341
 20
28.43840191105083
 30
0.0
  0
LINE
  5
138
330
1F
100
AcDbEntity
  8
2D DXF
370
    -3
100
AcDbLine
 10
-3.319874334719657
 20
28.1825248815278
 30
0.0
 11
-3.82308972887563
 21
28.23150804954551
 31
0.0
  0
LINE
  5
139
330
1F
100
AcDbEntity
  8
2D DXF
370
    -3
100
AcDbLine
 10
-2.880108085817866
 20
28.22759943316159
 30
0.0
 11
-3.319874334719657
 21
28.1825248815278
 31
0.0
  0
SPLINE
  5
13A
330
1F
100
AcDbEntity
  8
2D DXF
370
    -3
100
AcDbSpline
210
0.0
220
0.0
230
1.0
 70
     8
 71
     2
 72
     9
 73
     6
 74
     0
 42
0.0000000001
 43
0.0000000001
 40
1.232673681168818
 40
1.232673681168818
 40
1.232673681168818
 40
2.232671278259504
 40
3.232672079229276
 40
4.232672880199047
 40
5.232673681168818
 40
5.232673681168818
 40
5.232673681168818
 10
-2.654287414849861
 20
28.46481207262592
 30
0.0
 10
-2.664021901433372
 20
28.42211556423014
 30
0.0
 10
-2.702302633086148
 20
28.3432601968027
 30
0.0
 10
-2.759799720657654
 20
28.27685954938202
 30
0.0
 10
-2.836106047949599
 20
28.23245032290473
 30
0.0
 10
-2.880108085817866
 20
28.22759943316159
 30
0.0
  0
SPLINE
  5
13B
330
1F
100
AcDbEntity
  8
2D DXF
370
    -3
100
AcDbSpline
210
0.0
220
0.0
230
1.0
 70
    28
 71
     2
 72
     6
 73
     3
 74
     0
 42
0.0000000001
 43
0.0000000001
 40
0.6892278622060378
 40
0.6892278622060378
 40
0.6892278622060378
 40
1.232673681168818
 40
1.232673681168818
 40
1.232673681168818
 10
-2.532644958297418
 20
28.99374456634133
 30
0.0
 41
0.8560172248711451
 10
-2.593466186573655
 20
28.72927831948363
 30
0.0
 41
0.8560172248711454
 10
-2.654287414849893
 20
28.46481207262593
 30
0.0
 41
0.8560172248711457
  0
SPLINE
  5
13C
330
1F
100
AcDbEntity
  8
2D DXF
370
    -3
100
AcDbSpline
210
0.0
220
0.0
230
1.0
 70
    28
 71
     2
 72
     6
 73
     3
 74
     0
 42
0.0000000001
 43
0.0000000001
 40
4.610333950763096
 40
4.610333950763096
 40
4.610333950763096
 40
5.008596212091838
 40
5.008596212091838
 40
5.008596212091838
 10
-3.518416888524484
 20
27.81904178098776
 30
0.0
 41
1.0
 10
-3.54878534424509
 20
28.01434039406664
 30
0.0
 41
1.0
 10
-3.579153799965695
 20
28.20963900714551
 30
0.0
 41
1.0
  0
SPLINE
  5
13D
330
1F
100
AcDbEntity
  8
2D DXF
370
    -3
100
AcDbSpline
210
0.0
220
0.0
230
1.0
 70
     8
 71
     2
 72
     9
 73
     6
 74
     0
 42
0.0000000001
 43
0.0000000001
 40
0.6103339507630958
 40
0.6103339507630958
 40
0.6103339507630958
 40
1.610333950763096
 40
2.610333950763096
 40
3.610333950763096
 40
4.610333950763096
 40
4.610333950763096
 40
4.610333950763096
 10
-3.31988454606693
 20
27.57817217737106
 30
0.0
 10
-3.362375222442381
 20
27.5826202617889
 30
0.0
 10
-3.43178190119653
 20
27.63147951236665
 30
0.0
 10
-3.48108697026754
 20
27.69957852613767
 30
0.0
 10
-3.512059239728899
 20
27.77758039274248
 30
0.0
 10
-3.518416888524484
 20
27.81904178098776
 30
0.0
  0
SPLINE
  5
13E
330
1F
100
AcDbEntity
  8
2D DXF
370
    -3
100
AcDbSpline
210
0.0
220
0.0
230
1.0
 70
    24
 71
     2
 72
     6
 73
     3
 74
     0
 42
0.0000000001
 43
0.0000000001
 40
-0.0000000000000012
 40
-0.0000000000000012
 40
-0.0000000000000012
 40
0.6103339507630958
 40
0.6103339507630958
 40
0.6103339507630958
 10
-2.888217478244925
 20
27.53307071042634
 30
0.0
 10
-3.104051012155928
 20
27.5556214438987
 30
0.0
 10
-3.31988454606693
 20
27.57817217737106
 30
0.0
  0
SPLINE
  5
13F
330
1F
100
AcDbEntity
  8
2D DXF
370
    -3
100
AcDbSpline
210
0.0
220
0.0
230
1.0
 70
    24
 71
     2
 72
     6
 73
     3
 74
     0
 42
0.0000000001
 43
0.0000000001
 40
4.003985166117586
 40
4.003985166117586
 40
4.003985166117586
 40
4.614319116880683
 40
4.614319116880683
 40
4.614319116880683
 10
-3.359866217454567
 20
28.27695003873417
 30
0.0
 10
-3.575699751365391
 20
28.25439930526009
 30
0.0
 10
-3.791533285276216
 20
28.231848571786
 30
0.0
  0
SPLINE
  5
140
330
1F
100
AcDbEntity
  8
2D DXF
370
    -3
100
AcDbSpline
210
0.0
220
0.0
230
1.0
 70
     8
 71
     2
 72
     9
 73
     6
 74
     0
 42
0.0000000001
 43
0.0000000001
 40
0.0039851661175855
 40
0.0039851661175855
 40
0.0039851661175855
 40
1.003985166117586
 40
2.003985166117586
 40
3.003985166117586
 40
4.003985166117586
 40
4.003985166117586
 40
4.003985166117586
 10
-3.161333872318139
 20
28.51781964221708
 30
0.0
 10
-3.168057956946242
 20
28.47645210033562
 30
0.0
 10
-3.198629037177398
 20
28.39833806388627
 30
0.0
 10
-3.247665143549796
 20
28.33001041860008
 30
0.0
 10
-3.317545219176452
 20
28.281954025118
 30
0.0
 10
-3.359866217454567
 20
28.27695003873417
 30
0.0
  0
SPLINE
  5
141
330
1F
100
AcDbEntity
  8
2D DXF
370
    -3
100
AcDbSpline
210
0.0
220
0.0
230
1.0
 70
    28
 71
     2
 72
     6
 73
     3
 74
     0
 42
0.0000000001
 43
0.0000000001
 40
-0.5528646837850709
 40
-0.5528646837850709
 40
-0.5528646837850709
 40
0.0039851661175855
 40
0.0039851661175855
 40
0.0039851661175855
 10
-3.076411583911109
 20
29.06395224828604
 30
0.0
 41
1.0
 10
-3.118872728114651
 20
28.79088594525156
 30
0.0
 41
1.0
 10
-3.161333872318194
 20
28.51781964221708
 30
0.0
 41
1.0
  0
SPLINE
  5
142
330
1F
100
AcDbEntity
  8
2D DXF
370
    -3
100
AcDbSpline
210
0.0
220
0.0
230
1.0
 70
    24
 71
     2
 72
     6
 73
     3
 74
     0
 42
0.0000000001
 43
0.0000000001
 40
0.000000000000001
 40
0.000000000000001
 40
0.000000000000001
 40
0.6103339507630969
 40
0.6103339507630969
 40
0.6103339507630969
 10
-2.888207266897993
 20
28.22762634847595
 30
0.0
 10
-3.104040800808825
 20
28.20507561500187
 30
0.0
 10
-3.319874334719657
 20
28.1825248815278
 30
0.0
  0
SPLINE
  5
143
330
1F
100
AcDbEntity
  8
2D DXF
370
    -3
100
AcDbSpline
210
0.0
220
0.0
230
1.0
 70
    12
 71
     2
 72
     6
 73
     3
 74
     0
 42
0.0000000001
 43
0.0000000001
 40
0.0931404683516954
 40
0.0931404683516954
 40
0.0931404683516954
 40
0.1158637182037069
 40
0.1158637182037069
 40
0.1158637182037069
 10
-3.382502900823813
 20
27.48802557712512
 30
0.0
 41
0.8892833237614565
 10
-3.375619173509992
 20
27.48451814287133
 30
0.0
 41
0.9105152908287699
 10
-3.368189741082456
 20
27.48374190042349
 30
0.0
 41
0.9486969526683089
  0
SPLINE
  5
144
330
1F
100
AcDbEntity
  8
2D DXF
370
    -3
100
AcDbSpline
210
0.0
220
0.0
230
1.0
 70
     8
 71
     3
 72
     8
 73
     4
 74
     0
 42
0.0000000001
 43
0.0000000001
 40
2.044911702315788
 40
2.044911702315788
 40
2.044911702315788
 40
2.044911702315788
 40
2.115874797478824
 40
2.115874797478824
 40
2.115874797478824
 40
2.115874797478824
 10
-2.69168541219436
 20
29.00885163820014
 30
0.0
 10
-2.687959842057282
 20
29.01152795595016
 30
0.0
 10
-2.686047649098256
 20
29.01437276927855
 30
0.0
 10
-2.68609608405238
 20
29.0173953398867
 30
0.0
  0
SPLINE
  5
145
330
1F
100
AcDbEntity
  8
2D DXF
370
    -3
100
AcDbSpline
210
0.0
220
0.0
230
1.0
 70
    28
 71
     3
 72
     8
 73
     4
 74
     0
 42
0.0000000001
 43
0.0000000001
 40
1.99450461069922
 40
1.99450461069922
 40
1.99450461069922
 40
1.99450461069922
 40
5.584448213357721
 40
5.584448213357721
 40
5.584448213357721
 40
5.584448213357721
 10
-2.603285497379304
 20
28.68807802128905
 30
0.0
 41
0.8566589076371487
 10
-1.757315532169873
 20
28.59961081248371
 30
0.0
 41
0.8566589076371486
 10
-0.9113455669605434
 20
28.51114360367842
 30
0.0
 41
0.8566589076371487
 10
-0.0653756017511465
 20
28.42267639487314
 30
0.0
 41
0.8566589076371488
  0
SPLINE
  5
146
330
1F
100
AcDbEntity
  8
2D DXF
370
    -3
100
AcDbSpline
210
0.0
220
0.0
230
1.0
 70
    28
 71
     3
 72
     8
 73
     4
 74
     0
 42
0.0000000001
 43
0.0000000001
 40
0.1480224217458351
 40
0.1480224217458351
 40
0.1480224217458351
 40
0.1480224217458351
 40
0.8593290760227089
 40
0.8593290760227089
 40
0.8593290760227089
 40
0.8593290760227089
 10
-4.693050488153669
 20
28.21247129187138
 30
0.0
 41
0.8547228508968872
 10
-4.495379319838219
 20
28.17093643083519
 30
0.0
 41
0.8547228508968868
 10
-4.297708151523881
 20
28.12940156979919
 30
0.0
 41
0.854722850896887
 10
-4.100036983208153
 20
28.08786670876293
 30
0.0
 41
0.8547228508968873
  0
SPLINE
  5
147
330
1F
100
AcDbEntity
  8
2D DXF
370
    -3
100
AcDbSpline
210
0.0
220
0.0
230
1.0
 70
     8
 71
     3
 72
     8
 73
     4
 74
     0
 42
0.0000000001
 43
0.0000000001
 40
2.705597747790026
 40
2.705597747790026
 40
2.705597747790026
 40
2.705597747790026
 40
2.723204868881017
 40
2.723204868881017
 40
2.723204868881017
 40
2.723204868881017
 10
-5.459342018649352
 20
29.64213535958939
 30
0.0
 10
-5.462703236099571
 20
29.64179529068547
 30
0.0
 10
-5.46606243096727
 20
29.64146534654228
 30
0.0
 10
-5.469419405296208
 20
29.64114541397139
 30
0.0
  0
SPLINE
  5
148
330
1F
100
AcDbEntity
  8
2D DXF
370
    -3
100
AcDbSpline
210
0.0
220
0.0
230
1.0
 70
    24
 71
     3
 72
    11
 73
     7
 74
     0
 42
0.0000000001
 43
0.0000000001
 40
0.0
 40
0.0
 40
0.0
 40
0.0
 40
0.3276515494938902
 40
0.3276515494938902
 40
0.3276515494938902
 40
0.7499992541381634
 40
0.7499992541381634
 40
0.7499992541381634
 40
0.7499992541381634
 10
0.0001195125659734
 20
28.41927057574463
 30
0.0
 10
0.0001195125659734
 20
28.43029635761877
 30
0.0
 10
0.0001195125659734
 20
28.46875863728729
 30
0.0
 10
0.0001195125659734
 20
28.53713462641271
 30
0.0
 10
0.0001195125659734
 20
28.62748492427232
 30
0.0
 10
0.0001195125659734
 20
28.74787936101761
 30
0.0
 10
0.0001195125659734
 20
28.85068844300949
 30
0.0
  0
SPLINE
  5
149
330
1F
100
AcDbEntity
  8
2D DXF
370
    -3
100
AcDbSpline
210
0.0
220
0.0
230
1.0
 70
    12
 71
     3
 72
     8
 73
     4
 74
     0
 42
0.0000000001
 43
0.0000000001
 40
0.0
 40
0.0
 40
0.0
 40
0.0
 40
4.323967219719583
 40
4.323967219719583
 40
4.323967219719583
 40
4.323967219719583
 10
3.057600119652244
 20
28.09605252093005
 30
0.0
 41
0.8566589076371499
 10
2.038003734632531
 20
28.20271575016802
 30
0.0
 41
0.85665890763715
 10
1.019061154107332
 20
28.30927154971066
 30
0.0
 41
0.85665890763715
 10
0.0001185735821663
 20
28.41582734925327
 30
0.0
 41
0.8566589076371499
  0
SPLINE
  5
14A
330
1F
100
AcDbEntity
  8
2D DXF
370
    -3
100
AcDbSpline
210
0.0
220
0.0
230
1.0
 70
     8
 71
     2
 72
     7
 73
     4
 74
     0
 42
0.0000000001
 43
0.0000000001
 40
-2.0
 40
-2.0
 40
-2.0
 40
-1.0
 40
0.0
 40
0.0
 40
0.0
 10
3.214872780091881
 20
28.19378419964615
 30
0.0
 10
3.189298169173597
 20
28.1520279508716
 30
0.0
 10
3.108752749889462
 20
28.09296680934496
 30
0.0
 10
3.057600119652264
 20
28.09605252093006
 30
0.0
  0
SPLINE
  5
14B
330
1F
100
AcDbEntity
  8
2D DXF
370
    -3
100
AcDbSpline
210
0.0
220
0.0
230
1.0
 70
    28
 71
     2
 72
     6
 73
     3
 74
     0
 42
0.0000000001
 43
0.0000000001
 40
10.17314974777304
 40
10.17314974777304
 40
10.17314974777304
 40
11.2251296580876
 40
11.2251296580876
 40
11.2251296580876
 10
4.025702576425629
 20
27.7660351476136
 30
0.0
 41
0.8560172248609055
 10
4.143437720658649
 20
28.2779776630781
 30
0.0
 41
0.8560172248609056
 10
4.261172864891669
 20
28.78992017854261
 30
0.0
 41
0.8560172248609057
  0
SPLINE
  5
14C
330
1F
100
AcDbEntity
  8
2D DXF
370
    -3
100
AcDbSpline
210
0.0
220
0.0
230
1.0
 70
     8
 71
     2
 72
     9
 73
     6
 74
     0
 42
0.0000000001
 43
0.0000000001
 40
6.173149747773035
 40
6.173149747773035
 40
6.173149747773035
 40
7.173153238922044
 40
8.173156730071053
 40
9.173160221220064
 40
10.17314974777304
 40
10.17314974777304
 40
10.17314974777304
 10
3.799214793547279
 20
27.52876126736852
 30
0.0
 10
3.843464978491014
 20
27.53294144387219
 30
0.0
 10
3.919698412987557
 20
27.5779242931735
 30
0.0
 10
3.977413187629409
 20
27.64435566838615
 30
0.0
 10
4.016317563925284
 20
27.72312862253715
 30
0.0
 10
4.025702576425672
 20
27.76603514761358
 30
0.0
  0
LINE
  5
14D
330
1F
100
AcDbEntity
  8
2D DXF
370
    -3
100
AcDbLine
 10
3.360115453933147
 20
27.48374703159658
 30
0.0
 11
3.799214793547279
 21
27.52876126736852
 31
0.0
  0
LINE
  5
14E
330
1F
100
AcDbEntity
  8
2D DXF
370
    -3
100
AcDbLine
 10
2.857400712520146
 20
27.53300024683381
 30
0.0
 11
3.360115453933147
 21
27.48374703159658
 31
0.0
  0
SPLINE
  5
14F
330
1F
100
AcDbEntity
  8
2D DXF
370
    -3
100
AcDbSpline
210
0.0
220
0.0
230
1.0
 70
     8
 71
     2
 72
     9
 73
     6
 74
     0
 42
0.0000000001
 43
0.0000000001
 40
1.22662736504897
 40
1.22662736504897
 40
1.22662736504897
 40
2.22662736504897
 40
3.226627365048969
 40
4.226627365048969
 40
5.226627365048969
 40
5.226627365048969
 40
5.226627365048969
 10
2.654667737996718
 20
27.73960692067924
 30
0.0
 10
2.663478827345116
 20
27.70186372840881
 30
0.0
 10
2.697900964573492
 20
27.63232901238528
 30
0.0
 10
2.749916591738909
 20
27.57447776181867
 30
0.0
 10
2.818540706583647
 20
27.53726043208742
 30
0.0
 10
2.857400712520146
 20
27.53300024683381
 30
0.0
  0
SPLINE
  5
150
330
1F
100
AcDbEntity
  8
2D DXF
370
    -3
100
AcDbSpline
210
0.0
220
0.0
230
1.0
 70
    28
 71
     2
 72
     6
 73
     3
 74
     0
 42
0.0000000001
 43
0.0000000001
 40
0.7984423683647881
 40
0.7984423683647881
 40
0.7984423683647881
 40
1.22662736504897
 40
1.22662736504897
 40
1.22662736504897
 10
2.557474735436173
 20
28.14839213185239
 30
0.0
 41
0.8563898439284926
 10
2.606071236716458
 20
27.94399952626581
 30
0.0
 41
0.8563898439284932
 10
2.654667737996744
 20
27.73960692067923
 30
0.0
 41
0.8563898439284937
  0
SPLINE
  5
151
330
1F
100
AcDbEntity
  8
2D DXF
370
    -3
100
AcDbSpline
210
0.0
220
0.0
230
1.0
 70
    28
 71
     2
 72
     6
 73
     3
 74
     0
 42
0.0000000001
 43
0.0000000001
 40
10.18033768239874
 40
10.18033768239874
 40
10.18033768239874
 40
10.59986979928274
 40
10.59986979928274
 40
10.59986979928274
 10
4.025564955394224
 20
28.43840191105083
 30
0.0
 41
0.8563898439579778
 10
4.072514533109017
 20
28.63586732491797
 30
0.0
 41
0.8563898439579778
 10
4.119464110823809
 20
28.8333327387851
 30
0.0
 41
0.8563898439579779
  0
SPLINE
  5
152
330
1F
100
AcDbEntity
  8
2D DXF
370
    -3
100
AcDbSpline
210
0.0
220
0.0
230
1.0
 70
     8
 71
     2
 72
     9
 73
     6
 74
     0
 42
0.0000000001
 43
0.0000000001
 40
6.180337682398743
 40
6.180337682398743
 40
6.180337682398743
 40
7.180442332011739
 40
8.180546981624735
 40
9.18065163123773
 40
10.18033768239874
 40
10.18033768239874
 40
10.18033768239874
 10
3.823328754007562
 20
28.23150804954551
 30
0.0
 10
3.862164749088791
 20
28.235839502451
 30
0.0
 10
3.930266231443127
 20
28.27377318021347
 30
0.0
 10
3.98242306904406
 20
28.331319419816
 30
0.0
 10
4.01712571505125
 20
28.40061312611734
 30
0.0
 10
4.025564955394273
 20
28.43840191105083
 30
0.0
  0
LINE
  5
153
330
1F
100
AcDbEntity
  8
2D DXF
370
    -3
100
AcDbLine
 10
3.32011335985159
 20
28.1825248815278
 30
0.0
 11
3.823328754007562
 21
28.23150804954551
 31
0.0
  0
LINE
  5
154
330
1F
100
AcDbEntity
  8
2D DXF
370
    -3
100
AcDbLine
 10
2.880347110949813
 20
28.22759943316159
 30
0.0
 11
3.32011335985159
 21
28.1825248815278
 31
0.0
  0
SPLINE
  5
155
330
1F
100
AcDbEntity
  8
2D DXF
370
    -3
100
AcDbSpline
210
0.0
220
0.0
230
1.0
 70
     8
 71
     2
 72
     9
 73
     6
 74
     0
 42
0.0000000001
 43
0.0000000001
 40
1.232673681168818
 40
1.232673681168818
 40
1.232673681168818
 40
2.232671278259504
 40
3.232672079229276
 40
4.232672880199047
 40
5.232673681168818
 40
5.232673681168818
 40
5.232673681168818
 10
2.654526439981808
 20
28.46481207262592
 30
0.0
 10
2.664260926565319
 20
28.42211556423014
 30
0.0
 10
2.702541658218095
 20
28.3432601968027
 30
0.0
 10
2.760038745789601
 20
28.27685954938202
 30
0.0
 10
2.836345073081546
 20
28.23245032290473
 30
0.0
 10
2.880347110949813
 20
28.22759943316159
 30
0.0
  0
SPLINE
  5
156
330
1F
100
AcDbEntity
  8
2D DXF
370
    -3
100
AcDbSpline
210
0.0
220
0.0
230
1.0
 70
    28
 71
     2
 72
     6
 73
     3
 74
     0
 42
0.0000000001
 43
0.0000000001
 40
0.6892278622060378
 40
0.6892278622060378
 40
0.6892278622060378
 40
1.232673681168818
 40
1.232673681168818
 40
1.232673681168818
 10
2.53288398342934
 20
28.99374456634133
 30
0.0
 41
0.8560172248711451
 10
2.593705211705603
 20
28.72927831948363
 30
0.0
 41
0.8560172248711454
 10
2.654526439981866
 20
28.46481207262593
 30
0.0
 41
0.8560172248711457
  0
SPLINE
  5
157
330
1F
100
AcDbEntity
  8
2D DXF
370
    -3
100
AcDbSpline
210
0.0
220
0.0
230
1.0
 70
    28
 71
     2
 72
     6
 73
     3
 74
     0
 42
0.0000000001
 43
0.0000000001
 40
4.610333950763096
 40
4.610333950763096
 40
4.610333950763096
 40
5.008596212091838
 40
5.008596212091838
 40
5.008596212091838
 10
3.518655913656417
 20
27.81904178098776
 30
0.0
 41
1.0
 10
3.549024369377022
 20
28.01434039406664
 30
0.0
 41
1.0
 10
3.579392825097628
 20
28.20963900714551
 30
0.0
 41
1.0
  0
SPLINE
  5
158
330
1F
100
AcDbEntity
  8
2D DXF
370
    -3
100
AcDbSpline
210
0.0
220
0.0
230
1.0
 70
     8
 71
     2
 72
     9
 73
     6
 74
     0
 42
0.0000000001
 43
0.0000000001
 40
0.6103339507630958
 40
0.6103339507630958
 40
0.6103339507630958
 40
1.610333950763096
 40
2.610333950763096
 40
3.610333950763096
 40
4.610333950763096
 40
4.610333950763096
 40
4.610333950763096
 10
3.320123571198863
 20
27.57817217737106
 30
0.0
 10
3.362614247574314
 20
27.5826202617889
 30
0.0
 10
3.432020926328462
 20
27.63147951236665
 30
0.0
 10
3.481325995399473
 20
27.69957852613767
 30
0.0
 10
3.512298264860831
 20
27.77758039274248
 30
0.0
 10
3.518655913656417
 20
27.81904178098776
 30
0.0
  0
SPLINE
  5
159
330
1F
100
AcDbEntity
  8
2D DXF
370
    -3
100
AcDbSpline
210
0.0
220
0.0
230
1.0
 70
    24
 71
     2
 72
     6
 73
     3
 74
     0
 42
0.0000000001
 43
0.0000000001
 40
-0.0000000000000012
 40
-0.0000000000000012
 40
-0.0000000000000012
 40
0.6103339507630958
 40
0.6103339507630958
 40
0.6103339507630958
 10
2.888456503376872
 20
27.53307071042634
 30
0.0
 10
3.104290037287868
 20
27.5556214438987
 30
0.0
 10
3.320123571198863
 20
27.57817217737106
 30
0.0
  0
SPLINE
  5
15A
330
1F
100
AcDbEntity
  8
2D DXF
370
    -3
100
AcDbSpline
210
0.0
220
0.0
230
1.0
 70
    24
 71
     2
 72
     6
 73
     3
 74
     0
 42
0.0000000001
 43
0.0000000001
 40
4.003985166117586
 40
4.003985166117586
 40
4.003985166117586
 40
4.614319116880683
 40
4.614319116880683
 40
4.614319116880683
 10
3.360105242586499
 20
28.27695003873417
 30
0.0
 10
3.575938776497324
 20
28.25439930526009
 30
0.0
 10
3.791772310408149
 20
28.231848571786
 30
0.0
  0
SPLINE
  5
15B
330
1F
100
AcDbEntity
  8
2D DXF
370
    -3
100
AcDbSpline
210
0.0
220
0.0
230
1.0
 70
     8
 71
     2
 72
     9
 73
     6
 74
     0
 42
0.0000000001
 43
0.0000000001
 40
0.0039851661175855
 40
0.0039851661175855
 40
0.0039851661175855
 40
1.003985166117586
 40
2.003985166117586
 40
3.003985166117586
 40
4.003985166117586
 40
4.003985166117586
 40
4.003985166117586
 10
3.161572897450085
 20
28.51781964221708
 30
0.0
 10
3.168296982078189
 20
28.47645210033562
 30
0.0
 10
3.19886806230933
 20
28.39833806388627
 30
0.0
 10
3.247904168681728
 20
28.33001041860008
 30
0.0
 10
3.317784244308385
 20
28.281954025118
 30
0.0
 10
3.360105242586499
 20
28.27695003873417
 30
0.0
  0
SPLINE
  5
15C
330
1F
100
AcDbEntity
  8
2D DXF
370
    -3
100
AcDbSpline
210
0.0
220
0.0
230
1.0
 70
    28
 71
     2
 72
     6
 73
     3
 74
     0
 42
0.0000000001
 43
0.0000000001
 40
-0.5528646837850709
 40
-0.5528646837850709
 40
-0.5528646837850709
 40
0.0039851661175855
 40
0.0039851661175855
 40
0.0039851661175855
 10
3.076650609042942
 20
29.06395224828604
 30
0.0
 41
1.0
 10
3.119111753246484
 20
28.79088594525156
 30
0.0
 41
1.0
 10
3.161572897450027
 20
28.51781964221708
 30
0.0
 41
1.0
  0
SPLINE
  5
15D
330
1F
100
AcDbEntity
  8
2D DXF
370
    -3
100
AcDbSpline
210
0.0
220
0.0
230
1.0
 70
    24
 71
     2
 72
     6
 73
     3
 74
     0
 42
0.0000000001
 43
0.0000000001
 40
0.000000000000001
 40
0.000000000000001
 40
0.000000000000001
 40
0.6103339507630969
 40
0.6103339507630969
 40
0.6103339507630969
 10
2.88844629202994
 20
28.22762634847595
 30
0.0
 10
3.104279825940765
 20
28.20507561500187
 30
0.0
 10
3.32011335985159
 20
28.1825248815278
 30
0.0
  0
SPLINE
  5
15E
330
1F
100
AcDbEntity
  8
2D DXF
370
    -3
100
AcDbSpline
210
0.0
220
0.0
230
1.0
 70
    12
 71
     2
 72
     6
 73
     3
 74
     0
 42
0.0000000001
 43
0.0000000001
 40
0.0931404683516954
 40
0.0931404683516954
 40
0.0931404683516954
 40
0.1158637182037069
 40
0.1158637182037069
 40
0.1158637182037069
 10
3.382741925955685
 20
27.48802557712512
 30
0.0
 41
0.8892833237614565
 10
3.375858198641871
 20
27.48451814287133
 30
0.0
 41
0.9105152908287699
 10
3.3684287662144
 20
27.48374190042349
 30
0.0
 41
0.9486969526683089
  0
SPLINE
  5
15F
330
1F
100
AcDbEntity
  8
2D DXF
370
    -3
100
AcDbSpline
210
0.0
220
0.0
230
1.0
 70
     8
 71
     3
 72
     8
 73
     4
 74
     0
 42
0.0000000001
 43
0.0000000001
 40
2.044911702315788
 40
2.044911702315788
 40
2.044911702315788
 40
2.044911702315788
 40
2.115874797478824
 40
2.115874797478824
 40
2.115874797478824
 40
2.115874797478824
 10
2.691924437326307
 20
29.00885163820014
 30
0.0
 10
2.688198867189229
 20
29.01152795595016
 30
0.0
 10
2.686286674230203
 20
29.01437276927855
 30
0.0
 10
2.686335109184327
 20
29.0173953398867
 30
0.0
  0
SPLINE
  5
160
330
1F
100
AcDbEntity
  8
2D DXF
370
    -3
100
AcDbSpline
210
0.0
220
0.0
230
1.0
 70
    28
 71
     3
 72
     8
 73
     4
 74
     0
 42
0.0000000001
 43
0.0000000001
 40
1.99450461069922
 40
1.99450461069922
 40
1.99450461069922
 40
1.99450461069922
 40
5.584448213357721
 40
5.584448213357721
 40
5.584448213357721
 40
5.584448213357721
 10
2.603524522511244
 20
28.68807802128905
 30
0.0
 41
0.8566589076371487
 10
1.757554557301781
 20
28.59961081248371
 30
0.0
 41
0.8566589076371486
 10
0.9115845920924177
 20
28.51114360367842
 30
0.0
 41
0.8566589076371487
 10
0.0656146268831206
 20
28.42267639487314
 30
0.0
 41
0.8566589076371488
  0
SPLINE
  5
161
330
1F
100
AcDbEntity
  8
2D DXF
370
    -3
100
AcDbSpline
210
0.0
220
0.0
230
1.0
 70
    28
 71
     3
 72
     8
 73
     4
 74
     0
 42
0.0000000001
 43
0.0000000001
 40
0.1480224217458351
 40
0.1480224217458351
 40
0.1480224217458351
 40
0.1480224217458351
 40
0.8593290760227089
 40
0.8593290760227089
 40
0.8593290760227089
 40
0.8593290760227089
 10
4.693289513285595
 20
28.21247129187138
 30
0.0
 41
0.8547228508968872
 10
4.49561834497017
 20
28.17093643083519
 30
0.0
 41
0.8547228508968868
 10
4.297947176655748
 20
28.12940156979919
 30
0.0
 41
0.854722850896887
 10
4.100276008340055
 20
28.08786670876293
 30
0.0
 41
0.8547228508968873
  0
SPLINE
  5
162
330
1F
100
AcDbEntity
  8
2D DXF
370
    -3
100
AcDbSpline
210
0.0
220
0.0
230
1.0
 70
     8
 71
     3
 72
     8
 73
     4
 74
     0
 42
0.0000000001
 43
0.0000000001
 40
2.705597747790026
 40
2.705597747790026
 40
2.705597747790026
 40
2.705597747790026
 40
2.723204868881017
 40
2.723204868881017
 40
2.723204868881017
 40
2.723204868881017
 10
5.459581043781284
 20
29.64213535958939
 30
0.0
 10
5.462942261231504
 20
29.64179529068547
 30
0.0
 10
5.466301456099202
 20
29.64146534654228
 30
0.0
 10
5.46965843042814
 20
29.64114541397139
 30
0.0
  0
SPLINE
  5
163
330
1F
100
AcDbEntity
  8
2D DXF
370
    -3
100
AcDbSpline
210
0.0
220
0.0
230
1.0
 70
     8
 71
     3
 72
    29
 73
    25
 74
     0
 42
0.0000000001
 43
0.0000000001
 40
0.0
 40
0.0
 40
0.0
 40
0.0
 40
1.0
 40
2.0
 40
3.0
 40
4.0
 40
5.0
 40
6.0
 40
7.0
 40
8.0
 40
9.0
 40
10.0
 40
11.0
 40
12.0
 40
13.0
 40
14.0
 40
15.0
 40
16.0
 40
17.0
 40
18.0
 40
19.0
 40
20.0
 40
21.0
 40
22.0
 40
22.0
 40
22.0
 40
22.0
 10
0.00067591995942
 20
28.85424377721633
 30
0.0
 10
-0.132556080992444
 20
28.85424199403505
 30
0.0
 10
-0.3970430322412284
 20
28.85615997351388
 30
0.0
 10
-0.7936847834040321
 20
28.86508833942446
 30
0.0
 10
-1.190129390858644
 20
28.88050517299918
 30
0.0
 10
-1.586237553865814
 20
28.90301190899272
 30
0.0
 10
-1.981832248436248
 20
28.93328663628454
 30
0.0
 10
-2.376671176441036
 20
28.97223842835653
 30
0.0
 10
-2.770473859352407
 20
29.02060146820959
 30
0.0
 10
-3.162884736860903
 20
29.07922129212936
 30
0.0
 10
-3.553545527421363
 20
29.14857268182958
 30
0.0
 10
-3.942085736022364
 20
29.22896922309059
 30
0.0
 10
-4.328249278820465
 20
29.32006266119424
 30
0.0
 10
-4.712123803536201
 20
29.42033320688215
 30
0.0
 10
-5.093843730979415
 20
29.52850021162415
 30
0.0
 10
-5.473385590055557
 20
29.64406902755705
 30
0.0
 10
-5.850767251162381
 20
29.76650199661421
 30
0.0
 10
-6.225904025584498
 20
29.89566913244191
 30
0.0
 10
-6.601698120061144
 20
30.02265744543941
 30
0.0
 10
-6.980246498138115
 20
30.14229509196501
 30
0.0
 10
-7.361334519922764
 20
30.2495822883479
 30
0.0
 10
-7.750918767557891
 20
30.34110213009532
 30
0.0
 10
-8.13360492051379
 20
30.38917780924417
 30
0.0
 10
-8.427074792331666
 20
30.39316508056906
 30
0.0
 10
-8.498324822966367
 20
30.27139982250263
 30
0.0
  0
SPLINE
  5
164
330
1F
100
AcDbEntity
  8
2D DXF
370
    -3
100
AcDbSpline
210
0.0
220
0.0
230
1.0
 70
     8
 71
     3
 72
    29
 73
    25
 74
     0
 42
0.0000000001
 43
0.0000000001
 40
-22.0
 40
-22.0
 40
-22.0
 40
-22.0
 40
-21.0
 40
-20.0
 40
-19.0
 40
-18.0
 40
-17.0
 40
-16.0
 40
-15.0
 40
-14.0
 40
-13.0
 40
-12.0
 40
-11.0
 40
-10.0
 40
-9.0
 40
-8.0
 40
-7.0
 40
-6.0
 40
-5.0
 40
-4.0
 40
-3.0
 40
-2.0
 40
-1.0
 40
0.0
 40
0.0
 40
0.0
 40
0.0
 10
8.499676662885193
 20
30.27139982250263
 30
0.0
 10
8.428426632250492
 20
30.39316508056906
 30
0.0
 10
8.134956760432615
 20
30.38917780924417
 30
0.0
 10
7.752270607476717
 20
30.34110213009532
 30
0.0
 10
7.362686359841589
 20
30.2495822883479
 30
0.0
 10
6.981598338056941
 20
30.14229509196501
 30
0.0
 10
6.60304995997997
 20
30.02265744543941
 30
0.0
 10
6.227255865503324
 20
29.89566913244191
 30
0.0
 10
5.852119091081207
 20
29.76650199661421
 30
0.0
 10
5.474737429974383
 20
29.64406902755705
 30
0.0
 10
5.095195570898241
 20
29.52850021162415
 30
0.0
 10
4.713475643455027
 20
29.42033320688215
 30
0.0
 10
4.329601118739291
 20
29.32006266119424
 30
0.0
 10
3.943437575941189
 20
29.22896922309059
 30
0.0
 10
3.554897367340189
 20
29.14857268182958
 30
0.0
 10
3.164236576779743
 20
29.07922129212936
 30
0.0
 10
2.771825699271247
 20
29.02060146820959
 30
0.0
 10
2.378023016359876
 20
28.97223842835653
 30
0.0
 10
1.983184088355088
 20
28.93328663628454
 30
0.0
 10
1.587589393784654
 20
28.90301190899272
 30
0.0
 10
1.191481230777484
 20
28.88050517299918
 30
0.0
 10
0.7950366233228721
 20
28.86508833942446
 30
0.0
 10
0.3983948721600683
 20
28.85615997351388
 30
0.0
 10
0.1339079209112839
 20
28.85424199403505
 30
0.0
 10
0.00067591995942
 20
28.85424377721633
 30
0.0
  0
SPLINE
  5
165
330
1F
100
AcDbEntity
  8
2D DXF
370
    -3
100
AcDbSpline
210
0.0
220
0.0
230
1.0
 70
    11
 71
     3
 72
    65
 73
    61
 74
     0
 42
0.0000000001
 43
0.0000000001
 40
0.0
 40
0.0
 40
0.0
 40
0.0
 40
1.0
 40
2.0
 40
3.0
 40
4.0
 40
5.0
 40
6.0
 40
7.0
 40
8.0
 40
9.0
 40
10.0
 40
11.0
 40
12.0
 40
13.0
 40
13.0
 40
13.0
 40
14.0
 40
15.0
 40
16.0
 40
17.0
 40
18.0
 40
19.0
 40
20.0
 40
21.0
 40
22.0
 40
23.0
 40
24.0
 40
25.0
 40
26.0
 40
26.0
 40
26.0
 40
27.0
 40
28.0
 40
29.0
 40
30.0
 40
31.0
 40
32.0
 40
33.0
 40
34.0
 40
35.0
 40
36.0
 40
37.0
 40
38.0
 40
39.0
 40
39.0
 40
39.0
 40
40.0
 40
41.0
 40
42.0
 40
43.0
 40
44.0
 40
45.0
 40
46.0
 40
47.0
 40
48.0
 40
49.0
 40
50.0
 40
51.0
 40
52.0
 40
52.0
 40
52.0
 40
52.0
 10
0.0001195125659734
 20
31.30004421476259
 30
0.0
 10
-0.2847807577916655
 20
31.30004421476259
 30
0.0
 10
-0.9594334386107874
 20
31.32576216440985
 30
0.0
 10
-1.809314631973038
 20
31.42206380523531
 30
0.0
 10
-2.648775244592443
 20
31.58695175835179
 30
0.0
 10
-3.470121261559427
 20
31.82664210017884
 30
0.0
 10
-4.265345017497168
 20
32.14279505013901
 30
0.0
 10
-5.022771746970534
 20
32.54174948070728
 30
0.0
 10
-5.72730976061689
 20
33.02866036282576
 30
0.0
 10
-6.360992190441891
 20
33.60532900254772
 30
0.0
 10
-6.904177367306147
 20
34.26847953159007
 30
0.0
 10
-7.337430688332063
 20
35.00831947518422
 30
0.0
 10
-7.649525545145252
 20
35.80684788552242
 30
0.0
 10
-7.833854320966225
 20
36.64398306991141
 30
0.0
 10
-7.873122127286592
 20
37.21820025143943
 30
0.0
 10
-7.874239636738821
 20
37.50307647349628
 30
0.0
 10
-7.875289094642881
 20
37.77060495150198
 30
0.0
 10
-7.844001142528327
 20
38.30945047502614
 30
0.0
 10
-7.702360347255535
 20
39.10206139253917
 30
0.0
 10
-7.43885940562825
 20
39.85939655473027
 30
0.0
 10
-7.023585174384323
 20
40.56641373566828
 30
0.0
 10
-6.342134695163963
 20
41.01031028049137
 30
0.0
 10
-5.581911579341067
 20
41.27561211420321
 30
0.0
 10
-4.799638395546481
 20
41.45579713540077
 30
0.0
 10
-4.005789326271838
 20
41.57553815006428
 30
0.0
 10
-3.207462343362579
 20
41.65682330655007
 30
0.0
 10
-2.406708318194021
 20
41.70894047596069
 30
0.0
 10
-1.60487776676699
 20
41.73878838742694
 30
0.0
 10
-0.8026377346104567
 20
41.7527192882434
 30
0.0
 10
-0.2677438058251909
 20
41.75465589113516
 30
0.0
 10
0.0001195125659734
 20
41.75465306641638
 30
0.0
 10
0.2679828309571377
 20
41.75465589113516
 30
0.0
 10
0.8028767597424036
 20
41.7527192882434
 30
0.0
 10
1.605116791898936
 20
41.73878838742694
 30
0.0
 10
2.406947343325967
 20
41.70894047596069
 30
0.0
 10
3.207701368494511
 20
41.65682330655007
 30
0.0
 10
4.006028351403771
 20
41.57553815006428
 30
0.0
 10
4.799877420678413
 20
41.45579713540077
 30
0.0
 10
5.582150604473
 20
41.27561211420321
 30
0.0
 10
6.342373720295896
 20
41.01031028049137
 30
0.0
 10
7.023824199516255
 20
40.56641373566828
 30
0.0
 10
7.439098430760183
 20
39.85939655473027
 30
0.0
 10
7.702599372387468
 20
39.10206139253917
 30
0.0
 10
7.84424016766026
 20
38.30945047502614
 30
0.0
 10
7.875528119774756
 20
37.77060495150198
 30
0.0
 10
7.874478661870754
 20
37.50307647349628
 30
0.0
 10
7.873361152418582
 20
37.21820025143943
 30
0.0
 10
7.834093346098157
 20
36.64398306991141
 30
0.0
 10
7.649764570277185
 20
35.80684788552242
 30
0.0
 10
7.337669713463995
 20
35.00831947518422
 30
0.0
 10
6.90441639243808
 20
34.26847953159007
 30
0.0
 10
6.361231215573824
 20
33.60532900254772
 30
0.0
 10
5.727548785748823
 20
33.02866036282576
 30
0.0
 10
5.023010772102467
 20
32.54174948070728
 30
0.0
 10
4.265584042629101
 20
32.14279505013901
 30
0.0
 10
3.47036028669136
 20
31.82664210017884
 30
0.0
 10
2.64901426972439
 20
31.58695175835179
 30
0.0
 10
1.809553657104985
 20
31.42206380523531
 30
0.0
 10
0.9596724637427343
 20
31.32576216440985
 30
0.0
 10
0.2850197829236123
 20
31.30004421476259
 30
0.0
 10
0.0001195125659734
 20
31.30004421476259
 30
0.0
  0
ENDSEC
  0
SECTION
  2
OBJECTS
  0
DICTIONARY
  5
C
330
0
100
AcDbDictionary
281
     1
  3
ACAD_DETAILVIEWSTYLE
350
1A1
  3
ACAD_GROUP
350
D
  3
ACAD_LAYOUT
350
1A
  3
ACAD_MATERIAL
350
43
  3
ACAD_MLEADERSTYLE
350
5B
  3
ACAD_MLINESTYLE
350
17
  3
ACAD_PLOTSETTINGS
350
19
  3
ACAD_PLOTSTYLENAME
350
E
  3
ACAD_SCALELIST
350
47
  3
ACAD_SECTIONVIEWSTYLE
350
1A2
  3
ACAD_TABLESTYLE
350
59
  3
ACAD_VISUALSTYLE
350
2A
  3
ACDB_RECOMPOSE_DATA
350
19E
  3
AcDbVariableDictionary
350
166
  0
SUN
  5
5D
330
29
100
AcDbSun
 90
        1
290
     0
 63
     7
421
 16777215
 40
1.0
291
     1
 91
  2455826
 92
 54000000
292
     0
 70
     2
 71
   256
280
     1
  0
DICTIONARY
  5
1A1
102
{ACAD_REACTORS
330
C
102
}
330
C
100
AcDbDictionary
281
     1
  0
DICTIONARY
  5
D
102
{ACAD_REACTORS
330
C
102
}
330
C
100
AcDbDictionary
281
     1
  0
DICTIONARY
  5
1A
102
{ACAD_REACTORS
330
C
102
}
330
C
100
AcDbDictionary
281
     1
  3
Layout1
350
1E
  3
Layout2
350
26
  3
Model
350
22
  0
DICTIONARY
  5
43
102
{ACAD_REACTORS
330
C
102
}
330
C
100
AcDbDictionary
281
     1
  3
ByBlock
350
45
  3
ByLayer
350
44
  3
Global
350
46
  0
DICTIONARY
  5
5B
102
{ACAD_REACTORS
330
C
102
}
330
C
100
AcDbDictionary
281
     1
  3
Standard
350
5C
  0
DICTIONARY
  5
17
102
{ACAD_REACTORS
330
C
102
}
330
C
100
AcDbDictionary
281
     1
  3
Standard
350
18
  0
DICTIONARY
  5
19
102
{ACAD_REACTORS
330
C
102
}
330
C
100
AcDbDictionary
281
     1
  0
ACDBDICTIONARYWDFLT
  5
E
102
{ACAD_REACTORS
330
C
102
}
330
C
100
AcDbDictionary
281
     1
  3
Normal
350
F
100
AcDbDictionaryWithDefault
340
F
  0
DICTIONARY
  5
47
102
{ACAD_REACTORS
330
C
102
}
330
C
100
AcDbDictionary
281
     1
  3
A0
350
48
  3
A1
350
49
  3
A2
350
4A
  3
A3
350
4B
  3
A4
350
4C
  3
A5
350
4D
  3
A6
350
4E
  3
A7
350
4F
  3
A8
350
50
  3
A9
350
51
  3
B1
350
52
  3
B2
350
53
  3
B3
350
54
  3
B4
350
55
  3
B5
350
56
  3
B6
350
57
  3
B7
350
58
  0
DICTIONARY
  5
1A2
102
{ACAD_REACTORS
330
C
102
}
330
C
100
AcDbDictionary
281
     1
  0
DICTIONARY
  5
59
102
{ACAD_REACTORS
330
C
102
}
330
C
100
AcDbDictionary
281
     1
  3
Standard
350
5A
  0
DICTIONARY
  5
2A
102
{ACAD_REACTORS
330
C
102
}
330
C
100
AcDbDictionary
281
     1
  3
2dWireframe
350
2F
  3
Basic
350
32
  3
Brighten
350
36
  3
ColorChange
350
3A
  3
Conceptual
350
34
  3
Dim
350
35
  3
EdgeColorOff
350
3D
  3
Facepattern
350
39
  3
Flat
350
2B
  3
FlatWithEdges
350
2C
  3
Gouraud
350
2D
  3
GouraudWithEdges
350
2E
  3
Hidden
350
31
  3
JitterOff
350
3B
  3
Linepattern
350
38
  3
OverhangOff
350
3C
  3
Realistic
350
33
  3
Shaded
350
42
  3
Shaded with edges
350
41
  3
Shades of Gray
350
3E
  3
Sketchy
350
3F
  3
Thicken
350
37
  3
Wireframe
350
30
  3
X-Ray
350
40
  0
XRECORD
  5
19E
102
{ACAD_REACTORS
330
C
102
}
330
C
100
AcDbXrecord
280
     1
 90
        1
330
5A
  0
DICTIONARY
  5
166
102
{ACAD_REACTORS
330
C
102
}
330
C
100
AcDbDictionary
281
     1
  3
CANNOSCALE
350
167
  3
CMLEADERSTYLE
350
1A0
  3
CTABLESTYLE
350
19F
  3
XCLIPFRAME
350
168
  0
LAYOUT
  5
1E
102
{ACAD_REACTORS
330
1A
102
}
330
1A
100
AcDbPlotSettings
  1

  2
none_device
  4

  6

 40
0.0
 41
0.0
 42
0.0
 43
0.0
 44
0.0
 45
0.0
 46
0.0
 47
0.0
 48
0.0
 49
0.0
140
0.0
141
0.0
142
1.0
143
1.0
 70
   688
 72
     0
 73
     0
 74
     5
  7

 75
    16
 76
     0
 77
     2
 78
   300
147
1.0
148
0.0
149
0.0
100
AcDbLayout
  1
Layout1
 70
     1
 71
     1
 10
0.0
 20
0.0
 11
12.0
 21
9.0
 12
0.0
 22
0.0
 32
0.0
 14
1.000000000000000E+20
 24
1.000000000000000E+20
 34
1.000000000000000E+20
 15
-1.000000000000000E+20
 25
-1.000000000000000E+20
 35
-1.000000000000000E+20
146
0.0
 13
0.0
 23
0.0
 33
0.0
 16
1.0
 26
0.0
 36
0.0
 17
0.0
 27
1.0
 37
0.0
 76
     0
330
1B
  0
LAYOUT
  5
26
102
{ACAD_REACTORS
330
1A
102
}
330
1A
100
AcDbPlotSettings
  1

  2
none_device
  4

  6

 40
0.0
 41
0.0
 42
0.0
 43
0.0
 44
0.0
 45
0.0
 46
0.0
 47
0.0
 48
0.0
 49
0.0
140
0.0
141
0.0
142
1.0
143
1.0
 70
   688
 72
     0
 73
     0
 74
     5
  7

 75
    16
 76
     0
 77
     2
 78
   300
147
1.0
148
0.0
149
0.0
100
AcDbLayout
  1
Layout2
 70
     1
 71
     2
 10
0.0
 20
0.0
 11
0.0
 21
0.0
 12
0.0
 22
0.0
 32
0.0
 14
0.0
 24
0.0
 34
0.0
 15
0.0
 25
0.0
 35
0.0
146
0.0
 13
0.0
 23
0.0
 33
0.0
 16
1.0
 26
0.0
 36
0.0
 17
0.0
 27
1.0
 37
0.0
 76
     0
330
23
  0
LAYOUT
  5
22
102
{ACAD_REACTORS
330
1A
102
}
330
1A
100
AcDbPlotSettings
  1

  2
none_device
  4
Letter_(8.50_x_11.00_Inches)
  6

 40
6.35
 41
6.35
 42
6.35000508
 43
6.35000508
 44
215.9
 45
279.4
 46
0.0
 47
0.0
 48
0.0
 49
0.0
140
0.0
141
0.0
142
1.0
143
1.0
 70
  1712
 72
     0
 73
     0
 74
     0
  7

 75
     0
 76
     0
 77
     2
 78
   300
147
1.0
148
0.0
149
0.0
100
AcDbLayout
  1
Model
 70
     1
 71
     0
 10
0.0
 20
0.0
 11
12.0
 21
9.0
 12
0.0
 22
0.0
 32
0.0
 14
1.000000000000000E+20
 24
1.000000000000000E+20
 34
1.000000000000000E+20
 15
-1.000000000000000E+20
 25
-1.000000000000000E+20
 35
-1.000000000000000E+20
146
0.0
 13
0.0
 23
0.0
 33
0.0
 16
1.0
 26
0.0
 36
0.0
 17
0.0
 27
1.0
 37
0.0
 76
     0
330
1F
331
29
  0
MATERIAL
  5
45
102
{ACAD_REACTORS
330
43
102
}
330
43
100
AcDbMaterial
  1
ByBlock
 72
     1
 94
      127
  0
MATERIAL
  5
44
102
{ACAD_REACTORS
330
43
102
}
330
43
100
AcDbMaterial
  1
ByLayer
 72
     1
 94
      127
  0
MATERIAL
  5
46
102
{ACAD_REACTORS
330
43
102
}
330
43
100
AcDbMaterial
  1
Global
 72
     1
 94
      127
  0
MLEADERSTYLE
  5
5C
102
{ACAD_REACTORS
330
5B
102
}
102
{ACAD_XDICTIONARY
360
19C
102
}
330
5B
100
AcDbMLeaderStyle
170
     2
171
     1
172
     0
 90
        2
 40
0.0
 41
0.0
173
     1
 91
-1056964608
340
14
 92
       -2
290
     1
 42
0.09
291
     1
 43
0.36
  3
Standard
341
0
 44
0.18
300

342
11
174
     1
178
     6
175
     1
176
     0
 93
-1056964608
 45
0.18
292
     0
297
     0
 46
0.18
343
0
 94
-1056964608
 47
1.0
 49
1.0
140
1.0
293
     1
141
0.0
294
     1
177
     0
142
1.0
295
     0
296
     0
143
0.125
1001
ACAD_MLEADERVER
1070
     2
  0
MLINESTYLE
  5
18
102
{ACAD_REACTORS
330
17
102
}
330
17
100
AcDbMlineStyle
  2
Standard
 70
     0
  3

 62
   256
 51
90.0
 52
90.0
 71
     2
 49
0.5
 62
   256
  6
BYLAYER
 49
-0.5
 62
   256
  6
BYLAYER
  0
ACDBPLACEHOLDER
  5
F
102
{ACAD_REACTORS
330
E
102
}
330
E
  0
SCALE
  5
48
102
{ACAD_REACTORS
330
47
102
}
330
47
100
AcDbScale
 70
     0
300
1:1
140
1.0
141
1.0
290
     1
  0
SCALE
  5
49
102
{ACAD_REACTORS
330
47
102
}
330
47
100
AcDbScale
 70
     0
300
1/128" = 1'-0"
140
0.0078125
141
12.0
290
     0
  0
SCALE
  5
4A
102
{ACAD_REACTORS
330
47
102
}
330
47
100
AcDbScale
 70
     0
300
1/64" = 1'-0"
140
0.015625
141
12.0
290
     0
  0
SCALE
  5
4B
102
{ACAD_REACTORS
330
47
102
}
330
47
100
AcDbScale
 70
     0
300
1/32" = 1'-0"
140
0.03125
141
12.0
290
     0
  0
SCALE
  5
4C
102
{ACAD_REACTORS
330
47
102
}
330
47
100
AcDbScale
 70
     0
300
1/16" = 1'-0"
140
0.0625
141
12.0
290
     0
  0
SCALE
  5
4D
102
{ACAD_REACTORS
330
47
102
}
330
47
100
AcDbScale
 70
     0
300
3/32" = 1'-0"
140
0.09375
141
12.0
290
     0
  0
SCALE
  5
4E
102
{ACAD_REACTORS
330
47
102
}
330
47
100
AcDbScale
 70
     0
300
1/8" = 1'-0"
140
0.125
141
12.0
290
     0
  0
SCALE
  5
4F
102
{ACAD_REACTORS
330
47
102
}
330
47
100
AcDbScale
 70
     0
300
3/16" = 1'-0"
140
0.1875
141
12.0
290
     0
  0
SCALE
  5
50
102
{ACAD_REACTORS
330
47
102
}
330
47
100
AcDbScale
 70
     0
300
1/4" = 1'-0"
140
0.25
141
12.0
290
     0
  0
SCALE
  5
51
102
{ACAD_REACTORS
330
47
102
}
330
47
100
AcDbScale
 70
     0
300
3/8" = 1'-0"
140
0.375
141
12.0
290
     0
  0
SCALE
  5
52
102
{ACAD_REACTORS
330
47
102
}
330
47
100
AcDbScale
 70
     0
300
1/2" = 1'-0"
140
0.5
141
12.0
290
     0
  0
SCALE
  5
53
102
{ACAD_REACTORS
330
47
102
}
330
47
100
AcDbScale
 70
     0
300
3/4" = 1'-0"
140
0.75
141
12.0
290
     0
  0
SCALE
  5
54
102
{ACAD_REACTORS
330
47
102
}
330
47
100
AcDbScale
 70
     0
300
1" = 1'-0"
140
1.0
141
12.0
290
     0
  0
SCALE
  5
55
102
{ACAD_REACTORS
330
47
102
}
330
47
100
AcDbScale
 70
     0
300
1-1/2" = 1'-0"
140
1.5
141
12.0
290
     0
  0
SCALE
  5
56
102
{ACAD_REACTORS
330
47
102
}
330
47
100
AcDbScale
 70
     0
300
3" = 1'-0"
140
3.0
141
12.0
290
     0
  0
SCALE
  5
57
102
{ACAD_REACTORS
330
47
102
}
330
47
100
AcDbScale
 70
     0
300
6" = 1'-0"
140
6.0
141
12.0
290
     0
  0
SCALE
  5
58
102
{ACAD_REACTORS
330
47
102
}
330
47
100
AcDbScale
 70
     0
300
1'-0" = 1'-0"
140
12.0
141
12.0
290
     0
  0
TABLESTYLE
  5
5A
102
{ACAD_REACTORS
330
59
102
}
102
{ACAD_XDICTIONARY
360
199
102
}
330
59
100
AcDbTableStyle
  3
Standard
 70
     0
 71
     0
 40
0.06
 41
0.06
280
     0
281
     0
  7
Standard
140
0.18
170
     2
 62
     0
 63
   257
283
     0
 90
        4
 91
        0
  1

274
    -2
284
     1
 64
     0
275
    -2
285
     1
 65
     0
276
    -2
286
     1
 66
     0
277
    -2
287
     1
 67
     0
278
    -2
288
     1
 68
     0
279
    -2
289
     1
 69
     0
  7
Standard
140
0.25
170
     5
 62
     0
 63
   257
283
     0
 90
        4
 91
        0
  1

274
    -2
284
     1
 64
     0
275
    -2
285
     1
 65
     0
276
    -2
286
     1
 66
     0
277
    -2
287
     1
 67
     0
278
    -2
288
     1
 68
     0
279
    -2
289
     1
 69
     0
  7
Standard
140
0.18
170
     5
 62
     0
 63
   257
283
     0
 90
        4
 91
        0
  1

274
    -2
284
     1
 64
     0
275
    -2
285
     1
 65
     0
276
    -2
286
     1
 66
     0
277
    -2
287
     1
 67
     0
278
    -2
288
     1
 68
     0
279
    -2
289
     1
 69
     0
  0
VISUALSTYLE
  5
2F
102
{ACAD_REACTORS
330
2A
102
}
102
{ACAD_XDICTIONARY
360
171
102
}
330
2A
100
AcDbVisualStyle
  2
2dWireframe
 70
     4
 71
     0
 72
     2
 73
     0
 90
        0
 40
0.6
 41
30.0
 62
     5
 63
     7
421
 16777215
 74
     1
 91
        4
 64
     7
 65
   257
 75
     1
175
     1
 42
1.0
 92
        0
 66
   257
 43
1.0
 76
     1
 77
     6
 78
     2
 67
     7
 79
     5
170
     0
171
     0
290
     0
174
     0
 93
        1
 44
0.0
173
     0
291
     0
 45
0.0
  0
VISUALSTYLE
  5
32
102
{ACAD_REACTORS
330
2A
102
}
102
{ACAD_XDICTIONARY
360
177
102
}
330
2A
100
AcDbVisualStyle
  2
Basic
 70
     7
 71
     1
 72
     0
 73
     1
 90
        0
 40
0.6
 41
30.0
 62
     5
 63
     7
421
 16777215
 74
     0
 91
        4
 64
     7
 65
   257
 75
     1
175
     1
 42
1.0
 92
        8
 66
     7
 43
1.0
 76
     1
 77
     6
 78
     2
 67
     7
 79
     5
170
     0
171
     0
290
     0
174
     0
 93
        1
 44
0.0
173
     0
291
     1
 45
0.0
  0
VISUALSTYLE
  5
36
102
{ACAD_REACTORS
330
2A
102
}
102
{ACAD_XDICTIONARY
360
17F
102
}
330
2A
100
AcDbVisualStyle
  2
Brighten
 70
    12
 71
     2
 72
     2
 73
     0
 90
        0
 40
0.6
 41
30.0
 62
     5
 63
     7
421
 16777215
 74
     1
 91
        4
 64
     7
 65
   257
 75
     1
175
     1
 42
1.0
 92
        8
 66
     7
 43
1.0
 76
     1
 77
     6
 78
     2
 67
     7
 79
     5
170
     0
171
     0
290
     0
174
     0
 93
        1
 44
50.0
173
     0
291
     1
 45
0.0
  0
VISUALSTYLE
  5
3A
102
{ACAD_REACTORS
330
2A
102
}
102
{ACAD_XDICTIONARY
360
187
102
}
330
2A
100
AcDbVisualStyle
  2
ColorChange
 70
    16
 71
     2
 72
     2
 73
     3
 90
        0
 40
0.6
 41
30.0
 62
     5
 63
     8
421
  8421504
 74
     1
 91
        4
 64
     7
 65
   257
 75
     1
175
     1
 42
1.0
 92
        8
 66
     8
424
  8421504
 43
1.0
 76
     1
 77
     6
 78
     2
 67
     7
 79
     5
170
     0
171
     0
290
     0
174
     0
 93
        1
 44
0.0
173
     0
291
     1
 45
0.0
  0
VISUALSTYLE
  5
34
102
{ACAD_REACTORS
330
2A
102
}
102
{ACAD_XDICTIONARY
360
17B
102
}
330
2A
100
AcDbVisualStyle
  2
Conceptual
 70
     9
 71
     3
 72
     2
 73
     0
 90
        0
 40
0.6
 41
30.0
 62
     5
 63
     7
421
 16777215
 74
     2
 91
        2
 64
     7
 65
   257
 75
     1
175
     1
 42
179.0
 92
        8
 66
     7
 43
1.0
 76
     1
 77
     6
 78
     2
 67
     7
 79
     3
170
     0
171
     0
290
     0
174
     0
 93
        1
 44
0.0
173
     0
291
     0
 45
0.0
  0
VISUALSTYLE
  5
35
102
{ACAD_REACTORS
330
2A
102
}
102
{ACAD_XDICTIONARY
360
17D
102
}
330
2A
100
AcDbVisualStyle
  2
Dim
 70
    11
 71
     2
 72
     2
 73
     0
 90
        0
 40
0.6
 41
30.0
 62
     5
 63
     7
421
 16777215
 74
     1
 91
        4
 64
     7
 65
   257
 75
     1
175
     1
 42
1.0
 92
        8
 66
     7
 43
1.0
 76
     1
 77
     6
 78
     2
 67
     7
 79
     5
170
     0
171
     0
290
     0
174
     0
 93
        1
 44
-50.0
173
     0
291
     1
 45
0.0
  0
VISUALSTYLE
  5
3D
102
{ACAD_REACTORS
330
2A
102
}
102
{ACAD_XDICTIONARY
360
18D
102
}
330
2A
100
AcDbVisualStyle
  2
EdgeColorOff
 70
    22
 71
     2
 72
     2
 73
     0
 90
        0
 40
0.6
 41
30.0
 62
     5
 63
     7
421
 16777215
 74
     1
 91
        4
 64
     7
 65
   257
 75
     1
175
     1
 42
1.0
 92
        8
 66
     7
 43
1.0
 76
     1
 77
     6
 78
     2
 67
     7
 79
     5
170
     0
171
     0
290
     0
174
     0
 93
        1
 44
0.0
173
     0
291
     1
 45
0.0
  0
VISUALSTYLE
  5
39
102
{ACAD_REACTORS
330
2A
102
}
102
{ACAD_XDICTIONARY
360
185
102
}
330
2A
100
AcDbVisualStyle
  2
Facepattern
 70
    15
 71
     2
 72
     2
 73
     0
 90
        0
 40
0.6
 41
30.0
 62
     5
 63
     7
421
 16777215
 74
     1
 91
        4
 64
     7
 65
   257
 75
     1
175
     1
 42
1.0
 92
        8
 66
     7
 43
1.0
 76
     1
 77
     6
 78
     2
 67
     7
 79
     5
170
     0
171
     0
290
     0
174
     0
 93
        1
 44
0.0
173
     0
291
     1
 45
0.0
  0
VISUALSTYLE
  5
2B
102
{ACAD_REACTORS
330
2A
102
}
102
{ACAD_XDICTIONARY
360
169
102
}
330
2A
100
AcDbVisualStyle
  2
Flat
 70
     0
 71
     2
 72
     1
 73
     1
 90
        2
 40
0.6
 41
30.0
 62
     5
 63
     7
421
 16777215
 74
     0
 91
        0
 64
     7
 65
   257
 75
     1
175
     1
 42
1.0
 92
        8
 66
     7
 43
1.0
 76
     1
 77
     6
 78
     2
 67
     7
 79
     5
170
     0
171
     0
290
     0
174
     0
 93
       13
 44
0.0
173
     0
291
     1
 45
0.0
  0
VISUALSTYLE
  5
2C
102
{ACAD_REACTORS
330
2A
102
}
102
{ACAD_XDICTIONARY
360
16B
102
}
330
2A
100
AcDbVisualStyle
  2
FlatWithEdges
 70
     1
 71
     2
 72
     1
 73
     1
 90
        2
 40
0.6
 41
30.0
 62
     5
 63
     7
421
 16777215
 74
     1
 91
        0
 64
     7
 65
   257
 75
     1
175
     1
 42
1.0
 92
        0
 66
   257
 43
1.0
 76
     1
 77
     6
 78
     2
 67
     7
 79
     5
170
     0
171
     0
290
     0
174
     0
 93
       13
 44
0.0
173
     0
291
     1
 45
0.0
  0
VISUALSTYLE
  5
2D
102
{ACAD_REACTORS
330
2A
102
}
102
{ACAD_XDICTIONARY
360
16D
102
}
330
2A
100
AcDbVisualStyle
  2
Gouraud
 70
     2
 71
     2
 72
     2
 73
     1
 90
        2
 40
0.6
 41
30.0
 62
     5
 63
     7
421
 16777215
 74
     0
 91
        0
 64
     7
 65
   257
 75
     1
175
     1
 42
1.0
 92
        0
 66
     7
 43
1.0
 76
     1
 77
     6
 78
     2
 67
     7
 79
     5
170
     0
171
     0
290
     0
174
     0
 93
       13
 44
0.0
173
     0
291
     1
 45
0.0
  0
VISUALSTYLE
  5
2E
102
{ACAD_REACTORS
330
2A
102
}
102
{ACAD_XDICTIONARY
360
16F
102
}
330
2A
100
AcDbVisualStyle
  2
GouraudWithEdges
 70
     3
 71
     2
 72
     2
 73
     1
 90
        2
 40
0.6
 41
30.0
 62
     5
 63
     7
421
 16777215
 74
     1
 91
        0
 64
     7
 65
   257
 75
     1
175
     1
 42
1.0
 92
        0
 66
   257
 43
1.0
 76
     1
 77
     6
 78
     2
 67
     7
 79
     5
170
     0
171
     0
290
     0
174
     0
 93
       13
 44
0.0
173
     0
291
     1
 45
0.0
  0
VISUALSTYLE
  5
31
102
{ACAD_REACTORS
330
2A
102
}
102
{ACAD_XDICTIONARY
360
175
102
}
330
2A
100
AcDbVisualStyle
  2
Hidden
 70
     6
 71
     1
 72
     2
 73
     2
 90
        0
 40
0.6
 41
30.0
 62
     5
 63
     7
421
 16777215
 74
     2
 91
        2
 64
     7
 65
   257
 75
     2
175
     1
 42
40.0
 92
        0
 66
   257
 43
1.0
 76
     1
 77
     6
 78
     2
 67
     7
 79
     3
170
     0
171
     0
290
     0
174
     0
 93
        1
 44
0.0
173
     0
291
     0
 45
0.0
  0
VISUALSTYLE
  5
3B
102
{ACAD_REACTORS
330
2A
102
}
102
{ACAD_XDICTIONARY
360
189
102
}
330
2A
100
AcDbVisualStyle
  2
JitterOff
 70
    20
 71
     2
 72
     2
 73
     0
 90
        0
 40
0.6
 41
30.0
 62
     5
 63
     7
421
 16777215
 74
     1
 91
        4
 64
     7
 65
   257
 75
     1
175
     1
 42
1.0
 92
       10
 66
     7
 43
1.0
 76
     1
 77
     6
 78
     2
 67
     7
 79
     5
170
     0
171
     0
290
     0
174
     0
 93
        1
 44
0.0
173
     0
291
     1
 45
0.0
  0
VISUALSTYLE
  5
38
102
{ACAD_REACTORS
330
2A
102
}
102
{ACAD_XDICTIONARY
360
183
102
}
330
2A
100
AcDbVisualStyle
  2
Linepattern
 70
    14
 71
     2
 72
     2
 73
     0
 90
        0
 40
0.6
 41
30.0
 62
     5
 63
     7
421
 16777215
 74
     1
 91
        4
 64
     7
 65
   257
 75
     7
175
     7
 42
1.0
 92
        8
 66
     7
 43
1.0
 76
     1
 77
     6
 78
     2
 67
     7
 79
     5
170
     0
171
     0
290
     0
174
     0
 93
        1
 44
0.0
173
     0
291
     1
 45
0.0
  0
VISUALSTYLE
  5
3C
102
{ACAD_REACTORS
330
2A
102
}
102
{ACAD_XDICTIONARY
360
18B
102
}
330
2A
100
AcDbVisualStyle
  2
OverhangOff
 70
    21
 71
     2
 72
     2
 73
     0
 90
        0
 40
0.6
 41
30.0
 62
     5
 63
     7
421
 16777215
 74
     1
 91
        4
 64
     7
 65
   257
 75
     1
175
     1
 42
1.0
 92
        9
 66
     7
 43
1.0
 76
     1
 77
     6
 78
     2
 67
     7
 79
     5
170
     0
171
     0
290
     0
174
     0
 93
        1
 44
0.0
173
     0
291
     1
 45
0.0
  0
VISUALSTYLE
  5
33
102
{ACAD_REACTORS
330
2A
102
}
102
{ACAD_XDICTIONARY
360
179
102
}
330
2A
100
AcDbVisualStyle
  2
Realistic
 70
     8
 71
     2
 72
     3
 73
     0
 90
        2
 40
0.6
 41
30.0
 62
     5
 63
     7
421
 16777215
 74
     0
 91
        0
 64
     7
 65
   257
 75
     1
175
     1
 42
1.0
 92
        8
 66
   257
 43
1.0
 76
     1
 77
     6
 78
     2
 67
     7
 79
     3
170
     0
171
     0
290
     0
174
     0
 93
       13
 44
0.0
173
     0
291
     0
 45
0.0
  0
VISUALSTYLE
  5
42
102
{ACAD_REACTORS
330
2A
102
}
102
{ACAD_XDICTIONARY
360
197
102
}
330
2A
100
AcDbVisualStyle
  2
Shaded
 70
    27
 71
     2
 72
     2
 73
     1
 90
        2
 40
0.6
 41
30.0
 62
     5
 63
     7
421
 16777215
 74
     0
 91
        4
 64
     7
 65
   257
 75
     1
175
     1
 42
1.0
 92
        8
 66
   257
 43
1.0
 76
     1
 77
     6
 78
     2
 67
     8
425
  7895160
 79
     3
170
     0
171
     0
290
     0
174
     0
 93
        5
 44
0.0
173
     0
291
     0
 45
0.0
  0
VISUALSTYLE
  5
41
102
{ACAD_REACTORS
330
2A
102
}
102
{ACAD_XDICTIONARY
360
195
102
}
330
2A
100
AcDbVisualStyle
  2
Shaded with edges
 70
    26
 71
     2
 72
     2
 73
     1
 90
        2
 40
0.6
 41
30.0
 62
     5
 63
     7
421
 16777215
 74
     1
 91
       10
 64
     7
 65
   257
 75
     2
175
     1
 42
1.0
 92
        8
 66
   257
 43
1.0
 76
     1
 77
     6
 78
     2
 67
     7
 79
     3
170
     0
171
     0
290
     0
174
     0
 93
        5
 44
0.0
173
     0
291
     0
 45
0.0
  0
VISUALSTYLE
  5
3E
102
{ACAD_REACTORS
330
2A
102
}
102
{ACAD_XDICTIONARY
360
18F
102
}
330
2A
100
AcDbVisualStyle
  2
Shades of Gray
 70
    23
 71
     2
 72
     2
 73
     3
 90
        0
 40
0.6
 41
30.0
 62
     5
 63
     7
421
 16777215
 74
     2
 91
        2
 64
     7
 65
     7
 75
     1
175
     1
 42
40.0
 92
        8
 66
     7
 43
1.0
 76
     1
 77
     6
 78
     2
 67
     7
 79
     3
170
     0
171
     0
290
     0
174
     0
 93
        1
 44
0.0
173
     0
291
     0
 45
0.0
  0
VISUALSTYLE
  5
3F
102
{ACAD_REACTORS
330
2A
102
}
102
{ACAD_XDICTIONARY
360
191
102
}
330
2A
100
AcDbVisualStyle
  2
Sketchy
 70
    24
 71
     1
 72
     2
 73
     2
 90
        0
 40
0.6
 41
30.0
 62
     5
 63
     7
421
 16777215
 74
     2
 91
        2
 64
     7
 65
     7
 75
     1
175
     1
 42
40.0
 92
       11
 66
     7
 43
1.0
 76
     1
 77
     6
 78
     2
 67
     7
 79
     6
170
     0
171
     0
290
     0
174
     0
 93
        1
 44
0.0
173
     0
291
     0
 45
0.0
  0
VISUALSTYLE
  5
37
102
{ACAD_REACTORS
330
2A
102
}
102
{ACAD_XDICTIONARY
360
181
102
}
330
2A
100
AcDbVisualStyle
  2
Thicken
 70
    13
 71
     2
 72
     2
 73
     0
 90
        0
 40
0.6
 41
30.0
 62
     5
 63
     7
421
 16777215
 74
     1
 91
        4
 64
     7
 65
   257
 75
     1
175
     1
 42
1.0
 92
       12
 66
     7
 43
1.0
 76
     1
 77
     6
 78
     2
 67
     7
 79
     5
170
     0
171
     0
290
     0
174
     0
 93
        1
 44
0.0
173
     0
291
     1
 45
0.0
  0
VISUALSTYLE
  5
30
102
{ACAD_REACTORS
330
2A
102
}
102
{ACAD_XDICTIONARY
360
173
102
}
330
2A
100
AcDbVisualStyle
  2
Wireframe
 70
     5
 71
     0
 72
     2
 73
     0
 90
        0
 40
0.6
 41
30.0
 62
     5
 63
     7
421
 16777215
 74
     1
 91
        4
 64
     7
 65
   257
 75
     1
175
     1
 42
1.0
 92
        0
 66
   257
 43
1.0
 76
     1
 77
     6
 78
     2
 67
     7
 79
     3
170
     0
171
     0
290
     0
174
     0
 93
        1
 44
0.0
173
     0
291
     0
 45
0.0
  0
VISUALSTYLE
  5
40
102
{ACAD_REACTORS
330
2A
102
}
102
{ACAD_XDICTIONARY
360
193
102
}
330
2A
100
AcDbVisualStyle
  2
X-Ray
 70
    25
 71
     2
 72
     2
 73
     1
 90
        1
 40
0.5
 41
30.0
 62
     5
 63
     7
421
 16777215
 74
     1
 91
        0
 64
     7
 65
   257
 75
     1
175
     1
 42
1.0
 92
        8
 66
     7
 43
1.0
 76
     1
 77
     6
 78
     2
 67
     7
 79
     3
170
     0
171
     0
290
     0
174
     0
 93
       13
 44
0.0
173
     0
291
     0
 45
0.0
  0
DICTIONARYVAR
  5
167
102
{ACAD_REACTORS
330
166
102
}
330
166
100
DictionaryVariables
280
     0
  1
1:1
  0
DICTIONARYVAR
  5
1A0
102
{ACAD_REACTORS
330
166
102
}
330
166
100
DictionaryVariables
280
     0
  1
Standard
  0
DICTIONARYVAR
  5
19F
102
{ACAD_REACTORS
330
166
102
}
330
166
100
DictionaryVariables
280
     0
  1
Standard
  0
DICTIONARYVAR
  5
168
102
{ACAD_REACTORS
330
166
102
}
330
166
100
DictionaryVariables
280
     0
  1
2
  0
DICTIONARY
  5
19C
330
5C
100
AcDbDictionary
280
     1
281
     1
  3
ACAD_XREC_ROUNDTRIP
360
19D
  0
DICTIONARY
  5
199
330
5A
100
AcDbDictionary
280
     1
281
     1
  3
ACAD_ROUNDTRIP_2008_TABLESTYLE_CELLSTYLEMAP
360
19A
  0
DICTIONARY
  5
171
330
2F
100
AcDbDictionary
280
     1
281
     1
  3
ACAD_XREC_ROUNDTRIP
360
172
  0
DICTIONARY
  5
177
330
32
100
AcDbDictionary
280
     1
281
     1
  3
ACAD_XREC_ROUNDTRIP
360
178
  0
DICTIONARY
  5
17F
330
36
100
AcDbDictionary
280
     1
281
     1
  3
ACAD_XREC_ROUNDTRIP
360
180
  0
DICTIONARY
  5
187
330
3A
100
AcDbDictionary
280
     1
281
     1
  3
ACAD_XREC_ROUNDTRIP
360
188
  0
DICTIONARY
  5
17B
330
34
100
AcDbDictionary
280
     1
281
     1
  3
ACAD_XREC_ROUNDTRIP
360
17C
  0
DICTIONARY
  5
17D
330
35
100
AcDbDictionary
280
     1
281
     1
  3
ACAD_XREC_ROUNDTRIP
360
17E
  0
DICTIONARY
  5
18D
330
3D
100
AcDbDictionary
280
     1
281
     1
  3
ACAD_XREC_ROUNDTRIP
360
18E
  0
DICTIONARY
  5
185
330
39
100
AcDbDictionary
280
     1
281
     1
  3
ACAD_XREC_ROUNDTRIP
360
186
  0
DICTIONARY
  5
169
330
2B
100
AcDbDictionary
280
     1
281
     1
  3
ACAD_XREC_ROUNDTRIP
360
16A
  0
DICTIONARY
  5
16B
330
2C
100
AcDbDictionary
280
     1
281
     1
  3
ACAD_XREC_ROUNDTRIP
360
16C
  0
DICTIONARY
  5
16D
330
2D
100
AcDbDictionary
280
     1
281
     1
  3
ACAD_XREC_ROUNDTRIP
360
16E
  0
DICTIONARY
  5
16F
330
2E
100
AcDbDictionary
280
     1
281
     1
  3
ACAD_XREC_ROUNDTRIP
360
170
  0
DICTIONARY
  5
175
330
31
100
AcDbDictionary
280
     1
281
     1
  3
ACAD_XREC_ROUNDTRIP
360
176
  0
DICTIONARY
  5
189
330
3B
100
AcDbDictionary
280
     1
281
     1
  3
ACAD_XREC_ROUNDTRIP
360
18A
  0
DICTIONARY
  5
183
330
38
100
AcDbDictionary
280
     1
281
     1
  3
ACAD_XREC_ROUNDTRIP
360
184
  0
DICTIONARY
  5
18B
330
3C
100
AcDbDictionary
280
     1
281
     1
  3
ACAD_XREC_ROUNDTRIP
360
18C
  0
DICTIONARY
  5
179
330
33
100
AcDbDictionary
280
     1
281
     1
  3
ACAD_XREC_ROUNDTRIP
360
17A
  0
DICTIONARY
  5
197
330
42
100
AcDbDictionary
280
     1
281
     1
  3
ACAD_XREC_ROUNDTRIP
360
198
  0
DICTIONARY
  5
195
330
41
100
AcDbDictionary
280
     1
281
     1
  3
ACAD_XREC_ROUNDTRIP
360
196
  0
DICTIONARY
  5
18F
330
3E
100
AcDbDictionary
280
     1
281
     1
  3
ACAD_XREC_ROUNDTRIP
360
190
  0
DICTIONARY
  5
191
330
3F
100
AcDbDictionary
280
     1
281
     1
  3
ACAD_XREC_ROUNDTRIP
360
192
  0
DICTIONARY
  5
181
330
37
100
AcDbDictionary
280
     1
281
     1
  3
ACAD_XREC_ROUNDTRIP
360
182
  0
DICTIONARY
  5
173
330
30
100
AcDbDictionary
280
     1
281
     1
  3
ACAD_XREC_ROUNDTRIP
360
174
  0
DICTIONARY
  5
193
330
40
100
AcDbDictionary
280
     1
281
     1
  3
ACAD_XREC_ROUNDTRIP
360
194
  0
XRECORD
  5
19D
102
{ACAD_REACTORS
330
19C
102
}
330
19C
100
AcDbXrecord
280
     1
102
ACAD_ROUNDTRIP_2010_MLEADER_STYLE
  0
CELLSTYLEMAP
  5
19A
102
{ACAD_REACTORS
330
199
102
}
330
199
100
AcDbCellStyleMap
 90
        3
300
CELLSTYLE
  1
TABLEFORMAT_BEGIN
 90
        5
170
     1
 91
        0
 92
    32768
 62
   257
 93
        1
300
CONTENTFORMAT
  1
CONTENTFORMAT_BEGIN
 90
        0
 91
        0
 92
        4
 93
        0
300

 40
0.0
140
1.0
 94
        5
 62
     0
340
11
144
0.25
309
CONTENTFORMAT_END
171
     1
301
MARGIN
  1
CELLMARGIN_BEGIN
 40
0.06
 40
0.06
 40
0.06
 40
0.06
 40
0.06
 40
0.06
309
CELLMARGIN_END
 94
        6
 95
        1
302
GRIDFORMAT
  1
GRIDFORMAT_BEGIN
 90
        0
 91
        1
 62
     0
 92
       -2
340
14
 93
        0
 40
0.045
309
GRIDFORMAT_END
 95
        2
302
GRIDFORMAT
  1
GRIDFORMAT_BEGIN
 90
        0
 91
        1
 62
     0
 92
       -2
340
14
 93
        0
 40
0.045
309
GRIDFORMAT_END
 95
        4
302
GRIDFORMAT
  1
GRIDFORMAT_BEGIN
 90
        0
 91
        1
 62
     0
 92
       -2
340
14
 93
        0
 40
0.045
309
GRIDFORMAT_END
 95
        8
302
GRIDFORMAT
  1
GRIDFORMAT_BEGIN
 90
        0
 91
        1
 62
     0
 92
       -2
340
14
 93
        0
 40
0.045
309
GRIDFORMAT_END
 95
       16
302
GRIDFORMAT
  1
GRIDFORMAT_BEGIN
 90
        0
 91
        1
 62
     0
 92
       -2
340
14
 93
        0
 40
0.045
309
GRIDFORMAT_END
 95
       32
302
GRIDFORMAT
  1
GRIDFORMAT_BEGIN
 90
        0
 91
        1
 62
     0
 92
       -2
340
14
 93
        0
 40
0.045
309
GRIDFORMAT_END
309
TABLEFORMAT_END
  1
CELLSTYLE_BEGIN
 90
        1
 91
        1
300
_TITLE
309
CELLSTYLE_END
300
CELLSTYLE
  1
TABLEFORMAT_BEGIN
 90
        5
170
     1
 91
        0
 92
        0
 62
   257
 93
        1
300
CONTENTFORMAT
  1
CONTENTFORMAT_BEGIN
 90
        0
 91
        0
 92
        4
 93
        0
300

 40
0.0
140
1.0
 94
        5
 62
     0
340
11
144
0.18
309
CONTENTFORMAT_END
171
     1
301
MARGIN
  1
CELLMARGIN_BEGIN
 40
0.06
 40
0.06
 40
0.06
 40
0.06
 40
0.06
 40
0.06
309
CELLMARGIN_END
 94
        6
 95
        1
302
GRIDFORMAT
  1
GRIDFORMAT_BEGIN
 90
        0
 91
        1
 62
     0
 92
       -2
340
14
 93
        0
 40
0.045
309
GRIDFORMAT_END
 95
        2
302
GRIDFORMAT
  1
GRIDFORMAT_BEGIN
 90
        0
 91
        1
 62
     0
 92
       -2
340
14
 93
        0
 40
0.045
309
GRIDFORMAT_END
 95
        4
302
GRIDFORMAT
  1
GRIDFORMAT_BEGIN
 90
        0
 91
        1
 62
     0
 92
       -2
340
14
 93
        0
 40
0.045
309
GRIDFORMAT_END
 95
        8
302
GRIDFORMAT
  1
GRIDFORMAT_BEGIN
 90
        0
 91
        1
 62
     0
 92
       -2
340
14
 93
        0
 40
0.045
309
GRIDFORMAT_END
 95
       16
302
GRIDFORMAT
  1
GRIDFORMAT_BEGIN
 90
        0
 91
        1
 62
     0
 92
       -2
340
14
 93
        0
 40
0.045
309
GRIDFORMAT_END
 95
       32
302
GRIDFORMAT
  1
GRIDFORMAT_BEGIN
 90
        0
 91
        1
 62
     0
 92
       -2
340
14
 93
        0
 40
0.045
309
GRIDFORMAT_END
309
TABLEFORMAT_END
  1
CELLSTYLE_BEGIN
 90
        2
 91
        1
300
_HEADER
309
CELLSTYLE_END
300
CELLSTYLE
  1
TABLEFORMAT_BEGIN
 90
        5
170
     1
 91
        0
 92
        0
 62
   257
 93
        1
300
CONTENTFORMAT
  1
CONTENTFORMAT_BEGIN
 90
        0
 91
        0
 92
        4
 93
        0
300

 40
0.0
140
1.0
 94
        2
 62
     0
340
11
144
0.18
309
CONTENTFORMAT_END
171
     1
301
MARGIN
  1
CELLMARGIN_BEGIN
 40
0.06
 40
0.06
 40
0.06
 40
0.06
 40
0.06
 40
0.06
309
CELLMARGIN_END
 94
        6
 95
        1
302
GRIDFORMAT
  1
GRIDFORMAT_BEGIN
 90
        0
 91
        1
 62
     0
 92
       -2
340
14
 93
        0
 40
0.045
309
GRIDFORMAT_END
 95
        2
302
GRIDFORMAT
  1
GRIDFORMAT_BEGIN
 90
        0
 91
        1
 62
     0
 92
       -2
340
14
 93
        0
 40
0.045
309
GRIDFORMAT_END
 95
        4
302
GRIDFORMAT
  1
GRIDFORMAT_BEGIN
 90
        0
 91
        1
 62
     0
 92
       -2
340
14
 93
        0
 40
0.045
309
GRIDFORMAT_END
 95
        8
302
GRIDFORMAT
  1
GRIDFORMAT_BEGIN
 90
        0
 91
        1
 62
     0
 92
       -2
340
14
 93
        0
 40
0.045
309
GRIDFORMAT_END
 95
       16
302
GRIDFORMAT
  1
GRIDFORMAT_BEGIN
 90
        0
 91
        1
 62
     0
 92
       -2
340
14
 93
        0
 40
0.045
309
GRIDFORMAT_END
 95
       32
302
GRIDFORMAT
  1
GRIDFORMAT_BEGIN
 90
        0
 91
        1
 62
     0
 92
       -2
340
14
 93
        0
 40
0.045
309
GRIDFORMAT_END
309
TABLEFORMAT_END
  1
CELLSTYLE_BEGIN
 90
        3
 91
        2
300
_DATA
309
CELLSTYLE_END
  0
XRECORD
  5
172
102
{ACAD_REACTORS
330
171
102
}
330
171
100
AcDbXrecord
280
     1
102
RTVSPropertyOp0
 70
     1
102
RTVSPropertyOp1
 70
     1
102
RTVSPropertyOp2
 70
     1
102
RTVSPropertyOp3
 70
     1
102
RTVSPropertyOp4
 70
     1
102
RTVSPropertyOp5
 70
     1
102
RTVSPropertyOp6
 70
     1
102
RTVSPropertyOp7
 70
     1
102
RTVSPropertyOp8
 70
     1
102
RTVSPropertyOp9
 70
     1
102
RTVSPropertyOp10
 70
     1
102
RTVSPropertyOp11
 70
     1
102
RTVSPropertyOp12
 70
     1
102
RTVSPropertyOp13
 70
     1
102
RTVSPropertyOp14
 70
     1
102
RTVSPropertyOp15
 70
     1
102
RTVSPropertyOp16
 70
     1
102
RTVSPropertyOp17
 70
     1
102
RTVSPropertyOp18
 70
     1
102
RTVSPropertyOp19
 70
     1
102
RTVSPropertyOp20
 70
     1
102
RTVSPropertyOp21
 70
     1
102
RTVSPropertyOp22
 70
     1
102
RTVSPropertyOp23
 70
     1
102
RTVSPropertyOp24
 70
     1
102
RTVSPropertyOp25
 70
     1
102
RTVSPropertyOp26
 70
     1
102
RTVSPropertyOp27
 70
     1
102
RTVSPropertyOp28
 70
     1
102
RTVSPropertyOp29
 70
     1
102
RTVSPropertyOp30
 70
     1
102
RTVSPropertyOp31
 70
     1
102
RTVSPropertyOp32
 70
     1
102
RTVSPropertyOp33
 70
     1
102
RTVSPropertyOp34
 70
     1
102
RTVSPropertyOp35
 70
     1
102
RTVSPropertyOp36
 70
     1
102
RTVSPropertyOp37
 70
     1
102
RTVSPropertyOp38
 70
     1
102
RTVSPropertyOp39
 70
     1
102
RTVSPropertyOp40
 70
     1
102
RTVSPropertyOp41
 70
     1
102
RTVSPropertyOp42
 70
     1
102
RTVSPropertyOp43
 70
     1
102
RTVSPropertyOp44
 70
     1
102
RTVSPropertyOp45
 70
     1
102
RTVSPropertyOp46
 70
     1
102
RTVSPropertyOp47
 70
     1
102
RTVSPropertyOp48
 70
     1
102
RTVSPropertyOp49
 70
     1
102
RTVSPropertyOp50
 70
     1
102
RTVSPropertyOp51
 70
     0
102
RTVSPropertyOp52
 70
     0
102
RTVSPropertyOp53
 70
     1
102
RTVSPropertyOp54
 70
     1
102
RTVSPropertyOp55
 70
     1
102
RTVSPropertyOp56
 70
     1
102
RTVSPropertyOp57
 70
     1
102
RTVSPost2010Prop28
280
     1
102
RTVSPost2010PropOp28
 70
     1
102
RTVSPost2010Prop29
280
     1
102
RTVSPost2010PropOp29
 70
     1
102
RTVSPost2010Prop30
280
     0
102
RTVSPost2010PropOp30
 70
     1
102
RTVSPost2010Prop31
280
     0
102
RTVSPost2010PropOp31
 70
     1
102
RTVSPost2010Prop32
280
     0
102
RTVSPost2010PropOp32
 70
     1
102
RTVSPost2010Prop33
280
     0
102
RTVSPost2010PropOp33
 70
     1
102
RTVSPost2010Prop34
280
     0
102
RTVSPost2010PropOp34
 70
     1
102
RTVSPost2010Prop35
280
     0
102
RTVSPost2010PropOp35
 70
     1
102
RTVSPost2010Prop36
280
     0
102
RTVSPost2010PropOp36
 70
     1
102
RTVSPost2010Prop37
 90
       50
102
RTVSPost2010PropOp37
 70
     1
102
RTVSPost2010Prop38
140
0.0
102
RTVSPost2010PropOp38
 70
     1
102
RTVSPost2010Prop39
140
1.0
102
RTVSPost2010PropOp39
 70
     1
102
RTVSPost2010Prop40
 90
        0
102
RTVSPost2010PropOp40
 70
     1
102
RTVSPost2010Prop41ColorIndex
 90
       18
102
RTVSPost2010Prop41ColorRGB
 90
        0
102
RTVSPost2010PropOp41
 70
     1
102
RTVSPost2010Prop42
 90
       50
102
RTVSPost2010PropOp42
 70
     1
102
RTVSPost2010Prop43
 90
        3
102
RTVSPost2010PropOp43
 70
     1
102
RTVSPost2010Prop44ColorIndex
 90
        5
102
RTVSPost2010Prop44ColorRGB
 90
      255
102
RTVSPost2010PropOp44
 70
     1
102
RTVSPost2010Prop45
280
     0
102
RTVSPost2010PropOp45
 70
     1
102
RTVSPost2010Prop46
 90
       50
102
RTVSPost2010PropOp46
 70
     1
102
RTVSPost2010Prop47
 90
       50
102
RTVSPost2010PropOp47
 70
     1
102
RTVSPost2010Prop48
 90
       50
102
RTVSPost2010PropOp48
 70
     1
102
RTVSPost2010Prop49
280
     0
102
RTVSPost2010PropOp49
 70
     1
102
RTVSPost2010Prop50
 90
       50
102
RTVSPost2010PropOp50
 70
     1
102
RTVSPost2010Prop51ColorIndex
 90
      256
102
RTVSPost2010Prop51ColorRGB
 90
-16777216
102
RTVSPost2010PropOp51
 70
     0
102
RTVSPost2010Prop52
140
1.0
102
RTVSPost2010PropOp52
 70
     0
102
RTVSPost2010Prop53
 90
        2
102
RTVSPost2010PropOp53
 70
     1
102
RTVSPost2010Prop54
  1
strokes_ogs.tif
102
RTVSPost2010PropOp54
 70
     1
102
RTVSPost2010Prop55
280
     0
102
RTVSPost2010PropOp55
 70
     1
102
RTVSPost2010Prop56
140
1.0
102
RTVSPost2010PropOp56
 70
     1
102
RTVSPost2010Prop57
140
1.0
102
RTVSPost2010PropOp57
 70
     1
  0
XRECORD
  5
178
102
{ACAD_REACTORS
330
177
102
}
330
177
100
AcDbXrecord
280
     1
102
RTVSPropertyOp0
 70
     1
102
RTVSPropertyOp1
 70
     1
102
RTVSPropertyOp2
 70
     1
102
RTVSPropertyOp3
 70
     1
102
RTVSPropertyOp4
 70
     1
102
RTVSPropertyOp5
 70
     1
102
RTVSPropertyOp6
 70
     1
102
RTVSPropertyOp7
 70
     1
102
RTVSPropertyOp8
 70
     1
102
RTVSPropertyOp9
 70
     1
102
RTVSPropertyOp10
 70
     1
102
RTVSPropertyOp11
 70
     1
102
RTVSPropertyOp12
 70
     1
102
RTVSPropertyOp13
 70
     1
102
RTVSPropertyOp14
 70
     1
102
RTVSPropertyOp15
 70
     1
102
RTVSPropertyOp16
 70
     1
102
RTVSPropertyOp17
 70
     1
102
RTVSPropertyOp18
 70
     1
102
RTVSPropertyOp19
 70
     1
102
RTVSPropertyOp20
 70
     1
102
RTVSPropertyOp21
 70
     1
102
RTVSPropertyOp22
 70
     1
102
RTVSPropertyOp23
 70
     1
102
RTVSPropertyOp24
 70
     1
102
RTVSPropertyOp25
 70
     1
102
RTVSPropertyOp26
 70
     1
102
RTVSPropertyOp27
 70
     1
102
RTVSPropertyOp28
 70
     1
102
RTVSPropertyOp29
 70
     1
102
RTVSPropertyOp30
 70
     1
102
RTVSPropertyOp31
 70
     1
102
RTVSPropertyOp32
 70
     1
102
RTVSPropertyOp33
 70
     1
102
RTVSPropertyOp34
 70
     1
102
RTVSPropertyOp35
 70
     1
102
RTVSPropertyOp36
 70
     1
102
RTVSPropertyOp37
 70
     1
102
RTVSPropertyOp38
 70
     1
102
RTVSPropertyOp39
 70
     1
102
RTVSPropertyOp40
 70
     1
102
RTVSPropertyOp41
 70
     1
102
RTVSPropertyOp42
 70
     1
102
RTVSPropertyOp43
 70
     1
102
RTVSPropertyOp44
 70
     1
102
RTVSPropertyOp45
 70
     1
102
RTVSPropertyOp46
 70
     1
102
RTVSPropertyOp47
 70
     1
102
RTVSPropertyOp48
 70
     1
102
RTVSPropertyOp49
 70
     1
102
RTVSPropertyOp50
 70
     1
102
RTVSPropertyOp51
 70
     0
102
RTVSPropertyOp52
 70
     0
102
RTVSPropertyOp53
 70
     1
102
RTVSPropertyOp54
 70
     1
102
RTVSPropertyOp55
 70
     1
102
RTVSPropertyOp56
 70
     1
102
RTVSPropertyOp57
 70
     1
102
RTVSPost2010Prop28
280
     0
102
RTVSPost2010PropOp28
 70
     1
102
RTVSPost2010Prop29
280
     1
102
RTVSPost2010PropOp29
 70
     1
102
RTVSPost2010Prop30
280
     1
102
RTVSPost2010PropOp30
 70
     1
102
RTVSPost2010Prop31
280
     0
102
RTVSPost2010PropOp31
 70
     1
102
RTVSPost2010Prop32
280
     0
102
RTVSPost2010PropOp32
 70
     1
102
RTVSPost2010Prop33
280
     0
102
RTVSPost2010PropOp33
 70
     1
102
RTVSPost2010Prop34
280
     0
102
RTVSPost2010PropOp34
 70
     1
102
RTVSPost2010Prop35
280
     0
102
RTVSPost2010PropOp35
 70
     1
102
RTVSPost2010Prop36
280
     0
102
RTVSPost2010PropOp36
 70
     1
102
RTVSPost2010Prop37
 90
       50
102
RTVSPost2010PropOp37
 70
     1
102
RTVSPost2010Prop38
140
0.0
102
RTVSPost2010PropOp38
 70
     1
102
RTVSPost2010Prop39
140
1.0
102
RTVSPost2010PropOp39
 70
     1
102
RTVSPost2010Prop40
 90
        0
102
RTVSPost2010PropOp40
 70
     1
102
RTVSPost2010Prop41ColorIndex
 90
       18
102
RTVSPost2010Prop41ColorRGB
 90
        0
102
RTVSPost2010PropOp41
 70
     1
102
RTVSPost2010Prop42
 90
       50
102
RTVSPost2010PropOp42
 70
     1
102
RTVSPost2010Prop43
 90
        3
102
RTVSPost2010PropOp43
 70
     1
102
RTVSPost2010Prop44ColorIndex
 90
        5
102
RTVSPost2010Prop44ColorRGB
 90
      255
102
RTVSPost2010PropOp44
 70
     1
102
RTVSPost2010Prop45
280
     0
102
RTVSPost2010PropOp45
 70
     1
102
RTVSPost2010Prop46
 90
       50
102
RTVSPost2010PropOp46
 70
     1
102
RTVSPost2010Prop47
 90
       50
102
RTVSPost2010PropOp47
 70
     1
102
RTVSPost2010Prop48
 90
       50
102
RTVSPost2010PropOp48
 70
     1
102
RTVSPost2010Prop49
280
     0
102
RTVSPost2010PropOp49
 70
     1
102
RTVSPost2010Prop50
 90
       50
102
RTVSPost2010PropOp50
 70
     1
102
RTVSPost2010Prop51ColorIndex
 90
      256
102
RTVSPost2010Prop51ColorRGB
 90
-16777216
102
RTVSPost2010PropOp51
 70
     0
102
RTVSPost2010Prop52
140
1.0
102
RTVSPost2010PropOp52
 70
     0
102
RTVSPost2010Prop53
 90
        2
102
RTVSPost2010PropOp53
 70
     1
102
RTVSPost2010Prop54
  1
strokes_ogs.tif
102
RTVSPost2010PropOp54
 70
     1
102
RTVSPost2010Prop55
280
     0
102
RTVSPost2010PropOp55
 70
     1
102
RTVSPost2010Prop56
140
1.0
102
RTVSPost2010PropOp56
 70
     1
102
RTVSPost2010Prop57
140
1.0
102
RTVSPost2010PropOp57
 70
     1
  0
XRECORD
  5
180
102
{ACAD_REACTORS
330
17F
102
}
330
17F
100
AcDbXrecord
280
     1
102
RTVSPropertyOp0
 70
     1
102
RTVSPropertyOp1
 70
     1
102
RTVSPropertyOp2
 70
     1
102
RTVSPropertyOp3
 70
     1
102
RTVSPropertyOp4
 70
     1
102
RTVSPropertyOp5
 70
     1
102
RTVSPropertyOp6
 70
     1
102
RTVSPropertyOp7
 70
     1
102
RTVSPropertyOp8
 70
     1
102
RTVSPropertyOp9
 70
     1
102
RTVSPropertyOp10
 70
     1
102
RTVSPropertyOp11
 70
     1
102
RTVSPropertyOp12
 70
     1
102
RTVSPropertyOp13
 70
     1
102
RTVSPropertyOp14
 70
     1
102
RTVSPropertyOp15
 70
     1
102
RTVSPropertyOp16
 70
     1
102
RTVSPropertyOp17
 70
     1
102
RTVSPropertyOp18
 70
     1
102
RTVSPropertyOp19
 70
     1
102
RTVSPropertyOp20
 70
     1
102
RTVSPropertyOp21
 70
     1
102
RTVSPropertyOp22
 70
     1
102
RTVSPropertyOp23
 70
     1
102
RTVSPropertyOp24
 70
     1
102
RTVSPropertyOp25
 70
     1
102
RTVSPropertyOp26
 70
     1
102
RTVSPropertyOp27
 70
     1
102
RTVSPropertyOp28
 70
     1
102
RTVSPropertyOp29
 70
     1
102
RTVSPropertyOp30
 70
     1
102
RTVSPropertyOp31
 70
     1
102
RTVSPropertyOp32
 70
     1
102
RTVSPropertyOp33
 70
     1
102
RTVSPropertyOp34
 70
     1
102
RTVSPropertyOp35
 70
     1
102
RTVSPropertyOp36
 70
     1
102
RTVSPropertyOp37
 70
     1
102
RTVSPropertyOp38
 70
     1
102
RTVSPropertyOp39
 70
     1
102
RTVSPropertyOp40
 70
     1
102
RTVSPropertyOp41
 70
     1
102
RTVSPropertyOp42
 70
     1
102
RTVSPropertyOp43
 70
     1
102
RTVSPropertyOp44
 70
     1
102
RTVSPropertyOp45
 70
     1
102
RTVSPropertyOp46
 70
     1
102
RTVSPropertyOp47
 70
     1
102
RTVSPropertyOp48
 70
     1
102
RTVSPropertyOp49
 70
     1
102
RTVSPropertyOp50
 70
     1
102
RTVSPropertyOp51
 70
     0
102
RTVSPropertyOp52
 70
     0
102
RTVSPropertyOp53
 70
     1
102
RTVSPropertyOp54
 70
     1
102
RTVSPropertyOp55
 70
     1
102
RTVSPropertyOp56
 70
     1
102
RTVSPropertyOp57
 70
     1
102
RTVSPost2010Prop28
280
     0
102
RTVSPost2010PropOp28
 70
     1
102
RTVSPost2010Prop29
280
     1
102
RTVSPost2010PropOp29
 70
     1
102
RTVSPost2010Prop30
280
     1
102
RTVSPost2010PropOp30
 70
     1
102
RTVSPost2010Prop31
280
     0
102
RTVSPost2010PropOp31
 70
     1
102
RTVSPost2010Prop32
280
     0
102
RTVSPost2010PropOp32
 70
     1
102
RTVSPost2010Prop33
280
     0
102
RTVSPost2010PropOp33
 70
     1
102
RTVSPost2010Prop34
280
     0
102
RTVSPost2010PropOp34
 70
     1
102
RTVSPost2010Prop35
280
     0
102
RTVSPost2010PropOp35
 70
     1
102
RTVSPost2010Prop36
280
     0
102
RTVSPost2010PropOp36
 70
     1
102
RTVSPost2010Prop37
 90
       50
102
RTVSPost2010PropOp37
 70
     1
102
RTVSPost2010Prop38
140
0.0
102
RTVSPost2010PropOp38
 70
     1
102
RTVSPost2010Prop39
140
1.0
102
RTVSPost2010PropOp39
 70
     1
102
RTVSPost2010Prop40
 90
        0
102
RTVSPost2010PropOp40
 70
     1
102
RTVSPost2010Prop41ColorIndex
 90
       18
102
RTVSPost2010Prop41ColorRGB
 90
        0
102
RTVSPost2010PropOp41
 70
     1
102
RTVSPost2010Prop42
 90
       50
102
RTVSPost2010PropOp42
 70
     1
102
RTVSPost2010Prop43
 90
        3
102
RTVSPost2010PropOp43
 70
     1
102
RTVSPost2010Prop44ColorIndex
 90
        5
102
RTVSPost2010Prop44ColorRGB
 90
      255
102
RTVSPost2010PropOp44
 70
     1
102
RTVSPost2010Prop45
280
     0
102
RTVSPost2010PropOp45
 70
     1
102
RTVSPost2010Prop46
 90
       50
102
RTVSPost2010PropOp46
 70
     1
102
RTVSPost2010Prop47
 90
       50
102
RTVSPost2010PropOp47
 70
     1
102
RTVSPost2010Prop48
 90
       50
102
RTVSPost2010PropOp48
 70
     1
102
RTVSPost2010Prop49
280
     0
102
RTVSPost2010PropOp49
 70
     1
102
RTVSPost2010Prop50
 90
       50
102
RTVSPost2010PropOp50
 70
     1
102
RTVSPost2010Prop51ColorIndex
 90
      256
102
RTVSPost2010Prop51ColorRGB
 90
-16777216
102
RTVSPost2010PropOp51
 70
     0
102
RTVSPost2010Prop52
140
1.0
102
RTVSPost2010PropOp52
 70
     0
102
RTVSPost2010Prop53
 90
        2
102
RTVSPost2010PropOp53
 70
     1
102
RTVSPost2010Prop54
  1
strokes_ogs.tif
102
RTVSPost2010PropOp54
 70
     1
102
RTVSPost2010Prop55
280
     0
102
RTVSPost2010PropOp55
 70
     1
102
RTVSPost2010Prop56
140
1.0
102
RTVSPost2010PropOp56
 70
     1
102
RTVSPost2010Prop57
140
1.0
102
RTVSPost2010PropOp57
 70
     1
  0
XRECORD
  5
188
102
{ACAD_REACTORS
330
187
102
}
330
187
100
AcDbXrecord
280
     1
102
RTVSPropertyOp0
 70
     1
102
RTVSPropertyOp1
 70
     1
102
RTVSPropertyOp2
 70
     1
102
RTVSPropertyOp3
 70
     1
102
RTVSPropertyOp4
 70
     1
102
RTVSPropertyOp5
 70
     1
102
RTVSPropertyOp6
 70
     1
102
RTVSPropertyOp7
 70
     1
102
RTVSPropertyOp8
 70
     1
102
RTVSPropertyOp9
 70
     1
102
RTVSPropertyOp10
 70
     1
102
RTVSPropertyOp11
 70
     1
102
RTVSPropertyOp12
 70
     1
102
RTVSPropertyOp13
 70
     1
102
RTVSPropertyOp14
 70
     1
102
RTVSPropertyOp15
 70
     1
102
RTVSPropertyOp16
 70
     1
102
RTVSPropertyOp17
 70
     1
102
RTVSPropertyOp18
 70
     1
102
RTVSPropertyOp19
 70
     1
102
RTVSPropertyOp20
 70
     1
102
RTVSPropertyOp21
 70
     1
102
RTVSPropertyOp22
 70
     1
102
RTVSPropertyOp23
 70
     1
102
RTVSPropertyOp24
 70
     1
102
RTVSPropertyOp25
 70
     1
102
RTVSPropertyOp26
 70
     1
102
RTVSPropertyOp27
 70
     1
102
RTVSPropertyOp28
 70
     1
102
RTVSPropertyOp29
 70
     1
102
RTVSPropertyOp30
 70
     1
102
RTVSPropertyOp31
 70
     1
102
RTVSPropertyOp32
 70
     1
102
RTVSPropertyOp33
 70
     1
102
RTVSPropertyOp34
 70
     1
102
RTVSPropertyOp35
 70
     1
102
RTVSPropertyOp36
 70
     1
102
RTVSPropertyOp37
 70
     1
102
RTVSPropertyOp38
 70
     1
102
RTVSPropertyOp39
 70
     1
102
RTVSPropertyOp40
 70
     1
102
RTVSPropertyOp41
 70
     1
102
RTVSPropertyOp42
 70
     1
102
RTVSPropertyOp43
 70
     1
102
RTVSPropertyOp44
 70
     1
102
RTVSPropertyOp45
 70
     1
102
RTVSPropertyOp46
 70
     1
102
RTVSPropertyOp47
 70
     1
102
RTVSPropertyOp48
 70
     1
102
RTVSPropertyOp49
 70
     1
102
RTVSPropertyOp50
 70
     1
102
RTVSPropertyOp51
 70
     0
102
RTVSPropertyOp52
 70
     0
102
RTVSPropertyOp53
 70
     1
102
RTVSPropertyOp54
 70
     1
102
RTVSPropertyOp55
 70
     1
102
RTVSPropertyOp56
 70
     1
102
RTVSPropertyOp57
 70
     1
102
RTVSPost2010Prop28
280
     0
102
RTVSPost2010PropOp28
 70
     1
102
RTVSPost2010Prop29
280
     1
102
RTVSPost2010PropOp29
 70
     1
102
RTVSPost2010Prop30
280
     1
102
RTVSPost2010PropOp30
 70
     1
102
RTVSPost2010Prop31
280
     0
102
RTVSPost2010PropOp31
 70
     1
102
RTVSPost2010Prop32
280
     0
102
RTVSPost2010PropOp32
 70
     1
102
RTVSPost2010Prop33
280
     0
102
RTVSPost2010PropOp33
 70
     1
102
RTVSPost2010Prop34
280
     0
102
RTVSPost2010PropOp34
 70
     1
102
RTVSPost2010Prop35
280
     0
102
RTVSPost2010PropOp35
 70
     1
102
RTVSPost2010Prop36
280
     0
102
RTVSPost2010PropOp36
 70
     1
102
RTVSPost2010Prop37
 90
       50
102
RTVSPost2010PropOp37
 70
     1
102
RTVSPost2010Prop38
140
0.0
102
RTVSPost2010PropOp38
 70
     1
102
RTVSPost2010Prop39
140
1.0
102
RTVSPost2010PropOp39
 70
     1
102
RTVSPost2010Prop40
 90
        0
102
RTVSPost2010PropOp40
 70
     1
102
RTVSPost2010Prop41ColorIndex
 90
       18
102
RTVSPost2010Prop41ColorRGB
 90
        0
102
RTVSPost2010PropOp41
 70
     1
102
RTVSPost2010Prop42
 90
       50
102
RTVSPost2010PropOp42
 70
     1
102
RTVSPost2010Prop43
 90
        3
102
RTVSPost2010PropOp43
 70
     1
102
RTVSPost2010Prop44ColorIndex
 90
        5
102
RTVSPost2010Prop44ColorRGB
 90
      255
102
RTVSPost2010PropOp44
 70
     1
102
RTVSPost2010Prop45
280
     0
102
RTVSPost2010PropOp45
 70
     1
102
RTVSPost2010Prop46
 90
       50
102
RTVSPost2010PropOp46
 70
     1
102
RTVSPost2010Prop47
 90
       50
102
RTVSPost2010PropOp47
 70
     1
102
RTVSPost2010Prop48
 90
       50
102
RTVSPost2010PropOp48
 70
     1
102
RTVSPost2010Prop49
280
     0
102
RTVSPost2010PropOp49
 70
     1
102
RTVSPost2010Prop50
 90
       50
102
RTVSPost2010PropOp50
 70
     1
102
RTVSPost2010Prop51ColorIndex
 90
      256
102
RTVSPost2010Prop51ColorRGB
 90
-16777216
102
RTVSPost2010PropOp51
 70
     0
102
RTVSPost2010Prop52
140
1.0
102
RTVSPost2010PropOp52
 70
     0
102
RTVSPost2010Prop53
 90
        2
102
RTVSPost2010PropOp53
 70
     1
102
RTVSPost2010Prop54
  1
strokes_ogs.tif
102
RTVSPost2010PropOp54
 70
     1
102
RTVSPost2010Prop55
280
     0
102
RTVSPost2010PropOp55
 70
     1
102
RTVSPost2010Prop56
140
1.0
102
RTVSPost2010PropOp56
 70
     1
102
RTVSPost2010Prop57
140
1.0
102
RTVSPost2010PropOp57
 70
     1
  0
XRECORD
  5
17C
102
{ACAD_REACTORS
330
17B
102
}
330
17B
100
AcDbXrecord
280
     1
102
RTVSPropertyOp0
 70
     1
102
RTVSPropertyOp1
 70
     1
102
RTVSPropertyOp2
 70
     1
102
RTVSPropertyOp3
 70
     1
102
RTVSPropertyOp4
 70
     1
102
RTVSPropertyOp5
 70
     1
102
RTVSPropertyOp6
 70
     1
102
RTVSPropertyOp7
 70
     1
102
RTVSPropertyOp8
 70
     1
102
RTVSPropertyOp9
 70
     1
102
RTVSPropertyOp10
 70
     1
102
RTVSPropertyOp11
 70
     1
102
RTVSPropertyOp12
 70
     1
102
RTVSPropertyOp13
 70
     1
102
RTVSPropertyOp14
 70
     1
102
RTVSPropertyOp15
 70
     1
102
RTVSPropertyOp16
 70
     1
102
RTVSPropertyOp17
 70
     1
102
RTVSPropertyOp18
 70
     1
102
RTVSPropertyOp19
 70
     1
102
RTVSPropertyOp20
 70
     1
102
RTVSPropertyOp21
 70
     1
102
RTVSPropertyOp22
 70
     1
102
RTVSPropertyOp23
 70
     1
102
RTVSPropertyOp24
 70
     1
102
RTVSPropertyOp25
 70
     1
102
RTVSPropertyOp26
 70
     1
102
RTVSPropertyOp27
 70
     1
102
RTVSPropertyOp28
 70
     1
102
RTVSPropertyOp29
 70
     1
102
RTVSPropertyOp30
 70
     1
102
RTVSPropertyOp31
 70
     1
102
RTVSPropertyOp32
 70
     1
102
RTVSPropertyOp33
 70
     1
102
RTVSPropertyOp34
 70
     1
102
RTVSPropertyOp35
 70
     1
102
RTVSPropertyOp36
 70
     1
102
RTVSPropertyOp37
 70
     1
102
RTVSPropertyOp38
 70
     1
102
RTVSPropertyOp39
 70
     1
102
RTVSPropertyOp40
 70
     1
102
RTVSPropertyOp41
 70
     1
102
RTVSPropertyOp42
 70
     1
102
RTVSPropertyOp43
 70
     1
102
RTVSPropertyOp44
 70
     1
102
RTVSPropertyOp45
 70
     1
102
RTVSPropertyOp46
 70
     1
102
RTVSPropertyOp47
 70
     1
102
RTVSPropertyOp48
 70
     1
102
RTVSPropertyOp49
 70
     1
102
RTVSPropertyOp50
 70
     1
102
RTVSPropertyOp51
 70
     0
102
RTVSPropertyOp52
 70
     0
102
RTVSPropertyOp53
 70
     1
102
RTVSPropertyOp54
 70
     1
102
RTVSPropertyOp55
 70
     1
102
RTVSPropertyOp56
 70
     1
102
RTVSPropertyOp57
 70
     1
102
RTVSPost2010Prop28
280
     0
102
RTVSPost2010PropOp28
 70
     1
102
RTVSPost2010Prop29
280
     1
102
RTVSPost2010PropOp29
 70
     1
102
RTVSPost2010Prop30
280
     1
102
RTVSPost2010PropOp30
 70
     1
102
RTVSPost2010Prop31
280
     0
102
RTVSPost2010PropOp31
 70
     1
102
RTVSPost2010Prop32
280
     0
102
RTVSPost2010PropOp32
 70
     1
102
RTVSPost2010Prop33
280
     0
102
RTVSPost2010PropOp33
 70
     1
102
RTVSPost2010Prop34
280
     0
102
RTVSPost2010PropOp34
 70
     1
102
RTVSPost2010Prop35
280
     0
102
RTVSPost2010PropOp35
 70
     1
102
RTVSPost2010Prop36
280
     0
102
RTVSPost2010PropOp36
 70
     1
102
RTVSPost2010Prop37
 90
       50
102
RTVSPost2010PropOp37
 70
     1
102
RTVSPost2010Prop38
140
0.0
102
RTVSPost2010PropOp38
 70
     1
102
RTVSPost2010Prop39
140
1.0
102
RTVSPost2010PropOp39
 70
     1
102
RTVSPost2010Prop40
 90
        0
102
RTVSPost2010PropOp40
 70
     1
102
RTVSPost2010Prop41ColorIndex
 90
       18
102
RTVSPost2010Prop41ColorRGB
 90
        0
102
RTVSPost2010PropOp41
 70
     1
102
RTVSPost2010Prop42
 90
       50
102
RTVSPost2010PropOp42
 70
     1
102
RTVSPost2010Prop43
 90
        3
102
RTVSPost2010PropOp43
 70
     1
102
RTVSPost2010Prop44ColorIndex
 90
        5
102
RTVSPost2010Prop44ColorRGB
 90
      255
102
RTVSPost2010PropOp44
 70
     1
102
RTVSPost2010Prop45
280
     0
102
RTVSPost2010PropOp45
 70
     1
102
RTVSPost2010Prop46
 90
       50
102
RTVSPost2010PropOp46
 70
     1
102
RTVSPost2010Prop47
 90
       50
102
RTVSPost2010PropOp47
 70
     1
102
RTVSPost2010Prop48
 90
       50
102
RTVSPost2010PropOp48
 70
     1
102
RTVSPost2010Prop49
280
     0
102
RTVSPost2010PropOp49
 70
     1
102
RTVSPost2010Prop50
 90
       50
102
RTVSPost2010PropOp50
 70
     1
102
RTVSPost2010Prop51ColorIndex
 90
      256
102
RTVSPost2010Prop51ColorRGB
 90
-16777216
102
RTVSPost2010PropOp51
 70
     0
102
RTVSPost2010Prop52
140
1.0
102
RTVSPost2010PropOp52
 70
     0
102
RTVSPost2010Prop53
 90
        2
102
RTVSPost2010PropOp53
 70
     1
102
RTVSPost2010Prop54
  1
strokes_ogs.tif
102
RTVSPost2010PropOp54
 70
     1
102
RTVSPost2010Prop55
280
     0
102
RTVSPost2010PropOp55
 70
     1
102
RTVSPost2010Prop56
140
1.0
102
RTVSPost2010PropOp56
 70
     1
102
RTVSPost2010Prop57
140
1.0
102
RTVSPost2010PropOp57
 70
     1
  0
XRECORD
  5
17E
102
{ACAD_REACTORS
330
17D
102
}
330
17D
100
AcDbXrecord
280
     1
102
RTVSPropertyOp0
 70
     1
102
RTVSPropertyOp1
 70
     1
102
RTVSPropertyOp2
 70
     1
102
RTVSPropertyOp3
 70
     1
102
RTVSPropertyOp4
 70
     1
102
RTVSPropertyOp5
 70
     1
102
RTVSPropertyOp6
 70
     1
102
RTVSPropertyOp7
 70
     1
102
RTVSPropertyOp8
 70
     1
102
RTVSPropertyOp9
 70
     1
102
RTVSPropertyOp10
 70
     1
102
RTVSPropertyOp11
 70
     1
102
RTVSPropertyOp12
 70
     1
102
RTVSPropertyOp13
 70
     1
102
RTVSPropertyOp14
 70
     1
102
RTVSPropertyOp15
 70
     1
102
RTVSPropertyOp16
 70
     1
102
RTVSPropertyOp17
 70
     1
102
RTVSPropertyOp18
 70
     1
102
RTVSPropertyOp19
 70
     1
102
RTVSPropertyOp20
 70
     1
102
RTVSPropertyOp21
 70
     1
102
RTVSPropertyOp22
 70
     1
102
RTVSPropertyOp23
 70
     1
102
RTVSPropertyOp24
 70
     1
102
RTVSPropertyOp25
 70
     1
102
RTVSPropertyOp26
 70
     1
102
RTVSPropertyOp27
 70
     1
102
RTVSPropertyOp28
 70
     1
102
RTVSPropertyOp29
 70
     1
102
RTVSPropertyOp30
 70
     1
102
RTVSPropertyOp31
 70
     1
102
RTVSPropertyOp32
 70
     1
102
RTVSPropertyOp33
 70
     1
102
RTVSPropertyOp34
 70
     1
102
RTVSPropertyOp35
 70
     1
102
RTVSPropertyOp36
 70
     1
102
RTVSPropertyOp37
 70
     1
102
RTVSPropertyOp38
 70
     1
102
RTVSPropertyOp39
 70
     1
102
RTVSPropertyOp40
 70
     1
102
RTVSPropertyOp41
 70
     1
102
RTVSPropertyOp42
 70
     1
102
RTVSPropertyOp43
 70
     1
102
RTVSPropertyOp44
 70
     1
102
RTVSPropertyOp45
 70
     1
102
RTVSPropertyOp46
 70
     1
102
RTVSPropertyOp47
 70
     1
102
RTVSPropertyOp48
 70
     1
102
RTVSPropertyOp49
 70
     1
102
RTVSPropertyOp50
 70
     1
102
RTVSPropertyOp51
 70
     0
102
RTVSPropertyOp52
 70
     0
102
RTVSPropertyOp53
 70
     1
102
RTVSPropertyOp54
 70
     1
102
RTVSPropertyOp55
 70
     1
102
RTVSPropertyOp56
 70
     1
102
RTVSPropertyOp57
 70
     1
102
RTVSPost2010Prop28
280
     0
102
RTVSPost2010PropOp28
 70
     1
102
RTVSPost2010Prop29
280
     1
102
RTVSPost2010PropOp29
 70
     1
102
RTVSPost2010Prop30
280
     1
102
RTVSPost2010PropOp30
 70
     1
102
RTVSPost2010Prop31
280
     0
102
RTVSPost2010PropOp31
 70
     1
102
RTVSPost2010Prop32
280
     0
102
RTVSPost2010PropOp32
 70
     1
102
RTVSPost2010Prop33
280
     0
102
RTVSPost2010PropOp33
 70
     1
102
RTVSPost2010Prop34
280
     0
102
RTVSPost2010PropOp34
 70
     1
102
RTVSPost2010Prop35
280
     0
102
RTVSPost2010PropOp35
 70
     1
102
RTVSPost2010Prop36
280
     0
102
RTVSPost2010PropOp36
 70
     1
102
RTVSPost2010Prop37
 90
       50
102
RTVSPost2010PropOp37
 70
     1
102
RTVSPost2010Prop38
140
0.0
102
RTVSPost2010PropOp38
 70
     1
102
RTVSPost2010Prop39
140
1.0
102
RTVSPost2010PropOp39
 70
     1
102
RTVSPost2010Prop40
 90
        0
102
RTVSPost2010PropOp40
 70
     1
102
RTVSPost2010Prop41ColorIndex
 90
       18
102
RTVSPost2010Prop41ColorRGB
 90
        0
102
RTVSPost2010PropOp41
 70
     1
102
RTVSPost2010Prop42
 90
       50
102
RTVSPost2010PropOp42
 70
     1
102
RTVSPost2010Prop43
 90
        3
102
RTVSPost2010PropOp43
 70
     1
102
RTVSPost2010Prop44ColorIndex
 90
        5
102
RTVSPost2010Prop44ColorRGB
 90
      255
102
RTVSPost2010PropOp44
 70
     1
102
RTVSPost2010Prop45
280
     0
102
RTVSPost2010PropOp45
 70
     1
102
RTVSPost2010Prop46
 90
       50
102
RTVSPost2010PropOp46
 70
     1
102
RTVSPost2010Prop47
 90
       50
102
RTVSPost2010PropOp47
 70
     1
102
RTVSPost2010Prop48
 90
       50
102
RTVSPost2010PropOp48
 70
     1
102
RTVSPost2010Prop49
280
     0
102
RTVSPost2010PropOp49
 70
     1
102
RTVSPost2010Prop50
 90
       50
102
RTVSPost2010PropOp50
 70
     1
102
RTVSPost2010Prop51ColorIndex
 90
      256
102
RTVSPost2010Prop51ColorRGB
 90
-16777216
102
RTVSPost2010PropOp51
 70
     0
102
RTVSPost2010Prop52
140
1.0
102
RTVSPost2010PropOp52
 70
     0
102
RTVSPost2010Prop53
 90
        2
102
RTVSPost2010PropOp53
 70
     1
102
RTVSPost2010Prop54
  1
strokes_ogs.tif
102
RTVSPost2010PropOp54
 70
     1
102
RTVSPost2010Prop55
280
     0
102
RTVSPost2010PropOp55
 70
     1
102
RTVSPost2010Prop56
140
1.0
102
RTVSPost2010PropOp56
 70
     1
102
RTVSPost2010Prop57
140
1.0
102
RTVSPost2010PropOp57
 70
     1
  0
XRECORD
  5
18E
102
{ACAD_REACTORS
330
18D
102
}
330
18D
100
AcDbXrecord
280
     1
102
RTVSPropertyOp0
 70
     0
102
RTVSPropertyOp1
 70
     0
102
RTVSPropertyOp2
 70
     0
102
RTVSPropertyOp3
 70
     0
102
RTVSPropertyOp4
 70
     0
102
RTVSPropertyOp5
 70
     0
102
RTVSPropertyOp6
 70
     0
102
RTVSPropertyOp7
 70
     0
102
RTVSPropertyOp8
 70
     0
102
RTVSPropertyOp9
 70
     0
102
RTVSPropertyOp10
 70
     0
102
RTVSPropertyOp11
 70
     0
102
RTVSPropertyOp12
 70
     0
102
RTVSPropertyOp13
 70
     0
102
RTVSPropertyOp14
 70
     2
102
RTVSPropertyOp15
 70
     0
102
RTVSPropertyOp16
 70
     0
102
RTVSPropertyOp17
 70
     0
102
RTVSPropertyOp18
 70
     0
102
RTVSPropertyOp19
 70
     0
102
RTVSPropertyOp20
 70
     0
102
RTVSPropertyOp21
 70
     0
102
RTVSPropertyOp22
 70
     0
102
RTVSPropertyOp23
 70
     0
102
RTVSPropertyOp24
 70
     0
102
RTVSPropertyOp25
 70
     0
102
RTVSPropertyOp26
 70
     0
102
RTVSPropertyOp27
 70
     0
102
RTVSPropertyOp28
 70
     0
102
RTVSPropertyOp29
 70
     0
102
RTVSPropertyOp30
 70
     0
102
RTVSPropertyOp31
 70
     0
102
RTVSPropertyOp32
 70
     0
102
RTVSPropertyOp33
 70
     0
102
RTVSPropertyOp34
 70
     0
102
RTVSPropertyOp35
 70
     0
102
RTVSPropertyOp36
 70
     0
102
RTVSPropertyOp37
 70
     0
102
RTVSPropertyOp38
 70
     0
102
RTVSPropertyOp39
 70
     0
102
RTVSPropertyOp40
 70
     0
102
RTVSPropertyOp41
 70
     0
102
RTVSPropertyOp42
 70
     0
102
RTVSPropertyOp43
 70
     0
102
RTVSPropertyOp44
 70
     0
102
RTVSPropertyOp45
 70
     0
102
RTVSPropertyOp46
 70
     0
102
RTVSPropertyOp47
 70
     0
102
RTVSPropertyOp48
 70
     0
102
RTVSPropertyOp49
 70
     0
102
RTVSPropertyOp50
 70
     0
102
RTVSPropertyOp51
 70
     0
102
RTVSPropertyOp52
 70
     0
102
RTVSPropertyOp53
 70
     0
102
RTVSPropertyOp54
 70
     0
102
RTVSPropertyOp55
 70
     0
102
RTVSPropertyOp56
 70
     0
102
RTVSPropertyOp57
 70
     0
102
RTVSPost2010Prop28
280
     0
102
RTVSPost2010PropOp28
 70
     0
102
RTVSPost2010Prop29
280
     1
102
RTVSPost2010PropOp29
 70
     0
102
RTVSPost2010Prop30
280
     1
102
RTVSPost2010PropOp30
 70
     0
102
RTVSPost2010Prop31
280
     0
102
RTVSPost2010PropOp31
 70
     0
102
RTVSPost2010Prop32
280
     0
102
RTVSPost2010PropOp32
 70
     0
102
RTVSPost2010Prop33
280
     0
102
RTVSPost2010PropOp33
 70
     0
102
RTVSPost2010Prop34
280
     0
102
RTVSPost2010PropOp34
 70
     0
102
RTVSPost2010Prop35
280
     0
102
RTVSPost2010PropOp35
 70
     0
102
RTVSPost2010Prop36
280
     0
102
RTVSPost2010PropOp36
 70
     0
102
RTVSPost2010Prop37
 90
       50
102
RTVSPost2010PropOp37
 70
     0
102
RTVSPost2010Prop38
140
0.0
102
RTVSPost2010PropOp38
 70
     0
102
RTVSPost2010Prop39
140
1.0
102
RTVSPost2010PropOp39
 70
     0
102
RTVSPost2010Prop40
 90
        0
102
RTVSPost2010PropOp40
 70
     0
102
RTVSPost2010Prop41ColorIndex
 90
       18
102
RTVSPost2010Prop41ColorRGB
 90
        0
102
RTVSPost2010PropOp41
 70
     0
102
RTVSPost2010Prop42
 90
       50
102
RTVSPost2010PropOp42
 70
     0
102
RTVSPost2010Prop43
 90
        3
102
RTVSPost2010PropOp43
 70
     0
102
RTVSPost2010Prop44ColorIndex
 90
        5
102
RTVSPost2010Prop44ColorRGB
 90
      255
102
RTVSPost2010PropOp44
 70
     0
102
RTVSPost2010Prop45
280
     0
102
RTVSPost2010PropOp45
 70
     0
102
RTVSPost2010Prop46
 90
       50
102
RTVSPost2010PropOp46
 70
     0
102
RTVSPost2010Prop47
 90
       50
102
RTVSPost2010PropOp47
 70
     0
102
RTVSPost2010Prop48
 90
       50
102
RTVSPost2010PropOp48
 70
     0
102
RTVSPost2010Prop49
280
     0
102
RTVSPost2010PropOp49
 70
     0
102
RTVSPost2010Prop50
 90
       50
102
RTVSPost2010PropOp50
 70
     0
102
RTVSPost2010Prop51ColorIndex
 90
      256
102
RTVSPost2010Prop51ColorRGB
 90
-16777216
102
RTVSPost2010PropOp51
 70
     0
102
RTVSPost2010Prop52
140
1.0
102
RTVSPost2010PropOp52
 70
     0
102
RTVSPost2010Prop53
 90
        2
102
RTVSPost2010PropOp53
 70
     0
102
RTVSPost2010Prop54
  1
strokes_ogs.tif
102
RTVSPost2010PropOp54
 70
     0
102
RTVSPost2010Prop55
280
     0
102
RTVSPost2010PropOp55
 70
     0
102
RTVSPost2010Prop56
140
1.0
102
RTVSPost2010PropOp56
 70
     0
102
RTVSPost2010Prop57
140
1.0
102
RTVSPost2010PropOp57
 70
     0
  0
XRECORD
  5
186
102
{ACAD_REACTORS
330
185
102
}
330
185
100
AcDbXrecord
280
     1
102
RTVSPropertyOp0
 70
     1
102
RTVSPropertyOp1
 70
     1
102
RTVSPropertyOp2
 70
     1
102
RTVSPropertyOp3
 70
     1
102
RTVSPropertyOp4
 70
     1
102
RTVSPropertyOp5
 70
     1
102
RTVSPropertyOp6
 70
     1
102
RTVSPropertyOp7
 70
     1
102
RTVSPropertyOp8
 70
     1
102
RTVSPropertyOp9
 70
     1
102
RTVSPropertyOp10
 70
     1
102
RTVSPropertyOp11
 70
     1
102
RTVSPropertyOp12
 70
     1
102
RTVSPropertyOp13
 70
     1
102
RTVSPropertyOp14
 70
     1
102
RTVSPropertyOp15
 70
     1
102
RTVSPropertyOp16
 70
     1
102
RTVSPropertyOp17
 70
     1
102
RTVSPropertyOp18
 70
     1
102
RTVSPropertyOp19
 70
     1
102
RTVSPropertyOp20
 70
     1
102
RTVSPropertyOp21
 70
     1
102
RTVSPropertyOp22
 70
     1
102
RTVSPropertyOp23
 70
     1
102
RTVSPropertyOp24
 70
     1
102
RTVSPropertyOp25
 70
     1
102
RTVSPropertyOp26
 70
     1
102
RTVSPropertyOp27
 70
     1
102
RTVSPropertyOp28
 70
     1
102
RTVSPropertyOp29
 70
     1
102
RTVSPropertyOp30
 70
     1
102
RTVSPropertyOp31
 70
     1
102
RTVSPropertyOp32
 70
     1
102
RTVSPropertyOp33
 70
     1
102
RTVSPropertyOp34
 70
     1
102
RTVSPropertyOp35
 70
     1
102
RTVSPropertyOp36
 70
     1
102
RTVSPropertyOp37
 70
     1
102
RTVSPropertyOp38
 70
     1
102
RTVSPropertyOp39
 70
     1
102
RTVSPropertyOp40
 70
     1
102
RTVSPropertyOp41
 70
     1
102
RTVSPropertyOp42
 70
     1
102
RTVSPropertyOp43
 70
     1
102
RTVSPropertyOp44
 70
     1
102
RTVSPropertyOp45
 70
     1
102
RTVSPropertyOp46
 70
     1
102
RTVSPropertyOp47
 70
     1
102
RTVSPropertyOp48
 70
     1
102
RTVSPropertyOp49
 70
     1
102
RTVSPropertyOp50
 70
     1
102
RTVSPropertyOp51
 70
     0
102
RTVSPropertyOp52
 70
     0
102
RTVSPropertyOp53
 70
     1
102
RTVSPropertyOp54
 70
     1
102
RTVSPropertyOp55
 70
     1
102
RTVSPropertyOp56
 70
     1
102
RTVSPropertyOp57
 70
     1
102
RTVSPost2010Prop28
280
     0
102
RTVSPost2010PropOp28
 70
     1
102
RTVSPost2010Prop29
280
     1
102
RTVSPost2010PropOp29
 70
     1
102
RTVSPost2010Prop30
280
     1
102
RTVSPost2010PropOp30
 70
     1
102
RTVSPost2010Prop31
280
     0
102
RTVSPost2010PropOp31
 70
     1
102
RTVSPost2010Prop32
280
     0
102
RTVSPost2010PropOp32
 70
     1
102
RTVSPost2010Prop33
280
     0
102
RTVSPost2010PropOp33
 70
     1
102
RTVSPost2010Prop34
280
     0
102
RTVSPost2010PropOp34
 70
     1
102
RTVSPost2010Prop35
280
     0
102
RTVSPost2010PropOp35
 70
     1
102
RTVSPost2010Prop36
280
     0
102
RTVSPost2010PropOp36
 70
     1
102
RTVSPost2010Prop37
 90
       50
102
RTVSPost2010PropOp37
 70
     1
102
RTVSPost2010Prop38
140
0.0
102
RTVSPost2010PropOp38
 70
     1
102
RTVSPost2010Prop39
140
1.0
102
RTVSPost2010PropOp39
 70
     1
102
RTVSPost2010Prop40
 90
        0
102
RTVSPost2010PropOp40
 70
     1
102
RTVSPost2010Prop41ColorIndex
 90
       18
102
RTVSPost2010Prop41ColorRGB
 90
        0
102
RTVSPost2010PropOp41
 70
     1
102
RTVSPost2010Prop42
 90
       50
102
RTVSPost2010PropOp42
 70
     1
102
RTVSPost2010Prop43
 90
        3
102
RTVSPost2010PropOp43
 70
     1
102
RTVSPost2010Prop44ColorIndex
 90
        5
102
RTVSPost2010Prop44ColorRGB
 90
      255
102
RTVSPost2010PropOp44
 70
     1
102
RTVSPost2010Prop45
280
     0
102
RTVSPost2010PropOp45
 70
     1
102
RTVSPost2010Prop46
 90
       50
102
RTVSPost2010PropOp46
 70
     1
102
RTVSPost2010Prop47
 90
       50
102
RTVSPost2010PropOp47
 70
     1
102
RTVSPost2010Prop48
 90
       50
102
RTVSPost2010PropOp48
 70
     1
102
RTVSPost2010Prop49
280
     0
102
RTVSPost2010PropOp49
 70
     1
102
RTVSPost2010Prop50
 90
       50
102
RTVSPost2010PropOp50
 70
     1
102
RTVSPost2010Prop51ColorIndex
 90
      256
102
RTVSPost2010Prop51ColorRGB
 90
-16777216
102
RTVSPost2010PropOp51
 70
     0
102
RTVSPost2010Prop52
140
1.0
102
RTVSPost2010PropOp52
 70
     0
102
RTVSPost2010Prop53
 90
        2
102
RTVSPost2010PropOp53
 70
     1
102
RTVSPost2010Prop54
  1
strokes_ogs.tif
102
RTVSPost2010PropOp54
 70
     1
102
RTVSPost2010Prop55
280
     0
102
RTVSPost2010PropOp55
 70
     1
102
RTVSPost2010Prop56
140
1.0
102
RTVSPost2010PropOp56
 70
     1
102
RTVSPost2010Prop57
140
1.0
102
RTVSPost2010PropOp57
 70
     1
  0
XRECORD
  5
16A
102
{ACAD_REACTORS
330
169
102
}
330
169
100
AcDbXrecord
280
     1
102
RTVSPropertyOp0
 70
     1
102
RTVSPropertyOp1
 70
     1
102
RTVSPropertyOp2
 70
     1
102
RTVSPropertyOp3
 70
     1
102
RTVSPropertyOp4
 70
     1
102
RTVSPropertyOp5
 70
     1
102
RTVSPropertyOp6
 70
     1
102
RTVSPropertyOp7
 70
     1
102
RTVSPropertyOp8
 70
     1
102
RTVSPropertyOp9
 70
     1
102
RTVSPropertyOp10
 70
     1
102
RTVSPropertyOp11
 70
     1
102
RTVSPropertyOp12
 70
     1
102
RTVSPropertyOp13
 70
     1
102
RTVSPropertyOp14
 70
     1
102
RTVSPropertyOp15
 70
     1
102
RTVSPropertyOp16
 70
     1
102
RTVSPropertyOp17
 70
     1
102
RTVSPropertyOp18
 70
     1
102
RTVSPropertyOp19
 70
     1
102
RTVSPropertyOp20
 70
     1
102
RTVSPropertyOp21
 70
     1
102
RTVSPropertyOp22
 70
     1
102
RTVSPropertyOp23
 70
     1
102
RTVSPropertyOp24
 70
     1
102
RTVSPropertyOp25
 70
     1
102
RTVSPropertyOp26
 70
     1
102
RTVSPropertyOp27
 70
     1
102
RTVSPropertyOp28
 70
     1
102
RTVSPropertyOp29
 70
     1
102
RTVSPropertyOp30
 70
     1
102
RTVSPropertyOp31
 70
     1
102
RTVSPropertyOp32
 70
     1
102
RTVSPropertyOp33
 70
     1
102
RTVSPropertyOp34
 70
     1
102
RTVSPropertyOp35
 70
     1
102
RTVSPropertyOp36
 70
     1
102
RTVSPropertyOp37
 70
     1
102
RTVSPropertyOp38
 70
     1
102
RTVSPropertyOp39
 70
     1
102
RTVSPropertyOp40
 70
     1
102
RTVSPropertyOp41
 70
     1
102
RTVSPropertyOp42
 70
     1
102
RTVSPropertyOp43
 70
     1
102
RTVSPropertyOp44
 70
     1
102
RTVSPropertyOp45
 70
     1
102
RTVSPropertyOp46
 70
     1
102
RTVSPropertyOp47
 70
     1
102
RTVSPropertyOp48
 70
     1
102
RTVSPropertyOp49
 70
     1
102
RTVSPropertyOp50
 70
     1
102
RTVSPropertyOp51
 70
     0
102
RTVSPropertyOp52
 70
     0
102
RTVSPropertyOp53
 70
     1
102
RTVSPropertyOp54
 70
     1
102
RTVSPropertyOp55
 70
     1
102
RTVSPropertyOp56
 70
     1
102
RTVSPropertyOp57
 70
     1
102
RTVSPost2010Prop28
280
     0
102
RTVSPost2010PropOp28
 70
     1
102
RTVSPost2010Prop29
280
     1
102
RTVSPost2010PropOp29
 70
     1
102
RTVSPost2010Prop30
280
     1
102
RTVSPost2010PropOp30
 70
     1
102
RTVSPost2010Prop31
280
     0
102
RTVSPost2010PropOp31
 70
     1
102
RTVSPost2010Prop32
280
     0
102
RTVSPost2010PropOp32
 70
     1
102
RTVSPost2010Prop33
280
     0
102
RTVSPost2010PropOp33
 70
     1
102
RTVSPost2010Prop34
280
     0
102
RTVSPost2010PropOp34
 70
     1
102
RTVSPost2010Prop35
280
     0
102
RTVSPost2010PropOp35
 70
     1
102
RTVSPost2010Prop36
280
     0
102
RTVSPost2010PropOp36
 70
     1
102
RTVSPost2010Prop37
 90
       50
102
RTVSPost2010PropOp37
 70
     1
102
RTVSPost2010Prop38
140
0.0
102
RTVSPost2010PropOp38
 70
     1
102
RTVSPost2010Prop39
140
1.0
102
RTVSPost2010PropOp39
 70
     1
102
RTVSPost2010Prop40
 90
        0
102
RTVSPost2010PropOp40
 70
     1
102
RTVSPost2010Prop41ColorIndex
 90
       18
102
RTVSPost2010Prop41ColorRGB
 90
        0
102
RTVSPost2010PropOp41
 70
     1
102
RTVSPost2010Prop42
 90
       50
102
RTVSPost2010PropOp42
 70
     1
102
RTVSPost2010Prop43
 90
        3
102
RTVSPost2010PropOp43
 70
     1
102
RTVSPost2010Prop44ColorIndex
 90
        5
102
RTVSPost2010Prop44ColorRGB
 90
      255
102
RTVSPost2010PropOp44
 70
     1
102
RTVSPost2010Prop45
280
     0
102
RTVSPost2010PropOp45
 70
     1
102
RTVSPost2010Prop46
 90
       50
102
RTVSPost2010PropOp46
 70
     1
102
RTVSPost2010Prop47
 90
       50
102
RTVSPost2010PropOp47
 70
     1
102
RTVSPost2010Prop48
 90
       50
102
RTVSPost2010PropOp48
 70
     1
102
RTVSPost2010Prop49
280
     0
102
RTVSPost2010PropOp49
 70
     1
102
RTVSPost2010Prop50
 90
       50
102
RTVSPost2010PropOp50
 70
     1
102
RTVSPost2010Prop51ColorIndex
 90
      256
102
RTVSPost2010Prop51ColorRGB
 90
-16777216
102
RTVSPost2010PropOp51
 70
     0
102
RTVSPost2010Prop52
140
1.0
102
RTVSPost2010PropOp52
 70
     0
102
RTVSPost2010Prop53
 90
        2
102
RTVSPost2010PropOp53
 70
     1
102
RTVSPost2010Prop54
  1
strokes_ogs.tif
102
RTVSPost2010PropOp54
 70
     1
102
RTVSPost2010Prop55
280
     0
102
RTVSPost2010PropOp55
 70
     1
102
RTVSPost2010Prop56
140
1.0
102
RTVSPost2010PropOp56
 70
     1
102
RTVSPost2010Prop57
140
1.0
102
RTVSPost2010PropOp57
 70
     1
  0
XRECORD
  5
16C
102
{ACAD_REACTORS
330
16B
102
}
330
16B
100
AcDbXrecord
280
     1
102
RTVSPropertyOp0
 70
     1
102
RTVSPropertyOp1
 70
     1
102
RTVSPropertyOp2
 70
     1
102
RTVSPropertyOp3
 70
     1
102
RTVSPropertyOp4
 70
     1
102
RTVSPropertyOp5
 70
     1
102
RTVSPropertyOp6
 70
     1
102
RTVSPropertyOp7
 70
     1
102
RTVSPropertyOp8
 70
     1
102
RTVSPropertyOp9
 70
     1
102
RTVSPropertyOp10
 70
     1
102
RTVSPropertyOp11
 70
     1
102
RTVSPropertyOp12
 70
     1
102
RTVSPropertyOp13
 70
     1
102
RTVSPropertyOp14
 70
     1
102
RTVSPropertyOp15
 70
     1
102
RTVSPropertyOp16
 70
     1
102
RTVSPropertyOp17
 70
     1
102
RTVSPropertyOp18
 70
     1
102
RTVSPropertyOp19
 70
     1
102
RTVSPropertyOp20
 70
     1
102
RTVSPropertyOp21
 70
     1
102
RTVSPropertyOp22
 70
     1
102
RTVSPropertyOp23
 70
     1
102
RTVSPropertyOp24
 70
     1
102
RTVSPropertyOp25
 70
     1
102
RTVSPropertyOp26
 70
     1
102
RTVSPropertyOp27
 70
     1
102
RTVSPropertyOp28
 70
     1
102
RTVSPropertyOp29
 70
     1
102
RTVSPropertyOp30
 70
     1
102
RTVSPropertyOp31
 70
     1
102
RTVSPropertyOp32
 70
     1
102
RTVSPropertyOp33
 70
     1
102
RTVSPropertyOp34
 70
     1
102
RTVSPropertyOp35
 70
     1
102
RTVSPropertyOp36
 70
     1
102
RTVSPropertyOp37
 70
     1
102
RTVSPropertyOp38
 70
     1
102
RTVSPropertyOp39
 70
     1
102
RTVSPropertyOp40
 70
     1
102
RTVSPropertyOp41
 70
     1
102
RTVSPropertyOp42
 70
     1
102
RTVSPropertyOp43
 70
     1
102
RTVSPropertyOp44
 70
     1
102
RTVSPropertyOp45
 70
     1
102
RTVSPropertyOp46
 70
     1
102
RTVSPropertyOp47
 70
     1
102
RTVSPropertyOp48
 70
     1
102
RTVSPropertyOp49
 70
     1
102
RTVSPropertyOp50
 70
     1
102
RTVSPropertyOp51
 70
     0
102
RTVSPropertyOp52
 70
     0
102
RTVSPropertyOp53
 70
     1
102
RTVSPropertyOp54
 70
     1
102
RTVSPropertyOp55
 70
     1
102
RTVSPropertyOp56
 70
     1
102
RTVSPropertyOp57
 70
     1
102
RTVSPost2010Prop28
280
     0
102
RTVSPost2010PropOp28
 70
     1
102
RTVSPost2010Prop29
280
     1
102
RTVSPost2010PropOp29
 70
     1
102
RTVSPost2010Prop30
280
     1
102
RTVSPost2010PropOp30
 70
     1
102
RTVSPost2010Prop31
280
     0
102
RTVSPost2010PropOp31
 70
     1
102
RTVSPost2010Prop32
280
     0
102
RTVSPost2010PropOp32
 70
     1
102
RTVSPost2010Prop33
280
     0
102
RTVSPost2010PropOp33
 70
     1
102
RTVSPost2010Prop34
280
     0
102
RTVSPost2010PropOp34
 70
     1
102
RTVSPost2010Prop35
280
     0
102
RTVSPost2010PropOp35
 70
     1
102
RTVSPost2010Prop36
280
     0
102
RTVSPost2010PropOp36
 70
     1
102
RTVSPost2010Prop37
 90
       50
102
RTVSPost2010PropOp37
 70
     1
102
RTVSPost2010Prop38
140
0.0
102
RTVSPost2010PropOp38
 70
     1
102
RTVSPost2010Prop39
140
1.0
102
RTVSPost2010PropOp39
 70
     1
102
RTVSPost2010Prop40
 90
        0
102
RTVSPost2010PropOp40
 70
     1
102
RTVSPost2010Prop41ColorIndex
 90
       18
102
RTVSPost2010Prop41ColorRGB
 90
        0
102
RTVSPost2010PropOp41
 70
     1
102
RTVSPost2010Prop42
 90
       50
102
RTVSPost2010PropOp42
 70
     1
102
RTVSPost2010Prop43
 90
        3
102
RTVSPost2010PropOp43
 70
     1
102
RTVSPost2010Prop44ColorIndex
 90
        5
102
RTVSPost2010Prop44ColorRGB
 90
      255
102
RTVSPost2010PropOp44
 70
     1
102
RTVSPost2010Prop45
280
     0
102
RTVSPost2010PropOp45
 70
     1
102
RTVSPost2010Prop46
 90
       50
102
RTVSPost2010PropOp46
 70
     1
102
RTVSPost2010Prop47
 90
       50
102
RTVSPost2010PropOp47
 70
     1
102
RTVSPost2010Prop48
 90
       50
102
RTVSPost2010PropOp48
 70
     1
102
RTVSPost2010Prop49
280
     0
102
RTVSPost2010PropOp49
 70
     1
102
RTVSPost2010Prop50
 90
       50
102
RTVSPost2010PropOp50
 70
     1
102
RTVSPost2010Prop51ColorIndex
 90
      256
102
RTVSPost2010Prop51ColorRGB
 90
-16777216
102
RTVSPost2010PropOp51
 70
     0
102
RTVSPost2010Prop52
140
1.0
102
RTVSPost2010PropOp52
 70
     0
102
RTVSPost2010Prop53
 90
        2
102
RTVSPost2010PropOp53
 70
     1
102
RTVSPost2010Prop54
  1
strokes_ogs.tif
102
RTVSPost2010PropOp54
 70
     1
102
RTVSPost2010Prop55
280
     0
102
RTVSPost2010PropOp55
 70
     1
102
RTVSPost2010Prop56
140
1.0
102
RTVSPost2010PropOp56
 70
     1
102
RTVSPost2010Prop57
140
1.0
102
RTVSPost2010PropOp57
 70
     1
  0
XRECORD
  5
16E
102
{ACAD_REACTORS
330
16D
102
}
330
16D
100
AcDbXrecord
280
     1
102
RTVSPropertyOp0
 70
     1
102
RTVSPropertyOp1
 70
     1
102
RTVSPropertyOp2
 70
     1
102
RTVSPropertyOp3
 70
     1
102
RTVSPropertyOp4
 70
     1
102
RTVSPropertyOp5
 70
     1
102
RTVSPropertyOp6
 70
     1
102
RTVSPropertyOp7
 70
     1
102
RTVSPropertyOp8
 70
     1
102
RTVSPropertyOp9
 70
     1
102
RTVSPropertyOp10
 70
     1
102
RTVSPropertyOp11
 70
     1
102
RTVSPropertyOp12
 70
     1
102
RTVSPropertyOp13
 70
     1
102
RTVSPropertyOp14
 70
     1
102
RTVSPropertyOp15
 70
     1
102
RTVSPropertyOp16
 70
     1
102
RTVSPropertyOp17
 70
     1
102
RTVSPropertyOp18
 70
     1
102
RTVSPropertyOp19
 70
     1
102
RTVSPropertyOp20
 70
     1
102
RTVSPropertyOp21
 70
     1
102
RTVSPropertyOp22
 70
     1
102
RTVSPropertyOp23
 70
     1
102
RTVSPropertyOp24
 70
     1
102
RTVSPropertyOp25
 70
     1
102
RTVSPropertyOp26
 70
     1
102
RTVSPropertyOp27
 70
     1
102
RTVSPropertyOp28
 70
     1
102
RTVSPropertyOp29
 70
     1
102
RTVSPropertyOp30
 70
     1
102
RTVSPropertyOp31
 70
     1
102
RTVSPropertyOp32
 70
     1
102
RTVSPropertyOp33
 70
     1
102
RTVSPropertyOp34
 70
     1
102
RTVSPropertyOp35
 70
     1
102
RTVSPropertyOp36
 70
     1
102
RTVSPropertyOp37
 70
     1
102
RTVSPropertyOp38
 70
     1
102
RTVSPropertyOp39
 70
     1
102
RTVSPropertyOp40
 70
     1
102
RTVSPropertyOp41
 70
     1
102
RTVSPropertyOp42
 70
     1
102
RTVSPropertyOp43
 70
     1
102
RTVSPropertyOp44
 70
     1
102
RTVSPropertyOp45
 70
     1
102
RTVSPropertyOp46
 70
     1
102
RTVSPropertyOp47
 70
     1
102
RTVSPropertyOp48
 70
     1
102
RTVSPropertyOp49
 70
     1
102
RTVSPropertyOp50
 70
     1
102
RTVSPropertyOp51
 70
     0
102
RTVSPropertyOp52
 70
     0
102
RTVSPropertyOp53
 70
     1
102
RTVSPropertyOp54
 70
     1
102
RTVSPropertyOp55
 70
     1
102
RTVSPropertyOp56
 70
     1
102
RTVSPropertyOp57
 70
     1
102
RTVSPost2010Prop28
280
     0
102
RTVSPost2010PropOp28
 70
     1
102
RTVSPost2010Prop29
280
     1
102
RTVSPost2010PropOp29
 70
     1
102
RTVSPost2010Prop30
280
     1
102
RTVSPost2010PropOp30
 70
     1
102
RTVSPost2010Prop31
280
     0
102
RTVSPost2010PropOp31
 70
     1
102
RTVSPost2010Prop32
280
     0
102
RTVSPost2010PropOp32
 70
     1
102
RTVSPost2010Prop33
280
     0
102
RTVSPost2010PropOp33
 70
     1
102
RTVSPost2010Prop34
280
     0
102
RTVSPost2010PropOp34
 70
     1
102
RTVSPost2010Prop35
280
     0
102
RTVSPost2010PropOp35
 70
     1
102
RTVSPost2010Prop36
280
     0
102
RTVSPost2010PropOp36
 70
     1
102
RTVSPost2010Prop37
 90
       50
102
RTVSPost2010PropOp37
 70
     1
102
RTVSPost2010Prop38
140
0.0
102
RTVSPost2010PropOp38
 70
     1
102
RTVSPost2010Prop39
140
1.0
102
RTVSPost2010PropOp39
 70
     1
102
RTVSPost2010Prop40
 90
        0
102
RTVSPost2010PropOp40
 70
     1
102
RTVSPost2010Prop41ColorIndex
 90
       18
102
RTVSPost2010Prop41ColorRGB
 90
        0
102
RTVSPost2010PropOp41
 70
     1
102
RTVSPost2010Prop42
 90
       50
102
RTVSPost2010PropOp42
 70
     1
102
RTVSPost2010Prop43
 90
        3
102
RTVSPost2010PropOp43
 70
     1
102
RTVSPost2010Prop44ColorIndex
 90
        5
102
RTVSPost2010Prop44ColorRGB
 90
      255
102
RTVSPost2010PropOp44
 70
     1
102
RTVSPost2010Prop45
280
     0
102
RTVSPost2010PropOp45
 70
     1
102
RTVSPost2010Prop46
 90
       50
102
RTVSPost2010PropOp46
 70
     1
102
RTVSPost2010Prop47
 90
       50
102
RTVSPost2010PropOp47
 70
     1
102
RTVSPost2010Prop48
 90
       50
102
RTVSPost2010PropOp48
 70
     1
102
RTVSPost2010Prop49
280
     0
102
RTVSPost2010PropOp49
 70
     1
102
RTVSPost2010Prop50
 90
       50
102
RTVSPost2010PropOp50
 70
     1
102
RTVSPost2010Prop51ColorIndex
 90
      256
102
RTVSPost2010Prop51ColorRGB
 90
-16777216
102
RTVSPost2010PropOp51
 70
     0
102
RTVSPost2010Prop52
140
1.0
102
RTVSPost2010PropOp52
 70
     0
102
RTVSPost2010Prop53
 90
        2
102
RTVSPost2010PropOp53
 70
     1
102
RTVSPost2010Prop54
  1
strokes_ogs.tif
102
RTVSPost2010PropOp54
 70
     1
102
RTVSPost2010Prop55
280
     0
102
RTVSPost2010PropOp55
 70
     1
102
RTVSPost2010Prop56
140
1.0
102
RTVSPost2010PropOp56
 70
     1
102
RTVSPost2010Prop57
140
1.0
102
RTVSPost2010PropOp57
 70
     1
  0
XRECORD
  5
170
102
{ACAD_REACTORS
330
16F
102
}
330
16F
100
AcDbXrecord
280
     1
102
RTVSPropertyOp0
 70
     1
102
RTVSPropertyOp1
 70
     1
102
RTVSPropertyOp2
 70
     1
102
RTVSPropertyOp3
 70
     1
102
RTVSPropertyOp4
 70
     1
102
RTVSPropertyOp5
 70
     1
102
RTVSPropertyOp6
 70
     1
102
RTVSPropertyOp7
 70
     1
102
RTVSPropertyOp8
 70
     1
102
RTVSPropertyOp9
 70
     1
102
RTVSPropertyOp10
 70
     1
102
RTVSPropertyOp11
 70
     1
102
RTVSPropertyOp12
 70
     1
102
RTVSPropertyOp13
 70
     1
102
RTVSPropertyOp14
 70
     1
102
RTVSPropertyOp15
 70
     1
102
RTVSPropertyOp16
 70
     1
102
RTVSPropertyOp17
 70
     1
102
RTVSPropertyOp18
 70
     1
102
RTVSPropertyOp19
 70
     1
102
RTVSPropertyOp20
 70
     1
102
RTVSPropertyOp21
 70
     1
102
RTVSPropertyOp22
 70
     1
102
RTVSPropertyOp23
 70
     1
102
RTVSPropertyOp24
 70
     1
102
RTVSPropertyOp25
 70
     1
102
RTVSPropertyOp26
 70
     1
102
RTVSPropertyOp27
 70
     1
102
RTVSPropertyOp28
 70
     1
102
RTVSPropertyOp29
 70
     1
102
RTVSPropertyOp30
 70
     1
102
RTVSPropertyOp31
 70
     1
102
RTVSPropertyOp32
 70
     1
102
RTVSPropertyOp33
 70
     1
102
RTVSPropertyOp34
 70
     1
102
RTVSPropertyOp35
 70
     1
102
RTVSPropertyOp36
 70
     1
102
RTVSPropertyOp37
 70
     1
102
RTVSPropertyOp38
 70
     1
102
RTVSPropertyOp39
 70
     1
102
RTVSPropertyOp40
 70
     1
102
RTVSPropertyOp41
 70
     1
102
RTVSPropertyOp42
 70
     1
102
RTVSPropertyOp43
 70
     1
102
RTVSPropertyOp44
 70
     1
102
RTVSPropertyOp45
 70
     1
102
RTVSPropertyOp46
 70
     1
102
RTVSPropertyOp47
 70
     1
102
RTVSPropertyOp48
 70
     1
102
RTVSPropertyOp49
 70
     1
102
RTVSPropertyOp50
 70
     1
102
RTVSPropertyOp51
 70
     0
102
RTVSPropertyOp52
 70
     0
102
RTVSPropertyOp53
 70
     1
102
RTVSPropertyOp54
 70
     1
102
RTVSPropertyOp55
 70
     1
102
RTVSPropertyOp56
 70
     1
102
RTVSPropertyOp57
 70
     1
102
RTVSPost2010Prop28
280
     0
102
RTVSPost2010PropOp28
 70
     1
102
RTVSPost2010Prop29
280
     1
102
RTVSPost2010PropOp29
 70
     1
102
RTVSPost2010Prop30
280
     1
102
RTVSPost2010PropOp30
 70
     1
102
RTVSPost2010Prop31
280
     0
102
RTVSPost2010PropOp31
 70
     1
102
RTVSPost2010Prop32
280
     0
102
RTVSPost2010PropOp32
 70
     1
102
RTVSPost2010Prop33
280
     0
102
RTVSPost2010PropOp33
 70
     1
102
RTVSPost2010Prop34
280
     0
102
RTVSPost2010PropOp34
 70
     1
102
RTVSPost2010Prop35
280
     0
102
RTVSPost2010PropOp35
 70
     1
102
RTVSPost2010Prop36
280
     0
102
RTVSPost2010PropOp36
 70
     1
102
RTVSPost2010Prop37
 90
       50
102
RTVSPost2010PropOp37
 70
     1
102
RTVSPost2010Prop38
140
0.0
102
RTVSPost2010PropOp38
 70
     1
102
RTVSPost2010Prop39
140
1.0
102
RTVSPost2010PropOp39
 70
     1
102
RTVSPost2010Prop40
 90
        0
102
RTVSPost2010PropOp40
 70
     1
102
RTVSPost2010Prop41ColorIndex
 90
       18
102
RTVSPost2010Prop41ColorRGB
 90
        0
102
RTVSPost2010PropOp41
 70
     1
102
RTVSPost2010Prop42
 90
       50
102
RTVSPost2010PropOp42
 70
     1
102
RTVSPost2010Prop43
 90
        3
102
RTVSPost2010PropOp43
 70
     1
102
RTVSPost2010Prop44ColorIndex
 90
        5
102
RTVSPost2010Prop44ColorRGB
 90
      255
102
RTVSPost2010PropOp44
 70
     1
102
RTVSPost2010Prop45
280
     0
102
RTVSPost2010PropOp45
 70
     1
102
RTVSPost2010Prop46
 90
       50
102
RTVSPost2010PropOp46
 70
     1
102
RTVSPost2010Prop47
 90
       50
102
RTVSPost2010PropOp47
 70
     1
102
RTVSPost2010Prop48
 90
       50
102
RTVSPost2010PropOp48
 70
     1
102
RTVSPost2010Prop49
280
     0
102
RTVSPost2010PropOp49
 70
     1
102
RTVSPost2010Prop50
 90
       50
102
RTVSPost2010PropOp50
 70
     1
102
RTVSPost2010Prop51ColorIndex
 90
      256
102
RTVSPost2010Prop51ColorRGB
 90
-16777216
102
RTVSPost2010PropOp51
 70
     0
102
RTVSPost2010Prop52
140
1.0
102
RTVSPost2010PropOp52
 70
     0
102
RTVSPost2010Prop53
 90
        2
102
RTVSPost2010PropOp53
 70
     1
102
RTVSPost2010Prop54
  1
strokes_ogs.tif
102
RTVSPost2010PropOp54
 70
     1
102
RTVSPost2010Prop55
280
     0
102
RTVSPost2010PropOp55
 70
     1
102
RTVSPost2010Prop56
140
1.0
102
RTVSPost2010PropOp56
 70
     1
102
RTVSPost2010Prop57
140
1.0
102
RTVSPost2010PropOp57
 70
     1
  0
XRECORD
  5
176
102
{ACAD_REACTORS
330
175
102
}
330
175
100
AcDbXrecord
280
     1
102
RTVSPropertyOp0
 70
     1
102
RTVSPropertyOp1
 70
     1
102
RTVSPropertyOp2
 70
     1
102
RTVSPropertyOp3
 70
     1
102
RTVSPropertyOp4
 70
     1
102
RTVSPropertyOp5
 70
     1
102
RTVSPropertyOp6
 70
     1
102
RTVSPropertyOp7
 70
     1
102
RTVSPropertyOp8
 70
     1
102
RTVSPropertyOp9
 70
     1
102
RTVSPropertyOp10
 70
     1
102
RTVSPropertyOp11
 70
     1
102
RTVSPropertyOp12
 70
     1
102
RTVSPropertyOp13
 70
     1
102
RTVSPropertyOp14
 70
     1
102
RTVSPropertyOp15
 70
     1
102
RTVSPropertyOp16
 70
     1
102
RTVSPropertyOp17
 70
     1
102
RTVSPropertyOp18
 70
     1
102
RTVSPropertyOp19
 70
     1
102
RTVSPropertyOp20
 70
     1
102
RTVSPropertyOp21
 70
     1
102
RTVSPropertyOp22
 70
     1
102
RTVSPropertyOp23
 70
     1
102
RTVSPropertyOp24
 70
     1
102
RTVSPropertyOp25
 70
     1
102
RTVSPropertyOp26
 70
     1
102
RTVSPropertyOp27
 70
     1
102
RTVSPropertyOp28
 70
     1
102
RTVSPropertyOp29
 70
     1
102
RTVSPropertyOp30
 70
     1
102
RTVSPropertyOp31
 70
     1
102
RTVSPropertyOp32
 70
     1
102
RTVSPropertyOp33
 70
     1
102
RTVSPropertyOp34
 70
     1
102
RTVSPropertyOp35
 70
     1
102
RTVSPropertyOp36
 70
     1
102
RTVSPropertyOp37
 70
     1
102
RTVSPropertyOp38
 70
     1
102
RTVSPropertyOp39
 70
     1
102
RTVSPropertyOp40
 70
     1
102
RTVSPropertyOp41
 70
     1
102
RTVSPropertyOp42
 70
     1
102
RTVSPropertyOp43
 70
     1
102
RTVSPropertyOp44
 70
     1
102
RTVSPropertyOp45
 70
     1
102
RTVSPropertyOp46
 70
     1
102
RTVSPropertyOp47
 70
     1
102
RTVSPropertyOp48
 70
     1
102
RTVSPropertyOp49
 70
     1
102
RTVSPropertyOp50
 70
     1
102
RTVSPropertyOp51
 70
     0
102
RTVSPropertyOp52
 70
     0
102
RTVSPropertyOp53
 70
     1
102
RTVSPropertyOp54
 70
     1
102
RTVSPropertyOp55
 70
     1
102
RTVSPropertyOp56
 70
     1
102
RTVSPropertyOp57
 70
     1
102
RTVSPost2010Prop28
280
     0
102
RTVSPost2010PropOp28
 70
     1
102
RTVSPost2010Prop29
280
     1
102
RTVSPost2010PropOp29
 70
     1
102
RTVSPost2010Prop30
280
     1
102
RTVSPost2010PropOp30
 70
     1
102
RTVSPost2010Prop31
280
     0
102
RTVSPost2010PropOp31
 70
     1
102
RTVSPost2010Prop32
280
     0
102
RTVSPost2010PropOp32
 70
     1
102
RTVSPost2010Prop33
280
     0
102
RTVSPost2010PropOp33
 70
     1
102
RTVSPost2010Prop34
280
     0
102
RTVSPost2010PropOp34
 70
     1
102
RTVSPost2010Prop35
280
     0
102
RTVSPost2010PropOp35
 70
     1
102
RTVSPost2010Prop36
280
     0
102
RTVSPost2010PropOp36
 70
     1
102
RTVSPost2010Prop37
 90
       50
102
RTVSPost2010PropOp37
 70
     1
102
RTVSPost2010Prop38
140
0.0
102
RTVSPost2010PropOp38
 70
     1
102
RTVSPost2010Prop39
140
1.0
102
RTVSPost2010PropOp39
 70
     1
102
RTVSPost2010Prop40
 90
        0
102
RTVSPost2010PropOp40
 70
     1
102
RTVSPost2010Prop41ColorIndex
 90
       18
102
RTVSPost2010Prop41ColorRGB
 90
        0
102
RTVSPost2010PropOp41
 70
     1
102
RTVSPost2010Prop42
 90
       50
102
RTVSPost2010PropOp42
 70
     1
102
RTVSPost2010Prop43
 90
        3
102
RTVSPost2010PropOp43
 70
     1
102
RTVSPost2010Prop44ColorIndex
 90
        5
102
RTVSPost2010Prop44ColorRGB
 90
      255
102
RTVSPost2010PropOp44
 70
     1
102
RTVSPost2010Prop45
280
     0
102
RTVSPost2010PropOp45
 70
     1
102
RTVSPost2010Prop46
 90
       50
102
RTVSPost2010PropOp46
 70
     1
102
RTVSPost2010Prop47
 90
       50
102
RTVSPost2010PropOp47
 70
     1
102
RTVSPost2010Prop48
 90
       50
102
RTVSPost2010PropOp48
 70
     1
102
RTVSPost2010Prop49
280
     0
102
RTVSPost2010PropOp49
 70
     1
102
RTVSPost2010Prop50
 90
       50
102
RTVSPost2010PropOp50
 70
     1
102
RTVSPost2010Prop51ColorIndex
 90
      256
102
RTVSPost2010Prop51ColorRGB
 90
-16777216
102
RTVSPost2010PropOp51
 70
     0
102
RTVSPost2010Prop52
140
1.0
102
RTVSPost2010PropOp52
 70
     0
102
RTVSPost2010Prop53
 90
        2
102
RTVSPost2010PropOp53
 70
     1
102
RTVSPost2010Prop54
  1
strokes_ogs.tif
102
RTVSPost2010PropOp54
 70
     1
102
RTVSPost2010Prop55
280
     0
102
RTVSPost2010PropOp55
 70
     1
102
RTVSPost2010Prop56
140
1.0
102
RTVSPost2010PropOp56
 70
     1
102
RTVSPost2010Prop57
140
1.0
102
RTVSPost2010PropOp57
 70
     1
  0
XRECORD
  5
18A
102
{ACAD_REACTORS
330
189
102
}
330
189
100
AcDbXrecord
280
     1
102
RTVSPropertyOp0
 70
     0
102
RTVSPropertyOp1
 70
     0
102
RTVSPropertyOp2
 70
     0
102
RTVSPropertyOp3
 70
     0
102
RTVSPropertyOp4
 70
     0
102
RTVSPropertyOp5
 70
     0
102
RTVSPropertyOp6
 70
     0
102
RTVSPropertyOp7
 70
     0
102
RTVSPropertyOp8
 70
     0
102
RTVSPropertyOp9
 70
     0
102
RTVSPropertyOp10
 70
     0
102
RTVSPropertyOp11
 70
     0
102
RTVSPropertyOp12
 70
     0
102
RTVSPropertyOp13
 70
     0
102
RTVSPropertyOp14
 70
     2
102
RTVSPropertyOp15
 70
     0
102
RTVSPropertyOp16
 70
     0
102
RTVSPropertyOp17
 70
     0
102
RTVSPropertyOp18
 70
     0
102
RTVSPropertyOp19
 70
     0
102
RTVSPropertyOp20
 70
     0
102
RTVSPropertyOp21
 70
     0
102
RTVSPropertyOp22
 70
     0
102
RTVSPropertyOp23
 70
     0
102
RTVSPropertyOp24
 70
     0
102
RTVSPropertyOp25
 70
     0
102
RTVSPropertyOp26
 70
     0
102
RTVSPropertyOp27
 70
     0
102
RTVSPropertyOp28
 70
     0
102
RTVSPropertyOp29
 70
     0
102
RTVSPropertyOp30
 70
     0
102
RTVSPropertyOp31
 70
     0
102
RTVSPropertyOp32
 70
     0
102
RTVSPropertyOp33
 70
     0
102
RTVSPropertyOp34
 70
     0
102
RTVSPropertyOp35
 70
     0
102
RTVSPropertyOp36
 70
     0
102
RTVSPropertyOp37
 70
     0
102
RTVSPropertyOp38
 70
     0
102
RTVSPropertyOp39
 70
     0
102
RTVSPropertyOp40
 70
     0
102
RTVSPropertyOp41
 70
     0
102
RTVSPropertyOp42
 70
     0
102
RTVSPropertyOp43
 70
     0
102
RTVSPropertyOp44
 70
     0
102
RTVSPropertyOp45
 70
     0
102
RTVSPropertyOp46
 70
     0
102
RTVSPropertyOp47
 70
     0
102
RTVSPropertyOp48
 70
     0
102
RTVSPropertyOp49
 70
     0
102
RTVSPropertyOp50
 70
     0
102
RTVSPropertyOp51
 70
     0
102
RTVSPropertyOp52
 70
     0
102
RTVSPropertyOp53
 70
     0
102
RTVSPropertyOp54
 70
     0
102
RTVSPropertyOp55
 70
     0
102
RTVSPropertyOp56
 70
     0
102
RTVSPropertyOp57
 70
     0
102
RTVSPost2010Prop28
280
     0
102
RTVSPost2010PropOp28
 70
     0
102
RTVSPost2010Prop29
280
     1
102
RTVSPost2010PropOp29
 70
     0
102
RTVSPost2010Prop30
280
     1
102
RTVSPost2010PropOp30
 70
     0
102
RTVSPost2010Prop31
280
     0
102
RTVSPost2010PropOp31
 70
     0
102
RTVSPost2010Prop32
280
     0
102
RTVSPost2010PropOp32
 70
     0
102
RTVSPost2010Prop33
280
     0
102
RTVSPost2010PropOp33
 70
     0
102
RTVSPost2010Prop34
280
     0
102
RTVSPost2010PropOp34
 70
     0
102
RTVSPost2010Prop35
280
     0
102
RTVSPost2010PropOp35
 70
     0
102
RTVSPost2010Prop36
280
     0
102
RTVSPost2010PropOp36
 70
     0
102
RTVSPost2010Prop37
 90
       50
102
RTVSPost2010PropOp37
 70
     0
102
RTVSPost2010Prop38
140
0.0
102
RTVSPost2010PropOp38
 70
     0
102
RTVSPost2010Prop39
140
1.0
102
RTVSPost2010PropOp39
 70
     0
102
RTVSPost2010Prop40
 90
        0
102
RTVSPost2010PropOp40
 70
     0
102
RTVSPost2010Prop41ColorIndex
 90
       18
102
RTVSPost2010Prop41ColorRGB
 90
        0
102
RTVSPost2010PropOp41
 70
     0
102
RTVSPost2010Prop42
 90
       50
102
RTVSPost2010PropOp42
 70
     0
102
RTVSPost2010Prop43
 90
        3
102
RTVSPost2010PropOp43
 70
     0
102
RTVSPost2010Prop44ColorIndex
 90
        5
102
RTVSPost2010Prop44ColorRGB
 90
      255
102
RTVSPost2010PropOp44
 70
     0
102
RTVSPost2010Prop45
280
     0
102
RTVSPost2010PropOp45
 70
     0
102
RTVSPost2010Prop46
 90
       50
102
RTVSPost2010PropOp46
 70
     0
102
RTVSPost2010Prop47
 90
       50
102
RTVSPost2010PropOp47
 70
     0
102
RTVSPost2010Prop48
 90
       50
102
RTVSPost2010PropOp48
 70
     0
102
RTVSPost2010Prop49
280
     0
102
RTVSPost2010PropOp49
 70
     0
102
RTVSPost2010Prop50
 90
       50
102
RTVSPost2010PropOp50
 70
     0
102
RTVSPost2010Prop51ColorIndex
 90
      256
102
RTVSPost2010Prop51ColorRGB
 90
-16777216
102
RTVSPost2010PropOp51
 70
     0
102
RTVSPost2010Prop52
140
1.0
102
RTVSPost2010PropOp52
 70
     0
102
RTVSPost2010Prop53
 90
        2
102
RTVSPost2010PropOp53
 70
     0
102
RTVSPost2010Prop54
  1
strokes_ogs.tif
102
RTVSPost2010PropOp54
 70
     0
102
RTVSPost2010Prop55
280
     0
102
RTVSPost2010PropOp55
 70
     0
102
RTVSPost2010Prop56
140
1.0
102
RTVSPost2010PropOp56
 70
     0
102
RTVSPost2010Prop57
140
1.0
102
RTVSPost2010PropOp57
 70
     0
  0
XRECORD
  5
184
102
{ACAD_REACTORS
330
183
102
}
330
183
100
AcDbXrecord
280
     1
102
RTVSPropertyOp0
 70
     1
102
RTVSPropertyOp1
 70
     1
102
RTVSPropertyOp2
 70
     1
102
RTVSPropertyOp3
 70
     1
102
RTVSPropertyOp4
 70
     1
102
RTVSPropertyOp5
 70
     1
102
RTVSPropertyOp6
 70
     1
102
RTVSPropertyOp7
 70
     1
102
RTVSPropertyOp8
 70
     1
102
RTVSPropertyOp9
 70
     1
102
RTVSPropertyOp10
 70
     1
102
RTVSPropertyOp11
 70
     1
102
RTVSPropertyOp12
 70
     1
102
RTVSPropertyOp13
 70
     1
102
RTVSPropertyOp14
 70
     1
102
RTVSPropertyOp15
 70
     1
102
RTVSPropertyOp16
 70
     1
102
RTVSPropertyOp17
 70
     1
102
RTVSPropertyOp18
 70
     1
102
RTVSPropertyOp19
 70
     1
102
RTVSPropertyOp20
 70
     1
102
RTVSPropertyOp21
 70
     1
102
RTVSPropertyOp22
 70
     1
102
RTVSPropertyOp23
 70
     1
102
RTVSPropertyOp24
 70
     1
102
RTVSPropertyOp25
 70
     1
102
RTVSPropertyOp26
 70
     1
102
RTVSPropertyOp27
 70
     1
102
RTVSPropertyOp28
 70
     1
102
RTVSPropertyOp29
 70
     1
102
RTVSPropertyOp30
 70
     1
102
RTVSPropertyOp31
 70
     1
102
RTVSPropertyOp32
 70
     1
102
RTVSPropertyOp33
 70
     1
102
RTVSPropertyOp34
 70
     1
102
RTVSPropertyOp35
 70
     1
102
RTVSPropertyOp36
 70
     1
102
RTVSPropertyOp37
 70
     1
102
RTVSPropertyOp38
 70
     1
102
RTVSPropertyOp39
 70
     1
102
RTVSPropertyOp40
 70
     1
102
RTVSPropertyOp41
 70
     1
102
RTVSPropertyOp42
 70
     1
102
RTVSPropertyOp43
 70
     1
102
RTVSPropertyOp44
 70
     1
102
RTVSPropertyOp45
 70
     1
102
RTVSPropertyOp46
 70
     1
102
RTVSPropertyOp47
 70
     1
102
RTVSPropertyOp48
 70
     1
102
RTVSPropertyOp49
 70
     1
102
RTVSPropertyOp50
 70
     1
102
RTVSPropertyOp51
 70
     0
102
RTVSPropertyOp52
 70
     0
102
RTVSPropertyOp53
 70
     1
102
RTVSPropertyOp54
 70
     1
102
RTVSPropertyOp55
 70
     1
102
RTVSPropertyOp56
 70
     1
102
RTVSPropertyOp57
 70
     1
102
RTVSPost2010Prop28
280
     0
102
RTVSPost2010PropOp28
 70
     1
102
RTVSPost2010Prop29
280
     1
102
RTVSPost2010PropOp29
 70
     1
102
RTVSPost2010Prop30
280
     1
102
RTVSPost2010PropOp30
 70
     1
102
RTVSPost2010Prop31
280
     0
102
RTVSPost2010PropOp31
 70
     1
102
RTVSPost2010Prop32
280
     0
102
RTVSPost2010PropOp32
 70
     1
102
RTVSPost2010Prop33
280
     0
102
RTVSPost2010PropOp33
 70
     1
102
RTVSPost2010Prop34
280
     0
102
RTVSPost2010PropOp34
 70
     1
102
RTVSPost2010Prop35
280
     0
102
RTVSPost2010PropOp35
 70
     1
102
RTVSPost2010Prop36
280
     0
102
RTVSPost2010PropOp36
 70
     1
102
RTVSPost2010Prop37
 90
       50
102
RTVSPost2010PropOp37
 70
     1
102
RTVSPost2010Prop38
140
0.0
102
RTVSPost2010PropOp38
 70
     1
102
RTVSPost2010Prop39
140
1.0
102
RTVSPost2010PropOp39
 70
     1
102
RTVSPost2010Prop40
 90
        0
102
RTVSPost2010PropOp40
 70
     1
102
RTVSPost2010Prop41ColorIndex
 90
       18
102
RTVSPost2010Prop41ColorRGB
 90
        0
102
RTVSPost2010PropOp41
 70
     1
102
RTVSPost2010Prop42
 90
       50
102
RTVSPost2010PropOp42
 70
     1
102
RTVSPost2010Prop43
 90
        3
102
RTVSPost2010PropOp43
 70
     1
102
RTVSPost2010Prop44ColorIndex
 90
        5
102
RTVSPost2010Prop44ColorRGB
 90
      255
102
RTVSPost2010PropOp44
 70
     1
102
RTVSPost2010Prop45
280
     0
102
RTVSPost2010PropOp45
 70
     1
102
RTVSPost2010Prop46
 90
       50
102
RTVSPost2010PropOp46
 70
     1
102
RTVSPost2010Prop47
 90
       50
102
RTVSPost2010PropOp47
 70
     1
102
RTVSPost2010Prop48
 90
       50
102
RTVSPost2010PropOp48
 70
     1
102
RTVSPost2010Prop49
280
     0
102
RTVSPost2010PropOp49
 70
     1
102
RTVSPost2010Prop50
 90
       50
102
RTVSPost2010PropOp50
 70
     1
102
RTVSPost2010Prop51ColorIndex
 90
      256
102
RTVSPost2010Prop51ColorRGB
 90
-16777216
102
RTVSPost2010PropOp51
 70
     0
102
RTVSPost2010Prop52
140
1.0
102
RTVSPost2010PropOp52
 70
     0
102
RTVSPost2010Prop53
 90
        2
102
RTVSPost2010PropOp53
 70
     1
102
RTVSPost2010Prop54
  1
strokes_ogs.tif
102
RTVSPost2010PropOp54
 70
     1
102
RTVSPost2010Prop55
280
     0
102
RTVSPost2010PropOp55
 70
     1
102
RTVSPost2010Prop56
140
1.0
102
RTVSPost2010PropOp56
 70
     1
102
RTVSPost2010Prop57
140
1.0
102
RTVSPost2010PropOp57
 70
     1
  0
XRECORD
  5
18C
102
{ACAD_REACTORS
330
18B
102
}
330
18B
100
AcDbXrecord
280
     1
102
RTVSPropertyOp0
 70
     0
102
RTVSPropertyOp1
 70
     0
102
RTVSPropertyOp2
 70
     0
102
RTVSPropertyOp3
 70
     0
102
RTVSPropertyOp4
 70
     0
102
RTVSPropertyOp5
 70
     0
102
RTVSPropertyOp6
 70
     0
102
RTVSPropertyOp7
 70
     0
102
RTVSPropertyOp8
 70
     0
102
RTVSPropertyOp9
 70
     0
102
RTVSPropertyOp10
 70
     0
102
RTVSPropertyOp11
 70
     0
102
RTVSPropertyOp12
 70
     0
102
RTVSPropertyOp13
 70
     0
102
RTVSPropertyOp14
 70
     2
102
RTVSPropertyOp15
 70
     0
102
RTVSPropertyOp16
 70
     0
102
RTVSPropertyOp17
 70
     0
102
RTVSPropertyOp18
 70
     0
102
RTVSPropertyOp19
 70
     0
102
RTVSPropertyOp20
 70
     0
102
RTVSPropertyOp21
 70
     0
102
RTVSPropertyOp22
 70
     0
102
RTVSPropertyOp23
 70
     0
102
RTVSPropertyOp24
 70
     0
102
RTVSPropertyOp25
 70
     0
102
RTVSPropertyOp26
 70
     0
102
RTVSPropertyOp27
 70
     0
102
RTVSPropertyOp28
 70
     0
102
RTVSPropertyOp29
 70
     0
102
RTVSPropertyOp30
 70
     0
102
RTVSPropertyOp31
 70
     0
102
RTVSPropertyOp32
 70
     0
102
RTVSPropertyOp33
 70
     0
102
RTVSPropertyOp34
 70
     0
102
RTVSPropertyOp35
 70
     0
102
RTVSPropertyOp36
 70
     0
102
RTVSPropertyOp37
 70
     0
102
RTVSPropertyOp38
 70
     0
102
RTVSPropertyOp39
 70
     0
102
RTVSPropertyOp40
 70
     0
102
RTVSPropertyOp41
 70
     0
102
RTVSPropertyOp42
 70
     0
102
RTVSPropertyOp43
 70
     0
102
RTVSPropertyOp44
 70
     0
102
RTVSPropertyOp45
 70
     0
102
RTVSPropertyOp46
 70
     0
102
RTVSPropertyOp47
 70
     0
102
RTVSPropertyOp48
 70
     0
102
RTVSPropertyOp49
 70
     0
102
RTVSPropertyOp50
 70
     0
102
RTVSPropertyOp51
 70
     0
102
RTVSPropertyOp52
 70
     0
102
RTVSPropertyOp53
 70
     0
102
RTVSPropertyOp54
 70
     0
102
RTVSPropertyOp55
 70
     0
102
RTVSPropertyOp56
 70
     0
102
RTVSPropertyOp57
 70
     0
102
RTVSPost2010Prop28
280
     0
102
RTVSPost2010PropOp28
 70
     0
102
RTVSPost2010Prop29
280
     1
102
RTVSPost2010PropOp29
 70
     0
102
RTVSPost2010Prop30
280
     1
102
RTVSPost2010PropOp30
 70
     0
102
RTVSPost2010Prop31
280
     0
102
RTVSPost2010PropOp31
 70
     0
102
RTVSPost2010Prop32
280
     0
102
RTVSPost2010PropOp32
 70
     0
102
RTVSPost2010Prop33
280
     0
102
RTVSPost2010PropOp33
 70
     0
102
RTVSPost2010Prop34
280
     0
102
RTVSPost2010PropOp34
 70
     0
102
RTVSPost2010Prop35
280
     0
102
RTVSPost2010PropOp35
 70
     0
102
RTVSPost2010Prop36
280
     0
102
RTVSPost2010PropOp36
 70
     0
102
RTVSPost2010Prop37
 90
       50
102
RTVSPost2010PropOp37
 70
     0
102
RTVSPost2010Prop38
140
0.0
102
RTVSPost2010PropOp38
 70
     0
102
RTVSPost2010Prop39
140
1.0
102
RTVSPost2010PropOp39
 70
     0
102
RTVSPost2010Prop40
 90
        0
102
RTVSPost2010PropOp40
 70
     0
102
RTVSPost2010Prop41ColorIndex
 90
       18
102
RTVSPost2010Prop41ColorRGB
 90
        0
102
RTVSPost2010PropOp41
 70
     0
102
RTVSPost2010Prop42
 90
       50
102
RTVSPost2010PropOp42
 70
     0
102
RTVSPost2010Prop43
 90
        3
102
RTVSPost2010PropOp43
 70
     0
102
RTVSPost2010Prop44ColorIndex
 90
        5
102
RTVSPost2010Prop44ColorRGB
 90
      255
102
RTVSPost2010PropOp44
 70
     0
102
RTVSPost2010Prop45
280
     0
102
RTVSPost2010PropOp45
 70
     0
102
RTVSPost2010Prop46
 90
       50
102
RTVSPost2010PropOp46
 70
     0
102
RTVSPost2010Prop47
 90
       50
102
RTVSPost2010PropOp47
 70
     0
102
RTVSPost2010Prop48
 90
       50
102
RTVSPost2010PropOp48
 70
     0
102
RTVSPost2010Prop49
280
     0
102
RTVSPost2010PropOp49
 70
     0
102
RTVSPost2010Prop50
 90
       50
102
RTVSPost2010PropOp50
 70
     0
102
RTVSPost2010Prop51ColorIndex
 90
      256
102
RTVSPost2010Prop51ColorRGB
 90
-16777216
102
RTVSPost2010PropOp51
 70
     0
102
RTVSPost2010Prop52
140
1.0
102
RTVSPost2010PropOp52
 70
     0
102
RTVSPost2010Prop53
 90
        2
102
RTVSPost2010PropOp53
 70
     0
102
RTVSPost2010Prop54
  1
strokes_ogs.tif
102
RTVSPost2010PropOp54
 70
     0
102
RTVSPost2010Prop55
280
     0
102
RTVSPost2010PropOp55
 70
     0
102
RTVSPost2010Prop56
140
1.0
102
RTVSPost2010PropOp56
 70
     0
102
RTVSPost2010Prop57
140
1.0
102
RTVSPost2010PropOp57
 70
     0
  0
XRECORD
  5
17A
102
{ACAD_REACTORS
330
179
102
}
330
179
100
AcDbXrecord
280
     1
102
RTVSPropertyOp0
 70
     1
102
RTVSPropertyOp1
 70
     1
102
RTVSPropertyOp2
 70
     1
102
RTVSPropertyOp3
 70
     1
102
RTVSPropertyOp4
 70
     1
102
RTVSPropertyOp5
 70
     1
102
RTVSPropertyOp6
 70
     1
102
RTVSPropertyOp7
 70
     1
102
RTVSPropertyOp8
 70
     1
102
RTVSPropertyOp9
 70
     1
102
RTVSPropertyOp10
 70
     1
102
RTVSPropertyOp11
 70
     1
102
RTVSPropertyOp12
 70
     1
102
RTVSPropertyOp13
 70
     1
102
RTVSPropertyOp14
 70
     1
102
RTVSPropertyOp15
 70
     1
102
RTVSPropertyOp16
 70
     1
102
RTVSPropertyOp17
 70
     1
102
RTVSPropertyOp18
 70
     1
102
RTVSPropertyOp19
 70
     1
102
RTVSPropertyOp20
 70
     1
102
RTVSPropertyOp21
 70
     1
102
RTVSPropertyOp22
 70
     1
102
RTVSPropertyOp23
 70
     1
102
RTVSPropertyOp24
 70
     1
102
RTVSPropertyOp25
 70
     1
102
RTVSPropertyOp26
 70
     1
102
RTVSPropertyOp27
 70
     1
102
RTVSPropertyOp28
 70
     1
102
RTVSPropertyOp29
 70
     1
102
RTVSPropertyOp30
 70
     1
102
RTVSPropertyOp31
 70
     1
102
RTVSPropertyOp32
 70
     1
102
RTVSPropertyOp33
 70
     1
102
RTVSPropertyOp34
 70
     1
102
RTVSPropertyOp35
 70
     1
102
RTVSPropertyOp36
 70
     1
102
RTVSPropertyOp37
 70
     1
102
RTVSPropertyOp38
 70
     1
102
RTVSPropertyOp39
 70
     1
102
RTVSPropertyOp40
 70
     1
102
RTVSPropertyOp41
 70
     1
102
RTVSPropertyOp42
 70
     1
102
RTVSPropertyOp43
 70
     1
102
RTVSPropertyOp44
 70
     1
102
RTVSPropertyOp45
 70
     1
102
RTVSPropertyOp46
 70
     1
102
RTVSPropertyOp47
 70
     1
102
RTVSPropertyOp48
 70
     1
102
RTVSPropertyOp49
 70
     1
102
RTVSPropertyOp50
 70
     1
102
RTVSPropertyOp51
 70
     0
102
RTVSPropertyOp52
 70
     0
102
RTVSPropertyOp53
 70
     1
102
RTVSPropertyOp54
 70
     1
102
RTVSPropertyOp55
 70
     1
102
RTVSPropertyOp56
 70
     1
102
RTVSPropertyOp57
 70
     1
102
RTVSPost2010Prop28
280
     0
102
RTVSPost2010PropOp28
 70
     1
102
RTVSPost2010Prop29
280
     1
102
RTVSPost2010PropOp29
 70
     1
102
RTVSPost2010Prop30
280
     1
102
RTVSPost2010PropOp30
 70
     1
102
RTVSPost2010Prop31
280
     0
102
RTVSPost2010PropOp31
 70
     1
102
RTVSPost2010Prop32
280
     0
102
RTVSPost2010PropOp32
 70
     1
102
RTVSPost2010Prop33
280
     0
102
RTVSPost2010PropOp33
 70
     1
102
RTVSPost2010Prop34
280
     0
102
RTVSPost2010PropOp34
 70
     1
102
RTVSPost2010Prop35
280
     0
102
RTVSPost2010PropOp35
 70
     1
102
RTVSPost2010Prop36
280
     0
102
RTVSPost2010PropOp36
 70
     1
102
RTVSPost2010Prop37
 90
       50
102
RTVSPost2010PropOp37
 70
     1
102
RTVSPost2010Prop38
140
0.0
102
RTVSPost2010PropOp38
 70
     1
102
RTVSPost2010Prop39
140
1.0
102
RTVSPost2010PropOp39
 70
     1
102
RTVSPost2010Prop40
 90
        0
102
RTVSPost2010PropOp40
 70
     1
102
RTVSPost2010Prop41ColorIndex
 90
       18
102
RTVSPost2010Prop41ColorRGB
 90
        0
102
RTVSPost2010PropOp41
 70
     1
102
RTVSPost2010Prop42
 90
       50
102
RTVSPost2010PropOp42
 70
     1
102
RTVSPost2010Prop43
 90
        3
102
RTVSPost2010PropOp43
 70
     1
102
RTVSPost2010Prop44ColorIndex
 90
        5
102
RTVSPost2010Prop44ColorRGB
 90
      255
102
RTVSPost2010PropOp44
 70
     1
102
RTVSPost2010Prop45
280
     0
102
RTVSPost2010PropOp45
 70
     1
102
RTVSPost2010Prop46
 90
       50
102
RTVSPost2010PropOp46
 70
     1
102
RTVSPost2010Prop47
 90
       50
102
RTVSPost2010PropOp47
 70
     1
102
RTVSPost2010Prop48
 90
       50
102
RTVSPost2010PropOp48
 70
     1
102
RTVSPost2010Prop49
280
     0
102
RTVSPost2010PropOp49
 70
     1
102
RTVSPost2010Prop50
 90
       50
102
RTVSPost2010PropOp50
 70
     1
102
RTVSPost2010Prop51ColorIndex
 90
      256
102
RTVSPost2010Prop51ColorRGB
 90
-16777216
102
RTVSPost2010PropOp51
 70
     0
102
RTVSPost2010Prop52
140
1.0
102
RTVSPost2010PropOp52
 70
     0
102
RTVSPost2010Prop53
 90
        2
102
RTVSPost2010PropOp53
 70
     1
102
RTVSPost2010Prop54
  1
strokes_ogs.tif
102
RTVSPost2010PropOp54
 70
     1
102
RTVSPost2010Prop55
280
     0
102
RTVSPost2010PropOp55
 70
     1
102
RTVSPost2010Prop56
140
1.0
102
RTVSPost2010PropOp56
 70
     1
102
RTVSPost2010Prop57
140
1.0
102
RTVSPost2010PropOp57
 70
     1
  0
XRECORD
  5
198
102
{ACAD_REACTORS
330
197
102
}
330
197
100
AcDbXrecord
280
     1
102
RTVSPropertyOp0
 70
     1
102
RTVSPropertyOp1
 70
     1
102
RTVSPropertyOp2
 70
     1
102
RTVSPropertyOp3
 70
     1
102
RTVSPropertyOp4
 70
     1
102
RTVSPropertyOp5
 70
     1
102
RTVSPropertyOp6
 70
     1
102
RTVSPropertyOp7
 70
     1
102
RTVSPropertyOp8
 70
     1
102
RTVSPropertyOp9
 70
     1
102
RTVSPropertyOp10
 70
     1
102
RTVSPropertyOp11
 70
     1
102
RTVSPropertyOp12
 70
     1
102
RTVSPropertyOp13
 70
     1
102
RTVSPropertyOp14
 70
     1
102
RTVSPropertyOp15
 70
     1
102
RTVSPropertyOp16
 70
     1
102
RTVSPropertyOp17
 70
     1
102
RTVSPropertyOp18
 70
     1
102
RTVSPropertyOp19
 70
     1
102
RTVSPropertyOp20
 70
     1
102
RTVSPropertyOp21
 70
     1
102
RTVSPropertyOp22
 70
     1
102
RTVSPropertyOp23
 70
     1
102
RTVSPropertyOp24
 70
     1
102
RTVSPropertyOp25
 70
     1
102
RTVSPropertyOp26
 70
     1
102
RTVSPropertyOp27
 70
     1
102
RTVSPropertyOp28
 70
     1
102
RTVSPropertyOp29
 70
     1
102
RTVSPropertyOp30
 70
     1
102
RTVSPropertyOp31
 70
     1
102
RTVSPropertyOp32
 70
     1
102
RTVSPropertyOp33
 70
     1
102
RTVSPropertyOp34
 70
     1
102
RTVSPropertyOp35
 70
     1
102
RTVSPropertyOp36
 70
     1
102
RTVSPropertyOp37
 70
     1
102
RTVSPropertyOp38
 70
     1
102
RTVSPropertyOp39
 70
     1
102
RTVSPropertyOp40
 70
     1
102
RTVSPropertyOp41
 70
     1
102
RTVSPropertyOp42
 70
     1
102
RTVSPropertyOp43
 70
     1
102
RTVSPropertyOp44
 70
     1
102
RTVSPropertyOp45
 70
     1
102
RTVSPropertyOp46
 70
     1
102
RTVSPropertyOp47
 70
     1
102
RTVSPropertyOp48
 70
     1
102
RTVSPropertyOp49
 70
     1
102
RTVSPropertyOp50
 70
     1
102
RTVSPropertyOp51
 70
     0
102
RTVSPropertyOp52
 70
     0
102
RTVSPropertyOp53
 70
     1
102
RTVSPropertyOp54
 70
     1
102
RTVSPropertyOp55
 70
     1
102
RTVSPropertyOp56
 70
     1
102
RTVSPropertyOp57
 70
     1
102
RTVSPost2010Prop28
280
     0
102
RTVSPost2010PropOp28
 70
     1
102
RTVSPost2010Prop29
280
     1
102
RTVSPost2010PropOp29
 70
     1
102
RTVSPost2010Prop30
280
     1
102
RTVSPost2010PropOp30
 70
     1
102
RTVSPost2010Prop31
280
     0
102
RTVSPost2010PropOp31
 70
     1
102
RTVSPost2010Prop32
280
     0
102
RTVSPost2010PropOp32
 70
     1
102
RTVSPost2010Prop33
280
     0
102
RTVSPost2010PropOp33
 70
     1
102
RTVSPost2010Prop34
280
     0
102
RTVSPost2010PropOp34
 70
     1
102
RTVSPost2010Prop35
280
     0
102
RTVSPost2010PropOp35
 70
     1
102
RTVSPost2010Prop36
280
     0
102
RTVSPost2010PropOp36
 70
     1
102
RTVSPost2010Prop37
 90
       50
102
RTVSPost2010PropOp37
 70
     1
102
RTVSPost2010Prop38
140
0.0
102
RTVSPost2010PropOp38
 70
     1
102
RTVSPost2010Prop39
140
1.0
102
RTVSPost2010PropOp39
 70
     1
102
RTVSPost2010Prop40
 90
        0
102
RTVSPost2010PropOp40
 70
     1
102
RTVSPost2010Prop41ColorIndex
 90
       18
102
RTVSPost2010Prop41ColorRGB
 90
        0
102
RTVSPost2010PropOp41
 70
     1
102
RTVSPost2010Prop42
 90
       50
102
RTVSPost2010PropOp42
 70
     1
102
RTVSPost2010Prop43
 90
        3
102
RTVSPost2010PropOp43
 70
     1
102
RTVSPost2010Prop44ColorIndex
 90
        5
102
RTVSPost2010Prop44ColorRGB
 90
      255
102
RTVSPost2010PropOp44
 70
     1
102
RTVSPost2010Prop45
280
     0
102
RTVSPost2010PropOp45
 70
     1
102
RTVSPost2010Prop46
 90
       50
102
RTVSPost2010PropOp46
 70
     1
102
RTVSPost2010Prop47
 90
       50
102
RTVSPost2010PropOp47
 70
     1
102
RTVSPost2010Prop48
 90
       50
102
RTVSPost2010PropOp48
 70
     1
102
RTVSPost2010Prop49
280
     0
102
RTVSPost2010PropOp49
 70
     1
102
RTVSPost2010Prop50
 90
       50
102
RTVSPost2010PropOp50
 70
     1
102
RTVSPost2010Prop51ColorIndex
 90
      256
102
RTVSPost2010Prop51ColorRGB
 90
-16777216
102
RTVSPost2010PropOp51
 70
     0
102
RTVSPost2010Prop52
140
1.0
102
RTVSPost2010PropOp52
 70
     0
102
RTVSPost2010Prop53
 90
        2
102
RTVSPost2010PropOp53
 70
     1
102
RTVSPost2010Prop54
  1
strokes_ogs.tif
102
RTVSPost2010PropOp54
 70
     1
102
RTVSPost2010Prop55
280
     0
102
RTVSPost2010PropOp55
 70
     1
102
RTVSPost2010Prop56
140
1.0
102
RTVSPost2010PropOp56
 70
     1
102
RTVSPost2010Prop57
140
1.0
102
RTVSPost2010PropOp57
 70
     1
  0
XRECORD
  5
196
102
{ACAD_REACTORS
330
195
102
}
330
195
100
AcDbXrecord
280
     1
102
RTVSPropertyOp0
 70
     1
102
RTVSPropertyOp1
 70
     1
102
RTVSPropertyOp2
 70
     1
102
RTVSPropertyOp3
 70
     1
102
RTVSPropertyOp4
 70
     1
102
RTVSPropertyOp5
 70
     1
102
RTVSPropertyOp6
 70
     1
102
RTVSPropertyOp7
 70
     1
102
RTVSPropertyOp8
 70
     1
102
RTVSPropertyOp9
 70
     1
102
RTVSPropertyOp10
 70
     1
102
RTVSPropertyOp11
 70
     1
102
RTVSPropertyOp12
 70
     1
102
RTVSPropertyOp13
 70
     1
102
RTVSPropertyOp14
 70
     1
102
RTVSPropertyOp15
 70
     1
102
RTVSPropertyOp16
 70
     1
102
RTVSPropertyOp17
 70
     1
102
RTVSPropertyOp18
 70
     1
102
RTVSPropertyOp19
 70
     1
102
RTVSPropertyOp20
 70
     1
102
RTVSPropertyOp21
 70
     1
102
RTVSPropertyOp22
 70
     1
102
RTVSPropertyOp23
 70
     1
102
RTVSPropertyOp24
 70
     1
102
RTVSPropertyOp25
 70
     1
102
RTVSPropertyOp26
 70
     1
102
RTVSPropertyOp27
 70
     1
102
RTVSPropertyOp28
 70
     1
102
RTVSPropertyOp29
 70
     1
102
RTVSPropertyOp30
 70
     1
102
RTVSPropertyOp31
 70
     1
102
RTVSPropertyOp32
 70
     1
102
RTVSPropertyOp33
 70
     1
102
RTVSPropertyOp34
 70
     1
102
RTVSPropertyOp35
 70
     1
102
RTVSPropertyOp36
 70
     1
102
RTVSPropertyOp37
 70
     1
102
RTVSPropertyOp38
 70
     1
102
RTVSPropertyOp39
 70
     1
102
RTVSPropertyOp40
 70
     1
102
RTVSPropertyOp41
 70
     1
102
RTVSPropertyOp42
 70
     1
102
RTVSPropertyOp43
 70
     1
102
RTVSPropertyOp44
 70
     1
102
RTVSPropertyOp45
 70
     1
102
RTVSPropertyOp46
 70
     1
102
RTVSPropertyOp47
 70
     1
102
RTVSPropertyOp48
 70
     1
102
RTVSPropertyOp49
 70
     1
102
RTVSPropertyOp50
 70
     1
102
RTVSPropertyOp51
 70
     0
102
RTVSPropertyOp52
 70
     0
102
RTVSPropertyOp53
 70
     1
102
RTVSPropertyOp54
 70
     1
102
RTVSPropertyOp55
 70
     1
102
RTVSPropertyOp56
 70
     1
102
RTVSPropertyOp57
 70
     1
102
RTVSPost2010Prop28
280
     0
102
RTVSPost2010PropOp28
 70
     1
102
RTVSPost2010Prop29
280
     1
102
RTVSPost2010PropOp29
 70
     1
102
RTVSPost2010Prop30
280
     1
102
RTVSPost2010PropOp30
 70
     1
102
RTVSPost2010Prop31
280
     0
102
RTVSPost2010PropOp31
 70
     1
102
RTVSPost2010Prop32
280
     0
102
RTVSPost2010PropOp32
 70
     1
102
RTVSPost2010Prop33
280
     0
102
RTVSPost2010PropOp33
 70
     1
102
RTVSPost2010Prop34
280
     0
102
RTVSPost2010PropOp34
 70
     1
102
RTVSPost2010Prop35
280
     0
102
RTVSPost2010PropOp35
 70
     1
102
RTVSPost2010Prop36
280
     0
102
RTVSPost2010PropOp36
 70
     1
102
RTVSPost2010Prop37
 90
       50
102
RTVSPost2010PropOp37
 70
     1
102
RTVSPost2010Prop38
140
0.0
102
RTVSPost2010PropOp38
 70
     1
102
RTVSPost2010Prop39
140
1.0
102
RTVSPost2010PropOp39
 70
     1
102
RTVSPost2010Prop40
 90
        0
102
RTVSPost2010PropOp40
 70
     1
102
RTVSPost2010Prop41ColorIndex
 90
       18
102
RTVSPost2010Prop41ColorRGB
 90
        0
102
RTVSPost2010PropOp41
 70
     1
102
RTVSPost2010Prop42
 90
       50
102
RTVSPost2010PropOp42
 70
     1
102
RTVSPost2010Prop43
 90
        3
102
RTVSPost2010PropOp43
 70
     1
102
RTVSPost2010Prop44ColorIndex
 90
        5
102
RTVSPost2010Prop44ColorRGB
 90
      255
102
RTVSPost2010PropOp44
 70
     1
102
RTVSPost2010Prop45
280
     0
102
RTVSPost2010PropOp45
 70
     1
102
RTVSPost2010Prop46
 90
       50
102
RTVSPost2010PropOp46
 70
     1
102
RTVSPost2010Prop47
 90
       50
102
RTVSPost2010PropOp47
 70
     1
102
RTVSPost2010Prop48
 90
       50
102
RTVSPost2010PropOp48
 70
     1
102
RTVSPost2010Prop49
280
     0
102
RTVSPost2010PropOp49
 70
     1
102
RTVSPost2010Prop50
 90
       50
102
RTVSPost2010PropOp50
 70
     1
102
RTVSPost2010Prop51ColorIndex
 90
      256
102
RTVSPost2010Prop51ColorRGB
 90
-16777216
102
RTVSPost2010PropOp51
 70
     0
102
RTVSPost2010Prop52
140
1.0
102
RTVSPost2010PropOp52
 70
     0
102
RTVSPost2010Prop53
 90
        2
102
RTVSPost2010PropOp53
 70
     1
102
RTVSPost2010Prop54
  1
strokes_ogs.tif
102
RTVSPost2010PropOp54
 70
     1
102
RTVSPost2010Prop55
280
     0
102
RTVSPost2010PropOp55
 70
     1
102
RTVSPost2010Prop56
140
1.0
102
RTVSPost2010PropOp56
 70
     1
102
RTVSPost2010Prop57
140
1.0
102
RTVSPost2010PropOp57
 70
     1
  0
XRECORD
  5
190
102
{ACAD_REACTORS
330
18F
102
}
330
18F
100
AcDbXrecord
280
     1
102
RTVSPropertyOp0
 70
     1
102
RTVSPropertyOp1
 70
     1
102
RTVSPropertyOp2
 70
     1
102
RTVSPropertyOp3
 70
     1
102
RTVSPropertyOp4
 70
     1
102
RTVSPropertyOp5
 70
     1
102
RTVSPropertyOp6
 70
     1
102
RTVSPropertyOp7
 70
     1
102
RTVSPropertyOp8
 70
     1
102
RTVSPropertyOp9
 70
     1
102
RTVSPropertyOp10
 70
     1
102
RTVSPropertyOp11
 70
     1
102
RTVSPropertyOp12
 70
     1
102
RTVSPropertyOp13
 70
     1
102
RTVSPropertyOp14
 70
     1
102
RTVSPropertyOp15
 70
     1
102
RTVSPropertyOp16
 70
     1
102
RTVSPropertyOp17
 70
     1
102
RTVSPropertyOp18
 70
     1
102
RTVSPropertyOp19
 70
     1
102
RTVSPropertyOp20
 70
     1
102
RTVSPropertyOp21
 70
     1
102
RTVSPropertyOp22
 70
     1
102
RTVSPropertyOp23
 70
     1
102
RTVSPropertyOp24
 70
     1
102
RTVSPropertyOp25
 70
     1
102
RTVSPropertyOp26
 70
     1
102
RTVSPropertyOp27
 70
     1
102
RTVSPropertyOp28
 70
     1
102
RTVSPropertyOp29
 70
     1
102
RTVSPropertyOp30
 70
     1
102
RTVSPropertyOp31
 70
     1
102
RTVSPropertyOp32
 70
     1
102
RTVSPropertyOp33
 70
     1
102
RTVSPropertyOp34
 70
     1
102
RTVSPropertyOp35
 70
     1
102
RTVSPropertyOp36
 70
     1
102
RTVSPropertyOp37
 70
     1
102
RTVSPropertyOp38
 70
     1
102
RTVSPropertyOp39
 70
     1
102
RTVSPropertyOp40
 70
     1
102
RTVSPropertyOp41
 70
     1
102
RTVSPropertyOp42
 70
     1
102
RTVSPropertyOp43
 70
     1
102
RTVSPropertyOp44
 70
     1
102
RTVSPropertyOp45
 70
     1
102
RTVSPropertyOp46
 70
     1
102
RTVSPropertyOp47
 70
     1
102
RTVSPropertyOp48
 70
     1
102
RTVSPropertyOp49
 70
     1
102
RTVSPropertyOp50
 70
     1
102
RTVSPropertyOp51
 70
     0
102
RTVSPropertyOp52
 70
     0
102
RTVSPropertyOp53
 70
     1
102
RTVSPropertyOp54
 70
     1
102
RTVSPropertyOp55
 70
     1
102
RTVSPropertyOp56
 70
     1
102
RTVSPropertyOp57
 70
     1
102
RTVSPost2010Prop28
280
     0
102
RTVSPost2010PropOp28
 70
     1
102
RTVSPost2010Prop29
280
     1
102
RTVSPost2010PropOp29
 70
     1
102
RTVSPost2010Prop30
280
     1
102
RTVSPost2010PropOp30
 70
     1
102
RTVSPost2010Prop31
280
     0
102
RTVSPost2010PropOp31
 70
     1
102
RTVSPost2010Prop32
280
     0
102
RTVSPost2010PropOp32
 70
     1
102
RTVSPost2010Prop33
280
     0
102
RTVSPost2010PropOp33
 70
     1
102
RTVSPost2010Prop34
280
     0
102
RTVSPost2010PropOp34
 70
     1
102
RTVSPost2010Prop35
280
     0
102
RTVSPost2010PropOp35
 70
     1
102
RTVSPost2010Prop36
280
     0
102
RTVSPost2010PropOp36
 70
     1
102
RTVSPost2010Prop37
 90
       50
102
RTVSPost2010PropOp37
 70
     1
102
RTVSPost2010Prop38
140
0.0
102
RTVSPost2010PropOp38
 70
     1
102
RTVSPost2010Prop39
140
1.0
102
RTVSPost2010PropOp39
 70
     1
102
RTVSPost2010Prop40
 90
        0
102
RTVSPost2010PropOp40
 70
     1
102
RTVSPost2010Prop41ColorIndex
 90
       18
102
RTVSPost2010Prop41ColorRGB
 90
        0
102
RTVSPost2010PropOp41
 70
     1
102
RTVSPost2010Prop42
 90
       50
102
RTVSPost2010PropOp42
 70
     1
102
RTVSPost2010Prop43
 90
        3
102
RTVSPost2010PropOp43
 70
     1
102
RTVSPost2010Prop44ColorIndex
 90
        5
102
RTVSPost2010Prop44ColorRGB
 90
      255
102
RTVSPost2010PropOp44
 70
     1
102
RTVSPost2010Prop45
280
     0
102
RTVSPost2010PropOp45
 70
     1
102
RTVSPost2010Prop46
 90
       50
102
RTVSPost2010PropOp46
 70
     1
102
RTVSPost2010Prop47
 90
       50
102
RTVSPost2010PropOp47
 70
     1
102
RTVSPost2010Prop48
 90
       50
102
RTVSPost2010PropOp48
 70
     1
102
RTVSPost2010Prop49
280
     0
102
RTVSPost2010PropOp49
 70
     1
102
RTVSPost2010Prop50
 90
       50
102
RTVSPost2010PropOp50
 70
     1
102
RTVSPost2010Prop51ColorIndex
 90
      256
102
RTVSPost2010Prop51ColorRGB
 90
-16777216
102
RTVSPost2010PropOp51
 70
     0
102
RTVSPost2010Prop52
140
1.0
102
RTVSPost2010PropOp52
 70
     0
102
RTVSPost2010Prop53
 90
        2
102
RTVSPost2010PropOp53
 70
     1
102
RTVSPost2010Prop54
  1
strokes_ogs.tif
102
RTVSPost2010PropOp54
 70
     1
102
RTVSPost2010Prop55
280
     0
102
RTVSPost2010PropOp55
 70
     1
102
RTVSPost2010Prop56
140
1.0
102
RTVSPost2010PropOp56
 70
     1
102
RTVSPost2010Prop57
140
1.0
102
RTVSPost2010PropOp57
 70
     1
  0
XRECORD
  5
192
102
{ACAD_REACTORS
330
191
102
}
330
191
100
AcDbXrecord
280
     1
102
RTVSPropertyOp0
 70
     1
102
RTVSPropertyOp1
 70
     1
102
RTVSPropertyOp2
 70
     1
102
RTVSPropertyOp3
 70
     1
102
RTVSPropertyOp4
 70
     1
102
RTVSPropertyOp5
 70
     1
102
RTVSPropertyOp6
 70
     1
102
RTVSPropertyOp7
 70
     1
102
RTVSPropertyOp8
 70
     1
102
RTVSPropertyOp9
 70
     1
102
RTVSPropertyOp10
 70
     1
102
RTVSPropertyOp11
 70
     1
102
RTVSPropertyOp12
 70
     1
102
RTVSPropertyOp13
 70
     1
102
RTVSPropertyOp14
 70
     1
102
RTVSPropertyOp15
 70
     1
102
RTVSPropertyOp16
 70
     1
102
RTVSPropertyOp17
 70
     1
102
RTVSPropertyOp18
 70
     1
102
RTVSPropertyOp19
 70
     1
102
RTVSPropertyOp20
 70
     1
102
RTVSPropertyOp21
 70
     1
102
RTVSPropertyOp22
 70
     1
102
RTVSPropertyOp23
 70
     1
102
RTVSPropertyOp24
 70
     1
102
RTVSPropertyOp25
 70
     1
102
RTVSPropertyOp26
 70
     1
102
RTVSPropertyOp27
 70
     1
102
RTVSPropertyOp28
 70
     1
102
RTVSPropertyOp29
 70
     1
102
RTVSPropertyOp30
 70
     1
102
RTVSPropertyOp31
 70
     1
102
RTVSPropertyOp32
 70
     1
102
RTVSPropertyOp33
 70
     1
102
RTVSPropertyOp34
 70
     1
102
RTVSPropertyOp35
 70
     1
102
RTVSPropertyOp36
 70
     1
102
RTVSPropertyOp37
 70
     1
102
RTVSPropertyOp38
 70
     1
102
RTVSPropertyOp39
 70
     1
102
RTVSPropertyOp40
 70
     1
102
RTVSPropertyOp41
 70
     1
102
RTVSPropertyOp42
 70
     1
102
RTVSPropertyOp43
 70
     1
102
RTVSPropertyOp44
 70
     1
102
RTVSPropertyOp45
 70
     1
102
RTVSPropertyOp46
 70
     1
102
RTVSPropertyOp47
 70
     1
102
RTVSPropertyOp48
 70
     1
102
RTVSPropertyOp49
 70
     1
102
RTVSPropertyOp50
 70
     1
102
RTVSPropertyOp51
 70
     0
102
RTVSPropertyOp52
 70
     0
102
RTVSPropertyOp53
 70
     1
102
RTVSPropertyOp54
 70
     1
102
RTVSPropertyOp55
 70
     1
102
RTVSPropertyOp56
 70
     1
102
RTVSPropertyOp57
 70
     1
102
RTVSPost2010Prop28
280
     0
102
RTVSPost2010PropOp28
 70
     1
102
RTVSPost2010Prop29
280
     1
102
RTVSPost2010PropOp29
 70
     1
102
RTVSPost2010Prop30
280
     1
102
RTVSPost2010PropOp30
 70
     1
102
RTVSPost2010Prop31
280
     0
102
RTVSPost2010PropOp31
 70
     1
102
RTVSPost2010Prop32
280
     0
102
RTVSPost2010PropOp32
 70
     1
102
RTVSPost2010Prop33
280
     0
102
RTVSPost2010PropOp33
 70
     1
102
RTVSPost2010Prop34
280
     0
102
RTVSPost2010PropOp34
 70
     1
102
RTVSPost2010Prop35
280
     0
102
RTVSPost2010PropOp35
 70
     1
102
RTVSPost2010Prop36
280
     0
102
RTVSPost2010PropOp36
 70
     1
102
RTVSPost2010Prop37
 90
       50
102
RTVSPost2010PropOp37
 70
     1
102
RTVSPost2010Prop38
140
0.0
102
RTVSPost2010PropOp38
 70
     1
102
RTVSPost2010Prop39
140
1.0
102
RTVSPost2010PropOp39
 70
     1
102
RTVSPost2010Prop40
 90
        0
102
RTVSPost2010PropOp40
 70
     1
102
RTVSPost2010Prop41ColorIndex
 90
       18
102
RTVSPost2010Prop41ColorRGB
 90
        0
102
RTVSPost2010PropOp41
 70
     1
102
RTVSPost2010Prop42
 90
       50
102
RTVSPost2010PropOp42
 70
     1
102
RTVSPost2010Prop43
 90
        3
102
RTVSPost2010PropOp43
 70
     1
102
RTVSPost2010Prop44ColorIndex
 90
        5
102
RTVSPost2010Prop44ColorRGB
 90
      255
102
RTVSPost2010PropOp44
 70
     1
102
RTVSPost2010Prop45
280
     0
102
RTVSPost2010PropOp45
 70
     1
102
RTVSPost2010Prop46
 90
       50
102
RTVSPost2010PropOp46
 70
     1
102
RTVSPost2010Prop47
 90
       50
102
RTVSPost2010PropOp47
 70
     1
102
RTVSPost2010Prop48
 90
       50
102
RTVSPost2010PropOp48
 70
     1
102
RTVSPost2010Prop49
280
     0
102
RTVSPost2010PropOp49
 70
     1
102
RTVSPost2010Prop50
 90
       50
102
RTVSPost2010PropOp50
 70
     1
102
RTVSPost2010Prop51ColorIndex
 90
      256
102
RTVSPost2010Prop51ColorRGB
 90
-16777216
102
RTVSPost2010PropOp51
 70
     0
102
RTVSPost2010Prop52
140
1.0
102
RTVSPost2010PropOp52
 70
     0
102
RTVSPost2010Prop53
 90
        2
102
RTVSPost2010PropOp53
 70
     1
102
RTVSPost2010Prop54
  1
strokes_ogs.tif
102
RTVSPost2010PropOp54
 70
     1
102
RTVSPost2010Prop55
280
     0
102
RTVSPost2010PropOp55
 70
     1
102
RTVSPost2010Prop56
140
1.0
102
RTVSPost2010PropOp56
 70
     1
102
RTVSPost2010Prop57
140
1.0
102
RTVSPost2010PropOp57
 70
     1
  0
XRECORD
  5
182
102
{ACAD_REACTORS
330
181
102
}
330
181
100
AcDbXrecord
280
     1
102
RTVSPropertyOp0
 70
     1
102
RTVSPropertyOp1
 70
     1
102
RTVSPropertyOp2
 70
     1
102
RTVSPropertyOp3
 70
     1
102
RTVSPropertyOp4
 70
     1
102
RTVSPropertyOp5
 70
     1
102
RTVSPropertyOp6
 70
     1
102
RTVSPropertyOp7
 70
     1
102
RTVSPropertyOp8
 70
     1
102
RTVSPropertyOp9
 70
     1
102
RTVSPropertyOp10
 70
     1
102
RTVSPropertyOp11
 70
     1
102
RTVSPropertyOp12
 70
     1
102
RTVSPropertyOp13
 70
     1
102
RTVSPropertyOp14
 70
     1
102
RTVSPropertyOp15
 70
     1
102
RTVSPropertyOp16
 70
     1
102
RTVSPropertyOp17
 70
     1
102
RTVSPropertyOp18
 70
     1
102
RTVSPropertyOp19
 70
     1
102
RTVSPropertyOp20
 70
     1
102
RTVSPropertyOp21
 70
     1
102
RTVSPropertyOp22
 70
     1
102
RTVSPropertyOp23
 70
     1
102
RTVSPropertyOp24
 70
     1
102
RTVSPropertyOp25
 70
     1
102
RTVSPropertyOp26
 70
     1
102
RTVSPropertyOp27
 70
     1
102
RTVSPropertyOp28
 70
     1
102
RTVSPropertyOp29
 70
     1
102
RTVSPropertyOp30
 70
     1
102
RTVSPropertyOp31
 70
     1
102
RTVSPropertyOp32
 70
     1
102
RTVSPropertyOp33
 70
     1
102
RTVSPropertyOp34
 70
     1
102
RTVSPropertyOp35
 70
     1
102
RTVSPropertyOp36
 70
     1
102
RTVSPropertyOp37
 70
     1
102
RTVSPropertyOp38
 70
     1
102
RTVSPropertyOp39
 70
     1
102
RTVSPropertyOp40
 70
     1
102
RTVSPropertyOp41
 70
     1
102
RTVSPropertyOp42
 70
     1
102
RTVSPropertyOp43
 70
     1
102
RTVSPropertyOp44
 70
     1
102
RTVSPropertyOp45
 70
     1
102
RTVSPropertyOp46
 70
     1
102
RTVSPropertyOp47
 70
     1
102
RTVSPropertyOp48
 70
     1
102
RTVSPropertyOp49
 70
     1
102
RTVSPropertyOp50
 70
     1
102
RTVSPropertyOp51
 70
     0
102
RTVSPropertyOp52
 70
     0
102
RTVSPropertyOp53
 70
     1
102
RTVSPropertyOp54
 70
     1
102
RTVSPropertyOp55
 70
     1
102
RTVSPropertyOp56
 70
     1
102
RTVSPropertyOp57
 70
     1
102
RTVSPost2010Prop28
280
     0
102
RTVSPost2010PropOp28
 70
     1
102
RTVSPost2010Prop29
280
     1
102
RTVSPost2010PropOp29
 70
     1
102
RTVSPost2010Prop30
280
     1
102
RTVSPost2010PropOp30
 70
     1
102
RTVSPost2010Prop31
280
     0
102
RTVSPost2010PropOp31
 70
     1
102
RTVSPost2010Prop32
280
     0
102
RTVSPost2010PropOp32
 70
     1
102
RTVSPost2010Prop33
280
     0
102
RTVSPost2010PropOp33
 70
     1
102
RTVSPost2010Prop34
280
     0
102
RTVSPost2010PropOp34
 70
     1
102
RTVSPost2010Prop35
280
     0
102
RTVSPost2010PropOp35
 70
     1
102
RTVSPost2010Prop36
280
     0
102
RTVSPost2010PropOp36
 70
     1
102
RTVSPost2010Prop37
 90
       50
102
RTVSPost2010PropOp37
 70
     1
102
RTVSPost2010Prop38
140
0.0
102
RTVSPost2010PropOp38
 70
     1
102
RTVSPost2010Prop39
140
1.0
102
RTVSPost2010PropOp39
 70
     1
102
RTVSPost2010Prop40
 90
        0
102
RTVSPost2010PropOp40
 70
     1
102
RTVSPost2010Prop41ColorIndex
 90
       18
102
RTVSPost2010Prop41ColorRGB
 90
        0
102
RTVSPost2010PropOp41
 70
     1
102
RTVSPost2010Prop42
 90
       50
102
RTVSPost2010PropOp42
 70
     1
102
RTVSPost2010Prop43
 90
        3
102
RTVSPost2010PropOp43
 70
     1
102
RTVSPost2010Prop44ColorIndex
 90
        5
102
RTVSPost2010Prop44ColorRGB
 90
      255
102
RTVSPost2010PropOp44
 70
     1
102
RTVSPost2010Prop45
280
     0
102
RTVSPost2010PropOp45
 70
     1
102
RTVSPost2010Prop46
 90
       50
102
RTVSPost2010PropOp46
 70
     1
102
RTVSPost2010Prop47
 90
       50
102
RTVSPost2010PropOp47
 70
     1
102
RTVSPost2010Prop48
 90
       50
102
RTVSPost2010PropOp48
 70
     1
102
RTVSPost2010Prop49
280
     0
102
RTVSPost2010PropOp49
 70
     1
102
RTVSPost2010Prop50
 90
       50
102
RTVSPost2010PropOp50
 70
     1
102
RTVSPost2010Prop51ColorIndex
 90
      256
102
RTVSPost2010Prop51ColorRGB
 90
-16777216
102
RTVSPost2010PropOp51
 70
     0
102
RTVSPost2010Prop52
140
1.0
102
RTVSPost2010PropOp52
 70
     0
102
RTVSPost2010Prop53
 90
        2
102
RTVSPost2010PropOp53
 70
     1
102
RTVSPost2010Prop54
  1
strokes_ogs.tif
102
RTVSPost2010PropOp54
 70
     1
102
RTVSPost2010Prop55
280
     0
102
RTVSPost2010PropOp55
 70
     1
102
RTVSPost2010Prop56
140
1.0
102
RTVSPost2010PropOp56
 70
     1
102
RTVSPost2010Prop57
140
1.0
102
RTVSPost2010PropOp57
 70
     1
  0
XRECORD
  5
174
102
{ACAD_REACTORS
330
173
102
}
330
173
100
AcDbXrecord
280
     1
102
RTVSPropertyOp0
 70
     1
102
RTVSPropertyOp1
 70
     1
102
RTVSPropertyOp2
 70
     1
102
RTVSPropertyOp3
 70
     1
102
RTVSPropertyOp4
 70
     1
102
RTVSPropertyOp5
 70
     1
102
RTVSPropertyOp6
 70
     1
102
RTVSPropertyOp7
 70
     1
102
RTVSPropertyOp8
 70
     1
102
RTVSPropertyOp9
 70
     1
102
RTVSPropertyOp10
 70
     1
102
RTVSPropertyOp11
 70
     1
102
RTVSPropertyOp12
 70
     1
102
RTVSPropertyOp13
 70
     1
102
RTVSPropertyOp14
 70
     1
102
RTVSPropertyOp15
 70
     1
102
RTVSPropertyOp16
 70
     1
102
RTVSPropertyOp17
 70
     1
102
RTVSPropertyOp18
 70
     1
102
RTVSPropertyOp19
 70
     1
102
RTVSPropertyOp20
 70
     1
102
RTVSPropertyOp21
 70
     1
102
RTVSPropertyOp22
 70
     1
102
RTVSPropertyOp23
 70
     1
102
RTVSPropertyOp24
 70
     1
102
RTVSPropertyOp25
 70
     1
102
RTVSPropertyOp26
 70
     1
102
RTVSPropertyOp27
 70
     1
102
RTVSPropertyOp28
 70
     1
102
RTVSPropertyOp29
 70
     1
102
RTVSPropertyOp30
 70
     1
102
RTVSPropertyOp31
 70
     1
102
RTVSPropertyOp32
 70
     1
102
RTVSPropertyOp33
 70
     1
102
RTVSPropertyOp34
 70
     1
102
RTVSPropertyOp35
 70
     1
102
RTVSPropertyOp36
 70
     1
102
RTVSPropertyOp37
 70
     1
102
RTVSPropertyOp38
 70
     1
102
RTVSPropertyOp39
 70
     1
102
RTVSPropertyOp40
 70
     1
102
RTVSPropertyOp41
 70
     1
102
RTVSPropertyOp42
 70
     1
102
RTVSPropertyOp43
 70
     1
102
RTVSPropertyOp44
 70
     1
102
RTVSPropertyOp45
 70
     1
102
RTVSPropertyOp46
 70
     1
102
RTVSPropertyOp47
 70
     1
102
RTVSPropertyOp48
 70
     1
102
RTVSPropertyOp49
 70
     1
102
RTVSPropertyOp50
 70
     1
102
RTVSPropertyOp51
 70
     0
102
RTVSPropertyOp52
 70
     0
102
RTVSPropertyOp53
 70
     1
102
RTVSPropertyOp54
 70
     1
102
RTVSPropertyOp55
 70
     1
102
RTVSPropertyOp56
 70
     1
102
RTVSPropertyOp57
 70
     1
102
RTVSPost2010Prop28
280
     0
102
RTVSPost2010PropOp28
 70
     1
102
RTVSPost2010Prop29
280
     1
102
RTVSPost2010PropOp29
 70
     1
102
RTVSPost2010Prop30
280
     1
102
RTVSPost2010PropOp30
 70
     1
102
RTVSPost2010Prop31
280
     0
102
RTVSPost2010PropOp31
 70
     1
102
RTVSPost2010Prop32
280
     0
102
RTVSPost2010PropOp32
 70
     1
102
RTVSPost2010Prop33
280
     0
102
RTVSPost2010PropOp33
 70
     1
102
RTVSPost2010Prop34
280
     0
102
RTVSPost2010PropOp34
 70
     1
102
RTVSPost2010Prop35
280
     0
102
RTVSPost2010PropOp35
 70
     1
102
RTVSPost2010Prop36
280
     0
102
RTVSPost2010PropOp36
 70
     1
102
RTVSPost2010Prop37
 90
       50
102
RTVSPost2010PropOp37
 70
     1
102
RTVSPost2010Prop38
140
0.0
102
RTVSPost2010PropOp38
 70
     1
102
RTVSPost2010Prop39
140
1.0
102
RTVSPost2010PropOp39
 70
     1
102
RTVSPost2010Prop40
 90
        0
102
RTVSPost2010PropOp40
 70
     1
102
RTVSPost2010Prop41ColorIndex
 90
       18
102
RTVSPost2010Prop41ColorRGB
 90
        0
102
RTVSPost2010PropOp41
 70
     1
102
RTVSPost2010Prop42
 90
       50
102
RTVSPost2010PropOp42
 70
     1
102
RTVSPost2010Prop43
 90
        3
102
RTVSPost2010PropOp43
 70
     1
102
RTVSPost2010Prop44ColorIndex
 90
        5
102
RTVSPost2010Prop44ColorRGB
 90
      255
102
RTVSPost2010PropOp44
 70
     1
102
RTVSPost2010Prop45
280
     0
102
RTVSPost2010PropOp45
 70
     1
102
RTVSPost2010Prop46
 90
       50
102
RTVSPost2010PropOp46
 70
     1
102
RTVSPost2010Prop47
 90
       50
102
RTVSPost2010PropOp47
 70
     1
102
RTVSPost2010Prop48
 90
       50
102
RTVSPost2010PropOp48
 70
     1
102
RTVSPost2010Prop49
280
     0
102
RTVSPost2010PropOp49
 70
     1
102
RTVSPost2010Prop50
 90
       50
102
RTVSPost2010PropOp50
 70
     1
102
RTVSPost2010Prop51ColorIndex
 90
      256
102
RTVSPost2010Prop51ColorRGB
 90
-16777216
102
RTVSPost2010PropOp51
 70
     0
102
RTVSPost2010Prop52
140
1.0
102
RTVSPost2010PropOp52
 70
     0
102
RTVSPost2010Prop53
 90
        2
102
RTVSPost2010PropOp53
 70
     1
102
RTVSPost2010Prop54
  1
strokes_ogs.tif
102
RTVSPost2010PropOp54
 70
     1
102
RTVSPost2010Prop55
280
     0
102
RTVSPost2010PropOp55
 70
     1
102
RTVSPost2010Prop56
140
1.0
102
RTVSPost2010PropOp56
 70
     1
102
RTVSPost2010Prop57
140
1.0
102
RTVSPost2010PropOp57
 70
     1
  0
XRECORD
  5
194
102
{ACAD_REACTORS
330
193
102
}
330
193
100
AcDbXrecord
280
     1
102
RTVSPropertyOp0
 70
     1
102
RTVSPropertyOp1
 70
     1
102
RTVSPropertyOp2
 70
     1
102
RTVSPropertyOp3
 70
     1
102
RTVSPropertyOp4
 70
     1
102
RTVSPropertyOp5
 70
     1
102
RTVSPropertyOp6
 70
     1
102
RTVSPropertyOp7
 70
     1
102
RTVSPropertyOp8
 70
     1
102
RTVSPropertyOp9
 70
     1
102
RTVSPropertyOp10
 70
     1
102
RTVSPropertyOp11
 70
     1
102
RTVSPropertyOp12
 70
     1
102
RTVSPropertyOp13
 70
     1
102
RTVSPropertyOp14
 70
     1
102
RTVSPropertyOp15
 70
     1
102
RTVSPropertyOp16
 70
     1
102
RTVSPropertyOp17
 70
     1
102
RTVSPropertyOp18
 70
     1
102
RTVSPropertyOp19
 70
     1
102
RTVSPropertyOp20
 70
     1
102
RTVSPropertyOp21
 70
     1
102
RTVSPropertyOp22
 70
     1
102
RTVSPropertyOp23
 70
     1
102
RTVSPropertyOp24
 70
     1
102
RTVSPropertyOp25
 70
     1
102
RTVSPropertyOp26
 70
     1
102
RTVSPropertyOp27
 70
     1
102
RTVSPropertyOp28
 70
     1
102
RTVSPropertyOp29
 70
     1
102
RTVSPropertyOp30
 70
     1
102
RTVSPropertyOp31
 70
     1
102
RTVSPropertyOp32
 70
     1
102
RTVSPropertyOp33
 70
     1
102
RTVSPropertyOp34
 70
     1
102
RTVSPropertyOp35
 70
     1
102
RTVSPropertyOp36
 70
     1
102
RTVSPropertyOp37
 70
     1
102
RTVSPropertyOp38
 70
     1
102
RTVSPropertyOp39
 70
     1
102
RTVSPropertyOp40
 70
     1
102
RTVSPropertyOp41
 70
     1
102
RTVSPropertyOp42
 70
     1
102
RTVSPropertyOp43
 70
     1
102
RTVSPropertyOp44
 70
     1
102
RTVSPropertyOp45
 70
     1
102
RTVSPropertyOp46
 70
     1
102
RTVSPropertyOp47
 70
     1
102
RTVSPropertyOp48
 70
     1
102
RTVSPropertyOp49
 70
     1
102
RTVSPropertyOp50
 70
     1
102
RTVSPropertyOp51
 70
     0
102
RTVSPropertyOp52
 70
     0
102
RTVSPropertyOp53
 70
     1
102
RTVSPropertyOp54
 70
     1
102
RTVSPropertyOp55
 70
     1
102
RTVSPropertyOp56
 70
     1
102
RTVSPropertyOp57
 70
     1
102
RTVSPost2010Prop28
280
     0
102
RTVSPost2010PropOp28
 70
     1
102
RTVSPost2010Prop29
280
     1
102
RTVSPost2010PropOp29
 70
     1
102
RTVSPost2010Prop30
280
     1
102
RTVSPost2010PropOp30
 70
     1
102
RTVSPost2010Prop31
280
     0
102
RTVSPost2010PropOp31
 70
     1
102
RTVSPost2010Prop32
280
     0
102
RTVSPost2010PropOp32
 70
     1
102
RTVSPost2010Prop33
280
     0
102
RTVSPost2010PropOp33
 70
     1
102
RTVSPost2010Prop34
280
     0
102
RTVSPost2010PropOp34
 70
     1
102
RTVSPost2010Prop35
280
     0
102
RTVSPost2010PropOp35
 70
     1
102
RTVSPost2010Prop36
280
     0
102
RTVSPost2010PropOp36
 70
     1
102
RTVSPost2010Prop37
 90
       50
102
RTVSPost2010PropOp37
 70
     1
102
RTVSPost2010Prop38
140
0.0
102
RTVSPost2010PropOp38
 70
     1
102
RTVSPost2010Prop39
140
1.0
102
RTVSPost2010PropOp39
 70
     1
102
RTVSPost2010Prop40
 90
        0
102
RTVSPost2010PropOp40
 70
     1
102
RTVSPost2010Prop41ColorIndex
 90
       18
102
RTVSPost2010Prop41ColorRGB
 90
        0
102
RTVSPost2010PropOp41
 70
     1
102
RTVSPost2010Prop42
 90
       50
102
RTVSPost2010PropOp42
 70
     1
102
RTVSPost2010Prop43
 90
        3
102
RTVSPost2010PropOp43
 70
     1
102
RTVSPost2010Prop44ColorIndex
 90
        5
102
RTVSPost2010Prop44ColorRGB
 90
      255
102
RTVSPost2010PropOp44
 70
     1
102
RTVSPost2010Prop45
280
     0
102
RTVSPost2010PropOp45
 70
     1
102
RTVSPost2010Prop46
 90
       50
102
RTVSPost2010PropOp46
 70
     1
102
RTVSPost2010Prop47
 90
       50
102
RTVSPost2010PropOp47
 70
     1
102
RTVSPost2010Prop48
 90
       50
102
RTVSPost2010PropOp48
 70
     1
102
RTVSPost2010Prop49
280
     0
102
RTVSPost2010PropOp49
 70
     1
102
RTVSPost2010Prop50
 90
       50
102
RTVSPost2010PropOp50
 70
     1
102
RTVSPost2010Prop51ColorIndex
 90
      256
102
RTVSPost2010Prop51ColorRGB
 90
-16777216
102
RTVSPost2010PropOp51
 70
     0
102
RTVSPost2010Prop52
140
1.0
102
RTVSPost2010PropOp52
 70
     0
102
RTVSPost2010Prop53
 90
        2
102
RTVSPost2010PropOp53
 70
     1
102
RTVSPost2010Prop54
  1
strokes_ogs.tif
102
RTVSPost2010PropOp54
 70
     1
102
RTVSPost2010Prop55
280
     0
102
RTVSPost2010PropOp55
 70
     1
102
RTVSPost2010Prop56
140
1.0
102
RTVSPost2010PropOp56
 70
     1
102
RTVSPost2010Prop57
140
1.0
102
RTVSPost2010PropOp57
 70
     1
  0
ENDSEC
  0
EOF
