  0
SECTION
  2
HEADER
  9
$ACADVER
  1
AC1021
  9
$ACADMAINTVER
 70
    25
  9
$DWGCODEPAGE
  3
ANSI_1252
  9
$INSBASE
 10
0.0
 20
0.0
 30
0.0
  9
$EXTMIN
 10
1.000000000000000E+20
 20
1.000000000000000E+20
 30
1.000000000000000E+20
  9
$EXTMAX
 10
-1.000000000000000E+20
 20
-1.000000000000000E+20
 30
-1.000000000000000E+20
  9
$LIMMIN
 10
0.0
 20
0.0
  9
$LIMMAX
 10
12.0
 20
9.0
  9
$ORTHOMODE
 70
     0
  9
$REGENMODE
 70
     1
  9
$FILLMODE
 70
     1
  9
$QTEXTMODE
 70
     0
  9
$MIRRTEXT
 70
     1
  9
$LTSCALE
 40
1.0
  9
$ATTMODE
 70
     1
  9
$TEXTSIZE
 40
0.2
  9
$TRACEWID
 40
0.05
  9
$TEXTSTYLE
  7
Standard
  9
$CLAYER
  8
2D DXF
  9
$CELTYPE
  6
ByLayer
  9
$CECOLOR
 62
   256
  9
$CELTSCALE
 40
1.0
  9
$DISPSILH
 70
     0
  9
$DIMSCALE
 40
1.0
  9
$DIMASZ
 40
0.18
  9
$DIMEXO
 40
0.0625
  9
$DIMDLI
 40
0.38
  9
$DIMRND
 40
0.0
  9
$DIMDLE
 40
0.0
  9
$DIMEXE
 40
0.18
  9
$DIMTP
 40
0.0
  9
$DIMTM
 40
0.0
  9
$DIMTXT
 40
0.18
  9
$DIMCEN
 40
0.09
  9
$DIMTSZ
 40
0.0
  9
$DIMTOL
 70
     0
  9
$DIMLIM
 70
     0
  9
$DIMTIH
 70
     1
  9
$DIMTOH
 70
     1
  9
$DIMSE1
 70
     0
  9
$DIMSE2
 70
     0
  9
$DIMTAD
 70
     0
  9
$DIMZIN
 70
     0
  9
$DIMBLK
  1

  9
$DIMASO
 70
     1
  9
$DIMSHO
 70
     1
  9
$DIMPOST
  1

  9
$DIMAPOST
  1

  9
$DIMALT
 70
     0
  9
$DIMALTD
 70
     2
  9
$DIMALTF
 40
25.4
  9
$DIMLFAC
 40
1.0
  9
$DIMTOFL
 70
     0
  9
$DIMTVP
 40
0.0
  9
$DIMTIX
 70
     0
  9
$DIMSOXD
 70
     0
  9
$DIMSAH
 70
     0
  9
$DIMBLK1
  1

  9
$DIMBLK2
  1

  9
$DIMSTYLE
  2
STANDARD_ACAD
  9
$DIMCLRD
 70
     0
  9
$DIMCLRE
 70
     0
  9
$DIMCLRT
 70
     0
  9
$DIMTFAC
 40
1.0
  9
$DIMGAP
 40
0.09
  9
$DIMJUST
 70
     0
  9
$DIMSD1
 70
     0
  9
$DIMSD2
 70
     0
  9
$DIMTOLJ
 70
     1
  9
$DIMTZIN
 70
     0
  9
$DIMALTZ
 70
     0
  9
$DIMALTTZ
 70
     0
  9
$DIMUPT
 70
     0
  9
$DIMDEC
 70
     4
  9
$DIMTDEC
 70
     4
  9
$DIMALTU
 70
     2
  9
$DIMALTTD
 70
     2
  9
$DIMTXSTY
  7
Standard
  9
$DIMAUNIT
 70
     0
  9
$DIMADEC
 70
     0
  9
$DIMALTRND
 40
0.0
  9
$DIMAZIN
 70
     0
  9
$DIMDSEP
 70
    46
  9
$DIMATFIT
 70
     3
  9
$DIMFRAC
 70
     0
  9
$DIMLDRBLK
  1

  9
$DIMLUNIT
 70
     2
  9
$DIMLWD
 70
    -2
  9
$DIMLWE
 70
    -2
  9
$DIMTMOVE
 70
     2
  9
$DIMFXL
 40
1.0
  9
$DIMFXLON
 70
     0
  9
$DIMJOGANG
 40
0.7853981633974483
  9
$DIMTFILL
 70
     0
  9
$DIMTFILLCLR
 70
     0
  9
$DIMARCSYM
 70
     0
  9
$DIMLTYPE
  6

  9
$DIMLTEX1
  6

  9
$DIMLTEX2
  6

  9
$LUNITS
 70
     2
  9
$LUPREC
 70
     3
  9
$SKETCHINC
 40
0.1
  9
$FILLETRAD
 40
0.5
  9
$AUNITS
 70
     0
  9
$AUPREC
 70
     0
  9
$MENU
  1
.
  9
$ELEVATION
 40
0.0
  9
$PELEVATION
 40
0.0
  9
$THICKNESS
 40
0.0
  9
$LIMCHECK
 70
     0
  9
$CHAMFERA
 40
0.0
  9
$CHAMFERB
 40
0.0
  9
$CHAMFERC
 40
0.0
  9
$CHAMFERD
 40
0.0
  9
$SKPOLY
 70
     0
  9
$TDCREATE
 40
2459552.388370208
  9
$TDUCREATE
 40
2459552.596703541
  9
$TDUPDATE
 40
2459552.388388379
  9
$TDUUPDATE
 40
2459552.596721713
  9
$TDINDWG
 40
0.0000000116
  9
$TDUSRTIMER
 40
0.0000000116
  9
$USRTIMER
 70
     1
  9
$ANGBASE
 50
0.0
  9
$ANGDIR
 70
     0
  9
$PDMODE
 70
     0
  9
$PDSIZE
 40
0.0
  9
$PLINEWID
 40
0.0
  9
$SPLFRAME
 70
     0
  9
$SPLINETYPE
 70
     6
  9
$SPLINESEGS
 70
     8
  9
$HANDSEED
  5
1A3
  9
$SURFTAB1
 70
     6
  9
$SURFTAB2
 70
     6
  9
$SURFTYPE
 70
     6
  9
$SURFU
 70
     6
  9
$SURFV
 70
     6
  9
$UCSBASE
  2

  9
$UCSNAME
  2

  9
$UCSORG
 10
0.0
 20
0.0
 30
0.0
  9
$UCSXDIR
 10
1.0
 20
0.0
 30
0.0
  9
$UCSYDIR
 10
0.0
 20
1.0
 30
0.0
  9
$UCSORTHOREF
  2

  9
$UCSORTHOVIEW
 70
     0
  9
$UCSORGTOP
 10
0.0
 20
0.0
 30
0.0
  9
$UCSORGBOTTOM
 10
0.0
 20
0.0
 30
0.0
  9
$UCSORGLEFT
 10
0.0
 20
0.0
 30
0.0
  9
$UCSORGRIGHT
 10
0.0
 20
0.0
 30
0.0
  9
$UCSORGFRONT
 10
0.0
 20
0.0
 30
0.0
  9
$UCSORGBACK
 10
0.0
 20
0.0
 30
0.0
  9
$PUCSBASE
  2

  9
$PUCSNAME
  2

  9
$PUCSORG
 10
0.0
 20
0.0
 30
0.0
  9
$PUCSXDIR
 10
1.0
 20
0.0
 30
0.0
  9
$PUCSYDIR
 10
0.0
 20
1.0
 30
0.0
  9
$PUCSORTHOREF
  2

  9
$PUCSORTHOVIEW
 70
     0
  9
$PUCSORGTOP
 10
0.0
 20
0.0
 30
0.0
  9
$PUCSORGBOTTOM
 10
0.0
 20
0.0
 30
0.0
  9
$PUCSORGLEFT
 10
0.0
 20
0.0
 30
0.0
  9
$PUCSORGRIGHT
 10
0.0
 20
0.0
 30
0.0
  9
$PUCSORGFRONT
 10
0.0
 20
0.0
 30
0.0
  9
$PUCSORGBACK
 10
0.0
 20
0.0
 30
0.0
  9
$USERI1
 70
     0
  9
$USERI2
 70
     0
  9
$USERI3
 70
     0
  9
$USERI4
 70
     0
  9
$USERI5
 70
     0
  9
$USERR1
 40
0.0
  9
$USERR2
 40
0.0
  9
$USERR3
 40
0.0
  9
$USERR4
 40
0.0
  9
$USERR5
 40
0.0
  9
$WORLDVIEW
 70
     1
  9
$SHADEDGE
 70
     3
  9
$SHADEDIF
 70
    70
  9
$TILEMODE
 70
     1
  9
$MAXACTVP
 70
    64
  9
$PINSBASE
 10
0.0
 20
0.0
 30
0.0
  9
$PLIMCHECK
 70
     0
  9
$PEXTMIN
 10
1.000000000000000E+20
 20
1.000000000000000E+20
 30
1.000000000000000E+20
  9
$PEXTMAX
 10
-1.000000000000000E+20
 20
-1.000000000000000E+20
 30
-1.000000000000000E+20
  9
$PLIMMIN
 10
0.0
 20
0.0
  9
$PLIMMAX
 10
12.0
 20
9.0
  9
$UNITMODE
 70
     0
  9
$VISRETAIN
 70
     1
  9
$PLINEGEN
 70
     0
  9
$PSLTSCALE
 70
     1
  9
$TREEDEPTH
 70
  3020
  9
$CMLSTYLE
  2
Standard
  9
$CMLJUST
 70
     0
  9
$CMLSCALE
 40
1.0
  9
$PROXYGRAPHICS
 70
     1
  9
$MEASUREMENT
 70
     0
  9
$CELWEIGHT
370
    -1
  9
$ENDCAPS
280
     0
  9
$JOINSTYLE
280
     0
  9
$LWDISPLAY
290
     0
  9
$INSUNITS
 70
     1
  9
$HYPERLINKBASE
  1

  9
$STYLESHEET
  1

  9
$XEDIT
290
     1
  9
$CEPSNTYPE
380
     0
  9
$PSTYLEMODE
290
     1
  9
$FINGERPRINTGUID
  2
{140cbfd9-94e4-44f3-acd4-0192d0fecd2b}
  9
$VERSIONGUID
  2
{FAEB1C32-E019-11D5-929B-00C0DF256EC4}
  9
$EXTNAMES
290
     1
  9
$PSVPSCALE
 40
0.0
  9
$OLESTARTUP
290
     0
  9
$SORTENTS
280
   127
  9
$INDEXCTL
280
     0
  9
$HIDETEXT
280
     1
  9
$XCLIPFRAME
290
     0
  9
$HALOGAP
280
     0
  9
$OBSCOLOR
 70
   257
  9
$OBSLTYPE
280
     0
  9
$INTERSECTIONDISPLAY
280
     0
  9
$INTERSECTIONCOLOR
 70
   257
  9
$DIMASSOC
280
     2
  9
$PROJECTNAME
  1

  9
$CAMERADISPLAY
290
     0
  9
$LENSLENGTH
 40
50.0
  9
$CAMERAHEIGHT
 40
0.0
  9
$STEPSPERSEC
 40
2.0
  9
$STEPSIZE
 40
6.0
  9
$3DDWFPREC
 40
2.0
  9
$PSOLWIDTH
 40
0.25
  9
$PSOLHEIGHT
 40
4.0
  9
$LOFTANG1
 40
1.570796326794897
  9
$LOFTANG2
 40
1.570796326794897
  9
$LOFTMAG1
 40
0.0
  9
$LOFTMAG2
 40
0.0
  9
$LOFTPARAM
 70
     7
  9
$LOFTNORMALS
280
     1
  9
$LATITUDE
 40
37.795
  9
$LONGITUDE
 40
-122.394
  9
$NORTHDIRECTION
 40
0.0
  9
$TIMEZONE
 70
 -8000
  9
$LIGHTGLYPHDISPLAY
280
     1
  9
$TILEMODELIGHTSYNCH
280
     1
  9
$CMATERIAL
347
44
  9
$SOLIDHIST
280
     0
  9
$SHOWHIST
280
     1
  9
$DWFFRAME
280
     2
  9
$DGNFRAME
280
     2
  9
$REALWORLDSCALE
290
     1
  9
$INTERFERECOLOR
 62
   256
  9
$CSHADOW
280
     0
  9
$SHADOWPLANELOCATION
 40
0.0
  0
ENDSEC
  0
SECTION
  2
CLASSES
  0
CLASS
  1
ACDBDICTIONARYWDFLT
  2
AcDbDictionaryWithDefault
  3
ObjectDBX Classes
 90
        0
 91
        3
280
     0
281
     0
  0
CLASS
  1
VISUALSTYLE
  2
AcDbVisualStyle
  3
ObjectDBX Classes
 90
     4095
 91
        3
280
     0
281
     0
  0
CLASS
  1
MATERIAL
  2
AcDbMaterial
  3
ObjectDBX Classes
 90
     1153
 91
        3
280
     0
281
     0
  0
CLASS
  1
SCALE
  2
AcDbScale
  3
ObjectDBX Classes
 90
     1153
 91
        3
280
     0
281
     0
  0
CLASS
  1
TABLESTYLE
  2
AcDbTableStyle
  3
ObjectDBX Classes
 90
     4095
 91
        3
280
     0
281
     0
  0
CLASS
  1
MLEADERSTYLE
  2
AcDbMLeaderStyle
  3
ACDB_MLEADERSTYLE_CLASS
 90
     4095
 91
        3
280
     0
281
     0
  0
CLASS
  1
SUN
  2
AcDbSun
  3
SCENEOE
 90
     1153
 91
        3
280
     0
281
     0
  0
CLASS
  1
DICTIONARYVAR
  2
AcDbDictionaryVar
  3
ObjectDBX Classes
 90
        0
 91
        3
280
     0
281
     0
  0
CLASS
  1
CELLSTYLEMAP
  2
AcDbCellStyleMap
  3
ObjectDBX Classes
 90
     1152
 91
        3
280
     0
281
     0
  0
ENDSEC
  0
SECTION
  2
TABLES
  0
TABLE
  2
VPORT
  5
8
330
0
100
AcDbSymbolTable
 70
     1
  0
VPORT
  5
29
330
8
100
AcDbSymbolTableRecord
100
AcDbViewportTableRecord
  2
*Active
 70
     0
 10
0.0
 20
0.0
 11
1.0
 21
1.0
 12
10.42990654205607
 22
4.5
 13
0.0
 23
0.0
 14
0.5
 24
0.5
 15
0.5
 25
0.5
 16
0.0
 26
0.0
 36
1.0
 17
0.0
 27
0.0
 37
0.0
 40
9.0
 41
1.972972972850329
 42
50.0
 43
0.0
 44
0.0
 50
0.0
 51
0.0
 71
     0
 72
   100
 73
     1
 74
     3
 75
     0
 76
     0
 77
     0
 78
     0
281
     0
 65
     1
110
0.0
120
0.0
130
0.0
111
1.0
121
0.0
131
0.0
112
0.0
122
1.0
132
0.0
 79
     0
146
0.0
348
2F
 60
     3
 61
     5
292
     1
282
     1
141
0.0
142
0.0
 63
   250
361
6D
  0
ENDTAB
  0
TABLE
  2
LTYPE
  5
5
330
0
100
AcDbSymbolTable
 70
     1
  0
LTYPE
  5
14
330
5
100
AcDbSymbolTableRecord
100
AcDbLinetypeTableRecord
  2
ByBlock
 70
     0
  3

 72
    65
 73
     0
 40
0.0
  0
LTYPE
  5
15
330
5
100
AcDbSymbolTableRecord
100
AcDbLinetypeTableRecord
  2
ByLayer
 70
     0
  3

 72
    65
 73
     0
 40
0.0
  0
LTYPE
  5
16
330
5
100
AcDbSymbolTableRecord
100
AcDbLinetypeTableRecord
  2
Continuous
 70
     0
  3
Solid line
 72
    65
 73
     0
 40
0.0
  0
ENDTAB
  0
TABLE
  2
LAYER
  5
2
330
0
100
AcDbSymbolTable
 70
     3
  0
LAYER
  5
10
330
2
100
AcDbSymbolTableRecord
100
AcDbLayerTableRecord
  2
0
 70
     0
 62
     7
  6
Continuous
370
    -3
390
F
347
46
  0
LAYER
  5
6E
330
2
100
AcDbSymbolTableRecord
100
AcDbLayerTableRecord
  2
2D DXF
 70
     0
 62
    18
420
        0
  6
Continuous
370
    -3
390
F
347
46
  0
LAYER
  5
71
330
2
100
AcDbSymbolTableRecord
100
AcDbLayerTableRecord
  2
Make2D$Visible$Curves
 70
     0
 62
    18
420
        0
  6
Continuous
370
    -3
390
F
347
46
  0
ENDTAB
  0
TABLE
  2
STYLE
  5
3
330
0
100
AcDbSymbolTable
 70
     1
  0
STYLE
  5
11
330
3
100
AcDbSymbolTableRecord
100
AcDbTextStyleTableRecord
  2
Standard
 70
     0
 40
0.0
 41
1.0
 50
0.0
 71
     0
 42
0.2
  3
txt
  4

  0
ENDTAB
  0
TABLE
  2
VIEW
  5
6
330
0
100
AcDbSymbolTable
 70
     0
  0
ENDTAB
  0
TABLE
  2
UCS
  5
7
330
0
100
AcDbSymbolTable
 70
     0
  0
ENDTAB
  0
TABLE
  2
APPID
  5
9
330
0
100
AcDbSymbolTable
 70
     2
  0
APPID
  5
12
330
9
100
AcDbSymbolTableRecord
100
AcDbRegAppTableRecord
  2
ACAD
 70
     0
  0
APPID
  5
19B
330
9
100
AcDbSymbolTableRecord
100
AcDbRegAppTableRecord
  2
ACAD_MLEADERVER
 70
     0
  0
ENDTAB
  0
TABLE
  2
DIMSTYLE
  5
A
330
0
100
AcDbSymbolTable
 70
     1
100
AcDbDimStyleTable
  0
DIMSTYLE
105
27
330
A
100
AcDbSymbolTableRecord
100
AcDbDimStyleTableRecord
  2
STANDARD_ACAD
 70
     0
178
     0
340
11
  0
ENDTAB
  0
TABLE
  2
BLOCK_RECORD
  5
1
330
0
100
AcDbSymbolTable
 70
     1
  0
BLOCK_RECORD
  5
1F
330
1
100
AcDbSymbolTableRecord
100
AcDbBlockTableRecord
  2
*Model_Space
340
22
 70
     0
280
     1
281
     0
  0
BLOCK_RECORD
  5
1B
330
1
100
AcDbSymbolTableRecord
100
AcDbBlockTableRecord
  2
*Paper_Space
340
1E
 70
     0
280
     1
281
     0
  0
BLOCK_RECORD
  5
23
330
1
100
AcDbSymbolTableRecord
100
AcDbBlockTableRecord
  2
*Paper_Space0
340
26
 70
     0
280
     1
281
     0
  0
ENDTAB
  0
ENDSEC
  0
SECTION
  2
BLOCKS
  0
BLOCK
  5
20
330
1F
100
AcDbEntity
  8
0
100
AcDbBlockBegin
  2
*Model_Space
 70
     0
 10
0.0
 20
0.0
 30
0.0
  3
*Model_Space
  1

  0
ENDBLK
  5
21
330
1F
100
AcDbEntity
  8
0
100
AcDbBlockEnd
  0
BLOCK
  5
1C
330
1B
100
AcDbEntity
 67
     1
  8
0
100
AcDbBlockBegin
  2
*Paper_Space
 70
     0
 10
0.0
 20
0.0
 30
0.0
  3
*Paper_Space
  1

  0
ENDBLK
  5
1D
330
1B
100
AcDbEntity
 67
     1
  8
0
100
AcDbBlockEnd
  0
BLOCK
  5
24
330
23
100
AcDbEntity
  8
0
100
AcDbBlockBegin
  2
*Paper_Space0
 70
     0
 10
0.0
 20
0.0
 30
0.0
  3
*Paper_Space0
  1

  0
ENDBLK
  5
25
330
23
100
AcDbEntity
  8
0
100
AcDbBlockEnd
  0
ENDSEC
  0
SECTION
  2
ENTITIES
  0
SPLINE
  5
6F
330
1F
100
AcDbEntity
  8
2D DXF
370
    -3
100
AcDbSpline
210
0.0
220
0.0
230
1.0
 70
     8
 71
     3
 72
    10
 73
     6
 74
     0
 42
0.000000001
 43
0.0000000001
 40
0.4499194873218353
 40
0.4499194873218353
 40
0.4499194873218353
 40
0.4499194873218353
 40
1.0
 40
2.0
 40
2.180749075502986
 40
2.180749075502986
 40
2.180749075502986
 40
2.180749075502986
 10
-4.236336047985276
 20
31.86097556466619
 30
0.0
 10
-4.258003219435352
 20
31.74394488445845
 30
0.0
 10
-4.320179179662887
 20
31.41437031785566
 30
0.0
 10
-4.393947177616147
 20
31.0473501956003
 30
0.0
 10
-4.451026895387068
 20
30.79815378919718
 30
0.0
 10
-4.460053566122475
 20
30.76008088841919
 30
0.0
  0
SPLINE
  5
70
330
1F
100
AcDbEntity
  8
2D DXF
370
    -3
100
AcDbSpline
210
0.0
220
0.0
230
1.0
 70
     8
 71
     3
 72
    10
 73
     6
 74
     0
 42
0.000000001
 43
0.0000000001
 40
0.4512712821167845
 40
0.4512712821167845
 40
0.4512712821167845
 40
0.4512712821167845
 40
1.0
 40
2.0
 40
2.181679109507187
 40
2.181679109507187
 40
2.181679109507187
 40
2.181679109507187
 10
4.232166230925785
 20
31.86011277522698
 30
0.0
 10
4.253782105097187
 20
31.74337005410592
 30
0.0
 10
4.315907231024099
 20
31.4140836715594
 30
0.0
 10
4.389657253522489
 20
31.04715298312124
 30
0.0
 10
4.446787256736334
 20
30.79776122365666
 30
0.0
 10
4.455863365572418
 20
30.75949318852619
 30
0.0
  0
SPLINE
  5
72
330
1F
100
AcDbEntity
  8
Make2D$Visible$Curves
 62
    18
420
        0
370
    -3
100
AcDbSpline
210
0.0
220
0.0
230
1.0
 70
    11
 71
     2
 72
    34
 73
    31
 74
     0
 42
0.000000001
 43
0.0000000001
 40
0.0
 40
0.0
 40
0.0
 40
1.000000040306232
 40
2.000000080612463
 40
3.000000120918695
 40
4.000000161224927
 40
5.000000201531158
 40
6.00000024183739
 40
7.00000028214362
 40
8.000000322449853
 40
9.000000362756083
 40
10.00000040306232
 40
11.00000044336855
 40
12.00000048367478
 40
13.00000052398101
 40
14.0
 40
14.0
 40
14.99999947601899
 40
15.99999951632522
 40
16.99999955663145
 40
17.99999959693768
 40
18.99999963724391
 40
19.99999967755015
 40
20.99999971785638
 40
21.99999975816261
 40
22.99999979846884
 40
23.99999983877507
 40
24.9999998790813
 40
25.99999991938754
 40
26.99999995969377
 40
28.0
 40
28.0
 40
28.0
 10
0.0332056871983326
 20
68.02289400150286
 30
0.0
 10
0.9822028632064246
 20
68.02805381510024
 30
0.0
 10
2.869980520959331
 20
67.83321090290264
 30
0.0
 10
4.709375092838954
 20
67.32690562000032
 30
0.0
 10
6.284093944114758
 20
66.23352031602352
 30
0.0
 10
7.353165575125757
 20
64.64781956134541
 30
0.0
 10
7.959714086174827
 20
62.84335697857303
 30
0.0
 10
8.293410680970638
 20
60.97380335829546
 30
0.0
 10
8.307202189479824
 20
59.07302696379366
 30
0.0
 10
7.998512375482008
 20
57.19713223299018
 30
0.0
 10
7.317447170862209
 20
55.41745716094635
 30
0.0
 10
6.178837815407931
 20
53.88521873109388
 30
0.0
 10
4.64061427898298
 20
52.75576274969406
 30
0.0
 10
2.861372472241328
 20
52.07400797832456
 30
0.0
 10
0.9830407771746792
 20
51.77932082028946
 30
0.0
 10
0.0332056871983326
 20
51.78219817380983
 30
0.0
 10
-0.916629402778014
 20
51.77932082028946
 30
0.0
 10
-2.794961097844663
 20
52.07400797832456
 30
0.0
 10
-4.574202904586315
 20
52.75576274969406
 30
0.0
 10
-6.112426441011266
 20
53.88521873109388
 30
0.0
 10
-7.251035796465544
 20
55.41745716094635
 30
0.0
 10
-7.932101001085343
 20
57.19713223299018
 30
0.0
 10
-8.240790815083159
 20
59.07302696379366
 30
0.0
 10
-8.226999306573973
 20
60.97380335829546
 30
0.0
 10
-7.893302711778162
 20
62.84335697857303
 30
0.0
 10
-7.286754200729092
 20
64.64781956134541
 30
0.0
 10
-6.217682569718093
 20
66.23352031602352
 30
0.0
 10
-4.642963718442289
 20
67.32690562000032
 30
0.0
 10
-2.803569146562666
 20
67.83321090290264
 30
0.0
 10
-0.9157914888097594
 20
68.02805381510024
 30
0.0
 10
0.0332056871983326
 20
68.02289400150286
 30
0.0
  0
SPLINE
  5
73
330
1F
100
AcDbEntity
  8
Make2D$Visible$Curves
 62
    18
420
        0
370
    -3
100
AcDbSpline
210
0.0
220
0.0
230
1.0
 70
    12
 71
     3
 72
    48
 73
    44
 74
     0
 42
0.000000001
 43
0.0000000001
 40
0.0
 40
0.0
 40
0.0
 40
0.0
 40
1.0
 40
1.0
 40
1.0
 40
2.0
 40
3.0
 40
4.0
 40
5.0
 40
6.0
 40
7.0
 40
7.0
 40
7.0
 40
8.0
 40
8.0
 40
9.0
 40
9.0
 40
10.0
 40
10.0
 40
11.0
 40
11.0
 40
12.0
 40
12.0
 40
13.0
 40
13.0
 40
14.0
 40
14.0
 40
15.0
 40
15.0
 40
16.0
 40
16.0
 40
17.0
 40
17.0
 40
18.0
 40
18.0
 40
19.0
 40
19.0
 40
20.0
 40
20.0
 40
21.0
 40
21.0
 40
21.0
 40
21.40578199946958
 40
21.40578199946958
 40
21.40578199946958
 40
21.40578199946958
 10
40.92857391609294
 20
29.26861254290491
 30
0.0
 41
1.0
 10
40.97210671651709
 20
29.24836707523363
 30
0.0
 41
1.0
 10
41.03089028762564
 20
29.28089598620992
 30
0.0
 41
1.0
 10
41.05082481188352
 20
29.32457204813565
 30
0.0
 41
1.0
 10
41.07345240333201
 20
29.37414855533239
 30
0.0
 41
1.0
 10
41.08287485076458
 20
29.4883586280118
 30
0.0
 41
1.0
 10
41.00041493006046
 20
29.63432885051409
 30
0.0
 41
1.0
 10
40.88346383815892
 20
29.74860086888705
 30
0.0
 41
1.0
 10
40.75078338954629
 20
29.84415977876157
 30
0.0
 41
1.0
 10
40.60968531574592
 20
29.92626947325183
 30
0.0
 41
1.0
 10
40.51125054858288
 20
29.97265949679157
 30
0.0
 41
1.0
 10
40.46250093846335
 20
29.99675507297998
 30
0.0
 41
1.0
 10
40.14258249018174
 20
30.15488186262502
 30
0.0
 41
1.0
 10
39.81815593934977
 20
30.30360125268732
 30
0.0
 41
1.0
 10
39.16028663258516
 20
30.58222523364644
 30
0.0
 41
1.0
 10
38.82286751376571
 20
30.69685728723366
 30
0.0
 41
1.0
 10
38.13106034525269
 20
30.87676152062342
 30
0.0
 41
1.0
 10
37.78101072409824
 20
30.94479222428526
 30
0.0
 41
1.0
 10
37.07261940799349
 20
31.03701080554285
 30
0.0
 41
1.0
 10
36.71721429716328
 20
31.06818118937574
 30
0.0
 41
1.0
 10
36.00398516994723
 20
31.1006441434497
 30
0.0
 41
1.0
 10
35.64723733471241
 20
31.10605665308963
 30
0.0
 41
1.0
 10
34.93347512098924
 20
31.09524373757539
 30
0.0
 41
1.0
 10
34.57689946425718
 20
31.08208829255735
 30
0.0
 41
1.0
 10
33.86435905105215
 20
31.04027942799947
 30
0.0
 41
1.0
 10
33.50853250998009
 20
31.0135942191959
 30
0.0
 41
1.0
 10
32.79776675889681
 20
30.94866224853949
 30
0.0
 41
1.0
 10
32.44278023705276
 20
30.91238212089875
 30
0.0
 41
1.0
 10
31.73359990075977
 20
30.83219358099223
 30
0.0
 41
1.0
 10
31.37927825772849
 20
30.7898737266863
 30
0.0
 41
1.0
 10
30.67117202189638
 20
30.70078284936911
 30
0.0
 41
1.0
 10
30.31735657184632
 20
30.65442135278356
 30
0.0
 41
1.0
 10
29.61020100747821
 20
30.55806624375851
 30
0.0
 41
1.0
 10
29.2568746227625
 20
30.5081229904911
 30
0.0
 41
1.0
 10
28.5507246482677
 20
30.4047050864465
 30
0.0
 41
1.0
 10
28.19836455978515
 20
30.34822366556929
 30
0.0
 41
1.0
 10
27.49507418034966
 20
30.22571588610504
 30
0.0
 41
1.0
 10
27.14581371209653
 20
30.15313204851735
 30
0.0
 41
1.0
 10
26.45206221851942
 20
29.9853044776308
 30
0.0
 41
1.0
 10
26.10602284807632
 20
29.89820759422724
 30
0.0
 41
1.0
 10
25.76081985397869
 20
29.80792761286339
 30
0.0
 41
1.0
 10
25.62074236576025
 20
29.77129353598085
 30
0.0
 41
0.9999953304417449
 10
25.48080297307625
 20
29.73413543229062
 30
0.0
 41
0.9999953304417449
 10
25.34100363629213
 20
29.69645382232849
 30
0.0
 41
1.0
  0
SPLINE
  5
74
330
1F
100
AcDbEntity
  8
Make2D$Visible$Curves
 62
    18
420
        0
370
    -3
100
AcDbSpline
210
0.0
220
0.0
230
1.0
 70
     8
 71
     3
 72
    27
 73
    23
 74
     0
 42
0.000000001
 43
0.0000000001
 40
0.0
 40
0.0
 40
0.0
 40
0.0
 40
1.0
 40
2.0
 40
3.0
 40
4.0
 40
5.0
 40
6.0
 40
7.0
 40
8.0
 40
9.0
 40
9.0
 40
9.0
 40
10.0
 40
11.0
 40
12.0
 40
13.0
 40
14.0
 40
15.0
 40
16.0
 40
17.0
 40
18.0
 40
18.0
 40
18.0
 40
18.0
 10
-8.513506140189278
 20
30.37240614624021
 30
0.0
 10
-8.37654396435073
 20
30.72252218564028
 30
0.0
 10
-7.627830873908437
 20
30.65983189620431
 30
0.0
 10
-6.71375535613214
 20
30.43179249514382
 30
0.0
 10
-5.774815061848216
 20
30.1207958096106
 30
0.0
 10
-4.843227700459678
 20
29.8291837038819
 30
0.0
 10
-3.893774477962808
 20
29.58608266423285
 30
0.0
 10
-2.931079090070199
 20
29.40714169639406
 30
0.0
 10
-1.958284143341061
 20
29.29388947258012
 30
0.0
 10
-0.9809890309235101
 20
29.23477209355284
 30
0.0
 10
-0.3284320794246725
 20
29.22269376985893
 30
0.0
 10
-0.0021602676808357
 20
29.22270361679462
 30
0.0
 10
0.3241095856935345
 20
29.2215731236991
 30
0.0
 10
0.9767041734515374
 20
29.23141003793422
 30
0.0
 10
1.954196571731259
 20
29.28717035145253
 30
0.0
 10
2.927374767889347
 20
29.39708064716246
 30
0.0
 10
3.890679085999082
 20
29.57271398839329
 30
0.0
 10
4.840961687505811
 20
29.81255250586229
 30
0.0
 10
5.773545154309872
 20
30.10096316715986
 30
0.0
 10
6.713548090878845
 20
30.40873303879179
 30
0.0
 10
7.628401464114361
 20
30.63363151836349
 30
0.0
 10
8.377325460613662
 20
30.69374983218471
 30
0.0
 10
8.51308428454881
 20
30.34316543381626
 30
0.0
  0
SPLINE
  5
75
330
1F
100
AcDbEntity
  8
Make2D$Visible$Curves
 62
    18
420
        0
370
    -3
100
AcDbSpline
210
0.0
220
0.0
230
1.0
 70
    12
 71
     3
 72
    41
 73
    37
 74
     0
 42
0.000000001
 43
0.0000000001
 40
-0.0671572777863575
 40
-0.0671572777863575
 40
-0.0671572777863575
 40
-0.0671572777863575
 40
0.0
 40
0.0
 40
0.0
 40
1.000000150794276
 40
2.000000301588552
 40
3.000000452382829
 40
4.000000603177105
 40
5.000000753971381
 40
6.000000904765657
 40
7.000001055559935
 40
8.00000120635421
 40
9.000001357148488
 40
10.00000150794276
 40
11.00000165873704
 40
12.00000180953132
 40
13.0
 40
13.0
 40
13.0
 40
13.99999819046868
 40
14.99999834126296
 40
15.99999849205724
 40
16.99999864285151
 40
17.99999879364579
 40
18.99999894444007
 40
19.99999909523434
 40
20.99999924602862
 40
21.99999939682289
 40
22.99999954761717
 40
23.99999969841145
 40
24.99999984920573
 40
26.0
 40
26.0
 40
26.0
 40
26.06715727778636
 40
26.06715727778636
 40
26.06715727778636
 40
26.06715727778636
 10
-8.267505087507118
 20
30.62390862308132
 30
0.0
 41
1.0
 10
-8.266121669107159
 20
30.63989427123008
 30
0.0
 41
0.9989377936654854
 10
-8.263838422265279
 20
30.65577638623608
 30
0.0
 41
0.9989377936654854
 10
-8.260662622819225
 20
30.67150435784986
 30
0.0
 41
1.0
 10
-8.213398764656844
 20
30.90557600883461
 30
0.0
 41
1.0
 10
-7.768455232890076
 20
31.08059383286586
 30
0.0
 41
1.0
 10
-7.125654931722764
 20
31.07426438336933
 30
0.0
 41
1.0
 10
-6.477888959157255
 20
30.9981621260092
 30
0.0
 41
1.0
 10
-5.835106886686859
 20
30.90753105541269
 30
0.0
 41
1.0
 10
-5.189671764045002
 20
30.83085898402616
 30
0.0
 41
1.0
 10
-4.543279207237305
 20
30.76496056793197
 30
0.0
 41
1.0
 10
-3.895461312271564
 20
30.71400300931849
 30
0.0
 41
1.0
 10
-3.24676797911782
 20
30.67630844816443
 30
0.0
 41
1.0
 10
-2.597503739324637
 20
30.65028970875632
 30
0.0
 41
1.0
 10
-1.947938237478525
 20
30.63377562379833
 30
0.0
 41
1.0
 10
-1.298237175509882
 20
30.6244057625141
 30
0.0
 41
1.0
 10
-0.6484873392524264
 20
30.61995491255453
 30
0.0
 41
1.0
 10
-0.2153125546081185
 20
30.61923892451046
 30
0.0
 41
1.0
 10
0.0012744044219204
 20
30.61924699671485
 30
0.0
 41
1.0
 10
0.2178613634519593
 20
30.61923892451046
 30
0.0
 41
1.0
 10
0.6510361480962672
 20
30.61995491255453
 30
0.0
 41
1.0
 10
1.300785984353723
 20
30.6244057625141
 30
0.0
 41
1.0
 10
1.950487046322365
 20
30.63377562379833
 30
0.0
 41
1.0
 10
2.600052548168478
 20
30.65028970875632
 30
0.0
 41
1.0
 10
3.249316787961661
 20
30.67630844816443
 30
0.0
 41
1.0
 10
3.898010121115405
 20
30.71400300931849
 30
0.0
 41
1.0
 10
4.545828016081146
 20
30.76496056793197
 30
0.0
 41
1.0
 10
5.192220572888843
 20
30.83085898402616
 30
0.0
 41
1.0
 10
5.8376556955307
 20
30.90753105541269
 30
0.0
 41
1.0
 10
6.480437768001096
 20
30.9981621260092
 30
0.0
 41
1.0
 10
7.128203740566605
 20
31.07426438336933
 30
0.0
 41
1.0
 10
7.771004041733917
 20
31.08059383286586
 30
0.0
 41
1.0
 10
8.215947573500685
 20
30.90557600883461
 30
0.0
 41
1.0
 10
8.263211431663066
 20
30.67150435784986
 30
0.0
 41
1.0
 10
8.26638723110914
 20
30.65577638623608
 30
0.0
 41
0.9989377936654854
 10
8.268670477951035
 20
30.63989427123007
 30
0.0
 41
0.9989377936654854
 10
8.270053896350959
 20
30.62390862308132
 30
0.0
 41
1.0
  0
SPLINE
  5
76
330
1F
100
AcDbEntity
  8
2D DXF
370
    -3
100
AcDbSpline
210
0.0
220
0.0
230
1.0
 70
    12
 71
     3
 72
    24
 73
    20
 74
     0
 42
0.000000001
 43
0.0000000001
 40
40.63233521957797
 40
40.63233521957797
 40
40.63233521957797
 40
40.63233521957797
 40
63.96364431611421
 40
63.96364431611421
 40
63.96364431611421
 40
64.96366674297131
 40
64.96366674297131
 40
65.96368916982841
 40
65.96368916982841
 40
66.96371159668551
 40
66.96371159668551
 40
67.96373402354263
 40
67.96373402354263
 40
68.96375645039973
 40
68.96375645039973
 40
69.9636443161142
 40
69.9636443161142
 40
69.9636443161142
 40
70.77917195857958
 40
70.77917195857958
 40
70.77917195857958
 40
70.77917195857958
 10
42.77801851064729
 20
0.4622810828459425
 30
0.0
 41
0.8537101292836783
 10
39.46511398653509
 20
17.16294736441764
 30
0.0
 41
0.8537101292836783
 10
39.10949300403525
 20
18.88796911075727
 30
0.0
 41
0.8537101292836783
 10
37.27523025072923
 20
28.10081312471295
 30
0.0
 41
0.8537101292836783
 10
37.25109330829971
 20
28.22243729826763
 30
0.0
 41
0.8537101292836783
 10
37.2173016971057
 20
28.34133659479416
 30
0.0
 41
0.8537101292836783
 10
37.13040913719028
 20
28.5736854337911
 30
0.0
 41
0.8537101292836783
 10
37.07680167878058
 20
28.68502417900717
 30
0.0
 41
0.8537101292836783
 10
36.94926440505134
 20
28.8980303208747
 30
0.0
 41
0.8537101292836783
 10
36.87484531739105
 20
28.9966005588078
 30
0.0
 41
0.8537101292836783
 10
36.7047062404789
 20
29.17787536867263
 30
0.0
 41
0.8537101292836783
 10
36.60925440155847
 20
29.25607686980861
 30
0.0
 41
0.8537101292836783
 10
36.39758612278828
 20
29.38760806448816
 30
0.0
 41
0.8537101292836783
 10
36.28405692199098
 20
29.4354496301887
 30
0.0
 41
0.8537101292836783
 10
36.04162470928338
 20
29.4952806726653
 30
0.0
 41
0.8537101292836783
 10
35.91886234454439
 20
29.50379852095487
 30
0.0
 41
0.8537101292836783
 10
35.79454556556309
 20
29.49092070911948
 30
0.0
 41
0.8537101292836783
 10
35.6033511611174
 20
29.47082538371515
 30
0.0
 41
0.8537101292836783
 10
35.41215675836214
 20
29.45073004222646
 30
0.0
 41
0.8537101292836783
 10
35.22096235560689
 20
29.43063470073768
 30
0.0
 41
0.8537101292836783
  0
LINE
  5
77
330
1F
100
AcDbEntity
  8
2D DXF
370
    -3
100
AcDbLine
 10
42.15907523008111
 20
0.3446356436786893
 30
0.0
 11
42.77801851064733
 21
0.4622810828459514
 31
0.0
  0
SPLINE
  5
78
330
1F
100
AcDbEntity
  8
2D DXF
370
    -3
100
AcDbSpline
210
0.0
220
0.0
230
1.0
 70
    12
 71
     3
 72
    24
 73
    20
 74
     0
 42
0.000000001
 43
0.0000000001
 40
10.15069138359446
 40
10.15069138359446
 40
10.15069138359446
 40
10.15069138359446
 40
10.67814378418416
 40
10.67814378418416
 40
10.67814378418416
 40
11.67814378418416
 40
11.67814378418416
 40
12.67814378418416
 40
12.67814378418416
 40
13.67814378418416
 40
13.67814378418416
 40
14.67814378418416
 40
14.67814378418416
 40
15.67814378418416
 40
15.67814378418416
 40
16.67814378418416
 40
16.67814378418416
 40
16.67814378418416
 40
40.00230948144828
 40
40.00230948144828
 40
40.00230948144828
 40
40.00230948144828
 10
35.47303363637867
 20
28.8236582438107
 30
0.0
 41
0.8537101292836782
 10
35.60220543768574
 20
28.83723475804678
 30
0.0
 41
0.8537101292836782
 10
35.70661066951867
 20
28.84820815215123
 30
0.0
 41
0.8537101292836782
 10
35.86054904030208
 20
28.86438778651807
 30
0.0
 41
0.8537101292836783
 10
35.93324954228432
 20
28.87137341855338
 30
0.0
 41
0.8537101292836783
 10
36.00345651662974
 20
28.86174061563263
 30
0.0
 41
0.8537101292836783
 10
36.13888341004349
 20
28.8092381398797
 30
0.0
 41
0.8537101292836783
 10
36.20031669520331
 20
28.77289447823099
 30
0.0
 41
0.8537101292836783
 10
36.31062294242798
 20
28.68002230738952
 30
0.0
 41
0.8537101292836783
 10
36.35978749784718
 20
28.62807383359967
 30
0.0
 41
0.8537101292836783
 10
36.44613947229786
 20
28.51315210927991
 30
0.0
 41
0.8537101292836783
 10
36.48405085353275
 20
28.45245291824425
 30
0.0
 41
0.8537101292836783
 10
36.54934440402366
 20
28.32457787842499
 30
0.0
 41
0.8537101292836783
 10
36.57720778372266
 20
28.25863776730568
 30
0.0
 41
0.8537101292836783
 10
36.62336775203353
 20
28.12275236265442
 30
0.0
 41
0.8537101292836783
 10
36.64221339692879
 20
28.05266941545984
 30
0.0
 41
0.8537101292836783
 10
36.65682470256463
 20
27.98044622339609
 30
0.0
 41
0.8537101292836783
 10
38.490908211739
 20
18.76850936349036
 30
0.0
 41
0.8537101292836783
 10
38.84634995010152
 20
17.04439477120045
 30
0.0
 41
0.8537101292836783
 10
42.15907523008113
 20
0.344635643678681
 30
0.0
 41
0.8537101292836783
  0
LINE
  5
79
330
1F
100
AcDbEntity
  8
2D DXF
370
    -3
100
AcDbLine
 10
42.82037842026439
 20
0.2477710637534791
 30
0.0
 11
42.7780185106471
 21
0.462281082845923
 31
0.0
  0
SPLINE
  5
7A
330
1F
100
AcDbEntity
  8
2D DXF
370
    -3
100
AcDbSpline
210
0.0
220
0.0
230
1.0
 70
     8
 71
     2
 72
    11
 73
     8
 74
     0
 42
0.000000001
 43
0.0000000001
 40
0.2100281833390025
 40
0.2100281833390025
 40
0.2100281833390025
 40
1.210028183339003
 40
2.210028183339003
 40
3.210028183339003
 40
4.210028183339002
 40
5.210028183339002
 40
6.210028183339002
 40
6.210028183339002
 40
6.210028183339002
 10
42.20127054033976
 20
0.133079599643569
 30
0.0
 10
42.22097081272217
 20
0.0678057465291637
 30
0.0
 10
42.34890605703579
 20
0.0463917362727706
 30
0.0
 10
42.47020958116339
 20
0.0590364937346841
 30
0.0
 10
42.59078678841918
 20
0.0826225232691833
 30
0.0
 10
42.70772290900676
 20
0.1169286052113172
 30
0.0
 10
42.82025665108837
 20
0.1804157846919487
 30
0.0
 10
42.82037842026439
 20
0.2477710637534791
 30
0.0
  0
LINE
  5
7B
330
1F
100
AcDbEntity
  8
2D DXF
370
    -3
100
AcDbLine
 10
42.16018822259396
 20
0.339050667916073
 30
0.0
 11
42.20127054033976
 21
0.133079599643569
 31
0.0
  0
SPLINE
  5
7C
330
1F
100
AcDbEntity
  8
2D DXF
370
    -3
100
AcDbSpline
210
0.0
220
0.0
230
1.0
 70
    12
 71
     3
 72
    21
 73
    17
 74
     0
 42
0.000000001
 43
0.0000000001
 40
58.87237440434966
 40
58.87237440434966
 40
58.87237440434966
 40
58.87237440434966
 40
59.80521535755197
 40
59.80521535755197
 40
59.80521535755197
 40
60.80453352002571
 40
60.80453352002571
 40
61.80466988753098
 40
61.80466988753098
 40
62.80480625503623
 40
62.80480625503623
 40
63.80494262254147
 40
63.80494262254147
 40
64.80507899004672
 40
64.80507899004672
 40
65.80521535755197
 40
65.80521535755197
 40
65.80521535755197
 40
65.80521535755197
 10
27.40154944555003
 20
28.27680484548771
 30
0.0
 41
1.0
 10
27.56448125744277
 20
28.22230451761549
 30
0.0
 41
0.9999999999999994
 10
27.72730578410985
 20
28.16784013804475
 30
0.0
 41
0.9999999999999998
 10
27.8901303034839
 20
28.11337577852089
 30
0.0
 41
1.0
 10
27.91347079917939
 20
28.10557158077357
 30
0.0
 41
1.0
 10
27.93710477414608
 20
28.09879307600287
 30
0.0
 41
1.0
 10
27.98497927350958
 20
28.08728274221794
 30
0.0
 41
1.0
 10
28.00911646701515
 20
28.08248892725485
 30
0.0
 41
1.0
 10
28.05777115073188
 20
28.07482871137445
 30
0.0
 41
1.0
 10
28.08220489903563
 20
28.07189176970997
 30
0.0
 41
1.0
 10
28.13128520853867
 20
28.06780421893625
 30
0.0
 41
1.0
 10
28.15586545657386
 20
28.0665845513029
 30
0.0
 41
1.0
 10
28.20510613919659
 20
28.06579343154059
 30
0.0
 41
1.0
 10
28.22971471040007
 20
28.0661534466413
 30
0.0
 41
1.0
 10
28.27890831258084
 20
28.06838462680472
 30
0.0
 41
1.0
 10
28.30345393205444
 20
28.07019092835607
 30
0.0
 41
1.0
 10
28.32794836991947
 20
28.07268794137902
 30
0.0
 41
1.0
  0
SPLINE
  5
7D
330
1F
100
AcDbEntity
  8
2D DXF
370
    -3
100
AcDbSpline
210
0.0
220
0.0
230
1.0
 70
    12
 71
     3
 72
    21
 73
    17
 74
     0
 42
0.000000001
 43
0.0000000001
 40
30.22350564207482
 40
30.22350564207482
 40
30.22350564207482
 40
30.22350564207482
 40
52.87237440434966
 40
52.87237440434966
 40
52.87237440434966
 40
53.87237440434966
 40
53.87237440434966
 40
54.87237440434966
 40
54.87237440434966
 40
55.87237440434966
 40
55.87237440434966
 40
56.87237440434966
 40
56.87237440434966
 40
57.87237440434966
 40
57.87237440434966
 40
58.87237440434966
 40
58.87237440434966
 40
58.87237440434966
 40
58.87237440434966
 10
21.69885572064216
 20
0.2954056862498682
 30
0.0
 41
1.0
 10
24.80122000820496
 20
16.80103623865832
 30
0.0
 41
1.0
 10
25.08985396213582
 20
18.33666679894118
 30
0.0
 41
1.0
 10
26.78535308288458
 20
27.35729735528679
 30
0.0
 41
1.0
 10
26.79751804372735
 20
27.42217679371568
 30
0.0
 41
1.0
 10
26.81245809183237
 20
27.48641316469237
 30
0.0
 41
1.0
 10
26.84788836256958
 20
27.61359977175461
 30
0.0
 41
1.0
 10
26.86859701319794
 20
27.67620862702437
 30
0.0
 41
1.0
 10
26.91600134498061
 20
27.79945744105303
 30
0.0
 41
1.0
 10
26.94330215740122
 20
27.85948769543362
 30
0.0
 41
1.0
 10
27.0051010753037
 20
27.97635989893076
 30
0.0
 41
1.0
 10
27.04023700444669
 20
28.03202230290622
 30
0.0
 41
1.0
 10
27.11898180311734
 20
28.13779971531264
 30
0.0
 41
1.0
 10
27.16539888875276
 20
28.18538634552185
 30
0.0
 41
1.0
 10
27.27232243262331
 20
28.26995545395275
 30
0.0
 41
1.0
 10
27.33321869424408
 20
28.28633343586961
 30
0.0
 41
1.0
 10
27.40154944555003
 20
28.27680484548771
 30
0.0
 41
1.0
  0
LINE
  5
7E
330
1F
100
AcDbEntity
  8
2D DXF
370
    -3
100
AcDbLine
 10
21.07977681330381
 20
0.4122024760780256
 30
0.0
 11
21.69885572064216
 21
0.2954056862498682
 31
0.0
  0
SPLINE
  5
7F
330
1F
100
AcDbEntity
  8
2D DXF
370
    -3
100
AcDbSpline
210
0.0
220
0.0
230
1.0
 70
    12
 71
     3
 72
    33
 73
    29
 74
     0
 42
0.000000001
 43
0.0000000001
 40
-0.1797954599331371
 40
-0.1797954599331371
 40
-0.1797954599331371
 40
-0.1797954599331371
 40
0.0
 40
0.0
 40
0.0
 40
0.0484024614707266
 40
0.0484024614707266
 40
0.0484024614707266
 40
0.4331018655948884
 40
0.4331018655948884
 40
0.4331018655948884
 40
0.9480123846230162
 40
0.9480123846230162
 40
0.9480123846230162
 40
1.948012384623016
 40
1.948012384623016
 40
2.948012384623016
 40
2.948012384623016
 40
3.948012384623016
 40
3.948012384623016
 40
4.948012384623016
 40
4.948012384623016
 40
5.948012384623016
 40
5.948012384623016
 40
6.948012384623016
 40
6.948012384623016
 40
6.948012384623016
 40
29.59350564207487
 40
29.59350564207487
 40
29.59350564207487
 40
29.59350564207487
 10
28.44605116818578
 20
28.71856283382704
 30
0.0
 41
1.0
 10
28.38644766103717
 20
28.7122982523223
 30
0.0
 41
1.0
 10
28.32684415388867
 20
28.70603367081759
 30
0.0
 41
1.0
 10
28.26724064674006
 20
28.69976908931286
 30
0.0
 41
1.0
 10
28.25799783014425
 20
28.69879448555981
 30
0.0
 41
1.0
 10
28.24900383393158
 20
28.69802010535412
 30
0.0
 41
1.0
 10
28.24027206411547
 20
28.69743516480399
 30
0.0
 41
1.0
 10
28.17012927683312
 20
28.69273630518595
 30
0.0
 41
1.0
 10
28.11989934686723
 20
28.70081089220519
 30
0.0
 41
1.0
 10
28.09009426617992
 20
28.71079890008469
 30
0.0
 41
1.0
 10
27.92730307502241
 20
28.76525209374681
 30
0.0
 41
1.0
 10
27.76451188386484
 20
28.81970528741083
 30
0.0
 41
1.0
 10
27.60172069270727
 20
28.87415848107576
 30
0.0
 41
1.0
 10
27.47999714395941
 20
28.91478598739647
 30
0.0
 41
1.0
 10
27.35611477432123
 20
28.92403211002726
 30
0.0
 41
1.0
 10
27.10403239326543
 20
28.87976158792361
 30
0.0
 41
1.0
 10
26.98865020478969
 20
28.83273377193553
 30
0.0
 41
1.0
 10
26.77920383194574
 20
28.68889303008634
 30
0.0
 41
1.0
 10
26.68743929897046
 20
28.60362096143568
 30
0.0
 41
1.0
 10
26.52982753991525
 20
28.40637342868213
 30
0.0
 41
1.0
 10
26.4618505997138
 20
28.30094182409171
 30
0.0
 41
1.0
 10
26.34755459796561
 20
28.0764629384836
 30
0.0
 41
1.0
 10
26.29939289824377
 20
27.96055205303117
 30
0.0
 41
1.0
 10
26.22104210110463
 20
27.7213873968295
 30
0.0
 41
1.0
 10
26.18973612388596
 20
27.59914033986303
 30
0.0
 41
1.0
 10
26.16629956801809
 20
27.47422855403096
 30
0.0
 41
1.0
 10
24.4707919831131
 20
18.4535531947135
 30
0.0
 41
1.0
 10
24.18214956502392
 20
16.91787783145852
 30
0.0
 41
1.0
 10
21.07977681330381
 20
0.4122024760780256
 30
0.0
 41
1.0
  0
LINE
  5
80
330
1F
100
AcDbEntity
  8
2D DXF
370
    -3
100
AcDbLine
 10
21.65813458314524
 20
0.0810146844848454
 30
0.0
 11
21.69888210478327
 21
0.2955460587445664
 31
0.0
  0
SPLINE
  5
81
330
1F
100
AcDbEntity
  8
2D DXF
370
    -3
100
AcDbSpline
210
0.0
220
0.0
230
1.0
 70
     8
 71
     2
 72
    11
 73
     8
 74
     0
 42
0.000000001
 43
0.0000000001
 40
29.80353382541387
 40
29.80353382541387
 40
29.80353382541387
 40
30.80353382541387
 40
31.80353382541387
 40
32.80353382541387
 40
33.80353382541387
 40
34.80353382541387
 40
35.80353382541387
 40
35.80353382541387
 40
35.80353382541387
 10
21.04097971640751
 20
0.2057887578587589
 30
0.0
 10
21.034882362239
 20
0.1378800036036303
 30
0.0
 10
21.14556865494201
 20
0.0702447230135341
 30
0.0
 10
21.2628201686651
 20
0.0366810911079405
 30
0.0
 10
21.38348328747129
 20
0.0135385878130059
 30
0.0
 10
21.50477145511418
 20
0.0017003469751877
 30
0.0
 10
21.63287165888404
 20
0.0185764501811754
 30
0.0
 10
21.65813458314524
 20
0.0810146844848454
 30
0.0
  0
LINE
  5
82
330
1F
100
AcDbEntity
  8
2D DXF
370
    -3
100
AcDbLine
 10
21.07977681330375
 20
0.4122024760780398
 30
0.0
 11
21.04097971640751
 21
0.2057887578587589
 31
0.0
  0
LINE
  5
83
330
1F
100
AcDbEntity
  8
2D DXF
370
    -3
100
AcDbLine
 10
9.220441106535944
 20
1.899114336114028
 30
0.0
 11
7.809667086931725
 21
12.52900172168932
 31
0.0
  0
LINE
  5
84
330
1F
100
AcDbEntity
  8
2D DXF
370
    -3
100
AcDbLine
 10
8.44519125730649
 20
12.52900172168927
 30
0.0
 11
10.05551684190182
 21
0.3955351888649012
 31
0.0
  0
LINE
  5
85
330
1F
100
AcDbEntity
  8
2D DXF
370
    -3
100
AcDbLine
 10
5.373168569262887
 20
28.08527771097311
 30
0.0
 11
9.433396566334878
 21
0.4496494469417023
 31
0.0
  0
SPLINE
  5
86
330
1F
100
AcDbEntity
  8
2D DXF
370
    -3
100
AcDbSpline
210
0.0
220
0.0
230
1.0
 70
     8
 71
     2
 72
     9
 73
     6
 74
     0
 42
0.000000001
 43
0.0000000001
 40
0.0
 40
0.0
 40
0.0
 40
1.0
 40
2.0
 40
3.0
 40
4.0
 40
4.0
 40
4.0
 10
4.510169099096586
 20
29.39581668182236
 30
0.0
 10
4.697085528330106
 20
29.30967810399283
 30
0.0
 10
4.995756605049579
 20
29.02746432862228
 30
0.0
 10
5.209188873866381
 20
28.67759037529098
 30
0.0
 10
5.342707533573403
 20
28.29078285768599
 30
0.0
 10
5.373168569262887
 20
28.08527771097311
 30
0.0
  0
SPLINE
  5
87
330
1F
100
AcDbEntity
  8
2D DXF
370
    -3
100
AcDbSpline
210
0.0
220
0.0
230
1.0
 70
     8
 71
     2
 72
     9
 73
     6
 74
     0
 42
0.000000001
 43
0.0000000001
 40
17.76383152720142
 40
17.76383152720142
 40
17.76383152720142
 40
18.76383152720142
 40
19.76383152720142
 40
20.76383152720142
 40
21.76383152720142
 40
21.76383152720142
 40
21.76383152720142
 10
3.624576562610073
 20
28.82061925949701
 30
0.0
 10
3.568517499039913
 20
28.81794263480811
 30
0.0
 10
3.482969280462797
 20
28.88814810372617
 30
0.0
 10
3.432364368932625
 20
28.9835398766595
 30
0.0
 10
3.407744800043545
 20
29.08848027136557
 30
0.0
 10
3.407574387541175
 20
29.14233255182889
 30
0.0
  0
LINE
  5
88
330
1F
100
AcDbEntity
  8
2D DXF
370
    -3
100
AcDbLine
 10
4.01623914939843
 20
28.86143675433003
 30
0.0
 11
3.624576562610073
 21
28.82061925949701
 31
0.0
  0
SPLINE
  5
89
330
1F
100
AcDbEntity
  8
2D DXF
370
    -3
100
AcDbSpline
210
0.0
220
0.0
230
1.0
 70
     8
 71
     2
 72
     9
 73
     6
 74
     0
 42
0.000000001
 43
0.0000000001
 40
13.37004776703073
 40
13.37004776703073
 40
13.37004776703073
 40
14.37004776703073
 40
15.37004776703073
 40
16.37004776703073
 40
17.37004776703073
 40
17.37004776703073
 40
17.37004776703073
 10
4.750338594916244
 20
27.99046770775172
 30
0.0
 10
4.727906569883785
 20
28.1453991661146
 30
0.0
 10
4.622724936692194
 20
28.44053011207487
 30
0.0
 10
4.446509121868715
 20
28.70128393567926
 30
0.0
 10
4.177871164322951
 20
28.87510700319001
 30
0.0
 10
4.01623914939843
 20
28.86143675433003
 30
0.0
  0
LINE
  5
8A
330
1F
100
AcDbEntity
  8
2D DXF
370
    -3
100
AcDbLine
 10
8.810269950255659
 20
0.356823376199161
 30
0.0
 11
4.750338594916244
 21
27.99046770775172
 31
0.0
  0
LINE
  5
8B
330
1F
100
AcDbEntity
  8
2D DXF
370
    -3
100
AcDbLine
 10
10.05491551461343
 20
0.3954553820994775
 30
0.0
 11
10.0821664976507
 21
0.1872022300977676
 31
0.0
  0
LINE
  5
8C
330
1F
100
AcDbEntity
  8
2D DXF
370
    -3
100
AcDbLine
 10
9.430394600513651
 20
0.3125480359074544
 30
0.0
 11
10.05491551461343
 21
0.3954553820994775
 31
0.0
  0
LINE
  5
8D
330
1F
100
AcDbEntity
  8
2D DXF
370
    -3
100
AcDbLine
 10
9.459194190061694
 20
0.0958009013237415
 30
0.0
 11
9.430394600513651
 21
0.3125480359074544
 31
0.0
  0
SPLINE
  5
8E
330
1F
100
AcDbEntity
  8
2D DXF
370
    -3
100
AcDbSpline
210
0.0
220
0.0
230
1.0
 70
     8
 71
     2
 72
    11
 73
     8
 74
     0
 42
0.000000001
 43
0.0000000001
 40
13.12765323360827
 40
13.12765323360827
 40
13.12765323360827
 40
14.12765323360827
 40
15.12765323360827
 40
16.12765323360827
 40
17.12765323360827
 40
18.12765323360827
 40
19.12765323360827
 40
19.12765323360827
 40
19.12765323360827
 10
10.0821664976507
 20
0.1872022300977676
 30
0.0
 10
10.08460272173558
 20
0.11906383090502
 30
0.0
 10
9.970439031312836
 20
0.0574794305919681
 30
0.0
 10
9.85155208166698
 20
0.0302704603624875
 30
0.0
 10
9.729818939403927
 20
0.0136510207340166
 30
0.0
 10
9.608069624889382
 20
0.0083530992990575
 30
0.0
 10
9.481062463822312
 20
0.032094331427686
 30
0.0
 10
9.459194190061694
 20
0.0958009013237415
 30
0.0
  0
LINE
  5
8F
330
1F
100
AcDbEntity
  8
2D DXF
370
    -3
100
AcDbLine
 10
9.432807740898298
 20
0.4495629366767542
 30
0.0
 11
9.463292085104868
 21
0.2412959033971287
 31
0.0
  0
LINE
  5
90
330
1F
100
AcDbEntity
  8
2D DXF
370
    -3
100
AcDbLine
 10
8.809682514361512
 20
0.3567358657741817
 30
0.0
 11
9.432807740898298
 21
0.4495629366767542
 31
0.0
  0
LINE
  5
91
330
1F
100
AcDbEntity
  8
2D DXF
370
    -3
100
AcDbLine
 10
8.84177832334656
 20
0.1404527436418288
 30
0.0
 11
8.809682514361512
 21
0.3567358657741817
 31
0.0
  0
SPLINE
  5
92
330
1F
100
AcDbEntity
  8
2D DXF
370
    -3
100
AcDbSpline
210
0.0
220
0.0
230
1.0
 70
     8
 71
     2
 72
    11
 73
     8
 74
     0
 42
0.000000001
 43
0.0000000001
 40
13.10939845449781
 40
13.10939845449781
 40
13.10939845449781
 40
14.10939845449781
 40
15.10939845449781
 40
16.10939845449781
 40
17.10939845449781
 40
18.10939845449781
 40
19.10939845449781
 40
19.10939845449781
 40
19.10939845449781
 10
9.463292085104868
 20
0.2412959033971287
 30
0.0
 10
9.466761892009984
 20
0.1732023128589599
 30
0.0
 10
9.35354576321346
 20
0.1098927973561938
 30
0.0
 10
9.235085340851654
 20
0.0808830887933834
 30
0.0
 10
9.11361837867112
 20
0.0624185065495464
 30
0.0
 10
8.991963464815129
 20
0.0552738938249018
 30
0.0
 10
8.864610698876007
 20
0.0770853145250481
 30
0.0
 10
8.84177832334656
 20
0.1404527436418288
 30
0.0
  0
LINE
  5
93
330
1F
100
AcDbEntity
  8
2D DXF
370
    -3
100
AcDbLine
 10
-9.220441106535986
 20
1.899114336114028
 30
0.0
 11
-7.809667086931711
 21
12.52900172168932
 31
0.0
  0
LINE
  5
94
330
1F
100
AcDbEntity
  8
2D DXF
370
    -3
100
AcDbLine
 10
-8.445191257306533
 20
12.52900172168927
 30
0.0
 11
-10.05551684190186
 21
0.3955351888649012
 31
0.0
  0
LINE
  5
95
330
1F
100
AcDbEntity
  8
2D DXF
370
    -3
100
AcDbLine
 10
-5.373168569262873
 20
28.08527771097311
 30
0.0
 11
-9.433396566334864
 21
0.4496494469417023
 31
0.0
  0
SPLINE
  5
96
330
1F
100
AcDbEntity
  8
2D DXF
370
    -3
100
AcDbSpline
210
0.0
220
0.0
230
1.0
 70
     8
 71
     2
 72
     9
 73
     6
 74
     0
 42
0.000000001
 43
0.0000000001
 40
0.0
 40
0.0
 40
0.0
 40
1.0
 40
2.0
 40
3.0
 40
4.0
 40
4.0
 40
4.0
 10
-4.510169099096629
 20
29.39581668182236
 30
0.0
 10
-4.697085528330149
 20
29.30967810399283
 30
0.0
 10
-4.995756605049621
 20
29.02746432862228
 30
0.0
 10
-5.209188873866367
 20
28.67759037529098
 30
0.0
 10
-5.342707533573446
 20
28.29078285768599
 30
0.0
 10
-5.373168569262873
 20
28.08527771097311
 30
0.0
  0
SPLINE
  5
97
330
1F
100
AcDbEntity
  8
2D DXF
370
    -3
100
AcDbSpline
210
0.0
220
0.0
230
1.0
 70
     8
 71
     2
 72
     9
 73
     6
 74
     0
 42
0.000000001
 43
0.0000000001
 40
17.76383152720142
 40
17.76383152720142
 40
17.76383152720142
 40
18.76383152720142
 40
19.76383152720142
 40
20.76383152720142
 40
21.76383152720142
 40
21.76383152720142
 40
21.76383152720142
 10
-3.624576562610116
 20
28.82061925949701
 30
0.0
 10
-3.568517499039956
 20
28.81794263480811
 30
0.0
 10
-3.482969280462839
 20
28.88814810372617
 30
0.0
 10
-3.43236436893261
 20
28.9835398766595
 30
0.0
 10
-3.407744800043531
 20
29.08848027136557
 30
0.0
 10
-3.40757438754116
 20
29.14233255182889
 30
0.0
  0
LINE
  5
98
330
1F
100
AcDbEntity
  8
2D DXF
370
    -3
100
AcDbLine
 10
-4.016239149398416
 20
28.86143675433003
 30
0.0
 11
-3.624576562610116
 21
28.82061925949701
 31
0.0
  0
SPLINE
  5
99
330
1F
100
AcDbEntity
  8
2D DXF
370
    -3
100
AcDbSpline
210
0.0
220
0.0
230
1.0
 70
     8
 71
     2
 72
     9
 73
     6
 74
     0
 42
0.000000001
 43
0.0000000001
 40
13.37004776703073
 40
13.37004776703073
 40
13.37004776703073
 40
14.37004776703073
 40
15.37004776703073
 40
16.37004776703073
 40
17.37004776703073
 40
17.37004776703073
 40
17.37004776703073
 10
-4.750338594916286
 20
27.99046770775172
 30
0.0
 10
-4.727906569883828
 20
28.1453991661146
 30
0.0
 10
-4.622724936692236
 20
28.44053011207487
 30
0.0
 10
-4.446509121868758
 20
28.70128393567926
 30
0.0
 10
-4.177871164322994
 20
28.87510700319001
 30
0.0
 10
-4.016239149398416
 20
28.86143675433003
 30
0.0
  0
LINE
  5
9A
330
1F
100
AcDbEntity
  8
2D DXF
370
    -3
100
AcDbLine
 10
-8.810269950255702
 20
0.356823376199161
 30
0.0
 11
-4.750338594916286
 21
27.99046770775172
 31
0.0
  0
LINE
  5
9B
330
1F
100
AcDbEntity
  8
2D DXF
370
    -3
100
AcDbLine
 10
-10.05491551461341
 20
0.3954553820994775
 30
0.0
 11
-10.08216649765069
 21
0.1872022300977676
 31
0.0
  0
LINE
  5
9C
330
1F
100
AcDbEntity
  8
2D DXF
370
    -3
100
AcDbLine
 10
-9.430394600513694
 20
0.3125480359074544
 30
0.0
 11
-10.05491551461341
 21
0.3954553820994775
 31
0.0
  0
LINE
  5
9D
330
1F
100
AcDbEntity
  8
2D DXF
370
    -3
100
AcDbLine
 10
-9.45919419006168
 20
0.0958009013237415
 30
0.0
 11
-9.430394600513694
 21
0.3125480359074544
 31
0.0
  0
SPLINE
  5
9E
330
1F
100
AcDbEntity
  8
2D DXF
370
    -3
100
AcDbSpline
210
0.0
220
0.0
230
1.0
 70
     8
 71
     2
 72
    11
 73
     8
 74
     0
 42
0.000000001
 43
0.0000000001
 40
13.12765323360827
 40
13.12765323360827
 40
13.12765323360827
 40
14.12765323360827
 40
15.12765323360827
 40
16.12765323360827
 40
17.12765323360827
 40
18.12765323360827
 40
19.12765323360827
 40
19.12765323360827
 40
19.12765323360827
 10
-10.08216649765069
 20
0.1872022300977676
 30
0.0
 10
-10.08460272173556
 20
0.11906383090502
 30
0.0
 10
-9.970439031312821
 20
0.0574794305919681
 30
0.0
 10
-9.851552081666966
 20
0.0302704603624875
 30
0.0
 10
-9.729818939403913
 20
0.0136510207340166
 30
0.0
 10
-9.608069624889367
 20
0.0083530992990575
 30
0.0
 10
-9.481062463822298
 20
0.032094331427686
 30
0.0
 10
-9.45919419006168
 20
0.0958009013237415
 30
0.0
  0
LINE
  5
9F
330
1F
100
AcDbEntity
  8
2D DXF
370
    -3
100
AcDbLine
 10
-9.43280774089834
 20
0.4495629366767542
 30
0.0
 11
-9.46329208510491
 21
0.2412959033971287
 31
0.0
  0
LINE
  5
A0
330
1F
100
AcDbEntity
  8
2D DXF
370
    -3
100
AcDbLine
 10
-8.809682514361498
 20
0.3567358657741817
 30
0.0
 11
-9.43280774089834
 21
0.4495629366767542
 31
0.0
  0
LINE
  5
A1
330
1F
100
AcDbEntity
  8
2D DXF
370
    -3
100
AcDbLine
 10
-8.841778323346546
 20
0.1404527436418288
 30
0.0
 11
-8.809682514361498
 21
0.3567358657741817
 31
0.0
  0
SPLINE
  5
A2
330
1F
100
AcDbEntity
  8
2D DXF
370
    -3
100
AcDbSpline
210
0.0
220
0.0
230
1.0
 70
     8
 71
     2
 72
    11
 73
     8
 74
     0
 42
0.000000001
 43
0.0000000001
 40
13.10939845449781
 40
13.10939845449781
 40
13.10939845449781
 40
14.10939845449781
 40
15.10939845449781
 40
16.10939845449781
 40
17.10939845449781
 40
18.10939845449781
 40
19.10939845449781
 40
19.10939845449781
 40
19.10939845449781
 10
-9.46329208510491
 20
0.2412959033971287
 30
0.0
 10
-9.46676189200997
 20
0.1732023128589599
 30
0.0
 10
-9.353545763213504
 20
0.1098927973561938
 30
0.0
 10
-9.235085340851697
 20
0.0808830887933834
 30
0.0
 10
-9.113618378671163
 20
0.0624185065495464
 30
0.0
 10
-8.991963464815115
 20
0.0552738938249018
 30
0.0
 10
-8.86461069887605
 20
0.0770853145250481
 30
0.0
 10
-8.841778323346546
 20
0.1404527436418288
 30
0.0
  0
LINE
  5
A3
330
1F
100
AcDbEntity
  8
2D DXF
370
    -3
100
AcDbLine
 10
35.93803086396322
 20
28.55227973782695
 30
0.0
 11
35.97642362059732
 21
28.86112259460976
 31
0.0
  0
SPLINE
  5
A4
330
1F
100
AcDbEntity
  8
2D DXF
370
    -3
100
AcDbSpline
210
0.0
220
0.0
230
1.0
 70
     8
 71
     2
 72
     7
 73
     4
 74
     0
 42
0.000000001
 43
0.0000000001
 40
7.306249570421159
 40
7.306249570421159
 40
7.306249570421159
 40
8.306256891946019
 40
9.306249570421159
 40
9.306249570421159
 40
9.306249570421159
 10
35.72922595279421
 20
28.30581970700536
 30
0.0
 10
35.82035259494025
 20
28.31933735450102
 30
0.0
 10
35.92833366770022
 20
28.46404875986417
 30
0.0
 10
35.93803086396328
 20
28.55227973782695
 30
0.0
  0
LINE
  5
A5
330
1F
100
AcDbEntity
  8
2D DXF
370
    -3
100
AcDbLine
 10
35.29669001607381
 20
28.26035943228161
 30
0.0
 11
35.72922595279421
 21
28.30581970700536
 31
0.0
  0
LINE
  5
A6
330
1F
100
AcDbEntity
  8
2D DXF
370
    -3
100
AcDbLine
 10
34.82892810224287
 20
28.21117819589182
 30
0.0
 11
35.29669001607381
 21
28.26035943228161
 31
0.0
  0
SPLINE
  5
A7
330
1F
100
AcDbEntity
  8
2D DXF
370
    -3
100
AcDbSpline
210
0.0
220
0.0
230
1.0
 70
     8
 71
     2
 72
     7
 73
     4
 74
     0
 42
0.000000001
 43
0.0000000001
 40
4.037371271146342
 40
4.037371271146342
 40
4.037371271146342
 40
5.037339062304119
 40
6.037371271146342
 40
6.037371271146342
 40
6.037371271146342
 10
34.57456632292106
 20
28.40898241455446
 30
0.0
 10
34.6020031234723
 20
28.32524513164384
 30
0.0
 10
34.73655342342853
 20
28.20616451402057
 30
0.0
 10
34.82892810224287
 20
28.21117819589182
 30
0.0
  0
SPLINE
  5
A8
330
1F
100
AcDbEntity
  8
2D DXF
370
    -3
100
AcDbSpline
210
0.0
220
0.0
230
1.0
 70
    28
 71
     2
 72
     6
 73
     3
 74
     0
 42
0.000000001
 43
0.0000000001
 40
2.884697589977524
 40
2.884697589977524
 40
2.884697589977524
 40
4.037371271146342
 40
4.037371271146342
 40
4.037371271146342
 10
34.20174385999353
 20
29.48650976830565
 30
0.0
 41
0.8560731425110866
 10
34.38815509145731
 20
28.94774609143006
 30
0.0
 41
0.8560731425110863
 10
34.57456632292111
 20
28.40898241455446
 30
0.0
 41
0.8560731425110862
  0
SPLINE
  5
A9
330
1F
100
AcDbEntity
  8
2D DXF
370
    -3
100
AcDbSpline
210
0.0
220
0.0
230
1.0
 70
     8
 71
     2
 72
     7
 73
     4
 74
     0
 42
0.000000001
 43
0.0000000001
 40
0.8846975899775236
 40
0.8846975899775236
 40
0.8846975899775236
 40
1.884697589977524
 40
2.884697589977524
 40
2.884697589977524
 40
2.884697589977524
 10
34.26930605212029
 20
29.59125936271437
 30
0.0
 10
34.23174163325434
 20
29.58671739227666
 30
0.0
 10
34.19053203414155
 20
29.52371829451178
 30
0.0
 10
34.20174385999361
 20
29.48650976830566
 30
0.0
  0
SPLINE
  5
AA
330
1F
100
AcDbEntity
  8
2D DXF
370
    -3
100
AcDbSpline
210
0.0
220
0.0
230
1.0
 70
    24
 71
     2
 72
     6
 73
     3
 74
     0
 42
0.000000001
 43
0.0000000001
 40
0.0843024100224767
 40
0.0843024100224767
 40
0.0843024100224767
 40
0.8846975899775236
 40
0.8846975899775236
 40
0.8846975899775236
 10
34.83229543036369
 20
29.65043194376983
 30
0.0
 10
34.55080074124199
 20
29.6208456532421
 30
0.0
 10
34.26930605212029
 20
29.59125936271437
 30
0.0
  0
SPLINE
  5
AB
330
1F
100
AcDbEntity
  8
2D DXF
370
    -3
100
AcDbSpline
210
0.0
220
0.0
230
1.0
 70
     8
 71
     2
 72
     7
 73
     4
 74
     0
 42
0.000000001
 43
0.0000000001
 40
13.40106775401131
 40
13.40106775401131
 40
13.40106775401131
 40
14.40106775401131
 40
15.40106775401131
 40
15.40106775401131
 40
15.40106775401131
 10
28.48109690550537
 20
28.3852058448525
 30
0.0
 10
28.49192282200728
 20
28.29006458330361
 30
0.0
 10
28.42747192064009
 20
28.09866281666554
 30
0.0
 10
28.32793416778061
 20
28.07245705294284
 30
0.0
  0
LINE
  5
AC
330
1F
100
AcDbEntity
  8
2D DXF
370
    -3
100
AcDbLine
 10
28.42734070868575
 20
28.89658095132554
 30
0.0
 11
28.48109690550537
 21
28.3852058448525
 31
0.0
  0
SPLINE
  5
AD
330
1F
100
AcDbEntity
  8
2D DXF
370
    -3
100
AcDbSpline
210
0.0
220
0.0
230
1.0
 70
     8
 71
     2
 72
     7
 73
     4
 74
     0
 42
0.000000001
 43
0.0000000001
 40
10.88546531432997
 40
10.88546531432997
 40
10.88546531432997
 40
11.88546531432997
 40
12.88546531432997
 40
12.88546531432997
 40
12.88546531432997
 10
28.49854004565277
 20
28.98450628909874
 30
0.0
 10
28.4657034399723
 20
28.98069876841805
 30
0.0
 10
28.42423737015868
 20
28.92949157526093
 30
0.0
 10
28.4273407086858
 20
28.89658095132554
 30
0.0
  0
LINE
  5
AE
330
1F
100
AcDbEntity
  8
2D DXF
370
    -3
100
AcDbLine
 10
28.78149962633775
 20
29.01424653943774
 30
0.0
 11
28.49854004565277
 21
28.98450628909874
 31
0.0
  0
LINE
  5
AF
330
1F
100
AcDbEntity
  8
2D DXF
370
    -3
100
AcDbLine
 10
29.34448900554669
 20
29.0734191076022
 30
0.0
 11
28.78149962633775
 21
29.01424653943774
 31
0.0
  0
ARC
  5
B0
330
1F
100
AcDbEntity
  8
2D DXF
370
    -3
100
AcDbCircle
 10
29.35307915411512
 20
28.99821899412106
 30
0.0
 40
0.0756891519307933
100
AcDbArc
 50
77.5019814014356
 51
96.51668048199421
  0
SPLINE
  5
B1
330
1F
100
AcDbEntity
  8
2D DXF
370
    -3
100
AcDbSpline
210
0.0
220
0.0
230
1.0
 70
     8
 71
     2
 72
     7
 73
     4
 74
     0
 42
0.000000001
 43
0.0000000001
 40
7.657492393997497
 40
7.657492393997497
 40
7.657492393997497
 40
8.657492393997497
 40
9.657492393997497
 40
9.657492393997497
 40
9.657492393997497
 10
29.43224022060123
 20
28.98398838822988
 30
0.0
 10
29.435797490376
 20
29.01487698499355
 30
0.0
 10
29.39981469742646
 20
29.06538592270103
 30
0.0
 10
29.36945872949259
 20
29.07211457741571
 30
0.0
  0
SPLINE
  5
B2
330
1F
100
AcDbEntity
  8
2D DXF
370
    -3
100
AcDbSpline
210
0.0
220
0.0
230
1.0
 70
    28
 71
     2
 72
     6
 73
     3
 74
     0
 42
0.000000001
 43
0.0000000001
 40
6.50481871282868
 40
6.50481871282868
 40
6.50481871282868
 40
7.657492393997497
 40
7.657492393997497
 40
7.657492393997497
 10
29.29170861830359
 20
27.85351057066846
 30
0.0
 41
0.856073142531669
 10
29.36197441945241
 20
28.41874947944916
 30
0.0
 41
0.8560731425316691
 10
29.43224022060124
 20
28.98398838822988
 30
0.0
 41
0.8560731425316692
  0
SPLINE
  5
B3
330
1F
100
AcDbEntity
  8
2D DXF
370
    -3
100
AcDbSpline
210
0.0
220
0.0
230
1.0
 70
     8
 71
     2
 72
     7
 73
     4
 74
     0
 42
0.000000001
 43
0.0000000001
 40
4.50481871282868
 40
4.50481871282868
 40
4.50481871282868
 40
5.504850921676796
 40
6.50481871282868
 40
6.50481871282868
 40
6.50481871282868
 10
29.0840310681419
 20
27.60714406054679
 30
0.0
 10
29.17542954183024
 20
27.62144571718186
 30
0.0
 10
29.2822813393142
 20
27.76589871874132
 30
0.0
 10
29.29170861830364
 20
27.85351057066845
 30
0.0
  0
LINE
  5
B4
330
1F
100
AcDbEntity
  8
2D DXF
370
    -3
100
AcDbLine
 10
28.61511662772041
 20
27.55787663355145
 30
0.0
 11
29.0840310681419
 21
27.60714406054679
 31
0.0
  0
LINE
  5
B5
330
1F
100
AcDbEntity
  8
2D DXF
370
    -3
100
AcDbLine
 10
28.18372981037994
 20
27.51253496780284
 30
0.0
 11
28.61511662772041
 21
27.55787663355145
 31
0.0
  0
SPLINE
  5
B6
330
1F
100
AcDbEntity
  8
2D DXF
370
    -3
100
AcDbSpline
210
0.0
220
0.0
230
1.0
 70
     8
 71
     2
 72
     7
 73
     4
 74
     0
 42
0.000000001
 43
0.0000000001
 40
1.232673681168816
 40
1.232673681168816
 40
1.232673681168816
 40
2.232666359644853
 40
3.232673681168816
 40
3.232673681168816
 40
3.232673681168816
 10
27.92824586145038
 20
27.71019627197184
 30
0.0
 10
27.95607540319664
 20
27.62590951320792
 30
0.0
 10
28.09178402825786
 20
27.50681092573007
 30
0.0
 10
28.18372981037994
 20
27.51253496780284
 30
0.0
  0
LINE
  5
B7
330
1F
100
AcDbEntity
  8
2D DXF
370
    -3
100
AcDbLine
 10
27.7754706707445
 20
28.15172911772573
 30
0.0
 11
27.92824586145032
 21
27.71019627197186
 31
0.0
  0
SPLINE
  5
B8
330
1F
100
AcDbEntity
  8
2D DXF
370
    -3
100
AcDbSpline
210
0.0
220
0.0
230
1.0
 70
    12
 71
     3
 72
     8
 73
     4
 74
     0
 42
0.000000001
 43
0.0000000001
 40
18.96393641439282
 40
18.96393641439282
 40
18.96393641439282
 40
18.96393641439282
 40
19.03468092327302
 40
19.03468092327302
 40
19.03468092327302
 40
19.03468092327302
 10
34.5379076977903
 20
29.68425044036033
 30
0.0
 41
0.9998948912511187
 10
34.55018235748541
 20
29.66392627745267
 30
0.0
 41
0.9998948912511187
 10
34.56242578036905
 20
29.64362890140934
 30
0.0
 41
0.9998948912511187
 10
34.57464551346681
 20
29.62335184034213
 30
0.0
 41
0.9998948912511187
  0
SPLINE
  5
B9
330
1F
100
AcDbEntity
  8
2D DXF
370
    -3
100
AcDbSpline
210
0.0
220
0.0
230
1.0
 70
     8
 71
     3
 72
    10
 73
     6
 74
     0
 42
0.000000001
 43
0.0000000001
 40
16.79483486452972
 40
16.79483486452972
 40
16.79483486452972
 40
16.79483486452972
 40
17.24447515632863
 40
18.17147567688618
 40
18.96393641439282
 40
18.96393641439282
 40
18.96393641439282
 40
18.96393641439282
 10
32.29862384716996
 20
29.47053031435931
 30
0.0
 10
32.45431688532786
 20
29.48828057252377
 30
0.0
 10
32.93117977718141
 20
29.540846723147
 30
0.0
 10
33.68213008157632
 20
29.61390157808608
 30
0.0
 10
34.26920144809999
 20
29.66384101249514
 30
0.0
 10
34.53790769779035
 20
29.68425044036033
 30
0.0
  0
SPLINE
  5
BA
330
1F
100
AcDbEntity
  8
2D DXF
370
    -3
100
AcDbSpline
210
0.0
220
0.0
230
1.0
 70
     8
 71
     3
 72
     8
 73
     4
 74
     0
 42
0.000000001
 43
0.0000000001
 40
16.31747463577107
 40
16.31747463577107
 40
16.31747463577107
 40
16.31747463577107
 40
16.79483486452972
 40
16.79483486452972
 40
16.79483486452972
 40
16.79483486452972
 10
31.80307076565113
 20
29.41211621110948
 30
0.0
 10
31.96811491482391
 20
29.43218699920091
 30
0.0
 10
32.13333524952016
 20
29.45168608526189
 30
0.0
 10
32.29862384716996
 20
29.47053031435931
 30
0.0
  0
SPLINE
  5
BB
330
1F
100
AcDbEntity
  8
2D DXF
370
    -3
100
AcDbSpline
210
0.0
220
0.0
230
1.0
 70
     8
 71
     3
 72
    44
 73
    40
 74
     0
 42
0.000000001
 43
0.0000000001
 40
3.568124814608516
 40
3.568124814608516
 40
3.568124814608516
 40
3.568124814608516
 40
4.788183826542491
 40
4.788183826542491
 40
4.788183826542491
 40
5.788188722156311
 40
5.788188722156311
 40
5.788188722156311
 40
6.78819361777013
 40
6.78819361777013
 40
6.78819361777013
 40
7.78819851338395
 40
7.78819851338395
 40
7.78819851338395
 40
8.78820340899777
 40
8.78820340899777
 40
8.78820340899777
 40
9.788208304611588
 40
9.788208304611588
 40
9.788208304611588
 40
10.78821320022541
 40
10.78821320022541
 40
10.78821320022541
 40
11.78821809583923
 40
11.78821809583923
 40
11.78821809583923
 40
12.78822299145305
 40
12.78822299145305
 40
12.78822299145305
 40
13.78822788706687
 40
13.78822788706687
 40
13.78822788706687
 40
14.78823278268069
 40
14.78823278268069
 40
14.78823278268069
 40
15.78823767829451
 40
15.78823767829451
 40
15.78823767829451
 40
16.31747463577107
 40
16.31747463577107
 40
16.31747463577107
 40
16.31747463577107
 10
29.04892113813237
 20
29.06756945303889
 30
0.0
 10
29.45277403175483
 20
29.11458947042921
 30
0.0
 10
29.85637898912212
 20
29.16512906009268
 30
0.0
 10
30.2599137060633
 20
29.21666723795316
 30
0.0
 10
30.30461733548698
 20
29.22238746040634
 30
0.0
 10
30.34932096491066
 20
29.22810768285952
 30
0.0
 10
30.39402459433434
 20
29.2338279053127
 30
0.0
 10
30.43871230408702
 20
29.23956206995399
 30
0.0
 10
30.48340001383981
 20
29.2452962345953
 30
0.0
 10
30.52808772359249
 20
29.2510303992366
 30
0.0
 10
30.57275919292995
 20
29.25676997965362
 30
0.0
 10
30.61743066226752
 20
29.26250956007063
 30
0.0
 10
30.66210213160498
 20
29.26824914048764
 30
0.0
 10
30.70675706742681
 20
29.27398561420349
 30
0.0
 10
30.75141200324863
 20
29.27972208791934
 30
0.0
 10
30.7960669390704
 20
29.28545856163518
 30
0.0
 10
30.84070508348073
 20
29.29118341100565
 30
0.0
 10
30.88534322789094
 20
29.29690826037612
 30
0.0
 10
30.92998137230127
 20
29.30263310974658
 30
0.0
 10
30.97460251323464
 20
29.30833782311425
 30
0.0
 10
31.01922365416813
 20
29.31404253648192
 30
0.0
 10
31.0638447951015
 20
29.3197472498496
 30
0.0
 10
31.10844878041537
 20
29.32542332295698
 30
0.0
 10
31.15305276572924
 20
29.33109939606438
 30
0.0
 10
31.19765675104323
 20
29.33677546917176
 30
0.0
 10
31.24224350596315
 20
29.34241440675705
 30
0.0
 10
31.28683026088306
 20
29.34805334434234
 30
0.0
 10
31.33141701580298
 20
29.35369228192762
 30
0.0
 10
31.37598656238227
 20
29.3592855992698
 30
0.0
 10
31.42055610896166
 20
29.36487891661197
 30
0.0
 10
31.46512565554094
 20
29.37047223395415
 30
0.0
 10
31.50967813039024
 20
29.37601145785945
 30
0.0
 10
31.55423060523954
 20
29.38155068176477
 30
0.0
 10
31.59878308008884
 20
29.38708990567007
 30
0.0
 10
31.6433187426248
 20
29.39256657397954
 30
0.0
 10
31.68785440516076
 20
29.39804324228902
 30
0.0
 10
31.73239006769673
 20
29.40351991059851
 30
0.0
 10
31.75595083429552
 20
29.40638094702095
 30
0.0
 10
31.77951160089448
 20
29.40924198344343
 30
0.0
 10
31.80307076565113
 20
29.41211621110948
 30
0.0
  0
SPLINE
  5
BC
330
1F
100
AcDbEntity
  8
2D DXF
370
    -3
100
AcDbSpline
210
0.0
220
0.0
230
1.0
 70
    28
 71
     3
 72
     8
 73
     4
 74
     0
 42
0.000000001
 43
0.0000000001
 40
2.222067854936746
 40
2.222067854936746
 40
2.222067854936746
 40
2.222067854936746
 40
2.249737975162182
 40
2.249737975162182
 40
2.249737975162182
 40
2.249737975162182
 10
29.03991262815688
 20
29.04140684037666
 30
0.0
 41
0.9998948912511108
 10
29.04291546481538
 20
29.05012771126407
 30
0.0
 41
0.9998948912511108
 10
29.04591830147388
 20
29.05884858215148
 30
0.0
 41
0.9998948912511108
 10
29.04892113813237
 20
29.06756945303889
 30
0.0
 41
0.9998948912511108
  0
SPLINE
  5
BD
330
1F
100
AcDbEntity
  8
2D DXF
370
    -3
100
AcDbSpline
210
0.0
220
0.0
230
1.0
 70
    28
 71
     2
 72
     6
 73
     3
 74
     0
 42
0.000000001
 43
0.0000000001
 40
5.58027268840272
 40
5.58027268840272
 40
5.58027268840272
 40
5.764182542701008
 40
5.764182542701008
 40
5.764182542701008
 10
35.65960821401241
 20
29.66115529789913
 30
0.0
 41
1.0
 10
35.66243439462339
 20
29.56924381160502
 30
0.0
 41
1.0
 10
35.66526057523437
 20
29.47733232531091
 30
0.0
 41
1.0
  0
SPLINE
  5
BE
330
1F
100
AcDbEntity
  8
2D DXF
370
    -3
100
AcDbSpline
210
0.0
220
0.0
230
1.0
 70
     8
 71
     2
 72
     7
 73
     4
 74
     0
 42
0.000000001
 43
0.0000000001
 40
3.58027268840272
 40
3.58027268840272
 40
3.58027268840272
 40
4.58027268840272
 40
5.58027268840272
 40
5.58027268840272
 40
5.58027268840272
 10
35.707852670619
 20
29.74245671794526
 30
0.0
 10
35.68046502700317
 20
29.7369837502923
 30
0.0
 10
35.65750090645521
 20
29.68738160822271
 30
0.0
 10
35.65960821401241
 20
29.66115529789913
 30
0.0
  0
SPLINE
  5
BF
330
1F
100
AcDbEntity
  8
2D DXF
370
    -3
100
AcDbSpline
210
0.0
220
0.0
230
1.0
 70
    24
 71
     2
 72
     6
 73
     3
 74
     0
 42
0.000000001
 43
0.0000000001
 40
3.177813839152324
 40
3.177813839152324
 40
3.177813839152324
 40
3.58027268840272
 40
3.58027268840272
 40
3.58027268840272
 10
35.99081225130347
 20
29.77219696828645
 30
0.0
 10
35.84933246096124
 20
29.75732684311586
 30
0.0
 10
35.707852670619
 20
29.74245671794526
 30
0.0
  0
ARC
  5
C0
330
1F
100
AcDbEntity
  8
2D DXF
370
    -3
100
AcDbCircle
 10
35.99940943955683
 20
29.69711951285428
 30
0.0
 40
0.0755680882385853
100
AcDbArc
 50
77.47125213979278
 51
96.53253822394014
  0
SPLINE
  5
C1
330
1F
100
AcDbEntity
  8
2D DXF
370
    -3
100
AcDbSpline
210
0.0
220
0.0
230
1.0
 70
     8
 71
     2
 72
     7
 73
     4
 74
     0
 42
0.000000001
 43
0.0000000001
 40
1.152673681168807
 40
1.152673681168807
 40
1.152673681168807
 40
2.152673681168807
 40
3.152673681168807
 40
3.152673681168807
 40
3.152673681168807
 10
36.07856347294627
 20
29.68276624926341
 30
0.0
 10
36.08212203415344
 20
29.71364855144883
 30
0.0
 10
36.04614405143356
 20
29.76414556003694
 30
0.0
 10
36.01580238247909
 20
29.77088811987909
 30
0.0
  0
LINE
  5
C2
330
1F
100
AcDbEntity
  8
2D DXF
370
    -3
100
AcDbLine
 10
36.05415243819938
 20
29.48639659548816
 30
0.0
 11
36.07856347294627
 21
29.6827662492634
 31
0.0
  0
SPLINE
  5
C3
330
1F
100
AcDbEntity
  8
2D DXF
370
    -3
100
AcDbSpline
210
0.0
220
0.0
230
1.0
 70
     8
 71
     3
 72
     8
 73
     4
 74
     0
 42
0.000000001
 43
0.0000000001
 40
30.24920543449504
 40
30.24920543449504
 40
30.24920543449504
 40
30.24920543449504
 40
31.24920543449504
 40
31.24920543449504
 40
31.24920543449504
 40
31.24920543449504
 10
40.96837608142035
 20
28.91824259652816
 30
0.0
 10
41.18382119680196
 20
28.82322150777306
 30
0.0
 10
41.21925651456469
 20
29.11918621030303
 30
0.0
 10
41.02889407947488
 20
29.21507825947161
 30
0.0
  0
SPLINE
  5
C4
330
1F
100
AcDbEntity
  8
2D DXF
370
    -3
100
AcDbSpline
210
0.0
220
0.0
230
1.0
 70
     8
 71
     2
 72
    11
 73
     8
 74
     0
 42
0.000000001
 43
0.0000000001
 40
24.58515055565981
 40
24.58515055565981
 40
24.58515055565981
 40
25.24920543449504
 40
26.24920543449504
 40
27.24920543449504
 40
28.24920543449504
 40
29.24920543449504
 40
30.24920543449504
 40
30.24920543449504
 40
30.24920543449504
 10
35.99577192113459
 20
29.77673427265479
 30
0.0
 10
36.29500264938976
 20
29.79040582412617
 30
0.0
 10
37.04515021258034
 20
29.81042802340368
 30
0.0
 10
37.946897868774
 20
29.77938986812815
 30
0.0
 10
38.8411746648642
 20
29.65581943988062
 30
0.0
 10
39.71373217158067
 20
29.42436274137798
 30
0.0
 10
40.55581114297992
 20
29.10020248716369
 30
0.0
 10
40.96837608142035
 20
28.91824259652816
 30
0.0
  0
SPLINE
  5
C5
330
1F
100
AcDbEntity
  8
2D DXF
370
    -3
100
AcDbSpline
210
0.0
220
0.0
230
1.0
 70
     8
 71
     2
 72
     6
 73
     3
 74
     0
 42
0.000000001
 43
0.0000000001
 40
24.24920543449504
 40
24.24920543449504
 40
24.24920543449504
 40
24.58515055565981
 40
24.58515055565981
 40
24.58515055565981
 10
35.69304167877199
 20
29.76144730839062
 30
0.0
 10
35.84439120477539
 20
29.76981783974849
 30
0.0
 10
35.99577192113459
 20
29.77673427265479
 30
0.0
  0
SPLINE
  5
C6
330
1F
100
AcDbEntity
  8
2D DXF
370
    -3
100
AcDbSpline
210
0.0
220
0.0
230
1.0
 70
    12
 71
     3
 72
     8
 73
     4
 74
     0
 42
0.000000001
 43
0.0000000001
 40
24.21627622710422
 40
24.21627622710422
 40
24.21627622710422
 40
24.21627622710422
 40
24.24920543449504
 40
24.24920543449504
 40
24.24920543449504
 40
24.24920543449504
 10
35.68221240120415
 20
29.73030612620652
 30
0.0
 41
0.9998948912510901
 10
35.68581707685925
 20
29.74068623911814
 30
0.0
 41
0.9998948912510901
 10
35.6894265857414
 20
29.75106661933602
 30
0.0
 41
0.9998948912510899
 10
35.69304167877201
 20
29.76144730839062
 30
0.0
 41
0.9998948912510898
  0
SPLINE
  5
C7
330
1F
100
AcDbEntity
  8
2D DXF
370
    -3
100
AcDbSpline
210
0.0
220
0.0
230
1.0
 70
    12
 71
     3
 72
     8
 73
     4
 74
     0
 42
0.000000001
 43
0.0000000001
 40
24.0043308142028
 40
24.0043308142028
 40
24.0043308142028
 40
24.0043308142028
 40
24.1466268086977
 40
24.1466268086977
 40
24.1466268086977
 40
24.1466268086977
 10
35.61300949725871
 20
29.52989672754686
 30
0.0
 41
0.9998948912510895
 10
35.6284518453635
 20
29.57474456288965
 30
0.0
 41
0.9998948912510894
 10
35.64389419346835
 20
29.61959239823242
 30
0.0
 41
0.9998948912510895
 10
35.65939713543711
 20
29.6644435847772
 30
0.0
 41
0.9998948912510897
  0
SPLINE
  5
C8
330
1F
100
AcDbEntity
  8
2D DXF
370
    -3
100
AcDbSpline
210
0.0
220
0.0
230
1.0
 70
     8
 71
     2
 72
     7
 73
     4
 74
     0
 42
0.000000001
 43
0.0000000001
 40
22.0043308142028
 40
22.0043308142028
 40
22.0043308142028
 40
23.0043308142028
 40
24.0043308142028
 40
24.0043308142028
 40
24.0043308142028
 10
35.52891048602551
 20
29.4630013534557
 30
0.0
 10
35.55701793402308
 20
29.46888474326954
 30
0.0
 10
35.60369646535743
 20
29.50200119341102
 30
0.0
 10
35.61300949725872
 20
29.52989672754686
 30
0.0
  0
LINE
  5
C9
330
1F
100
AcDbEntity
  8
2D DXF
370
    -3
100
AcDbLine
 10
35.22190969404592
 20
29.43073426998873
 30
0.0
 11
35.52891048602551
 21
29.4630013534557
 31
0.0
  0
LINE
  5
CA
330
1F
100
AcDbEntity
  8
2D DXF
370
    -3
100
AcDbLine
 10
28.03077164013031
 20
28.75612129807084
 30
0.0
 11
27.96899995751779
 21
28.85892664203313
 31
0.0
  0
ARC
  5
CB
330
1F
100
AcDbEntity
  8
2D DXF
370
    -3
100
AcDbCircle
 10
-28.13327375894308
 20
28.81771078463238
 30
0.0
 40
0.1195823950923363
210
0.0
220
0.0
230
-1.0
100
AcDbArc
 50
302.5003103534476
 51
328.9999999999757
  0
SPLINE
  5
CC
330
1F
100
AcDbEntity
  8
2D DXF
370
    -3
100
AcDbSpline
210
0.0
220
0.0
230
1.0
 70
     8
 71
     2
 72
    53
 73
    50
 74
     0
 42
0.000000001
 43
0.0000000001
 40
-48.0
 40
-48.0
 40
-48.0
 40
-47.0
 40
-46.0
 40
-45.0
 40
-44.0
 40
-43.0
 40
-42.0
 40
-41.0
 40
-40.0
 40
-39.0
 40
-38.0
 40
-37.0
 40
-36.0
 40
-35.0
 40
-34.0
 40
-33.0
 40
-32.0
 40
-31.0
 40
-30.0
 40
-29.0
 40
-28.0
 40
-27.0
 40
-26.0
 40
-25.0
 40
-24.0
 40
-23.0
 40
-22.0
 40
-21.0
 40
-20.0
 40
-19.0
 40
-18.0
 40
-17.0
 40
-16.0
 40
-15.0
 40
-14.0
 40
-13.0
 40
-12.0
 40
-11.0
 40
-10.0
 40
-9.0
 40
-8.0
 40
-7.0
 40
-6.0
 40
-5.0
 40
-4.0
 40
-3.0
 40
-2.0
 40
-1.0
 40
0.0
 40
0.0
 40
0.0
 10
22.36011520026189
 20
36.92557445116289
 30
0.0
 10
22.608265614833
 20
36.84434286074817
 30
0.0
 10
22.99795479637562
 20
36.51053557246382
 30
0.0
 10
23.19175573410219
 20
36.02634046325903
 30
0.0
 10
23.3178607306394
 20
35.53010446064135
 30
0.0
 10
23.39388481695154
 20
35.02231904477487
 30
0.0
 10
23.46192171572382
 20
34.51401113385165
 30
0.0
 10
23.51410064917168
 20
34.00370611583244
 30
0.0
 10
23.55393874965002
 20
33.4923295139872
 30
0.0
 10
23.58476249669435
 20
32.98033733172015
 30
0.0
 10
23.61225285315886
 20
32.46816349970926
 30
0.0
 10
23.64436382798074
 20
31.95624110293712
 30
0.0
 10
23.69648621931061
 20
31.44578919700711
 30
0.0
 10
23.79259338875382
 20
30.94161715522384
 30
0.0
 10
23.95497785238412
 20
30.45247054201188
 30
0.0
 10
24.26094611595342
 20
30.03437884646195
 30
0.0
 10
24.70413442826181
 20
29.7639081562694
 30
0.0
 10
25.21049449563039
 20
29.66258756785469
 30
0.0
 10
25.72412650152684
 20
29.6609445521042
 30
0.0
 10
26.23548993716038
 20
29.70231162255054
 30
0.0
 10
26.74523180247037
 20
29.75935952755426
 30
0.0
 10
27.25404574002552
 20
29.82410957275511
 30
0.0
 10
27.76239536552289
 20
29.89236900840691
 30
0.0
 10
28.27055342831189
 20
29.96203424971987
 30
0.0
 10
28.77870110820062
 20
30.03177967113914
 30
0.0
 10
29.28696384308041
 20
30.10068002593323
 30
0.0
 10
29.79544113824274
 20
30.16798191281653
 30
0.0
 10
30.30420435882822
 20
30.23309002841617
 30
0.0
 10
30.81330275759986
 20
30.29552603369124
 30
0.0
 10
31.3227569023107
 20
30.35499139604008
 30
0.0
 10
31.83255367000915
 20
30.41144101081878
 30
0.0
 10
32.34266106511912
 20
30.46501623333944
 30
0.0
 10
32.85314236827209
 20
30.51491587771354
 30
0.0
 10
33.3640778584279
 20
30.55995316089093
 30
0.0
 10
33.87554387791296
 20
30.59854299837983
 30
0.0
 10
34.38754317367433
 20
30.62931111914806
 30
0.0
 10
34.90000762593026
 20
30.65107230728306
 30
0.0
 10
35.41280842847489
 20
30.6626341570003
 30
0.0
 10
35.92574724782749
 20
30.66224512818689
 30
0.0
 10
36.43849003749604
 20
30.64765095250931
 30
0.0
 10
36.95049185587392
 20
30.61619952597154
 30
0.0
 10
37.46088392642731
 20
30.56462585469078
 30
0.0
 10
37.96827683804601
 20
30.4887646695595
 30
0.0
 10
38.47035163853583
 20
30.38297735231027
 30
0.0
 10
38.96307112797571
 20
30.2391833123466
 30
0.0
 10
39.43935869589741
 20
30.04812645919579
 30
0.0
 10
39.90362763869111
 20
29.82977898635477
 30
0.0
 10
40.35480182073771
 20
29.58568927190995
 30
0.0
 10
40.79980790593858
 20
29.33047677602361
 30
0.0
 10
41.02889407947488
 20
29.21507825947161
 30
0.0
  0
SPLINE
  5
CD
330
1F
100
AcDbEntity
  8
2D DXF
370
    -3
100
AcDbSpline
210
0.0
220
0.0
230
1.0
 70
     8
 71
     3
 72
     8
 73
     4
 74
     0
 42
0.000000001
 43
0.0000000001
 40
-49.0
 40
-49.0
 40
-49.0
 40
-49.0
 40
-48.0
 40
-48.0
 40
-48.0
 40
-48.0
 10
22.17451333142863
 20
36.8604302026536
 30
0.0
 10
22.15381101765804
 20
36.94747388526702
 30
0.0
 10
22.27792732753302
 20
36.95247850299012
 30
0.0
 10
22.36011520026189
 20
36.92557445116289
 30
0.0
  0
SPLINE
  5
CE
330
1F
100
AcDbEntity
  8
2D DXF
370
    -3
100
AcDbSpline
210
0.0
220
0.0
230
1.0
 70
     8
 71
     2
 72
    32
 73
    29
 74
     0
 42
0.000000001
 43
0.0000000001
 40
-75.27948194726449
 40
-75.27948194726449
 40
-75.27948194726449
 40
-75.0
 40
-74.0
 40
-73.0
 40
-72.0
 40
-71.0
 40
-70.0
 40
-69.0
 40
-68.0
 40
-67.0
 40
-66.0
 40
-65.0
 40
-64.0
 40
-63.0
 40
-62.0
 40
-61.0
 40
-60.0
 40
-59.0
 40
-58.0
 40
-57.0
 40
-56.0
 40
-55.0
 40
-54.0
 40
-53.0
 40
-52.0
 40
-51.0
 40
-50.0
 40
-49.0
 40
-49.0
 40
-49.0
 10
27.17097125938535
 20
28.88950205238896
 30
0.0
 10
27.11042494348034
 20
28.88566607263624
 30
0.0
 10
26.8331447619192
 20
28.86951636301021
 30
0.0
 10
26.39923547957524
 20
28.854462558906
 30
0.0
 10
25.96505772086057
 20
28.85234496488281
 30
0.0
 10
25.53107244801187
 20
28.86690478819745
 30
0.0
 10
25.09851739345517
 20
28.90577525517749
 30
0.0
 10
24.67007949180994
 20
28.97760486045359
 30
0.0
 10
24.25056766287044
 20
29.09120538980926
 30
0.0
 10
23.84933004057406
 20
29.25914604600661
 30
0.0
 10
23.4831511852927
 20
29.49543017155498
 30
0.0
 10
23.18344582379048
 20
29.81287632250164
 30
0.0
 10
22.97937243332599
 20
30.19844056010699
 30
0.0
 10
22.8550026252437
 20
30.61534481298823
 30
0.0
 10
22.78253153087503
 20
31.04371914500436
 30
0.0
 10
22.74017341339477
 20
31.47589570984721
 30
0.0
 10
22.71329650510394
 20
31.90923383037101
 30
0.0
 10
22.69795340465028
 20
32.34312320433226
 30
0.0
 10
22.68752501257718
 20
32.77714268182422
 30
0.0
 10
22.6756574545915
 20
33.21112855800399
 30
0.0
 10
22.65722521845062
 20
33.64489519693159
 30
0.0
 10
22.62893962368487
 20
34.07813985614696
 30
0.0
 10
22.58918737563012
 20
34.51048743995135
 30
0.0
 10
22.53760148008367
 20
34.94158319856336
 30
0.0
 10
22.47454064584623
 20
35.37114790303104
 30
0.0
 10
22.40077817208034
 20
35.79900149368603
 30
0.0
 10
22.31719459835195
 20
36.22504186236532
 30
0.0
 10
22.22474183289349
 20
36.64924251667321
 30
0.0
 10
22.17451333142863
 20
36.8604302026536
 30
0.0
  0
SPLINE
  5
CF
330
1F
100
AcDbEntity
  8
2D DXF
370
    -3
100
AcDbSpline
210
0.0
220
0.0
230
1.0
 70
     8
 71
     2
 72
     7
 73
     4
 74
     0
 42
0.000000001
 43
0.0000000001
 40
-77.0
 40
-77.0
 40
-77.0
 40
-76.0
 40
-75.91881111300637
 40
-75.91881111300637
 40
-75.91881111300637
 10
27.91562397317496
 20
28.94775919762514
 30
0.0
 10
27.69945811086571
 20
28.92789962514364
 30
0.0
 10
27.46544145508467
 20
28.90998479894664
 30
0.0
 10
27.44786684868025
 20
28.90866555509021
 30
0.0
  0
SPLINE
  5
D0
330
1F
100
AcDbEntity
  8
2D DXF
370
    -3
100
AcDbSpline
210
0.0
220
0.0
230
1.0
 70
    28
 71
     3
 72
     8
 73
     4
 74
     0
 42
0.000000001
 43
0.0000000001
 40
-0.2905305827480889
 40
-0.2905305827480889
 40
-0.2905305827480889
 40
-0.2905305827480889
 40
-0.251629684814577
 40
-0.251629684814577
 40
-0.251629684814577
 40
-0.251629684814577
 10
27.93565941675879
 20
28.91441461994862
 30
0.0
 41
0.9998948912510919
 10
27.92898093556419
 20
28.92552947917413
 30
0.0
 41
0.9998948912510919
 10
27.92230245436958
 20
28.93664433839963
 30
0.0
 41
0.9998948912510919
 10
27.91562397317492
 20
28.94775919762512
 30
0.0
 41
0.9998948912510919
  0
SPLINE
  5
D1
330
1F
100
AcDbEntity
  8
2D DXF
370
    -3
100
AcDbSpline
210
0.0
220
0.0
230
1.0
 70
     8
 71
     2
 72
     6
 73
     3
 74
     0
 42
0.000000001
 43
0.0000000001
 40
2.32223942419359
 40
2.32223942419359
 40
2.32223942419359
 40
2.883370325416598
 40
2.883370325416598
 40
2.883370325416598
 10
27.6229828053978
 20
28.89248151493041
 30
0.0
 10
27.6021079742293
 20
28.88996627912816
 30
0.0
 10
27.58644577398515
 20
28.87908851261294
 30
0.0
  0
SPLINE
  5
D2
330
1F
100
AcDbEntity
  8
2D DXF
370
    -3
100
AcDbSpline
210
0.0
220
0.0
230
1.0
 70
    24
 71
     2
 72
     6
 73
     3
 74
     0
 42
0.000000001
 43
0.0000000001
 40
1.919780574943195
 40
1.919780574943195
 40
1.919780574943195
 40
2.32223942419359
 40
2.32223942419359
 40
2.32223942419359
 10
27.90594238608232
 20
28.92222176526936
 30
0.0
 10
27.76446259574006
 20
28.90735164009989
 30
0.0
 10
27.6229828053978
 20
28.89248151493041
 30
0.0
  0
SPLINE
  5
D3
330
1F
100
AcDbEntity
  8
2D DXF
370
    -3
100
AcDbSpline
210
0.0
220
0.0
230
1.0
 70
     8
 71
     2
 72
     7
 73
     4
 74
     0
 42
0.000000001
 43
0.0000000001
 40
-0.0802194250568052
 40
-0.0802194250568052
 40
-0.0802194250568052
 40
0.9197805749431949
 40
1.919780574943195
 40
1.919780574943195
 40
1.919780574943195
 10
27.96992998215804
 20
28.85343874684573
 30
0.0
 10
27.96616168133887
 20
28.87983546659885
 30
0.0
 10
27.93345727939631
 20
28.92262779219567
 30
0.0
 10
27.90594238608232
 20
28.92222176526936
 30
0.0
  0
SPLINE
  5
D4
330
1F
100
AcDbEntity
  8
2D DXF
370
    -3
100
AcDbSpline
210
0.0
220
0.0
230
1.0
 70
    28
 71
     2
 72
     6
 73
     3
 74
     0
 42
0.000000001
 43
0.0000000001
 40
-0.1905776913670985
 40
-0.1905776913670985
 40
-0.1905776913670985
 40
-0.0802194250568052
 40
-0.0802194250568052
 40
-0.0802194250568052
 10
27.98960999584661
 20
28.7444106046802
 30
0.0
 41
1.0
 10
27.97976998900232
 20
28.79892467576297
 30
0.0
 41
1.0
 10
27.96992998215804
 20
28.85343874684573
 30
0.0
 41
1.0
  0
SPLINE
  5
D5
330
1F
100
AcDbEntity
  8
2D DXF
370
    -3
100
AcDbSpline
210
0.0
220
0.0
230
1.0
 70
     8
 71
     2
 72
     8
 73
     5
 74
     0
 42
0.000000001
 43
0.0000000001
 40
0.0
 40
0.0
 40
0.0
 40
1.0
 40
2.0
 40
3.0
 40
3.0
 40
3.0
 10
35.47050067264162
 20
28.8233993618121
 30
0.0
 10
35.40346478471027
 20
28.8219967619496
 30
0.0
 10
35.31086084571758
 20
28.91545124118426
 30
0.0
 10
35.26356919646248
 20
29.03412838842701
 30
0.0
 10
35.25691862322084
 20
29.09759385368571
 30
0.0
  0
ARC
  5
D6
330
1F
100
AcDbEntity
  8
2D DXF
370
    -3
100
AcDbCircle
 10
35.12375678994762
 20
29.60327354307669
 30
0.0
 40
0.0773671944389988
100
AcDbArc
 50
77.69484845802657
 51
96.30889852110818
  0
SPLINE
  5
D7
330
1F
100
AcDbEntity
  8
2D DXF
370
    -3
100
AcDbSpline
210
0.0
220
0.0
230
1.0
 70
     8
 71
     2
 72
     7
 73
     4
 74
     0
 42
0.000000001
 43
0.0000000001
 40
0.0
 40
0.0
 40
0.0
 40
1.0
 40
2.0
 40
2.0
 40
2.0
 10
35.20317917820798
 20
29.60897141141391
 30
0.0
 10
35.20032570272095
 20
29.634785201755
 30
0.0
 10
35.16561952487673
 20
29.67332843737696
 30
0.0
 10
35.14024514971233
 20
29.67886333582432
 30
0.0
  0
SPLINE
  5
D8
330
1F
100
AcDbEntity
  8
2D DXF
370
    -3
100
AcDbSpline
210
0.0
220
0.0
230
1.0
 70
     8
 71
     2
 72
     7
 73
     4
 74
     0
 42
0.000000001
 43
0.0000000001
 40
3.152673681168819
 40
3.152673681168819
 40
3.152673681168819
 40
4.152673681168819
 40
5.152673681168819
 40
5.152673681168819
 40
5.152673681168819
 10
28.84630323599244
 20
28.91918818019299
 30
0.0
 10
28.84923352248059
 20
28.95195026835956
 30
0.0
 10
28.81676035294721
 20
29.01301859493438
 30
0.0
 10
28.78149962633775
 20
29.01424653943774
 30
0.0
  0
SPLINE
  5
D9
330
1F
100
AcDbEntity
  8
2D DXF
370
    -3
100
AcDbSpline
210
0.0
220
0.0
230
1.0
 70
    28
 71
     2
 72
     6
 73
     3
 74
     0
 42
0.000000001
 43
0.0000000001
 40
2.0
 40
2.0
 40
2.0
 40
3.152673681168819
 40
3.152673681168819
 40
3.152673681168819
 10
28.78757730217224
 20
27.79729734954137
 30
0.0
 41
1.0
 10
28.81694026908234
 20
28.35824276486718
 30
0.0
 41
1.0
 10
28.84630323599244
 20
28.91918818019299
 30
0.0
 41
1.0
  0
SPLINE
  5
DA
330
1F
100
AcDbEntity
  8
2D DXF
370
    -3
100
AcDbSpline
210
0.0
220
0.0
230
1.0
 70
     8
 71
     2
 72
     7
 73
     4
 74
     0
 42
0.000000001
 43
0.0000000001
 40
0.0
 40
0.0
 40
0.0
 40
1.0
 40
2.0
 40
2.0
 40
2.0
 10
28.61323030506954
 20
27.55767837305178
 30
0.0
 10
28.69766426488765
 20
27.57160115436065
 30
0.0
 10
28.78429160017289
 20
27.71582197653931
 30
0.0
 10
28.78757730217224
 20
27.79729734954137
 30
0.0
  0
SPLINE
  5
DB
330
1F
100
AcDbEntity
  8
2D DXF
370
    -3
100
AcDbSpline
210
0.0
220
0.0
230
1.0
 70
     8
 71
     2
 72
     7
 73
     4
 74
     0
 42
0.000000001
 43
0.0000000001
 40
0.0
 40
0.0
 40
0.0
 40
1.0
 40
2.0
 40
2.0
 40
2.0
 10
35.29972523096633
 20
28.26067844629648
 30
0.0
 10
35.21424164646693
 20
28.25674217419064
 30
0.0
 10
35.09952212999055
 20
28.37980058930659
 30
0.0
 10
35.07936854481876
 20
28.45881239414638
 30
0.0
  0
SPLINE
  5
DC
330
1F
100
AcDbEntity
  8
2D DXF
370
    -3
100
AcDbSpline
210
0.0
220
0.0
230
1.0
 70
     8
 71
     2
 72
     7
 73
     4
 74
     0
 42
0.000000001
 43
0.0000000001
 40
0.0
 40
0.0
 40
0.0
 40
1.0
 40
2.0
 40
2.0
 40
2.0
 10
34.78867168048579
 20
29.5439774098191
 30
0.0
 10
34.77899380625963
 20
29.57541432671357
 30
0.0
 10
34.79806053927412
 20
29.64189971551906
 30
0.0
 10
34.83229543036369
 20
29.65043194376983
 30
0.0
  0
LINE
  5
DD
330
1F
100
AcDbEntity
  8
2D DXF
370
    -3
100
AcDbLine
 10
29.33150910795031
 20
28.17815800485377
 30
0.0
 11
34.46764699131309
 21
28.71798784930403
 31
0.0
  0
LINE
  5
DE
330
1F
100
AcDbEntity
  8
2D DXF
370
    -3
100
AcDbLine
 10
34.2561508956335
 20
29.32922893003094
 30
0.0
 11
29.41171751661575
 21
28.82005846443345
 31
0.0
  0
SPLINE
  5
DF
330
1F
100
AcDbEntity
  8
2D DXF
370
    -3
100
AcDbSpline
210
0.0
220
0.0
230
1.0
 70
    28
 71
     2
 72
     6
 73
     3
 74
     0
 42
0.000000001
 43
0.0000000001
 40
0.0
 40
0.0
 40
0.0
 40
0.5156024396811688
 40
0.5156024396811688
 40
0.5156024396811688
 10
35.25691848188274
 20
29.09759521927328
 30
0.0
 41
0.8530688685202268
 10
35.23004883002868
 20
29.35328331545769
 30
0.0
 41
0.8530688685202321
 10
35.20317917817462
 20
29.60897141164211
 30
0.0
 41
0.8530688685202376
  0
SPLINE
  5
E0
330
1F
100
AcDbEntity
  8
2D DXF
370
    -3
100
AcDbSpline
210
0.0
220
0.0
230
1.0
 70
    28
 71
     2
 72
     6
 73
     3
 74
     0
 42
0.000000001
 43
0.0000000001
 40
0.1092288140722163
 40
0.1092288140722163
 40
0.1092288140722163
 40
1.26190249524103
 40
1.26190249524103
 40
1.26190249524103
 10
34.78867168048579
 20
29.5439774098191
 30
0.0
 41
1.0
 10
34.93402011265228
 20
29.00139490198274
 30
0.0
 41
1.0
 10
35.07936854481876
 20
28.45881239414638
 30
0.0
 41
1.0
  0
SPLINE
  5
E1
330
1F
100
AcDbEntity
  8
2D DXF
370
    -3
100
AcDbSpline
210
0.0
220
0.0
230
1.0
 70
    24
 71
     3
 72
    14
 73
    10
 74
     0
 42
0.000000001
 43
0.0000000001
 40
0.0
 40
0.0
 40
0.0
 40
0.0
 40
0.6041693560049914
 40
0.6041693560049914
 40
0.6041693560049914
 40
0.6510228588170114
 40
0.6510228588170114
 40
0.6510228588170114
 40
1.255192214822014
 40
1.255192214822014
 40
1.255192214822014
 40
1.255192214822014
 10
31.89974939632243
 20
28.44896167939671
 30
0.0
 10
31.89889930612186
 20
28.45704974738367
 30
0.0
 10
31.89000689206104
 20
28.54165541563657
 30
0.0
 10
31.86935327231386
 20
28.73816148120976
 30
0.0
 10
31.86772896245385
 20
28.75361575720467
 30
0.0
 10
31.86609793599321
 20
28.76913393738578
 30
0.0
 10
31.86447362613315
 20
28.78458821338069
 30
0.0
 10
31.84382000638603
 20
28.98109427895389
 30
0.0
 10
31.83492759232514
 20
29.06569994720678
 30
0.0
 10
31.83407750212463
 20
29.07378801519375
 30
0.0
  0
SPLINE
  5
E2
330
1F
100
AcDbEntity
  8
2D DXF
370
    -3
100
AcDbSpline
210
0.0
220
0.0
230
1.0
 70
    24
 71
     2
 72
     6
 73
     3
 74
     0
 42
0.000000001
 43
0.0000000001
 40
0.0759171652887041
 40
0.0759171652887041
 40
0.0759171652887041
 40
0.4783760145391238
 40
0.4783760145391238
 40
0.4783760145391238
 10
35.11525501104877
 20
29.68017219411111
 30
0.0
 10
34.97377522070623
 20
29.66530206894047
 30
0.0
 10
34.83229543036369
 20
29.65043194376983
 30
0.0
  0
SPLINE
  5
E3
330
1F
100
AcDbEntity
  8
2D DXF
370
    -3
100
AcDbSpline
210
0.0
220
0.0
230
1.0
 70
     8
 71
     3
 72
     8
 73
     4
 74
     0
 42
0.000000001
 43
0.0000000001
 40
0.0000000000000009
 40
0.0000000000000009
 40
0.0000000000000009
 40
0.0000000000000009
 40
2.383983832605285
 40
2.383983832605285
 40
2.383983832605285
 40
2.383983832605285
 10
23.80100388981835
 20
31.59681811174834
 30
0.0
 10
23.7311795892651
 20
32.38818529703843
 30
0.0
 10
23.64309550035092
 20
33.17827587388643
 30
0.0
 10
23.53721748608037
 20
33.96571385927849
 30
0.0
  0
SPLINE
  5
E4
330
1F
100
AcDbEntity
  8
2D DXF
370
    -3
100
AcDbSpline
210
0.0
220
0.0
230
1.0
 70
     8
 71
     2
 72
     8
 73
     5
 74
     0
 42
0.000000001
 43
0.0000000001
 40
-2.999999999999997
 40
-2.999999999999997
 40
-2.999999999999997
 40
-1.999999999999998
 40
-0.9999999999999983
 40
0.0000000000000009
 40
0.0000000000000009
 40
0.0000000000000009
 10
24.02915975761614
 20
31.47961643502422
 30
0.0
 10
23.98378543062485
 20
31.45462567530506
 30
0.0
 10
23.87813660121022
 20
31.46878721178357
 30
0.0
 10
23.80559992723666
 20
31.54472803470642
 30
0.0
 10
23.80100388981835
 20
31.59681811174834
 30
0.0
  0
SPLINE
  5
E5
330
1F
100
AcDbEntity
  8
2D DXF
370
    -3
100
AcDbSpline
210
0.0
220
0.0
230
1.0
 70
     8
 71
     2
 72
    19
 73
    16
 74
     0
 42
0.000000001
 43
0.0000000001
 40
-17.0
 40
-17.0
 40
-17.0
 40
-16.0
 40
-15.0
 40
-14.0
 40
-13.0
 40
-12.0
 40
-11.0
 40
-10.0
 40
-9.0
 40
-7.999999999999998
 40
-6.999999999999998
 40
-5.999999999999998
 40
-4.999999999999998
 40
-3.999999999999997
 40
-2.999999999999997
 40
-2.999999999999997
 40
-2.999999999999997
 10
29.21771297740209
 20
34.94231048195549
 30
0.0
 10
29.10006248834249
 20
34.75427099406396
 30
0.0
 10
28.75490953016966
 20
34.32979623789417
 30
0.0
 10
28.43532025295555
 20
34.02214530952884
 30
0.0
 10
28.08526785398551
 20
33.74998811237555
 30
0.0
 10
27.71785275381031
 20
33.50200781341253
 30
0.0
 10
27.34302399150648
 20
33.26556803739619
 30
0.0
 10
26.96151736578015
 20
33.04003624564093
 30
0.0
 10
26.57452719614737
 20
32.82406590794113
 30
0.0
 10
26.18282097571587
 20
32.6167843815053
 30
0.0
 10
25.78733309352164
 20
32.41682748129919
 30
0.0
 10
25.38923843292174
 20
32.22210255977603
 30
0.0
 10
24.99083467790946
 20
32.0281701854405
 30
0.0
 10
24.59423226913357
 20
31.82967321481139
 30
0.0
 10
24.22331249373998
 20
31.5865496877911
 30
0.0
 10
24.02915975761614
 20
31.47961643502422
 30
0.0
  0
SPLINE
  5
E6
330
1F
100
AcDbEntity
  8
2D DXF
370
    -3
100
AcDbSpline
210
0.0
220
0.0
230
1.0
 70
     8
 71
     2
 72
    23
 73
    20
 74
     0
 42
0.000000001
 43
0.0000000001
 40
-35.0
 40
-35.0
 40
-35.0
 40
-34.0
 40
-33.0
 40
-32.0
 40
-31.0
 40
-30.0
 40
-29.0
 40
-28.0
 40
-27.0
 40
-26.0
 40
-25.0
 40
-24.0
 40
-23.0
 40
-22.0
 40
-21.0
 40
-20.0
 40
-19.0
 40
-18.0
 40
-17.0
 40
-17.0
 40
-17.0
 10
24.9681252842591
 20
39.98808634571844
 30
0.0
 10
25.23265974617688
 20
40.00442507178332
 30
0.0
 10
25.77377669281027
 20
40.05166785351869
 30
0.0
 10
26.30151699779545
 20
40.10124123536789
 30
0.0
 10
26.82906313891768
 20
40.15282437885413
 30
0.0
 10
27.35709780339018
 20
40.19937712768494
 30
0.0
 10
27.88623834516393
 20
40.23090024541796
 30
0.0
 10
28.41653854077477
 20
40.24100260351672
 30
0.0
 10
28.94381234897891
 20
40.15458560896376
 30
0.0
 10
29.40016265048844
 20
39.86675682549306
 30
0.0
 10
29.66322826115517
 20
39.39851215385983
 30
0.0
 10
29.80633275390615
 20
38.88709043075309
 30
0.0
 10
29.88716042307819
 20
38.36279314522629
 30
0.0
 10
29.92295745147523
 20
37.83364704860516
 30
0.0
 10
29.91572386592868
 20
37.30335302921272
 30
0.0
 10
29.86649865709525
 20
36.77527215157407
 30
0.0
 10
29.76980909141822
 20
36.25367304976366
 30
0.0
 10
29.61964818036064
 20
35.74475620409447
 30
0.0
 10
29.35848028594155
 20
35.16729732919438
 30
0.0
 10
29.21771297740209
 20
34.94231048195549
 30
0.0
  0
SPLINE
  5
E7
330
1F
100
AcDbEntity
  8
2D DXF
370
    -3
100
AcDbSpline
210
0.0
220
0.0
230
1.0
 70
     8
 71
     2
 72
    19
 73
    16
 74
     0
 42
0.000000001
 43
0.0000000001
 40
-49.0
 40
-49.0
 40
-49.0
 40
-48.0
 40
-47.0
 40
-46.0
 40
-45.0
 40
-44.0
 40
-43.0
 40
-42.0
 40
-41.0
 40
-40.0
 40
-39.0
 40
-38.0
 40
-37.0
 40
-36.0
 40
-35.0
 40
-35.0
 40
-35.0
 10
19.38036281839511
 20
42.75228479435172
 30
0.0
 10
19.5917756018501
 20
42.6609381219487
 30
0.0
 10
19.97187727403367
 20
42.40061430623759
 30
0.0
 10
20.32672986707088
 20
42.10860657994529
 30
0.0
 10
20.67007853608307
 20
41.8030649018899
 30
0.0
 10
21.01572166998297
 20
41.50019608008569
 30
0.0
 10
21.36760480956447
 20
41.20454478069962
 30
0.0
 10
21.73000998954429
 20
40.92183074334825
 30
0.0
 10
22.10643037165268
 20
40.65795382704074
 30
0.0
 10
22.49985564859743
 20
40.41997594390039
 30
0.0
 10
22.91501020151419
 20
40.22143302812212
 30
0.0
 10
23.35406843921324
 20
40.08323360552049
 30
0.0
 10
23.80730371048521
 20
40.00410396839547
 30
0.0
 10
24.26601648462368
 20
39.97098908175511
 30
0.0
 10
24.73871513362145
 20
39.97391704021247
 30
0.0
 10
24.9681252842591
 20
39.98808634571844
 30
0.0
  0
LINE
  5
E8
330
1F
100
AcDbEntity
  8
2D DXF
370
    -3
100
AcDbLine
 10
23.61869607511012
 20
32.36890628071384
 30
0.0
 11
23.70977399454064
 21
32.54393468222248
 31
0.0
  0
SPLINE
  5
E9
330
1F
100
AcDbEntity
  8
2D DXF
370
    -3
100
AcDbSpline
210
0.0
220
0.0
230
1.0
 70
     8
 71
     2
 72
    11
 73
     8
 74
     0
 42
0.000000001
 43
0.0000000001
 40
1.632577816608413
 40
1.632577816608413
 40
1.632577816608413
 40
2.632577427346236
 40
3.632577505198671
 40
4.632577583051106
 40
5.632577660903541
 40
6.632577738755977
 40
7.632577816608412
 40
7.632577816608412
 40
7.632577816608412
 10
23.73640855190429
 20
34.40395363018423
 30
0.0
 10
23.75363632423837
 20
34.45156393009165
 30
0.0
 10
23.76062342591372
 20
34.55253561981964
 30
0.0
 10
23.75965954239412
 20
34.65325446618269
 30
0.0
 10
23.7527679160349
 20
34.75380690771993
 30
0.0
 10
23.74129587864748
 20
34.8539179323713
 30
0.0
 10
23.72583929370496
 20
34.95349206205546
 30
0.0
 10
23.71623001294746
 20
35.00294983250174
 30
0.0
  0
SPLINE
  5
EA
330
1F
100
AcDbEntity
  8
2D DXF
370
    -3
100
AcDbSpline
210
0.0
220
0.0
230
1.0
 70
     8
 71
     3
 72
    11
 73
     7
 74
     0
 42
0.000000001
 43
0.0000000001
 40
1.106384034209326
 40
1.106384034209326
 40
1.106384034209326
 40
1.106384034209326
 40
1.617990370078946
 40
1.617990370078946
 40
1.617990370078946
 40
1.632577816608413
 40
1.632577816608413
 40
1.632577816608413
 40
1.632577816608413
 10
23.51936417880724
 20
33.9264283210919
 30
0.0
 10
23.58972413639221
 20
34.08125426032721
 30
0.0
 10
23.66007039083526
 20
34.23603322720059
 30
0.0
 10
23.73039087562422
 20
34.39071802187866
 30
0.0
 10
23.73239662003898
 20
34.3951300813788
 30
0.0
 10
23.73440233229162
 20
34.39954203593935
 30
0.0
 10
23.73640855190429
 20
34.40395363018423
 30
0.0
  0
SPLINE
  5
EB
330
1F
100
AcDbEntity
  8
2D DXF
370
    -3
100
AcDbSpline
210
0.0
220
0.0
230
1.0
 70
     8
 71
     3
 72
     8
 73
     4
 74
     0
 42
0.000000001
 43
0.0000000001
 40
2.942255389416193
 40
2.942255389416193
 40
2.942255389416193
 40
2.942255389416193
 40
3.256087856163177
 40
3.256087856163177
 40
3.256087856163177
 40
3.256087856163177
 10
23.35807491003398
 20
36.43007915786364
 30
0.0
 10
23.2732578774784
 20
36.36874514401286
 30
0.0
 10
23.18845467741569
 20
36.30747489268416
 30
0.0
 10
23.10363561947419
 20
36.24631210797615
 30
0.0
  0
SPLINE
  5
EC
330
1F
100
AcDbEntity
  8
2D DXF
370
    -3
100
AcDbSpline
210
0.0
220
0.0
230
1.0
 70
     8
 71
     3
 72
     8
 73
     4
 74
     0
 42
0.000000001
 43
0.0000000001
 40
2.868978274657099
 40
2.868978274657099
 40
2.868978274657099
 40
2.868978274657099
 40
2.942255389416193
 40
2.942255389416193
 40
2.942255389416193
 40
2.942255389416193
 10
23.36896866880598
 20
36.43382120136467
 30
0.0
 10
23.36505741271857
 20
36.43374391665964
 30
0.0
 10
23.36142184169672
 20
36.43249934968625
 30
0.0
 10
23.35807491003398
 20
36.43007915786364
 30
0.0
  0
SPLINE
  5
ED
330
1F
100
AcDbEntity
  8
2D DXF
370
    -3
100
AcDbSpline
210
0.0
220
0.0
230
1.0
 70
     8
 71
     3
 72
    11
 73
     7
 74
     0
 42
0.000000001
 43
0.0000000001
 40
2.0
 40
2.0
 40
2.0
 40
2.0
 40
2.50156835232133
 40
2.50156835232133
 40
2.50156835232133
 40
2.868978274657099
 40
2.868978274657099
 40
2.868978274657099
 40
2.868978274657099
 10
23.55981650210215
 20
35.85272625235476
 30
0.0
 10
23.52912185109837
 20
36.00088390675448
 30
0.0
 10
23.48786498832767
 20
36.18268428470003
 30
0.0
 10
23.44736784971276
 20
36.30114618436352
 30
0.0
 10
23.41484431047157
 20
36.39628377615544
 30
0.0
 10
23.38899421549526
 20
36.43434542480604
 30
0.0
 10
23.36896866880598
 20
36.43382120136467
 30
0.0
  0
SPLINE
  5
EE
330
1F
100
AcDbEntity
  8
2D DXF
370
    -3
100
AcDbSpline
210
0.0
220
0.0
230
1.0
 70
     8
 71
     2
 72
     7
 73
     4
 74
     0
 42
0.000000001
 43
0.0000000001
 40
0.0
 40
0.0
 40
0.0
 40
1.0
 40
2.0
 40
2.0
 40
2.0
 10
23.71623001294741
 20
35.00294983250176
 30
0.0
 10
23.7106851704112
 20
35.03146793723954
 30
0.0
 10
23.56997286074944
 20
35.82538687605799
 30
0.0
 10
23.55981650210215
 20
35.85272625235476
 30
0.0
  0
SPLINE
  5
EF
330
1F
100
AcDbEntity
  8
2D DXF
370
    -3
100
AcDbSpline
210
0.0
220
0.0
230
1.0
 70
     8
 71
     2
 72
    53
 73
    50
 74
     0
 42
0.000000001
 43
0.0000000001
 40
0.0854334264385601
 40
0.0854334264385601
 40
0.0854334264385601
 40
1.0
 40
2.0
 40
3.0
 40
4.0
 40
5.0
 40
6.0
 40
7.0
 40
8.0
 40
9.0
 40
10.0
 40
11.0
 40
12.0
 40
13.0
 40
14.0
 40
15.0
 40
16.0
 40
17.0
 40
18.0
 40
19.0
 40
20.0
 40
21.0
 40
22.0
 40
23.0
 40
24.0
 40
25.0
 40
26.0
 40
27.0
 40
28.0
 40
29.0
 40
30.0
 40
31.0
 40
32.0
 40
33.0
 40
34.0
 40
35.0
 40
36.0
 40
37.0
 40
38.0
 40
39.0
 40
40.0
 40
41.0
 40
42.0
 40
43.0
 40
44.0
 40
45.0
 40
46.0
 40
47.0
 40
48.0
 40
48.0
 40
48.0
 10
41.00265615771197
 20
28.90591174891809
 30
0.0
 10
40.79052366972242
 20
29.01311611354553
 30
0.0
 10
40.36223395315365
 20
29.26642777224122
 30
0.0
 10
39.91022397988594
 20
29.52292848878537
 30
0.0
 10
39.44400732297431
 20
29.75277726225477
 30
0.0
 10
38.96535423474377
 20
29.95600114149851
 30
0.0
 10
38.46776471607343
 20
30.10734562798924
 30
0.0
 10
37.95950099729312
 20
30.21667272219925
 30
0.0
 10
37.44553716462532
 20
30.29433330137873
 30
0.0
 10
36.92841426278933
 20
30.34655508125087
 30
0.0
 10
36.40964654936745
 20
30.37807133897963
 30
0.0
 10
35.89013850152715
 20
30.39243398926188
 30
0.0
 10
35.37044248087564
 20
30.39239058162798
 30
0.0
 10
34.85089500391241
 20
30.38032600038528
 30
0.0
 10
34.3316957828073
 20
30.35791817403123
 30
0.0
 10
33.81296813661233
 20
30.32649013293056
 30
0.0
 10
33.29477521041993
 20
30.28726547750366
 30
0.0
 10
32.77709291616925
 20
30.24182833894061
 30
0.0
 10
32.25982410402652
 20
30.19193470634471
 30
0.0
 10
31.74289644932647
 20
30.13862520728505
 30
0.0
 10
31.22628646901576
 20
30.0823230345537
 30
0.0
 10
30.7100268373385
 20
30.02289644778525
 30
0.0
 10
30.1940819775407
 20
29.96079483198831
 30
0.0
 10
29.67846143236837
 20
29.89605932672713
 30
0.0
 10
29.16309407571579
 20
29.82934197977257
 30
0.0
 10
28.64789417451711
 20
29.76134559688922
 30
0.0
 10
28.13275948883184
 20
29.69285833108457
 30
0.0
 10
27.61749899632157
 20
29.62531654660328
 30
0.0
 10
27.1018291978926
 20
29.56096724854996
 30
0.0
 10
26.58551727710513
 20
29.50188494657829
 30
0.0
 10
26.06799914737361
 20
29.45437412148994
 30
0.0
 10
25.5485520378743
 20
29.43099684263254
 30
0.0
 10
25.02933084914896
 20
29.46487134049014
 30
0.0
 10
24.52027734970098
 20
29.58380668576678
 30
0.0
 10
24.07622926125676
 20
29.86339311805732
 30
0.0
 10
23.75580248617912
 20
30.2787277222659
 30
0.0
 10
23.57436015523554
 20
30.7682295786054
 30
0.0
 10
23.46915052337268
 20
31.27769971327668
 30
0.0
 10
23.40713826871901
 20
31.79379244297863
 30
0.0
 10
23.37358662897743
 20
32.31245649550235
 30
0.0
 10
23.34772704609067
 20
32.83147309179191
 30
0.0
 10
23.31975737540121
 20
33.35039476470006
 30
0.0
 10
23.28292142076357
 20
33.86877047508769
 30
0.0
 10
23.23340421138614
 20
34.38612526688335
 30
0.0
 10
23.16716530460572
 20
34.90152102634717
 30
0.0
 10
23.08975105343036
 20
35.41576357529563
 30
0.0
 10
22.97399208369201
 20
35.92154057376243
 30
0.0
 10
22.79257582012572
 20
36.41592785388613
 30
0.0
 10
22.43449210164523
 20
36.78994669689365
 30
0.0
 10
22.17451333142863
 20
36.8604302026536
 30
0.0
  0
SPLINE
  5
F0
330
1F
100
AcDbEntity
  8
2D DXF
370
    -3
100
AcDbSpline
210
0.0
220
0.0
230
1.0
 70
    24
 71
     2
 72
     6
 73
     3
 74
     0
 42
0.000000001
 43
0.0000000001
 40
0.0000269165430604
 40
0.0000269165430604
 40
0.0000269165430604
 40
0.3195090605941237
 40
0.3195090605941237
 40
0.3195090605941237
 10
23.71623001294741
 20
35.00294983250176
 30
0.0
 10
23.55779469126146
 20
34.98800366298823
 30
0.0
 10
23.39935936957552
 20
34.9730574934747
 30
0.0
  0
SPLINE
  5
F1
330
1F
100
AcDbEntity
  8
2D DXF
370
    -3
100
AcDbSpline
210
0.0
220
0.0
230
1.0
 70
     8
 71
     2
 72
    15
 73
    12
 74
     0
 42
0.000000001
 43
0.0000000001
 40
42.0
 40
42.0
 40
42.0
 40
43.0
 40
44.0
 40
45.0
 40
46.0
 40
47.0
 40
48.0
 40
49.0
 40
50.0
 40
51.0
 40
52.0
 40
52.0
 40
52.0
 10
21.15559086683295
 20
42.37473861234797
 30
0.0
 10
21.33870802032858
 20
42.252078314606
 30
0.0
 10
21.67852830904685
 20
41.99696299228192
 30
0.0
 10
21.99446806758472
 20
41.7082490764008
 30
0.0
 10
22.29477805091592
 20
41.40433789961921
 30
0.0
 10
22.57864339130732
 20
41.08491323824903
 30
0.0
 10
22.85985877104089
 20
40.76315035509185
 30
0.0
 10
23.15331843888397
 20
40.4528766282198
 30
0.0
 10
23.47958591448749
 20
40.1725334413558
 30
0.0
 10
23.88053129871061
 20
40.01703399911649
 30
0.0
 10
24.30736069443658
 20
39.97328759365683
 30
0.0
 10
24.52093603301132
 20
39.97307328928606
 30
0.0
  0
SPLINE
  5
F2
330
1F
100
AcDbEntity
  8
2D DXF
370
    -3
100
AcDbSpline
210
0.0
220
0.0
230
1.0
 70
     8
 71
     2
 72
    15
 73
    12
 74
     0
 42
0.000000001
 43
0.0000000001
 40
32.0
 40
32.0
 40
32.0
 40
33.0
 40
34.0
 40
35.0
 40
36.0
 40
37.0
 40
38.0
 40
39.0
 40
40.0
 40
41.0
 40
42.0
 40
42.0
 40
42.0
 10
19.37643720732321
 20
42.75350122929451
 30
0.0
 10
19.46929645338089
 20
42.75641059009948
 30
0.0
 10
19.6551023869858
 20
42.75791546067295
 30
0.0
 10
19.84087974659191
 20
42.75405469965526
 30
0.0
 10
20.02640936986428
 20
42.74349970027241
 30
0.0
 10
20.21125835136418
 20
42.72439922904978
 30
0.0
 10
20.39494973448127
 20
42.69607301943597
 30
0.0
 10
20.57611103020209
 20
42.65432150888874
 30
0.0
 10
20.75241903468908
 20
42.59502570536907
 30
0.0
 10
20.92170173962087
 20
42.51897978918015
 30
0.0
 10
21.08379440553848
 20
42.42283118669769
 30
0.0
 10
21.15559086683295
 20
42.37473861234797
 30
0.0
  0
SPLINE
  5
F3
330
1F
100
AcDbEntity
  8
2D DXF
370
    -3
100
AcDbSpline
210
0.0
220
0.0
230
1.0
 70
     8
 71
     2
 72
    24
 73
    21
 74
     0
 42
0.000000001
 43
0.0000000001
 40
14.0
 40
14.0
 40
14.0
 40
15.0
 40
16.0
 40
17.0
 40
18.0
 40
19.0
 40
20.0
 40
21.0
 40
22.0
 40
23.0
 40
24.0
 40
25.0
 40
26.0
 40
26.0
 40
27.0
 40
28.0
 40
29.0
 40
30.0
 40
31.0
 40
32.0
 40
32.0
 40
32.0
 10
28.05464757752846
 20
39.95890207447151
 30
0.0
 10
27.65280640600152
 20
39.9499795045307
 30
0.0
 10
26.85182306210551
 20
39.88347863321192
 30
0.0
 10
26.05197071030558
 20
39.80592343291424
 30
0.0
 10
25.25149708420703
 20
39.73499938180366
 30
0.0
 10
24.44883852232722
 20
39.68932226668047
 30
0.0
 10
23.64502408241869
 20
39.73516381329389
 30
0.0
 10
22.86088400249356
 20
39.92430339759927
 30
0.0
 10
22.14171170916497
 20
40.28888036611954
 30
0.0
 10
21.48171053733871
 20
40.74858753211323
 30
0.0
 10
20.86155582261161
 20
41.26015094064513
 30
0.0
 10
20.26380116079504
 20
41.79682510978404
 30
0.0
 10
19.64417150639515
 20
42.3121725807914
 30
0.0
 10
19.28058641762392
 20
42.48728650129613
 30
0.0
 10
19.24435652163426
 20
42.50473594936801
 30
0.0
 10
19.18648132053035
 20
42.55591391861338
 30
0.0
 10
19.16783367684788
 20
42.63315602922584
 30
0.0
 10
19.18328512740631
 20
42.71532840214942
 30
0.0
 10
19.2584699390322
 20
42.74737377482323
 30
0.0
 10
19.33714311013047
 20
42.75227011111197
 30
0.0
 10
19.37643720732321
 20
42.75350122929451
 30
0.0
  0
SPLINE
  5
F4
330
1F
100
AcDbEntity
  8
2D DXF
370
    -3
100
AcDbSpline
210
0.0
220
0.0
230
1.0
 70
     8
 71
     2
 72
    11
 73
     8
 74
     0
 42
0.000000001
 43
0.0000000001
 40
8.0
 40
8.0
 40
8.0
 40
9.0
 40
10.0
 40
11.0
 40
12.0
 40
13.0
 40
14.0
 40
14.0
 40
14.0
 10
29.67128116117324
 20
38.0499271406439
 30
0.0
 10
29.65534397859484
 20
38.29170206029016
 30
0.0
 10
29.58069550841971
 20
38.77075411004152
 30
0.0
 10
29.45210114184557
 20
39.23789571266853
 30
0.0
 10
29.21855163746729
 20
39.67295485184164
 30
0.0
 10
28.7792909900058
 20
39.9000900510522
 30
0.0
 10
28.29713033163524
 20
39.96428621498836
 30
0.0
 10
28.05464757752846
 20
39.95890207447151
 30
0.0
  0
SPLINE
  5
F5
330
1F
100
AcDbEntity
  8
2D DXF
370
    -3
100
AcDbSpline
210
0.0
220
0.0
230
1.0
 70
     8
 71
     2
 72
    13
 73
    10
 74
     0
 42
0.000000001
 43
0.0000000001
 40
0.0
 40
0.0
 40
0.0
 40
1.0
 40
2.0
 40
3.0
 40
4.0
 40
5.0
 40
6.0
 40
7.0
 40
8.0
 40
8.0
 40
8.0
 10
23.80100388981835
 20
31.59681811174834
 30
0.0
 10
24.30218367505331
 20
31.91334541378494
 30
0.0
 10
25.37812083432478
 20
32.40906356300235
 30
0.0
 10
26.43751550379234
 20
32.93747533698858
 30
0.0
 10
27.4618698023386
 20
33.53078528925939
 30
0.0
 10
28.43424612124888
 20
34.21404045768522
 30
0.0
 10
29.16347502788564
 20
35.15917110712676
 30
0.0
 10
29.57280194754289
 20
36.27754328382537
 30
0.0
 10
29.70859775978245
 20
37.45790859036013
 30
0.0
 10
29.67128116117324
 20
38.0499271406439
 30
0.0
  0
SPLINE
  5
F6
330
1F
100
AcDbEntity
  8
2D DXF
370
    -3
100
AcDbSpline
210
0.0
220
0.0
230
1.0
 70
     8
 71
     2
 72
    11
 73
     8
 74
     0
 42
0.000000001
 43
0.0000000001
 40
0.0
 40
0.0
 40
0.0
 40
1.0
 40
2.0
 40
3.0
 40
4.0
 40
5.0
 40
6.0
 40
6.0
 40
6.0
 10
22.23056826134736
 20
40.254456971728
 30
0.0
 10
22.35204210013508
 20
39.93677722566045
 30
0.0
 10
22.54403733393322
 20
39.28433919704908
 30
0.0
 10
22.70403862712858
 20
38.62351183942391
 30
0.0
 10
22.84673426373747
 20
37.9587895010584
 30
0.0
 10
22.98224948555846
 20
37.29257868333657
 30
0.0
 10
23.11157695460231
 20
36.62513833803818
 30
0.0
 10
23.17174646095198
 20
36.29057569803405
 30
0.0
  0
ARC
  5
F7
330
1F
100
AcDbEntity
  8
2D DXF
370
    -3
100
AcDbCircle
 10
-0.4390097397185997
 20
53.3788514087216
 30
0.0
 40
24.68452967937115
210
0.0
220
0.0
230
-1.0
100
AcDbArc
 50
256.2922916864497
 51
259.5712676888958
  0
SPLINE
  5
F8
330
1F
100
AcDbEntity
  8
2D DXF
370
    -3
100
AcDbSpline
210
0.0
220
0.0
230
1.0
 70
     8
 71
     3
 72
    34
 73
    30
 74
     0
 42
0.000000001
 43
0.0000000001
 40
41.0
 40
41.0
 40
41.0
 40
41.0
 40
42.0
 40
43.0
 40
44.0
 40
45.0
 40
46.0
 40
47.0
 40
48.0
 40
49.0
 40
50.0
 40
51.0
 40
52.0
 40
53.0
 40
54.0
 40
55.0
 40
56.0
 40
57.0
 40
58.0
 40
59.0
 40
60.0
 40
61.0
 40
62.0
 40
63.0
 40
64.0
 40
65.0
 40
66.0
 40
67.0
 40
68.0
 40
68.0
 40
68.0
 40
68.0
 10
7.61661388347234
 20
30.63135342460424
 30
0.0
 10
7.659880416534989
 20
30.63766588785476
 30
0.0
 10
7.760065978556511
 20
30.65072573753585
 30
0.0
 10
7.890866589048088
 20
30.66126102371227
 30
0.0
 10
8.022109553256158
 20
30.66339187159512
 30
0.0
 10
8.153133033600696
 20
30.65316530157085
 30
0.0
 10
8.281401166867298
 20
30.62369664382012
 30
0.0
 10
8.399847854616112
 20
30.56226993366638
 30
0.0
 10
8.485504777655834
 20
30.46146114559282
 30
0.0
 10
8.532394104603114
 20
30.33199991912322
 30
0.0
 10
8.488645640263726
 20
30.2027230421375
 30
0.0
 10
8.3887248643464
 20
30.11393263892863
 30
0.0
 10
8.280079625716226
 20
30.04108252927069
 30
0.0
 10
8.164527591335812
 20
29.97849191571717
 30
0.0
 10
8.046086401128903
 20
29.92214827688766
 30
0.0
 10
7.925420749131732
 20
29.87061653961267
 30
0.0
 10
7.803211305641369
 20
29.82292695032086
 30
0.0
 10
7.679762885155426
 20
29.77853846479656
 30
0.0
 10
7.555315742125927
 20
29.73704557527018
 30
0.0
 10
7.430047863784196
 20
29.69810090280668
 30
0.0
 10
7.304009259999489
 20
29.66173185537803
 30
0.0
 10
7.17737409705542
 20
29.62751142043643
 30
0.0
 10
7.050747314622143
 20
29.59327146558543
 30
0.0
 10
6.923985275570104
 20
29.55953171611879
 30
0.0
 10
6.797126515494213
 20
29.5261588978132
 30
0.0
 10
6.670156559917828
 20
29.49321111109884
 30
0.0
 10
6.543070964069742
 20
29.46071220089896
 30
0.0
 10
6.415858012642914
 20
29.42871516957736
 30
0.0
 10
6.330953977527955
 20
29.40776652577832
 30
0.0
 10
6.288474393114896
 20
29.39740506450745
 30
0.0
  0
SPLINE
  5
F9
330
1F
100
AcDbEntity
  8
2D DXF
370
    -3
100
AcDbSpline
210
0.0
220
0.0
230
1.0
 70
     8
 71
     3
 72
    34
 73
    30
 74
     0
 42
0.000000001
 43
0.0000000001
 40
-0.0000000000000071
 40
-0.0000000000000071
 40
-0.0000000000000071
 40
-0.0000000000000071
 40
0.9999999999999931
 40
1.999999999999993
 40
2.999999999999994
 40
3.999999999999994
 40
4.999999999999994
 40
5.999999999999995
 40
6.999999999999995
 40
7.999999999999995
 40
8.999999999999995
 40
9.999999999999995
 40
10.99999999999999
 40
12.0
 40
13.0
 40
14.0
 40
15.0
 40
16.0
 40
17.0
 40
18.0
 40
19.0
 40
20.0
 40
21.0
 40
22.0
 40
23.0
 40
24.0
 40
25.0
 40
26.0
 40
27.0
 40
27.0
 40
27.0
 40
27.0
 10
-6.292803955279794
 20
29.39740506450745
 30
0.0
 10
-6.335283539692853
 20
29.40776652577833
 30
0.0
 10
-6.420187574807812
 20
29.42871516957736
 30
0.0
 10
-6.54740052623464
 20
29.46071220089896
 30
0.0
 10
-6.674486122082726
 20
29.49321111109884
 30
0.0
 10
-6.801456077659111
 20
29.5261588978132
 30
0.0
 10
-6.928314837735002
 20
29.55953171611879
 30
0.0
 10
-7.055076876787041
 20
29.59327146558543
 30
0.0
 10
-7.181703659220318
 20
29.62751142043643
 30
0.0
 10
-7.308338822164387
 20
29.66173185537803
 30
0.0
 10
-7.434377425949094
 20
29.69810090280668
 30
0.0
 10
-7.559645304290825
 20
29.73704557527018
 30
0.0
 10
-7.684092447320324
 20
29.77853846479656
 30
0.0
 10
-7.807540867806267
 20
29.82292695032086
 30
0.0
 10
-7.92975031129663
 20
29.87061653961267
 30
0.0
 10
-8.050415963293801
 20
29.92214827688766
 30
0.0
 10
-8.16885715350071
 20
29.97849191571717
 30
0.0
 10
-8.284409187881124
 20
30.04108252927069
 30
0.0
 10
-8.393054426511299
 20
30.11393263892863
 30
0.0
 10
-8.492975202428624
 20
30.2027230421375
 30
0.0
 10
-8.536723666768012
 20
30.33199991912322
 30
0.0
 10
-8.489834339820732
 20
30.46146114559282
 30
0.0
 10
-8.40417741678101
 20
30.56226993366638
 30
0.0
 10
-8.285730729032196
 20
30.62369664382012
 30
0.0
 10
-8.157462595765594
 20
30.65316530157085
 30
0.0
 10
-8.026439115421056
 20
30.66339187159512
 30
0.0
 10
-7.895196151212986
 20
30.66126102371227
 30
0.0
 10
-7.764395540721409
 20
30.65072573753585
 30
0.0
 10
-7.664209978699887
 20
30.63766588785476
 30
0.0
 10
-7.620943445637238
 20
30.63135342460424
 30
0.0
  0
ARC
  5
FA
330
1F
100
AcDbEntity
  8
2D DXF
370
    -3
100
AcDbCircle
 10
0.4433393021095497
 20
53.37885140779477
 30
0.0
 40
24.68452967841714
210
0.0
220
0.0
230
-1.0
100
AcDbArc
 50
280.4309720934638
 51
283.7077083135502
  0
SPLINE
  5
FB
330
1F
100
AcDbEntity
  8
2D DXF
370
    -3
100
AcDbSpline
210
0.0
220
0.0
230
1.0
 70
    12
 71
     3
 72
     8
 73
     4
 74
     0
 42
0.000000001
 43
0.0000000001
 40
0.0
 40
0.0
 40
0.0
 40
0.0
 40
4.323967219719583
 40
4.323967219719583
 40
4.323967219719583
 40
4.323967219719583
 10
-3.060201795562196
 20
28.12194882779076
 30
0.0
 41
0.8566589076371499
 10
-2.040605410542474
 20
28.22861205702872
 30
0.0
 41
0.85665890763715
 10
-1.021662830017275
 20
28.33516785657135
 30
0.0
 41
0.85665890763715
 10
-0.0027202494921759
 20
28.44172365611398
 30
0.0
 41
0.8566589076371499
  0
SPLINE
  5
FC
330
1F
100
AcDbEntity
  8
2D DXF
370
    -3
100
AcDbSpline
210
0.0
220
0.0
230
1.0
 70
     8
 71
     2
 72
     7
 73
     4
 74
     0
 42
0.000000001
 43
0.0000000001
 40
-2.0
 40
-2.0
 40
-2.0
 40
-1.0
 40
0.0
 40
0.0
 40
0.0
 10
-3.217474456001867
 20
28.21968050650685
 30
0.0
 10
-3.191899845083526
 20
28.1779242577323
 30
0.0
 10
-3.111354425799377
 20
28.11886311620566
 30
0.0
 10
-3.060201795562179
 20
28.12194882779076
 30
0.0
  0
SPLINE
  5
FD
330
1F
100
AcDbEntity
  8
2D DXF
370
    -3
100
AcDbSpline
210
0.0
220
0.0
230
1.0
 70
    28
 71
     2
 72
     6
 73
     3
 74
     0
 42
0.000000001
 43
0.0000000001
 40
10.17314974777304
 40
10.17314974777304
 40
10.17314974777304
 40
11.2251296580876
 40
11.2251296580876
 40
11.2251296580876
 10
-4.028304252335583
 20
27.79193145447429
 30
0.0
 41
0.8560172248609055
 10
-4.146039396568578
 20
28.30387396993879
 30
0.0
 41
0.8560172248609056
 10
-4.263774540801573
 20
28.8158164854033
 30
0.0
 41
0.8560172248609057
  0
SPLINE
  5
FE
330
1F
100
AcDbEntity
  8
2D DXF
370
    -3
100
AcDbSpline
210
0.0
220
0.0
230
1.0
 70
     8
 71
     2
 72
     9
 73
     6
 74
     0
 42
0.000000001
 43
0.0000000001
 40
6.173149747773035
 40
6.173149747773035
 40
6.173149747773035
 40
7.173153238922044
 40
8.173156730071053
 40
9.173160221220064
 40
10.17314974777304
 40
10.17314974777304
 40
10.17314974777304
 10
-3.801816469457265
 20
27.55465757422922
 30
0.0
 10
-3.846066654401
 20
27.55883775073289
 30
0.0
 10
-3.922300088897543
 20
27.6038206000342
 30
0.0
 10
-3.980014863539338
 20
27.67025197524686
 30
0.0
 10
-4.018919239835213
 20
27.74902492939785
 30
0.0
 10
-4.028304252335602
 20
27.79193145447428
 30
0.0
  0
LINE
  5
FF
330
1F
100
AcDbEntity
  8
2D DXF
370
    -3
100
AcDbLine
 10
-3.362717129843077
 20
27.50964333845728
 30
0.0
 11
-3.801816469457265
 21
27.55465757422922
 31
0.0
  0
LINE
  5
100
330
1F
100
AcDbEntity
  8
2D DXF
370
    -3
100
AcDbLine
 10
-2.860002388430061
 20
27.55889655369451
 30
0.0
 11
-3.362717129843077
 21
27.50964333845728
 31
0.0
  0
SPLINE
  5
101
330
1F
100
AcDbEntity
  8
2D DXF
370
    -3
100
AcDbSpline
210
0.0
220
0.0
230
1.0
 70
     8
 71
     2
 72
     9
 73
     6
 74
     0
 42
0.000000001
 43
0.0000000001
 40
1.22662736504897
 40
1.22662736504897
 40
1.22662736504897
 40
2.22662736504897
 40
3.226627365048969
 40
4.226627365048969
 40
5.226627365048969
 40
5.226627365048969
 40
5.226627365048969
 10
-2.657269413906633
 20
27.76550322753994
 30
0.0
 10
-2.666080503255031
 20
27.72776003526951
 30
0.0
 10
-2.700502640483407
 20
27.65822531924599
 30
0.0
 10
-2.752518267648824
 20
27.60037406867937
 30
0.0
 10
-2.821142382493562
 20
27.56315673894812
 30
0.0
 10
-2.860002388430061
 20
27.55889655369451
 30
0.0
  0
SPLINE
  5
102
330
1F
100
AcDbEntity
  8
2D DXF
370
    -3
100
AcDbSpline
210
0.0
220
0.0
230
1.0
 70
    28
 71
     2
 72
     6
 73
     3
 74
     0
 42
0.000000001
 43
0.0000000001
 40
0.7984423683647881
 40
0.7984423683647881
 40
0.7984423683647881
 40
1.22662736504897
 40
1.22662736504897
 40
1.22662736504897
 10
-2.560076411346115
 20
28.17428843871309
 30
0.0
 41
0.8563898439284926
 10
-2.608672912626399
 20
27.96989583312651
 30
0.0
 41
0.8563898439284932
 10
-2.657269413906685
 20
27.76550322753992
 30
0.0
 41
0.8563898439284937
  0
SPLINE
  5
103
330
1F
100
AcDbEntity
  8
2D DXF
370
    -3
100
AcDbSpline
210
0.0
220
0.0
230
1.0
 70
    28
 71
     2
 72
     6
 73
     3
 74
     0
 42
0.000000001
 43
0.0000000001
 40
10.18033768239874
 40
10.18033768239874
 40
10.18033768239874
 40
10.59986979928274
 40
10.59986979928274
 40
10.59986979928274
 10
-4.028166631304135
 20
28.46429821791153
 30
0.0
 41
0.8563898439579778
 10
-4.075116209018955
 20
28.66176363177867
 30
0.0
 41
0.8563898439579778
 10
-4.122065786733776
 20
28.8592290456458
 30
0.0
 41
0.8563898439579779
  0
SPLINE
  5
104
330
1F
100
AcDbEntity
  8
2D DXF
370
    -3
100
AcDbSpline
210
0.0
220
0.0
230
1.0
 70
     8
 71
     2
 72
     9
 73
     6
 74
     0
 42
0.000000001
 43
0.0000000001
 40
6.180337682398743
 40
6.180337682398743
 40
6.180337682398743
 40
7.180442332011739
 40
8.180546981624735
 40
9.18065163123773
 40
10.18033768239874
 40
10.18033768239874
 40
10.18033768239874
 10
-3.825930429917491
 20
28.25740435640621
 30
0.0
 10
-3.864766424998777
 20
28.2617358093117
 30
0.0
 10
-3.932867907353057
 20
28.29966948707417
 30
0.0
 10
-3.985024744953989
 20
28.3572157266767
 30
0.0
 10
-4.019727390961236
 20
28.42650943297804
 30
0.0
 10
-4.028166631304202
 20
28.46429821791153
 30
0.0
  0
LINE
  5
105
330
1F
100
AcDbEntity
  8
2D DXF
370
    -3
100
AcDbLine
 10
-3.322715035761519
 20
28.2084211883885
 30
0.0
 11
-3.825930429917491
 21
28.25740435640621
 31
0.0
  0
LINE
  5
106
330
1F
100
AcDbEntity
  8
2D DXF
370
    -3
100
AcDbLine
 10
-2.882948786859728
 20
28.25349574002229
 30
0.0
 11
-3.322715035761519
 21
28.2084211883885
 31
0.0
  0
SPLINE
  5
107
330
1F
100
AcDbEntity
  8
2D DXF
370
    -3
100
AcDbSpline
210
0.0
220
0.0
230
1.0
 70
     8
 71
     2
 72
     9
 73
     6
 74
     0
 42
0.000000001
 43
0.0000000001
 40
1.232673681168818
 40
1.232673681168818
 40
1.232673681168818
 40
2.232671278259504
 40
3.232672079229276
 40
4.232672880199047
 40
5.232673681168818
 40
5.232673681168818
 40
5.232673681168818
 10
-2.65712811589178
 20
28.49070837948662
 30
0.0
 10
-2.666862602475291
 20
28.44801187109084
 30
0.0
 10
-2.705143334128067
 20
28.3691565036634
 30
0.0
 10
-2.762640421699572
 20
28.30275585624273
 30
0.0
 10
-2.838946748991461
 20
28.25834662976543
 30
0.0
 10
-2.882948786859728
 20
28.25349574002229
 30
0.0
  0
SPLINE
  5
108
330
1F
100
AcDbEntity
  8
2D DXF
370
    -3
100
AcDbSpline
210
0.0
220
0.0
230
1.0
 70
    28
 71
     2
 72
     6
 73
     3
 74
     0
 42
0.000000001
 43
0.0000000001
 40
0.6892278622060378
 40
0.6892278622060378
 40
0.6892278622060378
 40
1.232673681168818
 40
1.232673681168818
 40
1.232673681168818
 10
-2.535485659339229
 20
29.01964087320204
 30
0.0
 41
0.8560172248711451
 10
-2.5963068876155
 20
28.75517462634433
 30
0.0
 41
0.8560172248711454
 10
-2.657128115891772
 20
28.49070837948663
 30
0.0
 41
0.8560172248711457
  0
SPLINE
  5
109
330
1F
100
AcDbEntity
  8
2D DXF
370
    -3
100
AcDbSpline
210
0.0
220
0.0
230
1.0
 70
    28
 71
     2
 72
     6
 73
     3
 74
     0
 42
0.000000001
 43
0.0000000001
 40
4.610333950763096
 40
4.610333950763096
 40
4.610333950763096
 40
5.008596212091838
 40
5.008596212091838
 40
5.008596212091838
 10
-3.521257589566346
 20
27.84493808784846
 30
0.0
 41
1.0
 10
-3.551626045286952
 20
28.04023670092734
 30
0.0
 41
1.0
 10
-3.581994501007557
 20
28.23553531400621
 30
0.0
 41
1.0
  0
SPLINE
  5
10A
330
1F
100
AcDbEntity
  8
2D DXF
370
    -3
100
AcDbSpline
210
0.0
220
0.0
230
1.0
 70
     8
 71
     2
 72
     9
 73
     6
 74
     0
 42
0.000000001
 43
0.0000000001
 40
0.6103339507630958
 40
0.6103339507630958
 40
0.6103339507630958
 40
1.610333950763096
 40
2.610333950763096
 40
3.610333950763096
 40
4.610333950763096
 40
4.610333950763096
 40
4.610333950763096
 10
-3.322725247108792
 20
27.60406848423176
 30
0.0
 10
-3.3652159234843
 20
27.60851656864961
 30
0.0
 10
-3.434622602238392
 20
27.65737581922735
 30
0.0
 10
-3.483927671309402
 20
27.72547483299837
 30
0.0
 10
-3.514899940770817
 20
27.80347669960318
 30
0.0
 10
-3.521257589566346
 20
27.84493808784846
 30
0.0
  0
SPLINE
  5
10B
330
1F
100
AcDbEntity
  8
2D DXF
370
    -3
100
AcDbSpline
210
0.0
220
0.0
230
1.0
 70
    24
 71
     2
 72
     6
 73
     3
 74
     0
 42
0.000000001
 43
0.0000000001
 40
-0.0000000000000012
 40
-0.0000000000000012
 40
-0.0000000000000012
 40
0.6103339507630958
 40
0.6103339507630958
 40
0.6103339507630958
 10
-2.891058179286787
 20
27.55896701728705
 30
0.0
 10
-3.10689171319779
 20
27.5815177507594
 30
0.0
 10
-3.322725247108792
 20
27.60406848423176
 30
0.0
  0
SPLINE
  5
10C
330
1F
100
AcDbEntity
  8
2D DXF
370
    -3
100
AcDbSpline
210
0.0
220
0.0
230
1.0
 70
    24
 71
     2
 72
     6
 73
     3
 74
     0
 42
0.000000001
 43
0.0000000001
 40
4.003985166117586
 40
4.003985166117586
 40
4.003985166117586
 40
4.614319116880683
 40
4.614319116880683
 40
4.614319116880683
 10
-3.362706918496428
 20
28.30284634559487
 30
0.0
 10
-3.578540452407253
 20
28.28029561212079
 30
0.0
 10
-3.794373986318078
 20
28.2577448786467
 30
0.0
  0
SPLINE
  5
10D
330
1F
100
AcDbEntity
  8
2D DXF
370
    -3
100
AcDbSpline
210
0.0
220
0.0
230
1.0
 70
     8
 71
     2
 72
     9
 73
     6
 74
     0
 42
0.000000001
 43
0.0000000001
 40
0.0039851661175855
 40
0.0039851661175855
 40
0.0039851661175855
 40
1.003985166117586
 40
2.003985166117586
 40
3.003985166117586
 40
4.003985166117586
 40
4.003985166117586
 40
4.003985166117586
 10
-3.164174573360057
 20
28.54371594907778
 30
0.0
 10
-3.170898657988104
 20
28.50234840719632
 30
0.0
 10
-3.201469738219259
 20
28.42423437074697
 30
0.0
 10
-3.250505844591714
 20
28.35590672546078
 30
0.0
 10
-3.320385920218371
 20
28.3078503319787
 30
0.0
 10
-3.362706918496428
 20
28.30284634559487
 30
0.0
  0
SPLINE
  5
10E
330
1F
100
AcDbEntity
  8
2D DXF
370
    -3
100
AcDbSpline
210
0.0
220
0.0
230
1.0
 70
    28
 71
     2
 72
     6
 73
     3
 74
     0
 42
0.000000001
 43
0.0000000001
 40
-0.5528646837850709
 40
-0.5528646837850709
 40
-0.5528646837850709
 40
0.0039851661175855
 40
0.0039851661175855
 40
0.0039851661175855
 10
-3.07925228495297
 20
29.08984855514675
 30
0.0
 41
1.0
 10
-3.121713429156542
 20
28.81678225211227
 30
0.0
 41
1.0
 10
-3.164174573360113
 20
28.54371594907778
 30
0.0
 41
1.0
  0
SPLINE
  5
10F
330
1F
100
AcDbEntity
  8
2D DXF
370
    -3
100
AcDbSpline
210
0.0
220
0.0
230
1.0
 70
    24
 71
     2
 72
     6
 73
     3
 74
     0
 42
0.000000001
 43
0.0000000001
 40
0.000000000000001
 40
0.000000000000001
 40
0.000000000000001
 40
0.6103339507630969
 40
0.6103339507630969
 40
0.6103339507630969
 10
-2.891047967939855
 20
28.25352265533665
 30
0.0
 10
-3.106881501850687
 20
28.23097192186258
 30
0.0
 10
-3.322715035761519
 20
28.2084211883885
 30
0.0
  0
SPLINE
  5
110
330
1F
100
AcDbEntity
  8
2D DXF
370
    -3
100
AcDbSpline
210
0.0
220
0.0
230
1.0
 70
    12
 71
     2
 72
     6
 73
     3
 74
     0
 42
0.000000001
 43
0.0000000001
 40
0.0931404683516954
 40
0.0931404683516954
 40
0.0931404683516954
 40
0.1158637182037069
 40
0.1158637182037069
 40
0.1158637182037069
 10
-3.385343601865631
 20
27.51392188398583
 30
0.0
 41
0.8892833237614565
 10
-3.378459874551828
 20
27.51041444973204
 30
0.0
 41
0.9105152908287699
 10
-3.371030442124356
 20
27.50963820728419
 30
0.0
 41
0.9486969526683089
  0
SPLINE
  5
111
330
1F
100
AcDbEntity
  8
2D DXF
370
    -3
100
AcDbSpline
210
0.0
220
0.0
230
1.0
 70
     8
 71
     3
 72
     8
 73
     4
 74
     0
 42
0.000000001
 43
0.0000000001
 40
2.044911702315788
 40
2.044911702315788
 40
2.044911702315788
 40
2.044911702315788
 40
2.115874797478824
 40
2.115874797478824
 40
2.115874797478824
 40
2.115874797478824
 10
-2.694526113236222
 20
29.03474794506084
 30
0.0
 10
-2.690800543099201
 20
29.03742426281086
 30
0.0
 10
-2.688888350140175
 20
29.04026907613925
 30
0.0
 10
-2.688936785094242
 20
29.04329164674741
 30
0.0
  0
SPLINE
  5
112
330
1F
100
AcDbEntity
  8
2D DXF
370
    -3
100
AcDbSpline
210
0.0
220
0.0
230
1.0
 70
    28
 71
     3
 72
     8
 73
     4
 74
     0
 42
0.000000001
 43
0.0000000001
 40
1.99450461069922
 40
1.99450461069922
 40
1.99450461069922
 40
1.99450461069922
 40
5.584448213357721
 40
5.584448213357721
 40
5.584448213357721
 40
5.584448213357721
 10
-2.606126198421172
 20
28.71397432814975
 30
0.0
 41
0.8566589076371487
 10
-1.760156233211741
 20
28.62550711934442
 30
0.0
 41
0.8566589076371486
 10
-0.914186268002411
 20
28.53703991053914
 30
0.0
 41
0.8566589076371487
 10
-0.0682163027930141
 20
28.44857270173383
 30
0.0
 41
0.8566589076371488
  0
SPLINE
  5
113
330
1F
100
AcDbEntity
  8
2D DXF
370
    -3
100
AcDbSpline
210
0.0
220
0.0
230
1.0
 70
    28
 71
     3
 72
     8
 73
     4
 74
     0
 42
0.000000001
 43
0.0000000001
 40
0.1480224217458351
 40
0.1480224217458351
 40
0.1480224217458351
 40
0.1480224217458351
 40
0.8593290760227089
 40
0.8593290760227089
 40
0.8593290760227089
 40
0.8593290760227089
 10
-4.695891189195533
 20
28.23836759873208
 30
0.0
 41
0.8547228508968872
 10
-4.498220020880084
 20
28.19683273769587
 30
0.0
 41
0.8547228508968868
 10
-4.300548852565745
 20
28.15529787665988
 30
0.0
 41
0.854722850896887
 10
-4.102877684250019
 20
28.11376301562364
 30
0.0
 41
0.8547228508968873
  0
SPLINE
  5
114
330
1F
100
AcDbEntity
  8
2D DXF
370
    -3
100
AcDbSpline
210
0.0
220
0.0
230
1.0
 70
     8
 71
     3
 72
     8
 73
     4
 74
     0
 42
0.000000001
 43
0.0000000001
 40
2.705597747790026
 40
2.705597747790026
 40
2.705597747790026
 40
2.705597747790026
 40
2.723204868881017
 40
2.723204868881017
 40
2.723204868881017
 40
2.723204868881017
 10
-5.46218271969127
 20
29.66803166645009
 30
0.0
 10
-5.46554393714149
 20
29.66769159754617
 30
0.0
 10
-5.468903132009132
 20
29.66736165340298
 30
0.0
 10
-5.472260106338069
 20
29.66704172083209
 30
0.0
  0
SPLINE
  5
115
330
1F
100
AcDbEntity
  8
2D DXF
370
    -3
100
AcDbSpline
210
0.0
220
0.0
230
1.0
 70
    24
 71
     3
 72
    11
 73
     7
 74
     0
 42
0.000000001
 43
0.0000000001
 40
0.0
 40
0.0
 40
0.0
 40
0.0
 40
0.3276515494938902
 40
0.3276515494938902
 40
0.3276515494938902
 40
0.7499992541381634
 40
0.7499992541381634
 40
0.7499992541381634
 40
0.7499992541381634
 10
-0.0027211884758884
 20
28.44516688260533
 30
0.0
 10
-0.0027211884758884
 20
28.45619266447947
 30
0.0
 10
-0.0027211884758884
 20
28.494654944148
 30
0.0
 10
-0.0027211884758884
 20
28.56303093327341
 30
0.0
 10
-0.0027211884758884
 20
28.65338123113303
 30
0.0
 10
-0.0027211884758884
 20
28.77377566787831
 30
0.0
 10
-0.0027211884758884
 20
28.87658474987019
 30
0.0
  0
SPLINE
  5
116
330
1F
100
AcDbEntity
  8
2D DXF
370
    -3
100
AcDbSpline
210
0.0
220
0.0
230
1.0
 70
    12
 71
     3
 72
     8
 73
     4
 74
     0
 42
0.000000001
 43
0.0000000001
 40
0.0
 40
0.0
 40
0.0
 40
0.0
 40
4.323967219719583
 40
4.323967219719583
 40
4.323967219719583
 40
4.323967219719583
 10
3.054759418610376
 20
28.12194882779076
 30
0.0
 41
0.8566589076371499
 10
2.035163033590663
 20
28.22861205702872
 30
0.0
 41
0.85665890763715
 10
1.016220453065464
 20
28.33516785657135
 30
0.0
 41
0.85665890763715
 10
-0.0027221274597013
 20
28.44172365611398
 30
0.0
 41
0.8566589076371499
  0
SPLINE
  5
117
330
1F
100
AcDbEntity
  8
2D DXF
370
    -3
100
AcDbSpline
210
0.0
220
0.0
230
1.0
 70
     8
 71
     2
 72
     7
 73
     4
 74
     0
 42
0.000000001
 43
0.0000000001
 40
-2.0
 40
-2.0
 40
-2.0
 40
-1.0
 40
0.0
 40
0.0
 40
0.0
 10
3.212032079050019
 20
28.21968050650685
 30
0.0
 10
3.186457468131678
 20
28.1779242577323
 30
0.0
 10
3.1059120488476
 20
28.11886311620566
 30
0.0
 10
3.054759418610345
 20
28.12194882779076
 30
0.0
  0
SPLINE
  5
118
330
1F
100
AcDbEntity
  8
2D DXF
370
    -3
100
AcDbSpline
210
0.0
220
0.0
230
1.0
 70
    28
 71
     2
 72
     6
 73
     3
 74
     0
 42
0.000000001
 43
0.0000000001
 40
10.17314974777304
 40
10.17314974777304
 40
10.17314974777304
 40
11.2251296580876
 40
11.2251296580876
 40
11.2251296580876
 10
4.022861875383782
 20
27.79193145447429
 30
0.0
 41
0.8560172248609055
 10
4.140597019616768
 20
28.30387396993879
 30
0.0
 41
0.8560172248609056
 10
4.258332163849757
 20
28.8158164854033
 30
0.0
 41
0.8560172248609057
  0
SPLINE
  5
119
330
1F
100
AcDbEntity
  8
2D DXF
370
    -3
100
AcDbSpline
210
0.0
220
0.0
230
1.0
 70
     8
 71
     2
 72
     9
 73
     6
 74
     0
 42
0.000000001
 43
0.0000000001
 40
6.173149747773035
 40
6.173149747773035
 40
6.173149747773035
 40
7.173153238922044
 40
8.173156730071053
 40
9.173160221220064
 40
10.17314974777304
 40
10.17314974777304
 40
10.17314974777304
 10
3.796374092505417
 20
27.55465757422922
 30
0.0
 10
3.840624277449152
 20
27.55883775073289
 30
0.0
 10
3.916857711945696
 20
27.6038206000342
 30
0.0
 10
3.974572486587547
 20
27.67025197524686
 30
0.0
 10
4.013476862883365
 20
27.74902492939785
 30
0.0
 10
4.022861875383754
 20
27.79193145447428
 30
0.0
  0
LINE
  5
11A
330
1F
100
AcDbEntity
  8
2D DXF
370
    -3
100
AcDbLine
 10
3.357274752891229
 20
27.50964333845728
 30
0.0
 11
3.796374092505417
 21
27.55465757422922
 31
0.0
  0
LINE
  5
11B
330
1F
100
AcDbEntity
  8
2D DXF
370
    -3
100
AcDbLine
 10
2.854560011478284
 20
27.55889655369451
 30
0.0
 11
3.357274752891229
 21
27.50964333845728
 31
0.0
  0
SPLINE
  5
11C
330
1F
100
AcDbEntity
  8
2D DXF
370
    -3
100
AcDbSpline
210
0.0
220
0.0
230
1.0
 70
     8
 71
     2
 72
     9
 73
     6
 74
     0
 42
0.000000001
 43
0.0000000001
 40
1.22662736504897
 40
1.22662736504897
 40
1.22662736504897
 40
2.22662736504897
 40
3.226627365048969
 40
4.226627365048969
 40
5.226627365048969
 40
5.226627365048969
 40
5.226627365048969
 10
2.651827036954856
 20
27.76550322753994
 30
0.0
 10
2.660638126303255
 20
27.72776003526951
 30
0.0
 10
2.69506026353163
 20
27.65822531924599
 30
0.0
 10
2.747075890697047
 20
27.60037406867937
 30
0.0
 10
2.815700005541785
 20
27.56315673894812
 30
0.0
 10
2.854560011478284
 20
27.55889655369451
 30
0.0
  0
SPLINE
  5
11D
330
1F
100
AcDbEntity
  8
2D DXF
370
    -3
100
AcDbSpline
210
0.0
220
0.0
230
1.0
 70
    28
 71
     2
 72
     6
 73
     3
 74
     0
 42
0.000000001
 43
0.0000000001
 40
0.7984423683647881
 40
0.7984423683647881
 40
0.7984423683647881
 40
1.22662736504897
 40
1.22662736504897
 40
1.22662736504897
 10
2.554634034394321
 20
28.17428843871309
 30
0.0
 41
0.8563898439284926
 10
2.603230535674573
 20
27.96989583312651
 30
0.0
 41
0.8563898439284932
 10
2.651827036954824
 20
27.76550322753992
 30
0.0
 41
0.8563898439284937
  0
SPLINE
  5
11E
330
1F
100
AcDbEntity
  8
2D DXF
370
    -3
100
AcDbSpline
210
0.0
220
0.0
230
1.0
 70
    28
 71
     2
 72
     6
 73
     3
 74
     0
 42
0.000000001
 43
0.0000000001
 40
10.18033768239874
 40
10.18033768239874
 40
10.18033768239874
 40
10.59986979928274
 40
10.59986979928274
 40
10.59986979928274
 10
4.022724254352338
 20
28.46429821791153
 30
0.0
 41
0.8563898439579778
 10
4.06967383206713
 20
28.66176363177867
 30
0.0
 41
0.8563898439579778
 10
4.116623409781921
 20
28.8592290456458
 30
0.0
 41
0.8563898439579779
  0
SPLINE
  5
11F
330
1F
100
AcDbEntity
  8
2D DXF
370
    -3
100
AcDbSpline
210
0.0
220
0.0
230
1.0
 70
     8
 71
     2
 72
     9
 73
     6
 74
     0
 42
0.000000001
 43
0.0000000001
 40
6.180337682398743
 40
6.180337682398743
 40
6.180337682398743
 40
7.180442332011739
 40
8.180546981624735
 40
9.18065163123773
 40
10.18033768239874
 40
10.18033768239874
 40
10.18033768239874
 10
3.8204880529657
 20
28.25740435640621
 30
0.0
 10
3.859324048046929
 20
28.2617358093117
 30
0.0
 10
3.927425530401209
 20
28.29966948707417
 30
0.0
 10
3.979582368002141
 20
28.3572157266767
 30
0.0
 10
4.014285014009388
 20
28.42650943297804
 30
0.0
 10
4.022724254352354
 20
28.46429821791153
 30
0.0
  0
LINE
  5
120
330
1F
100
AcDbEntity
  8
2D DXF
370
    -3
100
AcDbLine
 10
3.317272658809728
 20
28.2084211883885
 30
0.0
 11
3.8204880529657
 21
28.25740435640621
 31
0.0
  0
LINE
  5
121
330
1F
100
AcDbEntity
  8
2D DXF
370
    -3
100
AcDbLine
 10
2.877506409907951
 20
28.25349574002229
 30
0.0
 11
3.317272658809728
 21
28.2084211883885
 31
0.0
  0
SPLINE
  5
122
330
1F
100
AcDbEntity
  8
2D DXF
370
    -3
100
AcDbSpline
210
0.0
220
0.0
230
1.0
 70
     8
 71
     2
 72
     9
 73
     6
 74
     0
 42
0.000000001
 43
0.0000000001
 40
1.232673681168818
 40
1.232673681168818
 40
1.232673681168818
 40
2.232671278259504
 40
3.232672079229276
 40
4.232672880199047
 40
5.232673681168818
 40
5.232673681168818
 40
5.232673681168818
 10
2.651685738939946
 20
28.49070837948662
 30
0.0
 10
2.661420225523457
 20
28.44801187109084
 30
0.0
 10
2.699700957176233
 20
28.3691565036634
 30
0.0
 10
2.757198044747739
 20
28.30275585624273
 30
0.0
 10
2.833504372039627
 20
28.25834662976543
 30
0.0
 10
2.877506409907951
 20
28.25349574002229
 30
0.0
  0
SPLINE
  5
123
330
1F
100
AcDbEntity
  8
2D DXF
370
    -3
100
AcDbSpline
210
0.0
220
0.0
230
1.0
 70
    28
 71
     2
 72
     6
 73
     3
 74
     0
 42
0.000000001
 43
0.0000000001
 40
0.6892278622060378
 40
0.6892278622060378
 40
0.6892278622060378
 40
1.232673681168818
 40
1.232673681168818
 40
1.232673681168818
 10
2.530043282387394
 20
29.01964087320204
 30
0.0
 41
0.8560172248711451
 10
2.590864510663691
 20
28.75517462634433
 30
0.0
 41
0.8560172248711454
 10
2.651685738939987
 20
28.49070837948663
 30
0.0
 41
0.8560172248711457
  0
SPLINE
  5
124
330
1F
100
AcDbEntity
  8
2D DXF
370
    -3
100
AcDbSpline
210
0.0
220
0.0
230
1.0
 70
    28
 71
     2
 72
     6
 73
     3
 74
     0
 42
0.000000001
 43
0.0000000001
 40
4.610333950763096
 40
4.610333950763096
 40
4.610333950763096
 40
5.008596212091838
 40
5.008596212091838
 40
5.008596212091838
 10
3.515815212614555
 20
27.84493808784846
 30
0.0
 41
1.0
 10
3.546183668335132
 20
28.04023670092734
 30
0.0
 41
1.0
 10
3.576552124055709
 20
28.23553531400621
 30
0.0
 41
1.0
  0
SPLINE
  5
125
330
1F
100
AcDbEntity
  8
2D DXF
370
    -3
100
AcDbSpline
210
0.0
220
0.0
230
1.0
 70
     8
 71
     2
 72
     9
 73
     6
 74
     0
 42
0.000000001
 43
0.0000000001
 40
0.6103339507630958
 40
0.6103339507630958
 40
0.6103339507630958
 40
1.610333950763096
 40
2.610333950763096
 40
3.610333950763096
 40
4.610333950763096
 40
4.610333950763096
 40
4.610333950763096
 10
3.317282870156944
 20
27.60406848423176
 30
0.0
 10
3.359773546532452
 20
27.60851656864961
 30
0.0
 10
3.429180225286544
 20
27.65737581922735
 30
0.0
 10
3.478485294357611
 20
27.72547483299837
 30
0.0
 10
3.50945756381897
 20
27.80347669960318
 30
0.0
 10
3.515815212614555
 20
27.84493808784846
 30
0.0
  0
SPLINE
  5
126
330
1F
100
AcDbEntity
  8
2D DXF
370
    -3
100
AcDbSpline
210
0.0
220
0.0
230
1.0
 70
    24
 71
     2
 72
     6
 73
     3
 74
     0
 42
0.000000001
 43
0.0000000001
 40
-0.0000000000000012
 40
-0.0000000000000012
 40
-0.0000000000000012
 40
0.6103339507630958
 40
0.6103339507630958
 40
0.6103339507630958
 10
2.88561580233501
 20
27.55896701728705
 30
0.0
 10
3.101449336245977
 20
27.5815177507594
 30
0.0
 10
3.317282870156944
 20
27.60406848423176
 30
0.0
  0
SPLINE
  5
127
330
1F
100
AcDbEntity
  8
2D DXF
370
    -3
100
AcDbSpline
210
0.0
220
0.0
230
1.0
 70
    24
 71
     2
 72
     6
 73
     3
 74
     0
 42
0.000000001
 43
0.0000000001
 40
4.003985166117586
 40
4.003985166117586
 40
4.003985166117586
 40
4.614319116880683
 40
4.614319116880683
 40
4.614319116880683
 10
3.357264541544637
 20
28.30284634559487
 30
0.0
 10
3.573098075455462
 20
28.28029561212079
 30
0.0
 10
3.788931609366287
 20
28.2577448786467
 30
0.0
  0
SPLINE
  5
128
330
1F
100
AcDbEntity
  8
2D DXF
370
    -3
100
AcDbSpline
210
0.0
220
0.0
230
1.0
 70
     8
 71
     2
 72
     9
 73
     6
 74
     0
 42
0.000000001
 43
0.0000000001
 40
0.0039851661175855
 40
0.0039851661175855
 40
0.0039851661175855
 40
1.003985166117586
 40
2.003985166117586
 40
3.003985166117586
 40
4.003985166117586
 40
4.003985166117586
 40
4.003985166117586
 10
3.158732196408224
 20
28.54371594907778
 30
0.0
 10
3.165456281036327
 20
28.50234840719632
 30
0.0
 10
3.196027361267468
 20
28.42423437074697
 30
0.0
 10
3.245063467639866
 20
28.35590672546078
 30
0.0
 10
3.314943543266523
 20
28.3078503319787
 30
0.0
 10
3.357264541544637
 20
28.30284634559487
 30
0.0
  0
SPLINE
  5
129
330
1F
100
AcDbEntity
  8
2D DXF
370
    -3
100
AcDbSpline
210
0.0
220
0.0
230
1.0
 70
    28
 71
     2
 72
     6
 73
     3
 74
     0
 42
0.000000001
 43
0.0000000001
 40
-0.5528646837850709
 40
-0.5528646837850709
 40
-0.5528646837850709
 40
0.0039851661175855
 40
0.0039851661175855
 40
0.0039851661175855
 10
3.07380990800108
 20
29.08984855514675
 30
0.0
 41
1.0
 10
3.116271052204623
 20
28.81678225211227
 30
0.0
 41
1.0
 10
3.158732196408165
 20
28.54371594907778
 30
0.0
 41
1.0
  0
SPLINE
  5
12A
330
1F
100
AcDbEntity
  8
2D DXF
370
    -3
100
AcDbSpline
210
0.0
220
0.0
230
1.0
 70
    24
 71
     2
 72
     6
 73
     3
 74
     0
 42
0.000000001
 43
0.0000000001
 40
0.000000000000001
 40
0.000000000000001
 40
0.000000000000001
 40
0.6103339507630969
 40
0.6103339507630969
 40
0.6103339507630969
 10
2.885605590988078
 20
28.25352265533665
 30
0.0
 10
3.101439124898903
 20
28.23097192186258
 30
0.0
 10
3.317272658809728
 20
28.2084211883885
 30
0.0
  0
SPLINE
  5
12B
330
1F
100
AcDbEntity
  8
2D DXF
370
    -3
100
AcDbSpline
210
0.0
220
0.0
230
1.0
 70
    12
 71
     2
 72
     6
 73
     3
 74
     0
 42
0.000000001
 43
0.0000000001
 40
0.0931404683516954
 40
0.0931404683516954
 40
0.0931404683516954
 40
0.1158637182037069
 40
0.1158637182037069
 40
0.1158637182037069
 10
3.379901224913868
 20
27.51392188398583
 30
0.0
 41
0.8892833237614565
 10
3.373017497600034
 20
27.51041444973204
 30
0.0
 41
0.9105152908287699
 10
3.3655880651725
 20
27.50963820728419
 30
0.0
 41
0.9486969526683089
  0
SPLINE
  5
12C
330
1F
100
AcDbEntity
  8
2D DXF
370
    -3
100
AcDbSpline
210
0.0
220
0.0
230
1.0
 70
     8
 71
     3
 72
     8
 73
     4
 74
     0
 42
0.000000001
 43
0.0000000001
 40
2.044911702315788
 40
2.044911702315788
 40
2.044911702315788
 40
2.044911702315788
 40
2.115874797478824
 40
2.115874797478824
 40
2.115874797478824
 40
2.115874797478824
 10
2.689083736284445
 20
29.03474794506084
 30
0.0
 10
2.685358166147367
 20
29.03742426281086
 30
0.0
 10
2.683445973188341
 20
29.04026907613925
 30
0.0
 10
2.683494408142408
 20
29.04329164674741
 30
0.0
  0
SPLINE
  5
12D
330
1F
100
AcDbEntity
  8
2D DXF
370
    -3
100
AcDbSpline
210
0.0
220
0.0
230
1.0
 70
    28
 71
     3
 72
     8
 73
     4
 74
     0
 42
0.000000001
 43
0.0000000001
 40
1.99450461069922
 40
1.99450461069922
 40
1.99450461069922
 40
1.99450461069922
 40
5.584448213357721
 40
5.584448213357721
 40
5.584448213357721
 40
5.584448213357721
 10
2.600683821469377
 20
28.71397432814975
 30
0.0
 41
0.8566589076371487
 10
1.754713856259914
 20
28.62550711934442
 30
0.0
 41
0.8566589076371486
 10
0.9087438910505501
 20
28.53703991053914
 30
0.0
 41
0.8566589076371487
 10
0.062773925841253
 20
28.44857270173383
 30
0.0
 41
0.8566589076371488
  0
SPLINE
  5
12E
330
1F
100
AcDbEntity
  8
2D DXF
370
    -3
100
AcDbSpline
210
0.0
220
0.0
230
1.0
 70
    28
 71
     3
 72
     8
 73
     4
 74
     0
 42
0.000000001
 43
0.0000000001
 40
0.1480224217458351
 40
0.1480224217458351
 40
0.1480224217458351
 40
0.1480224217458351
 40
0.8593290760227089
 40
0.8593290760227089
 40
0.8593290760227089
 40
0.8593290760227089
 10
4.69044881224373
 20
28.23836759873208
 30
0.0
 41
0.8547228508968872
 10
4.492777643928305
 20
28.19683273769587
 30
0.0
 41
0.8547228508968868
 10
4.295106475613883
 20
28.15529787665988
 30
0.0
 41
0.854722850896887
 10
4.097435307298189
 20
28.11376301562364
 30
0.0
 41
0.8547228508968873
  0
SPLINE
  5
12F
330
1F
100
AcDbEntity
  8
2D DXF
370
    -3
100
AcDbSpline
210
0.0
220
0.0
230
1.0
 70
     8
 71
     3
 72
     8
 73
     4
 74
     0
 42
0.000000001
 43
0.0000000001
 40
2.705597747790026
 40
2.705597747790026
 40
2.705597747790026
 40
2.705597747790026
 40
2.723204868881017
 40
2.723204868881017
 40
2.723204868881017
 40
2.723204868881017
 10
5.456740342739423
 20
29.66803166645009
 30
0.0
 10
5.460101560189642
 20
29.66769159754617
 30
0.0
 10
5.463460755057341
 20
29.66736165340298
 30
0.0
 10
5.466817729386278
 20
29.66704172083209
 30
0.0
  0
SPLINE
  5
130
330
1F
100
AcDbEntity
  8
2D DXF
370
    -3
100
AcDbSpline
210
0.0
220
0.0
230
1.0
 70
     8
 71
     3
 72
    29
 73
    25
 74
     0
 42
0.000000001
 43
0.0000000001
 40
0.0
 40
0.0
 40
0.0
 40
0.0
 40
1.0
 40
2.0
 40
3.0
 40
4.0
 40
5.0
 40
6.0
 40
7.0
 40
8.0
 40
9.0
 40
10.0
 40
11.0
 40
12.0
 40
13.0
 40
14.0
 40
15.0
 40
16.0
 40
17.0
 40
18.0
 40
19.0
 40
20.0
 40
21.0
 40
22.0
 40
22.0
 40
22.0
 40
22.0
 10
-0.0021647810824419
 20
28.88014008407702
 30
0.0
 10
-0.1353967820343058
 20
28.88013830089575
 30
0.0
 10
-0.3998837332830902
 20
28.88205628037458
 30
0.0
 10
-0.796525484445894
 20
28.89098464628516
 30
0.0
 10
-1.192970091900506
 20
28.90640147985988
 30
0.0
 10
-1.589078254907676
 20
28.92890821585342
 30
0.0
 10
-1.98467294947811
 20
28.95918294314523
 30
0.0
 10
-2.379511877482898
 20
28.99813473521723
 30
0.0
 10
-2.773314560394269
 20
29.04649777507029
 30
0.0
 10
-3.165725437902765
 20
29.10511759899006
 30
0.0
 10
-3.556386228463225
 20
29.17446898869028
 30
0.0
 10
-3.944926437064225
 20
29.25486552995129
 30
0.0
 10
-4.331089979862327
 20
29.34595896805494
 30
0.0
 10
-4.714964504578063
 20
29.44622951374285
 30
0.0
 10
-5.096684432021277
 20
29.55439651848485
 30
0.0
 10
-5.476226291097419
 20
29.66996533441775
 30
0.0
 10
-5.853607952204243
 20
29.79239830347491
 30
0.0
 10
-6.22874472662636
 20
29.92156543930261
 30
0.0
 10
-6.604538821103006
 20
30.0485537523001
 30
0.0
 10
-6.983087199179977
 20
30.16819139882571
 30
0.0
 10
-7.364175220964626
 20
30.27547859520859
 30
0.0
 10
-7.753759468599753
 20
30.36699843695602
 30
0.0
 10
-8.136445621555652
 20
30.41507411610487
 30
0.0
 10
-8.429915493373528
 20
30.41906138742976
 30
0.0
 10
-8.50116552400823
 20
30.29729612936333
 30
0.0
  0
SPLINE
  5
131
330
1F
100
AcDbEntity
  8
2D DXF
370
    -3
100
AcDbSpline
210
0.0
220
0.0
230
1.0
 70
     8
 71
     3
 72
    29
 73
    25
 74
     0
 42
0.000000001
 43
0.0000000001
 40
-22.0
 40
-22.0
 40
-22.0
 40
-22.0
 40
-21.0
 40
-20.0
 40
-19.0
 40
-18.0
 40
-17.0
 40
-16.0
 40
-15.0
 40
-14.0
 40
-13.0
 40
-12.0
 40
-11.0
 40
-10.0
 40
-9.0
 40
-8.0
 40
-7.0
 40
-6.0
 40
-5.0
 40
-4.0
 40
-3.0
 40
-2.0
 40
-1.0
 40
0.0
 40
0.0
 40
0.0
 40
0.0
 10
8.496835961843331
 20
30.29729612936333
 30
0.0
 10
8.42558593120863
 20
30.41906138742976
 30
0.0
 10
8.132116059390754
 20
30.41507411610487
 30
0.0
 10
7.749429906434855
 20
30.36699843695602
 30
0.0
 10
7.359845658799728
 20
30.27547859520859
 30
0.0
 10
6.978757637015079
 20
30.16819139882571
 30
0.0
 10
6.600209258938108
 20
30.0485537523001
 30
0.0
 10
6.224415164461462
 20
29.92156543930261
 30
0.0
 10
5.849278390039345
 20
29.79239830347491
 30
0.0
 10
5.471896728932521
 20
29.66996533441775
 30
0.0
 10
5.092354869856379
 20
29.55439651848485
 30
0.0
 10
4.710634942413165
 20
29.44622951374285
 30
0.0
 10
4.326760417697429
 20
29.34595896805494
 30
0.0
 10
3.940596874899327
 20
29.25486552995129
 30
0.0
 10
3.552056666298327
 20
29.17446898869028
 30
0.0
 10
3.161395875737881
 20
29.10511759899006
 30
0.0
 10
2.768984998229385
 20
29.04649777507029
 30
0.0
 10
2.375182315318014
 20
28.99813473521723
 30
0.0
 10
1.980343387313226
 20
28.95918294314523
 30
0.0
 10
1.584748692742792
 20
28.92890821585342
 30
0.0
 10
1.188640529735622
 20
28.90640147985988
 30
0.0
 10
0.7921959222810102
 20
28.89098464628516
 30
0.0
 10
0.3955541711182065
 20
28.88205628037458
 30
0.0
 10
0.131067219869422
 20
28.88013830089575
 30
0.0
 10
-0.0021647810824419
 20
28.88014008407702
 30
0.0
  0
SPLINE
  5
132
330
1F
100
AcDbEntity
  8
2D DXF
370
    -3
100
AcDbSpline
210
0.0
220
0.0
230
1.0
 70
     8
 71
     3
 72
    16
 73
    12
 74
     0
 42
0.000000001
 43
0.0000000001
 40
37.0
 40
37.0
 40
37.0
 40
37.0
 40
38.0
 40
39.0
 40
40.0
 40
41.0
 40
42.0
 40
43.0
 40
44.0
 40
45.0
 40
46.0
 40
46.0
 40
46.0
 40
46.0
 10
11.06269679439687
 20
39.52959685693287
 30
0.0
 10
11.00537299563418
 20
38.9575609998487
 30
0.0
 10
10.84815414105312
 20
37.81525397059511
 30
0.0
 10
10.39378735265895
 20
36.14928709727148
 30
0.0
 10
9.588441068532475
 20
34.5930584663807
 30
0.0
 10
8.298713757124816
 20
33.42350017677465
 30
0.0
 10
6.770793284240554
 20
32.60056660039728
 30
0.0
 10
5.135701967457194
 20
32.03796546702868
 30
0.0
 10
3.442734793520415
 20
31.68996381233164
 30
0.0
 10
1.72671044495759
 20
31.49693040583799
 30
0.0
 10
0.5760327812524935
 20
31.46028048725136
 30
0.0
 10
0.0000000000000142
 20
31.4600097869442
 30
0.0
  0
SPLINE
  5
133
330
1F
100
AcDbEntity
  8
2D DXF
370
    -3
100
AcDbSpline
210
0.0
220
0.0
230
1.0
 70
     8
 71
     3
 72
     8
 73
     4
 74
     0
 42
0.000000001
 43
0.0000000001
 40
36.0
 40
36.0
 40
36.0
 40
36.0
 40
37.0
 40
37.0
 40
37.0
 40
37.0
 10
10.65385761749248
 20
40.21325130868745
 30
0.0
 10
10.99036266717287
 20
40.26801829850783
 30
0.0
 10
11.13673581440663
 20
40.26843439357801
 30
0.0
 10
11.06269679439687
 20
39.52959685693287
 30
0.0
  0
SPLINE
  5
134
330
1F
100
AcDbEntity
  8
2D DXF
370
    -3
100
AcDbSpline
210
0.0
220
0.0
230
1.0
 70
     8
 71
     3
 72
    20
 73
    16
 74
     0
 42
0.000000001
 43
0.0000000001
 40
23.0
 40
23.0
 40
23.0
 40
23.0
 40
24.0
 40
25.0
 40
26.0
 40
27.0
 40
28.0
 40
29.0
 40
30.0
 40
31.0
 40
32.0
 40
33.0
 40
34.0
 40
35.0
 40
36.0
 40
36.0
 40
36.0
 40
36.0
 10
0.0000000000000142
 20
42.7573708206896
 30
0.0
 10
0.2888989068218422
 20
42.75736639187755
 30
0.0
 10
0.8667351209386567
 20
42.75226077745519
 30
0.0
 10
1.73284622362975
 20
42.71588636917072
 30
0.0
 10
2.596263525845657
 20
42.63555540829334
 30
0.0
 10
3.451631599364944
 20
42.4915917500299
 30
0.0
 10
4.290282842987054
 20
42.26698810702854
 30
0.0
 10
5.093280476530893
 20
41.93700102152708
 30
0.0
 10
5.863462922475108
 20
41.53839788126389
 30
0.0
 10
6.610004810118724
 20
41.09809778431116
 30
0.0
 10
7.350881751047567
 20
40.64742501177834
 30
0.0
 10
8.102600646658644
 20
40.2192923932202
 30
0.0
 10
8.936071532603094
 20
39.9262893599136
 30
0.0
 10
9.809968840121613
 20
40.02582217824998
 30
0.0
 10
10.36813740172353
 20
40.16674967026224
 30
0.0
 10
10.65385761749248
 20
40.21325130868745
 30
0.0
  0
SPLINE
  5
135
330
1F
100
AcDbEntity
  8
2D DXF
370
    -3
100
AcDbSpline
210
0.0
220
0.0
230
1.0
 70
     8
 71
     3
 72
    20
 73
    16
 74
     0
 42
0.000000001
 43
0.0000000001
 40
10.0
 40
10.0
 40
10.0
 40
10.0
 40
11.0
 40
12.0
 40
13.0
 40
14.0
 40
15.0
 40
16.0
 40
17.0
 40
18.0
 40
19.0
 40
20.0
 40
21.0
 40
22.0
 40
23.0
 40
23.0
 40
23.0
 40
23.0
 10
-10.65385761749246
 20
40.21325130868745
 30
0.0
 10
-10.36813740172352
 20
40.16674967026224
 30
0.0
 10
-9.809968840121599
 20
40.02582217824998
 30
0.0
 10
-8.93607153260308
 20
39.9262893599136
 30
0.0
 10
-8.10260064665863
 20
40.2192923932202
 30
0.0
 10
-7.350881751047552
 20
40.64742501177834
 30
0.0
 10
-6.61000481011871
 20
41.09809778431116
 30
0.0
 10
-5.863462922475094
 20
41.53839788126389
 30
0.0
 10
-5.093280476530879
 20
41.93700102152708
 30
0.0
 10
-4.29028284298704
 20
42.26698810702854
 30
0.0
 10
-3.45163159936493
 20
42.4915917500299
 30
0.0
 10
-2.596263525845629
 20
42.63555540829334
 30
0.0
 10
-1.732846223629721
 20
42.71588636917072
 30
0.0
 10
-0.8667351209386283
 20
42.75226077745519
 30
0.0
 10
-0.2888989068218137
 20
42.75736639187755
 30
0.0
 10
0.0000000000000142
 20
42.7573708206896
 30
0.0
  0
SPLINE
  5
136
330
1F
100
AcDbEntity
  8
2D DXF
370
    -3
100
AcDbSpline
210
0.0
220
0.0
230
1.0
 70
     8
 71
     3
 72
     8
 73
     4
 74
     0
 42
0.000000001
 43
0.0000000001
 40
9.0
 40
9.0
 40
9.0
 40
9.0
 40
10.0
 40
10.0
 40
10.0
 40
10.0
 10
-11.06269679439686
 20
39.52959685693287
 30
0.0
 10
-11.13673581440662
 20
40.26843439357801
 30
0.0
 10
-10.99036266717286
 20
40.26801829850783
 30
0.0
 10
-10.65385761749246
 20
40.21325130868745
 30
0.0
  0
SPLINE
  5
137
330
1F
100
AcDbEntity
  8
2D DXF
370
    -3
100
AcDbSpline
210
0.0
220
0.0
230
1.0
 70
     8
 71
     3
 72
    16
 73
    12
 74
     0
 42
0.000000001
 43
0.0000000001
 40
0.0
 40
0.0
 40
0.0
 40
0.0
 40
1.0
 40
2.0
 40
3.0
 40
4.0
 40
5.0
 40
6.0
 40
7.0
 40
8.0
 40
9.0
 40
9.0
 40
9.0
 40
9.0
 10
0.0000000000000142
 20
31.4600097869442
 30
0.0
 10
-0.576032781252465
 20
31.46028048725136
 30
0.0
 10
-1.726710444957561
 20
31.49693040583799
 30
0.0
 10
-3.442734793520401
 20
31.68996381233164
 30
0.0
 10
-5.13570196745718
 20
32.03796546702868
 30
0.0
 10
-6.77079328424054
 20
32.60056660039728
 30
0.0
 10
-8.298713757124801
 20
33.42350017677465
 30
0.0
 10
-9.588441068532461
 20
34.5930584663807
 30
0.0
 10
-10.39378735265893
 20
36.14928709727148
 30
0.0
 10
-10.8481541410531
 20
37.81525397059511
 30
0.0
 10
-11.00537299563416
 20
38.9575609998487
 30
0.0
 10
-11.06269679439686
 20
39.52959685693287
 30
0.0
  0
SPLINE
  5
138
330
1F
100
AcDbEntity
  8
2D DXF
370
    -3
100
AcDbSpline
210
0.0
220
0.0
230
1.0
 70
    28
 71
     3
 72
    11
 73
     7
 74
     0
 42
0.000000001
 43
0.0000000001
 40
8.894198103952213
 40
8.894198103952213
 40
8.894198103952213
 40
8.894198103952213
 40
10.78612243234828
 40
10.78612243234828
 40
10.78612243234828
 40
12.71201355822138
 40
12.71201355822138
 40
12.71201355822138
 40
12.71201355822138
 10
-8.937752501042212
 20
13.15900172168928
 30
0.0
 41
1.0
 10
-8.937482133558465
 20
13.15900172168928
 30
0.0
 41
0.9999999999999996
 10
-8.817477469081666
 20
13.15900172168928
 30
0.0
 41
1.0
 10
-8.586707427046974
 20
13.15900172168928
 30
0.0
 41
1.0
 10
-8.352014349974354
 20
13.15900172168928
 30
0.0
 41
1.0
 10
-8.002757915668996
 20
13.15900172168928
 30
0.0
 41
0.9999999999999998
 10
-7.564353481860893
 20
13.15900172168928
 30
0.0
 41
0.9999999999999998
  0
SPLINE
  5
139
330
1F
100
AcDbEntity
  8
2D DXF
370
    -3
100
AcDbSpline
210
0.0
220
0.0
230
1.0
 70
    12
 71
     2
 72
     8
 73
     5
 74
     0
 42
0.000000001
 43
0.0000000001
 40
7.904596418071428
 40
7.904596418071428
 40
7.904596418071428
 40
8.399397515293096
 40
8.399397515293096
 40
8.894198103952213
 40
8.894198103952213
 40
8.894198103952213
 10
-8.93775204317518
 20
12.52900172168927
 30
0.0
 41
1.0
 10
-9.25275204317517
 20
12.52900172168927
 30
0.0
 41
0.7071067811865476
 10
-9.252752043175178
 20
12.84400172168928
 30
0.0
 41
1.0
 10
-9.25275204317515
 20
13.15900126382255
 30
0.0
 41
0.7071070822257394
 10
-8.937752501042224
 20
13.15900172168928
 30
0.0
 41
0.9999993979222352
  0
SPLINE
  5
13A
330
1F
100
AcDbEntity
  8
2D DXF
370
    -3
100
AcDbSpline
210
0.0
220
0.0
230
1.0
 70
    28
 71
     3
 72
    11
 73
     7
 74
     0
 42
0.000000001
 43
0.0000000001
 40
4.219144922376998
 40
4.219144922376998
 40
4.219144922376998
 40
4.219144922376998
 40
6.008576315590144
 40
6.008576315590144
 40
6.008576315590144
 40
7.904596418071428
 40
7.904596418071428
 40
7.904596418071428
 40
7.904596418071428
 10
-7.655527812579907
 20
12.52900172168929
 30
0.0
 41
0.9999999999999998
 10
-8.051321443345943
 20
12.52900172168927
 30
0.0
 41
0.9999999999999998
 10
-8.368521615281054
 20
12.52900172168929
 30
0.0
 41
1.0
 10
-8.586707427046974
 20
12.52900172168927
 30
0.0
 41
1.0
 10
-8.818106444981993
 20
12.52900172168927
 30
0.0
 41
1.0
 10
-8.938135468785934
 20
12.52900172168927
 30
0.0
 41
0.9999999999999996
 10
-8.93775204317518
 20
12.52900172168927
 30
0.0
 41
1.0
  0
SPLINE
  5
13B
330
1F
100
AcDbEntity
  8
2D DXF
370
    -3
100
AcDbSpline
210
0.0
220
0.0
230
1.0
 70
    28
 71
     3
 72
    11
 73
     7
 74
     0
 42
0.000000001
 43
0.0000000001
 40
8.894198103952213
 40
8.894198103952213
 40
8.894198103952213
 40
8.894198103952213
 40
10.78612243234828
 40
10.78612243234828
 40
10.78612243234828
 40
12.71201355822138
 40
12.71201355822138
 40
12.71201355822138
 40
12.71201355822138
 10
8.93231012409042
 20
13.15900172168928
 30
0.0
 41
1.0
 10
8.932039756606645
 20
13.15900172168928
 30
0.0
 41
0.9999999999999996
 10
8.812035092129875
 20
13.15900172168928
 30
0.0
 41
1.0
 10
8.581265050095183
 20
13.15900172168928
 30
0.0
 41
1.0
 10
8.346571973022563
 20
13.15900172168928
 30
0.0
 41
1.0
 10
7.997315538717219
 20
13.15900172168928
 30
0.0
 41
0.9999999999999998
 10
7.558911104909059
 20
13.15900172168928
 30
0.0
 41
0.9999999999999998
  0
SPLINE
  5
13C
330
1F
100
AcDbEntity
  8
2D DXF
370
    -3
100
AcDbSpline
210
0.0
220
0.0
230
1.0
 70
    12
 71
     2
 72
     8
 73
     5
 74
     0
 42
0.000000001
 43
0.0000000001
 40
7.904596418071428
 40
7.904596418071428
 40
7.904596418071428
 40
8.399397515293096
 40
8.399397515293096
 40
8.894198103952213
 40
8.894198103952213
 40
8.894198103952213
 10
8.932309666223333
 20
12.52900172168927
 30
0.0
 41
1.0
 10
9.247309666223327
 20
12.52900172168927
 30
0.0
 41
0.7071067811865476
 10
9.24730966622333
 20
12.84400172168928
 30
0.0
 41
1.0
 10
9.247309666223348
 20
13.15900126382255
 30
0.0
 41
0.7071070822257394
 10
8.932310124090378
 20
13.15900172168928
 30
0.0
 41
0.9999993979222352
  0
SPLINE
  5
13D
330
1F
100
AcDbEntity
  8
2D DXF
370
    -3
100
AcDbSpline
210
0.0
220
0.0
230
1.0
 70
    28
 71
     3
 72
    11
 73
     7
 74
     0
 42
0.000000001
 43
0.0000000001
 40
4.219144922376998
 40
4.219144922376998
 40
4.219144922376998
 40
4.219144922376998
 40
6.008576315590144
 40
6.008576315590144
 40
6.008576315590144
 40
7.904596418071428
 40
7.904596418071428
 40
7.904596418071428
 40
7.904596418071428
 10
7.650085435628073
 20
12.52900172168929
 30
0.0
 41
0.9999999999999998
 10
8.045879066394166
 20
12.52900172168927
 30
0.0
 41
0.9999999999999998
 10
8.363079238329263
 20
12.52900172168929
 30
0.0
 41
1.0
 10
8.581265050095183
 20
12.52900172168927
 30
0.0
 41
1.0
 10
8.812664068030202
 20
12.52900172168927
 30
0.0
 41
1.0
 10
8.932693091834114
 20
12.52900172168927
 30
0.0
 41
0.9999999999999996
 10
8.932309666223333
 20
12.52900172168927
 30
0.0
 41
1.0
  0
LINE
  5
13E
330
1F
100
AcDbEntity
  8
2D DXF
370
    -3
100
AcDbLine
 10
-6.464379794037256
 20
27.45400187527742
 30
0.0
 11
-8.36157911599878
 21
13.1590017216893
 31
0.0
  0
SPLINE
  5
13F
330
1F
100
AcDbEntity
  8
2D DXF
370
    -3
100
AcDbSpline
210
0.0
220
0.0
230
1.0
 70
     8
 71
     2
 72
     9
 73
     6
 74
     0
 42
0.000000001
 43
0.0000000001
 40
0.0
 40
0.0
 40
0.0
 40
1.00000119212835
 40
2.0000023842567
 40
3.00000357638505
 40
4.0
 40
4.0
 40
4.0
 10
-5.066778286766521
 20
28.90787034018487
 30
0.0
 10
-5.343129248633318
 20
28.88918082571708
 30
0.0
 10
-5.837579058642007
 20
28.64074440691801
 30
0.0
 10
-6.20760453775415
 20
28.23102527068452
 30
0.0
 10
-6.428686596130717
 20
27.7267307374903
 30
0.0
 10
-6.464379794037256
 20
27.45400187527742
 30
0.0
  0
SPLINE
  5
140
330
1F
100
AcDbEntity
  8
2D DXF
370
    -3
100
AcDbSpline
210
0.0
220
0.0
230
1.0
 70
     8
 71
     2
 72
     9
 73
     6
 74
     0
 42
0.000000001
 43
0.0000000001
 40
13.40660984821153
 40
13.40660984821153
 40
13.40660984821153
 40
14.40660984821153
 40
15.40660984821153
 40
16.40660984821153
 40
17.40660984821153
 40
17.40660984821153
 40
17.40660984821153
 10
-5.84002151893003
 20
27.36986942013832
 30
0.0
 10
-5.823993848751741
 20
27.49155250686724
 30
0.0
 10
-5.749345417431925
 20
27.72289486051274
 30
0.0
 10
-5.629273900494809
 20
27.93449721975241
 30
0.0
 10
-5.462827075265352
 20
28.1125354789203
 30
0.0
 10
-5.358050292168741
 20
28.17502791265625
 30
0.0
  0
LINE
  5
141
330
1F
100
AcDbEntity
  8
2D DXF
370
    -3
100
AcDbLine
 10
-7.726054946923853
 20
13.1590017216893
 30
0.0
 11
-5.84002151893003
 21
27.36986942013832
 31
0.0
  0
LINE
  5
142
330
1F
100
AcDbEntity
  8
2D DXF
370
    -3
100
AcDbLine
 10
6.460050231872302
 20
27.45400187527742
 30
0.0
 11
8.357249553833825
 21
13.1590017216893
 31
0.0
  0
SPLINE
  5
143
330
1F
100
AcDbEntity
  8
2D DXF
370
    -3
100
AcDbSpline
210
0.0
220
0.0
230
1.0
 70
     8
 71
     2
 72
     9
 73
     6
 74
     0
 42
0.000000001
 43
0.0000000001
 40
0.0
 40
0.0
 40
0.0
 40
1.00000119212835
 40
2.0000023842567
 40
3.00000357638505
 40
4.0
 40
4.0
 40
4.0
 10
5.062448724601623
 20
28.90787034018487
 30
0.0
 10
5.33879968646842
 20
28.88918082571708
 30
0.0
 10
5.833249496477052
 20
28.64074440691801
 30
0.0
 10
6.203274975589252
 20
28.23102527068452
 30
0.0
 10
6.424357033965819
 20
27.7267307374903
 30
0.0
 10
6.460050231872302
 20
27.45400187527742
 30
0.0
  0
SPLINE
  5
144
330
1F
100
AcDbEntity
  8
2D DXF
370
    -3
100
AcDbSpline
210
0.0
220
0.0
230
1.0
 70
     8
 71
     2
 72
     9
 73
     6
 74
     0
 42
0.000000001
 43
0.0000000001
 40
13.40660984821153
 40
13.40660984821153
 40
13.40660984821153
 40
14.40660984821153
 40
15.40660984821153
 40
16.40660984821153
 40
17.40660984821153
 40
17.40660984821153
 40
17.40660984821153
 10
5.835691956765075
 20
27.36986942013832
 30
0.0
 10
5.819664286586786
 20
27.49155250686724
 30
0.0
 10
5.745015855267027
 20
27.72289486051274
 30
0.0
 10
5.624944338329854
 20
27.93449721975241
 30
0.0
 10
5.458497513100454
 20
28.1125354789203
 30
0.0
 10
5.353720730003786
 20
28.17502791265625
 30
0.0
  0
LINE
  5
145
330
1F
100
AcDbEntity
  8
2D DXF
370
    -3
100
AcDbLine
 10
7.721725384758955
 20
13.1590017216893
 30
0.0
 11
5.835691956765075
 21
27.36986942013832
 31
0.0
  0
LINE
  5
146
330
1F
100
AcDbEntity
  8
2D DXF
370
    -3
100
AcDbLine
 10
-6.928339991537825
 20
13.15900172168928
 30
0.0
 11
6.925046045748971
 21
13.15900172168938
 31
0.0
  0
LINE
  5
147
330
1F
100
AcDbEntity
  8
2D DXF
370
    -3
100
AcDbLine
 10
7.017605562082636
 20
12.52900172168912
 30
0.0
 11
-7.018799651846109
 21
12.52900172168927
 31
0.0
  0
LINE
  5
148
330
1F
100
AcDbEntity
  8
2D DXF
370
    -3
100
AcDbLine
 10
39.61306308363545
 20
13.15901463988427
 30
0.0
 11
24.11642762190003
 21
13.15901463988432
 31
0.0
  0
LINE
  5
149
330
1F
100
AcDbEntity
  8
2D DXF
370
    -3
100
AcDbLine
 10
23.9968446118818
 20
12.52901463988431
 30
0.0
 11
39.73872099795933
 21
12.52901463988426
 31
0.0
  0
SPLINE
  5
14A
330
1F
100
AcDbEntity
  8
2D DXF
370
    -3
100
AcDbSpline
210
0.0
220
0.0
230
1.0
 70
    28
 71
     3
 72
     8
 73
     4
 74
     0
 42
0.000000001
 43
0.0000000001
 40
8.894198103927184
 40
8.894198103927184
 40
8.894198103927184
 40
8.894198103927184
 40
10.30633328556356
 40
10.30633328556356
 40
10.30633328556356
 40
10.30633328556356
 10
40.45146146480677
 20
13.15901463988432
 30
0.0
 41
1.0
 10
40.45125985431144
 20
13.15901463988432
 30
0.0
 41
0.9999999999999999
 10
40.38447953814121
 20
13.15901463988432
 30
0.0
 41
1.0
 10
40.25483942406761
 20
13.15901463988432
 30
0.0
 41
1.0
  0
SPLINE
  5
14B
330
1F
100
AcDbEntity
  8
2D DXF
370
    -3
100
AcDbSpline
210
0.0
220
0.0
230
1.0
 70
    12
 71
     2
 72
     8
 73
     5
 74
     0
 42
0.000000001
 43
0.0000000001
 40
7.904596418046399
 40
7.904596418046399
 40
7.904596418046399
 40
8.399397515268385
 40
8.399397515268385
 40
8.894198103927184
 40
8.894198103927184
 40
8.894198103927184
 10
40.45146100693917
 20
12.52901463988433
 30
0.0
 41
1.0
 10
40.76646100693915
 20
12.52901463988433
 30
0.0
 41
0.7071067811865476
 10
40.76646100693917
 20
12.84401463988432
 30
0.0
 41
1.0
 10
40.76646100693912
 20
13.15901418201702
 30
0.0
 41
0.7071070822261153
 10
40.45146146480679
 20
13.15901463988433
 30
0.0
 41
0.9999993979214834
  0
SPLINE
  5
14C
330
1F
100
AcDbEntity
  8
2D DXF
370
    -3
100
AcDbSpline
210
0.0
220
0.0
230
1.0
 70
    28
 71
     3
 72
     8
 73
     4
 74
     0
 42
0.000000001
 43
0.0000000001
 40
7.056590117588028
 40
7.056590117588028
 40
7.056590117588028
 40
7.056590117588028
 40
7.904596418046399
 40
7.904596418046399
 40
7.904596418046399
 40
7.904596418046399
 10
40.38052332681043
 20
12.52901463988433
 30
0.0
 41
1.0
 10
40.42771693242135
 20
12.52901463988433
 30
0.0
 41
1.0
 10
40.45163249643458
 20
12.52901463988433
 30
0.0
 41
1.0
 10
40.45146100693913
 20
12.52901463988433
 30
0.0
 41
1.0
  0
SPLINE
  5
14D
330
1F
100
AcDbEntity
  8
2D DXF
370
    -3
100
AcDbSpline
210
0.0
220
0.0
230
1.0
 70
    28
 71
     3
 72
    11
 73
     7
 74
     0
 42
0.000000001
 43
0.0000000001
 40
8.894198103931968
 40
8.894198103931968
 40
8.894198103931968
 40
8.894198103931968
 40
10.78646256821504
 40
10.78646256821504
 40
10.78646256821504
 40
11.74197960070331
 40
11.74197960070331
 40
11.74197960070331
 40
11.74197960070331
 10
22.57546054286034
 20
12.52901463988433
 30
0.0
 41
1.0
 10
22.57573274283612
 20
12.52901463988432
 30
0.0
 41
0.9999999999999993
 10
22.6957433196476
 20
12.52901463988433
 30
0.0
 41
1.0
 10
22.9265075435431
 20
12.52901463988433
 30
0.0
 41
1.0
 10
23.04292621476469
 20
12.52901463988433
 30
0.0
 41
1.0
 10
23.18753302165357
 20
12.52901463988433
 30
0.0
 41
1.0
 10
23.35722784539115
 20
12.52901463988433
 30
0.0
 41
1.0
  0
SPLINE
  5
14E
330
1F
100
AcDbEntity
  8
2D DXF
370
    -3
100
AcDbSpline
210
0.0
220
0.0
230
1.0
 70
    12
 71
     2
 72
     8
 73
     5
 74
     0
 42
0.000000001
 43
0.0000000001
 40
7.904596418051183
 40
7.904596418051183
 40
7.904596418051183
 40
8.399397518722592
 40
8.399397518722592
 40
8.894198103931968
 40
8.894198103931968
 40
8.894198103931968
 10
22.57546100693914
 20
13.15901463988432
 30
0.0
 41
1.0
 10
22.26046100693915
 20
13.15901463988433
 30
0.0
 41
0.7071067811865476
 10
22.26046100693914
 20
12.84401463988432
 30
0.0
 41
1.0
 10
22.2604610069391
 20
12.52901510396276
 30
0.0
 41
0.7071070863098269
 10
22.57546054286031
 20
12.52901463988433
 30
0.0
 41
0.9999993897540771
  0
SPLINE
  5
14F
330
1F
100
AcDbEntity
  8
2D DXF
370
    -3
100
AcDbSpline
210
0.0
220
0.0
230
1.0
 70
    28
 71
     3
 72
    11
 73
     7
 74
     0
 42
0.000000001
 43
0.0000000001
 40
4.839909784072178
 40
4.839909784072178
 40
4.839909784072178
 40
4.839909784072178
 40
6.008571652835871
 40
6.008571652835871
 40
6.008571652835871
 40
7.904596418051183
 40
7.904596418051183
 40
7.904596418051183
 40
7.904596418051183
 10
23.47499962390356
 20
13.15901463988432
 30
0.0
 41
1.0
 10
23.2537285962207
 20
13.15901463988432
 30
0.0
 41
1.0
 10
23.06900297779928
 20
13.15901463988432
 30
0.0
 41
1.0
 10
22.92650754354311
 20
13.15901463988432
 30
0.0
 41
1.0
 10
22.69511011858398
 20
13.15901463988432
 30
0.0
 41
0.9999999999999996
 10
22.5750749752793
 20
13.15901463988433
 30
0.0
 41
0.9999999999999989
 10
22.57546100693914
 20
13.15901463988432
 30
0.0
 41
0.9999999999999998
  0
SPLINE
  5
150
330
1F
100
AcDbEntity
  8
2D DXF
370
    -3
100
AcDbSpline
210
0.0
220
0.0
230
1.0
 70
    12
 71
     2
 72
    14
 73
    11
 74
     0
 42
0.000000001
 43
0.0000000001
 40
-2.543248997901554
 40
-2.543248997901554
 40
-2.543248997901554
 40
15.86212548702655
 40
15.86212548702655
 40
16.15878608118745
 40
16.15878608118745
 40
16.65358692412784
 40
16.65358692412784
 40
16.85172717290732
 40
16.85172717290732
 40
35.65265491931671
 40
35.65265491931671
 40
35.65265491931671
 10
6.240601134560237
 20
53.82646890801681
 30
0.0
 41
1.0
 10
7.553286261661029
 20
52.0447948791281
 30
0.0
 41
1.0
 10
8.865971388761821
 20
50.26312085023942
 30
0.0
 41
1.0
 10
8.959238397160412
 20
50.13653191951617
 30
0.0
 41
0.959312644697843
 10
9.119572631516547
 20
50.1410516579304
 30
0.0
 41
1.163657621591529
 10
9.431351573742049
 20
50.14984054364515
 30
0.0
 41
0.8228301952067796
 10
9.431351573742159
 20
50.45875568767185
 30
0.0
 41
1.163657621591529
 10
9.431351573742186
 20
50.55784964662963
 30
0.0
 41
1.027175172100473
 10
9.373173874271176
 20
50.63681275367477
 30
0.0
 41
1.000000000000003
 10
8.032277591578412
 20
52.45677706422004
 30
0.0
 41
1.000000000000003
 10
6.691381308885591
 20
54.27674137476533
 30
0.0
 41
1.000000000000003
  0
SPLINE
  5
151
330
1F
100
AcDbEntity
  8
2D DXF
370
    -3
100
AcDbSpline
210
0.0
220
0.0
230
1.0
 70
    12
 71
     2
 72
    14
 73
    11
 74
     0
 42
0.000000001
 43
0.0000000001
 40
5.342103148820415
 40
5.342103148820415
 40
5.342103148820415
 40
15.20881904819654
 40
15.20881904819654
 40
15.37609038491709
 40
15.37609038491709
 40
15.87089122785749
 40
15.87089122785749
 40
16.19842073407742
 40
16.19842073407742
 40
25.29276341915607
 40
25.29276341915607
 40
25.29276341915607
 10
8.72285988163658
 20
69.54865534624321
 30
0.0
 41
1.0
 10
9.36110049088991
 20
70.4523029031668
 30
0.0
 41
1.0
 10
9.99934110014324
 20
71.35595046009044
 30
0.0
 41
1.0
 10
10.04632736838015
 20
71.42247556972086
 30
0.0
 41
1.036907317030591
 10
10.05329339326497
 20
71.50415232361104
 30
0.0
 41
1.150859520743275
 10
10.07954927133972
 20
71.81200291661541
 30
0.0
 41
0.8137805713106702
 10
9.768301978797972
 20
71.84552689955962
 30
0.0
 41
1.150859520743275
 10
9.58758040525664
 20
71.86499215144848
 30
0.0
 41
0.9277327750232909
 10
9.484751101302754
 20
71.71940215302007
 30
0.0
 41
1.000000000000041
 10
8.89647239993167
 20
70.88649273989735
 30
0.0
 41
1.000000000000041
 10
8.308193698560641
 20
70.05358332677466
 30
0.0
 41
1.000000000000041
  0
SPLINE
  5
152
330
1F
100
AcDbEntity
  8
2D DXF
370
    -3
100
AcDbSpline
210
0.0
220
0.0
230
1.0
 70
     8
 71
     2
 72
    11
 73
     8
 74
     0
 42
0.000000001
 43
0.0000000001
 40
0.0
 40
0.0
 40
0.0
 40
1.0
 40
2.0
 40
3.0
 40
4.0
 40
5.0
 40
6.0
 40
6.0
 40
6.0
 10
9.402581020040785
 20
50.59688898343308
 30
0.0
 10
9.453564125284473
 20
50.52792624590712
 30
0.0
 10
9.467521996990072
 20
50.35723682855228
 30
0.0
 10
9.392103741209795
 20
50.20380629590031
 30
0.0
 10
9.251021147188524
 20
50.10750187847541
 30
0.0
 10
9.080536682210848
 20
50.09376265966347
 30
0.0
 10
8.927164633518842
 20
50.1700558587488
 30
0.0
 10
8.882139710981804
 20
50.24306117732142
 30
0.0
  0
SPLINE
  5
153
330
1F
100
AcDbEntity
  8
2D DXF
370
    -3
100
AcDbSpline
210
0.0
220
0.0
230
1.0
 70
     8
 71
     2
 72
    11
 73
     8
 74
     0
 42
0.000000001
 43
0.0000000001
 40
0.0
 40
0.0
 40
0.0
 40
1.0
 40
2.0
 40
3.0
 40
4.0
 40
5.0
 40
6.0
 40
6.0
 40
6.0
 10
10.02406910614384
 20
71.39096139779329
 30
0.0
 10
10.07455618117412
 20
71.46063940885136
 30
0.0
 10
10.08733268240083
 20
71.63201007749997
 30
0.0
 10
10.01040308970893
 20
71.78543962120585
 30
0.0
 10
9.867526768581698
 20
71.88024314670936
 30
0.0
 10
9.696215427468886
 20
71.89128801926373
 30
0.0
 10
9.543556124389923
 20
71.81230717793932
 30
0.0
 10
9.499386670479979
 20
71.73845203185792
 30
0.0
  0
SPLINE
  5
154
330
1F
100
AcDbEntity
  8
2D DXF
370
    -3
100
AcDbSpline
210
0.0
220
0.0
230
1.0
 70
    12
 71
     2
 72
    14
 73
    11
 74
     0
 42
0.000000001
 43
0.0000000001
 40
-2.543248997901554
 40
-2.543248997901554
 40
-2.543248997901554
 40
15.86212548702655
 40
15.86212548702655
 40
16.15878608118745
 40
16.15878608118745
 40
16.65358692412784
 40
16.65358692412784
 40
16.85172717290732
 40
16.85172717290732
 40
35.65265491931671
 40
35.65265491931671
 40
35.65265491931671
 10
-6.241210095862527
 20
53.82646890801681
 30
0.0
 41
1.0
 10
-7.55389522296332
 20
52.0447948791281
 30
0.0
 41
1.0
 10
-8.866580350064112
 20
50.26312085023942
 30
0.0
 41
1.0
 10
-8.959847358462742
 20
50.13653191951617
 30
0.0
 41
0.959312644697843
 10
-9.12018159281875
 20
50.1410516579304
 30
0.0
 41
1.163657621591529
 10
-9.431960535044416
 20
50.14984054364515
 30
0.0
 41
0.8228301952067796
 10
-9.431960535044364
 20
50.45875568767185
 30
0.0
 41
1.163657621591529
 10
-9.431960535044272
 20
50.55784964662963
 30
0.0
 41
1.027175172100473
 10
-9.373782835573424
 20
50.63681275367477
 30
0.0
 41
1.000000000000003
 10
-8.032886552880717
 20
52.45677706422004
 30
0.0
 41
1.000000000000003
 10
-6.691990270187839
 20
54.27674137476533
 30
0.0
 41
1.000000000000003
  0
SPLINE
  5
155
330
1F
100
AcDbEntity
  8
2D DXF
370
    -3
100
AcDbSpline
210
0.0
220
0.0
230
1.0
 70
    12
 71
     2
 72
    14
 73
    11
 74
     0
 42
0.000000001
 43
0.0000000001
 40
5.342103148820415
 40
5.342103148820415
 40
5.342103148820415
 40
15.20881904819654
 40
15.20881904819654
 40
15.37609038491709
 40
15.37609038491709
 40
15.87089122785749
 40
15.87089122785749
 40
16.19842073407742
 40
16.19842073407742
 40
25.29276341915607
 40
25.29276341915607
 40
25.29276341915607
 10
-8.723468842938871
 20
69.54865534624321
 30
0.0
 41
1.0
 10
-9.361709452192201
 20
70.4523029031668
 30
0.0
 41
1.0
 10
-9.999950061445531
 20
71.35595046009044
 30
0.0
 41
1.0
 10
-10.04693632968227
 20
71.42247556972086
 30
0.0
 41
1.036907317030591
 10
-10.05390235456733
 20
71.50415232361104
 30
0.0
 41
1.150859520743275
 10
-10.08015823264203
 20
71.81200291661541
 30
0.0
 41
0.8137805713106702
 10
-9.768910940100282
 20
71.84552689955962
 30
0.0
 41
1.150859520743275
 10
-9.588189366559025
 20
71.86499215144848
 30
0.0
 41
0.9277327750232909
 10
-9.485360062605059
 20
71.71940215302007
 30
0.0
 41
1.000000000000041
 10
-8.897081361233917
 20
70.88649273989735
 30
0.0
 41
1.000000000000041
 10
-8.308802659862833
 20
70.05358332677466
 30
0.0
 41
1.000000000000041
  0
SPLINE
  5
156
330
1F
100
AcDbEntity
  8
2D DXF
370
    -3
100
AcDbSpline
210
0.0
220
0.0
230
1.0
 70
     8
 71
     2
 72
    11
 73
     8
 74
     0
 42
0.000000001
 43
0.0000000001
 40
0.0
 40
0.0
 40
0.0
 40
1.0
 40
2.0
 40
3.0
 40
4.0
 40
5.0
 40
6.0
 40
6.0
 40
6.0
 10
-9.403189981343075
 20
50.59688898343308
 30
0.0
 10
-9.454173086586593
 20
50.52792624590712
 30
0.0
 10
-9.468130958292306
 20
50.35723682855228
 30
0.0
 10
-9.392712702511972
 20
50.20380629590031
 30
0.0
 10
-9.251630108490815
 20
50.10750187847541
 30
0.0
 10
-9.081145643512968
 20
50.09376265966347
 30
0.0
 10
-8.92777359482119
 20
50.1700558587488
 30
0.0
 10
-8.882748672284094
 20
50.24306117732142
 30
0.0
  0
SPLINE
  5
157
330
1F
100
AcDbEntity
  8
2D DXF
370
    -3
100
AcDbSpline
210
0.0
220
0.0
230
1.0
 70
     8
 71
     2
 72
    11
 73
     8
 74
     0
 42
0.000000001
 43
0.0000000001
 40
0.0
 40
0.0
 40
0.0
 40
1.0
 40
2.0
 40
3.0
 40
4.0
 40
5.0
 40
6.0
 40
6.0
 40
6.0
 10
-10.02467806744608
 20
71.39096139779329
 30
0.0
 10
-10.07516514247624
 20
71.46063940885136
 30
0.0
 10
-10.08794164370318
 20
71.63201007749997
 30
0.0
 10
-10.01101205101111
 20
71.78543962120585
 30
0.0
 10
-9.868135729883932
 20
71.88024314670936
 30
0.0
 10
-9.69682438877112
 20
71.89128801926373
 30
0.0
 10
-9.544165085692157
 20
71.81230717793932
 30
0.0
 10
-9.49999563178227
 20
71.73845203185792
 30
0.0
  0
SPLINE
  5
158
330
1F
100
AcDbEntity
  8
2D DXF
370
    -3
100
AcDbSpline
210
0.0
220
0.0
230
1.0
 70
    24
 71
     3
 72
     8
 73
     4
 74
     0
 42
0.000000001
 43
0.0000000001
 40
1.096513440296276
 40
1.096513440296276
 40
1.096513440296276
 40
1.096513440296276
 40
1.939060805286303
 40
1.939060805286303
 40
1.939060805286303
 40
1.939060805286303
 10
6.541653990447813
 20
66.47038176938176
 30
0.0
 10
6.577988129658038
 20
66.52182515241687
 30
0.0
 10
6.614322268868605
 20
66.57326853545207
 30
0.0
 10
6.650656408078888
 20
66.62471191848715
 30
0.0
  0
SPLINE
  5
159
330
1F
100
AcDbEntity
  8
2D DXF
370
    -3
100
AcDbSpline
210
0.0
220
0.0
230
1.0
 70
     8
 71
     3
 72
    43
 73
    39
 74
     0
 42
0.000000001
 43
0.0000000001
 40
0.9996051459765983
 40
0.9996051459765983
 40
0.9996051459765983
 40
0.9996051459765983
 40
1.0
 40
2.0
 40
3.0
 40
4.0
 40
5.0
 40
6.0
 40
7.0
 40
8.0
 40
9.0
 40
10.0
 40
11.0
 40
12.0
 40
13.0
 40
14.0
 40
15.0
 40
16.0
 40
17.0
 40
17.0
 40
17.0
 40
18.0
 40
19.0
 40
20.0
 40
21.0
 40
22.0
 40
23.0
 40
24.0
 40
25.0
 40
26.0
 40
27.0
 40
28.0
 40
29.0
 40
30.0
 40
31.0
 40
32.0
 40
33.0
 40
33.00955902549621
 40
33.00955902549621
 40
33.00955902549621
 40
33.00955902549621
 10
-6.19245104508326
 20
66.99999866418963
 30
0.0
 10
-6.192550433665474
 20
66.99985760359154
 30
0.0
 10
-6.444353470068791
 20
66.64246480203316
 30
0.0
 10
-6.917271246578423
 20
65.90614916565136
 30
0.0
 10
-7.505948527387432
 20
64.73266753718416
 30
0.0
 10
-7.970136539050941
 20
63.50482613438633
 30
0.0
 10
-8.30297643560408
 20
62.23488924489781
 30
0.0
 10
-8.495232504247781
 20
60.9360299847076
 30
0.0
 10
-8.538471046599966
 20
59.62373483225581
 30
0.0
 10
-8.434217009934628
 20
58.3147533270462
 30
0.0
 10
-8.168457189354058
 20
57.0279195019101
 30
0.0
 10
-7.720286958880081
 20
55.7921892852554
 30
0.0
 10
-7.063073331249484
 20
54.6490057629877
 30
0.0
 10
-6.157127834736912
 20
53.68981005940336
 30
0.0
 10
-5.067664534450557
 20
52.94928944661044
 30
0.0
 10
-3.87219005742287
 20
52.40240450698799
 30
0.0
 10
-2.610597065879446
 20
52.03505467873497
 30
0.0
 10
-1.314192557725832
 20
51.82652382296179
 30
0.0
 10
-0.4401437167986018
 20
51.78214306054811
 30
0.0
 10
-0.003176966645114
 20
51.7821430605481
 30
0.0
 10
0.4337897835083169
 20
51.78214306054809
 30
0.0
 10
1.307838624435377
 20
51.82652382296181
 30
0.0
 10
2.604243132589332
 20
52.03505467873495
 30
0.0
 10
3.865836124132912
 20
52.40240450698799
 30
0.0
 10
5.061310601160201
 20
52.94928944661045
 30
0.0
 10
6.150773901446669
 20
53.68981005940334
 30
0.0
 10
7.056719397959355
 20
54.64900576298773
 30
0.0
 10
7.713933025589839
 20
55.7921892852554
 30
0.0
 10
8.16210325606393
 20
57.02791950191008
 30
0.0
 10
8.427863076644215
 20
58.31475332704619
 30
0.0
 10
8.532117113309553
 20
59.62373483225581
 30
0.0
 10
8.488878570957539
 20
60.9360299847076
 30
0.0
 10
8.29662250231361
 20
62.23488924489777
 30
0.0
 10
7.963782605760812
 20
63.50482613438636
 30
0.0
 10
7.499594594097019
 20
64.73266753718416
 30
0.0
 10
6.910917313288124
 20
65.9061491656514
 30
0.0
 10
6.435833014710241
 20
66.64583799744821
 30
0.0
 10
6.181581905854571
 20
67.00640452653415
 30
0.0
 10
6.179173127883772
 20
67.0098175646041
 30
0.0
  0
SPLINE
  5
15A
330
1F
100
AcDbEntity
  8
2D DXF
370
    -3
100
AcDbSpline
210
0.0
220
0.0
230
1.0
 70
    11
 71
     3
 72
   159
 73
   155
 74
     0
 42
0.000000001
 43
0.0000000001
 40
0.0
 40
0.0
 40
0.0
 40
0.0
 40
1.0
 40
1.0
 40
2.0
 40
2.0
 40
3.0
 40
3.0
 40
4.0
 40
4.0
 40
5.0
 40
5.0
 40
6.0
 40
6.0
 40
7.0
 40
7.0
 40
8.0
 40
8.0
 40
9.0
 40
9.0
 40
10.0
 40
10.0
 40
11.0
 40
11.0
 40
12.0
 40
12.0
 40
13.0
 40
13.0
 40
14.0
 40
14.0
 40
15.0
 40
15.0
 40
16.0
 40
16.0
 40
17.0
 40
17.0
 40
18.0
 40
18.0
 40
18.0
 40
19.0
 40
19.0
 40
19.0
 40
20.0
 40
20.0
 40
21.0
 40
21.0
 40
22.0
 40
22.0
 40
23.0
 40
23.0
 40
24.0
 40
24.0
 40
25.0
 40
25.0
 40
26.0
 40
26.0
 40
27.0
 40
27.0
 40
28.0
 40
28.0
 40
29.0
 40
29.0
 40
30.0
 40
30.0
 40
31.0
 40
31.0
 40
32.0
 40
32.0
 40
33.0
 40
33.0
 40
34.0
 40
34.0
 40
35.0
 40
35.0
 40
36.0
 40
36.0
 40
37.0
 40
37.0
 40
37.0
 40
38.0
 40
38.0
 40
39.0
 40
39.0
 40
40.0
 40
40.0
 40
41.0
 40
41.0
 40
42.0
 40
42.0
 40
43.0
 40
43.0
 40
44.0
 40
44.0
 40
45.0
 40
45.0
 40
46.0
 40
46.0
 40
47.0
 40
47.0
 40
48.0
 40
48.0
 40
49.0
 40
49.0
 40
50.0
 40
50.0
 40
51.0
 40
51.0
 40
52.0
 40
52.0
 40
53.0
 40
53.0
 40
54.0
 40
54.0
 40
55.0
 40
55.0
 40
55.0
 40
56.0
 40
56.0
 40
56.0
 40
57.0
 40
57.0
 40
58.0
 40
58.0
 40
59.0
 40
59.0
 40
60.0
 40
60.0
 40
61.0
 40
61.0
 40
62.0
 40
62.0
 40
63.0
 40
63.0
 40
64.0
 40
64.0
 40
65.0
 40
65.0
 40
66.0
 40
66.0
 40
67.0
 40
67.0
 40
68.0
 40
68.0
 40
69.0
 40
69.0
 40
70.0
 40
70.0
 40
71.0
 40
71.0
 40
72.0
 40
72.0
 40
73.0
 40
73.0
 40
74.0
 40
74.0
 40
74.0
 40
74.0
 10
-0.0003044806511383
 20
68.85175289192895
 30
0.0
 10
-0.2110173054722821
 20
68.8517948619028
 30
0.0
 10
-0.4213039697890366
 20
68.84697716268865
 30
0.0
 10
-0.8410249774123457
 20
68.8276224258844
 30
0.0
 10
-1.050557176202958
 20
68.81319702363984
 30
0.0
 10
-1.468964963742096
 20
68.77485015146537
 30
0.0
 10
-1.677646707132894
 20
68.75107488257349
 30
0.0
 10
-2.093965893156323
 20
68.69432067918036
 30
0.0
 10
-2.301378493241813
 20
68.66132729489114
 30
0.0
 10
-2.71470970755756
 20
68.58610796112694
 30
0.0
 10
-2.92068915203059
 20
68.54487355052775
 30
0.0
 10
-3.331275715607376
 20
68.45515524189456
 30
0.0
 10
-3.534382206910607
 20
68.40187074676524
 30
0.0
 10
-3.936221608545793
 20
68.27845107488112
 30
0.0
 10
-4.133368309945297
 20
68.20635215145694
 30
0.0
 10
-4.52011571390608
 20
68.04137612964446
 30
0.0
 10
-4.709457517046189
 20
67.95056599131384
 30
0.0
 10
-5.080077325643913
 20
67.75230145980368
 30
0.0
 10
-5.261309180258195
 20
67.64622449673632
 30
0.0
 10
-5.615616790118111
 20
67.42018117597722
 30
0.0
 10
-5.788841036795304
 20
67.30144848944393
 30
0.0
 10
-6.127430413642116
 20
67.05256106407053
 30
0.0
 10
-6.293091801795129
 20
66.9234703985101
 30
0.0
 10
-6.617147977558545
 20
66.65599516164204
 30
0.0
 10
-6.775995135364553
 20
66.51859194426231
 30
0.0
 10
-7.087327590825737
 20
66.23645431161104
 30
0.0
 10
-7.240317332608186
 20
66.09254949458514
 30
0.0
 10
-7.540943844277024
 20
65.79906785913288
 30
0.0
 10
-7.689277705940356
 20
65.65035863439388
 30
0.0
 10
-7.981986640924504
 20
65.34900337089016
 30
0.0
 10
-8.126963984586382
 20
65.19701582375652
 30
0.0
 10
-8.414164424249691
 20
64.89042089872535
 30
0.0
 10
-8.55696759336729
 20
64.73638961003297
 30
0.0
 10
-8.840979830175627
 20
64.42685938029447
 30
0.0
 10
-8.983114909928474
 20
64.27219184755431
 30
0.0
 10
-9.267642992132153
 20
63.96305194633243
 30
0.0
 10
-9.413695877547127
 20
63.81214058446805
 30
0.0
 10
-9.563537607275748
 20
63.66488781135033
 30
0.0
 10
-11.15705818361801
 20
62.09889998999003
 30
0.0
 10
-11.20058724241841
 20
63.41228599700906
 30
0.0
 10
-10.91560058395771
 20
64.89971112158744
 30
0.0
 10
-10.86245899974602
 20
65.17707192136476
 30
0.0
 10
-10.79265899568514
 20
65.45024872397337
 30
0.0
 10
-10.61974214786505
 20
65.98823433485283
 30
0.0
 10
-10.52399142646459
 20
66.25316472395832
 30
0.0
 10
-10.31390538868368
 20
66.77490066950067
 30
0.0
 10
-10.20131000144448
 20
67.0330899653304
 30
0.0
 10
-9.961014490269463
 20
67.54411120310695
 30
0.0
 10
-9.833850295017783
 20
67.79598436524816
 30
0.0
 10
-9.565489025187844
 20
68.29245577603696
 30
0.0
 10
-9.42225268279168
 20
68.53539867314184
 30
0.0
 10
-9.11766858303821
 20
69.01069885077288
 30
0.0
 10
-8.956315566908131
 20
69.2420241161653
 30
0.0
 10
-8.615487602139524
 20
69.69202500010415
 30
0.0
 10
-8.436615242587038
 20
69.9100911290789
 30
0.0
 10
-8.061953769145077
 20
70.3323547610396
 30
0.0
 10
-7.866725775857333
 20
70.53589864421647
 30
0.0
 10
-7.460475276147974
 20
70.92781054496326
 30
0.0
 10
-7.250653816710951
 20
71.11630796380733
 30
0.0
 10
-6.817618478672671
 20
71.4783857384361
 30
0.0
 10
-6.594785084095179
 20
71.65129447343885
 30
0.0
 10
-6.13648684382315
 20
71.98085163882062
 30
0.0
 10
-5.901330563163469
 20
72.13657644839435
 30
0.0
 10
-5.419003680796493
 20
72.42991852130682
 30
0.0
 10
-5.172076901307037
 20
72.56617586191851
 30
0.0
 10
-4.666696665715619
 20
72.81786315145247
 30
0.0
 10
-4.408906338168777
 20
72.93221351308281
 30
0.0
 10
-3.883125263571117
 20
73.13792767007052
 30
0.0
 10
-3.616177151634304
 20
73.22886282871929
 30
0.0
 10
-3.074165778483618
 20
73.38688930632678
 30
0.0
 10
-2.800361439671562
 20
73.45450790956222
 30
0.0
 10
-2.247155457574124
 20
73.56695584489681
 30
0.0
 10
-1.968841638615785
 20
73.61268210177315
 30
0.0
 10
-1.408792344879529
 20
73.68313919394427
 30
0.0
 10
-1.127914796737045
 20
73.70891426898073
 30
0.0
 10
-0.5644538979033058
 20
73.74155747695565
 30
0.0
 10
-0.282493942346818
 20
73.74959996317064
 30
0.0
 10
-0.0003044806511383
 20
73.74936333161332
 30
0.0
 10
0.2818849810445414
 20
73.74959996317062
 30
0.0
 10
0.5638449366013134
 20
73.74155747695562
 30
0.0
 10
1.127305835434541
 20
73.70891426898073
 30
0.0
 10
1.408183383577366
 20
73.68313919394421
 30
0.0
 10
1.968232677313281
 20
73.61268210177319
 30
0.0
 10
2.246546496272074
 20
73.56695584489681
 30
0.0
 10
2.799752478369172
 20
73.45450790956221
 30
0.0
 10
3.073556817181228
 20
73.38688930632678
 30
0.0
 10
3.615568190331899
 20
73.22886282871917
 30
0.0
 10
3.882516302268598
 20
73.1379276700705
 30
0.0
 10
4.408297376866315
 20
72.9322135130828
 30
0.0
 10
4.666087704413442
 20
72.81786315145244
 30
0.0
 10
5.171467940004518
 20
72.56617586191845
 30
0.0
 10
5.418394719494088
 20
72.4299185213069
 30
0.0
 10
5.900721601861065
 20
72.13657644839424
 30
0.0
 10
6.135877882520859
 20
71.9808516388207
 30
0.0
 10
6.594176122792661
 20
71.65129447343881
 30
0.0
 10
6.817009517370266
 20
71.47838573843619
 30
0.0
 10
7.25004485540866
 20
71.11630796380724
 30
0.0
 10
7.459866314845399
 20
70.92781054496335
 30
0.0
 10
7.866116814554815
 20
70.53589864421646
 30
0.0
 10
8.06134480784307
 20
70.33235476103962
 30
0.0
 10
8.436006281284634
 20
69.91009112907899
 30
0.0
 10
8.61487864083729
 20
69.69202500010407
 30
0.0
 10
8.95570660560567
 20
69.24202411616537
 30
0.0
 10
9.117059621735862
 20
69.01069885077287
 30
0.0
 10
9.421643721489275
 20
68.53539867314188
 30
0.0
 10
9.564880063885326
 20
68.29245577603697
 30
0.0
 10
9.833241333715833
 20
67.7959843652482
 30
0.0
 10
9.960405528966888
 20
67.54411120310681
 30
0.0
 10
10.20070104014219
 20
67.0330899653304
 30
0.0
 10
10.31329642738139
 20
66.7749006695007
 30
0.0
 10
10.52338246516247
 20
66.25316472395832
 30
0.0
 10
10.61913318656288
 20
65.98823433485289
 30
0.0
 10
10.79205003438251
 20
65.45024872397327
 30
0.0
 10
10.86185003844373
 20
65.17707192136481
 30
0.0
 10
10.91499162265542
 20
64.89971112158744
 30
0.0
 10
11.19997828111589
 20
63.41228599700899
 30
0.0
 10
11.15644922231571
 20
62.09889998999007
 30
0.0
 10
9.562928645973457
 20
63.66488781135033
 30
0.0
 10
9.413086916244893
 20
63.81214058446808
 30
0.0
 10
9.267034030829691
 20
63.96305194633244
 30
0.0
 10
8.98250594862624
 20
64.27219184755428
 30
0.0
 10
8.840370868873336
 20
64.42685938029447
 30
0.0
 10
8.556358632065113
 20
64.73638961003296
 30
0.0
 10
8.41355546294723
 20
64.8904208987254
 30
0.0
 10
8.126355023284205
 20
65.19701582375649
 30
0.0
 10
7.98137767962244
 20
65.34900337089013
 30
0.0
 10
7.688668744637951
 20
65.65035863439391
 30
0.0
 10
7.540334882974562
 20
65.79906785913285
 30
0.0
 10
7.239708371305724
 20
66.09254949458513
 30
0.0
 10
7.08671862952356
 20
66.23645431161106
 30
0.0
 10
6.775386174062376
 20
66.51859194426228
 30
0.0
 10
6.616539016256311
 20
66.65599516164207
 30
0.0
 10
6.292482840492838
 20
66.92347039851008
 30
0.0
 10
6.126821452340224
 20
67.05256106407053
 30
0.0
 10
5.788232075492616
 20
67.30144848944406
 30
0.0
 10
5.615007828816104
 20
67.42018117597712
 30
0.0
 10
5.260700218955847
 20
67.64622449673637
 30
0.0
 10
5.079468364341736
 20
67.75230145980372
 30
0.0
 10
4.708848555743728
 20
67.95056599131387
 30
0.0
 10
4.519506752604016
 20
68.04137612964443
 30
0.0
 10
4.132759348642892
 20
68.20635215145693
 30
0.0
 10
3.935612647243502
 20
68.27845107488106
 30
0.0
 10
3.533773245608202
 20
68.4018707467653
 30
0.0
 10
3.330666754305369
 20
68.45515524189456
 30
0.0
 10
2.920080190728427
 20
68.54487355052771
 30
0.0
 10
2.71410074625517
 20
68.58610796112703
 30
0.0
 10
2.300769531939309
 20
68.66132729489107
 30
0.0
 10
2.093356931854558
 20
68.69432067918035
 30
0.0
 10
1.677037745830276
 20
68.75107488257346
 30
0.0
 10
1.468356002439876
 20
68.77485015146539
 30
0.0
 10
1.049948214900454
 20
68.81319702363976
 30
0.0
 10
0.840416016110126
 20
68.82762242588441
 30
0.0
 10
0.4206950084865326
 20
68.84697716268866
 30
0.0
 10
0.2104083441701761
 20
68.85179486190287
 30
0.0
 10
-0.0003044806511383
 20
68.85175289192895
 30
0.0
  0
SPLINE
  5
15B
330
1F
100
AcDbEntity
  8
2D DXF
370
    -3
100
AcDbSpline
210
0.0
220
0.0
230
1.0
 70
    24
 71
     3
 72
     8
 73
     4
 74
     0
 42
0.000000001
 43
0.0000000001
 40
1.096513440296276
 40
1.096513440296276
 40
1.096513440296276
 40
1.096513440296276
 40
1.914535913878793
 40
1.914535913878793
 40
1.914535913878793
 40
1.914535913878793
 10
-6.550671898320672
 20
66.47038176938176
 30
0.0
 10
-6.585948422427691
 20
66.52032773703706
 30
0.0
 10
-6.62122494653471
 20
66.57027370469238
 30
0.0
 10
-6.656501470641672
 20
66.62021967234767
 30
0.0
  0
SPLINE
  5
15C
330
1F
100
AcDbEntity
  8
2D DXF
370
    -3
100
AcDbSpline
210
0.0
220
0.0
230
1.0
 70
    24
 71
     3
 72
     8
 73
     4
 74
     0
 42
0.000000001
 43
0.0000000001
 40
1.096513440296276
 40
1.096513440296276
 40
1.096513440296276
 40
1.096513440296276
 40
1.939060805286303
 40
1.939060805286303
 40
1.939060805286303
 40
1.939060805286303
 10
6.541653990447813
 20
66.47038176938176
 30
0.0
 10
6.577988129658038
 20
66.52182515241687
 30
0.0
 10
6.614322268868605
 20
66.57326853545207
 30
0.0
 10
6.650656408078888
 20
66.62471191848715
 30
0.0
  0
SPLINE
  5
15D
330
1F
100
AcDbEntity
  8
2D DXF
370
    -3
100
AcDbSpline
210
0.0
220
0.0
230
1.0
 70
     8
 71
     3
 72
    21
 73
    17
 74
     0
 42
0.000000001
 43
0.0000000001
 40
6.943339093079723
 40
6.943339093079723
 40
6.943339093079723
 40
6.943339093079723
 40
7.874000000000009
 40
7.874000000000009
 40
7.874000000000009
 40
8.87400000000001
 40
8.87400000000001
 40
9.87400000000001
 40
9.87400000000001
 40
10.87400000000001
 40
10.87400000000001
 40
11.87400000000001
 40
11.87400000000001
 40
12.87400000000001
 40
12.87400000000001
 40
13.87400000000001
 40
13.87400000000001
 40
13.87400000000001
 40
13.87400000000001
 10
-3.007091138318216
 20
52.16057114276389
 30
0.0
 10
-3.317311440624849
 20
52.16057114276389
 30
0.0
 10
-3.627531742931922
 20
52.16057114276391
 30
0.0
 10
-3.937752045238483
 20
52.16057114276389
 30
0.0
 10
-4.108088442979806
 20
52.16049325821071
 30
0.0
 10
-4.2780288618236
 20
52.16864985764615
 30
0.0
 10
-4.617117741713287
 20
52.20143202449442
 30
0.0
 10
-4.785487925045061
 20
52.22589693947048
 30
0.0
 10
-5.119879778481561
 20
52.29097443252633
 30
0.0
 10
-5.285139463187477
 20
52.33142744491306
 30
0.0
 10
-5.611786348574867
 20
52.42816200140409
 30
0.0
 10
-5.772393050003529
 20
52.48430202251113
 30
0.0
 10
-6.088172970331129
 20
52.61212755044826
 30
0.0
 10
-6.242619005494419
 20
52.68349195032748
 30
0.0
 10
-6.544623225820146
 20
52.84112402190721
 30
0.0
 10
-6.69152987057879
 20
52.92694811681592
 30
0.0
 10
-6.834341049933698
 20
53.01978027084355
 30
0.0
  0
SPLINE
  5
15E
330
1F
100
AcDbEntity
  8
2D DXF
370
    -3
100
AcDbSpline
210
0.0
220
0.0
230
1.0
 70
     8
 71
     2
 72
     7
 73
     4
 74
     0
 42
0.000000001
 43
0.0000000001
 40
0.0
 40
0.0
 40
0.0
 40
1.0
 40
2.0
 40
2.0
 40
2.0
 10
-6.460779069445266
 20
53.52845354263858
 30
0.0
 10
-6.096659360027445
 20
53.29558398921087
 30
0.0
 10
-5.295566729948234
 20
52.97085486069045
 30
0.0
 10
-4.872007687834014
 20
52.88472332697524
 30
0.0
  0
SPLINE
  5
15F
330
1F
100
AcDbEntity
  8
2D DXF
370
    -3
100
AcDbSpline
210
0.0
220
0.0
230
1.0
 70
     8
 71
     3
 72
    21
 73
    17
 74
     0
 42
0.000000001
 43
0.0000000001
 40
6.943339093079723
 40
6.943339093079723
 40
6.943339093079723
 40
6.943339093079723
 40
7.874000000000009
 40
7.874000000000009
 40
7.874000000000009
 40
8.87400000000001
 40
8.87400000000001
 40
9.87400000000001
 40
9.87400000000001
 40
10.87400000000001
 40
10.87400000000001
 40
11.87400000000001
 40
11.87400000000001
 40
12.87400000000001
 40
12.87400000000001
 40
13.87400000000001
 40
13.87400000000001
 40
13.87400000000001
 40
13.87400000000001
 10
3.000810066638635
 20
52.16057114276389
 30
0.0
 10
3.311030368945538
 20
52.16057114276389
 30
0.0
 10
3.621250671252099
 20
52.16057114276391
 30
0.0
 10
3.931470973558945
 20
52.16057114276389
 30
0.0
 10
4.101807371300609
 20
52.16049325821071
 30
0.0
 10
4.271747790143493
 20
52.16864985764615
 30
0.0
 10
4.610836670033976
 20
52.20143202449442
 30
0.0
 10
4.779206853365466
 20
52.22589693947048
 30
0.0
 10
5.113598706801852
 20
52.29097443252633
 30
0.0
 10
5.278858391507939
 20
52.33142744491306
 30
0.0
 10
5.605505276895329
 20
52.42816200140409
 30
0.0
 10
5.766111978324048
 20
52.48430202251113
 30
0.0
 10
6.081891898651364
 20
52.61212755044826
 30
0.0
 10
6.23633793381471
 20
52.68349195032748
 30
0.0
 10
6.538342154140153
 20
52.84112402190721
 30
0.0
 10
6.685248798899309
 20
52.92694811681592
 30
0.0
 10
6.828059978254103
 20
53.01978027084355
 30
0.0
  0
SPLINE
  5
160
330
1F
100
AcDbEntity
  8
2D DXF
370
    -3
100
AcDbSpline
210
0.0
220
0.0
230
1.0
 70
     8
 71
     2
 72
     7
 73
     4
 74
     0
 42
0.000000001
 43
0.0000000001
 40
0.0
 40
0.0
 40
0.0
 40
1.0
 40
2.0
 40
2.0
 40
2.0
 10
6.454497997765728
 20
53.52845354263858
 30
0.0
 10
6.090378288347964
 20
53.29558398921087
 30
0.0
 10
5.289285658268639
 20
52.97085486069045
 30
0.0
 10
4.865726616154475
 20
52.88472332697524
 30
0.0
  0
SPLINE
  5
161
330
1F
100
AcDbEntity
  8
2D DXF
370
    -3
100
AcDbSpline
210
0.0
220
0.0
230
1.0
 70
    24
 71
     3
 72
     8
 73
     4
 74
     0
 42
0.000000001
 43
0.0000000001
 40
1.096513440296276
 40
1.096513440296276
 40
1.096513440296276
 40
1.096513440296276
 40
1.918528002875794
 40
1.918528002875794
 40
1.918528002875794
 40
1.918528002875794
 10
-6.549303480223955
 20
66.47038176938173
 30
0.0
 10
-6.584752159776997
 20
66.52057148186603
 30
0.0
 10
-6.620200839330039
 20
66.57076119435028
 30
0.0
 10
-6.65564951888291
 20
66.6209509068346
 30
0.0
  0
SPLINE
  5
162
330
1F
100
AcDbEntity
  8
2D DXF
370
    -3
100
AcDbSpline
210
0.0
220
0.0
230
1.0
 70
    12
 71
     3
 72
    21
 73
    17
 74
     0
 42
0.000000001
 43
0.0000000001
 40
6.687030184291749
 40
6.687030184291749
 40
6.687030184291749
 40
6.687030184291749
 40
13.876
 40
13.876
 40
13.876
 40
14.876
 40
14.876
 40
15.876
 40
15.876
 40
16.876
 40
16.876
 40
17.876
 40
17.876
 40
18.876
 40
18.876
 40
19.876
 40
19.876
 40
19.876
 40
19.876
 10
-8.622752045238485
 20
64.66454095847217
 30
0.0
 41
1.0
 10
-8.622752045238737
 20
62.26821768656941
 30
0.0
 41
1.0
 10
-8.622752045238428
 20
59.87189441466661
 30
0.0
 41
1.0
 10
-8.622752045238485
 20
57.47557114276389
 30
0.0
 41
1.0
 10
-8.622809076536498
 20
57.24939752142377
 30
0.0
 41
1.0
 10
-8.606511017540015
 20
57.02441095957435
 30
0.0
 41
1.0
 10
-8.541204718958
 20
56.57681195485708
 30
0.0
 41
1.0
 10
-8.492670059736838
 20
56.35650986464605
 30
0.0
 41
1.0
 10
-8.363837721434152
 20
55.92290050851911
 30
0.0
 41
1.0
 10
-8.284026958178288
 20
55.71192017033837
 30
0.0
 41
1.0
 10
-8.09361624345837
 20
55.30160817374198
 30
0.0
 41
1.0
 10
-7.984205909749392
 20
55.10433332363062
 30
0.0
 41
1.0
 10
-7.736975289633563
 20
54.7255459197815
 30
0.0
 41
1.0
 10
-7.600417208098179
 20
54.5459922523918
 30
0.0
 41
1.0
 10
-7.301415502071279
 20
54.20656498668222
 30
0.0
 41
1.0
 10
-7.140354257366255
 20
54.04863321944282
 30
0.0
 41
1.0
 10
-6.967732620970537
 20
53.90248331781881
 30
0.0
 41
1.0
  0
SPLINE
  5
163
330
1F
100
AcDbEntity
  8
2D DXF
370
    -3
100
AcDbSpline
210
0.0
220
0.0
230
1.0
 70
    12
 71
     3
 72
    21
 73
    17
 74
     0
 42
0.000000001
 43
0.0000000001
 40
0.0
 40
0.0
 40
0.0
 40
0.0
 40
1.0
 40
1.0
 40
2.0
 40
2.0
 40
3.0
 40
3.0
 40
4.0
 40
4.0
 40
5.0
 40
5.0
 40
6.0
 40
6.0
 40
6.0
 40
12.50570500147115
 40
12.50570500147115
 40
12.50570500147115
 40
12.50570500147115
 10
-7.342166258194823
 20
53.3942740959635
 30
0.0
 41
1.0
 10
-7.541197015287423
 20
53.56001537515044
 30
0.0
 41
1.0
 10
-7.726970277067778
 20
53.73947181962922
 30
0.0
 41
1.0
 10
-8.072001810004508
 20
54.1258150391704
 30
0.0
 41
1.0
 10
-8.229615549659172
 20
54.33046003315521
 30
0.0
 41
1.0
 10
-8.51503897534161
 20
54.76269678955335
 30
0.0
 41
1.0
 10
-8.641383810935281
 20
54.98799667293971
 30
0.0
 41
1.0
 10
-8.86133972762741
 20
55.45695945008736
 30
0.0
 41
1.0
 10
-8.953546729878155
 20
55.69823331559877
 30
0.0
 41
1.0
 10
-9.102418822187929
 20
56.19436600049716
 30
0.0
 41
1.0
 10
-9.15850522858807
 20
56.44651231757288
 30
0.0
 41
1.0
 10
-9.233978761878632
 20
56.95896490097756
 30
0.0
 41
1.0
 10
-9.252815445213685
 20
57.2165757454738
 30
0.0
 41
1.0
 10
-9.25275204523848
 20
57.47557114276389
 30
0.0
 41
1.0
 10
-9.252752045238708
 20
59.6441394765876
 30
0.0
 41
1.0
 10
-9.252752045238449
 20
61.81270781041135
 30
0.0
 41
1.0
 10
-9.252752045238537
 20
63.98127614423507
 30
0.0
 41
1.0
  0
SPLINE
  5
164
330
1F
100
AcDbEntity
  8
2D DXF
370
    -3
100
AcDbSpline
210
0.0
220
0.0
230
1.0
 70
    12
 71
     3
 72
    21
 73
    17
 74
     0
 42
0.000000001
 43
0.0000000001
 40
0.0
 40
0.0
 40
0.0
 40
0.0
 40
1.0
 40
1.0
 40
2.0
 40
2.0
 40
3.0
 40
3.0
 40
4.0
 40
4.0
 40
5.0
 40
5.0
 40
6.0
 40
6.0
 40
6.0
 40
12.51169095055474
 40
12.51169095055474
 40
12.51169095055474
 40
12.51169095055474
 10
7.335885186515227
 20
53.3942740959635
 30
0.0
 41
1.0
 10
7.534915943607999
 20
53.56001537515044
 30
0.0
 41
1.0
 10
7.720689205388183
 20
53.73947181962922
 30
0.0
 41
1.0
 10
8.065720738325084
 20
54.1258150391704
 30
0.0
 41
1.0
 10
8.223334477979861
 20
54.33046003315521
 30
0.0
 41
1.0
 10
8.508757903662072
 20
54.76269678955335
 30
0.0
 41
1.0
 10
8.635102739255515
 20
54.98799667293971
 30
0.0
 41
1.0
 10
8.855058655948042
 20
55.45695945008736
 30
0.0
 41
1.0
 10
8.94726565819856
 20
55.69823331559877
 30
0.0
 41
1.0
 10
9.096137750508504
 20
56.19436600049716
 30
0.0
 41
1.0
 10
9.152224156908645
 20
56.44651231757288
 30
0.0
 41
1.0
 10
9.227697690199207
 20
56.95896490097756
 30
0.0
 41
1.0
 10
9.24653437353409
 20
57.2165757454738
 30
0.0
 41
1.0
 10
9.246470973558942
 20
57.47557114276389
 30
0.0
 41
1.0
 10
9.246470973559056
 20
59.64613479294877
 30
0.0
 41
1.0
 10
9.246470973558825
 20
61.81669844313371
 30
0.0
 41
1.0
 10
9.246470973558942
 20
63.98726209331866
 30
0.0
 41
1.0
  0
SPLINE
  5
165
330
1F
100
AcDbEntity
  8
2D DXF
370
    -3
100
AcDbSpline
210
0.0
220
0.0
230
1.0
 70
    12
 71
     3
 72
    21
 73
    17
 74
     0
 42
0.000000001
 43
0.0000000001
 40
6.687030184291749
 40
6.687030184291749
 40
6.687030184291749
 40
6.687030184291749
 40
13.876
 40
13.876
 40
13.876
 40
14.876
 40
14.876
 40
15.876
 40
15.876
 40
16.876
 40
16.876
 40
17.876
 40
17.876
 40
18.876
 40
18.876
 40
19.876
 40
19.876
 40
19.876
 40
19.876
 10
8.622143083936251
 20
64.66454095847217
 30
0.0
 41
1.0
 10
8.622143083936077
 20
62.26821768656941
 30
0.0
 41
1.0
 10
8.622143083936308
 20
59.87189441466661
 30
0.0
 41
1.0
 10
8.622143083936251
 20
57.47557114276389
 30
0.0
 41
1.0
 10
8.622200115234662
 20
57.24939752142377
 30
0.0
 41
1.0
 10
8.605902056237895
 20
57.02441095957435
 30
0.0
 41
1.0
 10
8.540595757655652
 20
56.57681195485708
 30
0.0
 41
1.0
 10
8.492061098434661
 20
56.35650986464605
 30
0.0
 41
1.0
 10
8.363228760131861
 20
55.92290050851911
 30
0.0
 41
1.0
 10
8.28341799687611
 20
55.71192017033837
 30
0.0
 41
1.0
 10
8.09300728215625
 20
55.30160817374198
 30
0.0
 41
1.0
 10
7.983596948447442
 20
55.10433332363062
 30
0.0
 41
1.0
 10
7.736366328331215
 20
54.7255459197815
 30
0.0
 41
1.0
 10
7.599808246795774
 20
54.5459922523918
 30
0.0
 41
1.0
 10
7.300806540768875
 20
54.20656498668222
 30
0.0
 41
1.0
 10
7.139745296064532
 20
54.04863321944282
 30
0.0
 41
1.0
 10
6.967123659668303
 20
53.90248331781881
 30
0.0
 41
1.0
  0
ENDSEC
  0
SECTION
  2
OBJECTS
  0
DICTIONARY
  5
C
330
0
100
AcDbDictionary
281
     1
  3
ACAD_DETAILVIEWSTYLE
350
1A1
  3
ACAD_GROUP
350
D
  3
ACAD_LAYOUT
350
1A
  3
ACAD_MATERIAL
350
43
  3
ACAD_MLEADERSTYLE
350
6B
  3
ACAD_MLINESTYLE
350
17
  3
ACAD_PLOTSETTINGS
350
19
  3
ACAD_PLOTSTYLENAME
350
E
  3
ACAD_SCALELIST
350
47
  3
ACAD_SECTIONVIEWSTYLE
350
1A2
  3
ACAD_TABLESTYLE
350
69
  3
ACAD_VISUALSTYLE
350
2A
  3
ACDB_RECOMPOSE_DATA
350
19E
  3
AcDbVariableDictionary
350
166
  0
SUN
  5
6D
330
29
100
AcDbSun
 90
        1
290
     0
 63
     7
421
 16777215
 40
1.0
291
     1
 91
  2455826
 92
 54000000
292
     0
 70
     2
 71
   256
280
     1
  0
DICTIONARY
  5
1A1
102
{ACAD_REACTORS
330
C
102
}
330
C
100
AcDbDictionary
281
     1
  0
DICTIONARY
  5
D
102
{ACAD_REACTORS
330
C
102
}
330
C
100
AcDbDictionary
281
     1
  0
DICTIONARY
  5
1A
102
{ACAD_REACTORS
330
C
102
}
330
C
100
AcDbDictionary
281
     1
  3
Layout1
350
1E
  3
Layout2
350
26
  3
Model
350
22
  0
DICTIONARY
  5
43
102
{ACAD_REACTORS
330
C
102
}
330
C
100
AcDbDictionary
281
     1
  3
ByBlock
350
45
  3
ByLayer
350
44
  3
Global
350
46
  0
DICTIONARY
  5
6B
102
{ACAD_REACTORS
330
C
102
}
330
C
100
AcDbDictionary
281
     1
  3
Standard
350
6C
  0
DICTIONARY
  5
17
102
{ACAD_REACTORS
330
C
102
}
330
C
100
AcDbDictionary
281
     1
  3
Standard
350
18
  0
DICTIONARY
  5
19
102
{ACAD_REACTORS
330
C
102
}
330
C
100
AcDbDictionary
281
     1
  0
ACDBDICTIONARYWDFLT
  5
E
102
{ACAD_REACTORS
330
C
102
}
330
C
100
AcDbDictionary
281
     1
  3
Normal
350
F
100
AcDbDictionaryWithDefault
340
F
  0
DICTIONARY
  5
47
102
{ACAD_REACTORS
330
C
102
}
330
C
100
AcDbDictionary
281
     1
  3
A0
350
48
  3
A1
350
49
  3
A2
350
4A
  3
A3
350
4B
  3
A4
350
4C
  3
A5
350
4D
  3
A6
350
4E
  3
A7
350
4F
  3
A8
350
50
  3
A9
350
51
  3
B0
350
52
  3
B1
350
53
  3
B2
350
54
  3
B3
350
55
  3
B4
350
56
  3
B5
350
57
  3
B6
350
58
  3
B7
350
59
  3
B8
350
5A
  3
B9
350
5B
  3
C0
350
5C
  3
C1
350
5D
  3
C2
350
5E
  3
C3
350
5F
  3
C4
350
60
  3
C5
350
61
  3
C6
350
62
  3
C7
350
63
  3
C8
350
64
  3
C9
350
65
  3
D0
350
66
  3
D1
350
67
  3
D2
350
68
  0
DICTIONARY
  5
1A2
102
{ACAD_REACTORS
330
C
102
}
330
C
100
AcDbDictionary
281
     1
  0
DICTIONARY
  5
69
102
{ACAD_REACTORS
330
C
102
}
330
C
100
AcDbDictionary
281
     1
  3
Standard
350
6A
  0
DICTIONARY
  5
2A
102
{ACAD_REACTORS
330
C
102
}
330
C
100
AcDbDictionary
281
     1
  3
2dWireframe
350
2F
  3
Basic
350
32
  3
Brighten
350
36
  3
ColorChange
350
3A
  3
Conceptual
350
34
  3
Dim
350
35
  3
EdgeColorOff
350
3D
  3
Facepattern
350
39
  3
Flat
350
2B
  3
FlatWithEdges
350
2C
  3
Gouraud
350
2D
  3
GouraudWithEdges
350
2E
  3
Hidden
350
31
  3
JitterOff
350
3B
  3
Linepattern
350
38
  3
OverhangOff
350
3C
  3
Realistic
350
33
  3
Shaded
350
42
  3
Shaded with edges
350
41
  3
Shades of Gray
350
3E
  3
Sketchy
350
3F
  3
Thicken
350
37
  3
Wireframe
350
30
  3
X-Ray
350
40
  0
XRECORD
  5
19E
102
{ACAD_REACTORS
330
C
102
}
330
C
100
AcDbXrecord
280
     1
 90
        1
330
6A
  0
DICTIONARY
  5
166
102
{ACAD_REACTORS
330
C
102
}
330
C
100
AcDbDictionary
281
     1
  3
CANNOSCALE
350
167
  3
CMLEADERSTYLE
350
1A0
  3
CTABLESTYLE
350
19F
  3
XCLIPFRAME
350
168
  0
LAYOUT
  5
1E
102
{ACAD_REACTORS
330
1A
102
}
330
1A
100
AcDbPlotSettings
  1

  2
none_device
  4

  6

 40
0.0
 41
0.0
 42
0.0
 43
0.0
 44
0.0
 45
0.0
 46
0.0
 47
0.0
 48
0.0
 49
0.0
140
0.0
141
0.0
142
1.0
143
1.0
 70
   688
 72
     0
 73
     0
 74
     5
  7

 75
    16
 76
     0
 77
     2
 78
   300
147
1.0
148
0.0
149
0.0
100
AcDbLayout
  1
Layout1
 70
     1
 71
     1
 10
0.0
 20
0.0
 11
12.0
 21
9.0
 12
0.0
 22
0.0
 32
0.0
 14
1.000000000000000E+20
 24
1.000000000000000E+20
 34
1.000000000000000E+20
 15
-1.000000000000000E+20
 25
-1.000000000000000E+20
 35
-1.000000000000000E+20
146
0.0
 13
0.0
 23
0.0
 33
0.0
 16
1.0
 26
0.0
 36
0.0
 17
0.0
 27
1.0
 37
0.0
 76
     0
330
1B
  0
LAYOUT
  5
26
102
{ACAD_REACTORS
330
1A
102
}
330
1A
100
AcDbPlotSettings
  1

  2
none_device
  4

  6

 40
0.0
 41
0.0
 42
0.0
 43
0.0
 44
0.0
 45
0.0
 46
0.0
 47
0.0
 48
0.0
 49
0.0
140
0.0
141
0.0
142
1.0
143
1.0
 70
   688
 72
     0
 73
     0
 74
     5
  7

 75
    16
 76
     0
 77
     2
 78
   300
147
1.0
148
0.0
149
0.0
100
AcDbLayout
  1
Layout2
 70
     1
 71
     2
 10
0.0
 20
0.0
 11
0.0
 21
0.0
 12
0.0
 22
0.0
 32
0.0
 14
0.0
 24
0.0
 34
0.0
 15
0.0
 25
0.0
 35
0.0
146
0.0
 13
0.0
 23
0.0
 33
0.0
 16
1.0
 26
0.0
 36
0.0
 17
0.0
 27
1.0
 37
0.0
 76
     0
330
23
  0
LAYOUT
  5
22
102
{ACAD_REACTORS
330
1A
102
}
330
1A
100
AcDbPlotSettings
  1

  2
none_device
  4
Letter_(8.50_x_11.00_Inches)
  6

 40
6.35
 41
6.35
 42
6.35000508
 43
6.35000508
 44
215.9
 45
279.4
 46
0.0
 47
0.0
 48
0.0
 49
0.0
140
0.0
141
0.0
142
1.0
143
1.0
 70
  1712
 72
     0
 73
     0
 74
     0
  7

 75
     0
 76
     0
 77
     2
 78
   300
147
1.0
148
0.0
149
0.0
100
AcDbLayout
  1
Model
 70
     1
 71
     0
 10
0.0
 20
0.0
 11
12.0
 21
9.0
 12
0.0
 22
0.0
 32
0.0
 14
1.000000000000000E+20
 24
1.000000000000000E+20
 34
1.000000000000000E+20
 15
-1.000000000000000E+20
 25
-1.000000000000000E+20
 35
-1.000000000000000E+20
146
0.0
 13
0.0
 23
0.0
 33
0.0
 16
1.0
 26
0.0
 36
0.0
 17
0.0
 27
1.0
 37
0.0
 76
     0
330
1F
331
29
  0
MATERIAL
  5
45
102
{ACAD_REACTORS
330
43
102
}
330
43
100
AcDbMaterial
  1
ByBlock
 72
     1
 94
      127
  0
MATERIAL
  5
44
102
{ACAD_REACTORS
330
43
102
}
330
43
100
AcDbMaterial
  1
ByLayer
 72
     1
 94
      127
  0
MATERIAL
  5
46
102
{ACAD_REACTORS
330
43
102
}
330
43
100
AcDbMaterial
  1
Global
 72
     1
 94
      127
  0
MLEADERSTYLE
  5
6C
102
{ACAD_REACTORS
330
6B
102
}
102
{ACAD_XDICTIONARY
360
19C
102
}
330
6B
100
AcDbMLeaderStyle
170
     2
171
     1
172
     0
 90
        2
 40
0.0
 41
0.0
173
     1
 91
-1056964608
340
14
 92
       -2
290
     1
 42
0.09
291
     1
 43
0.36
  3
Standard
341
0
 44
0.18
300

342
11
174
     1
178
     6
175
     1
176
     0
 93
-1056964608
 45
0.18
292
     0
297
     0
 46
0.18
343
0
 94
-1056964608
 47
1.0
 49
1.0
140
1.0
293
     1
141
0.0
294
     1
177
     0
142
1.0
295
     0
296
     0
143
0.125
1001
ACAD_MLEADERVER
1070
     2
  0
MLINESTYLE
  5
18
102
{ACAD_REACTORS
330
17
102
}
330
17
100
AcDbMlineStyle
  2
Standard
 70
     0
  3

 62
   256
 51
90.0
 52
90.0
 71
     2
 49
0.5
 62
   256
  6
BYLAYER
 49
-0.5
 62
   256
  6
BYLAYER
  0
ACDBPLACEHOLDER
  5
F
102
{ACAD_REACTORS
330
E
102
}
330
E
  0
SCALE
  5
48
102
{ACAD_REACTORS
330
47
102
}
330
47
100
AcDbScale
 70
     0
300
1:1
140
1.0
141
1.0
290
     1
  0
SCALE
  5
49
102
{ACAD_REACTORS
330
47
102
}
330
47
100
AcDbScale
 70
     0
300
1:2
140
1.0
141
2.0
290
     0
  0
SCALE
  5
4A
102
{ACAD_REACTORS
330
47
102
}
330
47
100
AcDbScale
 70
     0
300
1:4
140
1.0
141
4.0
290
     0
  0
SCALE
  5
4B
102
{ACAD_REACTORS
330
47
102
}
330
47
100
AcDbScale
 70
     0
300
1:5
140
1.0
141
5.0
290
     0
  0
SCALE
  5
4C
102
{ACAD_REACTORS
330
47
102
}
330
47
100
AcDbScale
 70
     0
300
1:8
140
1.0
141
8.0
290
     0
  0
SCALE
  5
4D
102
{ACAD_REACTORS
330
47
102
}
330
47
100
AcDbScale
 70
     0
300
1:10
140
1.0
141
10.0
290
     0
  0
SCALE
  5
4E
102
{ACAD_REACTORS
330
47
102
}
330
47
100
AcDbScale
 70
     0
300
1:16
140
1.0
141
16.0
290
     0
  0
SCALE
  5
4F
102
{ACAD_REACTORS
330
47
102
}
330
47
100
AcDbScale
 70
     0
300
1:20
140
1.0
141
20.0
290
     0
  0
SCALE
  5
50
102
{ACAD_REACTORS
330
47
102
}
330
47
100
AcDbScale
 70
     0
300
1:30
140
1.0
141
30.0
290
     0
  0
SCALE
  5
51
102
{ACAD_REACTORS
330
47
102
}
330
47
100
AcDbScale
 70
     0
300
1:40
140
1.0
141
40.0
290
     0
  0
SCALE
  5
52
102
{ACAD_REACTORS
330
47
102
}
330
47
100
AcDbScale
 70
     0
300
1:50
140
1.0
141
50.0
290
     0
  0
SCALE
  5
53
102
{ACAD_REACTORS
330
47
102
}
330
47
100
AcDbScale
 70
     0
300
1:100
140
1.0
141
100.0
290
     0
  0
SCALE
  5
54
102
{ACAD_REACTORS
330
47
102
}
330
47
100
AcDbScale
 70
     0
300
2:1
140
2.0
141
1.0
290
     0
  0
SCALE
  5
55
102
{ACAD_REACTORS
330
47
102
}
330
47
100
AcDbScale
 70
     0
300
4:1
140
4.0
141
1.0
290
     0
  0
SCALE
  5
56
102
{ACAD_REACTORS
330
47
102
}
330
47
100
AcDbScale
 70
     0
300
8:1
140
8.0
141
1.0
290
     0
  0
SCALE
  5
57
102
{ACAD_REACTORS
330
47
102
}
330
47
100
AcDbScale
 70
     0
300
10:1
140
10.0
141
1.0
290
     0
  0
SCALE
  5
58
102
{ACAD_REACTORS
330
47
102
}
330
47
100
AcDbScale
 70
     0
300
100:1
140
100.0
141
1.0
290
     0
  0
SCALE
  5
59
102
{ACAD_REACTORS
330
47
102
}
330
47
100
AcDbScale
 70
     0
300
1/128" = 1'-0"
140
0.0078125
141
12.0
290
     0
  0
SCALE
  5
5A
102
{ACAD_REACTORS
330
47
102
}
330
47
100
AcDbScale
 70
     0
300
1/64" = 1'-0"
140
0.015625
141
12.0
290
     0
  0
SCALE
  5
5B
102
{ACAD_REACTORS
330
47
102
}
330
47
100
AcDbScale
 70
     0
300
1/32" = 1'-0"
140
0.03125
141
12.0
290
     0
  0
SCALE
  5
5C
102
{ACAD_REACTORS
330
47
102
}
330
47
100
AcDbScale
 70
     0
300
1/16" = 1'-0"
140
0.0625
141
12.0
290
     0
  0
SCALE
  5
5D
102
{ACAD_REACTORS
330
47
102
}
330
47
100
AcDbScale
 70
     0
300
3/32" = 1'-0"
140
0.09375
141
12.0
290
     0
  0
SCALE
  5
5E
102
{ACAD_REACTORS
330
47
102
}
330
47
100
AcDbScale
 70
     0
300
1/8" = 1'-0"
140
0.125
141
12.0
290
     0
  0
SCALE
  5
5F
102
{ACAD_REACTORS
330
47
102
}
330
47
100
AcDbScale
 70
     0
300
3/16" = 1'-0"
140
0.1875
141
12.0
290
     0
  0
SCALE
  5
60
102
{ACAD_REACTORS
330
47
102
}
330
47
100
AcDbScale
 70
     0
300
1/4" = 1'-0"
140
0.25
141
12.0
290
     0
  0
SCALE
  5
61
102
{ACAD_REACTORS
330
47
102
}
330
47
100
AcDbScale
 70
     0
300
3/8" = 1'-0"
140
0.375
141
12.0
290
     0
  0
SCALE
  5
62
102
{ACAD_REACTORS
330
47
102
}
330
47
100
AcDbScale
 70
     0
300
1/2" = 1'-0"
140
0.5
141
12.0
290
     0
  0
SCALE
  5
63
102
{ACAD_REACTORS
330
47
102
}
330
47
100
AcDbScale
 70
     0
300
3/4" = 1'-0"
140
0.75
141
12.0
290
     0
  0
SCALE
  5
64
102
{ACAD_REACTORS
330
47
102
}
330
47
100
AcDbScale
 70
     0
300
1" = 1'-0"
140
1.0
141
12.0
290
     0
  0
SCALE
  5
65
102
{ACAD_REACTORS
330
47
102
}
330
47
100
AcDbScale
 70
     0
300
1-1/2" = 1'-0"
140
1.5
141
12.0
290
     0
  0
SCALE
  5
66
102
{ACAD_REACTORS
330
47
102
}
330
47
100
AcDbScale
 70
     0
300
3" = 1'-0"
140
3.0
141
12.0
290
     0
  0
SCALE
  5
67
102
{ACAD_REACTORS
330
47
102
}
330
47
100
AcDbScale
 70
     0
300
6" = 1'-0"
140
6.0
141
12.0
290
     0
  0
SCALE
  5
68
102
{ACAD_REACTORS
330
47
102
}
330
47
100
AcDbScale
 70
     0
300
1'-0" = 1'-0"
140
12.0
141
12.0
290
     0
  0
TABLESTYLE
  5
6A
102
{ACAD_REACTORS
330
69
102
}
102
{ACAD_XDICTIONARY
360
199
102
}
330
69
100
AcDbTableStyle
  3
Standard
 70
     0
 71
     0
 40
0.06
 41
0.06
280
     0
281
     0
  7
Standard
140
0.18
170
     2
 62
     0
 63
   257
283
     0
 90
        4
 91
        0
  1

274
    -2
284
     1
 64
     0
275
    -2
285
     1
 65
     0
276
    -2
286
     1
 66
     0
277
    -2
287
     1
 67
     0
278
    -2
288
     1
 68
     0
279
    -2
289
     1
 69
     0
  7
Standard
140
0.25
170
     5
 62
     0
 63
   257
283
     0
 90
        4
 91
        0
  1

274
    -2
284
     1
 64
     0
275
    -2
285
     1
 65
     0
276
    -2
286
     1
 66
     0
277
    -2
287
     1
 67
     0
278
    -2
288
     1
 68
     0
279
    -2
289
     1
 69
     0
  7
Standard
140
0.18
170
     5
 62
     0
 63
   257
283
     0
 90
        4
 91
        0
  1

274
    -2
284
     1
 64
     0
275
    -2
285
     1
 65
     0
276
    -2
286
     1
 66
     0
277
    -2
287
     1
 67
     0
278
    -2
288
     1
 68
     0
279
    -2
289
     1
 69
     0
  0
VISUALSTYLE
  5
2F
102
{ACAD_REACTORS
330
2A
102
}
102
{ACAD_XDICTIONARY
360
171
102
}
330
2A
100
AcDbVisualStyle
  2
2dWireframe
 70
     4
 71
     0
 72
     2
 73
     0
 90
        0
 40
0.6
 41
30.0
 62
     5
 63
     7
421
 16777215
 74
     1
 91
        4
 64
     7
 65
   257
 75
     1
175
     1
 42
1.0
 92
        0
 66
   257
 43
1.0
 76
     1
 77
     6
 78
     2
 67
     7
 79
     5
170
     0
171
     0
290
     0
174
     0
 93
        1
 44
0.0
173
     0
291
     0
 45
0.0
  0
VISUALSTYLE
  5
32
102
{ACAD_REACTORS
330
2A
102
}
102
{ACAD_XDICTIONARY
360
177
102
}
330
2A
100
AcDbVisualStyle
  2
Basic
 70
     7
 71
     1
 72
     0
 73
     1
 90
        0
 40
0.6
 41
30.0
 62
     5
 63
     7
421
 16777215
 74
     0
 91
        4
 64
     7
 65
   257
 75
     1
175
     1
 42
1.0
 92
        8
 66
     7
 43
1.0
 76
     1
 77
     6
 78
     2
 67
     7
 79
     5
170
     0
171
     0
290
     0
174
     0
 93
        1
 44
0.0
173
     0
291
     1
 45
0.0
  0
VISUALSTYLE
  5
36
102
{ACAD_REACTORS
330
2A
102
}
102
{ACAD_XDICTIONARY
360
17F
102
}
330
2A
100
AcDbVisualStyle
  2
Brighten
 70
    12
 71
     2
 72
     2
 73
     0
 90
        0
 40
0.6
 41
30.0
 62
     5
 63
     7
421
 16777215
 74
     1
 91
        4
 64
     7
 65
   257
 75
     1
175
     1
 42
1.0
 92
        8
 66
     7
 43
1.0
 76
     1
 77
     6
 78
     2
 67
     7
 79
     5
170
     0
171
     0
290
     0
174
     0
 93
        1
 44
50.0
173
     0
291
     1
 45
0.0
  0
VISUALSTYLE
  5
3A
102
{ACAD_REACTORS
330
2A
102
}
102
{ACAD_XDICTIONARY
360
187
102
}
330
2A
100
AcDbVisualStyle
  2
ColorChange
 70
    16
 71
     2
 72
     2
 73
     3
 90
        0
 40
0.6
 41
30.0
 62
     5
 63
     8
421
  8421504
 74
     1
 91
        4
 64
     7
 65
   257
 75
     1
175
     1
 42
1.0
 92
        8
 66
     8
424
  8421504
 43
1.0
 76
     1
 77
     6
 78
     2
 67
     7
 79
     5
170
     0
171
     0
290
     0
174
     0
 93
        1
 44
0.0
173
     0
291
     1
 45
0.0
  0
VISUALSTYLE
  5
34
102
{ACAD_REACTORS
330
2A
102
}
102
{ACAD_XDICTIONARY
360
17B
102
}
330
2A
100
AcDbVisualStyle
  2
Conceptual
 70
     9
 71
     3
 72
     2
 73
     0
 90
        0
 40
0.6
 41
30.0
 62
     5
 63
     7
421
 16777215
 74
     2
 91
        2
 64
     7
 65
   257
 75
     1
175
     1
 42
179.0
 92
        8
 66
     7
 43
1.0
 76
     1
 77
     6
 78
     2
 67
     7
 79
     3
170
     0
171
     0
290
     0
174
     0
 93
        1
 44
0.0
173
     0
291
     0
 45
0.0
  0
VISUALSTYLE
  5
35
102
{ACAD_REACTORS
330
2A
102
}
102
{ACAD_XDICTIONARY
360
17D
102
}
330
2A
100
AcDbVisualStyle
  2
Dim
 70
    11
 71
     2
 72
     2
 73
     0
 90
        0
 40
0.6
 41
30.0
 62
     5
 63
     7
421
 16777215
 74
     1
 91
        4
 64
     7
 65
   257
 75
     1
175
     1
 42
1.0
 92
        8
 66
     7
 43
1.0
 76
     1
 77
     6
 78
     2
 67
     7
 79
     5
170
     0
171
     0
290
     0
174
     0
 93
        1
 44
-50.0
173
     0
291
     1
 45
0.0
  0
VISUALSTYLE
  5
3D
102
{ACAD_REACTORS
330
2A
102
}
102
{ACAD_XDICTIONARY
360
18D
102
}
330
2A
100
AcDbVisualStyle
  2
EdgeColorOff
 70
    22
 71
     2
 72
     2
 73
     0
 90
        0
 40
0.6
 41
30.0
 62
     5
 63
     7
421
 16777215
 74
     1
 91
        4
 64
     7
 65
   257
 75
     1
175
     1
 42
1.0
 92
        8
 66
     7
 43
1.0
 76
     1
 77
     6
 78
     2
 67
     7
 79
     5
170
     0
171
     0
290
     0
174
     0
 93
        1
 44
0.0
173
     0
291
     1
 45
0.0
  0
VISUALSTYLE
  5
39
102
{ACAD_REACTORS
330
2A
102
}
102
{ACAD_XDICTIONARY
360
185
102
}
330
2A
100
AcDbVisualStyle
  2
Facepattern
 70
    15
 71
     2
 72
     2
 73
     0
 90
        0
 40
0.6
 41
30.0
 62
     5
 63
     7
421
 16777215
 74
     1
 91
        4
 64
     7
 65
   257
 75
     1
175
     1
 42
1.0
 92
        8
 66
     7
 43
1.0
 76
     1
 77
     6
 78
     2
 67
     7
 79
     5
170
     0
171
     0
290
     0
174
     0
 93
        1
 44
0.0
173
     0
291
     1
 45
0.0
  0
VISUALSTYLE
  5
2B
102
{ACAD_REACTORS
330
2A
102
}
102
{ACAD_XDICTIONARY
360
169
102
}
330
2A
100
AcDbVisualStyle
  2
Flat
 70
     0
 71
     2
 72
     1
 73
     1
 90
        2
 40
0.6
 41
30.0
 62
     5
 63
     7
421
 16777215
 74
     0
 91
        0
 64
     7
 65
   257
 75
     1
175
     1
 42
1.0
 92
        8
 66
     7
 43
1.0
 76
     1
 77
     6
 78
     2
 67
     7
 79
     5
170
     0
171
     0
290
     0
174
     0
 93
       13
 44
0.0
173
     0
291
     1
 45
0.0
  0
VISUALSTYLE
  5
2C
102
{ACAD_REACTORS
330
2A
102
}
102
{ACAD_XDICTIONARY
360
16B
102
}
330
2A
100
AcDbVisualStyle
  2
FlatWithEdges
 70
     1
 71
     2
 72
     1
 73
     1
 90
        2
 40
0.6
 41
30.0
 62
     5
 63
     7
421
 16777215
 74
     1
 91
        0
 64
     7
 65
   257
 75
     1
175
     1
 42
1.0
 92
        0
 66
   257
 43
1.0
 76
     1
 77
     6
 78
     2
 67
     7
 79
     5
170
     0
171
     0
290
     0
174
     0
 93
       13
 44
0.0
173
     0
291
     1
 45
0.0
  0
VISUALSTYLE
  5
2D
102
{ACAD_REACTORS
330
2A
102
}
102
{ACAD_XDICTIONARY
360
16D
102
}
330
2A
100
AcDbVisualStyle
  2
Gouraud
 70
     2
 71
     2
 72
     2
 73
     1
 90
        2
 40
0.6
 41
30.0
 62
     5
 63
     7
421
 16777215
 74
     0
 91
        0
 64
     7
 65
   257
 75
     1
175
     1
 42
1.0
 92
        0
 66
     7
 43
1.0
 76
     1
 77
     6
 78
     2
 67
     7
 79
     5
170
     0
171
     0
290
     0
174
     0
 93
       13
 44
0.0
173
     0
291
     1
 45
0.0
  0
VISUALSTYLE
  5
2E
102
{ACAD_REACTORS
330
2A
102
}
102
{ACAD_XDICTIONARY
360
16F
102
}
330
2A
100
AcDbVisualStyle
  2
GouraudWithEdges
 70
     3
 71
     2
 72
     2
 73
     1
 90
        2
 40
0.6
 41
30.0
 62
     5
 63
     7
421
 16777215
 74
     1
 91
        0
 64
     7
 65
   257
 75
     1
175
     1
 42
1.0
 92
        0
 66
   257
 43
1.0
 76
     1
 77
     6
 78
     2
 67
     7
 79
     5
170
     0
171
     0
290
     0
174
     0
 93
       13
 44
0.0
173
     0
291
     1
 45
0.0
  0
VISUALSTYLE
  5
31
102
{ACAD_REACTORS
330
2A
102
}
102
{ACAD_XDICTIONARY
360
175
102
}
330
2A
100
AcDbVisualStyle
  2
Hidden
 70
     6
 71
     1
 72
     2
 73
     2
 90
        0
 40
0.6
 41
30.0
 62
     5
 63
     7
421
 16777215
 74
     2
 91
        2
 64
     7
 65
   257
 75
     2
175
     1
 42
40.0
 92
        0
 66
   257
 43
1.0
 76
     1
 77
     6
 78
     2
 67
     7
 79
     3
170
     0
171
     0
290
     0
174
     0
 93
        1
 44
0.0
173
     0
291
     0
 45
0.0
  0
VISUALSTYLE
  5
3B
102
{ACAD_REACTORS
330
2A
102
}
102
{ACAD_XDICTIONARY
360
189
102
}
330
2A
100
AcDbVisualStyle
  2
JitterOff
 70
    20
 71
     2
 72
     2
 73
     0
 90
        0
 40
0.6
 41
30.0
 62
     5
 63
     7
421
 16777215
 74
     1
 91
        4
 64
     7
 65
   257
 75
     1
175
     1
 42
1.0
 92
       10
 66
     7
 43
1.0
 76
     1
 77
     6
 78
     2
 67
     7
 79
     5
170
     0
171
     0
290
     0
174
     0
 93
        1
 44
0.0
173
     0
291
     1
 45
0.0
  0
VISUALSTYLE
  5
38
102
{ACAD_REACTORS
330
2A
102
}
102
{ACAD_XDICTIONARY
360
183
102
}
330
2A
100
AcDbVisualStyle
  2
Linepattern
 70
    14
 71
     2
 72
     2
 73
     0
 90
        0
 40
0.6
 41
30.0
 62
     5
 63
     7
421
 16777215
 74
     1
 91
        4
 64
     7
 65
   257
 75
     7
175
     7
 42
1.0
 92
        8
 66
     7
 43
1.0
 76
     1
 77
     6
 78
     2
 67
     7
 79
     5
170
     0
171
     0
290
     0
174
     0
 93
        1
 44
0.0
173
     0
291
     1
 45
0.0
  0
VISUALSTYLE
  5
3C
102
{ACAD_REACTORS
330
2A
102
}
102
{ACAD_XDICTIONARY
360
18B
102
}
330
2A
100
AcDbVisualStyle
  2
OverhangOff
 70
    21
 71
     2
 72
     2
 73
     0
 90
        0
 40
0.6
 41
30.0
 62
     5
 63
     7
421
 16777215
 74
     1
 91
        4
 64
     7
 65
   257
 75
     1
175
     1
 42
1.0
 92
        9
 66
     7
 43
1.0
 76
     1
 77
     6
 78
     2
 67
     7
 79
     5
170
     0
171
     0
290
     0
174
     0
 93
        1
 44
0.0
173
     0
291
     1
 45
0.0
  0
VISUALSTYLE
  5
33
102
{ACAD_REACTORS
330
2A
102
}
102
{ACAD_XDICTIONARY
360
179
102
}
330
2A
100
AcDbVisualStyle
  2
Realistic
 70
     8
 71
     2
 72
     3
 73
     0
 90
        2
 40
0.6
 41
30.0
 62
     5
 63
     7
421
 16777215
 74
     0
 91
        0
 64
     7
 65
   257
 75
     1
175
     1
 42
1.0
 92
        8
 66
   257
 43
1.0
 76
     1
 77
     6
 78
     2
 67
     7
 79
     3
170
     0
171
     0
290
     0
174
     0
 93
       13
 44
0.0
173
     0
291
     0
 45
0.0
  0
VISUALSTYLE
  5
42
102
{ACAD_REACTORS
330
2A
102
}
102
{ACAD_XDICTIONARY
360
197
102
}
330
2A
100
AcDbVisualStyle
  2
Shaded
 70
    27
 71
     2
 72
     2
 73
     1
 90
        2
 40
0.6
 41
30.0
 62
     5
 63
     7
421
 16777215
 74
     0
 91
        4
 64
     7
 65
   257
 75
     1
175
     1
 42
1.0
 92
        8
 66
   257
 43
1.0
 76
     1
 77
     6
 78
     2
 67
     8
425
  7895160
 79
     3
170
     0
171
     0
290
     0
174
     0
 93
        5
 44
0.0
173
     0
291
     0
 45
0.0
  0
VISUALSTYLE
  5
41
102
{ACAD_REACTORS
330
2A
102
}
102
{ACAD_XDICTIONARY
360
195
102
}
330
2A
100
AcDbVisualStyle
  2
Shaded with edges
 70
    26
 71
     2
 72
     2
 73
     1
 90
        2
 40
0.6
 41
30.0
 62
     5
 63
     7
421
 16777215
 74
     1
 91
       10
 64
     7
 65
   257
 75
     2
175
     1
 42
1.0
 92
        8
 66
   257
 43
1.0
 76
     1
 77
     6
 78
     2
 67
     7
 79
     3
170
     0
171
     0
290
     0
174
     0
 93
        5
 44
0.0
173
     0
291
     0
 45
0.0
  0
VISUALSTYLE
  5
3E
102
{ACAD_REACTORS
330
2A
102
}
102
{ACAD_XDICTIONARY
360
18F
102
}
330
2A
100
AcDbVisualStyle
  2
Shades of Gray
 70
    23
 71
     2
 72
     2
 73
     3
 90
        0
 40
0.6
 41
30.0
 62
     5
 63
     7
421
 16777215
 74
     2
 91
        2
 64
     7
 65
     7
 75
     1
175
     1
 42
40.0
 92
        8
 66
     7
 43
1.0
 76
     1
 77
     6
 78
     2
 67
     7
 79
     3
170
     0
171
     0
290
     0
174
     0
 93
        1
 44
0.0
173
     0
291
     0
 45
0.0
  0
VISUALSTYLE
  5
3F
102
{ACAD_REACTORS
330
2A
102
}
102
{ACAD_XDICTIONARY
360
191
102
}
330
2A
100
AcDbVisualStyle
  2
Sketchy
 70
    24
 71
     1
 72
     2
 73
     2
 90
        0
 40
0.6
 41
30.0
 62
     5
 63
     7
421
 16777215
 74
     2
 91
        2
 64
     7
 65
     7
 75
     1
175
     1
 42
40.0
 92
       11
 66
     7
 43
1.0
 76
     1
 77
     6
 78
     2
 67
     7
 79
     6
170
     0
171
     0
290
     0
174
     0
 93
        1
 44
0.0
173
     0
291
     0
 45
0.0
  0
VISUALSTYLE
  5
37
102
{ACAD_REACTORS
330
2A
102
}
102
{ACAD_XDICTIONARY
360
181
102
}
330
2A
100
AcDbVisualStyle
  2
Thicken
 70
    13
 71
     2
 72
     2
 73
     0
 90
        0
 40
0.6
 41
30.0
 62
     5
 63
     7
421
 16777215
 74
     1
 91
        4
 64
     7
 65
   257
 75
     1
175
     1
 42
1.0
 92
       12
 66
     7
 43
1.0
 76
     1
 77
     6
 78
     2
 67
     7
 79
     5
170
     0
171
     0
290
     0
174
     0
 93
        1
 44
0.0
173
     0
291
     1
 45
0.0
  0
VISUALSTYLE
  5
30
102
{ACAD_REACTORS
330
2A
102
}
102
{ACAD_XDICTIONARY
360
173
102
}
330
2A
100
AcDbVisualStyle
  2
Wireframe
 70
     5
 71
     0
 72
     2
 73
     0
 90
        0
 40
0.6
 41
30.0
 62
     5
 63
     7
421
 16777215
 74
     1
 91
        4
 64
     7
 65
   257
 75
     1
175
     1
 42
1.0
 92
        0
 66
   257
 43
1.0
 76
     1
 77
     6
 78
     2
 67
     7
 79
     3
170
     0
171
     0
290
     0
174
     0
 93
        1
 44
0.0
173
     0
291
     0
 45
0.0
  0
VISUALSTYLE
  5
40
102
{ACAD_REACTORS
330
2A
102
}
102
{ACAD_XDICTIONARY
360
193
102
}
330
2A
100
AcDbVisualStyle
  2
X-Ray
 70
    25
 71
     2
 72
     2
 73
     1
 90
        1
 40
0.5
 41
30.0
 62
     5
 63
     7
421
 16777215
 74
     1
 91
        0
 64
     7
 65
   257
 75
     1
175
     1
 42
1.0
 92
        8
 66
     7
 43
1.0
 76
     1
 77
     6
 78
     2
 67
     7
 79
     3
170
     0
171
     0
290
     0
174
     0
 93
       13
 44
0.0
173
     0
291
     0
 45
0.0
  0
DICTIONARYVAR
  5
167
102
{ACAD_REACTORS
330
166
102
}
330
166
100
DictionaryVariables
280
     0
  1
1:1
  0
DICTIONARYVAR
  5
1A0
102
{ACAD_REACTORS
330
166
102
}
330
166
100
DictionaryVariables
280
     0
  1
Standard
  0
DICTIONARYVAR
  5
19F
102
{ACAD_REACTORS
330
166
102
}
330
166
100
DictionaryVariables
280
     0
  1
Standard
  0
DICTIONARYVAR
  5
168
102
{ACAD_REACTORS
330
166
102
}
330
166
100
DictionaryVariables
280
     0
  1
2
  0
DICTIONARY
  5
19C
330
6C
100
AcDbDictionary
280
     1
281
     1
  3
ACAD_XREC_ROUNDTRIP
360
19D
  0
DICTIONARY
  5
199
330
6A
100
AcDbDictionary
280
     1
281
     1
  3
ACAD_ROUNDTRIP_2008_TABLESTYLE_CELLSTYLEMAP
360
19A
  0
DICTIONARY
  5
171
330
2F
100
AcDbDictionary
280
     1
281
     1
  3
ACAD_XREC_ROUNDTRIP
360
172
  0
DICTIONARY
  5
177
330
32
100
AcDbDictionary
280
     1
281
     1
  3
ACAD_XREC_ROUNDTRIP
360
178
  0
DICTIONARY
  5
17F
330
36
100
AcDbDictionary
280
     1
281
     1
  3
ACAD_XREC_ROUNDTRIP
360
180
  0
DICTIONARY
  5
187
330
3A
100
AcDbDictionary
280
     1
281
     1
  3
ACAD_XREC_ROUNDTRIP
360
188
  0
DICTIONARY
  5
17B
330
34
100
AcDbDictionary
280
     1
281
     1
  3
ACAD_XREC_ROUNDTRIP
360
17C
  0
DICTIONARY
  5
17D
330
35
100
AcDbDictionary
280
     1
281
     1
  3
ACAD_XREC_ROUNDTRIP
360
17E
  0
DICTIONARY
  5
18D
330
3D
100
AcDbDictionary
280
     1
281
     1
  3
ACAD_XREC_ROUNDTRIP
360
18E
  0
DICTIONARY
  5
185
330
39
100
AcDbDictionary
280
     1
281
     1
  3
ACAD_XREC_ROUNDTRIP
360
186
  0
DICTIONARY
  5
169
330
2B
100
AcDbDictionary
280
     1
281
     1
  3
ACAD_XREC_ROUNDTRIP
360
16A
  0
DICTIONARY
  5
16B
330
2C
100
AcDbDictionary
280
     1
281
     1
  3
ACAD_XREC_ROUNDTRIP
360
16C
  0
DICTIONARY
  5
16D
330
2D
100
AcDbDictionary
280
     1
281
     1
  3
ACAD_XREC_ROUNDTRIP
360
16E
  0
DICTIONARY
  5
16F
330
2E
100
AcDbDictionary
280
     1
281
     1
  3
ACAD_XREC_ROUNDTRIP
360
170
  0
DICTIONARY
  5
175
330
31
100
AcDbDictionary
280
     1
281
     1
  3
ACAD_XREC_ROUNDTRIP
360
176
  0
DICTIONARY
  5
189
330
3B
100
AcDbDictionary
280
     1
281
     1
  3
ACAD_XREC_ROUNDTRIP
360
18A
  0
DICTIONARY
  5
183
330
38
100
AcDbDictionary
280
     1
281
     1
  3
ACAD_XREC_ROUNDTRIP
360
184
  0
DICTIONARY
  5
18B
330
3C
100
AcDbDictionary
280
     1
281
     1
  3
ACAD_XREC_ROUNDTRIP
360
18C
  0
DICTIONARY
  5
179
330
33
100
AcDbDictionary
280
     1
281
     1
  3
ACAD_XREC_ROUNDTRIP
360
17A
  0
DICTIONARY
  5
197
330
42
100
AcDbDictionary
280
     1
281
     1
  3
ACAD_XREC_ROUNDTRIP
360
198
  0
DICTIONARY
  5
195
330
41
100
AcDbDictionary
280
     1
281
     1
  3
ACAD_XREC_ROUNDTRIP
360
196
  0
DICTIONARY
  5
18F
330
3E
100
AcDbDictionary
280
     1
281
     1
  3
ACAD_XREC_ROUNDTRIP
360
190
  0
DICTIONARY
  5
191
330
3F
100
AcDbDictionary
280
     1
281
     1
  3
ACAD_XREC_ROUNDTRIP
360
192
  0
DICTIONARY
  5
181
330
37
100
AcDbDictionary
280
     1
281
     1
  3
ACAD_XREC_ROUNDTRIP
360
182
  0
DICTIONARY
  5
173
330
30
100
AcDbDictionary
280
     1
281
     1
  3
ACAD_XREC_ROUNDTRIP
360
174
  0
DICTIONARY
  5
193
330
40
100
AcDbDictionary
280
     1
281
     1
  3
ACAD_XREC_ROUNDTRIP
360
194
  0
XRECORD
  5
19D
102
{ACAD_REACTORS
330
19C
102
}
330
19C
100
AcDbXrecord
280
     1
102
ACAD_ROUNDTRIP_2010_MLEADER_STYLE
  0
CELLSTYLEMAP
  5
19A
102
{ACAD_REACTORS
330
199
102
}
330
199
100
AcDbCellStyleMap
 90
        3
300
CELLSTYLE
  1
TABLEFORMAT_BEGIN
 90
        5
170
     1
 91
        0
 92
    32768
 62
   257
 93
        1
300
CONTENTFORMAT
  1
CONTENTFORMAT_BEGIN
 90
        0
 91
        0
 92
        4
 93
        0
300

 40
0.0
140
1.0
 94
        5
 62
     0
340
11
144
0.25
309
CONTENTFORMAT_END
171
     1
301
MARGIN
  1
CELLMARGIN_BEGIN
 40
0.06
 40
0.06
 40
0.06
 40
0.06
 40
0.06
 40
0.06
309
CELLMARGIN_END
 94
        6
 95
        1
302
GRIDFORMAT
  1
GRIDFORMAT_BEGIN
 90
        0
 91
        1
 62
     0
 92
       -2
340
14
 93
        0
 40
0.045
309
GRIDFORMAT_END
 95
        2
302
GRIDFORMAT
  1
GRIDFORMAT_BEGIN
 90
        0
 91
        1
 62
     0
 92
       -2
340
14
 93
        0
 40
0.045
309
GRIDFORMAT_END
 95
        4
302
GRIDFORMAT
  1
GRIDFORMAT_BEGIN
 90
        0
 91
        1
 62
     0
 92
       -2
340
14
 93
        0
 40
0.045
309
GRIDFORMAT_END
 95
        8
302
GRIDFORMAT
  1
GRIDFORMAT_BEGIN
 90
        0
 91
        1
 62
     0
 92
       -2
340
14
 93
        0
 40
0.045
309
GRIDFORMAT_END
 95
       16
302
GRIDFORMAT
  1
GRIDFORMAT_BEGIN
 90
        0
 91
        1
 62
     0
 92
       -2
340
14
 93
        0
 40
0.045
309
GRIDFORMAT_END
 95
       32
302
GRIDFORMAT
  1
GRIDFORMAT_BEGIN
 90
        0
 91
        1
 62
     0
 92
       -2
340
14
 93
        0
 40
0.045
309
GRIDFORMAT_END
309
TABLEFORMAT_END
  1
CELLSTYLE_BEGIN
 90
        1
 91
        1
300
_TITLE
309
CELLSTYLE_END
300
CELLSTYLE
  1
TABLEFORMAT_BEGIN
 90
        5
170
     1
 91
        0
 92
        0
 62
   257
 93
        1
300
CONTENTFORMAT
  1
CONTENTFORMAT_BEGIN
 90
        0
 91
        0
 92
        4
 93
        0
300

 40
0.0
140
1.0
 94
        5
 62
     0
340
11
144
0.18
309
CONTENTFORMAT_END
171
     1
301
MARGIN
  1
CELLMARGIN_BEGIN
 40
0.06
 40
0.06
 40
0.06
 40
0.06
 40
0.06
 40
0.06
309
CELLMARGIN_END
 94
        6
 95
        1
302
GRIDFORMAT
  1
GRIDFORMAT_BEGIN
 90
        0
 91
        1
 62
     0
 92
       -2
340
14
 93
        0
 40
0.045
309
GRIDFORMAT_END
 95
        2
302
GRIDFORMAT
  1
GRIDFORMAT_BEGIN
 90
        0
 91
        1
 62
     0
 92
       -2
340
14
 93
        0
 40
0.045
309
GRIDFORMAT_END
 95
        4
302
GRIDFORMAT
  1
GRIDFORMAT_BEGIN
 90
        0
 91
        1
 62
     0
 92
       -2
340
14
 93
        0
 40
0.045
309
GRIDFORMAT_END
 95
        8
302
GRIDFORMAT
  1
GRIDFORMAT_BEGIN
 90
        0
 91
        1
 62
     0
 92
       -2
340
14
 93
        0
 40
0.045
309
GRIDFORMAT_END
 95
       16
302
GRIDFORMAT
  1
GRIDFORMAT_BEGIN
 90
        0
 91
        1
 62
     0
 92
       -2
340
14
 93
        0
 40
0.045
309
GRIDFORMAT_END
 95
       32
302
GRIDFORMAT
  1
GRIDFORMAT_BEGIN
 90
        0
 91
        1
 62
     0
 92
       -2
340
14
 93
        0
 40
0.045
309
GRIDFORMAT_END
309
TABLEFORMAT_END
  1
CELLSTYLE_BEGIN
 90
        2
 91
        1
300
_HEADER
309
CELLSTYLE_END
300
CELLSTYLE
  1
TABLEFORMAT_BEGIN
 90
        5
170
     1
 91
        0
 92
        0
 62
   257
 93
        1
300
CONTENTFORMAT
  1
CONTENTFORMAT_BEGIN
 90
        0
 91
        0
 92
        4
 93
        0
300

 40
0.0
140
1.0
 94
        2
 62
     0
340
11
144
0.18
309
CONTENTFORMAT_END
171
     1
301
MARGIN
  1
CELLMARGIN_BEGIN
 40
0.06
 40
0.06
 40
0.06
 40
0.06
 40
0.06
 40
0.06
309
CELLMARGIN_END
 94
        6
 95
        1
302
GRIDFORMAT
  1
GRIDFORMAT_BEGIN
 90
        0
 91
        1
 62
     0
 92
       -2
340
14
 93
        0
 40
0.045
309
GRIDFORMAT_END
 95
        2
302
GRIDFORMAT
  1
GRIDFORMAT_BEGIN
 90
        0
 91
        1
 62
     0
 92
       -2
340
14
 93
        0
 40
0.045
309
GRIDFORMAT_END
 95
        4
302
GRIDFORMAT
  1
GRIDFORMAT_BEGIN
 90
        0
 91
        1
 62
     0
 92
       -2
340
14
 93
        0
 40
0.045
309
GRIDFORMAT_END
 95
        8
302
GRIDFORMAT
  1
GRIDFORMAT_BEGIN
 90
        0
 91
        1
 62
     0
 92
       -2
340
14
 93
        0
 40
0.045
309
GRIDFORMAT_END
 95
       16
302
GRIDFORMAT
  1
GRIDFORMAT_BEGIN
 90
        0
 91
        1
 62
     0
 92
       -2
340
14
 93
        0
 40
0.045
309
GRIDFORMAT_END
 95
       32
302
GRIDFORMAT
  1
GRIDFORMAT_BEGIN
 90
        0
 91
        1
 62
     0
 92
       -2
340
14
 93
        0
 40
0.045
309
GRIDFORMAT_END
309
TABLEFORMAT_END
  1
CELLSTYLE_BEGIN
 90
        3
 91
        2
300
_DATA
309
CELLSTYLE_END
  0
XRECORD
  5
172
102
{ACAD_REACTORS
330
171
102
}
330
171
100
AcDbXrecord
280
     1
102
RTVSPropertyOp0
 70
     1
102
RTVSPropertyOp1
 70
     1
102
RTVSPropertyOp2
 70
     1
102
RTVSPropertyOp3
 70
     1
102
RTVSPropertyOp4
 70
     1
102
RTVSPropertyOp5
 70
     1
102
RTVSPropertyOp6
 70
     1
102
RTVSPropertyOp7
 70
     1
102
RTVSPropertyOp8
 70
     1
102
RTVSPropertyOp9
 70
     1
102
RTVSPropertyOp10
 70
     1
102
RTVSPropertyOp11
 70
     1
102
RTVSPropertyOp12
 70
     1
102
RTVSPropertyOp13
 70
     1
102
RTVSPropertyOp14
 70
     1
102
RTVSPropertyOp15
 70
     1
102
RTVSPropertyOp16
 70
     1
102
RTVSPropertyOp17
 70
     1
102
RTVSPropertyOp18
 70
     1
102
RTVSPropertyOp19
 70
     1
102
RTVSPropertyOp20
 70
     1
102
RTVSPropertyOp21
 70
     1
102
RTVSPropertyOp22
 70
     1
102
RTVSPropertyOp23
 70
     1
102
RTVSPropertyOp24
 70
     1
102
RTVSPropertyOp25
 70
     1
102
RTVSPropertyOp26
 70
     1
102
RTVSPropertyOp27
 70
     1
102
RTVSPropertyOp28
 70
     1
102
RTVSPropertyOp29
 70
     1
102
RTVSPropertyOp30
 70
     1
102
RTVSPropertyOp31
 70
     1
102
RTVSPropertyOp32
 70
     1
102
RTVSPropertyOp33
 70
     1
102
RTVSPropertyOp34
 70
     1
102
RTVSPropertyOp35
 70
     1
102
RTVSPropertyOp36
 70
     1
102
RTVSPropertyOp37
 70
     1
102
RTVSPropertyOp38
 70
     1
102
RTVSPropertyOp39
 70
     1
102
RTVSPropertyOp40
 70
     1
102
RTVSPropertyOp41
 70
     1
102
RTVSPropertyOp42
 70
     1
102
RTVSPropertyOp43
 70
     1
102
RTVSPropertyOp44
 70
     1
102
RTVSPropertyOp45
 70
     1
102
RTVSPropertyOp46
 70
     1
102
RTVSPropertyOp47
 70
     1
102
RTVSPropertyOp48
 70
     1
102
RTVSPropertyOp49
 70
     1
102
RTVSPropertyOp50
 70
     1
102
RTVSPropertyOp51
 70
     0
102
RTVSPropertyOp52
 70
     0
102
RTVSPropertyOp53
 70
     1
102
RTVSPropertyOp54
 70
     1
102
RTVSPropertyOp55
 70
     1
102
RTVSPropertyOp56
 70
     1
102
RTVSPropertyOp57
 70
     1
102
RTVSPost2010Prop28
280
     1
102
RTVSPost2010PropOp28
 70
     1
102
RTVSPost2010Prop29
280
     1
102
RTVSPost2010PropOp29
 70
     1
102
RTVSPost2010Prop30
280
     0
102
RTVSPost2010PropOp30
 70
     1
102
RTVSPost2010Prop31
280
     0
102
RTVSPost2010PropOp31
 70
     1
102
RTVSPost2010Prop32
280
     0
102
RTVSPost2010PropOp32
 70
     1
102
RTVSPost2010Prop33
280
     0
102
RTVSPost2010PropOp33
 70
     1
102
RTVSPost2010Prop34
280
     0
102
RTVSPost2010PropOp34
 70
     1
102
RTVSPost2010Prop35
280
     0
102
RTVSPost2010PropOp35
 70
     1
102
RTVSPost2010Prop36
280
     0
102
RTVSPost2010PropOp36
 70
     1
102
RTVSPost2010Prop37
 90
       50
102
RTVSPost2010PropOp37
 70
     1
102
RTVSPost2010Prop38
140
0.0
102
RTVSPost2010PropOp38
 70
     1
102
RTVSPost2010Prop39
140
1.0
102
RTVSPost2010PropOp39
 70
     1
102
RTVSPost2010Prop40
 90
        0
102
RTVSPost2010PropOp40
 70
     1
102
RTVSPost2010Prop41ColorIndex
 90
       18
102
RTVSPost2010Prop41ColorRGB
 90
        0
102
RTVSPost2010PropOp41
 70
     1
102
RTVSPost2010Prop42
 90
       50
102
RTVSPost2010PropOp42
 70
     1
102
RTVSPost2010Prop43
 90
        3
102
RTVSPost2010PropOp43
 70
     1
102
RTVSPost2010Prop44ColorIndex
 90
        5
102
RTVSPost2010Prop44ColorRGB
 90
      255
102
RTVSPost2010PropOp44
 70
     1
102
RTVSPost2010Prop45
280
     0
102
RTVSPost2010PropOp45
 70
     1
102
RTVSPost2010Prop46
 90
       50
102
RTVSPost2010PropOp46
 70
     1
102
RTVSPost2010Prop47
 90
       50
102
RTVSPost2010PropOp47
 70
     1
102
RTVSPost2010Prop48
 90
       50
102
RTVSPost2010PropOp48
 70
     1
102
RTVSPost2010Prop49
280
     0
102
RTVSPost2010PropOp49
 70
     1
102
RTVSPost2010Prop50
 90
       50
102
RTVSPost2010PropOp50
 70
     1
102
RTVSPost2010Prop51ColorIndex
 90
      256
102
RTVSPost2010Prop51ColorRGB
 90
-16777216
102
RTVSPost2010PropOp51
 70
     0
102
RTVSPost2010Prop52
140
1.0
102
RTVSPost2010PropOp52
 70
     0
102
RTVSPost2010Prop53
 90
        2
102
RTVSPost2010PropOp53
 70
     1
102
RTVSPost2010Prop54
  1
strokes_ogs.tif
102
RTVSPost2010PropOp54
 70
     1
102
RTVSPost2010Prop55
280
     0
102
RTVSPost2010PropOp55
 70
     1
102
RTVSPost2010Prop56
140
1.0
102
RTVSPost2010PropOp56
 70
     1
102
RTVSPost2010Prop57
140
1.0
102
RTVSPost2010PropOp57
 70
     1
  0
XRECORD
  5
178
102
{ACAD_REACTORS
330
177
102
}
330
177
100
AcDbXrecord
280
     1
102
RTVSPropertyOp0
 70
     1
102
RTVSPropertyOp1
 70
     1
102
RTVSPropertyOp2
 70
     1
102
RTVSPropertyOp3
 70
     1
102
RTVSPropertyOp4
 70
     1
102
RTVSPropertyOp5
 70
     1
102
RTVSPropertyOp6
 70
     1
102
RTVSPropertyOp7
 70
     1
102
RTVSPropertyOp8
 70
     1
102
RTVSPropertyOp9
 70
     1
102
RTVSPropertyOp10
 70
     1
102
RTVSPropertyOp11
 70
     1
102
RTVSPropertyOp12
 70
     1
102
RTVSPropertyOp13
 70
     1
102
RTVSPropertyOp14
 70
     1
102
RTVSPropertyOp15
 70
     1
102
RTVSPropertyOp16
 70
     1
102
RTVSPropertyOp17
 70
     1
102
RTVSPropertyOp18
 70
     1
102
RTVSPropertyOp19
 70
     1
102
RTVSPropertyOp20
 70
     1
102
RTVSPropertyOp21
 70
     1
102
RTVSPropertyOp22
 70
     1
102
RTVSPropertyOp23
 70
     1
102
RTVSPropertyOp24
 70
     1
102
RTVSPropertyOp25
 70
     1
102
RTVSPropertyOp26
 70
     1
102
RTVSPropertyOp27
 70
     1
102
RTVSPropertyOp28
 70
     1
102
RTVSPropertyOp29
 70
     1
102
RTVSPropertyOp30
 70
     1
102
RTVSPropertyOp31
 70
     1
102
RTVSPropertyOp32
 70
     1
102
RTVSPropertyOp33
 70
     1
102
RTVSPropertyOp34
 70
     1
102
RTVSPropertyOp35
 70
     1
102
RTVSPropertyOp36
 70
     1
102
RTVSPropertyOp37
 70
     1
102
RTVSPropertyOp38
 70
     1
102
RTVSPropertyOp39
 70
     1
102
RTVSPropertyOp40
 70
     1
102
RTVSPropertyOp41
 70
     1
102
RTVSPropertyOp42
 70
     1
102
RTVSPropertyOp43
 70
     1
102
RTVSPropertyOp44
 70
     1
102
RTVSPropertyOp45
 70
     1
102
RTVSPropertyOp46
 70
     1
102
RTVSPropertyOp47
 70
     1
102
RTVSPropertyOp48
 70
     1
102
RTVSPropertyOp49
 70
     1
102
RTVSPropertyOp50
 70
     1
102
RTVSPropertyOp51
 70
     0
102
RTVSPropertyOp52
 70
     0
102
RTVSPropertyOp53
 70
     1
102
RTVSPropertyOp54
 70
     1
102
RTVSPropertyOp55
 70
     1
102
RTVSPropertyOp56
 70
     1
102
RTVSPropertyOp57
 70
     1
102
RTVSPost2010Prop28
280
     0
102
RTVSPost2010PropOp28
 70
     1
102
RTVSPost2010Prop29
280
     1
102
RTVSPost2010PropOp29
 70
     1
102
RTVSPost2010Prop30
280
     1
102
RTVSPost2010PropOp30
 70
     1
102
RTVSPost2010Prop31
280
     0
102
RTVSPost2010PropOp31
 70
     1
102
RTVSPost2010Prop32
280
     0
102
RTVSPost2010PropOp32
 70
     1
102
RTVSPost2010Prop33
280
     0
102
RTVSPost2010PropOp33
 70
     1
102
RTVSPost2010Prop34
280
     0
102
RTVSPost2010PropOp34
 70
     1
102
RTVSPost2010Prop35
280
     0
102
RTVSPost2010PropOp35
 70
     1
102
RTVSPost2010Prop36
280
     0
102
RTVSPost2010PropOp36
 70
     1
102
RTVSPost2010Prop37
 90
       50
102
RTVSPost2010PropOp37
 70
     1
102
RTVSPost2010Prop38
140
0.0
102
RTVSPost2010PropOp38
 70
     1
102
RTVSPost2010Prop39
140
1.0
102
RTVSPost2010PropOp39
 70
     1
102
RTVSPost2010Prop40
 90
        0
102
RTVSPost2010PropOp40
 70
     1
102
RTVSPost2010Prop41ColorIndex
 90
       18
102
RTVSPost2010Prop41ColorRGB
 90
        0
102
RTVSPost2010PropOp41
 70
     1
102
RTVSPost2010Prop42
 90
       50
102
RTVSPost2010PropOp42
 70
     1
102
RTVSPost2010Prop43
 90
        3
102
RTVSPost2010PropOp43
 70
     1
102
RTVSPost2010Prop44ColorIndex
 90
        5
102
RTVSPost2010Prop44ColorRGB
 90
      255
102
RTVSPost2010PropOp44
 70
     1
102
RTVSPost2010Prop45
280
     0
102
RTVSPost2010PropOp45
 70
     1
102
RTVSPost2010Prop46
 90
       50
102
RTVSPost2010PropOp46
 70
     1
102
RTVSPost2010Prop47
 90
       50
102
RTVSPost2010PropOp47
 70
     1
102
RTVSPost2010Prop48
 90
       50
102
RTVSPost2010PropOp48
 70
     1
102
RTVSPost2010Prop49
280
     0
102
RTVSPost2010PropOp49
 70
     1
102
RTVSPost2010Prop50
 90
       50
102
RTVSPost2010PropOp50
 70
     1
102
RTVSPost2010Prop51ColorIndex
 90
      256
102
RTVSPost2010Prop51ColorRGB
 90
-16777216
102
RTVSPost2010PropOp51
 70
     0
102
RTVSPost2010Prop52
140
1.0
102
RTVSPost2010PropOp52
 70
     0
102
RTVSPost2010Prop53
 90
        2
102
RTVSPost2010PropOp53
 70
     1
102
RTVSPost2010Prop54
  1
strokes_ogs.tif
102
RTVSPost2010PropOp54
 70
     1
102
RTVSPost2010Prop55
280
     0
102
RTVSPost2010PropOp55
 70
     1
102
RTVSPost2010Prop56
140
1.0
102
RTVSPost2010PropOp56
 70
     1
102
RTVSPost2010Prop57
140
1.0
102
RTVSPost2010PropOp57
 70
     1
  0
XRECORD
  5
180
102
{ACAD_REACTORS
330
17F
102
}
330
17F
100
AcDbXrecord
280
     1
102
RTVSPropertyOp0
 70
     1
102
RTVSPropertyOp1
 70
     1
102
RTVSPropertyOp2
 70
     1
102
RTVSPropertyOp3
 70
     1
102
RTVSPropertyOp4
 70
     1
102
RTVSPropertyOp5
 70
     1
102
RTVSPropertyOp6
 70
     1
102
RTVSPropertyOp7
 70
     1
102
RTVSPropertyOp8
 70
     1
102
RTVSPropertyOp9
 70
     1
102
RTVSPropertyOp10
 70
     1
102
RTVSPropertyOp11
 70
     1
102
RTVSPropertyOp12
 70
     1
102
RTVSPropertyOp13
 70
     1
102
RTVSPropertyOp14
 70
     1
102
RTVSPropertyOp15
 70
     1
102
RTVSPropertyOp16
 70
     1
102
RTVSPropertyOp17
 70
     1
102
RTVSPropertyOp18
 70
     1
102
RTVSPropertyOp19
 70
     1
102
RTVSPropertyOp20
 70
     1
102
RTVSPropertyOp21
 70
     1
102
RTVSPropertyOp22
 70
     1
102
RTVSPropertyOp23
 70
     1
102
RTVSPropertyOp24
 70
     1
102
RTVSPropertyOp25
 70
     1
102
RTVSPropertyOp26
 70
     1
102
RTVSPropertyOp27
 70
     1
102
RTVSPropertyOp28
 70
     1
102
RTVSPropertyOp29
 70
     1
102
RTVSPropertyOp30
 70
     1
102
RTVSPropertyOp31
 70
     1
102
RTVSPropertyOp32
 70
     1
102
RTVSPropertyOp33
 70
     1
102
RTVSPropertyOp34
 70
     1
102
RTVSPropertyOp35
 70
     1
102
RTVSPropertyOp36
 70
     1
102
RTVSPropertyOp37
 70
     1
102
RTVSPropertyOp38
 70
     1
102
RTVSPropertyOp39
 70
     1
102
RTVSPropertyOp40
 70
     1
102
RTVSPropertyOp41
 70
     1
102
RTVSPropertyOp42
 70
     1
102
RTVSPropertyOp43
 70
     1
102
RTVSPropertyOp44
 70
     1
102
RTVSPropertyOp45
 70
     1
102
RTVSPropertyOp46
 70
     1
102
RTVSPropertyOp47
 70
     1
102
RTVSPropertyOp48
 70
     1
102
RTVSPropertyOp49
 70
     1
102
RTVSPropertyOp50
 70
     1
102
RTVSPropertyOp51
 70
     0
102
RTVSPropertyOp52
 70
     0
102
RTVSPropertyOp53
 70
     1
102
RTVSPropertyOp54
 70
     1
102
RTVSPropertyOp55
 70
     1
102
RTVSPropertyOp56
 70
     1
102
RTVSPropertyOp57
 70
     1
102
RTVSPost2010Prop28
280
     0
102
RTVSPost2010PropOp28
 70
     1
102
RTVSPost2010Prop29
280
     1
102
RTVSPost2010PropOp29
 70
     1
102
RTVSPost2010Prop30
280
     1
102
RTVSPost2010PropOp30
 70
     1
102
RTVSPost2010Prop31
280
     0
102
RTVSPost2010PropOp31
 70
     1
102
RTVSPost2010Prop32
280
     0
102
RTVSPost2010PropOp32
 70
     1
102
RTVSPost2010Prop33
280
     0
102
RTVSPost2010PropOp33
 70
     1
102
RTVSPost2010Prop34
280
     0
102
RTVSPost2010PropOp34
 70
     1
102
RTVSPost2010Prop35
280
     0
102
RTVSPost2010PropOp35
 70
     1
102
RTVSPost2010Prop36
280
     0
102
RTVSPost2010PropOp36
 70
     1
102
RTVSPost2010Prop37
 90
       50
102
RTVSPost2010PropOp37
 70
     1
102
RTVSPost2010Prop38
140
0.0
102
RTVSPost2010PropOp38
 70
     1
102
RTVSPost2010Prop39
140
1.0
102
RTVSPost2010PropOp39
 70
     1
102
RTVSPost2010Prop40
 90
        0
102
RTVSPost2010PropOp40
 70
     1
102
RTVSPost2010Prop41ColorIndex
 90
       18
102
RTVSPost2010Prop41ColorRGB
 90
        0
102
RTVSPost2010PropOp41
 70
     1
102
RTVSPost2010Prop42
 90
       50
102
RTVSPost2010PropOp42
 70
     1
102
RTVSPost2010Prop43
 90
        3
102
RTVSPost2010PropOp43
 70
     1
102
RTVSPost2010Prop44ColorIndex
 90
        5
102
RTVSPost2010Prop44ColorRGB
 90
      255
102
RTVSPost2010PropOp44
 70
     1
102
RTVSPost2010Prop45
280
     0
102
RTVSPost2010PropOp45
 70
     1
102
RTVSPost2010Prop46
 90
       50
102
RTVSPost2010PropOp46
 70
     1
102
RTVSPost2010Prop47
 90
       50
102
RTVSPost2010PropOp47
 70
     1
102
RTVSPost2010Prop48
 90
       50
102
RTVSPost2010PropOp48
 70
     1
102
RTVSPost2010Prop49
280
     0
102
RTVSPost2010PropOp49
 70
     1
102
RTVSPost2010Prop50
 90
       50
102
RTVSPost2010PropOp50
 70
     1
102
RTVSPost2010Prop51ColorIndex
 90
      256
102
RTVSPost2010Prop51ColorRGB
 90
-16777216
102
RTVSPost2010PropOp51
 70
     0
102
RTVSPost2010Prop52
140
1.0
102
RTVSPost2010PropOp52
 70
     0
102
RTVSPost2010Prop53
 90
        2
102
RTVSPost2010PropOp53
 70
     1
102
RTVSPost2010Prop54
  1
strokes_ogs.tif
102
RTVSPost2010PropOp54
 70
     1
102
RTVSPost2010Prop55
280
     0
102
RTVSPost2010PropOp55
 70
     1
102
RTVSPost2010Prop56
140
1.0
102
RTVSPost2010PropOp56
 70
     1
102
RTVSPost2010Prop57
140
1.0
102
RTVSPost2010PropOp57
 70
     1
  0
XRECORD
  5
188
102
{ACAD_REACTORS
330
187
102
}
330
187
100
AcDbXrecord
280
     1
102
RTVSPropertyOp0
 70
     1
102
RTVSPropertyOp1
 70
     1
102
RTVSPropertyOp2
 70
     1
102
RTVSPropertyOp3
 70
     1
102
RTVSPropertyOp4
 70
     1
102
RTVSPropertyOp5
 70
     1
102
RTVSPropertyOp6
 70
     1
102
RTVSPropertyOp7
 70
     1
102
RTVSPropertyOp8
 70
     1
102
RTVSPropertyOp9
 70
     1
102
RTVSPropertyOp10
 70
     1
102
RTVSPropertyOp11
 70
     1
102
RTVSPropertyOp12
 70
     1
102
RTVSPropertyOp13
 70
     1
102
RTVSPropertyOp14
 70
     1
102
RTVSPropertyOp15
 70
     1
102
RTVSPropertyOp16
 70
     1
102
RTVSPropertyOp17
 70
     1
102
RTVSPropertyOp18
 70
     1
102
RTVSPropertyOp19
 70
     1
102
RTVSPropertyOp20
 70
     1
102
RTVSPropertyOp21
 70
     1
102
RTVSPropertyOp22
 70
     1
102
RTVSPropertyOp23
 70
     1
102
RTVSPropertyOp24
 70
     1
102
RTVSPropertyOp25
 70
     1
102
RTVSPropertyOp26
 70
     1
102
RTVSPropertyOp27
 70
     1
102
RTVSPropertyOp28
 70
     1
102
RTVSPropertyOp29
 70
     1
102
RTVSPropertyOp30
 70
     1
102
RTVSPropertyOp31
 70
     1
102
RTVSPropertyOp32
 70
     1
102
RTVSPropertyOp33
 70
     1
102
RTVSPropertyOp34
 70
     1
102
RTVSPropertyOp35
 70
     1
102
RTVSPropertyOp36
 70
     1
102
RTVSPropertyOp37
 70
     1
102
RTVSPropertyOp38
 70
     1
102
RTVSPropertyOp39
 70
     1
102
RTVSPropertyOp40
 70
     1
102
RTVSPropertyOp41
 70
     1
102
RTVSPropertyOp42
 70
     1
102
RTVSPropertyOp43
 70
     1
102
RTVSPropertyOp44
 70
     1
102
RTVSPropertyOp45
 70
     1
102
RTVSPropertyOp46
 70
     1
102
RTVSPropertyOp47
 70
     1
102
RTVSPropertyOp48
 70
     1
102
RTVSPropertyOp49
 70
     1
102
RTVSPropertyOp50
 70
     1
102
RTVSPropertyOp51
 70
     0
102
RTVSPropertyOp52
 70
     0
102
RTVSPropertyOp53
 70
     1
102
RTVSPropertyOp54
 70
     1
102
RTVSPropertyOp55
 70
     1
102
RTVSPropertyOp56
 70
     1
102
RTVSPropertyOp57
 70
     1
102
RTVSPost2010Prop28
280
     0
102
RTVSPost2010PropOp28
 70
     1
102
RTVSPost2010Prop29
280
     1
102
RTVSPost2010PropOp29
 70
     1
102
RTVSPost2010Prop30
280
     1
102
RTVSPost2010PropOp30
 70
     1
102
RTVSPost2010Prop31
280
     0
102
RTVSPost2010PropOp31
 70
     1
102
RTVSPost2010Prop32
280
     0
102
RTVSPost2010PropOp32
 70
     1
102
RTVSPost2010Prop33
280
     0
102
RTVSPost2010PropOp33
 70
     1
102
RTVSPost2010Prop34
280
     0
102
RTVSPost2010PropOp34
 70
     1
102
RTVSPost2010Prop35
280
     0
102
RTVSPost2010PropOp35
 70
     1
102
RTVSPost2010Prop36
280
     0
102
RTVSPost2010PropOp36
 70
     1
102
RTVSPost2010Prop37
 90
       50
102
RTVSPost2010PropOp37
 70
     1
102
RTVSPost2010Prop38
140
0.0
102
RTVSPost2010PropOp38
 70
     1
102
RTVSPost2010Prop39
140
1.0
102
RTVSPost2010PropOp39
 70
     1
102
RTVSPost2010Prop40
 90
        0
102
RTVSPost2010PropOp40
 70
     1
102
RTVSPost2010Prop41ColorIndex
 90
       18
102
RTVSPost2010Prop41ColorRGB
 90
        0
102
RTVSPost2010PropOp41
 70
     1
102
RTVSPost2010Prop42
 90
       50
102
RTVSPost2010PropOp42
 70
     1
102
RTVSPost2010Prop43
 90
        3
102
RTVSPost2010PropOp43
 70
     1
102
RTVSPost2010Prop44ColorIndex
 90
        5
102
RTVSPost2010Prop44ColorRGB
 90
      255
102
RTVSPost2010PropOp44
 70
     1
102
RTVSPost2010Prop45
280
     0
102
RTVSPost2010PropOp45
 70
     1
102
RTVSPost2010Prop46
 90
       50
102
RTVSPost2010PropOp46
 70
     1
102
RTVSPost2010Prop47
 90
       50
102
RTVSPost2010PropOp47
 70
     1
102
RTVSPost2010Prop48
 90
       50
102
RTVSPost2010PropOp48
 70
     1
102
RTVSPost2010Prop49
280
     0
102
RTVSPost2010PropOp49
 70
     1
102
RTVSPost2010Prop50
 90
       50
102
RTVSPost2010PropOp50
 70
     1
102
RTVSPost2010Prop51ColorIndex
 90
      256
102
RTVSPost2010Prop51ColorRGB
 90
-16777216
102
RTVSPost2010PropOp51
 70
     0
102
RTVSPost2010Prop52
140
1.0
102
RTVSPost2010PropOp52
 70
     0
102
RTVSPost2010Prop53
 90
        2
102
RTVSPost2010PropOp53
 70
     1
102
RTVSPost2010Prop54
  1
strokes_ogs.tif
102
RTVSPost2010PropOp54
 70
     1
102
RTVSPost2010Prop55
280
     0
102
RTVSPost2010PropOp55
 70
     1
102
RTVSPost2010Prop56
140
1.0
102
RTVSPost2010PropOp56
 70
     1
102
RTVSPost2010Prop57
140
1.0
102
RTVSPost2010PropOp57
 70
     1
  0
XRECORD
  5
17C
102
{ACAD_REACTORS
330
17B
102
}
330
17B
100
AcDbXrecord
280
     1
102
RTVSPropertyOp0
 70
     1
102
RTVSPropertyOp1
 70
     1
102
RTVSPropertyOp2
 70
     1
102
RTVSPropertyOp3
 70
     1
102
RTVSPropertyOp4
 70
     1
102
RTVSPropertyOp5
 70
     1
102
RTVSPropertyOp6
 70
     1
102
RTVSPropertyOp7
 70
     1
102
RTVSPropertyOp8
 70
     1
102
RTVSPropertyOp9
 70
     1
102
RTVSPropertyOp10
 70
     1
102
RTVSPropertyOp11
 70
     1
102
RTVSPropertyOp12
 70
     1
102
RTVSPropertyOp13
 70
     1
102
RTVSPropertyOp14
 70
     1
102
RTVSPropertyOp15
 70
     1
102
RTVSPropertyOp16
 70
     1
102
RTVSPropertyOp17
 70
     1
102
RTVSPropertyOp18
 70
     1
102
RTVSPropertyOp19
 70
     1
102
RTVSPropertyOp20
 70
     1
102
RTVSPropertyOp21
 70
     1
102
RTVSPropertyOp22
 70
     1
102
RTVSPropertyOp23
 70
     1
102
RTVSPropertyOp24
 70
     1
102
RTVSPropertyOp25
 70
     1
102
RTVSPropertyOp26
 70
     1
102
RTVSPropertyOp27
 70
     1
102
RTVSPropertyOp28
 70
     1
102
RTVSPropertyOp29
 70
     1
102
RTVSPropertyOp30
 70
     1
102
RTVSPropertyOp31
 70
     1
102
RTVSPropertyOp32
 70
     1
102
RTVSPropertyOp33
 70
     1
102
RTVSPropertyOp34
 70
     1
102
RTVSPropertyOp35
 70
     1
102
RTVSPropertyOp36
 70
     1
102
RTVSPropertyOp37
 70
     1
102
RTVSPropertyOp38
 70
     1
102
RTVSPropertyOp39
 70
     1
102
RTVSPropertyOp40
 70
     1
102
RTVSPropertyOp41
 70
     1
102
RTVSPropertyOp42
 70
     1
102
RTVSPropertyOp43
 70
     1
102
RTVSPropertyOp44
 70
     1
102
RTVSPropertyOp45
 70
     1
102
RTVSPropertyOp46
 70
     1
102
RTVSPropertyOp47
 70
     1
102
RTVSPropertyOp48
 70
     1
102
RTVSPropertyOp49
 70
     1
102
RTVSPropertyOp50
 70
     1
102
RTVSPropertyOp51
 70
     0
102
RTVSPropertyOp52
 70
     0
102
RTVSPropertyOp53
 70
     1
102
RTVSPropertyOp54
 70
     1
102
RTVSPropertyOp55
 70
     1
102
RTVSPropertyOp56
 70
     1
102
RTVSPropertyOp57
 70
     1
102
RTVSPost2010Prop28
280
     0
102
RTVSPost2010PropOp28
 70
     1
102
RTVSPost2010Prop29
280
     1
102
RTVSPost2010PropOp29
 70
     1
102
RTVSPost2010Prop30
280
     1
102
RTVSPost2010PropOp30
 70
     1
102
RTVSPost2010Prop31
280
     0
102
RTVSPost2010PropOp31
 70
     1
102
RTVSPost2010Prop32
280
     0
102
RTVSPost2010PropOp32
 70
     1
102
RTVSPost2010Prop33
280
     0
102
RTVSPost2010PropOp33
 70
     1
102
RTVSPost2010Prop34
280
     0
102
RTVSPost2010PropOp34
 70
     1
102
RTVSPost2010Prop35
280
     0
102
RTVSPost2010PropOp35
 70
     1
102
RTVSPost2010Prop36
280
     0
102
RTVSPost2010PropOp36
 70
     1
102
RTVSPost2010Prop37
 90
       50
102
RTVSPost2010PropOp37
 70
     1
102
RTVSPost2010Prop38
140
0.0
102
RTVSPost2010PropOp38
 70
     1
102
RTVSPost2010Prop39
140
1.0
102
RTVSPost2010PropOp39
 70
     1
102
RTVSPost2010Prop40
 90
        0
102
RTVSPost2010PropOp40
 70
     1
102
RTVSPost2010Prop41ColorIndex
 90
       18
102
RTVSPost2010Prop41ColorRGB
 90
        0
102
RTVSPost2010PropOp41
 70
     1
102
RTVSPost2010Prop42
 90
       50
102
RTVSPost2010PropOp42
 70
     1
102
RTVSPost2010Prop43
 90
        3
102
RTVSPost2010PropOp43
 70
     1
102
RTVSPost2010Prop44ColorIndex
 90
        5
102
RTVSPost2010Prop44ColorRGB
 90
      255
102
RTVSPost2010PropOp44
 70
     1
102
RTVSPost2010Prop45
280
     0
102
RTVSPost2010PropOp45
 70
     1
102
RTVSPost2010Prop46
 90
       50
102
RTVSPost2010PropOp46
 70
     1
102
RTVSPost2010Prop47
 90
       50
102
RTVSPost2010PropOp47
 70
     1
102
RTVSPost2010Prop48
 90
       50
102
RTVSPost2010PropOp48
 70
     1
102
RTVSPost2010Prop49
280
     0
102
RTVSPost2010PropOp49
 70
     1
102
RTVSPost2010Prop50
 90
       50
102
RTVSPost2010PropOp50
 70
     1
102
RTVSPost2010Prop51ColorIndex
 90
      256
102
RTVSPost2010Prop51ColorRGB
 90
-16777216
102
RTVSPost2010PropOp51
 70
     0
102
RTVSPost2010Prop52
140
1.0
102
RTVSPost2010PropOp52
 70
     0
102
RTVSPost2010Prop53
 90
        2
102
RTVSPost2010PropOp53
 70
     1
102
RTVSPost2010Prop54
  1
strokes_ogs.tif
102
RTVSPost2010PropOp54
 70
     1
102
RTVSPost2010Prop55
280
     0
102
RTVSPost2010PropOp55
 70
     1
102
RTVSPost2010Prop56
140
1.0
102
RTVSPost2010PropOp56
 70
     1
102
RTVSPost2010Prop57
140
1.0
102
RTVSPost2010PropOp57
 70
     1
  0
XRECORD
  5
17E
102
{ACAD_REACTORS
330
17D
102
}
330
17D
100
AcDbXrecord
280
     1
102
RTVSPropertyOp0
 70
     1
102
RTVSPropertyOp1
 70
     1
102
RTVSPropertyOp2
 70
     1
102
RTVSPropertyOp3
 70
     1
102
RTVSPropertyOp4
 70
     1
102
RTVSPropertyOp5
 70
     1
102
RTVSPropertyOp6
 70
     1
102
RTVSPropertyOp7
 70
     1
102
RTVSPropertyOp8
 70
     1
102
RTVSPropertyOp9
 70
     1
102
RTVSPropertyOp10
 70
     1
102
RTVSPropertyOp11
 70
     1
102
RTVSPropertyOp12
 70
     1
102
RTVSPropertyOp13
 70
     1
102
RTVSPropertyOp14
 70
     1
102
RTVSPropertyOp15
 70
     1
102
RTVSPropertyOp16
 70
     1
102
RTVSPropertyOp17
 70
     1
102
RTVSPropertyOp18
 70
     1
102
RTVSPropertyOp19
 70
     1
102
RTVSPropertyOp20
 70
     1
102
RTVSPropertyOp21
 70
     1
102
RTVSPropertyOp22
 70
     1
102
RTVSPropertyOp23
 70
     1
102
RTVSPropertyOp24
 70
     1
102
RTVSPropertyOp25
 70
     1
102
RTVSPropertyOp26
 70
     1
102
RTVSPropertyOp27
 70
     1
102
RTVSPropertyOp28
 70
     1
102
RTVSPropertyOp29
 70
     1
102
RTVSPropertyOp30
 70
     1
102
RTVSPropertyOp31
 70
     1
102
RTVSPropertyOp32
 70
     1
102
RTVSPropertyOp33
 70
     1
102
RTVSPropertyOp34
 70
     1
102
RTVSPropertyOp35
 70
     1
102
RTVSPropertyOp36
 70
     1
102
RTVSPropertyOp37
 70
     1
102
RTVSPropertyOp38
 70
     1
102
RTVSPropertyOp39
 70
     1
102
RTVSPropertyOp40
 70
     1
102
RTVSPropertyOp41
 70
     1
102
RTVSPropertyOp42
 70
     1
102
RTVSPropertyOp43
 70
     1
102
RTVSPropertyOp44
 70
     1
102
RTVSPropertyOp45
 70
     1
102
RTVSPropertyOp46
 70
     1
102
RTVSPropertyOp47
 70
     1
102
RTVSPropertyOp48
 70
     1
102
RTVSPropertyOp49
 70
     1
102
RTVSPropertyOp50
 70
     1
102
RTVSPropertyOp51
 70
     0
102
RTVSPropertyOp52
 70
     0
102
RTVSPropertyOp53
 70
     1
102
RTVSPropertyOp54
 70
     1
102
RTVSPropertyOp55
 70
     1
102
RTVSPropertyOp56
 70
     1
102
RTVSPropertyOp57
 70
     1
102
RTVSPost2010Prop28
280
     0
102
RTVSPost2010PropOp28
 70
     1
102
RTVSPost2010Prop29
280
     1
102
RTVSPost2010PropOp29
 70
     1
102
RTVSPost2010Prop30
280
     1
102
RTVSPost2010PropOp30
 70
     1
102
RTVSPost2010Prop31
280
     0
102
RTVSPost2010PropOp31
 70
     1
102
RTVSPost2010Prop32
280
     0
102
RTVSPost2010PropOp32
 70
     1
102
RTVSPost2010Prop33
280
     0
102
RTVSPost2010PropOp33
 70
     1
102
RTVSPost2010Prop34
280
     0
102
RTVSPost2010PropOp34
 70
     1
102
RTVSPost2010Prop35
280
     0
102
RTVSPost2010PropOp35
 70
     1
102
RTVSPost2010Prop36
280
     0
102
RTVSPost2010PropOp36
 70
     1
102
RTVSPost2010Prop37
 90
       50
102
RTVSPost2010PropOp37
 70
     1
102
RTVSPost2010Prop38
140
0.0
102
RTVSPost2010PropOp38
 70
     1
102
RTVSPost2010Prop39
140
1.0
102
RTVSPost2010PropOp39
 70
     1
102
RTVSPost2010Prop40
 90
        0
102
RTVSPost2010PropOp40
 70
     1
102
RTVSPost2010Prop41ColorIndex
 90
       18
102
RTVSPost2010Prop41ColorRGB
 90
        0
102
RTVSPost2010PropOp41
 70
     1
102
RTVSPost2010Prop42
 90
       50
102
RTVSPost2010PropOp42
 70
     1
102
RTVSPost2010Prop43
 90
        3
102
RTVSPost2010PropOp43
 70
     1
102
RTVSPost2010Prop44ColorIndex
 90
        5
102
RTVSPost2010Prop44ColorRGB
 90
      255
102
RTVSPost2010PropOp44
 70
     1
102
RTVSPost2010Prop45
280
     0
102
RTVSPost2010PropOp45
 70
     1
102
RTVSPost2010Prop46
 90
       50
102
RTVSPost2010PropOp46
 70
     1
102
RTVSPost2010Prop47
 90
       50
102
RTVSPost2010PropOp47
 70
     1
102
RTVSPost2010Prop48
 90
       50
102
RTVSPost2010PropOp48
 70
     1
102
RTVSPost2010Prop49
280
     0
102
RTVSPost2010PropOp49
 70
     1
102
RTVSPost2010Prop50
 90
       50
102
RTVSPost2010PropOp50
 70
     1
102
RTVSPost2010Prop51ColorIndex
 90
      256
102
RTVSPost2010Prop51ColorRGB
 90
-16777216
102
RTVSPost2010PropOp51
 70
     0
102
RTVSPost2010Prop52
140
1.0
102
RTVSPost2010PropOp52
 70
     0
102
RTVSPost2010Prop53
 90
        2
102
RTVSPost2010PropOp53
 70
     1
102
RTVSPost2010Prop54
  1
strokes_ogs.tif
102
RTVSPost2010PropOp54
 70
     1
102
RTVSPost2010Prop55
280
     0
102
RTVSPost2010PropOp55
 70
     1
102
RTVSPost2010Prop56
140
1.0
102
RTVSPost2010PropOp56
 70
     1
102
RTVSPost2010Prop57
140
1.0
102
RTVSPost2010PropOp57
 70
     1
  0
XRECORD
  5
18E
102
{ACAD_REACTORS
330
18D
102
}
330
18D
100
AcDbXrecord
280
     1
102
RTVSPropertyOp0
 70
     0
102
RTVSPropertyOp1
 70
     0
102
RTVSPropertyOp2
 70
     0
102
RTVSPropertyOp3
 70
     0
102
RTVSPropertyOp4
 70
     0
102
RTVSPropertyOp5
 70
     0
102
RTVSPropertyOp6
 70
     0
102
RTVSPropertyOp7
 70
     0
102
RTVSPropertyOp8
 70
     0
102
RTVSPropertyOp9
 70
     0
102
RTVSPropertyOp10
 70
     0
102
RTVSPropertyOp11
 70
     0
102
RTVSPropertyOp12
 70
     0
102
RTVSPropertyOp13
 70
     0
102
RTVSPropertyOp14
 70
     2
102
RTVSPropertyOp15
 70
     0
102
RTVSPropertyOp16
 70
     0
102
RTVSPropertyOp17
 70
     0
102
RTVSPropertyOp18
 70
     0
102
RTVSPropertyOp19
 70
     0
102
RTVSPropertyOp20
 70
     0
102
RTVSPropertyOp21
 70
     0
102
RTVSPropertyOp22
 70
     0
102
RTVSPropertyOp23
 70
     0
102
RTVSPropertyOp24
 70
     0
102
RTVSPropertyOp25
 70
     0
102
RTVSPropertyOp26
 70
     0
102
RTVSPropertyOp27
 70
     0
102
RTVSPropertyOp28
 70
     0
102
RTVSPropertyOp29
 70
     0
102
RTVSPropertyOp30
 70
     0
102
RTVSPropertyOp31
 70
     0
102
RTVSPropertyOp32
 70
     0
102
RTVSPropertyOp33
 70
     0
102
RTVSPropertyOp34
 70
     0
102
RTVSPropertyOp35
 70
     0
102
RTVSPropertyOp36
 70
     0
102
RTVSPropertyOp37
 70
     0
102
RTVSPropertyOp38
 70
     0
102
RTVSPropertyOp39
 70
     0
102
RTVSPropertyOp40
 70
     0
102
RTVSPropertyOp41
 70
     0
102
RTVSPropertyOp42
 70
     0
102
RTVSPropertyOp43
 70
     0
102
RTVSPropertyOp44
 70
     0
102
RTVSPropertyOp45
 70
     0
102
RTVSPropertyOp46
 70
     0
102
RTVSPropertyOp47
 70
     0
102
RTVSPropertyOp48
 70
     0
102
RTVSPropertyOp49
 70
     0
102
RTVSPropertyOp50
 70
     0
102
RTVSPropertyOp51
 70
     0
102
RTVSPropertyOp52
 70
     0
102
RTVSPropertyOp53
 70
     0
102
RTVSPropertyOp54
 70
     0
102
RTVSPropertyOp55
 70
     0
102
RTVSPropertyOp56
 70
     0
102
RTVSPropertyOp57
 70
     0
102
RTVSPost2010Prop28
280
     0
102
RTVSPost2010PropOp28
 70
     0
102
RTVSPost2010Prop29
280
     1
102
RTVSPost2010PropOp29
 70
     0
102
RTVSPost2010Prop30
280
     1
102
RTVSPost2010PropOp30
 70
     0
102
RTVSPost2010Prop31
280
     0
102
RTVSPost2010PropOp31
 70
     0
102
RTVSPost2010Prop32
280
     0
102
RTVSPost2010PropOp32
 70
     0
102
RTVSPost2010Prop33
280
     0
102
RTVSPost2010PropOp33
 70
     0
102
RTVSPost2010Prop34
280
     0
102
RTVSPost2010PropOp34
 70
     0
102
RTVSPost2010Prop35
280
     0
102
RTVSPost2010PropOp35
 70
     0
102
RTVSPost2010Prop36
280
     0
102
RTVSPost2010PropOp36
 70
     0
102
RTVSPost2010Prop37
 90
       50
102
RTVSPost2010PropOp37
 70
     0
102
RTVSPost2010Prop38
140
0.0
102
RTVSPost2010PropOp38
 70
     0
102
RTVSPost2010Prop39
140
1.0
102
RTVSPost2010PropOp39
 70
     0
102
RTVSPost2010Prop40
 90
        0
102
RTVSPost2010PropOp40
 70
     0
102
RTVSPost2010Prop41ColorIndex
 90
       18
102
RTVSPost2010Prop41ColorRGB
 90
        0
102
RTVSPost2010PropOp41
 70
     0
102
RTVSPost2010Prop42
 90
       50
102
RTVSPost2010PropOp42
 70
     0
102
RTVSPost2010Prop43
 90
        3
102
RTVSPost2010PropOp43
 70
     0
102
RTVSPost2010Prop44ColorIndex
 90
        5
102
RTVSPost2010Prop44ColorRGB
 90
      255
102
RTVSPost2010PropOp44
 70
     0
102
RTVSPost2010Prop45
280
     0
102
RTVSPost2010PropOp45
 70
     0
102
RTVSPost2010Prop46
 90
       50
102
RTVSPost2010PropOp46
 70
     0
102
RTVSPost2010Prop47
 90
       50
102
RTVSPost2010PropOp47
 70
     0
102
RTVSPost2010Prop48
 90
       50
102
RTVSPost2010PropOp48
 70
     0
102
RTVSPost2010Prop49
280
     0
102
RTVSPost2010PropOp49
 70
     0
102
RTVSPost2010Prop50
 90
       50
102
RTVSPost2010PropOp50
 70
     0
102
RTVSPost2010Prop51ColorIndex
 90
      256
102
RTVSPost2010Prop51ColorRGB
 90
-16777216
102
RTVSPost2010PropOp51
 70
     0
102
RTVSPost2010Prop52
140
1.0
102
RTVSPost2010PropOp52
 70
     0
102
RTVSPost2010Prop53
 90
        2
102
RTVSPost2010PropOp53
 70
     0
102
RTVSPost2010Prop54
  1
strokes_ogs.tif
102
RTVSPost2010PropOp54
 70
     0
102
RTVSPost2010Prop55
280
     0
102
RTVSPost2010PropOp55
 70
     0
102
RTVSPost2010Prop56
140
1.0
102
RTVSPost2010PropOp56
 70
     0
102
RTVSPost2010Prop57
140
1.0
102
RTVSPost2010PropOp57
 70
     0
  0
XRECORD
  5
186
102
{ACAD_REACTORS
330
185
102
}
330
185
100
AcDbXrecord
280
     1
102
RTVSPropertyOp0
 70
     1
102
RTVSPropertyOp1
 70
     1
102
RTVSPropertyOp2
 70
     1
102
RTVSPropertyOp3
 70
     1
102
RTVSPropertyOp4
 70
     1
102
RTVSPropertyOp5
 70
     1
102
RTVSPropertyOp6
 70
     1
102
RTVSPropertyOp7
 70
     1
102
RTVSPropertyOp8
 70
     1
102
RTVSPropertyOp9
 70
     1
102
RTVSPropertyOp10
 70
     1
102
RTVSPropertyOp11
 70
     1
102
RTVSPropertyOp12
 70
     1
102
RTVSPropertyOp13
 70
     1
102
RTVSPropertyOp14
 70
     1
102
RTVSPropertyOp15
 70
     1
102
RTVSPropertyOp16
 70
     1
102
RTVSPropertyOp17
 70
     1
102
RTVSPropertyOp18
 70
     1
102
RTVSPropertyOp19
 70
     1
102
RTVSPropertyOp20
 70
     1
102
RTVSPropertyOp21
 70
     1
102
RTVSPropertyOp22
 70
     1
102
RTVSPropertyOp23
 70
     1
102
RTVSPropertyOp24
 70
     1
102
RTVSPropertyOp25
 70
     1
102
RTVSPropertyOp26
 70
     1
102
RTVSPropertyOp27
 70
     1
102
RTVSPropertyOp28
 70
     1
102
RTVSPropertyOp29
 70
     1
102
RTVSPropertyOp30
 70
     1
102
RTVSPropertyOp31
 70
     1
102
RTVSPropertyOp32
 70
     1
102
RTVSPropertyOp33
 70
     1
102
RTVSPropertyOp34
 70
     1
102
RTVSPropertyOp35
 70
     1
102
RTVSPropertyOp36
 70
     1
102
RTVSPropertyOp37
 70
     1
102
RTVSPropertyOp38
 70
     1
102
RTVSPropertyOp39
 70
     1
102
RTVSPropertyOp40
 70
     1
102
RTVSPropertyOp41
 70
     1
102
RTVSPropertyOp42
 70
     1
102
RTVSPropertyOp43
 70
     1
102
RTVSPropertyOp44
 70
     1
102
RTVSPropertyOp45
 70
     1
102
RTVSPropertyOp46
 70
     1
102
RTVSPropertyOp47
 70
     1
102
RTVSPropertyOp48
 70
     1
102
RTVSPropertyOp49
 70
     1
102
RTVSPropertyOp50
 70
     1
102
RTVSPropertyOp51
 70
     0
102
RTVSPropertyOp52
 70
     0
102
RTVSPropertyOp53
 70
     1
102
RTVSPropertyOp54
 70
     1
102
RTVSPropertyOp55
 70
     1
102
RTVSPropertyOp56
 70
     1
102
RTVSPropertyOp57
 70
     1
102
RTVSPost2010Prop28
280
     0
102
RTVSPost2010PropOp28
 70
     1
102
RTVSPost2010Prop29
280
     1
102
RTVSPost2010PropOp29
 70
     1
102
RTVSPost2010Prop30
280
     1
102
RTVSPost2010PropOp30
 70
     1
102
RTVSPost2010Prop31
280
     0
102
RTVSPost2010PropOp31
 70
     1
102
RTVSPost2010Prop32
280
     0
102
RTVSPost2010PropOp32
 70
     1
102
RTVSPost2010Prop33
280
     0
102
RTVSPost2010PropOp33
 70
     1
102
RTVSPost2010Prop34
280
     0
102
RTVSPost2010PropOp34
 70
     1
102
RTVSPost2010Prop35
280
     0
102
RTVSPost2010PropOp35
 70
     1
102
RTVSPost2010Prop36
280
     0
102
RTVSPost2010PropOp36
 70
     1
102
RTVSPost2010Prop37
 90
       50
102
RTVSPost2010PropOp37
 70
     1
102
RTVSPost2010Prop38
140
0.0
102
RTVSPost2010PropOp38
 70
     1
102
RTVSPost2010Prop39
140
1.0
102
RTVSPost2010PropOp39
 70
     1
102
RTVSPost2010Prop40
 90
        0
102
RTVSPost2010PropOp40
 70
     1
102
RTVSPost2010Prop41ColorIndex
 90
       18
102
RTVSPost2010Prop41ColorRGB
 90
        0
102
RTVSPost2010PropOp41
 70
     1
102
RTVSPost2010Prop42
 90
       50
102
RTVSPost2010PropOp42
 70
     1
102
RTVSPost2010Prop43
 90
        3
102
RTVSPost2010PropOp43
 70
     1
102
RTVSPost2010Prop44ColorIndex
 90
        5
102
RTVSPost2010Prop44ColorRGB
 90
      255
102
RTVSPost2010PropOp44
 70
     1
102
RTVSPost2010Prop45
280
     0
102
RTVSPost2010PropOp45
 70
     1
102
RTVSPost2010Prop46
 90
       50
102
RTVSPost2010PropOp46
 70
     1
102
RTVSPost2010Prop47
 90
       50
102
RTVSPost2010PropOp47
 70
     1
102
RTVSPost2010Prop48
 90
       50
102
RTVSPost2010PropOp48
 70
     1
102
RTVSPost2010Prop49
280
     0
102
RTVSPost2010PropOp49
 70
     1
102
RTVSPost2010Prop50
 90
       50
102
RTVSPost2010PropOp50
 70
     1
102
RTVSPost2010Prop51ColorIndex
 90
      256
102
RTVSPost2010Prop51ColorRGB
 90
-16777216
102
RTVSPost2010PropOp51
 70
     0
102
RTVSPost2010Prop52
140
1.0
102
RTVSPost2010PropOp52
 70
     0
102
RTVSPost2010Prop53
 90
        2
102
RTVSPost2010PropOp53
 70
     1
102
RTVSPost2010Prop54
  1
strokes_ogs.tif
102
RTVSPost2010PropOp54
 70
     1
102
RTVSPost2010Prop55
280
     0
102
RTVSPost2010PropOp55
 70
     1
102
RTVSPost2010Prop56
140
1.0
102
RTVSPost2010PropOp56
 70
     1
102
RTVSPost2010Prop57
140
1.0
102
RTVSPost2010PropOp57
 70
     1
  0
XRECORD
  5
16A
102
{ACAD_REACTORS
330
169
102
}
330
169
100
AcDbXrecord
280
     1
102
RTVSPropertyOp0
 70
     1
102
RTVSPropertyOp1
 70
     1
102
RTVSPropertyOp2
 70
     1
102
RTVSPropertyOp3
 70
     1
102
RTVSPropertyOp4
 70
     1
102
RTVSPropertyOp5
 70
     1
102
RTVSPropertyOp6
 70
     1
102
RTVSPropertyOp7
 70
     1
102
RTVSPropertyOp8
 70
     1
102
RTVSPropertyOp9
 70
     1
102
RTVSPropertyOp10
 70
     1
102
RTVSPropertyOp11
 70
     1
102
RTVSPropertyOp12
 70
     1
102
RTVSPropertyOp13
 70
     1
102
RTVSPropertyOp14
 70
     1
102
RTVSPropertyOp15
 70
     1
102
RTVSPropertyOp16
 70
     1
102
RTVSPropertyOp17
 70
     1
102
RTVSPropertyOp18
 70
     1
102
RTVSPropertyOp19
 70
     1
102
RTVSPropertyOp20
 70
     1
102
RTVSPropertyOp21
 70
     1
102
RTVSPropertyOp22
 70
     1
102
RTVSPropertyOp23
 70
     1
102
RTVSPropertyOp24
 70
     1
102
RTVSPropertyOp25
 70
     1
102
RTVSPropertyOp26
 70
     1
102
RTVSPropertyOp27
 70
     1
102
RTVSPropertyOp28
 70
     1
102
RTVSPropertyOp29
 70
     1
102
RTVSPropertyOp30
 70
     1
102
RTVSPropertyOp31
 70
     1
102
RTVSPropertyOp32
 70
     1
102
RTVSPropertyOp33
 70
     1
102
RTVSPropertyOp34
 70
     1
102
RTVSPropertyOp35
 70
     1
102
RTVSPropertyOp36
 70
     1
102
RTVSPropertyOp37
 70
     1
102
RTVSPropertyOp38
 70
     1
102
RTVSPropertyOp39
 70
     1
102
RTVSPropertyOp40
 70
     1
102
RTVSPropertyOp41
 70
     1
102
RTVSPropertyOp42
 70
     1
102
RTVSPropertyOp43
 70
     1
102
RTVSPropertyOp44
 70
     1
102
RTVSPropertyOp45
 70
     1
102
RTVSPropertyOp46
 70
     1
102
RTVSPropertyOp47
 70
     1
102
RTVSPropertyOp48
 70
     1
102
RTVSPropertyOp49
 70
     1
102
RTVSPropertyOp50
 70
     1
102
RTVSPropertyOp51
 70
     0
102
RTVSPropertyOp52
 70
     0
102
RTVSPropertyOp53
 70
     1
102
RTVSPropertyOp54
 70
     1
102
RTVSPropertyOp55
 70
     1
102
RTVSPropertyOp56
 70
     1
102
RTVSPropertyOp57
 70
     1
102
RTVSPost2010Prop28
280
     0
102
RTVSPost2010PropOp28
 70
     1
102
RTVSPost2010Prop29
280
     1
102
RTVSPost2010PropOp29
 70
     1
102
RTVSPost2010Prop30
280
     1
102
RTVSPost2010PropOp30
 70
     1
102
RTVSPost2010Prop31
280
     0
102
RTVSPost2010PropOp31
 70
     1
102
RTVSPost2010Prop32
280
     0
102
RTVSPost2010PropOp32
 70
     1
102
RTVSPost2010Prop33
280
     0
102
RTVSPost2010PropOp33
 70
     1
102
RTVSPost2010Prop34
280
     0
102
RTVSPost2010PropOp34
 70
     1
102
RTVSPost2010Prop35
280
     0
102
RTVSPost2010PropOp35
 70
     1
102
RTVSPost2010Prop36
280
     0
102
RTVSPost2010PropOp36
 70
     1
102
RTVSPost2010Prop37
 90
       50
102
RTVSPost2010PropOp37
 70
     1
102
RTVSPost2010Prop38
140
0.0
102
RTVSPost2010PropOp38
 70
     1
102
RTVSPost2010Prop39
140
1.0
102
RTVSPost2010PropOp39
 70
     1
102
RTVSPost2010Prop40
 90
        0
102
RTVSPost2010PropOp40
 70
     1
102
RTVSPost2010Prop41ColorIndex
 90
       18
102
RTVSPost2010Prop41ColorRGB
 90
        0
102
RTVSPost2010PropOp41
 70
     1
102
RTVSPost2010Prop42
 90
       50
102
RTVSPost2010PropOp42
 70
     1
102
RTVSPost2010Prop43
 90
        3
102
RTVSPost2010PropOp43
 70
     1
102
RTVSPost2010Prop44ColorIndex
 90
        5
102
RTVSPost2010Prop44ColorRGB
 90
      255
102
RTVSPost2010PropOp44
 70
     1
102
RTVSPost2010Prop45
280
     0
102
RTVSPost2010PropOp45
 70
     1
102
RTVSPost2010Prop46
 90
       50
102
RTVSPost2010PropOp46
 70
     1
102
RTVSPost2010Prop47
 90
       50
102
RTVSPost2010PropOp47
 70
     1
102
RTVSPost2010Prop48
 90
       50
102
RTVSPost2010PropOp48
 70
     1
102
RTVSPost2010Prop49
280
     0
102
RTVSPost2010PropOp49
 70
     1
102
RTVSPost2010Prop50
 90
       50
102
RTVSPost2010PropOp50
 70
     1
102
RTVSPost2010Prop51ColorIndex
 90
      256
102
RTVSPost2010Prop51ColorRGB
 90
-16777216
102
RTVSPost2010PropOp51
 70
     0
102
RTVSPost2010Prop52
140
1.0
102
RTVSPost2010PropOp52
 70
     0
102
RTVSPost2010Prop53
 90
        2
102
RTVSPost2010PropOp53
 70
     1
102
RTVSPost2010Prop54
  1
strokes_ogs.tif
102
RTVSPost2010PropOp54
 70
     1
102
RTVSPost2010Prop55
280
     0
102
RTVSPost2010PropOp55
 70
     1
102
RTVSPost2010Prop56
140
1.0
102
RTVSPost2010PropOp56
 70
     1
102
RTVSPost2010Prop57
140
1.0
102
RTVSPost2010PropOp57
 70
     1
  0
XRECORD
  5
16C
102
{ACAD_REACTORS
330
16B
102
}
330
16B
100
AcDbXrecord
280
     1
102
RTVSPropertyOp0
 70
     1
102
RTVSPropertyOp1
 70
     1
102
RTVSPropertyOp2
 70
     1
102
RTVSPropertyOp3
 70
     1
102
RTVSPropertyOp4
 70
     1
102
RTVSPropertyOp5
 70
     1
102
RTVSPropertyOp6
 70
     1
102
RTVSPropertyOp7
 70
     1
102
RTVSPropertyOp8
 70
     1
102
RTVSPropertyOp9
 70
     1
102
RTVSPropertyOp10
 70
     1
102
RTVSPropertyOp11
 70
     1
102
RTVSPropertyOp12
 70
     1
102
RTVSPropertyOp13
 70
     1
102
RTVSPropertyOp14
 70
     1
102
RTVSPropertyOp15
 70
     1
102
RTVSPropertyOp16
 70
     1
102
RTVSPropertyOp17
 70
     1
102
RTVSPropertyOp18
 70
     1
102
RTVSPropertyOp19
 70
     1
102
RTVSPropertyOp20
 70
     1
102
RTVSPropertyOp21
 70
     1
102
RTVSPropertyOp22
 70
     1
102
RTVSPropertyOp23
 70
     1
102
RTVSPropertyOp24
 70
     1
102
RTVSPropertyOp25
 70
     1
102
RTVSPropertyOp26
 70
     1
102
RTVSPropertyOp27
 70
     1
102
RTVSPropertyOp28
 70
     1
102
RTVSPropertyOp29
 70
     1
102
RTVSPropertyOp30
 70
     1
102
RTVSPropertyOp31
 70
     1
102
RTVSPropertyOp32
 70
     1
102
RTVSPropertyOp33
 70
     1
102
RTVSPropertyOp34
 70
     1
102
RTVSPropertyOp35
 70
     1
102
RTVSPropertyOp36
 70
     1
102
RTVSPropertyOp37
 70
     1
102
RTVSPropertyOp38
 70
     1
102
RTVSPropertyOp39
 70
     1
102
RTVSPropertyOp40
 70
     1
102
RTVSPropertyOp41
 70
     1
102
RTVSPropertyOp42
 70
     1
102
RTVSPropertyOp43
 70
     1
102
RTVSPropertyOp44
 70
     1
102
RTVSPropertyOp45
 70
     1
102
RTVSPropertyOp46
 70
     1
102
RTVSPropertyOp47
 70
     1
102
RTVSPropertyOp48
 70
     1
102
RTVSPropertyOp49
 70
     1
102
RTVSPropertyOp50
 70
     1
102
RTVSPropertyOp51
 70
     0
102
RTVSPropertyOp52
 70
     0
102
RTVSPropertyOp53
 70
     1
102
RTVSPropertyOp54
 70
     1
102
RTVSPropertyOp55
 70
     1
102
RTVSPropertyOp56
 70
     1
102
RTVSPropertyOp57
 70
     1
102
RTVSPost2010Prop28
280
     0
102
RTVSPost2010PropOp28
 70
     1
102
RTVSPost2010Prop29
280
     1
102
RTVSPost2010PropOp29
 70
     1
102
RTVSPost2010Prop30
280
     1
102
RTVSPost2010PropOp30
 70
     1
102
RTVSPost2010Prop31
280
     0
102
RTVSPost2010PropOp31
 70
     1
102
RTVSPost2010Prop32
280
     0
102
RTVSPost2010PropOp32
 70
     1
102
RTVSPost2010Prop33
280
     0
102
RTVSPost2010PropOp33
 70
     1
102
RTVSPost2010Prop34
280
     0
102
RTVSPost2010PropOp34
 70
     1
102
RTVSPost2010Prop35
280
     0
102
RTVSPost2010PropOp35
 70
     1
102
RTVSPost2010Prop36
280
     0
102
RTVSPost2010PropOp36
 70
     1
102
RTVSPost2010Prop37
 90
       50
102
RTVSPost2010PropOp37
 70
     1
102
RTVSPost2010Prop38
140
0.0
102
RTVSPost2010PropOp38
 70
     1
102
RTVSPost2010Prop39
140
1.0
102
RTVSPost2010PropOp39
 70
     1
102
RTVSPost2010Prop40
 90
        0
102
RTVSPost2010PropOp40
 70
     1
102
RTVSPost2010Prop41ColorIndex
 90
       18
102
RTVSPost2010Prop41ColorRGB
 90
        0
102
RTVSPost2010PropOp41
 70
     1
102
RTVSPost2010Prop42
 90
       50
102
RTVSPost2010PropOp42
 70
     1
102
RTVSPost2010Prop43
 90
        3
102
RTVSPost2010PropOp43
 70
     1
102
RTVSPost2010Prop44ColorIndex
 90
        5
102
RTVSPost2010Prop44ColorRGB
 90
      255
102
RTVSPost2010PropOp44
 70
     1
102
RTVSPost2010Prop45
280
     0
102
RTVSPost2010PropOp45
 70
     1
102
RTVSPost2010Prop46
 90
       50
102
RTVSPost2010PropOp46
 70
     1
102
RTVSPost2010Prop47
 90
       50
102
RTVSPost2010PropOp47
 70
     1
102
RTVSPost2010Prop48
 90
       50
102
RTVSPost2010PropOp48
 70
     1
102
RTVSPost2010Prop49
280
     0
102
RTVSPost2010PropOp49
 70
     1
102
RTVSPost2010Prop50
 90
       50
102
RTVSPost2010PropOp50
 70
     1
102
RTVSPost2010Prop51ColorIndex
 90
      256
102
RTVSPost2010Prop51ColorRGB
 90
-16777216
102
RTVSPost2010PropOp51
 70
     0
102
RTVSPost2010Prop52
140
1.0
102
RTVSPost2010PropOp52
 70
     0
102
RTVSPost2010Prop53
 90
        2
102
RTVSPost2010PropOp53
 70
     1
102
RTVSPost2010Prop54
  1
strokes_ogs.tif
102
RTVSPost2010PropOp54
 70
     1
102
RTVSPost2010Prop55
280
     0
102
RTVSPost2010PropOp55
 70
     1
102
RTVSPost2010Prop56
140
1.0
102
RTVSPost2010PropOp56
 70
     1
102
RTVSPost2010Prop57
140
1.0
102
RTVSPost2010PropOp57
 70
     1
  0
XRECORD
  5
16E
102
{ACAD_REACTORS
330
16D
102
}
330
16D
100
AcDbXrecord
280
     1
102
RTVSPropertyOp0
 70
     1
102
RTVSPropertyOp1
 70
     1
102
RTVSPropertyOp2
 70
     1
102
RTVSPropertyOp3
 70
     1
102
RTVSPropertyOp4
 70
     1
102
RTVSPropertyOp5
 70
     1
102
RTVSPropertyOp6
 70
     1
102
RTVSPropertyOp7
 70
     1
102
RTVSPropertyOp8
 70
     1
102
RTVSPropertyOp9
 70
     1
102
RTVSPropertyOp10
 70
     1
102
RTVSPropertyOp11
 70
     1
102
RTVSPropertyOp12
 70
     1
102
RTVSPropertyOp13
 70
     1
102
RTVSPropertyOp14
 70
     1
102
RTVSPropertyOp15
 70
     1
102
RTVSPropertyOp16
 70
     1
102
RTVSPropertyOp17
 70
     1
102
RTVSPropertyOp18
 70
     1
102
RTVSPropertyOp19
 70
     1
102
RTVSPropertyOp20
 70
     1
102
RTVSPropertyOp21
 70
     1
102
RTVSPropertyOp22
 70
     1
102
RTVSPropertyOp23
 70
     1
102
RTVSPropertyOp24
 70
     1
102
RTVSPropertyOp25
 70
     1
102
RTVSPropertyOp26
 70
     1
102
RTVSPropertyOp27
 70
     1
102
RTVSPropertyOp28
 70
     1
102
RTVSPropertyOp29
 70
     1
102
RTVSPropertyOp30
 70
     1
102
RTVSPropertyOp31
 70
     1
102
RTVSPropertyOp32
 70
     1
102
RTVSPropertyOp33
 70
     1
102
RTVSPropertyOp34
 70
     1
102
RTVSPropertyOp35
 70
     1
102
RTVSPropertyOp36
 70
     1
102
RTVSPropertyOp37
 70
     1
102
RTVSPropertyOp38
 70
     1
102
RTVSPropertyOp39
 70
     1
102
RTVSPropertyOp40
 70
     1
102
RTVSPropertyOp41
 70
     1
102
RTVSPropertyOp42
 70
     1
102
RTVSPropertyOp43
 70
     1
102
RTVSPropertyOp44
 70
     1
102
RTVSPropertyOp45
 70
     1
102
RTVSPropertyOp46
 70
     1
102
RTVSPropertyOp47
 70
     1
102
RTVSPropertyOp48
 70
     1
102
RTVSPropertyOp49
 70
     1
102
RTVSPropertyOp50
 70
     1
102
RTVSPropertyOp51
 70
     0
102
RTVSPropertyOp52
 70
     0
102
RTVSPropertyOp53
 70
     1
102
RTVSPropertyOp54
 70
     1
102
RTVSPropertyOp55
 70
     1
102
RTVSPropertyOp56
 70
     1
102
RTVSPropertyOp57
 70
     1
102
RTVSPost2010Prop28
280
     0
102
RTVSPost2010PropOp28
 70
     1
102
RTVSPost2010Prop29
280
     1
102
RTVSPost2010PropOp29
 70
     1
102
RTVSPost2010Prop30
280
     1
102
RTVSPost2010PropOp30
 70
     1
102
RTVSPost2010Prop31
280
     0
102
RTVSPost2010PropOp31
 70
     1
102
RTVSPost2010Prop32
280
     0
102
RTVSPost2010PropOp32
 70
     1
102
RTVSPost2010Prop33
280
     0
102
RTVSPost2010PropOp33
 70
     1
102
RTVSPost2010Prop34
280
     0
102
RTVSPost2010PropOp34
 70
     1
102
RTVSPost2010Prop35
280
     0
102
RTVSPost2010PropOp35
 70
     1
102
RTVSPost2010Prop36
280
     0
102
RTVSPost2010PropOp36
 70
     1
102
RTVSPost2010Prop37
 90
       50
102
RTVSPost2010PropOp37
 70
     1
102
RTVSPost2010Prop38
140
0.0
102
RTVSPost2010PropOp38
 70
     1
102
RTVSPost2010Prop39
140
1.0
102
RTVSPost2010PropOp39
 70
     1
102
RTVSPost2010Prop40
 90
        0
102
RTVSPost2010PropOp40
 70
     1
102
RTVSPost2010Prop41ColorIndex
 90
       18
102
RTVSPost2010Prop41ColorRGB
 90
        0
102
RTVSPost2010PropOp41
 70
     1
102
RTVSPost2010Prop42
 90
       50
102
RTVSPost2010PropOp42
 70
     1
102
RTVSPost2010Prop43
 90
        3
102
RTVSPost2010PropOp43
 70
     1
102
RTVSPost2010Prop44ColorIndex
 90
        5
102
RTVSPost2010Prop44ColorRGB
 90
      255
102
RTVSPost2010PropOp44
 70
     1
102
RTVSPost2010Prop45
280
     0
102
RTVSPost2010PropOp45
 70
     1
102
RTVSPost2010Prop46
 90
       50
102
RTVSPost2010PropOp46
 70
     1
102
RTVSPost2010Prop47
 90
       50
102
RTVSPost2010PropOp47
 70
     1
102
RTVSPost2010Prop48
 90
       50
102
RTVSPost2010PropOp48
 70
     1
102
RTVSPost2010Prop49
280
     0
102
RTVSPost2010PropOp49
 70
     1
102
RTVSPost2010Prop50
 90
       50
102
RTVSPost2010PropOp50
 70
     1
102
RTVSPost2010Prop51ColorIndex
 90
      256
102
RTVSPost2010Prop51ColorRGB
 90
-16777216
102
RTVSPost2010PropOp51
 70
     0
102
RTVSPost2010Prop52
140
1.0
102
RTVSPost2010PropOp52
 70
     0
102
RTVSPost2010Prop53
 90
        2
102
RTVSPost2010PropOp53
 70
     1
102
RTVSPost2010Prop54
  1
strokes_ogs.tif
102
RTVSPost2010PropOp54
 70
     1
102
RTVSPost2010Prop55
280
     0
102
RTVSPost2010PropOp55
 70
     1
102
RTVSPost2010Prop56
140
1.0
102
RTVSPost2010PropOp56
 70
     1
102
RTVSPost2010Prop57
140
1.0
102
RTVSPost2010PropOp57
 70
     1
  0
XRECORD
  5
170
102
{ACAD_REACTORS
330
16F
102
}
330
16F
100
AcDbXrecord
280
     1
102
RTVSPropertyOp0
 70
     1
102
RTVSPropertyOp1
 70
     1
102
RTVSPropertyOp2
 70
     1
102
RTVSPropertyOp3
 70
     1
102
RTVSPropertyOp4
 70
     1
102
RTVSPropertyOp5
 70
     1
102
RTVSPropertyOp6
 70
     1
102
RTVSPropertyOp7
 70
     1
102
RTVSPropertyOp8
 70
     1
102
RTVSPropertyOp9
 70
     1
102
RTVSPropertyOp10
 70
     1
102
RTVSPropertyOp11
 70
     1
102
RTVSPropertyOp12
 70
     1
102
RTVSPropertyOp13
 70
     1
102
RTVSPropertyOp14
 70
     1
102
RTVSPropertyOp15
 70
     1
102
RTVSPropertyOp16
 70
     1
102
RTVSPropertyOp17
 70
     1
102
RTVSPropertyOp18
 70
     1
102
RTVSPropertyOp19
 70
     1
102
RTVSPropertyOp20
 70
     1
102
RTVSPropertyOp21
 70
     1
102
RTVSPropertyOp22
 70
     1
102
RTVSPropertyOp23
 70
     1
102
RTVSPropertyOp24
 70
     1
102
RTVSPropertyOp25
 70
     1
102
RTVSPropertyOp26
 70
     1
102
RTVSPropertyOp27
 70
     1
102
RTVSPropertyOp28
 70
     1
102
RTVSPropertyOp29
 70
     1
102
RTVSPropertyOp30
 70
     1
102
RTVSPropertyOp31
 70
     1
102
RTVSPropertyOp32
 70
     1
102
RTVSPropertyOp33
 70
     1
102
RTVSPropertyOp34
 70
     1
102
RTVSPropertyOp35
 70
     1
102
RTVSPropertyOp36
 70
     1
102
RTVSPropertyOp37
 70
     1
102
RTVSPropertyOp38
 70
     1
102
RTVSPropertyOp39
 70
     1
102
RTVSPropertyOp40
 70
     1
102
RTVSPropertyOp41
 70
     1
102
RTVSPropertyOp42
 70
     1
102
RTVSPropertyOp43
 70
     1
102
RTVSPropertyOp44
 70
     1
102
RTVSPropertyOp45
 70
     1
102
RTVSPropertyOp46
 70
     1
102
RTVSPropertyOp47
 70
     1
102
RTVSPropertyOp48
 70
     1
102
RTVSPropertyOp49
 70
     1
102
RTVSPropertyOp50
 70
     1
102
RTVSPropertyOp51
 70
     0
102
RTVSPropertyOp52
 70
     0
102
RTVSPropertyOp53
 70
     1
102
RTVSPropertyOp54
 70
     1
102
RTVSPropertyOp55
 70
     1
102
RTVSPropertyOp56
 70
     1
102
RTVSPropertyOp57
 70
     1
102
RTVSPost2010Prop28
280
     0
102
RTVSPost2010PropOp28
 70
     1
102
RTVSPost2010Prop29
280
     1
102
RTVSPost2010PropOp29
 70
     1
102
RTVSPost2010Prop30
280
     1
102
RTVSPost2010PropOp30
 70
     1
102
RTVSPost2010Prop31
280
     0
102
RTVSPost2010PropOp31
 70
     1
102
RTVSPost2010Prop32
280
     0
102
RTVSPost2010PropOp32
 70
     1
102
RTVSPost2010Prop33
280
     0
102
RTVSPost2010PropOp33
 70
     1
102
RTVSPost2010Prop34
280
     0
102
RTVSPost2010PropOp34
 70
     1
102
RTVSPost2010Prop35
280
     0
102
RTVSPost2010PropOp35
 70
     1
102
RTVSPost2010Prop36
280
     0
102
RTVSPost2010PropOp36
 70
     1
102
RTVSPost2010Prop37
 90
       50
102
RTVSPost2010PropOp37
 70
     1
102
RTVSPost2010Prop38
140
0.0
102
RTVSPost2010PropOp38
 70
     1
102
RTVSPost2010Prop39
140
1.0
102
RTVSPost2010PropOp39
 70
     1
102
RTVSPost2010Prop40
 90
        0
102
RTVSPost2010PropOp40
 70
     1
102
RTVSPost2010Prop41ColorIndex
 90
       18
102
RTVSPost2010Prop41ColorRGB
 90
        0
102
RTVSPost2010PropOp41
 70
     1
102
RTVSPost2010Prop42
 90
       50
102
RTVSPost2010PropOp42
 70
     1
102
RTVSPost2010Prop43
 90
        3
102
RTVSPost2010PropOp43
 70
     1
102
RTVSPost2010Prop44ColorIndex
 90
        5
102
RTVSPost2010Prop44ColorRGB
 90
      255
102
RTVSPost2010PropOp44
 70
     1
102
RTVSPost2010Prop45
280
     0
102
RTVSPost2010PropOp45
 70
     1
102
RTVSPost2010Prop46
 90
       50
102
RTVSPost2010PropOp46
 70
     1
102
RTVSPost2010Prop47
 90
       50
102
RTVSPost2010PropOp47
 70
     1
102
RTVSPost2010Prop48
 90
       50
102
RTVSPost2010PropOp48
 70
     1
102
RTVSPost2010Prop49
280
     0
102
RTVSPost2010PropOp49
 70
     1
102
RTVSPost2010Prop50
 90
       50
102
RTVSPost2010PropOp50
 70
     1
102
RTVSPost2010Prop51ColorIndex
 90
      256
102
RTVSPost2010Prop51ColorRGB
 90
-16777216
102
RTVSPost2010PropOp51
 70
     0
102
RTVSPost2010Prop52
140
1.0
102
RTVSPost2010PropOp52
 70
     0
102
RTVSPost2010Prop53
 90
        2
102
RTVSPost2010PropOp53
 70
     1
102
RTVSPost2010Prop54
  1
strokes_ogs.tif
102
RTVSPost2010PropOp54
 70
     1
102
RTVSPost2010Prop55
280
     0
102
RTVSPost2010PropOp55
 70
     1
102
RTVSPost2010Prop56
140
1.0
102
RTVSPost2010PropOp56
 70
     1
102
RTVSPost2010Prop57
140
1.0
102
RTVSPost2010PropOp57
 70
     1
  0
XRECORD
  5
176
102
{ACAD_REACTORS
330
175
102
}
330
175
100
AcDbXrecord
280
     1
102
RTVSPropertyOp0
 70
     1
102
RTVSPropertyOp1
 70
     1
102
RTVSPropertyOp2
 70
     1
102
RTVSPropertyOp3
 70
     1
102
RTVSPropertyOp4
 70
     1
102
RTVSPropertyOp5
 70
     1
102
RTVSPropertyOp6
 70
     1
102
RTVSPropertyOp7
 70
     1
102
RTVSPropertyOp8
 70
     1
102
RTVSPropertyOp9
 70
     1
102
RTVSPropertyOp10
 70
     1
102
RTVSPropertyOp11
 70
     1
102
RTVSPropertyOp12
 70
     1
102
RTVSPropertyOp13
 70
     1
102
RTVSPropertyOp14
 70
     1
102
RTVSPropertyOp15
 70
     1
102
RTVSPropertyOp16
 70
     1
102
RTVSPropertyOp17
 70
     1
102
RTVSPropertyOp18
 70
     1
102
RTVSPropertyOp19
 70
     1
102
RTVSPropertyOp20
 70
     1
102
RTVSPropertyOp21
 70
     1
102
RTVSPropertyOp22
 70
     1
102
RTVSPropertyOp23
 70
     1
102
RTVSPropertyOp24
 70
     1
102
RTVSPropertyOp25
 70
     1
102
RTVSPropertyOp26
 70
     1
102
RTVSPropertyOp27
 70
     1
102
RTVSPropertyOp28
 70
     1
102
RTVSPropertyOp29
 70
     1
102
RTVSPropertyOp30
 70
     1
102
RTVSPropertyOp31
 70
     1
102
RTVSPropertyOp32
 70
     1
102
RTVSPropertyOp33
 70
     1
102
RTVSPropertyOp34
 70
     1
102
RTVSPropertyOp35
 70
     1
102
RTVSPropertyOp36
 70
     1
102
RTVSPropertyOp37
 70
     1
102
RTVSPropertyOp38
 70
     1
102
RTVSPropertyOp39
 70
     1
102
RTVSPropertyOp40
 70
     1
102
RTVSPropertyOp41
 70
     1
102
RTVSPropertyOp42
 70
     1
102
RTVSPropertyOp43
 70
     1
102
RTVSPropertyOp44
 70
     1
102
RTVSPropertyOp45
 70
     1
102
RTVSPropertyOp46
 70
     1
102
RTVSPropertyOp47
 70
     1
102
RTVSPropertyOp48
 70
     1
102
RTVSPropertyOp49
 70
     1
102
RTVSPropertyOp50
 70
     1
102
RTVSPropertyOp51
 70
     0
102
RTVSPropertyOp52
 70
     0
102
RTVSPropertyOp53
 70
     1
102
RTVSPropertyOp54
 70
     1
102
RTVSPropertyOp55
 70
     1
102
RTVSPropertyOp56
 70
     1
102
RTVSPropertyOp57
 70
     1
102
RTVSPost2010Prop28
280
     0
102
RTVSPost2010PropOp28
 70
     1
102
RTVSPost2010Prop29
280
     1
102
RTVSPost2010PropOp29
 70
     1
102
RTVSPost2010Prop30
280
     1
102
RTVSPost2010PropOp30
 70
     1
102
RTVSPost2010Prop31
280
     0
102
RTVSPost2010PropOp31
 70
     1
102
RTVSPost2010Prop32
280
     0
102
RTVSPost2010PropOp32
 70
     1
102
RTVSPost2010Prop33
280
     0
102
RTVSPost2010PropOp33
 70
     1
102
RTVSPost2010Prop34
280
     0
102
RTVSPost2010PropOp34
 70
     1
102
RTVSPost2010Prop35
280
     0
102
RTVSPost2010PropOp35
 70
     1
102
RTVSPost2010Prop36
280
     0
102
RTVSPost2010PropOp36
 70
     1
102
RTVSPost2010Prop37
 90
       50
102
RTVSPost2010PropOp37
 70
     1
102
RTVSPost2010Prop38
140
0.0
102
RTVSPost2010PropOp38
 70
     1
102
RTVSPost2010Prop39
140
1.0
102
RTVSPost2010PropOp39
 70
     1
102
RTVSPost2010Prop40
 90
        0
102
RTVSPost2010PropOp40
 70
     1
102
RTVSPost2010Prop41ColorIndex
 90
       18
102
RTVSPost2010Prop41ColorRGB
 90
        0
102
RTVSPost2010PropOp41
 70
     1
102
RTVSPost2010Prop42
 90
       50
102
RTVSPost2010PropOp42
 70
     1
102
RTVSPost2010Prop43
 90
        3
102
RTVSPost2010PropOp43
 70
     1
102
RTVSPost2010Prop44ColorIndex
 90
        5
102
RTVSPost2010Prop44ColorRGB
 90
      255
102
RTVSPost2010PropOp44
 70
     1
102
RTVSPost2010Prop45
280
     0
102
RTVSPost2010PropOp45
 70
     1
102
RTVSPost2010Prop46
 90
       50
102
RTVSPost2010PropOp46
 70
     1
102
RTVSPost2010Prop47
 90
       50
102
RTVSPost2010PropOp47
 70
     1
102
RTVSPost2010Prop48
 90
       50
102
RTVSPost2010PropOp48
 70
     1
102
RTVSPost2010Prop49
280
     0
102
RTVSPost2010PropOp49
 70
     1
102
RTVSPost2010Prop50
 90
       50
102
RTVSPost2010PropOp50
 70
     1
102
RTVSPost2010Prop51ColorIndex
 90
      256
102
RTVSPost2010Prop51ColorRGB
 90
-16777216
102
RTVSPost2010PropOp51
 70
     0
102
RTVSPost2010Prop52
140
1.0
102
RTVSPost2010PropOp52
 70
     0
102
RTVSPost2010Prop53
 90
        2
102
RTVSPost2010PropOp53
 70
     1
102
RTVSPost2010Prop54
  1
strokes_ogs.tif
102
RTVSPost2010PropOp54
 70
     1
102
RTVSPost2010Prop55
280
     0
102
RTVSPost2010PropOp55
 70
     1
102
RTVSPost2010Prop56
140
1.0
102
RTVSPost2010PropOp56
 70
     1
102
RTVSPost2010Prop57
140
1.0
102
RTVSPost2010PropOp57
 70
     1
  0
XRECORD
  5
18A
102
{ACAD_REACTORS
330
189
102
}
330
189
100
AcDbXrecord
280
     1
102
RTVSPropertyOp0
 70
     0
102
RTVSPropertyOp1
 70
     0
102
RTVSPropertyOp2
 70
     0
102
RTVSPropertyOp3
 70
     0
102
RTVSPropertyOp4
 70
     0
102
RTVSPropertyOp5
 70
     0
102
RTVSPropertyOp6
 70
     0
102
RTVSPropertyOp7
 70
     0
102
RTVSPropertyOp8
 70
     0
102
RTVSPropertyOp9
 70
     0
102
RTVSPropertyOp10
 70
     0
102
RTVSPropertyOp11
 70
     0
102
RTVSPropertyOp12
 70
     0
102
RTVSPropertyOp13
 70
     0
102
RTVSPropertyOp14
 70
     2
102
RTVSPropertyOp15
 70
     0
102
RTVSPropertyOp16
 70
     0
102
RTVSPropertyOp17
 70
     0
102
RTVSPropertyOp18
 70
     0
102
RTVSPropertyOp19
 70
     0
102
RTVSPropertyOp20
 70
     0
102
RTVSPropertyOp21
 70
     0
102
RTVSPropertyOp22
 70
     0
102
RTVSPropertyOp23
 70
     0
102
RTVSPropertyOp24
 70
     0
102
RTVSPropertyOp25
 70
     0
102
RTVSPropertyOp26
 70
     0
102
RTVSPropertyOp27
 70
     0
102
RTVSPropertyOp28
 70
     0
102
RTVSPropertyOp29
 70
     0
102
RTVSPropertyOp30
 70
     0
102
RTVSPropertyOp31
 70
     0
102
RTVSPropertyOp32
 70
     0
102
RTVSPropertyOp33
 70
     0
102
RTVSPropertyOp34
 70
     0
102
RTVSPropertyOp35
 70
     0
102
RTVSPropertyOp36
 70
     0
102
RTVSPropertyOp37
 70
     0
102
RTVSPropertyOp38
 70
     0
102
RTVSPropertyOp39
 70
     0
102
RTVSPropertyOp40
 70
     0
102
RTVSPropertyOp41
 70
     0
102
RTVSPropertyOp42
 70
     0
102
RTVSPropertyOp43
 70
     0
102
RTVSPropertyOp44
 70
     0
102
RTVSPropertyOp45
 70
     0
102
RTVSPropertyOp46
 70
     0
102
RTVSPropertyOp47
 70
     0
102
RTVSPropertyOp48
 70
     0
102
RTVSPropertyOp49
 70
     0
102
RTVSPropertyOp50
 70
     0
102
RTVSPropertyOp51
 70
     0
102
RTVSPropertyOp52
 70
     0
102
RTVSPropertyOp53
 70
     0
102
RTVSPropertyOp54
 70
     0
102
RTVSPropertyOp55
 70
     0
102
RTVSPropertyOp56
 70
     0
102
RTVSPropertyOp57
 70
     0
102
RTVSPost2010Prop28
280
     0
102
RTVSPost2010PropOp28
 70
     0
102
RTVSPost2010Prop29
280
     1
102
RTVSPost2010PropOp29
 70
     0
102
RTVSPost2010Prop30
280
     1
102
RTVSPost2010PropOp30
 70
     0
102
RTVSPost2010Prop31
280
     0
102
RTVSPost2010PropOp31
 70
     0
102
RTVSPost2010Prop32
280
     0
102
RTVSPost2010PropOp32
 70
     0
102
RTVSPost2010Prop33
280
     0
102
RTVSPost2010PropOp33
 70
     0
102
RTVSPost2010Prop34
280
     0
102
RTVSPost2010PropOp34
 70
     0
102
RTVSPost2010Prop35
280
     0
102
RTVSPost2010PropOp35
 70
     0
102
RTVSPost2010Prop36
280
     0
102
RTVSPost2010PropOp36
 70
     0
102
RTVSPost2010Prop37
 90
       50
102
RTVSPost2010PropOp37
 70
     0
102
RTVSPost2010Prop38
140
0.0
102
RTVSPost2010PropOp38
 70
     0
102
RTVSPost2010Prop39
140
1.0
102
RTVSPost2010PropOp39
 70
     0
102
RTVSPost2010Prop40
 90
        0
102
RTVSPost2010PropOp40
 70
     0
102
RTVSPost2010Prop41ColorIndex
 90
       18
102
RTVSPost2010Prop41ColorRGB
 90
        0
102
RTVSPost2010PropOp41
 70
     0
102
RTVSPost2010Prop42
 90
       50
102
RTVSPost2010PropOp42
 70
     0
102
RTVSPost2010Prop43
 90
        3
102
RTVSPost2010PropOp43
 70
     0
102
RTVSPost2010Prop44ColorIndex
 90
        5
102
RTVSPost2010Prop44ColorRGB
 90
      255
102
RTVSPost2010PropOp44
 70
     0
102
RTVSPost2010Prop45
280
     0
102
RTVSPost2010PropOp45
 70
     0
102
RTVSPost2010Prop46
 90
       50
102
RTVSPost2010PropOp46
 70
     0
102
RTVSPost2010Prop47
 90
       50
102
RTVSPost2010PropOp47
 70
     0
102
RTVSPost2010Prop48
 90
       50
102
RTVSPost2010PropOp48
 70
     0
102
RTVSPost2010Prop49
280
     0
102
RTVSPost2010PropOp49
 70
     0
102
RTVSPost2010Prop50
 90
       50
102
RTVSPost2010PropOp50
 70
     0
102
RTVSPost2010Prop51ColorIndex
 90
      256
102
RTVSPost2010Prop51ColorRGB
 90
-16777216
102
RTVSPost2010PropOp51
 70
     0
102
RTVSPost2010Prop52
140
1.0
102
RTVSPost2010PropOp52
 70
     0
102
RTVSPost2010Prop53
 90
        2
102
RTVSPost2010PropOp53
 70
     0
102
RTVSPost2010Prop54
  1
strokes_ogs.tif
102
RTVSPost2010PropOp54
 70
     0
102
RTVSPost2010Prop55
280
     0
102
RTVSPost2010PropOp55
 70
     0
102
RTVSPost2010Prop56
140
1.0
102
RTVSPost2010PropOp56
 70
     0
102
RTVSPost2010Prop57
140
1.0
102
RTVSPost2010PropOp57
 70
     0
  0
XRECORD
  5
184
102
{ACAD_REACTORS
330
183
102
}
330
183
100
AcDbXrecord
280
     1
102
RTVSPropertyOp0
 70
     1
102
RTVSPropertyOp1
 70
     1
102
RTVSPropertyOp2
 70
     1
102
RTVSPropertyOp3
 70
     1
102
RTVSPropertyOp4
 70
     1
102
RTVSPropertyOp5
 70
     1
102
RTVSPropertyOp6
 70
     1
102
RTVSPropertyOp7
 70
     1
102
RTVSPropertyOp8
 70
     1
102
RTVSPropertyOp9
 70
     1
102
RTVSPropertyOp10
 70
     1
102
RTVSPropertyOp11
 70
     1
102
RTVSPropertyOp12
 70
     1
102
RTVSPropertyOp13
 70
     1
102
RTVSPropertyOp14
 70
     1
102
RTVSPropertyOp15
 70
     1
102
RTVSPropertyOp16
 70
     1
102
RTVSPropertyOp17
 70
     1
102
RTVSPropertyOp18
 70
     1
102
RTVSPropertyOp19
 70
     1
102
RTVSPropertyOp20
 70
     1
102
RTVSPropertyOp21
 70
     1
102
RTVSPropertyOp22
 70
     1
102
RTVSPropertyOp23
 70
     1
102
RTVSPropertyOp24
 70
     1
102
RTVSPropertyOp25
 70
     1
102
RTVSPropertyOp26
 70
     1
102
RTVSPropertyOp27
 70
     1
102
RTVSPropertyOp28
 70
     1
102
RTVSPropertyOp29
 70
     1
102
RTVSPropertyOp30
 70
     1
102
RTVSPropertyOp31
 70
     1
102
RTVSPropertyOp32
 70
     1
102
RTVSPropertyOp33
 70
     1
102
RTVSPropertyOp34
 70
     1
102
RTVSPropertyOp35
 70
     1
102
RTVSPropertyOp36
 70
     1
102
RTVSPropertyOp37
 70
     1
102
RTVSPropertyOp38
 70
     1
102
RTVSPropertyOp39
 70
     1
102
RTVSPropertyOp40
 70
     1
102
RTVSPropertyOp41
 70
     1
102
RTVSPropertyOp42
 70
     1
102
RTVSPropertyOp43
 70
     1
102
RTVSPropertyOp44
 70
     1
102
RTVSPropertyOp45
 70
     1
102
RTVSPropertyOp46
 70
     1
102
RTVSPropertyOp47
 70
     1
102
RTVSPropertyOp48
 70
     1
102
RTVSPropertyOp49
 70
     1
102
RTVSPropertyOp50
 70
     1
102
RTVSPropertyOp51
 70
     0
102
RTVSPropertyOp52
 70
     0
102
RTVSPropertyOp53
 70
     1
102
RTVSPropertyOp54
 70
     1
102
RTVSPropertyOp55
 70
     1
102
RTVSPropertyOp56
 70
     1
102
RTVSPropertyOp57
 70
     1
102
RTVSPost2010Prop28
280
     0
102
RTVSPost2010PropOp28
 70
     1
102
RTVSPost2010Prop29
280
     1
102
RTVSPost2010PropOp29
 70
     1
102
RTVSPost2010Prop30
280
     1
102
RTVSPost2010PropOp30
 70
     1
102
RTVSPost2010Prop31
280
     0
102
RTVSPost2010PropOp31
 70
     1
102
RTVSPost2010Prop32
280
     0
102
RTVSPost2010PropOp32
 70
     1
102
RTVSPost2010Prop33
280
     0
102
RTVSPost2010PropOp33
 70
     1
102
RTVSPost2010Prop34
280
     0
102
RTVSPost2010PropOp34
 70
     1
102
RTVSPost2010Prop35
280
     0
102
RTVSPost2010PropOp35
 70
     1
102
RTVSPost2010Prop36
280
     0
102
RTVSPost2010PropOp36
 70
     1
102
RTVSPost2010Prop37
 90
       50
102
RTVSPost2010PropOp37
 70
     1
102
RTVSPost2010Prop38
140
0.0
102
RTVSPost2010PropOp38
 70
     1
102
RTVSPost2010Prop39
140
1.0
102
RTVSPost2010PropOp39
 70
     1
102
RTVSPost2010Prop40
 90
        0
102
RTVSPost2010PropOp40
 70
     1
102
RTVSPost2010Prop41ColorIndex
 90
       18
102
RTVSPost2010Prop41ColorRGB
 90
        0
102
RTVSPost2010PropOp41
 70
     1
102
RTVSPost2010Prop42
 90
       50
102
RTVSPost2010PropOp42
 70
     1
102
RTVSPost2010Prop43
 90
        3
102
RTVSPost2010PropOp43
 70
     1
102
RTVSPost2010Prop44ColorIndex
 90
        5
102
RTVSPost2010Prop44ColorRGB
 90
      255
102
RTVSPost2010PropOp44
 70
     1
102
RTVSPost2010Prop45
280
     0
102
RTVSPost2010PropOp45
 70
     1
102
RTVSPost2010Prop46
 90
       50
102
RTVSPost2010PropOp46
 70
     1
102
RTVSPost2010Prop47
 90
       50
102
RTVSPost2010PropOp47
 70
     1
102
RTVSPost2010Prop48
 90
       50
102
RTVSPost2010PropOp48
 70
     1
102
RTVSPost2010Prop49
280
     0
102
RTVSPost2010PropOp49
 70
     1
102
RTVSPost2010Prop50
 90
       50
102
RTVSPost2010PropOp50
 70
     1
102
RTVSPost2010Prop51ColorIndex
 90
      256
102
RTVSPost2010Prop51ColorRGB
 90
-16777216
102
RTVSPost2010PropOp51
 70
     0
102
RTVSPost2010Prop52
140
1.0
102
RTVSPost2010PropOp52
 70
     0
102
RTVSPost2010Prop53
 90
        2
102
RTVSPost2010PropOp53
 70
     1
102
RTVSPost2010Prop54
  1
strokes_ogs.tif
102
RTVSPost2010PropOp54
 70
     1
102
RTVSPost2010Prop55
280
     0
102
RTVSPost2010PropOp55
 70
     1
102
RTVSPost2010Prop56
140
1.0
102
RTVSPost2010PropOp56
 70
     1
102
RTVSPost2010Prop57
140
1.0
102
RTVSPost2010PropOp57
 70
     1
  0
XRECORD
  5
18C
102
{ACAD_REACTORS
330
18B
102
}
330
18B
100
AcDbXrecord
280
     1
102
RTVSPropertyOp0
 70
     0
102
RTVSPropertyOp1
 70
     0
102
RTVSPropertyOp2
 70
     0
102
RTVSPropertyOp3
 70
     0
102
RTVSPropertyOp4
 70
     0
102
RTVSPropertyOp5
 70
     0
102
RTVSPropertyOp6
 70
     0
102
RTVSPropertyOp7
 70
     0
102
RTVSPropertyOp8
 70
     0
102
RTVSPropertyOp9
 70
     0
102
RTVSPropertyOp10
 70
     0
102
RTVSPropertyOp11
 70
     0
102
RTVSPropertyOp12
 70
     0
102
RTVSPropertyOp13
 70
     0
102
RTVSPropertyOp14
 70
     2
102
RTVSPropertyOp15
 70
     0
102
RTVSPropertyOp16
 70
     0
102
RTVSPropertyOp17
 70
     0
102
RTVSPropertyOp18
 70
     0
102
RTVSPropertyOp19
 70
     0
102
RTVSPropertyOp20
 70
     0
102
RTVSPropertyOp21
 70
     0
102
RTVSPropertyOp22
 70
     0
102
RTVSPropertyOp23
 70
     0
102
RTVSPropertyOp24
 70
     0
102
RTVSPropertyOp25
 70
     0
102
RTVSPropertyOp26
 70
     0
102
RTVSPropertyOp27
 70
     0
102
RTVSPropertyOp28
 70
     0
102
RTVSPropertyOp29
 70
     0
102
RTVSPropertyOp30
 70
     0
102
RTVSPropertyOp31
 70
     0
102
RTVSPropertyOp32
 70
     0
102
RTVSPropertyOp33
 70
     0
102
RTVSPropertyOp34
 70
     0
102
RTVSPropertyOp35
 70
     0
102
RTVSPropertyOp36
 70
     0
102
RTVSPropertyOp37
 70
     0
102
RTVSPropertyOp38
 70
     0
102
RTVSPropertyOp39
 70
     0
102
RTVSPropertyOp40
 70
     0
102
RTVSPropertyOp41
 70
     0
102
RTVSPropertyOp42
 70
     0
102
RTVSPropertyOp43
 70
     0
102
RTVSPropertyOp44
 70
     0
102
RTVSPropertyOp45
 70
     0
102
RTVSPropertyOp46
 70
     0
102
RTVSPropertyOp47
 70
     0
102
RTVSPropertyOp48
 70
     0
102
RTVSPropertyOp49
 70
     0
102
RTVSPropertyOp50
 70
     0
102
RTVSPropertyOp51
 70
     0
102
RTVSPropertyOp52
 70
     0
102
RTVSPropertyOp53
 70
     0
102
RTVSPropertyOp54
 70
     0
102
RTVSPropertyOp55
 70
     0
102
RTVSPropertyOp56
 70
     0
102
RTVSPropertyOp57
 70
     0
102
RTVSPost2010Prop28
280
     0
102
RTVSPost2010PropOp28
 70
     0
102
RTVSPost2010Prop29
280
     1
102
RTVSPost2010PropOp29
 70
     0
102
RTVSPost2010Prop30
280
     1
102
RTVSPost2010PropOp30
 70
     0
102
RTVSPost2010Prop31
280
     0
102
RTVSPost2010PropOp31
 70
     0
102
RTVSPost2010Prop32
280
     0
102
RTVSPost2010PropOp32
 70
     0
102
RTVSPost2010Prop33
280
     0
102
RTVSPost2010PropOp33
 70
     0
102
RTVSPost2010Prop34
280
     0
102
RTVSPost2010PropOp34
 70
     0
102
RTVSPost2010Prop35
280
     0
102
RTVSPost2010PropOp35
 70
     0
102
RTVSPost2010Prop36
280
     0
102
RTVSPost2010PropOp36
 70
     0
102
RTVSPost2010Prop37
 90
       50
102
RTVSPost2010PropOp37
 70
     0
102
RTVSPost2010Prop38
140
0.0
102
RTVSPost2010PropOp38
 70
     0
102
RTVSPost2010Prop39
140
1.0
102
RTVSPost2010PropOp39
 70
     0
102
RTVSPost2010Prop40
 90
        0
102
RTVSPost2010PropOp40
 70
     0
102
RTVSPost2010Prop41ColorIndex
 90
       18
102
RTVSPost2010Prop41ColorRGB
 90
        0
102
RTVSPost2010PropOp41
 70
     0
102
RTVSPost2010Prop42
 90
       50
102
RTVSPost2010PropOp42
 70
     0
102
RTVSPost2010Prop43
 90
        3
102
RTVSPost2010PropOp43
 70
     0
102
RTVSPost2010Prop44ColorIndex
 90
        5
102
RTVSPost2010Prop44ColorRGB
 90
      255
102
RTVSPost2010PropOp44
 70
     0
102
RTVSPost2010Prop45
280
     0
102
RTVSPost2010PropOp45
 70
     0
102
RTVSPost2010Prop46
 90
       50
102
RTVSPost2010PropOp46
 70
     0
102
RTVSPost2010Prop47
 90
       50
102
RTVSPost2010PropOp47
 70
     0
102
RTVSPost2010Prop48
 90
       50
102
RTVSPost2010PropOp48
 70
     0
102
RTVSPost2010Prop49
280
     0
102
RTVSPost2010PropOp49
 70
     0
102
RTVSPost2010Prop50
 90
       50
102
RTVSPost2010PropOp50
 70
     0
102
RTVSPost2010Prop51ColorIndex
 90
      256
102
RTVSPost2010Prop51ColorRGB
 90
-16777216
102
RTVSPost2010PropOp51
 70
     0
102
RTVSPost2010Prop52
140
1.0
102
RTVSPost2010PropOp52
 70
     0
102
RTVSPost2010Prop53
 90
        2
102
RTVSPost2010PropOp53
 70
     0
102
RTVSPost2010Prop54
  1
strokes_ogs.tif
102
RTVSPost2010PropOp54
 70
     0
102
RTVSPost2010Prop55
280
     0
102
RTVSPost2010PropOp55
 70
     0
102
RTVSPost2010Prop56
140
1.0
102
RTVSPost2010PropOp56
 70
     0
102
RTVSPost2010Prop57
140
1.0
102
RTVSPost2010PropOp57
 70
     0
  0
XRECORD
  5
17A
102
{ACAD_REACTORS
330
179
102
}
330
179
100
AcDbXrecord
280
     1
102
RTVSPropertyOp0
 70
     1
102
RTVSPropertyOp1
 70
     1
102
RTVSPropertyOp2
 70
     1
102
RTVSPropertyOp3
 70
     1
102
RTVSPropertyOp4
 70
     1
102
RTVSPropertyOp5
 70
     1
102
RTVSPropertyOp6
 70
     1
102
RTVSPropertyOp7
 70
     1
102
RTVSPropertyOp8
 70
     1
102
RTVSPropertyOp9
 70
     1
102
RTVSPropertyOp10
 70
     1
102
RTVSPropertyOp11
 70
     1
102
RTVSPropertyOp12
 70
     1
102
RTVSPropertyOp13
 70
     1
102
RTVSPropertyOp14
 70
     1
102
RTVSPropertyOp15
 70
     1
102
RTVSPropertyOp16
 70
     1
102
RTVSPropertyOp17
 70
     1
102
RTVSPropertyOp18
 70
     1
102
RTVSPropertyOp19
 70
     1
102
RTVSPropertyOp20
 70
     1
102
RTVSPropertyOp21
 70
     1
102
RTVSPropertyOp22
 70
     1
102
RTVSPropertyOp23
 70
     1
102
RTVSPropertyOp24
 70
     1
102
RTVSPropertyOp25
 70
     1
102
RTVSPropertyOp26
 70
     1
102
RTVSPropertyOp27
 70
     1
102
RTVSPropertyOp28
 70
     1
102
RTVSPropertyOp29
 70
     1
102
RTVSPropertyOp30
 70
     1
102
RTVSPropertyOp31
 70
     1
102
RTVSPropertyOp32
 70
     1
102
RTVSPropertyOp33
 70
     1
102
RTVSPropertyOp34
 70
     1
102
RTVSPropertyOp35
 70
     1
102
RTVSPropertyOp36
 70
     1
102
RTVSPropertyOp37
 70
     1
102
RTVSPropertyOp38
 70
     1
102
RTVSPropertyOp39
 70
     1
102
RTVSPropertyOp40
 70
     1
102
RTVSPropertyOp41
 70
     1
102
RTVSPropertyOp42
 70
     1
102
RTVSPropertyOp43
 70
     1
102
RTVSPropertyOp44
 70
     1
102
RTVSPropertyOp45
 70
     1
102
RTVSPropertyOp46
 70
     1
102
RTVSPropertyOp47
 70
     1
102
RTVSPropertyOp48
 70
     1
102
RTVSPropertyOp49
 70
     1
102
RTVSPropertyOp50
 70
     1
102
RTVSPropertyOp51
 70
     0
102
RTVSPropertyOp52
 70
     0
102
RTVSPropertyOp53
 70
     1
102
RTVSPropertyOp54
 70
     1
102
RTVSPropertyOp55
 70
     1
102
RTVSPropertyOp56
 70
     1
102
RTVSPropertyOp57
 70
     1
102
RTVSPost2010Prop28
280
     0
102
RTVSPost2010PropOp28
 70
     1
102
RTVSPost2010Prop29
280
     1
102
RTVSPost2010PropOp29
 70
     1
102
RTVSPost2010Prop30
280
     1
102
RTVSPost2010PropOp30
 70
     1
102
RTVSPost2010Prop31
280
     0
102
RTVSPost2010PropOp31
 70
     1
102
RTVSPost2010Prop32
280
     0
102
RTVSPost2010PropOp32
 70
     1
102
RTVSPost2010Prop33
280
     0
102
RTVSPost2010PropOp33
 70
     1
102
RTVSPost2010Prop34
280
     0
102
RTVSPost2010PropOp34
 70
     1
102
RTVSPost2010Prop35
280
     0
102
RTVSPost2010PropOp35
 70
     1
102
RTVSPost2010Prop36
280
     0
102
RTVSPost2010PropOp36
 70
     1
102
RTVSPost2010Prop37
 90
       50
102
RTVSPost2010PropOp37
 70
     1
102
RTVSPost2010Prop38
140
0.0
102
RTVSPost2010PropOp38
 70
     1
102
RTVSPost2010Prop39
140
1.0
102
RTVSPost2010PropOp39
 70
     1
102
RTVSPost2010Prop40
 90
        0
102
RTVSPost2010PropOp40
 70
     1
102
RTVSPost2010Prop41ColorIndex
 90
       18
102
RTVSPost2010Prop41ColorRGB
 90
        0
102
RTVSPost2010PropOp41
 70
     1
102
RTVSPost2010Prop42
 90
       50
102
RTVSPost2010PropOp42
 70
     1
102
RTVSPost2010Prop43
 90
        3
102
RTVSPost2010PropOp43
 70
     1
102
RTVSPost2010Prop44ColorIndex
 90
        5
102
RTVSPost2010Prop44ColorRGB
 90
      255
102
RTVSPost2010PropOp44
 70
     1
102
RTVSPost2010Prop45
280
     0
102
RTVSPost2010PropOp45
 70
     1
102
RTVSPost2010Prop46
 90
       50
102
RTVSPost2010PropOp46
 70
     1
102
RTVSPost2010Prop47
 90
       50
102
RTVSPost2010PropOp47
 70
     1
102
RTVSPost2010Prop48
 90
       50
102
RTVSPost2010PropOp48
 70
     1
102
RTVSPost2010Prop49
280
     0
102
RTVSPost2010PropOp49
 70
     1
102
RTVSPost2010Prop50
 90
       50
102
RTVSPost2010PropOp50
 70
     1
102
RTVSPost2010Prop51ColorIndex
 90
      256
102
RTVSPost2010Prop51ColorRGB
 90
-16777216
102
RTVSPost2010PropOp51
 70
     0
102
RTVSPost2010Prop52
140
1.0
102
RTVSPost2010PropOp52
 70
     0
102
RTVSPost2010Prop53
 90
        2
102
RTVSPost2010PropOp53
 70
     1
102
RTVSPost2010Prop54
  1
strokes_ogs.tif
102
RTVSPost2010PropOp54
 70
     1
102
RTVSPost2010Prop55
280
     0
102
RTVSPost2010PropOp55
 70
     1
102
RTVSPost2010Prop56
140
1.0
102
RTVSPost2010PropOp56
 70
     1
102
RTVSPost2010Prop57
140
1.0
102
RTVSPost2010PropOp57
 70
     1
  0
XRECORD
  5
198
102
{ACAD_REACTORS
330
197
102
}
330
197
100
AcDbXrecord
280
     1
102
RTVSPropertyOp0
 70
     1
102
RTVSPropertyOp1
 70
     1
102
RTVSPropertyOp2
 70
     1
102
RTVSPropertyOp3
 70
     1
102
RTVSPropertyOp4
 70
     1
102
RTVSPropertyOp5
 70
     1
102
RTVSPropertyOp6
 70
     1
102
RTVSPropertyOp7
 70
     1
102
RTVSPropertyOp8
 70
     1
102
RTVSPropertyOp9
 70
     1
102
RTVSPropertyOp10
 70
     1
102
RTVSPropertyOp11
 70
     1
102
RTVSPropertyOp12
 70
     1
102
RTVSPropertyOp13
 70
     1
102
RTVSPropertyOp14
 70
     1
102
RTVSPropertyOp15
 70
     1
102
RTVSPropertyOp16
 70
     1
102
RTVSPropertyOp17
 70
     1
102
RTVSPropertyOp18
 70
     1
102
RTVSPropertyOp19
 70
     1
102
RTVSPropertyOp20
 70
     1
102
RTVSPropertyOp21
 70
     1
102
RTVSPropertyOp22
 70
     1
102
RTVSPropertyOp23
 70
     1
102
RTVSPropertyOp24
 70
     1
102
RTVSPropertyOp25
 70
     1
102
RTVSPropertyOp26
 70
     1
102
RTVSPropertyOp27
 70
     1
102
RTVSPropertyOp28
 70
     1
102
RTVSPropertyOp29
 70
     1
102
RTVSPropertyOp30
 70
     1
102
RTVSPropertyOp31
 70
     1
102
RTVSPropertyOp32
 70
     1
102
RTVSPropertyOp33
 70
     1
102
RTVSPropertyOp34
 70
     1
102
RTVSPropertyOp35
 70
     1
102
RTVSPropertyOp36
 70
     1
102
RTVSPropertyOp37
 70
     1
102
RTVSPropertyOp38
 70
     1
102
RTVSPropertyOp39
 70
     1
102
RTVSPropertyOp40
 70
     1
102
RTVSPropertyOp41
 70
     1
102
RTVSPropertyOp42
 70
     1
102
RTVSPropertyOp43
 70
     1
102
RTVSPropertyOp44
 70
     1
102
RTVSPropertyOp45
 70
     1
102
RTVSPropertyOp46
 70
     1
102
RTVSPropertyOp47
 70
     1
102
RTVSPropertyOp48
 70
     1
102
RTVSPropertyOp49
 70
     1
102
RTVSPropertyOp50
 70
     1
102
RTVSPropertyOp51
 70
     0
102
RTVSPropertyOp52
 70
     0
102
RTVSPropertyOp53
 70
     1
102
RTVSPropertyOp54
 70
     1
102
RTVSPropertyOp55
 70
     1
102
RTVSPropertyOp56
 70
     1
102
RTVSPropertyOp57
 70
     1
102
RTVSPost2010Prop28
280
     0
102
RTVSPost2010PropOp28
 70
     1
102
RTVSPost2010Prop29
280
     1
102
RTVSPost2010PropOp29
 70
     1
102
RTVSPost2010Prop30
280
     1
102
RTVSPost2010PropOp30
 70
     1
102
RTVSPost2010Prop31
280
     0
102
RTVSPost2010PropOp31
 70
     1
102
RTVSPost2010Prop32
280
     0
102
RTVSPost2010PropOp32
 70
     1
102
RTVSPost2010Prop33
280
     0
102
RTVSPost2010PropOp33
 70
     1
102
RTVSPost2010Prop34
280
     0
102
RTVSPost2010PropOp34
 70
     1
102
RTVSPost2010Prop35
280
     0
102
RTVSPost2010PropOp35
 70
     1
102
RTVSPost2010Prop36
280
     0
102
RTVSPost2010PropOp36
 70
     1
102
RTVSPost2010Prop37
 90
       50
102
RTVSPost2010PropOp37
 70
     1
102
RTVSPost2010Prop38
140
0.0
102
RTVSPost2010PropOp38
 70
     1
102
RTVSPost2010Prop39
140
1.0
102
RTVSPost2010PropOp39
 70
     1
102
RTVSPost2010Prop40
 90
        0
102
RTVSPost2010PropOp40
 70
     1
102
RTVSPost2010Prop41ColorIndex
 90
       18
102
RTVSPost2010Prop41ColorRGB
 90
        0
102
RTVSPost2010PropOp41
 70
     1
102
RTVSPost2010Prop42
 90
       50
102
RTVSPost2010PropOp42
 70
     1
102
RTVSPost2010Prop43
 90
        3
102
RTVSPost2010PropOp43
 70
     1
102
RTVSPost2010Prop44ColorIndex
 90
        5
102
RTVSPost2010Prop44ColorRGB
 90
      255
102
RTVSPost2010PropOp44
 70
     1
102
RTVSPost2010Prop45
280
     0
102
RTVSPost2010PropOp45
 70
     1
102
RTVSPost2010Prop46
 90
       50
102
RTVSPost2010PropOp46
 70
     1
102
RTVSPost2010Prop47
 90
       50
102
RTVSPost2010PropOp47
 70
     1
102
RTVSPost2010Prop48
 90
       50
102
RTVSPost2010PropOp48
 70
     1
102
RTVSPost2010Prop49
280
     0
102
RTVSPost2010PropOp49
 70
     1
102
RTVSPost2010Prop50
 90
       50
102
RTVSPost2010PropOp50
 70
     1
102
RTVSPost2010Prop51ColorIndex
 90
      256
102
RTVSPost2010Prop51ColorRGB
 90
-16777216
102
RTVSPost2010PropOp51
 70
     0
102
RTVSPost2010Prop52
140
1.0
102
RTVSPost2010PropOp52
 70
     0
102
RTVSPost2010Prop53
 90
        2
102
RTVSPost2010PropOp53
 70
     1
102
RTVSPost2010Prop54
  1
strokes_ogs.tif
102
RTVSPost2010PropOp54
 70
     1
102
RTVSPost2010Prop55
280
     0
102
RTVSPost2010PropOp55
 70
     1
102
RTVSPost2010Prop56
140
1.0
102
RTVSPost2010PropOp56
 70
     1
102
RTVSPost2010Prop57
140
1.0
102
RTVSPost2010PropOp57
 70
     1
  0
XRECORD
  5
196
102
{ACAD_REACTORS
330
195
102
}
330
195
100
AcDbXrecord
280
     1
102
RTVSPropertyOp0
 70
     1
102
RTVSPropertyOp1
 70
     1
102
RTVSPropertyOp2
 70
     1
102
RTVSPropertyOp3
 70
     1
102
RTVSPropertyOp4
 70
     1
102
RTVSPropertyOp5
 70
     1
102
RTVSPropertyOp6
 70
     1
102
RTVSPropertyOp7
 70
     1
102
RTVSPropertyOp8
 70
     1
102
RTVSPropertyOp9
 70
     1
102
RTVSPropertyOp10
 70
     1
102
RTVSPropertyOp11
 70
     1
102
RTVSPropertyOp12
 70
     1
102
RTVSPropertyOp13
 70
     1
102
RTVSPropertyOp14
 70
     1
102
RTVSPropertyOp15
 70
     1
102
RTVSPropertyOp16
 70
     1
102
RTVSPropertyOp17
 70
     1
102
RTVSPropertyOp18
 70
     1
102
RTVSPropertyOp19
 70
     1
102
RTVSPropertyOp20
 70
     1
102
RTVSPropertyOp21
 70
     1
102
RTVSPropertyOp22
 70
     1
102
RTVSPropertyOp23
 70
     1
102
RTVSPropertyOp24
 70
     1
102
RTVSPropertyOp25
 70
     1
102
RTVSPropertyOp26
 70
     1
102
RTVSPropertyOp27
 70
     1
102
RTVSPropertyOp28
 70
     1
102
RTVSPropertyOp29
 70
     1
102
RTVSPropertyOp30
 70
     1
102
RTVSPropertyOp31
 70
     1
102
RTVSPropertyOp32
 70
     1
102
RTVSPropertyOp33
 70
     1
102
RTVSPropertyOp34
 70
     1
102
RTVSPropertyOp35
 70
     1
102
RTVSPropertyOp36
 70
     1
102
RTVSPropertyOp37
 70
     1
102
RTVSPropertyOp38
 70
     1
102
RTVSPropertyOp39
 70
     1
102
RTVSPropertyOp40
 70
     1
102
RTVSPropertyOp41
 70
     1
102
RTVSPropertyOp42
 70
     1
102
RTVSPropertyOp43
 70
     1
102
RTVSPropertyOp44
 70
     1
102
RTVSPropertyOp45
 70
     1
102
RTVSPropertyOp46
 70
     1
102
RTVSPropertyOp47
 70
     1
102
RTVSPropertyOp48
 70
     1
102
RTVSPropertyOp49
 70
     1
102
RTVSPropertyOp50
 70
     1
102
RTVSPropertyOp51
 70
     0
102
RTVSPropertyOp52
 70
     0
102
RTVSPropertyOp53
 70
     1
102
RTVSPropertyOp54
 70
     1
102
RTVSPropertyOp55
 70
     1
102
RTVSPropertyOp56
 70
     1
102
RTVSPropertyOp57
 70
     1
102
RTVSPost2010Prop28
280
     0
102
RTVSPost2010PropOp28
 70
     1
102
RTVSPost2010Prop29
280
     1
102
RTVSPost2010PropOp29
 70
     1
102
RTVSPost2010Prop30
280
     1
102
RTVSPost2010PropOp30
 70
     1
102
RTVSPost2010Prop31
280
     0
102
RTVSPost2010PropOp31
 70
     1
102
RTVSPost2010Prop32
280
     0
102
RTVSPost2010PropOp32
 70
     1
102
RTVSPost2010Prop33
280
     0
102
RTVSPost2010PropOp33
 70
     1
102
RTVSPost2010Prop34
280
     0
102
RTVSPost2010PropOp34
 70
     1
102
RTVSPost2010Prop35
280
     0
102
RTVSPost2010PropOp35
 70
     1
102
RTVSPost2010Prop36
280
     0
102
RTVSPost2010PropOp36
 70
     1
102
RTVSPost2010Prop37
 90
       50
102
RTVSPost2010PropOp37
 70
     1
102
RTVSPost2010Prop38
140
0.0
102
RTVSPost2010PropOp38
 70
     1
102
RTVSPost2010Prop39
140
1.0
102
RTVSPost2010PropOp39
 70
     1
102
RTVSPost2010Prop40
 90
        0
102
RTVSPost2010PropOp40
 70
     1
102
RTVSPost2010Prop41ColorIndex
 90
       18
102
RTVSPost2010Prop41ColorRGB
 90
        0
102
RTVSPost2010PropOp41
 70
     1
102
RTVSPost2010Prop42
 90
       50
102
RTVSPost2010PropOp42
 70
     1
102
RTVSPost2010Prop43
 90
        3
102
RTVSPost2010PropOp43
 70
     1
102
RTVSPost2010Prop44ColorIndex
 90
        5
102
RTVSPost2010Prop44ColorRGB
 90
      255
102
RTVSPost2010PropOp44
 70
     1
102
RTVSPost2010Prop45
280
     0
102
RTVSPost2010PropOp45
 70
     1
102
RTVSPost2010Prop46
 90
       50
102
RTVSPost2010PropOp46
 70
     1
102
RTVSPost2010Prop47
 90
       50
102
RTVSPost2010PropOp47
 70
     1
102
RTVSPost2010Prop48
 90
       50
102
RTVSPost2010PropOp48
 70
     1
102
RTVSPost2010Prop49
280
     0
102
RTVSPost2010PropOp49
 70
     1
102
RTVSPost2010Prop50
 90
       50
102
RTVSPost2010PropOp50
 70
     1
102
RTVSPost2010Prop51ColorIndex
 90
      256
102
RTVSPost2010Prop51ColorRGB
 90
-16777216
102
RTVSPost2010PropOp51
 70
     0
102
RTVSPost2010Prop52
140
1.0
102
RTVSPost2010PropOp52
 70
     0
102
RTVSPost2010Prop53
 90
        2
102
RTVSPost2010PropOp53
 70
     1
102
RTVSPost2010Prop54
  1
strokes_ogs.tif
102
RTVSPost2010PropOp54
 70
     1
102
RTVSPost2010Prop55
280
     0
102
RTVSPost2010PropOp55
 70
     1
102
RTVSPost2010Prop56
140
1.0
102
RTVSPost2010PropOp56
 70
     1
102
RTVSPost2010Prop57
140
1.0
102
RTVSPost2010PropOp57
 70
     1
  0
XRECORD
  5
190
102
{ACAD_REACTORS
330
18F
102
}
330
18F
100
AcDbXrecord
280
     1
102
RTVSPropertyOp0
 70
     1
102
RTVSPropertyOp1
 70
     1
102
RTVSPropertyOp2
 70
     1
102
RTVSPropertyOp3
 70
     1
102
RTVSPropertyOp4
 70
     1
102
RTVSPropertyOp5
 70
     1
102
RTVSPropertyOp6
 70
     1
102
RTVSPropertyOp7
 70
     1
102
RTVSPropertyOp8
 70
     1
102
RTVSPropertyOp9
 70
     1
102
RTVSPropertyOp10
 70
     1
102
RTVSPropertyOp11
 70
     1
102
RTVSPropertyOp12
 70
     1
102
RTVSPropertyOp13
 70
     1
102
RTVSPropertyOp14
 70
     1
102
RTVSPropertyOp15
 70
     1
102
RTVSPropertyOp16
 70
     1
102
RTVSPropertyOp17
 70
     1
102
RTVSPropertyOp18
 70
     1
102
RTVSPropertyOp19
 70
     1
102
RTVSPropertyOp20
 70
     1
102
RTVSPropertyOp21
 70
     1
102
RTVSPropertyOp22
 70
     1
102
RTVSPropertyOp23
 70
     1
102
RTVSPropertyOp24
 70
     1
102
RTVSPropertyOp25
 70
     1
102
RTVSPropertyOp26
 70
     1
102
RTVSPropertyOp27
 70
     1
102
RTVSPropertyOp28
 70
     1
102
RTVSPropertyOp29
 70
     1
102
RTVSPropertyOp30
 70
     1
102
RTVSPropertyOp31
 70
     1
102
RTVSPropertyOp32
 70
     1
102
RTVSPropertyOp33
 70
     1
102
RTVSPropertyOp34
 70
     1
102
RTVSPropertyOp35
 70
     1
102
RTVSPropertyOp36
 70
     1
102
RTVSPropertyOp37
 70
     1
102
RTVSPropertyOp38
 70
     1
102
RTVSPropertyOp39
 70
     1
102
RTVSPropertyOp40
 70
     1
102
RTVSPropertyOp41
 70
     1
102
RTVSPropertyOp42
 70
     1
102
RTVSPropertyOp43
 70
     1
102
RTVSPropertyOp44
 70
     1
102
RTVSPropertyOp45
 70
     1
102
RTVSPropertyOp46
 70
     1
102
RTVSPropertyOp47
 70
     1
102
RTVSPropertyOp48
 70
     1
102
RTVSPropertyOp49
 70
     1
102
RTVSPropertyOp50
 70
     1
102
RTVSPropertyOp51
 70
     0
102
RTVSPropertyOp52
 70
     0
102
RTVSPropertyOp53
 70
     1
102
RTVSPropertyOp54
 70
     1
102
RTVSPropertyOp55
 70
     1
102
RTVSPropertyOp56
 70
     1
102
RTVSPropertyOp57
 70
     1
102
RTVSPost2010Prop28
280
     0
102
RTVSPost2010PropOp28
 70
     1
102
RTVSPost2010Prop29
280
     1
102
RTVSPost2010PropOp29
 70
     1
102
RTVSPost2010Prop30
280
     1
102
RTVSPost2010PropOp30
 70
     1
102
RTVSPost2010Prop31
280
     0
102
RTVSPost2010PropOp31
 70
     1
102
RTVSPost2010Prop32
280
     0
102
RTVSPost2010PropOp32
 70
     1
102
RTVSPost2010Prop33
280
     0
102
RTVSPost2010PropOp33
 70
     1
102
RTVSPost2010Prop34
280
     0
102
RTVSPost2010PropOp34
 70
     1
102
RTVSPost2010Prop35
280
     0
102
RTVSPost2010PropOp35
 70
     1
102
RTVSPost2010Prop36
280
     0
102
RTVSPost2010PropOp36
 70
     1
102
RTVSPost2010Prop37
 90
       50
102
RTVSPost2010PropOp37
 70
     1
102
RTVSPost2010Prop38
140
0.0
102
RTVSPost2010PropOp38
 70
     1
102
RTVSPost2010Prop39
140
1.0
102
RTVSPost2010PropOp39
 70
     1
102
RTVSPost2010Prop40
 90
        0
102
RTVSPost2010PropOp40
 70
     1
102
RTVSPost2010Prop41ColorIndex
 90
       18
102
RTVSPost2010Prop41ColorRGB
 90
        0
102
RTVSPost2010PropOp41
 70
     1
102
RTVSPost2010Prop42
 90
       50
102
RTVSPost2010PropOp42
 70
     1
102
RTVSPost2010Prop43
 90
        3
102
RTVSPost2010PropOp43
 70
     1
102
RTVSPost2010Prop44ColorIndex
 90
        5
102
RTVSPost2010Prop44ColorRGB
 90
      255
102
RTVSPost2010PropOp44
 70
     1
102
RTVSPost2010Prop45
280
     0
102
RTVSPost2010PropOp45
 70
     1
102
RTVSPost2010Prop46
 90
       50
102
RTVSPost2010PropOp46
 70
     1
102
RTVSPost2010Prop47
 90
       50
102
RTVSPost2010PropOp47
 70
     1
102
RTVSPost2010Prop48
 90
       50
102
RTVSPost2010PropOp48
 70
     1
102
RTVSPost2010Prop49
280
     0
102
RTVSPost2010PropOp49
 70
     1
102
RTVSPost2010Prop50
 90
       50
102
RTVSPost2010PropOp50
 70
     1
102
RTVSPost2010Prop51ColorIndex
 90
      256
102
RTVSPost2010Prop51ColorRGB
 90
-16777216
102
RTVSPost2010PropOp51
 70
     0
102
RTVSPost2010Prop52
140
1.0
102
RTVSPost2010PropOp52
 70
     0
102
RTVSPost2010Prop53
 90
        2
102
RTVSPost2010PropOp53
 70
     1
102
RTVSPost2010Prop54
  1
strokes_ogs.tif
102
RTVSPost2010PropOp54
 70
     1
102
RTVSPost2010Prop55
280
     0
102
RTVSPost2010PropOp55
 70
     1
102
RTVSPost2010Prop56
140
1.0
102
RTVSPost2010PropOp56
 70
     1
102
RTVSPost2010Prop57
140
1.0
102
RTVSPost2010PropOp57
 70
     1
  0
XRECORD
  5
192
102
{ACAD_REACTORS
330
191
102
}
330
191
100
AcDbXrecord
280
     1
102
RTVSPropertyOp0
 70
     1
102
RTVSPropertyOp1
 70
     1
102
RTVSPropertyOp2
 70
     1
102
RTVSPropertyOp3
 70
     1
102
RTVSPropertyOp4
 70
     1
102
RTVSPropertyOp5
 70
     1
102
RTVSPropertyOp6
 70
     1
102
RTVSPropertyOp7
 70
     1
102
RTVSPropertyOp8
 70
     1
102
RTVSPropertyOp9
 70
     1
102
RTVSPropertyOp10
 70
     1
102
RTVSPropertyOp11
 70
     1
102
RTVSPropertyOp12
 70
     1
102
RTVSPropertyOp13
 70
     1
102
RTVSPropertyOp14
 70
     1
102
RTVSPropertyOp15
 70
     1
102
RTVSPropertyOp16
 70
     1
102
RTVSPropertyOp17
 70
     1
102
RTVSPropertyOp18
 70
     1
102
RTVSPropertyOp19
 70
     1
102
RTVSPropertyOp20
 70
     1
102
RTVSPropertyOp21
 70
     1
102
RTVSPropertyOp22
 70
     1
102
RTVSPropertyOp23
 70
     1
102
RTVSPropertyOp24
 70
     1
102
RTVSPropertyOp25
 70
     1
102
RTVSPropertyOp26
 70
     1
102
RTVSPropertyOp27
 70
     1
102
RTVSPropertyOp28
 70
     1
102
RTVSPropertyOp29
 70
     1
102
RTVSPropertyOp30
 70
     1
102
RTVSPropertyOp31
 70
     1
102
RTVSPropertyOp32
 70
     1
102
RTVSPropertyOp33
 70
     1
102
RTVSPropertyOp34
 70
     1
102
RTVSPropertyOp35
 70
     1
102
RTVSPropertyOp36
 70
     1
102
RTVSPropertyOp37
 70
     1
102
RTVSPropertyOp38
 70
     1
102
RTVSPropertyOp39
 70
     1
102
RTVSPropertyOp40
 70
     1
102
RTVSPropertyOp41
 70
     1
102
RTVSPropertyOp42
 70
     1
102
RTVSPropertyOp43
 70
     1
102
RTVSPropertyOp44
 70
     1
102
RTVSPropertyOp45
 70
     1
102
RTVSPropertyOp46
 70
     1
102
RTVSPropertyOp47
 70
     1
102
RTVSPropertyOp48
 70
     1
102
RTVSPropertyOp49
 70
     1
102
RTVSPropertyOp50
 70
     1
102
RTVSPropertyOp51
 70
     0
102
RTVSPropertyOp52
 70
     0
102
RTVSPropertyOp53
 70
     1
102
RTVSPropertyOp54
 70
     1
102
RTVSPropertyOp55
 70
     1
102
RTVSPropertyOp56
 70
     1
102
RTVSPropertyOp57
 70
     1
102
RTVSPost2010Prop28
280
     0
102
RTVSPost2010PropOp28
 70
     1
102
RTVSPost2010Prop29
280
     1
102
RTVSPost2010PropOp29
 70
     1
102
RTVSPost2010Prop30
280
     1
102
RTVSPost2010PropOp30
 70
     1
102
RTVSPost2010Prop31
280
     0
102
RTVSPost2010PropOp31
 70
     1
102
RTVSPost2010Prop32
280
     0
102
RTVSPost2010PropOp32
 70
     1
102
RTVSPost2010Prop33
280
     0
102
RTVSPost2010PropOp33
 70
     1
102
RTVSPost2010Prop34
280
     0
102
RTVSPost2010PropOp34
 70
     1
102
RTVSPost2010Prop35
280
     0
102
RTVSPost2010PropOp35
 70
     1
102
RTVSPost2010Prop36
280
     0
102
RTVSPost2010PropOp36
 70
     1
102
RTVSPost2010Prop37
 90
       50
102
RTVSPost2010PropOp37
 70
     1
102
RTVSPost2010Prop38
140
0.0
102
RTVSPost2010PropOp38
 70
     1
102
RTVSPost2010Prop39
140
1.0
102
RTVSPost2010PropOp39
 70
     1
102
RTVSPost2010Prop40
 90
        0
102
RTVSPost2010PropOp40
 70
     1
102
RTVSPost2010Prop41ColorIndex
 90
       18
102
RTVSPost2010Prop41ColorRGB
 90
        0
102
RTVSPost2010PropOp41
 70
     1
102
RTVSPost2010Prop42
 90
       50
102
RTVSPost2010PropOp42
 70
     1
102
RTVSPost2010Prop43
 90
        3
102
RTVSPost2010PropOp43
 70
     1
102
RTVSPost2010Prop44ColorIndex
 90
        5
102
RTVSPost2010Prop44ColorRGB
 90
      255
102
RTVSPost2010PropOp44
 70
     1
102
RTVSPost2010Prop45
280
     0
102
RTVSPost2010PropOp45
 70
     1
102
RTVSPost2010Prop46
 90
       50
102
RTVSPost2010PropOp46
 70
     1
102
RTVSPost2010Prop47
 90
       50
102
RTVSPost2010PropOp47
 70
     1
102
RTVSPost2010Prop48
 90
       50
102
RTVSPost2010PropOp48
 70
     1
102
RTVSPost2010Prop49
280
     0
102
RTVSPost2010PropOp49
 70
     1
102
RTVSPost2010Prop50
 90
       50
102
RTVSPost2010PropOp50
 70
     1
102
RTVSPost2010Prop51ColorIndex
 90
      256
102
RTVSPost2010Prop51ColorRGB
 90
-16777216
102
RTVSPost2010PropOp51
 70
     0
102
RTVSPost2010Prop52
140
1.0
102
RTVSPost2010PropOp52
 70
     0
102
RTVSPost2010Prop53
 90
        2
102
RTVSPost2010PropOp53
 70
     1
102
RTVSPost2010Prop54
  1
strokes_ogs.tif
102
RTVSPost2010PropOp54
 70
     1
102
RTVSPost2010Prop55
280
     0
102
RTVSPost2010PropOp55
 70
     1
102
RTVSPost2010Prop56
140
1.0
102
RTVSPost2010PropOp56
 70
     1
102
RTVSPost2010Prop57
140
1.0
102
RTVSPost2010PropOp57
 70
     1
  0
XRECORD
  5
182
102
{ACAD_REACTORS
330
181
102
}
330
181
100
AcDbXrecord
280
     1
102
RTVSPropertyOp0
 70
     1
102
RTVSPropertyOp1
 70
     1
102
RTVSPropertyOp2
 70
     1
102
RTVSPropertyOp3
 70
     1
102
RTVSPropertyOp4
 70
     1
102
RTVSPropertyOp5
 70
     1
102
RTVSPropertyOp6
 70
     1
102
RTVSPropertyOp7
 70
     1
102
RTVSPropertyOp8
 70
     1
102
RTVSPropertyOp9
 70
     1
102
RTVSPropertyOp10
 70
     1
102
RTVSPropertyOp11
 70
     1
102
RTVSPropertyOp12
 70
     1
102
RTVSPropertyOp13
 70
     1
102
RTVSPropertyOp14
 70
     1
102
RTVSPropertyOp15
 70
     1
102
RTVSPropertyOp16
 70
     1
102
RTVSPropertyOp17
 70
     1
102
RTVSPropertyOp18
 70
     1
102
RTVSPropertyOp19
 70
     1
102
RTVSPropertyOp20
 70
     1
102
RTVSPropertyOp21
 70
     1
102
RTVSPropertyOp22
 70
     1
102
RTVSPropertyOp23
 70
     1
102
RTVSPropertyOp24
 70
     1
102
RTVSPropertyOp25
 70
     1
102
RTVSPropertyOp26
 70
     1
102
RTVSPropertyOp27
 70
     1
102
RTVSPropertyOp28
 70
     1
102
RTVSPropertyOp29
 70
     1
102
RTVSPropertyOp30
 70
     1
102
RTVSPropertyOp31
 70
     1
102
RTVSPropertyOp32
 70
     1
102
RTVSPropertyOp33
 70
     1
102
RTVSPropertyOp34
 70
     1
102
RTVSPropertyOp35
 70
     1
102
RTVSPropertyOp36
 70
     1
102
RTVSPropertyOp37
 70
     1
102
RTVSPropertyOp38
 70
     1
102
RTVSPropertyOp39
 70
     1
102
RTVSPropertyOp40
 70
     1
102
RTVSPropertyOp41
 70
     1
102
RTVSPropertyOp42
 70
     1
102
RTVSPropertyOp43
 70
     1
102
RTVSPropertyOp44
 70
     1
102
RTVSPropertyOp45
 70
     1
102
RTVSPropertyOp46
 70
     1
102
RTVSPropertyOp47
 70
     1
102
RTVSPropertyOp48
 70
     1
102
RTVSPropertyOp49
 70
     1
102
RTVSPropertyOp50
 70
     1
102
RTVSPropertyOp51
 70
     0
102
RTVSPropertyOp52
 70
     0
102
RTVSPropertyOp53
 70
     1
102
RTVSPropertyOp54
 70
     1
102
RTVSPropertyOp55
 70
     1
102
RTVSPropertyOp56
 70
     1
102
RTVSPropertyOp57
 70
     1
102
RTVSPost2010Prop28
280
     0
102
RTVSPost2010PropOp28
 70
     1
102
RTVSPost2010Prop29
280
     1
102
RTVSPost2010PropOp29
 70
     1
102
RTVSPost2010Prop30
280
     1
102
RTVSPost2010PropOp30
 70
     1
102
RTVSPost2010Prop31
280
     0
102
RTVSPost2010PropOp31
 70
     1
102
RTVSPost2010Prop32
280
     0
102
RTVSPost2010PropOp32
 70
     1
102
RTVSPost2010Prop33
280
     0
102
RTVSPost2010PropOp33
 70
     1
102
RTVSPost2010Prop34
280
     0
102
RTVSPost2010PropOp34
 70
     1
102
RTVSPost2010Prop35
280
     0
102
RTVSPost2010PropOp35
 70
     1
102
RTVSPost2010Prop36
280
     0
102
RTVSPost2010PropOp36
 70
     1
102
RTVSPost2010Prop37
 90
       50
102
RTVSPost2010PropOp37
 70
     1
102
RTVSPost2010Prop38
140
0.0
102
RTVSPost2010PropOp38
 70
     1
102
RTVSPost2010Prop39
140
1.0
102
RTVSPost2010PropOp39
 70
     1
102
RTVSPost2010Prop40
 90
        0
102
RTVSPost2010PropOp40
 70
     1
102
RTVSPost2010Prop41ColorIndex
 90
       18
102
RTVSPost2010Prop41ColorRGB
 90
        0
102
RTVSPost2010PropOp41
 70
     1
102
RTVSPost2010Prop42
 90
       50
102
RTVSPost2010PropOp42
 70
     1
102
RTVSPost2010Prop43
 90
        3
102
RTVSPost2010PropOp43
 70
     1
102
RTVSPost2010Prop44ColorIndex
 90
        5
102
RTVSPost2010Prop44ColorRGB
 90
      255
102
RTVSPost2010PropOp44
 70
     1
102
RTVSPost2010Prop45
280
     0
102
RTVSPost2010PropOp45
 70
     1
102
RTVSPost2010Prop46
 90
       50
102
RTVSPost2010PropOp46
 70
     1
102
RTVSPost2010Prop47
 90
       50
102
RTVSPost2010PropOp47
 70
     1
102
RTVSPost2010Prop48
 90
       50
102
RTVSPost2010PropOp48
 70
     1
102
RTVSPost2010Prop49
280
     0
102
RTVSPost2010PropOp49
 70
     1
102
RTVSPost2010Prop50
 90
       50
102
RTVSPost2010PropOp50
 70
     1
102
RTVSPost2010Prop51ColorIndex
 90
      256
102
RTVSPost2010Prop51ColorRGB
 90
-16777216
102
RTVSPost2010PropOp51
 70
     0
102
RTVSPost2010Prop52
140
1.0
102
RTVSPost2010PropOp52
 70
     0
102
RTVSPost2010Prop53
 90
        2
102
RTVSPost2010PropOp53
 70
     1
102
RTVSPost2010Prop54
  1
strokes_ogs.tif
102
RTVSPost2010PropOp54
 70
     1
102
RTVSPost2010Prop55
280
     0
102
RTVSPost2010PropOp55
 70
     1
102
RTVSPost2010Prop56
140
1.0
102
RTVSPost2010PropOp56
 70
     1
102
RTVSPost2010Prop57
140
1.0
102
RTVSPost2010PropOp57
 70
     1
  0
XRECORD
  5
174
102
{ACAD_REACTORS
330
173
102
}
330
173
100
AcDbXrecord
280
     1
102
RTVSPropertyOp0
 70
     1
102
RTVSPropertyOp1
 70
     1
102
RTVSPropertyOp2
 70
     1
102
RTVSPropertyOp3
 70
     1
102
RTVSPropertyOp4
 70
     1
102
RTVSPropertyOp5
 70
     1
102
RTVSPropertyOp6
 70
     1
102
RTVSPropertyOp7
 70
     1
102
RTVSPropertyOp8
 70
     1
102
RTVSPropertyOp9
 70
     1
102
RTVSPropertyOp10
 70
     1
102
RTVSPropertyOp11
 70
     1
102
RTVSPropertyOp12
 70
     1
102
RTVSPropertyOp13
 70
     1
102
RTVSPropertyOp14
 70
     1
102
RTVSPropertyOp15
 70
     1
102
RTVSPropertyOp16
 70
     1
102
RTVSPropertyOp17
 70
     1
102
RTVSPropertyOp18
 70
     1
102
RTVSPropertyOp19
 70
     1
102
RTVSPropertyOp20
 70
     1
102
RTVSPropertyOp21
 70
     1
102
RTVSPropertyOp22
 70
     1
102
RTVSPropertyOp23
 70
     1
102
RTVSPropertyOp24
 70
     1
102
RTVSPropertyOp25
 70
     1
102
RTVSPropertyOp26
 70
     1
102
RTVSPropertyOp27
 70
     1
102
RTVSPropertyOp28
 70
     1
102
RTVSPropertyOp29
 70
     1
102
RTVSPropertyOp30
 70
     1
102
RTVSPropertyOp31
 70
     1
102
RTVSPropertyOp32
 70
     1
102
RTVSPropertyOp33
 70
     1
102
RTVSPropertyOp34
 70
     1
102
RTVSPropertyOp35
 70
     1
102
RTVSPropertyOp36
 70
     1
102
RTVSPropertyOp37
 70
     1
102
RTVSPropertyOp38
 70
     1
102
RTVSPropertyOp39
 70
     1
102
RTVSPropertyOp40
 70
     1
102
RTVSPropertyOp41
 70
     1
102
RTVSPropertyOp42
 70
     1
102
RTVSPropertyOp43
 70
     1
102
RTVSPropertyOp44
 70
     1
102
RTVSPropertyOp45
 70
     1
102
RTVSPropertyOp46
 70
     1
102
RTVSPropertyOp47
 70
     1
102
RTVSPropertyOp48
 70
     1
102
RTVSPropertyOp49
 70
     1
102
RTVSPropertyOp50
 70
     1
102
RTVSPropertyOp51
 70
     0
102
RTVSPropertyOp52
 70
     0
102
RTVSPropertyOp53
 70
     1
102
RTVSPropertyOp54
 70
     1
102
RTVSPropertyOp55
 70
     1
102
RTVSPropertyOp56
 70
     1
102
RTVSPropertyOp57
 70
     1
102
RTVSPost2010Prop28
280
     0
102
RTVSPost2010PropOp28
 70
     1
102
RTVSPost2010Prop29
280
     1
102
RTVSPost2010PropOp29
 70
     1
102
RTVSPost2010Prop30
280
     1
102
RTVSPost2010PropOp30
 70
     1
102
RTVSPost2010Prop31
280
     0
102
RTVSPost2010PropOp31
 70
     1
102
RTVSPost2010Prop32
280
     0
102
RTVSPost2010PropOp32
 70
     1
102
RTVSPost2010Prop33
280
     0
102
RTVSPost2010PropOp33
 70
     1
102
RTVSPost2010Prop34
280
     0
102
RTVSPost2010PropOp34
 70
     1
102
RTVSPost2010Prop35
280
     0
102
RTVSPost2010PropOp35
 70
     1
102
RTVSPost2010Prop36
280
     0
102
RTVSPost2010PropOp36
 70
     1
102
RTVSPost2010Prop37
 90
       50
102
RTVSPost2010PropOp37
 70
     1
102
RTVSPost2010Prop38
140
0.0
102
RTVSPost2010PropOp38
 70
     1
102
RTVSPost2010Prop39
140
1.0
102
RTVSPost2010PropOp39
 70
     1
102
RTVSPost2010Prop40
 90
        0
102
RTVSPost2010PropOp40
 70
     1
102
RTVSPost2010Prop41ColorIndex
 90
       18
102
RTVSPost2010Prop41ColorRGB
 90
        0
102
RTVSPost2010PropOp41
 70
     1
102
RTVSPost2010Prop42
 90
       50
102
RTVSPost2010PropOp42
 70
     1
102
RTVSPost2010Prop43
 90
        3
102
RTVSPost2010PropOp43
 70
     1
102
RTVSPost2010Prop44ColorIndex
 90
        5
102
RTVSPost2010Prop44ColorRGB
 90
      255
102
RTVSPost2010PropOp44
 70
     1
102
RTVSPost2010Prop45
280
     0
102
RTVSPost2010PropOp45
 70
     1
102
RTVSPost2010Prop46
 90
       50
102
RTVSPost2010PropOp46
 70
     1
102
RTVSPost2010Prop47
 90
       50
102
RTVSPost2010PropOp47
 70
     1
102
RTVSPost2010Prop48
 90
       50
102
RTVSPost2010PropOp48
 70
     1
102
RTVSPost2010Prop49
280
     0
102
RTVSPost2010PropOp49
 70
     1
102
RTVSPost2010Prop50
 90
       50
102
RTVSPost2010PropOp50
 70
     1
102
RTVSPost2010Prop51ColorIndex
 90
      256
102
RTVSPost2010Prop51ColorRGB
 90
-16777216
102
RTVSPost2010PropOp51
 70
     0
102
RTVSPost2010Prop52
140
1.0
102
RTVSPost2010PropOp52
 70
     0
102
RTVSPost2010Prop53
 90
        2
102
RTVSPost2010PropOp53
 70
     1
102
RTVSPost2010Prop54
  1
strokes_ogs.tif
102
RTVSPost2010PropOp54
 70
     1
102
RTVSPost2010Prop55
280
     0
102
RTVSPost2010PropOp55
 70
     1
102
RTVSPost2010Prop56
140
1.0
102
RTVSPost2010PropOp56
 70
     1
102
RTVSPost2010Prop57
140
1.0
102
RTVSPost2010PropOp57
 70
     1
  0
XRECORD
  5
194
102
{ACAD_REACTORS
330
193
102
}
330
193
100
AcDbXrecord
280
     1
102
RTVSPropertyOp0
 70
     1
102
RTVSPropertyOp1
 70
     1
102
RTVSPropertyOp2
 70
     1
102
RTVSPropertyOp3
 70
     1
102
RTVSPropertyOp4
 70
     1
102
RTVSPropertyOp5
 70
     1
102
RTVSPropertyOp6
 70
     1
102
RTVSPropertyOp7
 70
     1
102
RTVSPropertyOp8
 70
     1
102
RTVSPropertyOp9
 70
     1
102
RTVSPropertyOp10
 70
     1
102
RTVSPropertyOp11
 70
     1
102
RTVSPropertyOp12
 70
     1
102
RTVSPropertyOp13
 70
     1
102
RTVSPropertyOp14
 70
     1
102
RTVSPropertyOp15
 70
     1
102
RTVSPropertyOp16
 70
     1
102
RTVSPropertyOp17
 70
     1
102
RTVSPropertyOp18
 70
     1
102
RTVSPropertyOp19
 70
     1
102
RTVSPropertyOp20
 70
     1
102
RTVSPropertyOp21
 70
     1
102
RTVSPropertyOp22
 70
     1
102
RTVSPropertyOp23
 70
     1
102
RTVSPropertyOp24
 70
     1
102
RTVSPropertyOp25
 70
     1
102
RTVSPropertyOp26
 70
     1
102
RTVSPropertyOp27
 70
     1
102
RTVSPropertyOp28
 70
     1
102
RTVSPropertyOp29
 70
     1
102
RTVSPropertyOp30
 70
     1
102
RTVSPropertyOp31
 70
     1
102
RTVSPropertyOp32
 70
     1
102
RTVSPropertyOp33
 70
     1
102
RTVSPropertyOp34
 70
     1
102
RTVSPropertyOp35
 70
     1
102
RTVSPropertyOp36
 70
     1
102
RTVSPropertyOp37
 70
     1
102
RTVSPropertyOp38
 70
     1
102
RTVSPropertyOp39
 70
     1
102
RTVSPropertyOp40
 70
     1
102
RTVSPropertyOp41
 70
     1
102
RTVSPropertyOp42
 70
     1
102
RTVSPropertyOp43
 70
     1
102
RTVSPropertyOp44
 70
     1
102
RTVSPropertyOp45
 70
     1
102
RTVSPropertyOp46
 70
     1
102
RTVSPropertyOp47
 70
     1
102
RTVSPropertyOp48
 70
     1
102
RTVSPropertyOp49
 70
     1
102
RTVSPropertyOp50
 70
     1
102
RTVSPropertyOp51
 70
     0
102
RTVSPropertyOp52
 70
     0
102
RTVSPropertyOp53
 70
     1
102
RTVSPropertyOp54
 70
     1
102
RTVSPropertyOp55
 70
     1
102
RTVSPropertyOp56
 70
     1
102
RTVSPropertyOp57
 70
     1
102
RTVSPost2010Prop28
280
     0
102
RTVSPost2010PropOp28
 70
     1
102
RTVSPost2010Prop29
280
     1
102
RTVSPost2010PropOp29
 70
     1
102
RTVSPost2010Prop30
280
     1
102
RTVSPost2010PropOp30
 70
     1
102
RTVSPost2010Prop31
280
     0
102
RTVSPost2010PropOp31
 70
     1
102
RTVSPost2010Prop32
280
     0
102
RTVSPost2010PropOp32
 70
     1
102
RTVSPost2010Prop33
280
     0
102
RTVSPost2010PropOp33
 70
     1
102
RTVSPost2010Prop34
280
     0
102
RTVSPost2010PropOp34
 70
     1
102
RTVSPost2010Prop35
280
     0
102
RTVSPost2010PropOp35
 70
     1
102
RTVSPost2010Prop36
280
     0
102
RTVSPost2010PropOp36
 70
     1
102
RTVSPost2010Prop37
 90
       50
102
RTVSPost2010PropOp37
 70
     1
102
RTVSPost2010Prop38
140
0.0
102
RTVSPost2010PropOp38
 70
     1
102
RTVSPost2010Prop39
140
1.0
102
RTVSPost2010PropOp39
 70
     1
102
RTVSPost2010Prop40
 90
        0
102
RTVSPost2010PropOp40
 70
     1
102
RTVSPost2010Prop41ColorIndex
 90
       18
102
RTVSPost2010Prop41ColorRGB
 90
        0
102
RTVSPost2010PropOp41
 70
     1
102
RTVSPost2010Prop42
 90
       50
102
RTVSPost2010PropOp42
 70
     1
102
RTVSPost2010Prop43
 90
        3
102
RTVSPost2010PropOp43
 70
     1
102
RTVSPost2010Prop44ColorIndex
 90
        5
102
RTVSPost2010Prop44ColorRGB
 90
      255
102
RTVSPost2010PropOp44
 70
     1
102
RTVSPost2010Prop45
280
     0
102
RTVSPost2010PropOp45
 70
     1
102
RTVSPost2010Prop46
 90
       50
102
RTVSPost2010PropOp46
 70
     1
102
RTVSPost2010Prop47
 90
       50
102
RTVSPost2010PropOp47
 70
     1
102
RTVSPost2010Prop48
 90
       50
102
RTVSPost2010PropOp48
 70
     1
102
RTVSPost2010Prop49
280
     0
102
RTVSPost2010PropOp49
 70
     1
102
RTVSPost2010Prop50
 90
       50
102
RTVSPost2010PropOp50
 70
     1
102
RTVSPost2010Prop51ColorIndex
 90
      256
102
RTVSPost2010Prop51ColorRGB
 90
-16777216
102
RTVSPost2010PropOp51
 70
     0
102
RTVSPost2010Prop52
140
1.0
102
RTVSPost2010PropOp52
 70
     0
102
RTVSPost2010Prop53
 90
        2
102
RTVSPost2010PropOp53
 70
     1
102
RTVSPost2010Prop54
  1
strokes_ogs.tif
102
RTVSPost2010PropOp54
 70
     1
102
RTVSPost2010Prop55
280
     0
102
RTVSPost2010PropOp55
 70
     1
102
RTVSPost2010Prop56
140
1.0
102
RTVSPost2010PropOp56
 70
     1
102
RTVSPost2010Prop57
140
1.0
102
RTVSPost2010PropOp57
 70
     1
  0
ENDSEC
  0
EOF
