  0
SECTION
  2
HEADER
  9
$ACADVER
  1
AC1021
  9
$ACADMAINTVER
 70
    25
  9
$DWGCODEPAGE
  3
ANSI_1252
  9
$INSBASE
 10
0.0
 20
0.0
 30
0.0
  9
$EXTMIN
 10
1.000000000000000E+20
 20
1.000000000000000E+20
 30
1.000000000000000E+20
  9
$EXTMAX
 10
-1.000000000000000E+20
 20
-1.000000000000000E+20
 30
-1.000000000000000E+20
  9
$LIMMIN
 10
0.0
 20
0.0
  9
$LIMMAX
 10
12.0
 20
9.0
  9
$ORTHOMODE
 70
     0
  9
$REGENMODE
 70
     1
  9
$FILLMODE
 70
     1
  9
$QTEXTMODE
 70
     0
  9
$MIRRTEXT
 70
     1
  9
$LTSCALE
 40
1.0
  9
$ATTMODE
 70
     1
  9
$TEXTSIZE
 40
0.2
  9
$TRACEWID
 40
0.05
  9
$TEXTSTYLE
  7
Standard
  9
$CLAYER
  8
Default
  9
$CELTYPE
  6
ByLayer
  9
$CECOLOR
 62
   256
  9
$CELTSCALE
 40
1.0
  9
$DISPSILH
 70
     0
  9
$DIMSCALE
 40
1.0
  9
$DIMASZ
 40
0.18
  9
$DIMEXO
 40
0.0625
  9
$DIMDLI
 40
0.38
  9
$DIMRND
 40
0.0
  9
$DIMDLE
 40
0.0
  9
$DIMEXE
 40
0.18
  9
$DIMTP
 40
0.0
  9
$DIMTM
 40
0.0
  9
$DIMTXT
 40
0.18
  9
$DIMCEN
 40
0.09
  9
$DIMTSZ
 40
0.0
  9
$DIMTOL
 70
     0
  9
$DIMLIM
 70
     0
  9
$DIMTIH
 70
     1
  9
$DIMTOH
 70
     1
  9
$DIMSE1
 70
     0
  9
$DIMSE2
 70
     0
  9
$DIMTAD
 70
     0
  9
$DIMZIN
 70
     0
  9
$DIMBLK
  1

  9
$DIMASO
 70
     1
  9
$DIMSHO
 70
     1
  9
$DIMPOST
  1

  9
$DIMAPOST
  1

  9
$DIMALT
 70
     0
  9
$DIMALTD
 70
     2
  9
$DIMALTF
 40
25.4
  9
$DIMLFAC
 40
1.0
  9
$DIMTOFL
 70
     0
  9
$DIMTVP
 40
0.0
  9
$DIMTIX
 70
     0
  9
$DIMSOXD
 70
     0
  9
$DIMSAH
 70
     0
  9
$DIMBLK1
  1

  9
$DIMBLK2
  1

  9
$DIMSTYLE
  2
STANDARD_ACAD
  9
$DIMCLRD
 70
     0
  9
$DIMCLRE
 70
     0
  9
$DIMCLRT
 70
     0
  9
$DIMTFAC
 40
1.0
  9
$DIMGAP
 40
0.09
  9
$DIMJUST
 70
     0
  9
$DIMSD1
 70
     0
  9
$DIMSD2
 70
     0
  9
$DIMTOLJ
 70
     1
  9
$DIMTZIN
 70
     0
  9
$DIMALTZ
 70
     0
  9
$DIMALTTZ
 70
     0
  9
$DIMUPT
 70
     0
  9
$DIMDEC
 70
     4
  9
$DIMTDEC
 70
     4
  9
$DIMALTU
 70
     2
  9
$DIMALTTD
 70
     2
  9
$DIMTXSTY
  7
Standard
  9
$DIMAUNIT
 70
     0
  9
$DIMADEC
 70
     0
  9
$DIMALTRND
 40
0.0
  9
$DIMAZIN
 70
     0
  9
$DIMDSEP
 70
    46
  9
$DIMATFIT
 70
     3
  9
$DIMFRAC
 70
     0
  9
$DIMLDRBLK
  1

  9
$DIMLUNIT
 70
     2
  9
$DIMLWD
 70
    -2
  9
$DIMLWE
 70
    -2
  9
$DIMTMOVE
 70
     2
  9
$DIMFXL
 40
1.0
  9
$DIMFXLON
 70
     0
  9
$DIMJOGANG
 40
0.7853981633974483
  9
$DIMTFILL
 70
     0
  9
$DIMTFILLCLR
 70
     0
  9
$DIMARCSYM
 70
     0
  9
$DIMLTYPE
  6

  9
$DIMLTEX1
  6

  9
$DIMLTEX2
  6

  9
$LUNITS
 70
     2
  9
$LUPREC
 70
     3
  9
$SKETCHINC
 40
0.1
  9
$FILLETRAD
 40
0.5
  9
$AUNITS
 70
     0
  9
$AUPREC
 70
     0
  9
$MENU
  1
.
  9
$ELEVATION
 40
0.0
  9
$PELEVATION
 40
0.0
  9
$THICKNESS
 40
0.0
  9
$LIMCHECK
 70
     0
  9
$CHAMFERA
 40
0.0
  9
$CHAMFERB
 40
0.0
  9
$CHAMFERC
 40
0.0
  9
$CHAMFERD
 40
0.0
  9
$SKPOLY
 70
     0
  9
$TDCREATE
 40
2459592.498656181
  9
$TDUCREATE
 40
2459592.706989514
  9
$TDUPDATE
 40
2459592.498668137
  9
$TDUUPDATE
 40
2459592.70700147
  9
$TDINDWG
 40
0.0000000116
  9
$TDUSRTIMER
 40
0.0000000116
  9
$USRTIMER
 70
     1
  9
$ANGBASE
 50
0.0
  9
$ANGDIR
 70
     0
  9
$PDMODE
 70
     0
  9
$PDSIZE
 40
0.0
  9
$PLINEWID
 40
0.0
  9
$SPLFRAME
 70
     0
  9
$SPLINETYPE
 70
     6
  9
$SPLINESEGS
 70
     8
  9
$HANDSEED
  5
1EE
  9
$SURFTAB1
 70
     6
  9
$SURFTAB2
 70
     6
  9
$SURFTYPE
 70
     6
  9
$SURFU
 70
     6
  9
$SURFV
 70
     6
  9
$UCSBASE
  2

  9
$UCSNAME
  2

  9
$UCSORG
 10
0.0
 20
0.0
 30
0.0
  9
$UCSXDIR
 10
1.0
 20
0.0
 30
0.0
  9
$UCSYDIR
 10
0.0
 20
1.0
 30
0.0
  9
$UCSORTHOREF
  2

  9
$UCSORTHOVIEW
 70
     0
  9
$UCSORGTOP
 10
0.0
 20
0.0
 30
0.0
  9
$UCSORGBOTTOM
 10
0.0
 20
0.0
 30
0.0
  9
$UCSORGLEFT
 10
0.0
 20
0.0
 30
0.0
  9
$UCSORGRIGHT
 10
0.0
 20
0.0
 30
0.0
  9
$UCSORGFRONT
 10
0.0
 20
0.0
 30
0.0
  9
$UCSORGBACK
 10
0.0
 20
0.0
 30
0.0
  9
$PUCSBASE
  2

  9
$PUCSNAME
  2

  9
$PUCSORG
 10
0.0
 20
0.0
 30
0.0
  9
$PUCSXDIR
 10
1.0
 20
0.0
 30
0.0
  9
$PUCSYDIR
 10
0.0
 20
1.0
 30
0.0
  9
$PUCSORTHOREF
  2

  9
$PUCSORTHOVIEW
 70
     0
  9
$PUCSORGTOP
 10
0.0
 20
0.0
 30
0.0
  9
$PUCSORGBOTTOM
 10
0.0
 20
0.0
 30
0.0
  9
$PUCSORGLEFT
 10
0.0
 20
0.0
 30
0.0
  9
$PUCSORGRIGHT
 10
0.0
 20
0.0
 30
0.0
  9
$PUCSORGFRONT
 10
0.0
 20
0.0
 30
0.0
  9
$PUCSORGBACK
 10
0.0
 20
0.0
 30
0.0
  9
$USERI1
 70
     0
  9
$USERI2
 70
     0
  9
$USERI3
 70
     0
  9
$USERI4
 70
     0
  9
$USERI5
 70
     0
  9
$USERR1
 40
0.0
  9
$USERR2
 40
0.0
  9
$USERR3
 40
0.0
  9
$USERR4
 40
0.0
  9
$USERR5
 40
0.0
  9
$WORLDVIEW
 70
     1
  9
$SHADEDGE
 70
     3
  9
$SHADEDIF
 70
    70
  9
$TILEMODE
 70
     1
  9
$MAXACTVP
 70
    64
  9
$PINSBASE
 10
0.0
 20
0.0
 30
0.0
  9
$PLIMCHECK
 70
     0
  9
$PEXTMIN
 10
1.000000000000000E+20
 20
1.000000000000000E+20
 30
1.000000000000000E+20
  9
$PEXTMAX
 10
-1.000000000000000E+20
 20
-1.000000000000000E+20
 30
-1.000000000000000E+20
  9
$PLIMMIN
 10
0.0
 20
0.0
  9
$PLIMMAX
 10
12.0
 20
9.0
  9
$UNITMODE
 70
     0
  9
$VISRETAIN
 70
     1
  9
$PLINEGEN
 70
     0
  9
$PSLTSCALE
 70
     1
  9
$TREEDEPTH
 70
  3020
  9
$CMLSTYLE
  2
Standard
  9
$CMLJUST
 70
     0
  9
$CMLSCALE
 40
1.0
  9
$PROXYGRAPHICS
 70
     1
  9
$MEASUREMENT
 70
     0
  9
$CELWEIGHT
370
    -1
  9
$ENDCAPS
280
     0
  9
$JOINSTYLE
280
     0
  9
$LWDISPLAY
290
     0
  9
$INSUNITS
 70
     1
  9
$HYPERLINKBASE
  1

  9
$STYLESHEET
  1

  9
$XEDIT
290
     1
  9
$CEPSNTYPE
380
     0
  9
$PSTYLEMODE
290
     1
  9
$FINGERPRINTGUID
  2
{96fd596d-dada-4275-8dbf-ec7bcc2830a9}
  9
$VERSIONGUID
  2
{FAEB1C32-E019-11D5-929B-00C0DF256EC4}
  9
$EXTNAMES
290
     1
  9
$PSVPSCALE
 40
0.0
  9
$OLESTARTUP
290
     0
  9
$SORTENTS
280
   127
  9
$INDEXCTL
280
     0
  9
$HIDETEXT
280
     1
  9
$XCLIPFRAME
290
     0
  9
$HALOGAP
280
     0
  9
$OBSCOLOR
 70
   257
  9
$OBSLTYPE
280
     0
  9
$INTERSECTIONDISPLAY
280
     0
  9
$INTERSECTIONCOLOR
 70
   257
  9
$DIMASSOC
280
     2
  9
$PROJECTNAME
  1

  9
$CAMERADISPLAY
290
     0
  9
$LENSLENGTH
 40
50.0
  9
$CAMERAHEIGHT
 40
0.0
  9
$STEPSPERSEC
 40
2.0
  9
$STEPSIZE
 40
6.0
  9
$3DDWFPREC
 40
2.0
  9
$PSOLWIDTH
 40
0.25
  9
$PSOLHEIGHT
 40
4.0
  9
$LOFTANG1
 40
1.570796326794897
  9
$LOFTANG2
 40
1.570796326794897
  9
$LOFTMAG1
 40
0.0
  9
$LOFTMAG2
 40
0.0
  9
$LOFTPARAM
 70
     7
  9
$LOFTNORMALS
280
     1
  9
$LATITUDE
 40
37.795
  9
$LONGITUDE
 40
-122.394
  9
$NORTHDIRECTION
 40
0.0
  9
$TIMEZONE
 70
 -8000
  9
$LIGHTGLYPHDISPLAY
280
     1
  9
$TILEMODELIGHTSYNCH
280
     1
  9
$CMATERIAL
347
44
  9
$SOLIDHIST
280
     0
  9
$SHOWHIST
280
     1
  9
$DWFFRAME
280
     2
  9
$DGNFRAME
280
     2
  9
$REALWORLDSCALE
290
     1
  9
$INTERFERECOLOR
 62
   256
  9
$CSHADOW
280
     0
  9
$SHADOWPLANELOCATION
 40
0.0
  0
ENDSEC
  0
SECTION
  2
CLASSES
  0
CLASS
  1
ACDBDICTIONARYWDFLT
  2
AcDbDictionaryWithDefault
  3
ObjectDBX Classes
 90
        0
 91
        3
280
     0
281
     0
  0
CLASS
  1
VISUALSTYLE
  2
AcDbVisualStyle
  3
ObjectDBX Classes
 90
     4095
 91
        3
280
     0
281
     0
  0
CLASS
  1
MATERIAL
  2
AcDbMaterial
  3
ObjectDBX Classes
 90
     1153
 91
        3
280
     0
281
     0
  0
CLASS
  1
SCALE
  2
AcDbScale
  3
ObjectDBX Classes
 90
     1153
 91
        3
280
     0
281
     0
  0
CLASS
  1
TABLESTYLE
  2
AcDbTableStyle
  3
ObjectDBX Classes
 90
     4095
 91
        3
280
     0
281
     0
  0
CLASS
  1
MLEADERSTYLE
  2
AcDbMLeaderStyle
  3
ACDB_MLEADERSTYLE_CLASS
 90
     4095
 91
        3
280
     0
281
     0
  0
CLASS
  1
SUN
  2
AcDbSun
  3
SCENEOE
 90
     1153
 91
        3
280
     0
281
     0
  0
CLASS
  1
DICTIONARYVAR
  2
AcDbDictionaryVar
  3
ObjectDBX Classes
 90
        0
 91
        3
280
     0
281
     0
  0
CLASS
  1
CELLSTYLEMAP
  2
AcDbCellStyleMap
  3
ObjectDBX Classes
 90
     1152
 91
        3
280
     0
281
     0
  0
ENDSEC
  0
SECTION
  2
TABLES
  0
TABLE
  2
VPORT
  5
8
330
0
100
AcDbSymbolTable
 70
     1
  0
VPORT
  5
29
330
8
100
AcDbSymbolTableRecord
100
AcDbViewportTableRecord
  2
*Active
 70
     0
 10
0.0
 20
0.0
 11
1.0
 21
1.0
 12
10.42990654205607
 22
4.5
 13
0.0
 23
0.0
 14
0.5
 24
0.5
 15
0.5
 25
0.5
 16
0.0
 26
0.0
 36
1.0
 17
0.0
 27
0.0
 37
0.0
 40
9.0
 41
1.972972972850329
 42
50.0
 43
0.0
 44
0.0
 50
0.0
 51
0.0
 71
     0
 72
   100
 73
     1
 74
     3
 75
     0
 76
     0
 77
     0
 78
     0
281
     0
 65
     1
110
0.0
120
0.0
130
0.0
111
1.0
121
0.0
131
0.0
112
0.0
122
1.0
132
0.0
 79
     0
146
0.0
348
2F
 60
     3
 61
     5
292
     1
282
     1
141
0.0
142
0.0
 63
   250
361
6D
  0
ENDTAB
  0
TABLE
  2
LTYPE
  5
5
330
0
100
AcDbSymbolTable
 70
     1
  0
LTYPE
  5
14
330
5
100
AcDbSymbolTableRecord
100
AcDbLinetypeTableRecord
  2
ByBlock
 70
     0
  3

 72
    65
 73
     0
 40
0.0
  0
LTYPE
  5
15
330
5
100
AcDbSymbolTableRecord
100
AcDbLinetypeTableRecord
  2
ByLayer
 70
     0
  3

 72
    65
 73
     0
 40
0.0
  0
LTYPE
  5
16
330
5
100
AcDbSymbolTableRecord
100
AcDbLinetypeTableRecord
  2
Continuous
 70
     0
  3
Solid line
 72
    65
 73
     0
 40
0.0
  0
ENDTAB
  0
TABLE
  2
LAYER
  5
2
330
0
100
AcDbSymbolTable
 70
     2
  0
LAYER
  5
10
330
2
100
AcDbSymbolTableRecord
100
AcDbLayerTableRecord
  2
0
 70
     0
 62
     7
  6
Continuous
370
    -3
390
F
347
46
  0
LAYER
  5
6E
330
2
100
AcDbSymbolTableRecord
100
AcDbLayerTableRecord
  2
Default
 70
     0
 62
    18
420
        0
  6
Continuous
370
    -3
390
F
347
46
  0
ENDTAB
  0
TABLE
  2
STYLE
  5
3
330
0
100
AcDbSymbolTable
 70
     1
  0
STYLE
  5
11
330
3
100
AcDbSymbolTableRecord
100
AcDbTextStyleTableRecord
  2
Standard
 70
     0
 40
0.0
 41
1.0
 50
0.0
 71
     0
 42
0.2
  3
txt
  4

  0
ENDTAB
  0
TABLE
  2
VIEW
  5
6
330
0
100
AcDbSymbolTable
 70
     0
  0
ENDTAB
  0
TABLE
  2
UCS
  5
7
330
0
100
AcDbSymbolTable
 70
     0
  0
ENDTAB
  0
TABLE
  2
APPID
  5
9
330
0
100
AcDbSymbolTable
 70
     2
  0
APPID
  5
12
330
9
100
AcDbSymbolTableRecord
100
AcDbRegAppTableRecord
  2
ACAD
 70
     0
  0
APPID
  5
1E6
330
9
100
AcDbSymbolTableRecord
100
AcDbRegAppTableRecord
  2
ACAD_MLEADERVER
 70
     0
  0
ENDTAB
  0
TABLE
  2
DIMSTYLE
  5
A
330
0
100
AcDbSymbolTable
 70
     1
100
AcDbDimStyleTable
  0
DIMSTYLE
105
27
330
A
100
AcDbSymbolTableRecord
100
AcDbDimStyleTableRecord
  2
STANDARD_ACAD
 70
     0
178
     0
340
11
  0
ENDTAB
  0
TABLE
  2
BLOCK_RECORD
  5
1
330
0
100
AcDbSymbolTable
 70
     1
  0
BLOCK_RECORD
  5
1F
330
1
100
AcDbSymbolTableRecord
100
AcDbBlockTableRecord
  2
*Model_Space
340
22
 70
     0
280
     1
281
     0
  0
BLOCK_RECORD
  5
1B
330
1
100
AcDbSymbolTableRecord
100
AcDbBlockTableRecord
  2
*Paper_Space
340
1E
 70
     0
280
     1
281
     0
  0
BLOCK_RECORD
  5
23
330
1
100
AcDbSymbolTableRecord
100
AcDbBlockTableRecord
  2
*Paper_Space0
340
26
 70
     0
280
     1
281
     0
  0
ENDTAB
  0
ENDSEC
  0
SECTION
  2
BLOCKS
  0
BLOCK
  5
20
330
1F
100
AcDbEntity
  8
0
100
AcDbBlockBegin
  2
*Model_Space
 70
     0
 10
0.0
 20
0.0
 30
0.0
  3
*Model_Space
  1

  0
ENDBLK
  5
21
330
1F
100
AcDbEntity
  8
0
100
AcDbBlockEnd
  0
BLOCK
  5
1C
330
1B
100
AcDbEntity
 67
     1
  8
0
100
AcDbBlockBegin
  2
*Paper_Space
 70
     0
 10
0.0
 20
0.0
 30
0.0
  3
*Paper_Space
  1

  0
ENDBLK
  5
1D
330
1B
100
AcDbEntity
 67
     1
  8
0
100
AcDbBlockEnd
  0
BLOCK
  5
24
330
23
100
AcDbEntity
  8
0
100
AcDbBlockBegin
  2
*Paper_Space0
 70
     0
 10
0.0
 20
0.0
 30
0.0
  3
*Paper_Space0
  1

  0
ENDBLK
  5
25
330
23
100
AcDbEntity
  8
0
100
AcDbBlockEnd
  0
ENDSEC
  0
SECTION
  2
ENTITIES
  0
SPLINE
  5
6F
330
1F
100
AcDbEntity
  8
Default
 62
    18
420
        0
370
    -3
100
AcDbSpline
210
0.0
220
0.0
230
1.0
 70
    24
 71
     2
 72
     6
 73
     3
 74
     0
 42
0.000000001
 43
0.0000000001
 40
0.0
 40
0.0
 40
0.0
 40
1.902478446314422
 40
1.902478446314422
 40
1.902478446314422
 10
-7.839499999999983
 20
5.198606615118
 30
0.0
 10
-7.174974682337528
 20
5.340118307559007
 30
0.0
 10
-6.510449364675074
 20
5.481630000000014
 30
0.0
  0
SPLINE
  5
70
330
1F
100
AcDbEntity
  8
Default
 62
    18
420
        0
370
    -3
100
AcDbSpline
210
0.0
220
0.0
230
1.0
 70
    24
 71
     2
 72
     6
 73
     3
 74
     0
 42
0.000000001
 43
0.0000000001
 40
-0.3124999999999991
 40
-0.3124999999999991
 40
-0.3124999999999991
 40
0.0
 40
0.0
 40
0.0
 10
-7.839499999999983
 20
4.9906949243
 30
0.0
 10
-7.995749999999983
 20
4.9906949243
 30
0.0
 10
-8.151999999999983
 20
4.990694924300001
 30
0.0
  0
SPLINE
  5
71
330
1F
100
AcDbEntity
  8
Default
 62
    18
420
        0
370
    -3
100
AcDbSpline
210
0.0
220
0.0
230
1.0
 70
    24
 71
     2
 72
     6
 73
     3
 74
     0
 42
0.000000001
 43
0.0000000001
 40
-2.473000000000001
 40
-2.473000000000001
 40
-2.473000000000001
 40
0.0
 40
0.0
 40
0.0
 10
-10.62499999999998
 20
4.990694924299999
 30
0.0
 10
-9.388499999999983
 20
4.9906949243
 30
0.0
 10
-8.151999999999983
 20
4.990694924300001
 30
0.0
  0
SPLINE
  5
72
330
1F
100
AcDbEntity
  8
Default
 62
    18
420
        0
370
    -3
100
AcDbSpline
210
0.0
220
0.0
230
1.0
 70
    24
 71
     2
 72
     6
 73
     3
 74
     0
 42
0.000000001
 43
0.0000000001
 40
-2.473000000000001
 40
-2.473000000000001
 40
-2.473000000000001
 40
0.0
 40
0.0
 40
0.0
 10
-8.151999999999981
 20
11.35940154065
 30
0.0
 10
-9.388499999999983
 20
11.35940154065
 30
0.0
 10
-10.62499999999998
 20
11.35940154065
 30
0.0
  0
SPLINE
  5
73
330
1F
100
AcDbEntity
  8
Default
 62
    18
420
        0
370
    -3
100
AcDbSpline
210
0.0
220
0.0
230
1.0
 70
    24
 71
     2
 72
     6
 73
     3
 74
     0
 42
0.000000001
 43
0.0000000001
 40
0.0
 40
0.0
 40
0.0
 40
0.9999999999992623
 40
0.9999999999992623
 40
0.9999999999992623
 10
-7.839499999999983
 20
4.9906949243
 30
0.0
 10
-7.839499999999983
 20
5.094650769709
 30
0.0
 10
-7.839499999999983
 20
5.198606615118
 30
0.0
  0
SPLINE
  5
74
330
1F
100
AcDbEntity
  8
Default
 62
    18
420
        0
370
    -3
100
AcDbSpline
210
0.0
220
0.0
230
1.0
 70
    24
 71
     2
 72
     6
 73
     3
 74
     0
 42
0.000000001
 43
0.0000000001
 40
0.0
 40
0.0
 40
0.0
 40
0.5
 40
0.5
 40
0.5
 10
-10.37499999999998
 20
9.783739449381216
 30
0.0
 10
-10.37499999999998
 20
10.03066153453
 30
0.0
 10
-10.37499999999998
 20
10.27758361967879
 30
0.0
  0
SPLINE
  5
75
330
1F
100
AcDbEntity
  8
Default
 62
    18
420
        0
370
    -3
100
AcDbSpline
210
0.0
220
0.0
230
1.0
 70
    24
 71
     2
 72
     6
 73
     3
 74
     0
 42
0.000000001
 43
0.0000000001
 40
0.0
 40
0.0
 40
0.0
 40
1.5
 40
1.5
 40
1.5
 10
-10.12499999999998
 20
10.52450570482757
 30
0.0
 10
-9.374999999999984
 20
10.52450570482757
 30
0.0
 10
-8.624999999999984
 20
10.52450570482757
 30
0.0
  0
SPLINE
  5
76
330
1F
100
AcDbEntity
  8
Default
 62
    18
420
        0
370
    -3
100
AcDbSpline
210
0.0
220
0.0
230
1.0
 70
    24
 71
     2
 72
     6
 73
     3
 74
     0
 42
0.000000001
 43
0.0000000001
 40
0.0
 40
0.0
 40
0.0
 40
0.5
 40
0.5
 40
0.5
 10
-8.374999999999984
 20
10.27758361967879
 30
0.0
 10
-8.374999999999984
 20
10.03066153453
 30
0.0
 10
-8.374999999999984
 20
9.783739449381216
 30
0.0
  0
SPLINE
  5
77
330
1F
100
AcDbEntity
  8
Default
 62
    18
420
        0
370
    -3
100
AcDbSpline
210
0.0
220
0.0
230
1.0
 70
    12
 71
     2
 72
     6
 73
     3
 74
     0
 42
0.000000001
 43
0.0000000001
 40
-0.3926990816987241
 40
-0.3926990816987241
 40
-0.3926990816987241
 40
-0.356073408292509
 40
-0.356073408292509
 40
-0.356073408292509
 10
-8.374999999999984
 20
9.783739449381216
 30
0.0
 41
1.0
 10
-8.374999999999984
 20
9.766997755273323
 30
0.0
 41
0.9726828712490175
 10
-8.377288005377192
 20
9.750409281509999
 30
0.0
 41
0.9504612891018165
  0
SPLINE
  5
78
330
1F
100
AcDbEntity
  8
Default
 62
    18
420
        0
370
    -3
100
AcDbSpline
210
0.0
220
0.0
230
1.0
 70
    24
 71
     2
 72
     6
 73
     3
 74
     0
 42
0.000000001
 43
0.0000000001
 40
-0.1875
 40
-0.1875
 40
-0.1875
 40
0.0
 40
0.0
 40
0.0
 10
-8.374999999999984
 20
9.754407987186177
 30
0.0
 10
-8.374999999999984
 20
9.769073718283696
 30
0.0
 10
-8.374999999999984
 20
9.783739449381216
 30
0.0
  0
SPLINE
  5
79
330
1F
100
AcDbEntity
  8
Default
 62
    18
420
        0
370
    -3
100
AcDbSpline
210
0.0
220
0.0
230
1.0
 70
    12
 71
     2
 72
     6
 73
     3
 74
     0
 42
0.000000001
 43
0.0000000001
 40
-0.3926990816987241
 40
-0.3926990816987241
 40
-0.3926990816987241
 40
0.0
 40
0.0
 40
0.0
 10
-8.624999999999984
 20
10.52450570482757
 30
0.0
 41
1.0
 10
-8.374999999999986
 20
10.52450570482757
 30
0.0
 41
0.7071067811865476
 10
-8.374999999999984
 20
10.27758361967879
 30
0.0
 41
1.0
  0
SPLINE
  5
7A
330
1F
100
AcDbEntity
  8
Default
 62
    18
420
        0
370
    -3
100
AcDbSpline
210
0.0
220
0.0
230
1.0
 70
    12
 71
     2
 72
     6
 73
     3
 74
     0
 42
0.000000001
 43
0.0000000001
 40
-0.3926990816987241
 40
-0.3926990816987241
 40
-0.3926990816987241
 40
0.0
 40
0.0
 40
0.0
 10
-10.37499999999998
 20
10.27758361967879
 30
0.0
 41
1.0
 10
-10.37499999999998
 20
10.52450570482757
 30
0.0
 41
0.7071067811865476
 10
-10.12499999999998
 20
10.52450570482757
 30
0.0
 41
1.0
  0
SPLINE
  5
7B
330
1F
100
AcDbEntity
  8
Default
 62
    18
420
        0
370
    -3
100
AcDbSpline
210
0.0
220
0.0
230
1.0
 70
    12
 71
     2
 72
     6
 73
     3
 74
     0
 42
0.000000001
 43
0.0000000001
 40
-0.0366256734062142
 40
-0.0366256734062142
 40
-0.0366256734062142
 40
0.0
 40
0.0
 40
0.0
 10
-10.37271199462278
 20
9.750409281509997
 30
0.0
 41
0.9504612891018177
 10
-10.37499999999998
 20
9.766997755273323
 30
0.0
 41
0.9726828712490183
 10
-10.37499999999998
 20
9.783739449381216
 30
0.0
 41
1.0
  0
SPLINE
  5
7C
330
1F
100
AcDbEntity
  8
Default
 62
    18
420
        0
370
    -3
100
AcDbSpline
210
0.0
220
0.0
230
1.0
 70
    12
 71
     2
 72
     6
 73
     3
 74
     0
 42
0.000000001
 43
0.0000000001
 40
-0.0044820698151452
 40
-0.0044820698151452
 40
-0.0044820698151452
 40
0.0
 40
0.0
 40
0.0
 10
-8.375032783664462
 20
9.750409281510002
 30
0.0
 41
0.9933904373932656
 10
-8.374999999999982
 20
9.752408503247267
 30
0.0
 41
0.9966570641076476
 10
-8.374999999999984
 20
9.754407987186177
 30
0.0
 41
1.0
  0
SPLINE
  5
7D
330
1F
100
AcDbEntity
  8
Default
 62
    18
420
        0
370
    -3
100
AcDbSpline
210
0.0
220
0.0
230
1.0
 70
    24
 71
     2
 72
     6
 73
     3
 74
     0
 42
0.000000001
 43
0.0000000001
 40
-0.1853935442080588
 40
-0.1853935442080588
 40
-0.1853935442080588
 40
0.0
 40
0.0
 40
0.0
 10
-6.374999999999984
 20
9.56906703105
 30
0.0
 10
-6.374999999999984
 20
9.65973815628
 30
0.0
 10
-6.374999999999984
 20
9.750409281509999
 30
0.0
  0
SPLINE
  5
7E
330
1F
100
AcDbEntity
  8
Default
 62
    18
420
        0
370
    -3
100
AcDbSpline
210
0.0
220
0.0
230
1.0
 70
    24
 71
     2
 72
     6
 73
     3
 74
     0
 42
0.000000001
 43
0.0000000001
 40
-12.33700036918774
 40
-12.33700036918774
 40
-12.33700036918774
 40
-4.126461441175296
 40
-4.126461441175296
 40
-4.126461441175296
 10
-6.374999999999984
 20
7.002000000000001
 30
0.0
 10
-6.374999999999984
 20
7.855533515525001
 30
0.0
 10
-6.374999999999984
 20
8.709067031050001
 30
0.0
  0
SPLINE
  5
7F
330
1F
100
AcDbEntity
  8
Default
 62
    18
420
        0
370
    -3
100
AcDbSpline
210
0.0
220
0.0
230
1.0
 70
    28
 71
     2
 72
     6
 73
     3
 74
     0
 42
0.000000001
 43
0.0000000001
 40
6.847655372249931
 40
6.847655372249931
 40
6.847655372249931
 40
23.152
 40
23.152
 40
23.152
 10
8.152344627750086
 20
10.83163
 30
0.0
 41
1.0
 10
0.0001723138750522
 20
10.83163
 30
0.0
 41
1.0
 10
-8.151999999999981
 20
10.83163
 30
0.0
 41
1.0
  0
SPLINE
  5
80
330
1F
100
AcDbEntity
  8
Default
 62
    18
420
        0
370
    -3
100
AcDbSpline
210
0.0
220
0.0
230
1.0
 70
    28
 71
     2
 72
     6
 73
     3
 74
     0
 42
0.000000001
 43
0.0000000001
 40
4.018161329024508
 40
4.018161329024508
 40
4.018161329024508
 40
25.98183867097547
 40
25.98183867097547
 40
25.98183867097547
 10
-10.98183867097548
 20
11.69163
 30
0.0
 41
1.0
 10
0.0000000000000044
 20
11.69163
 30
0.0
 41
1.0
 10
10.98183867097548
 20
11.69163
 30
0.0
 41
1.0
  0
SPLINE
  5
81
330
1F
100
AcDbEntity
  8
Default
 62
    18
420
        0
370
    -3
100
AcDbSpline
210
0.0
220
0.0
230
1.0
 70
    24
 71
     2
 72
     6
 73
     3
 74
     0
 42
0.000000001
 43
0.0000000001
 40
-4.25
 40
-4.25
 40
-4.25
 40
0.0
 40
0.0
 40
0.0
 10
-10.62499999999998
 20
9.750409281509999
 30
0.0
 10
-8.499999999999984
 20
9.750409281509999
 30
0.0
 10
-6.374999999999984
 20
9.750409281509999
 30
0.0
  0
SPLINE
  5
82
330
1F
100
AcDbEntity
  8
Default
 62
    18
420
        0
370
    -3
100
AcDbSpline
210
0.0
220
0.0
230
1.0
 70
    24
 71
     2
 72
     6
 73
     3
 74
     0
 42
0.000000001
 43
0.0000000001
 40
0.0
 40
0.0
 40
0.0
 40
1.628755721045316
 40
1.628755721045316
 40
1.628755721045316
 10
-8.151999999999981
 20
11.35940154065
 30
0.0
 10
-8.151999999999981
 20
10.55505002297296
 30
0.0
 10
-8.151999999999981
 20
9.750698505295915
 30
0.0
  0
SPLINE
  5
83
330
1F
100
AcDbEntity
  8
Default
 62
    18
420
        0
370
    -3
100
AcDbSpline
210
0.0
220
0.0
230
1.0
 70
    28
 71
     2
 72
     6
 73
     3
 74
     0
 42
0.000000001
 43
0.0000000001
 40
4.374999999999998
 40
4.374999999999998
 40
4.374999999999998
 40
25.62452297865173
 40
25.62452297865173
 40
25.62452297865173
 10
10.62500000000002
 20
5.481630000000001
 30
0.0
 41
1.0
 10
0.0002385106741523
 20
5.481630000000001
 30
0.0
 41
1.0
 10
-10.62452297865171
 20
5.481630000000001
 30
0.0
 41
1.0
  0
SPLINE
  5
84
330
1F
100
AcDbEntity
  8
Default
 62
    18
420
        0
370
    -3
100
AcDbSpline
210
0.0
220
0.0
230
1.0
 70
    24
 71
     2
 72
     6
 73
     3
 74
     0
 42
0.000000001
 43
0.0000000001
 40
0.0
 40
0.0
 40
0.0
 40
0.2228272390063605
 40
0.2228272390063605
 40
0.2228272390063605
 10
-8.151999999999985
 20
42.04961236752056
 30
0.0
 10
-8.263413619503165
 20
42.04961236752056
 30
0.0
 10
-8.374827239006345
 20
42.04961236752056
 30
0.0
  0
SPLINE
  5
85
330
1F
100
AcDbEntity
  8
Default
 62
    18
420
        0
370
    -3
100
AcDbSpline
210
0.0
220
0.0
230
1.0
 70
    24
 71
     2
 72
     6
 73
     3
 74
     0
 42
0.000000001
 43
0.0000000001
 40
-2.473000000000001
 40
-2.473000000000001
 40
-2.473000000000001
 40
0.0
 40
0.0
 40
0.0
 10
-8.151999999999983
 20
42.40540605078396
 30
0.0
 10
-9.388499999999985
 20
42.40540605078396
 30
0.0
 10
-10.62499999999999
 20
42.40540605078396
 30
0.0
  0
SPLINE
  5
86
330
1F
100
AcDbEntity
  8
Default
 62
    18
420
        0
370
    -3
100
AcDbSpline
210
0.0
220
0.0
230
1.0
 70
    24
 71
     2
 72
     6
 73
     3
 74
     0
 42
0.000000001
 43
0.0000000001
 40
2.222819916738577
 40
2.222819916738577
 40
2.222819916738577
 40
2.473000000000001
 40
2.473000000000001
 40
2.473000000000001
 10
-10.37481991673856
 20
42.04961236752056
 30
0.0
 10
-10.49990995836927
 20
42.04961236752056
 30
0.0
 10
-10.62499999999999
 20
42.04961236752056
 30
0.0
  0
SPLINE
  5
87
330
1F
100
AcDbEntity
  8
Default
 62
    18
420
        0
370
    -3
100
AcDbSpline
210
0.0
220
0.0
230
1.0
 70
    28
 71
     2
 72
     6
 73
     3
 74
     0
 42
0.000000001
 43
0.0000000001
 40
8.624999999999998
 40
8.624999999999998
 40
8.624999999999998
 40
21.37499400547113
 40
21.37499400547113
 40
21.37499400547113
 10
6.375000000000014
 20
35.14371126365596
 30
0.0
 41
1.0
 10
0.0000029972644491
 20
35.14371126365596
 30
0.0
 41
1.0
 10
-6.374994005471116
 20
35.14371126365596
 30
0.0
 41
1.0
  0
SPLINE
  5
88
330
1F
100
AcDbEntity
  8
Default
 62
    18
420
        0
370
    -3
100
AcDbSpline
210
0.0
220
0.0
230
1.0
 70
    28
 71
     2
 72
     6
 73
     3
 74
     0
 42
0.000000001
 43
0.0000000001
 40
8.625324830703784
 40
8.625324830703784
 40
8.625324830703784
 40
21.37513786046695
 40
21.37513786046695
 40
21.37513786046695
 10
-6.374675169296201
 20
36.00371126365596
 30
0.0
 41
1.0
 10
0.0002313455853815
 20
36.00371126365596
 30
0.0
 41
1.0
 10
6.375137860466964
 20
36.00371126365596
 30
0.0
 41
1.0
  0
SPLINE
  5
89
330
1F
100
AcDbEntity
  8
Default
 62
    18
420
        0
370
    -3
100
AcDbSpline
210
0.0
220
0.0
230
1.0
 70
    28
 71
     2
 72
     6
 73
     3
 74
     0
 42
0.000000001
 43
0.0000000001
 40
6.847572107904381
 40
6.847572107904381
 40
6.847572107904381
 40
23.15158873496156
 40
23.15158873496156
 40
23.15158873496156
 10
8.15242789209563
 20
42.25971126365584
 30
0.0
 41
1.0
 10
0.000419578567044
 20
42.25971126365584
 30
0.0
 41
1.0
 10
-8.151588734961543
 20
42.25971126365584
 30
0.0
 41
1.0
  0
SPLINE
  5
8A
330
1F
100
AcDbEntity
  8
Default
 62
    18
420
        0
370
    -3
100
AcDbSpline
210
0.0
220
0.0
230
1.0
 70
    28
 71
     2
 72
     6
 73
     3
 74
     0
 42
0.000000001
 43
0.0000000001
 40
8.625518534946584
 40
8.625518534946584
 40
8.625518534946584
 40
21.37533156470975
 40
21.37533156470975
 40
21.37533156470975
 10
-6.374481465053402
 20
20.81981383090596
 30
0.0
 41
1.0
 10
0.0004250498281828
 20
20.81981383090596
 30
0.0
 41
1.0
 10
6.375331564709768
 20
20.81981383090596
 30
0.0
 41
1.0
  0
SPLINE
  5
8B
330
1F
100
AcDbEntity
  8
Default
 62
    18
420
        0
370
    -3
100
AcDbSpline
210
0.0
220
0.0
230
1.0
 70
    12
 71
     2
 72
     8
 73
     5
 74
     0
 42
0.000000001
 43
0.0000000001
 40
-1.883034952230815
 40
-1.883034952230815
 40
-1.883034952230815
 40
-1.178097245096175
 40
-1.178097245096175
 40
0.0
 40
0.0
 40
0.0
 10
-11.49996750961451
 20
20.74990924299573
 30
0.0
 41
0.8592218115680554
 10
-11.81249999999999
 20
20.52547840954036
 30
0.0
 41
0.8247415695392915
 10
-11.81249999999999
 20
20.14071126365597
 30
0.0
 41
1.0
 10
-11.81249999999999
 20
19.39071126365596
 30
0.0
 41
0.7071067811865455
 10
-11.06249999999999
 20
19.39071126365596
 30
0.0
 41
1.0
  0
SPLINE
  5
8C
330
1F
100
AcDbEntity
  8
Default
 62
    18
420
        0
370
    -3
100
AcDbSpline
210
0.0
220
0.0
230
1.0
 70
    12
 71
     2
 72
     6
 73
     3
 74
     0
 42
0.000000001
 43
0.0000000001
 40
1.642233479157876
 40
1.642233479157876
 40
1.642233479157876
 40
2.356194490192345
 40
2.356194490192345
 40
2.356194490192345
 10
-10.44783849780283
 20
19.71095407905432
 30
0.0
 41
0.8601388800239045
 10
-10.67174490847365
 20
19.39071126365596
 30
0.0
 41
0.822498236457448
 10
-11.06249999999999
 20
19.39071126365596
 30
0.0
 41
1.0
  0
SPLINE
  5
8D
330
1F
100
AcDbEntity
  8
Default
 62
    18
420
        0
370
    -3
100
AcDbSpline
210
0.0
220
0.0
230
1.0
 70
    28
 71
     2
 72
     6
 73
     3
 74
     0
 42
0.000000001
 43
0.0000000001
 40
4.018161329024503
 40
4.018161329024503
 40
4.018161329024503
 40
25.98183867097552
 40
25.98183867097552
 40
25.98183867097552
 10
10.98183867097551
 20
19.71071126365596
 30
0.0
 41
1.0
 10
0.0
 20
19.71071126365596
 30
0.0
 41
1.0
 10
-10.98183867097551
 20
19.71071126365596
 30
0.0
 41
1.0
  0
SPLINE
  5
8E
330
1F
100
AcDbEntity
  8
Default
 62
    18
420
        0
370
    -3
100
AcDbSpline
210
0.0
220
0.0
230
1.0
 70
    28
 71
     2
 72
     6
 73
     3
 74
     0
 42
0.000000001
 43
0.0000000001
 40
4.37494723063096
 40
4.37494723063096
 40
4.37494723063096
 40
25.62444855919664
 40
25.62444855919664
 40
25.62444855919664
 10
10.62505276936906
 20
46.96071126365596
 30
0.0
 41
1.0
 10
0.0003021050862166
 20
46.96071126365596
 30
0.0
 41
1.0
 10
-10.62444855919662
 20
46.96071126365596
 30
0.0
 41
1.0
  0
SPLINE
  5
8F
330
1F
100
AcDbEntity
  8
Default
 62
    18
420
        0
370
    -3
100
AcDbSpline
210
0.0
220
0.0
230
1.0
 70
    28
 71
     2
 72
     6
 73
     3
 74
     0
 42
0.000000001
 43
0.0000000001
 40
4.018161329024508
 40
4.018161329024508
 40
4.018161329024508
 40
25.98183867097549
 40
25.98183867097549
 40
25.98183867097549
 10
-10.98183867097548
 20
47.82071126365596
 30
0.0
 41
1.0
 10
0.0000000000000151
 20
47.82071126365596
 30
0.0
 41
1.0
 10
10.98183867097551
 20
47.82071126365596
 30
0.0
 41
1.0
  0
SPLINE
  5
90
330
1F
100
AcDbEntity
  8
Default
 62
    18
420
        0
370
    -3
100
AcDbSpline
210
0.0
220
0.0
230
1.0
 70
    28
 71
     3
 72
    14
 73
    10
 74
     0
 42
0.000000001
 43
0.0000000001
 40
0.0
 40
0.0
 40
0.0
 40
0.0
 40
1.289296849093128
 40
1.289296849093128
 40
1.289296849093128
 40
2.687558562891512
 40
2.687558562891512
 40
2.687558562891512
 40
3.624456396644587
 40
3.624456396644587
 40
3.624456396644587
 40
3.624456396644587
 10
-10.62499999999999
 20
23.54071126365596
 30
0.0
 41
1.0
 10
-10.62499999999999
 20
23.11349137243167
 30
0.0
 41
1.0
 10
-10.62499999999998
 20
22.68632663912625
 30
0.0
 41
1.0
 10
-10.62499999999998
 20
22.28917840601845
 30
0.0
 41
1.0
 10
-10.62499999999998
 20
21.85886414340506
 30
0.0
 41
1.0
 10
-10.62499999999998
 20
21.46378909909894
 30
0.0
 41
1.0
 10
-10.62499999999998
 20
21.13655141645993
 30
0.0
 41
1.0
 10
-10.62499999999998
 20
20.91728936827013
 30
0.0
 41
1.0
 10
-10.62499999999999
 20
20.72848306772625
 30
0.0
 41
1.0
 10
-10.62499999999999
 20
20.5764710462589
 30
0.0
 41
1.0
  0
SPLINE
  5
91
330
1F
100
AcDbEntity
  8
Default
 62
    18
420
        0
370
    -3
100
AcDbSpline
210
0.0
220
0.0
230
1.0
 70
    12
 71
     2
 72
     6
 73
     3
 74
     0
 42
0.000000001
 43
0.0000000001
 40
-0.060334286911185
 40
-0.060334286911185
 40
-0.060334286911185
 40
0.0
 40
0.0
 40
0.0
 10
46.92340198966838
 20
3.129327188246001
 30
0.0
 41
1.0
 10
46.90539480142233
 20
3.095399776446639
 30
0.0
 41
0.7071067811926531
 10
46.93932221322138
 20
3.0773925882
 30
0.0
 41
1.0
  0
SPLINE
  5
92
330
1F
100
AcDbEntity
  8
Default
 62
    18
420
        0
370
    -3
100
AcDbSpline
210
0.0
220
0.0
230
1.0
 70
    24
 71
     2
 72
     6
 73
     3
 74
     0
 42
0.000000001
 43
0.0000000001
 40
-0.308904753933088
 40
-0.308904753933088
 40
-0.308904753933088
 40
0.0
 40
0.0
 40
0.0
 10
47.68939899809038
 20
3.850541191897999
 30
0.0
 10
47.60154355597189
 20
3.9775725189035
 30
0.0
 10
47.51368811385338
 20
4.104603845909
 30
0.0
  0
SPLINE
  5
93
330
1F
100
AcDbEntity
  8
Default
 62
    18
420
        0
370
    -3
100
AcDbSpline
210
0.0
220
0.0
230
1.0
 70
    24
 71
     2
 72
     6
 73
     3
 74
     0
 42
0.000000001
 43
0.0000000001
 40
-0.0481183262104907
 40
-0.0481183262104907
 40
-0.0481183262104907
 40
0.0
 40
0.0
 40
0.0
 10
46.93932221322138
 20
3.0773925882
 30
0.0
 10
46.96057358354788
 20
3.066113289083
 30
0.0
 10
46.98182495387439
 20
3.054833989966
 30
0.0
  0
SPLINE
  5
94
330
1F
100
AcDbEntity
  8
Default
 62
    18
420
        0
370
    -3
100
AcDbSpline
210
0.0
220
0.0
230
1.0
 70
    12
 71
     2
 72
     8
 73
     5
 74
     0
 42
0.000000001
 43
0.0000000001
 40
-0.0900553404915551
 40
-0.0900553404915551
 40
-0.0900553404915551
 40
-0.0450276702457775
 40
-0.0450276702457775
 40
0.0
 40
0.0
 40
0.0
 10
47.51368811385338
 20
4.104603845909
 30
0.0
 41
1.0
 10
47.49963073279596
 20
4.124929596106592
 30
0.0
 41
0.8716960190585861
 10
47.47495981774437
 20
4.123483209641776
 30
0.0
 41
1.0
 10
47.45028890269278
 20
4.12203682317696
 30
0.0
 41
0.8716960190585861
 10
47.43870294488038
 20
4.100207676037
 30
0.0
 41
1.0
  0
SPLINE
  5
95
330
1F
100
AcDbEntity
  8
Default
 62
    18
420
        0
370
    -3
100
AcDbSpline
210
0.0
220
0.0
230
1.0
 70
    24
 71
     2
 72
     6
 73
     3
 74
     0
 42
0.000000001
 43
0.0000000001
 40
-1.099156038065428
 40
-1.099156038065428
 40
-1.099156038065428
 40
0.0
 40
0.0
 40
0.0
 10
47.43870294488038
 20
4.100207676037
 30
0.0
 10
47.18105246727438
 20
3.6147674321415
 30
0.0
 10
46.92340198966838
 20
3.129327188246
 30
0.0
  0
SPLINE
  5
96
330
1F
100
AcDbEntity
  8
Default
 62
    18
420
        0
370
    -3
100
AcDbSpline
210
0.0
220
0.0
230
1.0
 70
    24
 71
     2
 72
     6
 73
     3
 74
     0
 42
0.000000001
 43
0.0000000001
 40
0.5711239179716062
 40
0.5711239179716062
 40
0.5711239179716062
 40
15.47777274124695
 40
15.47777274124695
 40
15.47777274124695
 10
49.57053426052279
 20
9.448263266927924
 30
0.0
 10
42.28008286978908
 20
7.898629986289294
 30
0.0
 10
34.98963147905536
 20
6.348996705650665
 30
0.0
  0
SPLINE
  5
97
330
1F
100
AcDbEntity
  8
Default
 62
    18
420
        0
370
    -3
100
AcDbSpline
210
0.0
220
0.0
230
1.0
 70
    24
 71
     2
 72
     6
 73
     3
 74
     0
 42
0.000000001
 43
0.0000000001
 40
5.651294942928864
 40
5.651294942928864
 40
5.651294942928864
 40
21.36259565069908
 40
21.36259565069908
 40
21.36259565069908
 10
34.08814116819897
 20
6.349067886331112
 30
0.0
 10
41.77212671405569
 20
7.982349433878994
 30
0.0
 10
49.45611225991239
 20
9.615630981426877
 30
0.0
  0
ARC
  5
98
330
1F
100
AcDbEntity
  8
Default
100
AcDbCircle
 10
-11.06252308906027
 20
11.26088936841586
 30
0.0
 40
0.4375230890602868
100
AcDbArc
 50
179.9031239464348
 51
180.8324517841772
  0
LINE
  5
99
330
1F
100
AcDbEntity
  8
Default
100
AcDbLine
 10
-11.81249999999998
 20
4.500000000000001
 30
0.0
 11
-10.31249999999998
 21
4.500000000000001
 31
0.0
  0
LINE
  5
9A
330
1F
100
AcDbEntity
  8
Default
100
AcDbLine
 10
-10.31249999999998
 20
4.500000000000001
 30
0.0
 11
-10.31249999999998
 21
4.73
 31
0.0
  0
LINE
  5
9B
330
1F
100
AcDbEntity
  8
Default
100
AcDbLine
 10
-10.31249999999998
 20
4.73
 30
0.0
 11
-11.81249999999998
 21
4.73
 31
0.0
  0
LINE
  5
9C
330
1F
100
AcDbEntity
  8
Default
100
AcDbLine
 10
-11.81249999999998
 20
4.73
 30
0.0
 11
-11.81249999999998
 21
4.500000000000001
 31
0.0
  0
LINE
  5
9D
330
1F
100
AcDbEntity
  8
Default
100
AcDbLine
 10
-11.43749999999998
 20
4.250000000000001
 30
0.0
 11
-10.68749999999998
 21
4.250000000000001
 31
0.0
  0
LINE
  5
9E
330
1F
100
AcDbEntity
  8
Default
100
AcDbLine
 10
-10.68749999999998
 20
4.250000000000001
 30
0.0
 11
-10.68749999999998
 21
4.5
 31
0.0
  0
LINE
  5
9F
330
1F
100
AcDbEntity
  8
Default
100
AcDbLine
 10
-10.68749999999998
 20
4.5
 30
0.0
 11
-11.43749999999998
 21
4.5
 31
0.0
  0
LINE
  5
A0
330
1F
100
AcDbEntity
  8
Default
100
AcDbLine
 10
-11.43749999999998
 20
4.5
 30
0.0
 11
-11.43749999999998
 21
4.250000000000001
 31
0.0
  0
LINE
  5
A1
330
1F
100
AcDbEntity
  8
Default
 62
    18
420
        0
370
    -3
100
AcDbLine
 10
-10.62499999999999
 20
6.141999999999999
 30
0.0
 11
-10.62499999999998
 21
4.73
 31
0.0
  0
LINE
  5
A2
330
1F
100
AcDbEntity
  8
Default
100
AcDbLine
 10
-11.68750000000005
 20
1.625000000000001
 30
0.0
 11
-11.56249999999998
 21
1.625000000000001
 31
0.0
  0
LINE
  5
A3
330
1F
100
AcDbEntity
  8
Default
100
AcDbLine
 10
-11.56249999999998
 20
1.625000000000001
 30
0.0
 11
-11.56249999999998
 21
2.375000000000001
 31
0.0
  0
LINE
  5
A4
330
1F
100
AcDbEntity
  8
Default
100
AcDbLine
 10
-11.56249999999998
 20
2.375000000000001
 30
0.0
 11
-11.68750000000005
 21
2.375000000000001
 31
0.0
  0
LINE
  5
A5
330
1F
100
AcDbEntity
  8
Default
100
AcDbLine
 10
-11.68750000000005
 20
2.375000000000001
 30
0.0
 11
-11.68750000000005
 21
1.625000000000001
 31
0.0
  0
LINE
  5
A6
330
1F
100
AcDbEntity
  8
Default
100
AcDbLine
 10
-10.56249999999998
 20
1.625000000000001
 30
0.0
 11
-10.43749999999998
 21
1.625000000000001
 31
0.0
  0
LINE
  5
A7
330
1F
100
AcDbEntity
  8
Default
100
AcDbLine
 10
-10.43749999999998
 20
1.625000000000001
 30
0.0
 11
-10.43749999999998
 21
2.375000000000001
 31
0.0
  0
LINE
  5
A8
330
1F
100
AcDbEntity
  8
Default
100
AcDbLine
 10
-10.43749999999998
 20
2.375000000000001
 30
0.0
 11
-10.56249999999998
 21
2.375000000000001
 31
0.0
  0
LINE
  5
A9
330
1F
100
AcDbEntity
  8
Default
100
AcDbLine
 10
-10.56249999999998
 20
2.375000000000001
 30
0.0
 11
-10.56249999999998
 21
1.625000000000001
 31
0.0
  0
SPLINE
  5
AA
330
1F
100
AcDbEntity
  8
Default
 62
    18
420
        0
370
    -3
100
AcDbSpline
210
0.0
220
0.0
230
1.0
 70
    12
 71
     3
 72
    19
 73
    15
 74
     0
 42
0.000000001
 43
0.0000000001
 40
2.582163712932321
 40
2.582163712932321
 40
2.582163712932321
 40
2.582163712932321
 40
2.68288170954823
 40
2.68288170954823
 40
2.68288170954823
 40
2.738428258708957
 40
2.738428258708957
 40
2.764720330964138
 40
2.764720330964138
 40
2.773156264203837
 40
2.773156264203837
 40
2.781414550269982
 40
2.781414550269982
 40
2.781455087915679
 40
2.781455087915679
 40
2.781455087915679
 40
2.781455087915679
 10
-11.68749999999999
 20
1.3579004113711
 30
0.0
 41
0.8981270159776329
 10
-11.72015048437045
 20
1.3579004113711
 30
0.0
 41
0.8104419117732963
 10
-11.75148057941384
 20
1.370104295488327
 30
0.0
 41
0.7665993596711281
 10
-11.7758883476483
 20
1.39451206372278
 30
0.0
 41
0.766599359671128
 10
-11.78796544482547
 20
1.406589160899952
 30
0.0
 41
0.766599359671128
 10
-11.79743802984228
 20
1.421011703332079
 30
0.0
 41
0.766599359671128
 10
-11.8066986823985
 20
1.44440363530856
 30
0.0
 41
0.766599359671128
 10
-11.80894020682844
 20
1.452195317068175
 30
0.0
 41
0.766599359671128
 10
-11.81088577844999
 20
1.46270894054698
 30
0.0
 41
0.766599359671128
 10
-11.81127867266659
 20
1.465276960782439
 30
0.0
 41
0.766599359671128
 10
-11.81189730728449
 20
1.470379443458571
 30
0.0
 41
0.766599359671128
 10
-11.81212624943602
 20
1.472912285990821
 30
0.0
 41
0.766599359671128
 10
-11.8122785322721
 20
1.475462801554269
 30
0.0
 41
0.766599359671128
 10
-11.81249999999998
 20
1.482892334819871
 30
0.0
 41
0.766599359671128
 10
-11.81249999999998
 20
1.4829004113711
 30
0.0
 41
0.766599359671128
  0
LINE
  5
AB
330
1F
100
AcDbEntity
  8
Default
 62
    18
420
        0
370
    -3
100
AcDbLine
 10
-11.81249999999998
 20
1.4829004113711
 30
0.0
 11
-11.81249999999998
 21
4.125000000000001
 31
0.0
  0
SPLINE
  5
AC
330
1F
100
AcDbEntity
  8
Default
 62
    18
420
        0
370
    -3
100
AcDbSpline
210
0.0
220
0.0
230
1.0
 70
    12
 71
     2
 72
     6
 73
     3
 74
     0
 42
0.000000001
 43
0.0000000001
 40
5.423554676544578
 40
5.423554676544578
 40
5.423554676544578
 40
5.61990421739394
 40
5.61990421739394
 40
5.61990421739394
 10
-11.81249999999998
 20
4.125000000000001
 30
0.0
 41
1.0
 10
-11.81249999999998
 20
4.250000000000001
 30
0.0
 41
0.7071067811865476
 10
-11.68749999999998
 20
4.250000000000001
 30
0.0
 41
1.0
  0
LINE
  5
AD
330
1F
100
AcDbEntity
  8
Default
 62
    18
420
        0
370
    -3
100
AcDbLine
 10
-11.68749999999998
 20
4.250000000000001
 30
0.0
 11
-10.43749999999998
 21
4.250000000000001
 31
0.0
  0
SPLINE
  5
AE
330
1F
100
AcDbEntity
  8
Default
 62
    18
420
        0
370
    -3
100
AcDbSpline
210
0.0
220
0.0
230
1.0
 70
    12
 71
     2
 72
     6
 73
     3
 74
     0
 42
0.000000001
 43
0.0000000001
 40
6.86990421739394
 40
6.86990421739394
 40
6.86990421739394
 40
7.066253758243302
 40
7.066253758243302
 40
7.066253758243302
 10
-10.43749999999998
 20
4.250000000000001
 30
0.0
 41
1.0
 10
-10.31249999999998
 20
4.250000000000001
 30
0.0
 41
0.7071067811865476
 10
-10.31249999999998
 20
4.125000000000001
 30
0.0
 41
1.0
  0
LINE
  5
AF
330
1F
100
AcDbEntity
  8
Default
 62
    18
420
        0
370
    -3
100
AcDbLine
 10
-10.31249999999998
 20
4.125000000000001
 30
0.0
 11
-10.31249999999998
 21
1.4829004113711
 31
0.0
  0
SPLINE
  5
B0
330
1F
100
AcDbEntity
  8
Default
 62
    18
420
        0
370
    -3
100
AcDbSpline
210
0.0
220
0.0
230
1.0
 70
    12
 71
     3
 72
    15
 73
    11
 74
     0
 42
0.000000001
 43
0.0000000001
 40
9.708353346872203
 40
9.708353346872203
 40
9.708353346872203
 40
9.708353346872203
 40
9.726555974281043
 40
9.726555974281043
 40
9.752360128296287
 40
9.752360128296287
 40
9.806875865802084
 40
9.806875865802084
 40
9.806875865802084
 40
9.907593862417993
 40
9.907593862417993
 40
9.907593862417993
 40
9.907593862417993
 10
-10.31249999999998
 20
1.4829004113711
 30
0.0
 41
1.0
 10
-10.31302170723697
 20
1.477214065983222
 30
0.0
 41
1.0
 10
-10.31406512171093
 20
1.465841375207462
 30
0.0
 41
1.0
 10
-10.31605979317155
 20
1.45219531706807
 30
0.0
 41
1.0
 10
-10.31830131760146
 20
1.444403635308613
 30
0.0
 41
1.0
 10
-10.32756197015769
 20
1.421011703332101
 30
0.0
 41
1.0
 10
-10.33703455517451
 20
1.406589160899938
 30
0.0
 41
1.0
 10
-10.34911165235167
 20
1.394512063722782
 30
0.0
 41
1.0
 10
-10.37351942058612
 20
1.370104295488328
 30
0.0
 41
0.9999999999999999
 10
-10.40484951562952
 20
1.357900411371101
 30
0.0
 41
1.057190958417937
 10
-10.43749999999999
 20
1.357900411371101
 30
0.0
 41
1.17157287525381
  0
LINE
  5
B1
330
1F
100
AcDbEntity
  8
Default
 62
    18
420
        0
370
    -3
100
AcDbLine
 10
-10.43749999999999
 20
1.357900411371101
 30
0.0
 11
-10.43749999999998
 21
3.292090000000001
 31
0.0
  0
LINE
  5
B2
330
1F
100
AcDbEntity
  8
Default
 62
    18
420
        0
370
    -3
100
AcDbLine
 10
-10.43749999999998
 20
3.292090000000001
 30
0.0
 11
-11.68749999999998
 21
3.292090000000001
 31
0.0
  0
LINE
  5
B3
330
1F
100
AcDbEntity
  8
Default
 62
    18
420
        0
370
    -3
100
AcDbLine
 10
-11.68749999999998
 20
3.292090000000001
 30
0.0
 11
-11.68749999999999
 21
1.3579004113711
 31
0.0
  0
SPLINE
  5
B4
330
1F
100
AcDbEntity
  8
Default
 62
    18
420
        0
370
    -3
100
AcDbSpline
210
0.0
220
0.0
230
1.0
 70
    12
 71
     3
 72
    17
 73
    13
 74
     0
 42
0.000000001
 43
0.0000000001
 40
2.74889356992287
 40
2.74889356992287
 40
2.74889356992287
 40
2.74889356992287
 40
2.772426750880728
 40
2.772426750880728
 40
2.788647587029363
 40
2.788647587029363
 40
2.839202680810273
 40
2.839202680810273
 40
2.946009058594447
 40
2.946009058594447
 40
2.946009058594447
 40
3.147445051826271
 40
3.147445051826271
 40
3.147445051826271
 40
3.147445051826271
 10
-10.56249999999999
 20
0.2500000006265002
 30
0.0
 41
1.0
 10
-10.56295435925254
 20
0.2424774695588097
 30
0.0
 41
1.0
 10
-10.56386307775764
 20
0.227432408676429
 30
0.0
 41
1.0
 10
-10.56494265466678
 20
0.2147530988226736
 30
0.0
 41
1.0
 10
-10.56572844309996
 20
0.209617058351764
 30
0.0
 41
1.0
 10
-10.5696195863431
 20
0.1885898113940252
 30
0.0
 41
1.0
 10
-10.57410263520294
 20
0.1730064478749824
 30
0.0
 41
1.0
 10
-10.5926239403154
 20
0.1262225839219511
 30
0.0
 41
1.0
 10
-10.611569110349
 20
0.0973774990577168
 30
0.0
 41
1.0
 10
-10.63572330470335
 20
0.0732233047033635
 30
0.0
 41
1.0
 10
-10.68453884117226
 20
0.0244077682344539
 30
0.0
 41
0.9999999999999998
 10
-10.74719903125905
 20
0.0000000000000008
 30
0.0
 41
1.057190958417937
 10
-10.81249999999998
 20
0.0000000000000008
 30
0.0
 41
1.17157287525381
  0
SPLINE
  5
B5
330
1F
100
AcDbEntity
  8
Default
 62
    18
420
        0
370
    -3
100
AcDbSpline
210
0.0
220
0.0
230
1.0
 70
    28
 71
     2
 72
     6
 73
     3
 74
     0
 42
0.000000001
 43
0.0000000001
 40
3.147445051826271
 40
3.147445051826271
 40
3.147445051826271
 40
3.647445051826266
 40
3.647445051826266
 40
3.647445051826266
 10
-10.81249999999998
 20
0.0000000000000008
 30
0.0
 41
1.0
 10
-11.06249999999998
 20
0.0000000000000009
 30
0.0
 41
1.0
 10
-11.31249999999998
 20
0.0000000000000009
 30
0.0
 41
1.0
  0
SPLINE
  5
B6
330
1F
100
AcDbEntity
  8
Default
 62
    18
420
        0
370
    -3
100
AcDbSpline
210
0.0
220
0.0
230
1.0
 70
    12
 71
     3
 72
    17
 73
    13
 74
     0
 42
0.000000001
 43
0.0000000001
 40
3.647445051826266
 40
3.647445051826266
 40
3.647445051826266
 40
3.647445051826266
 40
3.848881045058092
 40
3.848881045058092
 40
3.848881045058092
 40
3.955687422842317
 40
3.955687422842317
 40
4.006242516623281
 40
4.006242516623281
 40
4.022463352771799
 40
4.022463352771799
 40
4.045996533729666
 40
4.045996533729666
 40
4.045996533729666
 40
4.045996533729666
 10
-11.31249999999998
 20
0.0000000000000009
 30
0.0
 41
0.9979808843196798
 10
-11.37780096874092
 20
0.000000000000001
 30
0.0
 41
0.9005469398121176
 10
-11.44046115882771
 20
0.024407768234456
 30
0.0
 41
0.8518299675583364
 10
-11.48927669529662
 20
0.0732233047033647
 30
0.0
 41
0.8518299675583364
 10
-11.51343088965096
 20
0.0973774990577077
 30
0.0
 41
0.8518299675583364
 10
-11.53237605968457
 20
0.1262225839219631
 30
0.0
 41
0.8518299675583364
 10
-11.55089736479703
 20
0.1730064478749865
 30
0.0
 41
0.8518299675583364
 10
-11.55538041365686
 20
0.1885898113940144
 30
0.0
 41
0.8518299675583364
 10
-11.5592715569
 20
0.2096170583517256
 30
0.0
 41
0.8518299675583364
 10
-11.5600573453332
 20
0.2147530988227138
 30
0.0
 41
0.8518299675583364
 10
-11.56113692224232
 20
0.2274324086764295
 30
0.0
 41
0.8518299675583364
 10
-11.56204564074743
 20
0.2424774695588101
 30
0.0
 41
0.8518299675583364
 10
-11.56249999999998
 20
0.2500000006270004
 30
0.0
 41
0.8518299675583364
  0
LINE
  5
B7
330
1F
100
AcDbEntity
  8
Default
 62
    18
420
        0
370
    -3
100
AcDbLine
 10
-11.56249999999998
 20
0.2500000006270005
 30
0.0
 11
-11.56249999999998
 21
3.29209
 31
0.0
  0
LINE
  5
B8
330
1F
100
AcDbEntity
  8
Default
 62
    18
420
        0
370
    -3
100
AcDbLine
 10
-11.56249999999998
 20
3.29209
 30
0.0
 11
-10.56249999999999
 21
3.292090000000001
 31
0.0
  0
LINE
  5
B9
330
1F
100
AcDbEntity
  8
Default
 62
    18
420
        0
370
    -3
100
AcDbLine
 10
-10.56249999999999
 20
3.292090000000001
 30
0.0
 11
-10.56249999999999
 21
0.2500000006265002
 31
0.0
  0
LINE
  5
BA
330
1F
100
AcDbEntity
  8
Default
 62
    18
420
        0
370
    -3
100
AcDbLine
 10
-10.62499999999998
 20
8.709067031050001
 30
0.0
 11
-10.62499999999998
 21
7.002000000195305
 31
0.0
  0
LINE
  5
BB
330
1F
100
AcDbEntity
  8
Default
 62
    18
420
        0
370
    -3
100
AcDbLine
 10
-11.50000000000065
 20
4.73
 30
0.0
 11
-11.49999999999998
 21
11.02291835189963
 31
0.0
  0
SPLINE
  5
BC
330
1F
100
AcDbEntity
  8
Default
 62
    18
420
        0
370
    -3
100
AcDbSpline
210
0.0
220
0.0
230
1.0
 70
     8
 71
     3
 72
     8
 73
     4
 74
     0
 42
0.000000001
 43
0.0000000001
 40
4.085828715216682
 40
4.085828715216682
 40
4.085828715216682
 40
4.085828715216682
 40
5.375125564309807
 40
5.375125564309807
 40
5.375125564309807
 40
5.375125564309807
 10
-11.49999999999998
 20
11.02291835189963
 30
0.0
 10
-11.49999999999998
 20
11.18026860253508
 30
0.0
 10
-11.49999999999998
 20
11.26189250225327
 30
0.0
 10
-11.50004555271967
 20
11.26162913477171
 30
0.0
  0
ARC
  5
BD
330
1F
100
AcDbEntity
  8
Default
 62
    18
420
        0
370
    -3
100
AcDbCircle
 10
11.06252308906027
 20
11.26088936841586
 30
0.0
 40
0.4375230890602868
210
0.0
220
0.0
230
-1.0
100
AcDbArc
 50
0.096876053565167
 51
180.0
  0
LINE
  5
BE
330
1F
100
AcDbEntity
  8
Default
 62
    18
420
        0
370
    -3
100
AcDbLine
 10
-10.62499999999998
 20
11.26088936841586
 30
0.0
 11
-10.62499999999999
 21
9.56906703105
 31
0.0
  0
SPLINE
  5
BF
330
1F
100
AcDbEntity
  8
Default
 62
    18
420
        0
370
    -3
100
AcDbSpline
210
0.0
220
0.0
230
1.0
 70
    24
 71
     2
 72
     6
 73
     3
 74
     0
 42
0.000000001
 43
0.0000000001
 40
0.0
 40
0.0
 40
0.0
 40
1.902478446314422
 40
1.902478446314422
 40
1.902478446314422
 10
7.839499999999983
 20
5.198606615118
 30
0.0
 10
7.174974682337528
 20
5.340118307559007
 30
0.0
 10
6.510449364675074
 20
5.481630000000014
 30
0.0
  0
SPLINE
  5
C0
330
1F
100
AcDbEntity
  8
Default
 62
    18
420
        0
370
    -3
100
AcDbSpline
210
0.0
220
0.0
230
1.0
 70
    24
 71
     2
 72
     6
 73
     3
 74
     0
 42
0.000000001
 43
0.0000000001
 40
-0.3124999999999991
 40
-0.3124999999999991
 40
-0.3124999999999991
 40
0.0
 40
0.0
 40
0.0
 10
7.839499999999983
 20
4.9906949243
 30
0.0
 10
7.995749999999983
 20
4.9906949243
 30
0.0
 10
8.151999999999983
 20
4.990694924300001
 30
0.0
  0
SPLINE
  5
C1
330
1F
100
AcDbEntity
  8
Default
 62
    18
420
        0
370
    -3
100
AcDbSpline
210
0.0
220
0.0
230
1.0
 70
    24
 71
     2
 72
     6
 73
     3
 74
     0
 42
0.000000001
 43
0.0000000001
 40
-2.473000000000001
 40
-2.473000000000001
 40
-2.473000000000001
 40
0.0
 40
0.0
 40
0.0
 10
10.62499999999998
 20
4.990694924299999
 30
0.0
 10
9.388499999999983
 20
4.9906949243
 30
0.0
 10
8.151999999999983
 20
4.990694924300001
 30
0.0
  0
SPLINE
  5
C2
330
1F
100
AcDbEntity
  8
Default
 62
    18
420
        0
370
    -3
100
AcDbSpline
210
0.0
220
0.0
230
1.0
 70
    24
 71
     2
 72
     6
 73
     3
 74
     0
 42
0.000000001
 43
0.0000000001
 40
-2.473000000000001
 40
-2.473000000000001
 40
-2.473000000000001
 40
0.0
 40
0.0
 40
0.0
 10
8.151999999999981
 20
11.35940154065
 30
0.0
 10
9.388499999999983
 20
11.35940154065
 30
0.0
 10
10.62499999999998
 20
11.35940154065
 30
0.0
  0
SPLINE
  5
C3
330
1F
100
AcDbEntity
  8
Default
 62
    18
420
        0
370
    -3
100
AcDbSpline
210
0.0
220
0.0
230
1.0
 70
    24
 71
     2
 72
     6
 73
     3
 74
     0
 42
0.000000001
 43
0.0000000001
 40
0.0
 40
0.0
 40
0.0
 40
0.9999999999992623
 40
0.9999999999992623
 40
0.9999999999992623
 10
7.839499999999983
 20
4.9906949243
 30
0.0
 10
7.839499999999983
 20
5.094650769709
 30
0.0
 10
7.839499999999983
 20
5.198606615118
 30
0.0
  0
SPLINE
  5
C4
330
1F
100
AcDbEntity
  8
Default
 62
    18
420
        0
370
    -3
100
AcDbSpline
210
0.0
220
0.0
230
1.0
 70
    24
 71
     2
 72
     6
 73
     3
 74
     0
 42
0.000000001
 43
0.0000000001
 40
0.0
 40
0.0
 40
0.0
 40
0.5
 40
0.5
 40
0.5
 10
10.37499999999998
 20
9.783739449381216
 30
0.0
 10
10.37499999999998
 20
10.03066153453
 30
0.0
 10
10.37499999999998
 20
10.27758361967879
 30
0.0
  0
SPLINE
  5
C5
330
1F
100
AcDbEntity
  8
Default
 62
    18
420
        0
370
    -3
100
AcDbSpline
210
0.0
220
0.0
230
1.0
 70
    24
 71
     2
 72
     6
 73
     3
 74
     0
 42
0.000000001
 43
0.0000000001
 40
0.0
 40
0.0
 40
0.0
 40
1.5
 40
1.5
 40
1.5
 10
10.12499999999998
 20
10.52450570482757
 30
0.0
 10
9.374999999999984
 20
10.52450570482757
 30
0.0
 10
8.624999999999984
 20
10.52450570482757
 30
0.0
  0
SPLINE
  5
C6
330
1F
100
AcDbEntity
  8
Default
 62
    18
420
        0
370
    -3
100
AcDbSpline
210
0.0
220
0.0
230
1.0
 70
    24
 71
     2
 72
     6
 73
     3
 74
     0
 42
0.000000001
 43
0.0000000001
 40
0.0
 40
0.0
 40
0.0
 40
0.5
 40
0.5
 40
0.5
 10
8.374999999999984
 20
10.27758361967879
 30
0.0
 10
8.374999999999984
 20
10.03066153453
 30
0.0
 10
8.374999999999984
 20
9.783739449381216
 30
0.0
  0
SPLINE
  5
C7
330
1F
100
AcDbEntity
  8
Default
 62
    18
420
        0
370
    -3
100
AcDbSpline
210
0.0
220
0.0
230
1.0
 70
    12
 71
     2
 72
     6
 73
     3
 74
     0
 42
0.000000001
 43
0.0000000001
 40
-0.3926990816987241
 40
-0.3926990816987241
 40
-0.3926990816987241
 40
-0.356073408292509
 40
-0.356073408292509
 40
-0.356073408292509
 10
8.374999999999984
 20
9.783739449381216
 30
0.0
 41
1.0
 10
8.374999999999984
 20
9.766997755273323
 30
0.0
 41
0.9726828712490175
 10
8.377288005377192
 20
9.750409281509999
 30
0.0
 41
0.9504612891018165
  0
SPLINE
  5
C8
330
1F
100
AcDbEntity
  8
Default
 62
    18
420
        0
370
    -3
100
AcDbSpline
210
0.0
220
0.0
230
1.0
 70
    24
 71
     2
 72
     6
 73
     3
 74
     0
 42
0.000000001
 43
0.0000000001
 40
-0.1875
 40
-0.1875
 40
-0.1875
 40
0.0
 40
0.0
 40
0.0
 10
8.374999999999984
 20
9.754407987186177
 30
0.0
 10
8.374999999999984
 20
9.769073718283696
 30
0.0
 10
8.374999999999984
 20
9.783739449381216
 30
0.0
  0
SPLINE
  5
C9
330
1F
100
AcDbEntity
  8
Default
 62
    18
420
        0
370
    -3
100
AcDbSpline
210
0.0
220
0.0
230
1.0
 70
    12
 71
     2
 72
     6
 73
     3
 74
     0
 42
0.000000001
 43
0.0000000001
 40
-0.3926990816987241
 40
-0.3926990816987241
 40
-0.3926990816987241
 40
0.0
 40
0.0
 40
0.0
 10
8.624999999999984
 20
10.52450570482757
 30
0.0
 41
1.0
 10
8.374999999999986
 20
10.52450570482757
 30
0.0
 41
0.7071067811865476
 10
8.374999999999984
 20
10.27758361967879
 30
0.0
 41
1.0
  0
SPLINE
  5
CA
330
1F
100
AcDbEntity
  8
Default
 62
    18
420
        0
370
    -3
100
AcDbSpline
210
0.0
220
0.0
230
1.0
 70
    12
 71
     2
 72
     6
 73
     3
 74
     0
 42
0.000000001
 43
0.0000000001
 40
-0.3926990816987241
 40
-0.3926990816987241
 40
-0.3926990816987241
 40
0.0
 40
0.0
 40
0.0
 10
10.37499999999998
 20
10.27758361967879
 30
0.0
 41
1.0
 10
10.37499999999998
 20
10.52450570482757
 30
0.0
 41
0.7071067811865476
 10
10.12499999999998
 20
10.52450570482757
 30
0.0
 41
1.0
  0
SPLINE
  5
CB
330
1F
100
AcDbEntity
  8
Default
 62
    18
420
        0
370
    -3
100
AcDbSpline
210
0.0
220
0.0
230
1.0
 70
    12
 71
     2
 72
     6
 73
     3
 74
     0
 42
0.000000001
 43
0.0000000001
 40
-0.0366256734062142
 40
-0.0366256734062142
 40
-0.0366256734062142
 40
0.0
 40
0.0
 40
0.0
 10
10.37271199462278
 20
9.750409281509997
 30
0.0
 41
0.9504612891018177
 10
10.37499999999998
 20
9.766997755273323
 30
0.0
 41
0.9726828712490183
 10
10.37499999999998
 20
9.783739449381216
 30
0.0
 41
1.0
  0
SPLINE
  5
CC
330
1F
100
AcDbEntity
  8
Default
 62
    18
420
        0
370
    -3
100
AcDbSpline
210
0.0
220
0.0
230
1.0
 70
    12
 71
     2
 72
     6
 73
     3
 74
     0
 42
0.000000001
 43
0.0000000001
 40
-0.0044820698151452
 40
-0.0044820698151452
 40
-0.0044820698151452
 40
0.0
 40
0.0
 40
0.0
 10
8.375032783664462
 20
9.750409281510002
 30
0.0
 41
0.9933904373932656
 10
8.374999999999982
 20
9.752408503247267
 30
0.0
 41
0.9966570641076476
 10
8.374999999999984
 20
9.754407987186177
 30
0.0
 41
1.0
  0
SPLINE
  5
CD
330
1F
100
AcDbEntity
  8
Default
 62
    18
420
        0
370
    -3
100
AcDbSpline
210
0.0
220
0.0
230
1.0
 70
    24
 71
     2
 72
     6
 73
     3
 74
     0
 42
0.000000001
 43
0.0000000001
 40
-0.1853935442080588
 40
-0.1853935442080588
 40
-0.1853935442080588
 40
0.0
 40
0.0
 40
0.0
 10
6.374999999999984
 20
9.56906703105
 30
0.0
 10
6.374999999999984
 20
9.65973815628
 30
0.0
 10
6.374999999999984
 20
9.750409281509999
 30
0.0
  0
SPLINE
  5
CE
330
1F
100
AcDbEntity
  8
Default
 62
    18
420
        0
370
    -3
100
AcDbSpline
210
0.0
220
0.0
230
1.0
 70
    24
 71
     2
 72
     6
 73
     3
 74
     0
 42
0.000000001
 43
0.0000000001
 40
-12.33700036918774
 40
-12.33700036918774
 40
-12.33700036918774
 40
-4.126461441175296
 40
-4.126461441175296
 40
-4.126461441175296
 10
6.374999999999984
 20
7.002000000000001
 30
0.0
 10
6.374999999999984
 20
7.855533515525001
 30
0.0
 10
6.374999999999984
 20
8.709067031050001
 30
0.0
  0
SPLINE
  5
CF
330
1F
100
AcDbEntity
  8
Default
 62
    18
420
        0
370
    -3
100
AcDbSpline
210
0.0
220
0.0
230
1.0
 70
    24
 71
     2
 72
     6
 73
     3
 74
     0
 42
0.000000001
 43
0.0000000001
 40
-4.25
 40
-4.25
 40
-4.25
 40
0.0
 40
0.0
 40
0.0
 10
10.62499999999998
 20
9.750409281509999
 30
0.0
 10
8.499999999999984
 20
9.750409281509999
 30
0.0
 10
6.374999999999984
 20
9.750409281509999
 30
0.0
  0
SPLINE
  5
D0
330
1F
100
AcDbEntity
  8
Default
 62
    18
420
        0
370
    -3
100
AcDbSpline
210
0.0
220
0.0
230
1.0
 70
    24
 71
     2
 72
     6
 73
     3
 74
     0
 42
0.000000001
 43
0.0000000001
 40
0.0
 40
0.0
 40
0.0
 40
1.628755721045316
 40
1.628755721045316
 40
1.628755721045316
 10
8.151999999999981
 20
11.35940154065
 30
0.0
 10
8.151999999999981
 20
10.55505002297296
 30
0.0
 10
8.151999999999981
 20
9.750698505295915
 30
0.0
  0
ARC
  5
D1
330
1F
100
AcDbEntity
  8
Default
100
AcDbCircle
 10
-11.06252308906027
 20
11.26088936841586
 30
0.0
 40
0.4375230890602868
210
0.0
220
0.0
230
-1.0
100
AcDbArc
 50
179.9031239464348
 51
180.8324517841772
  0
LINE
  5
D2
330
1F
100
AcDbEntity
  8
Default
100
AcDbLine
 10
11.81249999999998
 20
4.500000000000001
 30
0.0
 11
10.31249999999998
 21
4.500000000000001
 31
0.0
  0
LINE
  5
D3
330
1F
100
AcDbEntity
  8
Default
100
AcDbLine
 10
10.31249999999998
 20
4.500000000000001
 30
0.0
 11
10.31249999999998
 21
4.73
 31
0.0
  0
LINE
  5
D4
330
1F
100
AcDbEntity
  8
Default
100
AcDbLine
 10
10.31249999999998
 20
4.73
 30
0.0
 11
11.81249999999998
 21
4.73
 31
0.0
  0
LINE
  5
D5
330
1F
100
AcDbEntity
  8
Default
100
AcDbLine
 10
11.81249999999998
 20
4.73
 30
0.0
 11
11.81249999999998
 21
4.500000000000001
 31
0.0
  0
LINE
  5
D6
330
1F
100
AcDbEntity
  8
Default
100
AcDbLine
 10
11.43749999999998
 20
4.250000000000001
 30
0.0
 11
10.68749999999998
 21
4.250000000000001
 31
0.0
  0
LINE
  5
D7
330
1F
100
AcDbEntity
  8
Default
100
AcDbLine
 10
10.68749999999998
 20
4.250000000000001
 30
0.0
 11
10.68749999999998
 21
4.5
 31
0.0
  0
LINE
  5
D8
330
1F
100
AcDbEntity
  8
Default
100
AcDbLine
 10
10.68749999999998
 20
4.5
 30
0.0
 11
11.43749999999998
 21
4.5
 31
0.0
  0
LINE
  5
D9
330
1F
100
AcDbEntity
  8
Default
100
AcDbLine
 10
11.43749999999998
 20
4.5
 30
0.0
 11
11.43749999999998
 21
4.250000000000001
 31
0.0
  0
LINE
  5
DA
330
1F
100
AcDbEntity
  8
Default
 62
    18
420
        0
370
    -3
100
AcDbLine
 10
10.62499999999999
 20
6.141999999999999
 30
0.0
 11
10.62499999999998
 21
4.73
 31
0.0
  0
LINE
  5
DB
330
1F
100
AcDbEntity
  8
Default
100
AcDbLine
 10
11.68750000000005
 20
1.625000000000001
 30
0.0
 11
11.56249999999998
 21
1.625000000000001
 31
0.0
  0
LINE
  5
DC
330
1F
100
AcDbEntity
  8
Default
100
AcDbLine
 10
11.56249999999998
 20
1.625000000000001
 30
0.0
 11
11.56249999999998
 21
2.375000000000001
 31
0.0
  0
LINE
  5
DD
330
1F
100
AcDbEntity
  8
Default
100
AcDbLine
 10
11.56249999999998
 20
2.375000000000001
 30
0.0
 11
11.68750000000005
 21
2.375000000000001
 31
0.0
  0
LINE
  5
DE
330
1F
100
AcDbEntity
  8
Default
100
AcDbLine
 10
11.68750000000005
 20
2.375000000000001
 30
0.0
 11
11.68750000000005
 21
1.625000000000001
 31
0.0
  0
LINE
  5
DF
330
1F
100
AcDbEntity
  8
Default
100
AcDbLine
 10
10.56249999999998
 20
1.625000000000001
 30
0.0
 11
10.43749999999998
 21
1.625000000000001
 31
0.0
  0
LINE
  5
E0
330
1F
100
AcDbEntity
  8
Default
100
AcDbLine
 10
10.43749999999998
 20
1.625000000000001
 30
0.0
 11
10.43749999999998
 21
2.375000000000001
 31
0.0
  0
LINE
  5
E1
330
1F
100
AcDbEntity
  8
Default
100
AcDbLine
 10
10.43749999999998
 20
2.375000000000001
 30
0.0
 11
10.56249999999998
 21
2.375000000000001
 31
0.0
  0
LINE
  5
E2
330
1F
100
AcDbEntity
  8
Default
100
AcDbLine
 10
10.56249999999998
 20
2.375000000000001
 30
0.0
 11
10.56249999999998
 21
1.625000000000001
 31
0.0
  0
SPLINE
  5
E3
330
1F
100
AcDbEntity
  8
Default
 62
    18
420
        0
370
    -3
100
AcDbSpline
210
0.0
220
0.0
230
1.0
 70
    12
 71
     3
 72
    19
 73
    15
 74
     0
 42
0.000000001
 43
0.0000000001
 40
2.582163712932321
 40
2.582163712932321
 40
2.582163712932321
 40
2.582163712932321
 40
2.68288170954823
 40
2.68288170954823
 40
2.68288170954823
 40
2.738428258708957
 40
2.738428258708957
 40
2.764720330964138
 40
2.764720330964138
 40
2.773156264203837
 40
2.773156264203837
 40
2.781414550269982
 40
2.781414550269982
 40
2.781455087915679
 40
2.781455087915679
 40
2.781455087915679
 40
2.781455087915679
 10
11.68749999999999
 20
1.3579004113711
 30
0.0
 41
0.8981270159776329
 10
11.72015048437045
 20
1.3579004113711
 30
0.0
 41
0.8104419117732963
 10
11.75148057941384
 20
1.370104295488327
 30
0.0
 41
0.7665993596711281
 10
11.7758883476483
 20
1.39451206372278
 30
0.0
 41
0.766599359671128
 10
11.78796544482547
 20
1.406589160899952
 30
0.0
 41
0.766599359671128
 10
11.79743802984228
 20
1.421011703332079
 30
0.0
 41
0.766599359671128
 10
11.8066986823985
 20
1.44440363530856
 30
0.0
 41
0.766599359671128
 10
11.80894020682844
 20
1.452195317068175
 30
0.0
 41
0.766599359671128
 10
11.81088577844999
 20
1.46270894054698
 30
0.0
 41
0.766599359671128
 10
11.81127867266659
 20
1.465276960782439
 30
0.0
 41
0.766599359671128
 10
11.81189730728449
 20
1.470379443458571
 30
0.0
 41
0.766599359671128
 10
11.81212624943602
 20
1.472912285990821
 30
0.0
 41
0.766599359671128
 10
11.8122785322721
 20
1.475462801554269
 30
0.0
 41
0.766599359671128
 10
11.81249999999998
 20
1.482892334819871
 30
0.0
 41
0.766599359671128
 10
11.81249999999998
 20
1.4829004113711
 30
0.0
 41
0.766599359671128
  0
LINE
  5
E4
330
1F
100
AcDbEntity
  8
Default
 62
    18
420
        0
370
    -3
100
AcDbLine
 10
11.81249999999998
 20
1.4829004113711
 30
0.0
 11
11.81249999999998
 21
4.125000000000001
 31
0.0
  0
SPLINE
  5
E5
330
1F
100
AcDbEntity
  8
Default
 62
    18
420
        0
370
    -3
100
AcDbSpline
210
0.0
220
0.0
230
1.0
 70
    12
 71
     2
 72
     6
 73
     3
 74
     0
 42
0.000000001
 43
0.0000000001
 40
5.423554676544578
 40
5.423554676544578
 40
5.423554676544578
 40
5.61990421739394
 40
5.61990421739394
 40
5.61990421739394
 10
11.81249999999998
 20
4.125000000000001
 30
0.0
 41
1.0
 10
11.81249999999998
 20
4.250000000000001
 30
0.0
 41
0.7071067811865476
 10
11.68749999999998
 20
4.250000000000001
 30
0.0
 41
1.0
  0
LINE
  5
E6
330
1F
100
AcDbEntity
  8
Default
 62
    18
420
        0
370
    -3
100
AcDbLine
 10
11.68749999999998
 20
4.250000000000001
 30
0.0
 11
10.43749999999998
 21
4.250000000000001
 31
0.0
  0
SPLINE
  5
E7
330
1F
100
AcDbEntity
  8
Default
 62
    18
420
        0
370
    -3
100
AcDbSpline
210
0.0
220
0.0
230
1.0
 70
    12
 71
     2
 72
     6
 73
     3
 74
     0
 42
0.000000001
 43
0.0000000001
 40
6.86990421739394
 40
6.86990421739394
 40
6.86990421739394
 40
7.066253758243302
 40
7.066253758243302
 40
7.066253758243302
 10
10.43749999999998
 20
4.250000000000001
 30
0.0
 41
1.0
 10
10.31249999999998
 20
4.250000000000001
 30
0.0
 41
0.7071067811865476
 10
10.31249999999998
 20
4.125000000000001
 30
0.0
 41
1.0
  0
LINE
  5
E8
330
1F
100
AcDbEntity
  8
Default
 62
    18
420
        0
370
    -3
100
AcDbLine
 10
10.31249999999998
 20
4.125000000000001
 30
0.0
 11
10.31249999999998
 21
1.4829004113711
 31
0.0
  0
SPLINE
  5
E9
330
1F
100
AcDbEntity
  8
Default
 62
    18
420
        0
370
    -3
100
AcDbSpline
210
0.0
220
0.0
230
1.0
 70
    12
 71
     3
 72
    15
 73
    11
 74
     0
 42
0.000000001
 43
0.0000000001
 40
9.708353346872203
 40
9.708353346872203
 40
9.708353346872203
 40
9.708353346872203
 40
9.726555974281043
 40
9.726555974281043
 40
9.752360128296287
 40
9.752360128296287
 40
9.806875865802084
 40
9.806875865802084
 40
9.806875865802084
 40
9.907593862417993
 40
9.907593862417993
 40
9.907593862417993
 40
9.907593862417993
 10
10.31249999999998
 20
1.4829004113711
 30
0.0
 41
1.0
 10
10.31302170723697
 20
1.477214065983222
 30
0.0
 41
1.0
 10
10.31406512171093
 20
1.465841375207462
 30
0.0
 41
1.0
 10
10.31605979317155
 20
1.45219531706807
 30
0.0
 41
1.0
 10
10.31830131760146
 20
1.444403635308613
 30
0.0
 41
1.0
 10
10.32756197015769
 20
1.421011703332101
 30
0.0
 41
1.0
 10
10.33703455517451
 20
1.406589160899938
 30
0.0
 41
1.0
 10
10.34911165235167
 20
1.394512063722782
 30
0.0
 41
1.0
 10
10.37351942058612
 20
1.370104295488328
 30
0.0
 41
0.9999999999999999
 10
10.40484951562952
 20
1.357900411371101
 30
0.0
 41
1.057190958417937
 10
10.43749999999999
 20
1.357900411371101
 30
0.0
 41
1.17157287525381
  0
LINE
  5
EA
330
1F
100
AcDbEntity
  8
Default
 62
    18
420
        0
370
    -3
100
AcDbLine
 10
10.43749999999999
 20
1.357900411371101
 30
0.0
 11
10.43749999999998
 21
3.292090000000001
 31
0.0
  0
LINE
  5
EB
330
1F
100
AcDbEntity
  8
Default
 62
    18
420
        0
370
    -3
100
AcDbLine
 10
10.43749999999998
 20
3.292090000000001
 30
0.0
 11
11.68749999999998
 21
3.292090000000001
 31
0.0
  0
LINE
  5
EC
330
1F
100
AcDbEntity
  8
Default
 62
    18
420
        0
370
    -3
100
AcDbLine
 10
11.68749999999998
 20
3.292090000000001
 30
0.0
 11
11.68749999999999
 21
1.3579004113711
 31
0.0
  0
SPLINE
  5
ED
330
1F
100
AcDbEntity
  8
Default
 62
    18
420
        0
370
    -3
100
AcDbSpline
210
0.0
220
0.0
230
1.0
 70
    12
 71
     3
 72
    17
 73
    13
 74
     0
 42
0.000000001
 43
0.0000000001
 40
2.74889356992287
 40
2.74889356992287
 40
2.74889356992287
 40
2.74889356992287
 40
2.772426750880728
 40
2.772426750880728
 40
2.788647587029363
 40
2.788647587029363
 40
2.839202680810273
 40
2.839202680810273
 40
2.946009058594447
 40
2.946009058594447
 40
2.946009058594447
 40
3.147445051826271
 40
3.147445051826271
 40
3.147445051826271
 40
3.147445051826271
 10
10.56249999999999
 20
0.2500000006265002
 30
0.0
 41
1.0
 10
10.56295435925254
 20
0.2424774695588097
 30
0.0
 41
1.0
 10
10.56386307775764
 20
0.227432408676429
 30
0.0
 41
1.0
 10
10.56494265466678
 20
0.2147530988226736
 30
0.0
 41
1.0
 10
10.56572844309996
 20
0.209617058351764
 30
0.0
 41
1.0
 10
10.5696195863431
 20
0.1885898113940252
 30
0.0
 41
1.0
 10
10.57410263520294
 20
0.1730064478749824
 30
0.0
 41
1.0
 10
10.5926239403154
 20
0.1262225839219511
 30
0.0
 41
1.0
 10
10.611569110349
 20
0.0973774990577168
 30
0.0
 41
1.0
 10
10.63572330470335
 20
0.0732233047033635
 30
0.0
 41
1.0
 10
10.68453884117226
 20
0.0244077682344539
 30
0.0
 41
0.9999999999999998
 10
10.74719903125905
 20
0.0000000000000008
 30
0.0
 41
1.057190958417937
 10
10.81249999999998
 20
0.0000000000000008
 30
0.0
 41
1.17157287525381
  0
SPLINE
  5
EE
330
1F
100
AcDbEntity
  8
Default
 62
    18
420
        0
370
    -3
100
AcDbSpline
210
0.0
220
0.0
230
1.0
 70
    28
 71
     2
 72
     6
 73
     3
 74
     0
 42
0.000000001
 43
0.0000000001
 40
3.147445051826271
 40
3.147445051826271
 40
3.147445051826271
 40
3.647445051826266
 40
3.647445051826266
 40
3.647445051826266
 10
10.81249999999998
 20
0.0000000000000008
 30
0.0
 41
1.0
 10
11.06249999999998
 20
0.0000000000000009
 30
0.0
 41
1.0
 10
11.31249999999998
 20
0.0000000000000009
 30
0.0
 41
1.0
  0
SPLINE
  5
EF
330
1F
100
AcDbEntity
  8
Default
 62
    18
420
        0
370
    -3
100
AcDbSpline
210
0.0
220
0.0
230
1.0
 70
    12
 71
     3
 72
    17
 73
    13
 74
     0
 42
0.000000001
 43
0.0000000001
 40
3.647445051826266
 40
3.647445051826266
 40
3.647445051826266
 40
3.647445051826266
 40
3.848881045058092
 40
3.848881045058092
 40
3.848881045058092
 40
3.955687422842317
 40
3.955687422842317
 40
4.006242516623281
 40
4.006242516623281
 40
4.022463352771799
 40
4.022463352771799
 40
4.045996533729666
 40
4.045996533729666
 40
4.045996533729666
 40
4.045996533729666
 10
11.31249999999998
 20
0.0000000000000009
 30
0.0
 41
0.9979808843196798
 10
11.37780096874092
 20
0.000000000000001
 30
0.0
 41
0.9005469398121176
 10
11.44046115882771
 20
0.024407768234456
 30
0.0
 41
0.8518299675583364
 10
11.48927669529662
 20
0.0732233047033647
 30
0.0
 41
0.8518299675583364
 10
11.51343088965096
 20
0.0973774990577077
 30
0.0
 41
0.8518299675583364
 10
11.53237605968457
 20
0.1262225839219631
 30
0.0
 41
0.8518299675583364
 10
11.55089736479703
 20
0.1730064478749865
 30
0.0
 41
0.8518299675583364
 10
11.55538041365686
 20
0.1885898113940144
 30
0.0
 41
0.8518299675583364
 10
11.5592715569
 20
0.2096170583517256
 30
0.0
 41
0.8518299675583364
 10
11.5600573453332
 20
0.2147530988227138
 30
0.0
 41
0.8518299675583364
 10
11.56113692224232
 20
0.2274324086764295
 30
0.0
 41
0.8518299675583364
 10
11.56204564074743
 20
0.2424774695588101
 30
0.0
 41
0.8518299675583364
 10
11.56249999999998
 20
0.2500000006270004
 30
0.0
 41
0.8518299675583364
  0
LINE
  5
F0
330
1F
100
AcDbEntity
  8
Default
 62
    18
420
        0
370
    -3
100
AcDbLine
 10
11.56249999999998
 20
0.2500000006270005
 30
0.0
 11
11.56249999999998
 21
3.29209
 31
0.0
  0
LINE
  5
F1
330
1F
100
AcDbEntity
  8
Default
 62
    18
420
        0
370
    -3
100
AcDbLine
 10
11.56249999999998
 20
3.29209
 30
0.0
 11
10.56249999999999
 21
3.292090000000001
 31
0.0
  0
LINE
  5
F2
330
1F
100
AcDbEntity
  8
Default
 62
    18
420
        0
370
    -3
100
AcDbLine
 10
10.56249999999999
 20
3.292090000000001
 30
0.0
 11
10.56249999999999
 21
0.2500000006265002
 31
0.0
  0
LINE
  5
F3
330
1F
100
AcDbEntity
  8
Default
 62
    18
420
        0
370
    -3
100
AcDbLine
 10
10.62499999999998
 20
8.709067031050001
 30
0.0
 11
10.62499999999998
 21
7.002000000195305
 31
0.0
  0
LINE
  5
F4
330
1F
100
AcDbEntity
  8
Default
 62
    18
420
        0
370
    -3
100
AcDbLine
 10
11.50000000000065
 20
4.73
 30
0.0
 11
11.49999999999998
 21
11.02291835189963
 31
0.0
  0
SPLINE
  5
F5
330
1F
100
AcDbEntity
  8
Default
 62
    18
420
        0
370
    -3
100
AcDbSpline
210
0.0
220
0.0
230
1.0
 70
     8
 71
     3
 72
     8
 73
     4
 74
     0
 42
0.000000001
 43
0.0000000001
 40
4.085828715216682
 40
4.085828715216682
 40
4.085828715216682
 40
4.085828715216682
 40
5.375125564309807
 40
5.375125564309807
 40
5.375125564309807
 40
5.375125564309807
 10
11.49999999999998
 20
11.02291835189963
 30
0.0
 10
11.49999999999998
 20
11.18026860253508
 30
0.0
 10
11.49999999999998
 20
11.26189250225327
 30
0.0
 10
11.50004555271967
 20
11.26162913477171
 30
0.0
  0
ARC
  5
F6
330
1F
100
AcDbEntity
  8
Default
 62
    18
420
        0
370
    -3
100
AcDbCircle
 10
11.06252308906027
 20
11.26088936841586
 30
0.0
 40
0.4375230890602868
100
AcDbArc
 50
0.096876053565167
 51
180.0
  0
LINE
  5
F7
330
1F
100
AcDbEntity
  8
Default
 62
    18
420
        0
370
    -3
100
AcDbLine
 10
10.62499999999998
 20
11.26088936841586
 30
0.0
 11
10.62499999999999
 21
9.56906703105
 31
0.0
  0
SPLINE
  5
F8
330
1F
100
AcDbEntity
  8
Default
 62
    18
420
        0
370
    -3
100
AcDbSpline
210
0.0
220
0.0
230
1.0
 70
    28
 71
     2
 72
     6
 73
     3
 74
     0
 42
0.000000001
 43
0.0000000001
 40
4.374587169880417
 40
4.374587169880417
 40
4.374587169880417
 40
25.625
 40
25.625
 40
25.625
 10
10.62520641505979
 20
8.709067031050001
 30
0.0
 41
1.0
 10
0.0001032075299028
 20
8.709067031050001
 30
0.0
 41
1.0
 10
-10.62499999999999
 20
8.709067031050001
 30
0.0
 41
1.0
  0
SPLINE
  5
F9
330
1F
100
AcDbEntity
  8
Default
 62
    18
420
        0
370
    -3
100
AcDbSpline
210
0.0
220
0.0
230
1.0
 70
     8
 71
     3
 72
    16
 73
    12
 74
     0
 42
0.000000001
 43
0.0000000001
 40
25.625
 40
25.625
 40
25.625
 40
25.625
 40
26.625
 40
27.625
 40
28.625
 40
29.625
 40
30.625
 40
31.625
 40
32.625
 40
33.625
 40
34.625
 40
34.625
 40
34.625
 40
34.625
 10
-10.62499999999999
 20
8.709067031050001
 30
0.0
 10
-10.63041224185048
 20
8.751396909889168
 30
0.0
 10
-10.67248833223593
 20
8.825659403961948
 30
0.0
 10
-10.7408805828472
 20
8.930625058256249
 30
0.0
 10
-10.81681175169394
 20
9.031418836266683
 30
0.0
 10
-10.88966292760521
 20
9.131944046351022
 30
0.0
 10
-10.97876982056737
 20
9.2287505567241
 30
0.0
 10
-10.97817617072166
 20
9.36106174744431
 30
0.0
 10
-10.87636385335287
 20
9.447881200884183
 30
0.0
 10
-10.78234289023025
 20
9.525655153643918
 30
0.0
 10
-10.7070271123027
 20
9.565944307889485
 30
0.0
 10
-10.66558134411218
 20
9.569067031050002
 30
0.0
  0
SPLINE
  5
FA
330
1F
100
AcDbEntity
  8
Default
 62
    18
420
        0
370
    -3
100
AcDbSpline
210
0.0
220
0.0
230
1.0
 70
    28
 71
     2
 72
     6
 73
     3
 74
     0
 42
0.000000001
 43
0.0000000001
 40
34.625
 40
34.625
 40
34.625
 40
55.95616268822438
 40
55.95616268822438
 40
55.95616268822438
 10
-10.66558134411218
 20
9.569067031050002
 30
0.0
 41
1.0
 10
0.0000000000000071
 20
9.569067031050002
 30
0.0
 41
1.0
 10
10.66558134411219
 20
9.569067031050002
 30
0.0
 41
1.0
  0
SPLINE
  5
FB
330
1F
100
AcDbEntity
  8
Default
 62
    18
420
        0
370
    -3
100
AcDbSpline
210
0.0
220
0.0
230
1.0
 70
     8
 71
     3
 72
    16
 73
    12
 74
     0
 42
0.000000001
 43
0.0000000001
 40
55.95616268822438
 40
55.95616268822438
 40
55.95616268822438
 40
55.95616268822438
 40
56.95618543716508
 40
57.95620818610578
 40
58.95623093504649
 40
59.95625368398719
 40
60.95627643292789
 40
61.9562991818686
 40
62.9563219308093
 40
63.95634467975
 40
64.95616268822438
 40
64.95616268822438
 40
64.95616268822438
 40
64.95616268822438
 10
10.66558134411219
 20
9.569067031050002
 30
0.0
 10
10.7070271123027
 20
9.565944307889485
 30
0.0
 10
10.78234289023025
 20
9.525655153643918
 30
0.0
 10
10.87636385335287
 20
9.447881200884183
 30
0.0
 10
10.97817617072166
 20
9.36106174744431
 30
0.0
 10
10.97876982056737
 20
9.2287505567241
 30
0.0
 10
10.88966292760521
 20
9.131944046351022
 30
0.0
 10
10.81681175169394
 20
9.031418836266683
 30
0.0
 10
10.7408805828472
 20
8.930625058256249
 30
0.0
 10
10.67249299968351
 20
8.825666567371325
 30
0.0
 10
10.63042085636975
 20
8.751412114036048
 30
0.0
 10
10.62520641505979
 20
8.709067031050001
 30
0.0
  0
SPLINE
  5
FC
330
1F
100
AcDbEntity
  8
Default
 62
    18
420
        0
370
    -3
100
AcDbSpline
210
0.0
220
0.0
230
1.0
 70
    28
 71
     2
 72
     6
 73
     3
 74
     0
 42
0.000000001
 43
0.0000000001
 40
0.0
 40
0.0
 40
0.0
 40
21.25
 40
21.25
 40
21.25
 10
10.625
 20
6.141999999999998
 30
0.0
 41
1.0
 10
0.000000000000008
 20
6.141999999999998
 30
0.0
 41
1.0
 10
-10.62499999999998
 20
6.141999999999998
 30
0.0
 41
1.0
  0
SPLINE
  5
FD
330
1F
100
AcDbEntity
  8
Default
 62
    18
420
        0
370
    -3
100
AcDbSpline
210
0.0
220
0.0
230
1.0
 70
     8
 71
     3
 72
    16
 73
    12
 74
     0
 42
0.000000001
 43
0.0000000001
 40
21.25
 40
21.25
 40
21.25
 40
21.25
 40
22.25
 40
23.25
 40
24.25
 40
25.25
 40
26.25
 40
27.25
 40
28.25
 40
29.25
 40
30.25
 40
30.25
 40
30.25
 40
30.25
 10
-10.62499999999998
 20
6.141999999999998
 30
0.0
 10
-10.65439357395581
 20
6.171838931382237
 30
0.0
 10
-10.71266447898345
 20
6.231727474397156
 30
0.0
 10
-10.80105855926853
 20
6.321698640853548
 30
0.0
 10
-10.88311480072363
 20
6.414305064422422
 30
0.0
 10
-10.97848008696871
 20
6.506634291716928
 30
0.0
 10
-10.97848007552469
 20
6.637365719343753
 30
0.0
 10
-10.88311480571024
 20
6.729694930480286
 30
0.0
 10
-10.8010585568241
 20
6.822301361676527
 30
0.0
 10
-10.71266447816604
 20
6.91227252646123
 30
0.0
 10
-10.65439356739964
 20
6.972161075301075
 30
0.0
 10
-10.62499999999998
 20
7.001999999999999
 30
0.0
  0
SPLINE
  5
FE
330
1F
100
AcDbEntity
  8
Default
 62
    18
420
        0
370
    -3
100
AcDbSpline
210
0.0
220
0.0
230
1.0
 70
    28
 71
     2
 72
     6
 73
     3
 74
     0
 42
0.000000001
 43
0.0000000001
 40
30.25
 40
30.25
 40
30.25
 40
51.5
 40
51.5
 40
51.5
 10
-10.62499999999998
 20
7.001999999999999
 30
0.0
 41
1.0
 10
0.000000000000016
 20
7.001999999999999
 30
0.0
 41
1.0
 10
10.62500000000001
 20
7.002
 30
0.0
 41
1.0
  0
SPLINE
  5
FF
330
1F
100
AcDbEntity
  8
Default
 62
    18
420
        0
370
    -3
100
AcDbSpline
210
0.0
220
0.0
230
1.0
 70
     8
 71
     3
 72
    16
 73
    12
 74
     0
 42
0.000000001
 43
0.0000000001
 40
51.5
 40
51.5
 40
51.5
 40
51.5
 40
52.5
 40
53.5
 40
54.5
 40
55.5
 40
56.5
 40
57.5
 40
58.5
 40
59.5
 40
60.5
 40
60.5
 40
60.5
 40
60.5
 10
10.62499999999998
 20
7.001999999999997
 30
0.0
 10
10.65439356739964
 20
6.972161075301075
 30
0.0
 10
10.71266447816604
 20
6.91227252646123
 30
0.0
 10
10.8010585568241
 20
6.822301361676527
 30
0.0
 10
10.88311480571024
 20
6.729694930480286
 30
0.0
 10
10.97848007552469
 20
6.637365719343753
 30
0.0
 10
10.97848008696871
 20
6.506634291716928
 30
0.0
 10
10.88311480072363
 20
6.414305064422422
 30
0.0
 10
10.80105855926853
 20
6.321698640853548
 30
0.0
 10
10.71266447898345
 20
6.231727474397156
 30
0.0
 10
10.65439357395581
 20
6.171838931382237
 30
0.0
 10
10.625
 20
6.141999999999998
 30
0.0
  0
SPLINE
  5
100
330
1F
100
AcDbEntity
  8
Default
 62
    18
420
        0
370
    -3
100
AcDbSpline
210
0.0
220
0.0
230
1.0
 70
    12
 71
     2
 72
     6
 73
     3
 74
     0
 42
0.000000001
 43
0.0000000001
 40
4.605022401095828
 40
4.605022401095828
 40
4.605022401095828
 40
4.801371941945191
 40
4.801371941945191
 40
4.801371941945191
 10
23.71924168259839
 20
4.125
 30
0.0
 41
1.0
 10
23.71924168259838
 20
4.25
 30
0.0
 41
0.7071067811865476
 10
23.59424168259839
 20
4.25
 30
0.0
 41
1.0
  0
SPLINE
  5
101
330
1F
100
AcDbEntity
  8
Default
 62
    18
420
        0
370
    -3
100
AcDbSpline
210
0.0
220
0.0
230
1.0
 70
    24
 71
     2
 72
     6
 73
     3
 74
     0
 42
0.000000001
 43
0.0000000001
 40
4.801371941945191
 40
4.801371941945191
 40
4.801371941945191
 40
6.676371941945191
 40
6.676371941945191
 40
6.676371941945191
 10
23.59424168259839
 20
4.25
 30
0.0
 10
22.65674168259839
 20
4.25
 30
0.0
 10
21.71924168259839
 20
4.25
 30
0.0
  0
SPLINE
  5
102
330
1F
100
AcDbEntity
  8
Default
 62
    18
420
        0
370
    -3
100
AcDbSpline
210
0.0
220
0.0
230
1.0
 70
    12
 71
     2
 72
     6
 73
     3
 74
     0
 42
0.000000001
 43
0.0000000001
 40
6.676371941945191
 40
6.676371941945191
 40
6.676371941945191
 40
10.01431413638435
 40
10.01431413638435
 40
10.01431413638435
 10
21.71924168259839
 20
4.25
 30
0.0
 41
1.0
 10
19.46924168259837
 20
4.25
 30
0.0
 41
0.7071067811865476
 10
19.46924168259839
 20
2.0
 30
0.0
 41
1.0
  0
LINE
  5
103
330
1F
100
AcDbEntity
  8
Default
 62
    18
420
        0
370
    -3
100
AcDbLine
 10
19.46924168259839
 20
2.0
 30
0.0
 11
20.80001973799249
 21
2.0
 31
0.0
  0
SPLINE
  5
104
330
1F
100
AcDbEntity
  8
Default
 62
    18
420
        0
370
    -3
100
AcDbSpline
210
0.0
220
0.0
230
1.0
 70
    12
 71
     2
 72
     6
 73
     3
 74
     0
 42
0.000000001
 43
0.0000000001
 40
11.34509219177845
 40
11.34509219177845
 40
11.34509219177845
 40
11.75596077348336
 40
11.75596077348336
 40
11.75596077348336
 10
20.80001973799249
 20
2.0
 30
0.0
 41
1.0
 10
21.03536937486015
 20
2.0
 30
0.0
 41
0.8197995677621966
 10
21.11636322553518
 20
1.779026137910899
 30
0.0
 41
1.0
  0
SPLINE
  5
105
330
1F
100
AcDbEntity
  8
Default
 62
    18
420
        0
370
    -3
100
AcDbSpline
210
0.0
220
0.0
230
1.0
 70
    12
 71
     2
 72
     8
 73
     5
 74
     0
 42
0.000000001
 43
0.0000000001
 40
11.75596077348336
 40
11.75596077348336
 40
11.75596077348336
 40
12.29015293323924
 40
12.29015293323924
 40
12.82434509299511
 40
12.82434509299511
 40
12.82434509299511
 10
21.11636322553518
 20
1.779026137910899
 30
0.0
 41
1.0
 10
21.24186751426237
 20
1.436615360331525
 30
0.0
 41
0.8695394346886479
 10
21.6002360408119
 20
1.36902493001671
 30
0.0
 41
1.0
 10
21.95860456736144
 20
1.301434499701895
 30
0.0
 41
0.8695394346886479
 10
22.20021131788609
 20
1.5746059572013
 30
0.0
 41
1.0
  0
LINE
  5
106
330
1F
100
AcDbEntity
  8
Default
 62
    18
420
        0
370
    -3
100
AcDbLine
 10
22.20021131788609
 20
1.5746059572013
 30
0.0
 11
23.71924168259839
 21
3.29209
 31
0.0
  0
LINE
  5
107
330
1F
100
AcDbEntity
  8
Default
 62
    18
420
        0
370
    -3
100
AcDbLine
 10
23.71924168259839
 20
3.29209
 30
0.0
 11
23.71924168259839
 21
4.125
 31
0.0
  0
ARC
  5
108
330
1F
100
AcDbEntity
  8
Default
100
AcDbCircle
 10
21.71924168259838
 20
2.000000000000001
 30
0.0
 40
2.000000000000004
100
AcDbArc
 50
180.0
 51
29.78239410865999
  0
SPLINE
  5
109
330
1F
100
AcDbEntity
  8
Default
 62
    18
420
        0
370
    -3
100
AcDbSpline
210
0.0
220
0.0
230
1.0
 70
    24
 71
     2
 72
     6
 73
     3
 74
     0
 42
0.000000001
 43
0.0000000001
 40
2.356194490192345
 40
2.356194490192345
 40
2.356194490192345
 40
2.586194490192344
 40
2.586194490192344
 40
2.586194490192344
 10
23.96924168259839
 20
4.5
 30
0.0
 10
23.96924168259839
 20
4.615
 30
0.0
 10
23.96924168259839
 20
4.73
 30
0.0
  0
SPLINE
  5
10A
330
1F
100
AcDbEntity
  8
Default
 62
    18
420
        0
370
    -3
100
AcDbSpline
210
0.0
220
0.0
230
1.0
 70
    28
 71
     2
 72
     8
 73
     5
 74
     0
 42
0.000000001
 43
0.0000000001
 40
2.586194490192344
 40
2.586194490192344
 40
2.586194490192344
 40
3.764291735288517
 40
3.764291735288517
 40
4.942388980384689
 40
4.942388980384689
 40
4.942388980384689
 10
23.96924168259839
 20
4.73
 30
0.0
 41
1.0
 10
23.96924168259838
 20
4.73
 30
0.0
 41
0.7071067811865488
 10
23.21924168259838
 20
4.73
 30
0.0
 41
1.0
 10
22.46924168259838
 20
4.73
 30
0.0
 41
0.7071067811865488
 10
22.46924168259839
 20
4.73
 30
0.0
 41
1.0
  0
SPLINE
  5
10B
330
1F
100
AcDbEntity
  8
Default
 62
    18
420
        0
370
    -3
100
AcDbSpline
210
0.0
220
0.0
230
1.0
 70
    24
 71
     2
 72
     6
 73
     3
 74
     0
 42
0.000000001
 43
0.0000000001
 40
4.942388980384689
 40
4.942388980384689
 40
4.942388980384689
 40
5.172388980384689
 40
5.172388980384689
 40
5.172388980384689
 10
22.46924168259839
 20
4.73
 30
0.0
 10
22.46924168259839
 20
4.615
 30
0.0
 10
22.46924168259839
 20
4.5
 30
0.0
  0
SPLINE
  5
10C
330
1F
100
AcDbEntity
  8
Default
 62
    18
420
        0
370
    -3
100
AcDbSpline
210
0.0
220
0.0
230
1.0
 70
    28
 71
     2
 72
     8
 73
     5
 74
     0
 42
0.000000001
 43
0.0000000001
 40
5.172388980384689
 40
5.172388980384689
 40
5.172388980384689
 40
6.350486225480861
 40
6.350486225480861
 40
7.528583470577034
 40
7.528583470577034
 40
7.528583470577034
 10
22.46924168259839
 20
4.5
 30
0.0
 41
1.0
 10
22.46924168259838
 20
4.499999999999999
 30
0.0
 41
0.7071067811865476
 10
23.21924168259839
 20
4.5
 30
0.0
 41
1.0
 10
23.96924168259838
 20
4.499999999999999
 30
0.0
 41
0.7071067811865476
 10
23.96924168259839
 20
4.5
 30
0.0
 41
1.0
  0
LINE
  5
10D
330
1F
100
AcDbEntity
  8
Default
100
AcDbLine
 10
22.84424168259839
 20
4.25
 30
0.0
 11
23.59424168259839
 21
4.25
 31
0.0
  0
LINE
  5
10E
330
1F
100
AcDbEntity
  8
Default
100
AcDbLine
 10
23.59424168259839
 20
4.25
 30
0.0
 11
23.59424168259839
 21
4.5
 31
0.0
  0
LINE
  5
10F
330
1F
100
AcDbEntity
  8
Default
100
AcDbLine
 10
23.59424168259839
 20
4.5
 30
0.0
 11
22.84424168259839
 21
4.5
 31
0.0
  0
LINE
  5
110
330
1F
100
AcDbEntity
  8
Default
100
AcDbLine
 10
22.84424168259839
 20
4.5
 30
0.0
 11
22.84424168259839
 21
4.25
 31
0.0
  0
SPLINE
  5
111
330
1F
100
AcDbEntity
  8
Default
 62
    18
420
        0
370
    -3
100
AcDbSpline
210
0.0
220
0.0
230
1.0
 70
    24
 71
     3
 72
    10
 73
     6
 74
     0
 42
0.000000001
 43
0.0000000001
 40
0.8622132177587937
 40
0.8622132177587937
 40
0.8622132177587937
 40
0.8622132177587937
 40
1.288471169033764
 40
1.288471169033764
 40
1.724426435517583
 40
1.724426435517583
 40
1.724426435517583
 40
1.724426435517583
 10
50.46924168259839
 20
5.911629999999999
 30
0.0
 10
50.37395422141721
 20
5.816342538818822
 30
0.0
 10
50.27405348466087
 20
5.716441802062487
 30
0.0
 10
50.10613767323167
 20
5.548525990633292
 30
0.0
 10
50.03174168259831
 20
5.474130000000001
 30
0.0
 10
50.03174168259838
 20
5.474130000000001
 30
0.0
  0
SPLINE
  5
112
330
1F
100
AcDbEntity
  8
Default
 62
    18
420
        0
370
    -3
100
AcDbSpline
210
0.0
220
0.0
230
1.0
 70
    28
 71
     2
 72
     6
 73
     3
 74
     0
 42
0.000000001
 43
0.0000000001
 40
1.724426435517583
 40
1.724426435517583
 40
1.724426435517583
 40
28.09942643551758
 40
28.09942643551758
 40
28.09942643551758
 10
50.03174168259838
 20
5.474130000000001
 30
0.0
 41
1.0
 10
36.84424168259838
 20
5.474130000000001
 30
0.0
 41
1.0
 10
23.65674168259839
 20
5.474130000000001
 30
0.0
 41
1.0
  0
SPLINE
  5
113
330
1F
100
AcDbEntity
  8
Default
 62
    18
420
        0
370
    -3
100
AcDbSpline
210
0.0
220
0.0
230
1.0
 70
    24
 71
     3
 72
    10
 73
     6
 74
     0
 42
0.000000001
 43
0.0000000001
 40
28.09942643551758
 40
28.09942643551758
 40
28.09942643551758
 40
28.09942643551758
 40
28.53538170200774
 40
28.53538170200774
 40
28.96163965328754
 40
28.96163965328754
 40
28.96163965328754
 40
28.96163965328754
 10
23.65674168259839
 20
5.474130000000001
 30
0.0
 10
23.65674168260509
 20
5.474130000000001
 30
0.0
 10
23.58234569196855
 20
5.548525990629845
 30
0.0
 10
23.41442988053802
 20
5.716441802060368
 30
0.0
 10
23.31452914378051
 20
5.816342538817877
 30
0.0
 10
23.21924168259839
 20
5.911630000000002
 30
0.0
  0
SPLINE
  5
114
330
1F
100
AcDbEntity
  8
Default
 62
    18
420
        0
370
    -3
100
AcDbSpline
210
0.0
220
0.0
230
1.0
 70
    24
 71
     3
 72
    10
 73
     6
 74
     0
 42
0.000000001
 43
0.0000000001
 40
28.96163965328754
 40
28.96163965328754
 40
28.96163965328754
 40
28.96163965328754
 40
29.38789760456736
 40
29.38789760456736
 40
29.8238528710575
 40
29.8238528710575
 40
29.8238528710575
 40
29.8238528710575
 10
23.21924168259839
 20
5.911630000000002
 30
0.0
 10
23.31452914378051
 20
6.006917461182124
 30
0.0
 10
23.41442988053802
 20
6.106818197939635
 30
0.0
 10
23.58234569196853
 20
6.274734009370157
 30
0.0
 10
23.65674168260509
 20
6.349130000000002
 30
0.0
 10
23.65674168259839
 20
6.349130000000002
 30
0.0
  0
SPLINE
  5
115
330
1F
100
AcDbEntity
  8
Default
 62
    18
420
        0
370
    -3
100
AcDbSpline
210
0.0
220
0.0
230
1.0
 70
    28
 71
     2
 72
     6
 73
     3
 74
     0
 42
0.000000001
 43
0.0000000001
 40
29.8238528710575
 40
29.8238528710575
 40
29.8238528710575
 40
56.19885287105749
 40
56.19885287105749
 40
56.19885287105749
 10
23.65674168259839
 20
6.349130000000002
 30
0.0
 41
1.0
 10
36.84424168259838
 20
6.349130000000002
 30
0.0
 41
1.0
 10
50.03174168259837
 20
6.349130000000001
 30
0.0
 41
1.0
  0
SPLINE
  5
116
330
1F
100
AcDbEntity
  8
Default
 62
    18
420
        0
370
    -3
100
AcDbSpline
210
0.0
220
0.0
230
1.0
 70
    24
 71
     3
 72
    10
 73
     6
 74
     0
 42
0.000000001
 43
0.0000000001
 40
56.19885287105749
 40
56.19885287105749
 40
56.19885287105749
 40
56.19885287105749
 40
56.63480813754128
 40
56.63480813754128
 40
57.06106608881628
 40
57.06106608881628
 40
57.06106608881628
 40
57.06106608881628
 10
50.03174168259838
 20
6.349130000000002
 30
0.0
 10
50.03174168259831
 20
6.349130000000001
 30
0.0
 10
50.10613767323168
 20
6.274734009366704
 30
0.0
 10
50.27405348466088
 20
6.106818197937511
 30
0.0
 10
50.3739542214172
 20
6.006917461181178
 30
0.0
 10
50.46924168259839
 20
5.911629999999999
 30
0.0
  0
LINE
  5
117
330
1F
100
AcDbEntity
  8
Default
100
AcDbLine
 10
28.4978615174209
 20
9.507485902037391
 30
0.0
 11
28.68305308128249
 21
9.53681736423243
 31
0.0
  0
LINE
  5
118
330
1F
100
AcDbEntity
  8
Default
100
AcDbLine
 10
28.68305308128249
 20
9.53681736423243
 30
0.0
 11
28.52661861624228
 21
10.52450570482757
 31
0.0
  0
LINE
  5
119
330
1F
100
AcDbEntity
  8
Default
100
AcDbLine
 10
28.52661861624228
 20
10.52450570482757
 30
0.0
 11
28.34142705238069
 21
10.49517424263253
 31
0.0
  0
LINE
  5
11A
330
1F
100
AcDbEntity
  8
Default
100
AcDbLine
 10
28.34142705238069
 20
10.49517424263253
 30
0.0
 11
28.4978615174209
 21
9.507485902037391
 31
0.0
  0
LINE
  5
11B
330
1F
100
AcDbEntity
  8
Default
100
AcDbLine
 10
28.54524168259838
 20
6.675975249582
 30
0.0
 11
28.73274168259838
 21
6.675975249582
 31
0.0
  0
LINE
  5
11C
330
1F
100
AcDbEntity
  8
Default
100
AcDbLine
 10
28.73274168259838
 20
6.675975249582
 30
0.0
 11
28.73274168259838
 21
7.675975249582
 31
0.0
  0
LINE
  5
11D
330
1F
100
AcDbEntity
  8
Default
100
AcDbLine
 10
28.73274168259838
 20
7.675975249582
 30
0.0
 11
28.54524168259838
 21
7.675975249582
 31
0.0
  0
LINE
  5
11E
330
1F
100
AcDbEntity
  8
Default
100
AcDbLine
 10
28.54524168259838
 20
7.675975249582
 30
0.0
 11
28.54524168259838
 21
6.675975249582
 31
0.0
  0
LINE
  5
11F
330
1F
100
AcDbEntity
  8
Default
 62
    18
420
        0
370
    -3
100
AcDbLine
 10
29.97188204423826
 20
5.474130000000008
 30
0.0
 11
28.54524168259847
 21
5.17088822999046
 31
0.0
  0
LINE
  5
120
330
1F
100
AcDbEntity
  8
Default
 62
    18
420
        0
370
    -3
100
AcDbLine
 10
28.54524168259847
 20
5.17088822999046
 30
0.0
 11
28.54524168259849
 21
5.474130000000001
 31
0.0
  0
SPLINE
  5
121
330
1F
100
AcDbEntity
  8
Default
 62
    18
420
        0
370
    -3
100
AcDbSpline
210
0.0
220
0.0
230
1.0
 70
    24
 71
     2
 72
     6
 73
     3
 74
     0
 42
0.000000001
 43
0.0000000001
 40
19.68588340730584
 40
19.68588340730584
 40
19.68588340730584
 40
22.01084346952896
 40
22.01084346952896
 40
22.01084346952896
 10
30.87347812742772
 20
5.474081301921118
 30
0.0
 10
29.73640107409506
 20
5.232388113110559
 30
0.0
 10
28.59932402076239
 20
4.990694924299999
 30
0.0
  0
SPLINE
  5
122
330
1F
100
AcDbEntity
  8
Default
 62
    18
420
        0
370
    -3
100
AcDbSpline
210
0.0
220
0.0
230
1.0
 70
    12
 71
     2
 72
     8
 73
     5
 74
     0
 42
0.000000001
 43
0.0000000001
 40
22.01084346952896
 40
22.01084346952896
 40
22.01084346952896
 40
22.18886705323263
 40
22.18886705323263
 40
22.3668906369363
 40
22.3668906369363
 40
22.3668906369363
 10
28.59932402076239
 20
4.990694924299999
 30
0.0
 41
1.0
 10
28.50601352617877
 20
4.970861166403556
 30
0.0
 41
0.9025852843498365
 10
28.43187760438862
 20
5.030895252155394
 30
0.0
 41
1.0
 10
28.35774168259848
 20
5.090929337907233
 30
0.0
 41
0.9025852843498365
 10
28.35774168259849
 20
5.186324444446999
 30
0.0
 41
1.0
  0
SPLINE
  5
123
330
1F
100
AcDbEntity
  8
Default
 62
    18
420
        0
370
    -3
100
AcDbSpline
210
0.0
220
0.0
230
1.0
 70
    24
 71
     2
 72
     6
 73
     3
 74
     0
 42
0.000000001
 43
0.0000000001
 40
22.3668906369363
 40
22.3668906369363
 40
22.3668906369363
 40
22.6546961924893
 40
22.6546961924893
 40
22.6546961924893
 10
28.35774168259849
 20
5.186324444446999
 30
0.0
 10
28.35774168259849
 20
5.330227222223501
 30
0.0
 10
28.35774168259849
 20
5.474130000000001
 30
0.0
  0
SPLINE
  5
124
330
1F
100
AcDbEntity
  8
Default
 62
    18
420
        0
370
    -3
100
AcDbSpline
210
0.0
220
0.0
230
1.0
 70
    24
 71
     2
 72
     6
 73
     3
 74
     0
 42
0.000000001
 43
0.0000000001
 40
1.162805555553001
 40
1.162805555553001
 40
1.162805555553001
 40
3.864650805133
 40
3.864650805133
 40
3.864650805133
 10
28.35774168259849
 20
6.34913
 30
0.0
 10
28.35774168259849
 20
7.700052624790001
 30
0.0
 10
28.35774168259849
 20
9.05097524958
 30
0.0
  0
SPLINE
  5
125
330
1F
100
AcDbEntity
  8
Default
 62
    18
420
        0
370
    -3
100
AcDbSpline
210
0.0
220
0.0
230
1.0
 70
    12
 71
     2
 72
     6
 73
     3
 74
     0
 42
0.000000001
 43
0.0000000001
 40
3.864650805133
 40
3.864650805133
 40
3.864650805133
 40
4.149279099545343
 40
4.149279099545343
 40
4.149279099545343
 10
28.35774168259849
 20
9.05097524958
 30
0.0
 41
1.0
 10
28.35774168259838
 20
9.193582742344761
 30
0.0
 41
0.9969173337331237
 10
28.33543295575689
 20
9.33443450023
 30
0.0
 41
1.0
  0
SPLINE
  5
126
330
1F
100
AcDbEntity
  8
Default
 62
    18
420
        0
370
    -3
100
AcDbSpline
210
0.0
220
0.0
230
1.0
 70
    24
 71
     2
 72
     6
 73
     3
 74
     0
 42
0.000000001
 43
0.0000000001
 40
4.149279099545343
 40
4.149279099545343
 40
4.149279099545343
 40
5.657543841105611
 40
5.657543841105611
 40
5.657543841105611
 10
28.33543295575689
 20
9.33443450023
 30
0.0
 10
28.21746066176495
 20
10.079282250115
 30
0.0
 10
28.09948836777302
 20
10.82413
 30
0.0
  0
SPLINE
  5
127
330
1F
100
AcDbEntity
  8
Default
 62
    18
420
        0
370
    -3
100
AcDbSpline
210
0.0
220
0.0
230
1.0
 70
    24
 71
     2
 72
     6
 73
     3
 74
     0
 42
0.000000001
 43
0.0000000001
 40
0.5419437677349402
 40
0.5419437677349402
 40
0.5419437677349402
 40
2.020511426729527
 40
2.020511426729527
 40
2.020511426729527
 10
28.28932557885788
 20
10.82413
 30
0.0
 10
28.40497504923819
 20
10.093947981215
 30
0.0
 10
28.52062451961849
 20
9.363765962429998
 30
0.0
  0
SPLINE
  5
128
330
1F
100
AcDbEntity
  8
Default
 62
    18
420
        0
370
    -3
100
AcDbSpline
210
0.0
220
0.0
230
1.0
 70
    12
 71
     2
 72
     6
 73
     3
 74
     0
 42
0.000000001
 43
0.0000000001
 40
2.020511426729527
 40
2.020511426729527
 40
2.020511426729527
 40
2.334592152274208
 40
2.334592152274208
 40
2.334592152274208
 10
28.52062451961849
 20
9.363765962429998
 30
0.0
 41
1.0
 10
28.54524168259839
 20
9.208339312376838
 30
0.0
 41
0.9969173337332248
 10
28.54524168259849
 20
9.05097524958
 30
0.0
 41
1.0
  0
SPLINE
  5
129
330
1F
100
AcDbEntity
  8
Default
 62
    18
420
        0
370
    -3
100
AcDbSpline
210
0.0
220
0.0
230
1.0
 70
    24
 71
     2
 72
     6
 73
     3
 74
     0
 42
0.000000001
 43
0.0000000001
 40
2.334592152274208
 40
2.334592152274208
 40
2.334592152274208
 40
5.036437401854207
 40
5.036437401854207
 40
5.036437401854207
 10
28.54524168259849
 20
9.05097524958
 30
0.0
 10
28.54524168259849
 20
7.700052624790001
 30
0.0
 10
28.54524168259849
 20
6.349130000000001
 30
0.0
  0
LINE
  5
12A
330
1F
100
AcDbEntity
  8
Default
 62
    18
420
        0
370
    -3
100
AcDbLine
 10
28.54524168259848
 20
9.05097524958
 30
0.0
 11
30.42074168259838
 21
9.05097524958
 31
0.0
  0
SPLINE
  5
12B
330
1F
100
AcDbEntity
  8
Default
 62
    18
420
        0
370
    -3
100
AcDbSpline
210
0.0
220
0.0
230
1.0
 70
    12
 71
     2
 72
     6
 73
     3
 74
     0
 42
0.000000001
 43
0.0000000001
 40
1.7505
 40
1.7505
 40
1.7505
 40
2.143199081698724
 40
2.143199081698724
 40
2.143199081698724
 10
30.42074168259838
 20
9.05097524958
 30
0.0
 41
1.0
 10
30.67074168259837
 20
9.05097524958
 30
0.0
 41
0.7071067811865476
 10
30.67074168259838
 20
8.80097524958
 30
0.0
 41
1.0
  0
SPLINE
  5
12C
330
1F
100
AcDbEntity
  8
Default
 62
    18
420
        0
370
    -3
100
AcDbSpline
210
0.0
220
0.0
230
1.0
 70
    24
 71
     2
 72
     6
 73
     3
 74
     0
 42
0.000000001
 43
0.0000000001
 40
2.143199081698724
 40
2.143199081698724
 40
2.143199081698724
 40
4.595044331278722
 40
4.595044331278722
 40
4.595044331278722
 10
30.67074168259838
 20
8.80097524958
 30
0.0
 10
30.67074168259838
 20
7.575052624790001
 30
0.0
 10
30.67074168259838
 20
6.349130000000001
 30
0.0
  0
SPLINE
  5
12D
330
1F
100
AcDbEntity
  8
Default
 62
    18
420
        0
370
    -3
100
AcDbSpline
210
0.0
220
0.0
230
1.0
 70
    12
 71
     2
 72
     6
 73
     3
 74
     0
 42
0.000000001
 43
0.0000000001
 40
4.605022401095828
 40
4.605022401095828
 40
4.605022401095828
 40
4.801371941945191
 40
4.801371941945191
 40
4.801371941945191
 10
50.96924168259839
 20
4.125
 30
0.0
 41
1.0
 10
50.96924168259839
 20
4.25
 30
0.0
 41
0.7071067811865476
 10
50.84424168259839
 20
4.25
 30
0.0
 41
1.0
  0
SPLINE
  5
12E
330
1F
100
AcDbEntity
  8
Default
 62
    18
420
        0
370
    -3
100
AcDbSpline
210
0.0
220
0.0
230
1.0
 70
    24
 71
     2
 72
     6
 73
     3
 74
     0
 42
0.000000001
 43
0.0000000001
 40
4.801371941945191
 40
4.801371941945191
 40
4.801371941945191
 40
6.676371941945191
 40
6.676371941945191
 40
6.676371941945191
 10
50.84424168259839
 20
4.25
 30
0.0
 10
49.90674168259839
 20
4.25
 30
0.0
 10
48.96924168259839
 20
4.25
 30
0.0
  0
SPLINE
  5
12F
330
1F
100
AcDbEntity
  8
Default
 62
    18
420
        0
370
    -3
100
AcDbSpline
210
0.0
220
0.0
230
1.0
 70
    12
 71
     2
 72
     6
 73
     3
 74
     0
 42
0.000000001
 43
0.0000000001
 40
6.676371941945191
 40
6.676371941945191
 40
6.676371941945191
 40
10.01431413638435
 40
10.01431413638435
 40
10.01431413638435
 10
48.96924168259839
 20
4.25
 30
0.0
 41
1.0
 10
46.71924168259839
 20
4.25
 30
0.0
 41
0.7071067811865476
 10
46.71924168259839
 20
2.0
 30
0.0
 41
1.0
  0
LINE
  5
130
330
1F
100
AcDbEntity
  8
Default
 62
    18
420
        0
370
    -3
100
AcDbLine
 10
46.71924168259839
 20
2.0
 30
0.0
 11
48.0500197379925
 21
2.0
 31
0.0
  0
SPLINE
  5
131
330
1F
100
AcDbEntity
  8
Default
 62
    18
420
        0
370
    -3
100
AcDbSpline
210
0.0
220
0.0
230
1.0
 70
    12
 71
     2
 72
     6
 73
     3
 74
     0
 42
0.000000001
 43
0.0000000001
 40
11.34509219177845
 40
11.34509219177845
 40
11.34509219177845
 40
11.75596077348336
 40
11.75596077348336
 40
11.75596077348336
 10
48.0500197379925
 20
2.0
 30
0.0
 41
1.0
 10
48.28536937486016
 20
2.0
 30
0.0
 41
0.8197995677621966
 10
48.3663632255352
 20
1.779026137910899
 30
0.0
 41
1.0
  0
SPLINE
  5
132
330
1F
100
AcDbEntity
  8
Default
 62
    18
420
        0
370
    -3
100
AcDbSpline
210
0.0
220
0.0
230
1.0
 70
    12
 71
     2
 72
     8
 73
     5
 74
     0
 42
0.000000001
 43
0.0000000001
 40
11.75596077348336
 40
11.75596077348336
 40
11.75596077348336
 40
12.29015293323924
 40
12.29015293323924
 40
12.82434509299511
 40
12.82434509299511
 40
12.82434509299511
 10
48.3663632255352
 20
1.779026137910899
 30
0.0
 41
1.0
 10
48.49186751426238
 20
1.436615360331525
 30
0.0
 41
0.8695394346886479
 10
48.85023604081191
 20
1.36902493001671
 30
0.0
 41
1.0
 10
49.20860456736145
 20
1.301434499701895
 30
0.0
 41
0.8695394346886479
 10
49.4502113178861
 20
1.5746059572013
 30
0.0
 41
1.0
  0
LINE
  5
133
330
1F
100
AcDbEntity
  8
Default
 62
    18
420
        0
370
    -3
100
AcDbLine
 10
49.4502113178861
 20
1.5746059572013
 30
0.0
 11
50.96924168259839
 21
3.29209
 31
0.0
  0
LINE
  5
134
330
1F
100
AcDbEntity
  8
Default
 62
    18
420
        0
370
    -3
100
AcDbLine
 10
50.96924168259839
 20
3.29209
 30
0.0
 11
50.96924168259839
 21
4.125
 31
0.0
  0
ARC
  5
135
330
1F
100
AcDbEntity
  8
Default
100
AcDbCircle
 10
48.96924168259839
 20
2.000000000000001
 30
0.0
 40
2.000000000000004
100
AcDbArc
 50
180.0
 51
29.78239410865999
  0
SPLINE
  5
136
330
1F
100
AcDbEntity
  8
Default
 62
    18
420
        0
370
    -3
100
AcDbSpline
210
0.0
220
0.0
230
1.0
 70
    24
 71
     2
 72
     6
 73
     3
 74
     0
 42
0.000000001
 43
0.0000000001
 40
2.356194490192345
 40
2.356194490192345
 40
2.356194490192345
 40
2.586194490192344
 40
2.586194490192344
 40
2.586194490192344
 10
51.21924168259839
 20
4.5
 30
0.0
 10
51.21924168259839
 20
4.615
 30
0.0
 10
51.21924168259839
 20
4.73
 30
0.0
  0
SPLINE
  5
137
330
1F
100
AcDbEntity
  8
Default
 62
    18
420
        0
370
    -3
100
AcDbSpline
210
0.0
220
0.0
230
1.0
 70
    28
 71
     2
 72
     8
 73
     5
 74
     0
 42
0.000000001
 43
0.0000000001
 40
2.586194490192344
 40
2.586194490192344
 40
2.586194490192344
 40
3.764291735288517
 40
3.764291735288517
 40
4.942388980384689
 40
4.942388980384689
 40
4.942388980384689
 10
51.21924168259839
 20
4.73
 30
0.0
 41
1.0
 10
51.2192416825984
 20
4.73
 30
0.0
 41
0.7071067811865488
 10
50.46924168259839
 20
4.73
 30
0.0
 41
1.0
 10
49.71924168259839
 20
4.73
 30
0.0
 41
0.7071067811865488
 10
49.71924168259839
 20
4.73
 30
0.0
 41
1.0
  0
SPLINE
  5
138
330
1F
100
AcDbEntity
  8
Default
 62
    18
420
        0
370
    -3
100
AcDbSpline
210
0.0
220
0.0
230
1.0
 70
    24
 71
     2
 72
     6
 73
     3
 74
     0
 42
0.000000001
 43
0.0000000001
 40
4.942388980384689
 40
4.942388980384689
 40
4.942388980384689
 40
5.172388980384689
 40
5.172388980384689
 40
5.172388980384689
 10
49.71924168259839
 20
4.73
 30
0.0
 10
49.71924168259839
 20
4.615
 30
0.0
 10
49.71924168259839
 20
4.5
 30
0.0
  0
SPLINE
  5
139
330
1F
100
AcDbEntity
  8
Default
 62
    18
420
        0
370
    -3
100
AcDbSpline
210
0.0
220
0.0
230
1.0
 70
    28
 71
     2
 72
     8
 73
     5
 74
     0
 42
0.000000001
 43
0.0000000001
 40
5.172388980384689
 40
5.172388980384689
 40
5.172388980384689
 40
6.350486225480861
 40
6.350486225480861
 40
7.528583470577034
 40
7.528583470577034
 40
7.528583470577034
 10
49.71924168259839
 20
4.5
 30
0.0
 41
1.0
 10
49.71924168259839
 20
4.499999999999999
 30
0.0
 41
0.7071067811865476
 10
50.46924168259839
 20
4.5
 30
0.0
 41
1.0
 10
51.21924168259839
 20
4.499999999999999
 30
0.0
 41
0.7071067811865476
 10
51.21924168259839
 20
4.5
 30
0.0
 41
1.0
  0
LINE
  5
13A
330
1F
100
AcDbEntity
  8
Default
100
AcDbLine
 10
50.09424168259839
 20
4.25
 30
0.0
 11
50.84424168259839
 21
4.25
 31
0.0
  0
LINE
  5
13B
330
1F
100
AcDbEntity
  8
Default
100
AcDbLine
 10
50.84424168259839
 20
4.25
 30
0.0
 11
50.84424168259839
 21
4.5
 31
0.0
  0
LINE
  5
13C
330
1F
100
AcDbEntity
  8
Default
100
AcDbLine
 10
50.84424168259839
 20
4.5
 30
0.0
 11
50.09424168259839
 21
4.5
 31
0.0
  0
LINE
  5
13D
330
1F
100
AcDbEntity
  8
Default
100
AcDbLine
 10
50.09424168259839
 20
4.5
 30
0.0
 11
50.09424168259839
 21
4.25
 31
0.0
  0
SPLINE
  5
13E
330
1F
100
AcDbEntity
  8
Default
 62
    18
420
        0
370
    -3
100
AcDbSpline
210
0.0
220
0.0
230
1.0
 70
    28
 71
     3
 72
     8
 73
     4
 74
     0
 42
0.000000001
 43
0.0000000001
 40
1.619130000000003
 40
1.619130000000003
 40
1.619130000000003
 40
1.619130000000003
 40
3.131629999999988
 40
3.131629999999988
 40
3.131629999999988
 40
3.131629999999988
 10
23.65674168259838
 20
6.349130000000001
 30
0.0
 41
0.999999999981491
 10
23.65674168259838
 20
6.853296666666662
 30
0.0
 41
0.999999999981491
 10
23.65674168259838
 20
7.357463333333323
 30
0.0
 41
0.999999999981491
 10
23.65674168259839
 20
7.861629999999988
 30
0.0
 41
0.999999999981491
  0
SPLINE
  5
13F
330
1F
100
AcDbEntity
  8
Default
 62
    18
420
        0
370
    -3
100
AcDbSpline
210
0.0
220
0.0
230
1.0
 70
    12
 71
     3
 72
    17
 73
    13
 74
     0
 42
0.000000001
 43
0.0000000001
 40
3.131629999999988
 40
3.131629999999988
 40
3.131629999999988
 40
3.131629999999988
 40
4.2550246709832
 40
4.2550246709832
 40
4.2550246709832
 40
5.473362999331695
 40
5.473362999331695
 40
5.473362999331695
 40
6.691711459815886
 40
6.691711459815886
 40
6.691711459815886
 40
7.815103377677948
 40
7.815103377677948
 40
7.815103377677948
 40
7.815103377677948
 10
23.65674168259839
 20
7.861629999999988
 30
0.0
 41
0.9999999999999969
 10
23.65651295902455
 20
8.2338767444748
 30
0.0
 41
0.9999999999999969
 10
23.72763378085165
 20
8.606075420274337
 30
0.0
 41
0.9999999999999964
 10
23.8647367546555
 20
8.952120017521946
 30
0.0
 41
0.9999999999999964
 10
24.01328926013394
 20
9.327062956410796
 30
0.0
 41
0.9999999999999964
 10
24.23930447587448
 20
9.6713011403266
 30
0.0
 41
0.9999999999999966
 10
24.52443503841187
 20
9.956431034339962
 30
0.0
 41
0.9999999999999964
 10
24.80956560094925
 20
10.24156092835332
 30
0.0
 41
0.9999999999999964
 10
25.15381151028347
 20
10.46758253246424
 30
0.0
 41
0.9999999999999962
 10
25.52875422406346
 20
10.61613606234099
 30
0.0
 41
0.9999999999999962
 10
25.87479861355222
 20
10.75323998158868
 30
0.0
 41
0.9999999999999964
 10
26.24699030939378
 20
10.82435717986871
 30
0.0
 41
0.9999999999999967
 10
26.61924168259848
 20
10.82413
 30
0.0
 41
0.9999999999999971
  0
SPLINE
  5
140
330
1F
100
AcDbEntity
  8
Default
 62
    18
420
        0
370
    -3
100
AcDbSpline
210
0.0
220
0.0
230
1.0
 70
    28
 71
     3
 72
     8
 73
     4
 74
     0
 42
0.000000001
 43
0.0000000001
 40
7.815103377677948
 40
7.815103377677948
 40
7.815103377677948
 40
7.815103377677948
 40
28.26510337767785
 40
28.26510337767785
 40
28.26510337767785
 40
28.26510337767785
 10
26.61924168259848
 20
10.82413
 30
0.0
 41
0.9999999999999967
 10
33.43590834926512
 20
10.82413
 30
0.0
 41
0.9999999999999969
 10
40.25257501593176
 20
10.82412999999999
 30
0.0
 41
0.9999999999999967
 10
47.06924168259839
 20
10.82413
 30
0.0
 41
0.9999999999999967
  0
SPLINE
  5
141
330
1F
100
AcDbEntity
  8
Default
 62
    18
420
        0
370
    -3
100
AcDbSpline
210
0.0
220
0.0
230
1.0
 70
    12
 71
     3
 72
    17
 73
    13
 74
     0
 42
0.000000001
 43
0.0000000001
 40
28.26510337767785
 40
28.26510337767785
 40
28.26510337767785
 40
28.26510337767785
 40
29.38849805868914
 40
29.38849805868914
 40
29.38849805868914
 40
30.60683639019729
 40
30.60683639019729
 40
30.60683639019729
 40
31.82518485001782
 40
31.82518485001782
 40
31.82518485001782
 40
32.94857675540367
 40
32.94857675540367
 40
32.94857675540367
 40
32.94857675540367
 10
47.06924168259839
 20
10.82413
 30
0.0
 41
1.0
 10
47.44148842605484
 20
10.8243587243898
 30
0.0
 41
1.0
 10
47.81368710911876
 20
10.75323790000299
 30
0.0
 41
1.0
 10
48.15973170928989
 20
10.61613492426548
 30
0.0
 41
1.0
 10
48.53467465134641
 20
10.46758241669189
 30
0.0
 41
1.0
 10
48.87891283333374
 20
10.24156719959118
 30
0.0
 41
1.0
 10
49.16404272592727
 20
9.956436635197665
 30
0.0
 41
1.0
 10
49.44917261852082
 20
9.671306070804153
 30
0.0
 41
1.0
 10
49.67519422172059
 20
9.327060159117847
 30
0.0
 41
1.0
 10
49.82374774948829
 20
8.952117447124923
 30
0.0
 41
1.0
 10
49.96085166678949
 20
8.60607305928547
 30
0.0
 41
0.9999999999999998
 10
50.03196886210266
 20
8.233881368618915
 30
0.0
 41
0.9999999999999997
 10
50.03174168259838
 20
7.861629999999998
 30
0.0
 41
1.0
  0
SPLINE
  5
142
330
1F
100
AcDbEntity
  8
Default
 62
    18
420
        0
370
    -3
100
AcDbSpline
210
0.0
220
0.0
230
1.0
 70
    28
 71
     3
 72
     8
 73
     4
 74
     0
 42
0.000000001
 43
0.0000000001
 40
32.94857675540367
 40
32.94857675540367
 40
32.94857675540367
 40
32.94857675540367
 40
34.46107675540367
 40
34.46107675540367
 40
34.46107675540367
 40
34.46107675540367
 10
50.03174168259838
 20
7.861629999999998
 30
0.0
 41
0.9999999999997915
 10
50.03174168259839
 20
7.357463333333333
 30
0.0
 41
0.9999999999997917
 10
50.03174168259838
 20
6.853296666666666
 30
0.0
 41
0.9999999999997916
 10
50.03174168259838
 20
6.349129999999999
 30
0.0
 41
0.9999999999997915
  0
LINE
  5
143
330
1F
100
AcDbEntity
  8
Default
 62
    18
420
        0
370
    -3
100
AcDbLine
 10
50.03174168259839
 20
5.474129999999996
 30
0.0
 11
50.03174168259838
 21
4.73
 31
0.0
  0
LINE
  5
144
330
1F
100
AcDbEntity
  8
Default
 62
    18
420
        0
370
    -3
100
AcDbLine
 10
50.03174168259838
 20
4.73
 30
0.0
 11
50.90674168259839
 21
4.73
 31
0.0
  0
LINE
  5
145
330
1F
100
AcDbEntity
  8
Default
 62
    18
420
        0
370
    -3
100
AcDbLine
 10
50.90674168259839
 20
4.73
 30
0.0
 11
50.90674168259839
 21
7.861629999999999
 31
0.0
  0
SPLINE
  5
146
330
1F
100
AcDbEntity
  8
Default
 62
    18
420
        0
370
    -3
100
AcDbSpline
210
0.0
220
0.0
230
1.0
 70
    12
 71
     3
 72
    17
 73
    13
 74
     0
 42
0.000000001
 43
0.0000000001
 40
7.138260000000004
 40
7.138260000000004
 40
7.138260000000004
 40
7.138260000000004
 40
8.59345542174454
 40
8.59345542174454
 40
8.59345542174454
 40
10.17165363763021
 40
10.17165363763021
 40
10.17165363763021
 40
11.74983873371883
 40
11.74983873371883
 40
11.74983873371883
 40
13.20503775089379
 40
13.20503775089379
 40
13.20503775089379
 40
13.20503775089379
 10
50.90674168259839
 20
7.861629999999999
 30
0.0
 41
1.0
 10
50.9070359615343
 20
8.343829030236323
 30
0.0
 41
0.9999999999999997
 10
50.81491368743665
 20
8.825950756120841
 30
0.0
 41
0.9999999999999998
 10
50.63731494224059
 20
9.274202347119626
 30
0.0
 41
1.0
 10
50.44488484509002
 20
9.759887632275019
 30
0.0
 41
1.0
 10
50.15210580634601
 20
10.20580955163238
 30
0.0
 41
1.0
 10
49.78276033366155
 20
10.57515589453875
 30
0.0
 41
1.0
 10
49.41341486097708
 20
10.94450223744511
 30
0.0
 41
1.0
 10
48.96750295435216
 20
11.23727300390047
 30
0.0
 41
1.0
 10
48.4818173711819
 20
11.42970177953377
 30
0.0
 41
1.0
 10
48.03356550513744
 20
11.60729930506716
 30
0.0
 41
1.0
 10
47.5514347215905
 20
11.69942628011674
 30
0.0
 41
1.0
 10
47.06924168259838
 20
11.69913
 30
0.0
 41
1.0
  0
SPLINE
  5
147
330
1F
100
AcDbEntity
  8
Default
 62
    18
420
        0
370
    -3
100
AcDbSpline
210
0.0
220
0.0
230
1.0
 70
    28
 71
     3
 72
     8
 73
     4
 74
     0
 42
0.000000001
 43
0.0000000001
 40
13.20503775089379
 40
13.20503775089379
 40
13.20503775089379
 40
13.20503775089379
 40
33.6550377508937
 40
33.6550377508937
 40
33.6550377508937
 40
33.6550377508937
 10
47.06924168259838
 20
11.69913
 30
0.0
 41
1.0
 10
40.25257501593176
 20
11.69912999999999
 30
0.0
 41
1.0
 10
33.43590834926511
 20
11.69913000000001
 30
0.0
 41
1.0
 10
26.61924168259848
 20
11.69913
 30
0.0
 41
1.0
  0
SPLINE
  5
148
330
1F
100
AcDbEntity
  8
Default
 62
    18
420
        0
370
    -3
100
AcDbSpline
210
0.0
220
0.0
230
1.0
 70
    12
 71
     3
 72
    17
 73
    13
 74
     0
 42
0.000000001
 43
0.0000000001
 40
33.6550377508937
 40
33.6550377508937
 40
33.6550377508937
 40
33.6550377508937
 40
35.11023318879939
 40
35.11023318879939
 40
35.11023318879939
 40
36.68843140554473
 40
36.68843140554473
 40
36.68843140554473
 40
38.26661649754045
 40
38.26661649754045
 40
38.26661649754045
 40
39.72181550172544
 40
39.72181550172544
 40
39.72181550172544
 40
39.72181550172544
 10
26.61924168259848
 20
11.69913
 30
0.0
 41
1.0
 10
26.13704264642193
 20
11.69942427940799
 30
0.0
 41
0.9999999999999996
 10
25.65492091383393
 20
11.60730200146719
 30
0.0
 41
0.9999999999999993
 10
25.20666932069869
 20
11.42970325374972
 30
0.0
 41
0.9999999999999993
 10
24.72098403322842
 20
11.23727315386719
 30
0.0
 41
0.9999999999999993
 10
24.27506211691785
 20
10.94449411394292
 30
0.0
 41
0.9999999999999996
 10
23.90571577641584
 20
10.57514863941928
 30
0.0
 41
0.9999999999999996
 10
23.53636943591383
 20
10.20580316489565
 30
0.0
 41
0.9999999999999997
 10
23.24359867122039
 20
9.759891255772638
 30
0.0
 41
0.9999999999999996
 10
23.05116989830105
 20
9.274205676705654
 30
0.0
 41
0.9999999999999996
 10
22.87357237527245
 20
8.825953814448209
 30
0.0
 41
0.9999999999999997
 10
22.7814454035386
 20
8.343823040311268
 30
0.0
 41
1.0
 10
22.78174168259839
 20
7.861630000000012
 30
0.0
 41
1.0
  0
LINE
  5
149
330
1F
100
AcDbEntity
  8
Default
 62
    18
420
        0
370
    -3
100
AcDbLine
 10
22.78174168259839
 20
7.861630000000012
 30
0.0
 11
22.78174168259839
 21
4.73
 31
0.0
  0
LINE
  5
14A
330
1F
100
AcDbEntity
  8
Default
 62
    18
420
        0
370
    -3
100
AcDbLine
 10
22.78174168259839
 20
4.73
 30
0.0
 11
23.65674168259838
 21
4.73
 31
0.0
  0
LINE
  5
14B
330
1F
100
AcDbEntity
  8
Default
 62
    18
420
        0
370
    -3
100
AcDbLine
 10
23.65674168259838
 20
4.73
 30
0.0
 11
23.65674168259838
 21
5.474129999999999
 31
0.0
  0
SPLINE
  5
14C
330
1F
100
AcDbEntity
  8
Default
 62
    18
420
        0
370
    -3
100
AcDbSpline
210
0.0
220
0.0
230
1.0
 70
    12
 71
     2
 72
     6
 73
     3
 74
     0
 42
0.000000001
 43
0.0000000001
 40
-0.1377048961312583
 40
-0.1377048961312583
 40
-0.1377048961312583
 40
0.0
 40
0.0
 40
0.0
 10
-10.32521044045917
 20
19.71079264369761
 30
0.0
 41
0.8772964086743015
 10
-10.35948586813386
 20
19.64071126365596
 30
0.0
 41
0.794586582174901
 10
-10.43749999999999
 20
19.64071126365596
 30
0.0
 41
1.0
  0
SPLINE
  5
14D
330
1F
100
AcDbEntity
  8
Default
 62
    18
420
        0
370
    -3
100
AcDbSpline
210
0.0
220
0.0
230
1.0
 70
    24
 71
     2
 72
     6
 73
     3
 74
     0
 42
0.000000001
 43
0.0000000001
 40
0.0
 40
0.0
 40
0.0
 40
0.0655729676805099
 40
0.0655729676805099
 40
0.0655729676805099
 10
-10.43749999999999
 20
19.64071126365596
 30
0.0
 10
-10.47028648384024
 20
19.64071126365596
 30
0.0
 10
-10.5030729676805
 20
19.64071126365596
 30
0.0
  0
SPLINE
  5
14E
330
1F
100
AcDbEntity
  8
Default
 62
    18
420
        0
370
    -3
100
AcDbSpline
210
0.0
220
0.0
230
1.0
 70
    24
 71
     2
 72
     6
 73
     3
 74
     0
 42
0.000000001
 43
0.0000000001
 40
-0.1875977615530547
 40
-0.1875977615530547
 40
-0.1875977615530547
 40
0.0
 40
0.0
 40
0.0
 10
-11.49990223844693
 20
23.89071126365596
 30
0.0
 10
-11.59370111922346
 20
23.89071126365596
 30
0.0
 10
-11.68749999999999
 20
23.89071126365596
 30
0.0
  0
SPLINE
  5
14F
330
1F
100
AcDbEntity
  8
Default
 62
    18
420
        0
370
    -3
100
AcDbSpline
210
0.0
220
0.0
230
1.0
 70
     8
 71
     3
 72
    15
 73
    11
 74
     0
 42
0.000000001
 43
0.0000000001
 40
0.0
 40
0.0
 40
0.0
 40
0.0
 40
0.0303036244182058
 40
0.0606072488364117
 40
0.0909108732546175
 40
0.1212144976728233
 40
0.1515181220910291
 40
0.1818217465092349
 40
0.2121253709274408
 40
0.2424289953456466
 40
0.2424289953456466
 40
0.2424289953456466
 40
0.2424289953456466
 10
-11.68749999999999
 20
23.89071126365596
 30
0.0
 10
-11.69852324992219
 20
23.89071126365596
 30
0.0
 10
-11.71956404813439
 20
23.88778126098596
 30
0.0
 10
-11.74627413257469
 20
23.87712102451196
 30
0.0
 10
-11.76796719215569
 20
23.86230143984296
 30
0.0
 10
-11.78502754440599
 20
23.84462847058696
 30
0.0
 10
-11.79777686897979
 20
23.82503718523396
 30
0.0
 10
-11.80651113379259
 20
23.80426224763296
 30
0.0
 10
-11.81148580212739
 20
23.78295273926096
 30
0.0
 10
-11.81249999999999
 20
23.76895860312496
 30
0.0
 10
-11.81249999999999
 20
23.76203160721596
 30
0.0
  0
LINE
  5
150
330
1F
100
AcDbEntity
  8
Default
 62
    18
420
        0
370
    -3
100
AcDbLine
 10
-11.81249999999999
 20
23.76203160721596
 30
0.0
 11
-11.81249999999999
 21
19.76571126365596
 31
0.0
  0
SPLINE
  5
151
330
1F
100
AcDbEntity
  8
Default
 62
    18
420
        0
370
    -3
100
AcDbSpline
210
0.0
220
0.0
230
1.0
 70
    12
 71
     2
 72
     6
 73
     3
 74
     0
 42
0.000000001
 43
0.0000000001
 40
5.52155895815822
 40
5.52155895815822
 40
5.52155895815822
 40
5.717908499007582
 40
5.717908499007582
 40
5.717908499007582
 10
-11.81249999999999
 20
19.76571126365596
 30
0.0
 41
1.0
 10
-11.81249999999999
 20
19.64071126365596
 30
0.0
 41
0.7071067811865476
 10
-11.68749999999999
 20
19.64071126365596
 30
0.0
 41
1.0
  0
SPLINE
  5
152
330
1F
100
AcDbEntity
  8
Default
 62
    18
420
        0
370
    -3
100
AcDbSpline
210
0.0
220
0.0
230
1.0
 70
    24
 71
     2
 72
     6
 73
     3
 74
     0
 42
0.000000001
 43
0.0000000001
 40
5.717908499007582
 40
5.717908499007582
 40
5.717908499007582
 40
5.783891504630322
 40
5.783891504630322
 40
5.783891504630322
 10
-11.68749999999999
 20
19.64071126365596
 30
0.0
 10
-11.65450849718862
 20
19.64071126365596
 30
0.0
 10
-11.62151699437725
 20
19.64071126365596
 30
0.0
  0
ARC
  5
153
330
1F
100
AcDbEntity
  8
Default
100
AcDbCircle
 10
11.06238236850307
 20
20.14147451574316
 30
0.0
 40
0.4376176314969165
210
0.0
220
0.0
230
-1.0
100
AcDbArc
 50
204.5264208837083
 51
0.0
  0
LINE
  5
154
330
1F
100
AcDbEntity
  8
Default
100
AcDbLine
 10
-11.49999999999999
 20
20.14147451574316
 30
0.0
 11
-11.49999999999999
 21
47.38361407200087
 31
0.0
  0
ARC
  5
155
330
1F
100
AcDbEntity
  8
Default
100
AcDbCircle
 10
11.06252308906047
 20
47.3899706320653
 30
0.0
 40
0.4375230890604875
210
0.0
220
0.0
230
-1.0
100
AcDbArc
 50
359.167548212205
 51
0.0968760534655598
  0
ARC
  5
156
330
1F
100
AcDbEntity
  8
Default
100
AcDbCircle
 10
11.06252308906047
 20
47.3899706320653
 30
0.0
 40
0.4375230890604875
210
0.0
220
0.0
230
-1.0
100
AcDbArc
 50
0.0968760534655598
 51
180.0
  0
LINE
  5
157
330
1F
100
AcDbEntity
  8
Default
100
AcDbLine
 10
-10.62499999999999
 20
47.3899706320653
 30
0.0
 11
-10.62499999999999
 21
43.45271126365596
 31
0.0
  0
SPLINE
  5
158
330
1F
100
AcDbEntity
  8
Default
 62
    18
420
        0
370
    -3
100
AcDbSpline
210
0.0
220
0.0
230
1.0
 70
    12
 71
     2
 72
     6
 73
     3
 74
     0
 42
0.000000001
 43
0.0000000001
 40
0.0
 40
0.0
 40
0.0
 40
0.1963495408493043
 40
0.1963495408493043
 40
0.1963495408493043
 10
-8.151999999999985
 20
42.06471126365586
 30
0.0
 41
1.0
 10
-8.026999999999983
 20
42.06471126365597
 30
0.0
 41
0.7071067811862611
 10
-8.026999999999983
 20
41.93971126365597
 30
0.0
 41
1.0
  0
LINE
  5
159
330
1F
100
AcDbEntity
  8
Default
 62
    18
420
        0
370
    -3
100
AcDbLine
 10
-8.026999999999983
 20
41.93971126365597
 30
0.0
 11
-8.026999999999983
 21
39.93921126365596
 31
0.0
  0
LINE
  5
15A
330
1F
100
AcDbEntity
  8
Default
 62
    18
420
        0
370
    -3
100
AcDbLine
 10
-8.026999999999983
 20
39.93921126365596
 30
0.0
 11
-7.839499999999985
 21
39.93921126365596
 31
0.0
  0
LINE
  5
15B
330
1F
100
AcDbEntity
  8
Default
 62
    18
420
        0
370
    -3
100
AcDbLine
 10
-7.839499999999985
 20
39.93921126365596
 30
0.0
 11
-7.839499999999985
 21
41.94171010667755
 31
0.0
  0
SPLINE
  5
15C
330
1F
100
AcDbEntity
  8
Default
 62
    18
420
        0
370
    -3
100
AcDbSpline
210
0.0
220
0.0
230
1.0
 70
     8
 71
     3
 72
    12
 73
     8
 74
     0
 42
0.000000001
 43
0.0000000001
 40
4.386347226892478
 40
4.386347226892478
 40
4.386347226892478
 40
4.386347226892478
 40
4.485078761942781
 40
4.583810296993085
 40
4.682541832043389
 40
4.781273367093693
 40
4.880004902143996
 40
4.880004902143996
 40
4.880004902143996
 40
4.880004902143996
 10
-7.839499999999985
 20
41.94171010667755
 30
0.0
 10
-7.839499999999985
 20
41.97570678576396
 30
0.0
 10
-7.849775221758985
 20
42.03911608490096
 30
0.0
 10
-7.894571603535985
 20
42.12757271567316
 30
0.0
 10
-7.964166754559986
 20
42.19714120360516
 30
0.0
 10
-8.052480808957986
 20
42.24190166137856
 30
0.0
 10
-8.116252536365986
 20
42.25229045587596
 30
0.0
 10
-8.150999999999986
 20
42.25229045587596
 30
0.0
  0
LINE
  5
15D
330
1F
100
AcDbEntity
  8
Default
 62
    18
420
        0
370
    -3
100
AcDbLine
 10
-10.62499999999999
 20
20.48077519564596
 30
0.0
 11
-6.374999999999986
 21
20.48077519564597
 31
0.0
  0
LINE
  5
15E
330
1F
100
AcDbEntity
  8
Default
 62
    18
420
        0
370
    -3
100
AcDbLine
 10
-6.374999999999986
 20
20.48077519564597
 30
0.0
 11
-6.374999999999986
 21
39.60424336568596
 31
0.0
  0
LINE
  5
15F
330
1F
100
AcDbEntity
  8
Default
 62
    18
420
        0
370
    -3
100
AcDbLine
 10
-6.374999999999986
 20
39.60424336568596
 30
0.0
 11
-7.839499999999985
 21
41.07146476678696
 31
0.0
  0
LINE
  5
160
330
1F
100
AcDbEntity
  8
Default
 62
    18
420
        0
370
    -3
100
AcDbLine
 10
-10.62499999999998
 20
42.59271126365596
 30
0.0
 11
-10.62499999999999
 21
23.54071126365596
 31
0.0
  0
LINE
  5
161
330
1F
100
AcDbEntity
  8
Default
 62
    18
420
        0
370
    -3
100
AcDbLine
 10
-8.151999999999983
 20
42.59271126365595
 30
0.0
 11
-8.151999999999983
 21
42.04961236752056
 31
0.0
  0
SPLINE
  5
162
330
1F
100
AcDbEntity
  8
Default
 62
    18
420
        0
370
    -3
100
AcDbSpline
210
0.0
220
0.0
230
1.0
 70
    12
 71
     2
 72
     6
 73
     3
 74
     0
 42
0.000000001
 43
0.0000000001
 40
-0.1376166103899486
 40
-0.1376166103899486
 40
-0.1376166103899486
 40
0.0
 40
0.0
 40
0.0
 10
-10.32525027839676
 20
46.96071126365596
 30
0.0
 41
0.8771904728016418
 10
-10.35954880444219
 20
46.89071126365597
 30
0.0
 41
0.7947182773896473
 10
-10.43749999999999
 20
46.89071126365596
 30
0.0
 41
1.0
  0
SPLINE
  5
163
330
1F
100
AcDbEntity
  8
Default
 62
    18
420
        0
370
    -3
100
AcDbSpline
210
0.0
220
0.0
230
1.0
 70
    24
 71
     2
 72
     6
 73
     3
 74
     0
 42
0.000000001
 43
0.0000000001
 40
-0.0657082742467518
 40
-0.0657082742467518
 40
-0.0657082742467518
 40
0.0
 40
0.0
 40
0.0
 10
-10.50320827424674
 20
46.89071126365596
 30
0.0
 10
-10.47035413712336
 20
46.89071126365596
 30
0.0
 10
-10.43749999999999
 20
46.89071126365596
 30
0.0
  0
ARC
  5
164
330
1F
100
AcDbEntity
  8
Default
100
AcDbCircle
 10
-11.06249999999999
 20
47.39071126365597
 30
0.0
 40
0.7499999999999929
100
AcDbArc
 50
305.685334712568
 51
325.0170021308013
  0
ARC
  5
165
330
1F
100
AcDbEntity
  8
Default
100
AcDbCircle
 10
-11.06249999999999
 20
47.39071126365597
 30
0.0
 40
0.7499999999999929
100
AcDbArc
 50
34.98299786919681
 51
234.3146652874328
  0
LINE
  5
166
330
1F
100
AcDbEntity
  8
Default
 62
    18
420
        0
370
    -3
100
AcDbLine
 10
-10.31249999999999
 20
47.82071126365596
 30
0.0
 11
-10.31249999999999
 21
51.01203160721596
 31
0.0
  0
SPLINE
  5
167
330
1F
100
AcDbEntity
  8
Default
 62
    18
420
        0
370
    -3
100
AcDbSpline
210
0.0
220
0.0
230
1.0
 70
     8
 71
     3
 72
    15
 73
    11
 74
     0
 42
0.000000001
 43
0.0000000001
 40
0.0000000000000004
 40
0.0000000000000004
 40
0.0000000000000004
 40
0.0000000000000004
 40
0.0303036244182063
 40
0.0606072488364122
 40
0.090910873254618
 40
0.1212144976728239
 40
0.1515181220910297
 40
0.1818217465092355
 40
0.2121253709274414
 40
0.2424289953456473
 40
0.2424289953456473
 40
0.2424289953456473
 40
0.2424289953456473
 10
-10.31249999999999
 20
51.01203160721596
 30
0.0
 10
-10.31249999999999
 20
51.01895860312496
 30
0.0
 10
-10.31351419787259
 20
51.03295273926096
 30
0.0
 10
-10.31848886620739
 20
51.05426224763296
 30
0.0
 10
-10.32722313102018
 20
51.07503718523396
 30
0.0
 10
-10.33997245559399
 20
51.09462847058696
 30
0.0
 10
-10.35703280784429
 20
51.11230143984297
 30
0.0
 10
-10.37872586742529
 20
51.12712102451196
 30
0.0
 10
-10.40543595186559
 20
51.13778126098596
 30
0.0
 10
-10.42647675007779
 20
51.14071126365596
 30
0.0
 10
-10.43749999999999
 20
51.14071126365596
 30
0.0
  0
SPLINE
  5
168
330
1F
100
AcDbEntity
  8
Default
 62
    18
420
        0
370
    -3
100
AcDbSpline
210
0.0
220
0.0
230
1.0
 70
    24
 71
     2
 72
     6
 73
     3
 74
     0
 42
0.000000001
 43
0.0000000001
 40
0.2424289953456473
 40
0.2424289953456473
 40
0.2424289953456473
 40
1.492428995345647
 40
1.492428995345647
 40
1.492428995345647
 10
-10.43749999999999
 20
51.14071126365596
 30
0.0
 10
-11.06249999999999
 20
51.14071126365596
 30
0.0
 10
-11.68749999999999
 20
51.14071126365596
 30
0.0
  0
SPLINE
  5
169
330
1F
100
AcDbEntity
  8
Default
 62
    18
420
        0
370
    -3
100
AcDbSpline
210
0.0
220
0.0
230
1.0
 70
     8
 71
     3
 72
    15
 73
    11
 74
     0
 42
0.000000001
 43
0.0000000001
 40
1.492428995345647
 40
1.492428995345647
 40
1.492428995345647
 40
1.492428995345647
 40
1.522732619763853
 40
1.553036244182059
 40
1.583339868600265
 40
1.613643493018471
 40
1.643947117436676
 40
1.674250741854882
 40
1.704554366273088
 40
1.734857990691294
 40
1.734857990691294
 40
1.734857990691294
 40
1.734857990691294
 10
-11.68749999999999
 20
51.14071126365596
 30
0.0
 10
-11.69852324992219
 20
51.14071126365596
 30
0.0
 10
-11.71956404813439
 20
51.13778126098596
 30
0.0
 10
-11.74627413257469
 20
51.12712102451196
 30
0.0
 10
-11.76796719215569
 20
51.11230143984297
 30
0.0
 10
-11.78502754440599
 20
51.09462847058696
 30
0.0
 10
-11.79777686897979
 20
51.07503718523396
 30
0.0
 10
-11.80651113379259
 20
51.05426224763296
 30
0.0
 10
-11.81148580212739
 20
51.03295273926096
 30
0.0
 10
-11.81249999999999
 20
51.01895860312496
 30
0.0
 10
-11.81249999999999
 20
51.01203160721596
 30
0.0
  0
LINE
  5
16A
330
1F
100
AcDbEntity
  8
Default
 62
    18
420
        0
370
    -3
100
AcDbLine
 10
-11.81249999999999
 20
51.01203160721596
 30
0.0
 11
-11.81249999999999
 21
47.01571126365596
 31
0.0
  0
SPLINE
  5
16B
330
1F
100
AcDbEntity
  8
Default
 62
    18
420
        0
370
    -3
100
AcDbSpline
210
0.0
220
0.0
230
1.0
 70
    12
 71
     2
 72
     6
 73
     3
 74
     0
 42
0.000000001
 43
0.0000000001
 40
7.013987953503867
 40
7.013987953503867
 40
7.013987953503867
 40
7.210337494353229
 40
7.210337494353229
 40
7.210337494353229
 10
-11.81249999999999
 20
47.01571126365596
 30
0.0
 41
1.0
 10
-11.81249999999999
 20
46.89071126365596
 30
0.0
 41
0.7071067811865476
 10
-11.68749999999999
 20
46.89071126365596
 30
0.0
 41
1.0
  0
SPLINE
  5
16C
330
1F
100
AcDbEntity
  8
Default
 62
    18
420
        0
370
    -3
100
AcDbSpline
210
0.0
220
0.0
230
1.0
 70
    24
 71
     2
 72
     6
 73
     3
 74
     0
 42
0.000000001
 43
0.0000000001
 40
7.210337494353229
 40
7.210337494353229
 40
7.210337494353229
 40
7.276693759387875
 40
7.276693759387875
 40
7.276693759387875
 10
-11.68749999999999
 20
46.89071126365596
 30
0.0
 10
-11.65432186748266
 20
46.89071126365596
 30
0.0
 10
-11.62114373496534
 20
46.89071126365596
 30
0.0
  0
SPLINE
  5
16D
330
1F
100
AcDbEntity
  8
Default
 62
    18
420
        0
370
    -3
100
AcDbSpline
210
0.0
220
0.0
230
1.0
 70
    12
 71
     2
 72
     6
 73
     3
 74
     0
 42
0.000000001
 43
0.0000000001
 40
-0.3926990816987241
 40
-0.3926990816987241
 40
-0.3926990816987241
 40
0.0
 40
0.0
 40
0.0
 10
-10.37499999999999
 20
42.04422571375201
 30
0.0
 41
1.0
 10
-10.37499999999999
 20
42.08333433001206
 30
0.0
 41
0.7071067811865476
 10
-10.12499999999999
 20
42.08333433001206
 30
0.0
 41
1.0
  0
SPLINE
  5
16E
330
1F
100
AcDbEntity
  8
Default
 62
    18
420
        0
370
    -3
100
AcDbSpline
210
0.0
220
0.0
230
1.0
 70
    24
 71
     2
 72
     6
 73
     3
 74
     0
 42
0.000000001
 43
0.0000000001
 40
0.0
 40
0.0
 40
0.0
 40
1.5
 40
1.5
 40
1.5
 10
-10.12499999999999
 20
42.08333433001206
 30
0.0
 10
-9.374999999999986
 20
42.08333433001206
 30
0.0
 10
-8.624999999999986
 20
42.08333433001206
 30
0.0
  0
SPLINE
  5
16F
330
1F
100
AcDbEntity
  8
Default
 62
    18
420
        0
370
    -3
100
AcDbSpline
210
0.0
220
0.0
230
1.0
 70
    12
 71
     2
 72
     6
 73
     3
 74
     0
 42
0.000000001
 43
0.0000000001
 40
1.5
 40
1.5
 40
1.5
 40
1.892699081698724
 40
1.892699081698724
 40
1.892699081698724
 10
-8.624999999999986
 20
42.08333433001206
 30
0.0
 41
1.0
 10
-8.374999999999988
 20
42.08333433001206
 30
0.0
 41
0.7071067811865476
 10
-8.374999999999986
 20
42.04422571375201
 30
0.0
 41
1.0
  0
SPLINE
  5
170
330
1F
100
AcDbEntity
  8
Default
 62
    18
420
        0
370
    -3
100
AcDbSpline
210
0.0
220
0.0
230
1.0
 70
    24
 71
     2
 72
     6
 73
     3
 74
     0
 42
0.000000001
 43
0.0000000001
 40
3.132289465258426
 40
3.132289465258426
 40
3.132289465258426
 40
4.632289465258426
 40
4.632289465258426
 40
4.632289465258426
 10
-8.624999999999986
 20
41.92689986497186
 30
0.0
 10
-9.374999999999986
 20
41.92689986497186
 30
0.0
 10
-10.12499999999999
 20
41.92689986497186
 30
0.0
  0
SPLINE
  5
171
330
1F
100
AcDbEntity
  8
Default
 62
    18
420
        0
370
    -3
100
AcDbSpline
210
0.0
220
0.0
230
1.0
 70
    12
 71
     2
 72
     6
 73
     3
 74
     0
 42
0.000000001
 43
0.0000000001
 40
4.632289465258426
 40
4.632289465258426
 40
4.632289465258426
 40
5.02498854695715
 40
5.02498854695715
 40
5.02498854695715
 10
-10.12499999999999
 20
41.92689986497186
 30
0.0
 41
1.0
 10
-10.37499999999999
 20
41.92689986497186
 30
0.0
 41
0.7071067811865476
 10
-10.37499999999999
 20
41.96600848123191
 30
0.0
 41
1.0
  0
LINE
  5
172
330
1F
100
AcDbEntity
  8
Default
 62
    18
420
        0
370
    -3
100
AcDbLine
 10
-10.37499999999999
 20
41.9660084812319
 30
0.0
 11
-10.37499999999999
 21
42.22941727761361
 31
0.0
  0
SPLINE
  5
173
330
1F
100
AcDbEntity
  8
Default
 62
    18
420
        0
370
    -3
100
AcDbSpline
210
0.0
220
0.0
230
1.0
 70
    12
 71
     2
 72
     6
 73
     3
 74
     0
 42
0.000000001
 43
0.0000000001
 40
5.291680767119404
 40
5.291680767119404
 40
5.291680767119404
 40
5.684379848818129
 40
5.684379848818129
 40
5.684379848818129
 10
-10.37499999999999
 20
42.22941727761361
 30
0.0
 41
1.0
 10
-10.37499999999999
 20
42.26852589387365
 30
0.0
 41
0.7071067811865476
 10
-10.12499999999999
 20
42.26852589387366
 30
0.0
 41
1.0
  0
SPLINE
  5
174
330
1F
100
AcDbEntity
  8
Default
 62
    18
420
        0
370
    -3
100
AcDbSpline
210
0.0
220
0.0
230
1.0
 70
    24
 71
     2
 72
     6
 73
     3
 74
     0
 42
0.000000001
 43
0.0000000001
 40
5.684379848818129
 40
5.684379848818129
 40
5.684379848818129
 40
7.184379848818129
 40
7.184379848818129
 40
7.184379848818129
 10
-10.12499999999999
 20
42.26852589387366
 30
0.0
 10
-9.374999999999986
 20
42.26852589387366
 30
0.0
 10
-8.624999999999986
 20
42.26852589387366
 30
0.0
  0
SPLINE
  5
175
330
1F
100
AcDbEntity
  8
Default
 62
    18
420
        0
370
    -3
100
AcDbSpline
210
0.0
220
0.0
230
1.0
 70
    12
 71
     2
 72
     6
 73
     3
 74
     0
 42
0.000000001
 43
0.0000000001
 40
7.184379848818129
 40
7.184379848818129
 40
7.184379848818129
 40
7.577078930516852
 40
7.577078930516852
 40
7.577078930516852
 10
-8.624999999999986
 20
42.26852589387366
 30
0.0
 41
1.0
 10
-8.374999999999988
 20
42.26852589387365
 30
0.0
 41
0.7071067811865476
 10
-8.374999999999986
 20
42.22941727761361
 30
0.0
 41
1.0
  0
LINE
  5
176
330
1F
100
AcDbEntity
  8
Default
 62
    18
420
        0
370
    -3
100
AcDbLine
 10
-8.374999999999986
 20
42.22941727761361
 30
0.0
 11
-8.374999999999986
 21
41.96600848123191
 31
0.0
  0
SPLINE
  5
177
330
1F
100
AcDbEntity
  8
Default
 62
    18
420
        0
370
    -3
100
AcDbSpline
210
0.0
220
0.0
230
1.0
 70
    12
 71
     2
 72
     6
 73
     3
 74
     0
 42
0.000000001
 43
0.0000000001
 40
7.843771150679106
 40
7.843771150679106
 40
7.843771150679106
 40
8.23647023237783
 40
8.23647023237783
 40
8.23647023237783
 10
-8.374999999999986
 20
41.96600848123191
 30
0.0
 41
1.0
 10
-8.374999999999988
 20
41.92689986497186
 30
0.0
 41
0.7071067811865476
 10
-8.624999999999986
 20
41.92689986497186
 30
0.0
 41
1.0
  0
SPLINE
  5
178
330
1F
100
AcDbEntity
  8
Default
 62
    18
420
        0
370
    -3
100
AcDbSpline
210
0.0
220
0.0
230
1.0
 70
    24
 71
     2
 72
     6
 73
     3
 74
     0
 42
0.000000001
 43
0.0000000001
 40
0.0
 40
0.0
 40
0.0
 40
0.2228272390063605
 40
0.2228272390063605
 40
0.2228272390063605
 10
8.151999999999985
 20
42.04961236752056
 30
0.0
 10
8.263413619503165
 20
42.04961236752056
 30
0.0
 10
8.374827239006345
 20
42.04961236752056
 30
0.0
  0
SPLINE
  5
179
330
1F
100
AcDbEntity
  8
Default
 62
    18
420
        0
370
    -3
100
AcDbSpline
210
0.0
220
0.0
230
1.0
 70
    24
 71
     2
 72
     6
 73
     3
 74
     0
 42
0.000000001
 43
0.0000000001
 40
-2.473000000000001
 40
-2.473000000000001
 40
-2.473000000000001
 40
0.0
 40
0.0
 40
0.0
 10
8.151999999999983
 20
42.40540605078396
 30
0.0
 10
9.388499999999985
 20
42.40540605078396
 30
0.0
 10
10.62499999999999
 20
42.40540605078396
 30
0.0
  0
SPLINE
  5
17A
330
1F
100
AcDbEntity
  8
Default
 62
    18
420
        0
370
    -3
100
AcDbSpline
210
0.0
220
0.0
230
1.0
 70
    24
 71
     2
 72
     6
 73
     3
 74
     0
 42
0.000000001
 43
0.0000000001
 40
2.222819916738577
 40
2.222819916738577
 40
2.222819916738577
 40
2.473000000000001
 40
2.473000000000001
 40
2.473000000000001
 10
10.37481991673856
 20
42.04961236752056
 30
0.0
 10
10.49990995836927
 20
42.04961236752056
 30
0.0
 10
10.62499999999999
 20
42.04961236752056
 30
0.0
  0
SPLINE
  5
17B
330
1F
100
AcDbEntity
  8
Default
 62
    18
420
        0
370
    -3
100
AcDbSpline
210
0.0
220
0.0
230
1.0
 70
    12
 71
     2
 72
     8
 73
     5
 74
     0
 42
0.000000001
 43
0.0000000001
 40
-1.883034952230815
 40
-1.883034952230815
 40
-1.883034952230815
 40
-1.178097245096175
 40
-1.178097245096175
 40
0.0
 40
0.0
 40
0.0
 10
11.49996750961451
 20
20.74990924299573
 30
0.0
 41
0.8592218115680554
 10
11.81249999999999
 20
20.52547840954036
 30
0.0
 41
0.8247415695392915
 10
11.81249999999999
 20
20.14071126365597
 30
0.0
 41
1.0
 10
11.81249999999999
 20
19.39071126365596
 30
0.0
 41
0.7071067811865455
 10
11.06249999999999
 20
19.39071126365596
 30
0.0
 41
1.0
  0
SPLINE
  5
17C
330
1F
100
AcDbEntity
  8
Default
 62
    18
420
        0
370
    -3
100
AcDbSpline
210
0.0
220
0.0
230
1.0
 70
    12
 71
     2
 72
     6
 73
     3
 74
     0
 42
0.000000001
 43
0.0000000001
 40
1.642233479157876
 40
1.642233479157876
 40
1.642233479157876
 40
2.356194490192345
 40
2.356194490192345
 40
2.356194490192345
 10
10.44783849780283
 20
19.71095407905432
 30
0.0
 41
0.8601388800239045
 10
10.67174490847365
 20
19.39071126365596
 30
0.0
 41
0.822498236457448
 10
11.06249999999999
 20
19.39071126365596
 30
0.0
 41
1.0
  0
SPLINE
  5
17D
330
1F
100
AcDbEntity
  8
Default
 62
    18
420
        0
370
    -3
100
AcDbSpline
210
0.0
220
0.0
230
1.0
 70
    28
 71
     3
 72
    14
 73
    10
 74
     0
 42
0.000000001
 43
0.0000000001
 40
0.0
 40
0.0
 40
0.0
 40
0.0
 40
1.289296849093128
 40
1.289296849093128
 40
1.289296849093128
 40
2.687558562891512
 40
2.687558562891512
 40
2.687558562891512
 40
3.624456396644587
 40
3.624456396644587
 40
3.624456396644587
 40
3.624456396644587
 10
10.62499999999999
 20
23.54071126365596
 30
0.0
 41
1.0
 10
10.62499999999999
 20
23.11349137243167
 30
0.0
 41
1.0
 10
10.62499999999998
 20
22.68632663912625
 30
0.0
 41
1.0
 10
10.62499999999998
 20
22.28917840601845
 30
0.0
 41
1.0
 10
10.62499999999998
 20
21.85886414340506
 30
0.0
 41
1.0
 10
10.62499999999998
 20
21.46378909909894
 30
0.0
 41
1.0
 10
10.62499999999998
 20
21.13655141645993
 30
0.0
 41
1.0
 10
10.62499999999998
 20
20.91728936827013
 30
0.0
 41
1.0
 10
10.62499999999999
 20
20.72848306772625
 30
0.0
 41
1.0
 10
10.62499999999999
 20
20.5764710462589
 30
0.0
 41
1.0
  0
SPLINE
  5
17E
330
1F
100
AcDbEntity
  8
Default
 62
    18
420
        0
370
    -3
100
AcDbSpline
210
0.0
220
0.0
230
1.0
 70
    12
 71
     2
 72
     6
 73
     3
 74
     0
 42
0.000000001
 43
0.0000000001
 40
-0.1377048961312583
 40
-0.1377048961312583
 40
-0.1377048961312583
 40
0.0
 40
0.0
 40
0.0
 10
10.32521044045917
 20
19.71079264369761
 30
0.0
 41
0.8772964086743015
 10
10.35948586813386
 20
19.64071126365596
 30
0.0
 41
0.794586582174901
 10
10.43749999999999
 20
19.64071126365596
 30
0.0
 41
1.0
  0
SPLINE
  5
17F
330
1F
100
AcDbEntity
  8
Default
 62
    18
420
        0
370
    -3
100
AcDbSpline
210
0.0
220
0.0
230
1.0
 70
    24
 71
     2
 72
     6
 73
     3
 74
     0
 42
0.000000001
 43
0.0000000001
 40
0.0
 40
0.0
 40
0.0
 40
0.0655729676805099
 40
0.0655729676805099
 40
0.0655729676805099
 10
10.43749999999999
 20
19.64071126365596
 30
0.0
 10
10.47028648384024
 20
19.64071126365596
 30
0.0
 10
10.5030729676805
 20
19.64071126365596
 30
0.0
  0
SPLINE
  5
180
330
1F
100
AcDbEntity
  8
Default
 62
    18
420
        0
370
    -3
100
AcDbSpline
210
0.0
220
0.0
230
1.0
 70
    24
 71
     2
 72
     6
 73
     3
 74
     0
 42
0.000000001
 43
0.0000000001
 40
-0.1875977615530547
 40
-0.1875977615530547
 40
-0.1875977615530547
 40
0.0
 40
0.0
 40
0.0
 10
11.49990223844693
 20
23.89071126365596
 30
0.0
 10
11.59370111922346
 20
23.89071126365596
 30
0.0
 10
11.68749999999999
 20
23.89071126365596
 30
0.0
  0
SPLINE
  5
181
330
1F
100
AcDbEntity
  8
Default
 62
    18
420
        0
370
    -3
100
AcDbSpline
210
0.0
220
0.0
230
1.0
 70
     8
 71
     3
 72
    15
 73
    11
 74
     0
 42
0.000000001
 43
0.0000000001
 40
0.0
 40
0.0
 40
0.0
 40
0.0
 40
0.0303036244182058
 40
0.0606072488364117
 40
0.0909108732546175
 40
0.1212144976728233
 40
0.1515181220910291
 40
0.1818217465092349
 40
0.2121253709274408
 40
0.2424289953456466
 40
0.2424289953456466
 40
0.2424289953456466
 40
0.2424289953456466
 10
11.68749999999999
 20
23.89071126365596
 30
0.0
 10
11.69852324992219
 20
23.89071126365596
 30
0.0
 10
11.71956404813439
 20
23.88778126098596
 30
0.0
 10
11.74627413257469
 20
23.87712102451196
 30
0.0
 10
11.76796719215569
 20
23.86230143984296
 30
0.0
 10
11.78502754440599
 20
23.84462847058696
 30
0.0
 10
11.79777686897979
 20
23.82503718523396
 30
0.0
 10
11.80651113379259
 20
23.80426224763296
 30
0.0
 10
11.81148580212739
 20
23.78295273926096
 30
0.0
 10
11.81249999999999
 20
23.76895860312496
 30
0.0
 10
11.81249999999999
 20
23.76203160721596
 30
0.0
  0
LINE
  5
182
330
1F
100
AcDbEntity
  8
Default
 62
    18
420
        0
370
    -3
100
AcDbLine
 10
11.81249999999999
 20
23.76203160721596
 30
0.0
 11
11.81249999999999
 21
19.76571126365596
 31
0.0
  0
SPLINE
  5
183
330
1F
100
AcDbEntity
  8
Default
 62
    18
420
        0
370
    -3
100
AcDbSpline
210
0.0
220
0.0
230
1.0
 70
    12
 71
     2
 72
     6
 73
     3
 74
     0
 42
0.000000001
 43
0.0000000001
 40
5.52155895815822
 40
5.52155895815822
 40
5.52155895815822
 40
5.717908499007582
 40
5.717908499007582
 40
5.717908499007582
 10
11.81249999999999
 20
19.76571126365596
 30
0.0
 41
1.0
 10
11.81249999999999
 20
19.64071126365596
 30
0.0
 41
0.7071067811865476
 10
11.68749999999999
 20
19.64071126365596
 30
0.0
 41
1.0
  0
SPLINE
  5
184
330
1F
100
AcDbEntity
  8
Default
 62
    18
420
        0
370
    -3
100
AcDbSpline
210
0.0
220
0.0
230
1.0
 70
    24
 71
     2
 72
     6
 73
     3
 74
     0
 42
0.000000001
 43
0.0000000001
 40
5.717908499007582
 40
5.717908499007582
 40
5.717908499007582
 40
5.783891504630322
 40
5.783891504630322
 40
5.783891504630322
 10
11.68749999999999
 20
19.64071126365596
 30
0.0
 10
11.65450849718862
 20
19.64071126365596
 30
0.0
 10
11.62151699437725
 20
19.64071126365596
 30
0.0
  0
ARC
  5
185
330
1F
100
AcDbEntity
  8
Default
100
AcDbCircle
 10
11.06238236850307
 20
20.14147451574316
 30
0.0
 40
0.4376176314969165
100
AcDbArc
 50
204.5264208837083
 51
0.0
  0
LINE
  5
186
330
1F
100
AcDbEntity
  8
Default
100
AcDbLine
 10
11.49999999999999
 20
20.14147451574316
 30
0.0
 11
11.49999999999999
 21
47.38361407200087
 31
0.0
  0
ARC
  5
187
330
1F
100
AcDbEntity
  8
Default
100
AcDbCircle
 10
11.06252308906047
 20
47.3899706320653
 30
0.0
 40
0.4375230890604875
100
AcDbArc
 50
359.167548212205
 51
0.0968760534655598
  0
ARC
  5
188
330
1F
100
AcDbEntity
  8
Default
100
AcDbCircle
 10
11.06252308906047
 20
47.3899706320653
 30
0.0
 40
0.4375230890604875
100
AcDbArc
 50
0.0968760534655598
 51
180.0
  0
LINE
  5
189
330
1F
100
AcDbEntity
  8
Default
100
AcDbLine
 10
10.62499999999999
 20
47.3899706320653
 30
0.0
 11
10.62499999999999
 21
43.45271126365596
 31
0.0
  0
SPLINE
  5
18A
330
1F
100
AcDbEntity
  8
Default
 62
    18
420
        0
370
    -3
100
AcDbSpline
210
0.0
220
0.0
230
1.0
 70
    12
 71
     2
 72
     6
 73
     3
 74
     0
 42
0.000000001
 43
0.0000000001
 40
0.0
 40
0.0
 40
0.0
 40
0.1963495408493043
 40
0.1963495408493043
 40
0.1963495408493043
 10
8.151999999999985
 20
42.06471126365586
 30
0.0
 41
1.0
 10
8.026999999999983
 20
42.06471126365597
 30
0.0
 41
0.7071067811862611
 10
8.026999999999983
 20
41.93971126365597
 30
0.0
 41
1.0
  0
LINE
  5
18B
330
1F
100
AcDbEntity
  8
Default
 62
    18
420
        0
370
    -3
100
AcDbLine
 10
8.026999999999983
 20
41.93971126365597
 30
0.0
 11
8.026999999999983
 21
39.93921126365596
 31
0.0
  0
LINE
  5
18C
330
1F
100
AcDbEntity
  8
Default
 62
    18
420
        0
370
    -3
100
AcDbLine
 10
8.026999999999983
 20
39.93921126365596
 30
0.0
 11
7.839499999999985
 21
39.93921126365596
 31
0.0
  0
LINE
  5
18D
330
1F
100
AcDbEntity
  8
Default
 62
    18
420
        0
370
    -3
100
AcDbLine
 10
7.839499999999985
 20
39.93921126365596
 30
0.0
 11
7.839499999999985
 21
41.94171010667755
 31
0.0
  0
SPLINE
  5
18E
330
1F
100
AcDbEntity
  8
Default
 62
    18
420
        0
370
    -3
100
AcDbSpline
210
0.0
220
0.0
230
1.0
 70
     8
 71
     3
 72
    12
 73
     8
 74
     0
 42
0.000000001
 43
0.0000000001
 40
4.386347226892478
 40
4.386347226892478
 40
4.386347226892478
 40
4.386347226892478
 40
4.485078761942781
 40
4.583810296993085
 40
4.682541832043389
 40
4.781273367093693
 40
4.880004902143996
 40
4.880004902143996
 40
4.880004902143996
 40
4.880004902143996
 10
7.839499999999985
 20
41.94171010667755
 30
0.0
 10
7.839499999999985
 20
41.97570678576396
 30
0.0
 10
7.849775221758985
 20
42.03911608490096
 30
0.0
 10
7.894571603535985
 20
42.12757271567316
 30
0.0
 10
7.964166754559986
 20
42.19714120360516
 30
0.0
 10
8.052480808957986
 20
42.24190166137856
 30
0.0
 10
8.116252536365986
 20
42.25229045587596
 30
0.0
 10
8.150999999999986
 20
42.25229045587596
 30
0.0
  0
LINE
  5
18F
330
1F
100
AcDbEntity
  8
Default
 62
    18
420
        0
370
    -3
100
AcDbLine
 10
10.62499999999999
 20
20.48077519564596
 30
0.0
 11
6.374999999999986
 21
20.48077519564597
 31
0.0
  0
LINE
  5
190
330
1F
100
AcDbEntity
  8
Default
 62
    18
420
        0
370
    -3
100
AcDbLine
 10
6.374999999999986
 20
20.48077519564597
 30
0.0
 11
6.374999999999986
 21
39.60424336568596
 31
0.0
  0
LINE
  5
191
330
1F
100
AcDbEntity
  8
Default
 62
    18
420
        0
370
    -3
100
AcDbLine
 10
6.374999999999986
 20
39.60424336568596
 30
0.0
 11
7.839499999999985
 21
41.07146476678696
 31
0.0
  0
LINE
  5
192
330
1F
100
AcDbEntity
  8
Default
 62
    18
420
        0
370
    -3
100
AcDbLine
 10
10.62499999999998
 20
42.59271126365596
 30
0.0
 11
10.62499999999999
 21
23.54071126365596
 31
0.0
  0
LINE
  5
193
330
1F
100
AcDbEntity
  8
Default
 62
    18
420
        0
370
    -3
100
AcDbLine
 10
8.151999999999983
 20
42.59271126365595
 30
0.0
 11
8.151999999999983
 21
42.04961236752056
 31
0.0
  0
SPLINE
  5
194
330
1F
100
AcDbEntity
  8
Default
 62
    18
420
        0
370
    -3
100
AcDbSpline
210
0.0
220
0.0
230
1.0
 70
    12
 71
     2
 72
     6
 73
     3
 74
     0
 42
0.000000001
 43
0.0000000001
 40
-0.1376166103899486
 40
-0.1376166103899486
 40
-0.1376166103899486
 40
0.0
 40
0.0
 40
0.0
 10
10.32525027839676
 20
46.96071126365596
 30
0.0
 41
0.8771904728016418
 10
10.35954880444219
 20
46.89071126365597
 30
0.0
 41
0.7947182773896473
 10
10.43749999999999
 20
46.89071126365596
 30
0.0
 41
1.0
  0
SPLINE
  5
195
330
1F
100
AcDbEntity
  8
Default
 62
    18
420
        0
370
    -3
100
AcDbSpline
210
0.0
220
0.0
230
1.0
 70
    24
 71
     2
 72
     6
 73
     3
 74
     0
 42
0.000000001
 43
0.0000000001
 40
-0.0657082742467518
 40
-0.0657082742467518
 40
-0.0657082742467518
 40
0.0
 40
0.0
 40
0.0
 10
10.50320827424674
 20
46.89071126365596
 30
0.0
 10
10.47035413712336
 20
46.89071126365596
 30
0.0
 10
10.43749999999999
 20
46.89071126365596
 30
0.0
  0
ARC
  5
196
330
1F
100
AcDbEntity
  8
Default
100
AcDbCircle
 10
-11.06249999999999
 20
47.39071126365597
 30
0.0
 40
0.7499999999999929
210
0.0
220
0.0
230
-1.0
100
AcDbArc
 50
305.685334712568
 51
325.0170021308013
  0
ARC
  5
197
330
1F
100
AcDbEntity
  8
Default
100
AcDbCircle
 10
-11.06249999999999
 20
47.39071126365597
 30
0.0
 40
0.7499999999999929
210
0.0
220
0.0
230
-1.0
100
AcDbArc
 50
34.98299786919681
 51
234.3146652874328
  0
LINE
  5
198
330
1F
100
AcDbEntity
  8
Default
 62
    18
420
        0
370
    -3
100
AcDbLine
 10
10.31249999999999
 20
47.82071126365596
 30
0.0
 11
10.31249999999999
 21
51.01203160721596
 31
0.0
  0
SPLINE
  5
199
330
1F
100
AcDbEntity
  8
Default
 62
    18
420
        0
370
    -3
100
AcDbSpline
210
0.0
220
0.0
230
1.0
 70
     8
 71
     3
 72
    15
 73
    11
 74
     0
 42
0.000000001
 43
0.0000000001
 40
0.0000000000000004
 40
0.0000000000000004
 40
0.0000000000000004
 40
0.0000000000000004
 40
0.0303036244182063
 40
0.0606072488364122
 40
0.090910873254618
 40
0.1212144976728239
 40
0.1515181220910297
 40
0.1818217465092355
 40
0.2121253709274414
 40
0.2424289953456473
 40
0.2424289953456473
 40
0.2424289953456473
 40
0.2424289953456473
 10
10.31249999999999
 20
51.01203160721596
 30
0.0
 10
10.31249999999999
 20
51.01895860312496
 30
0.0
 10
10.31351419787259
 20
51.03295273926096
 30
0.0
 10
10.31848886620739
 20
51.05426224763296
 30
0.0
 10
10.32722313102018
 20
51.07503718523396
 30
0.0
 10
10.33997245559399
 20
51.09462847058696
 30
0.0
 10
10.35703280784429
 20
51.11230143984297
 30
0.0
 10
10.37872586742529
 20
51.12712102451196
 30
0.0
 10
10.40543595186559
 20
51.13778126098596
 30
0.0
 10
10.42647675007779
 20
51.14071126365596
 30
0.0
 10
10.43749999999999
 20
51.14071126365596
 30
0.0
  0
SPLINE
  5
19A
330
1F
100
AcDbEntity
  8
Default
 62
    18
420
        0
370
    -3
100
AcDbSpline
210
0.0
220
0.0
230
1.0
 70
    24
 71
     2
 72
     6
 73
     3
 74
     0
 42
0.000000001
 43
0.0000000001
 40
0.2424289953456473
 40
0.2424289953456473
 40
0.2424289953456473
 40
1.492428995345647
 40
1.492428995345647
 40
1.492428995345647
 10
10.43749999999999
 20
51.14071126365596
 30
0.0
 10
11.06249999999999
 20
51.14071126365596
 30
0.0
 10
11.68749999999999
 20
51.14071126365596
 30
0.0
  0
SPLINE
  5
19B
330
1F
100
AcDbEntity
  8
Default
 62
    18
420
        0
370
    -3
100
AcDbSpline
210
0.0
220
0.0
230
1.0
 70
     8
 71
     3
 72
    15
 73
    11
 74
     0
 42
0.000000001
 43
0.0000000001
 40
1.492428995345647
 40
1.492428995345647
 40
1.492428995345647
 40
1.492428995345647
 40
1.522732619763853
 40
1.553036244182059
 40
1.583339868600265
 40
1.613643493018471
 40
1.643947117436676
 40
1.674250741854882
 40
1.704554366273088
 40
1.734857990691294
 40
1.734857990691294
 40
1.734857990691294
 40
1.734857990691294
 10
11.68749999999999
 20
51.14071126365596
 30
0.0
 10
11.69852324992219
 20
51.14071126365596
 30
0.0
 10
11.71956404813439
 20
51.13778126098596
 30
0.0
 10
11.74627413257469
 20
51.12712102451196
 30
0.0
 10
11.76796719215569
 20
51.11230143984297
 30
0.0
 10
11.78502754440599
 20
51.09462847058696
 30
0.0
 10
11.79777686897979
 20
51.07503718523396
 30
0.0
 10
11.80651113379259
 20
51.05426224763296
 30
0.0
 10
11.81148580212739
 20
51.03295273926096
 30
0.0
 10
11.81249999999999
 20
51.01895860312496
 30
0.0
 10
11.81249999999999
 20
51.01203160721596
 30
0.0
  0
LINE
  5
19C
330
1F
100
AcDbEntity
  8
Default
 62
    18
420
        0
370
    -3
100
AcDbLine
 10
11.81249999999999
 20
51.01203160721596
 30
0.0
 11
11.81249999999999
 21
47.01571126365596
 31
0.0
  0
SPLINE
  5
19D
330
1F
100
AcDbEntity
  8
Default
 62
    18
420
        0
370
    -3
100
AcDbSpline
210
0.0
220
0.0
230
1.0
 70
    12
 71
     2
 72
     6
 73
     3
 74
     0
 42
0.000000001
 43
0.0000000001
 40
7.013987953503867
 40
7.013987953503867
 40
7.013987953503867
 40
7.210337494353229
 40
7.210337494353229
 40
7.210337494353229
 10
11.81249999999999
 20
47.01571126365596
 30
0.0
 41
1.0
 10
11.81249999999999
 20
46.89071126365596
 30
0.0
 41
0.7071067811865476
 10
11.68749999999999
 20
46.89071126365596
 30
0.0
 41
1.0
  0
SPLINE
  5
19E
330
1F
100
AcDbEntity
  8
Default
 62
    18
420
        0
370
    -3
100
AcDbSpline
210
0.0
220
0.0
230
1.0
 70
    24
 71
     2
 72
     6
 73
     3
 74
     0
 42
0.000000001
 43
0.0000000001
 40
7.210337494353229
 40
7.210337494353229
 40
7.210337494353229
 40
7.276693759387875
 40
7.276693759387875
 40
7.276693759387875
 10
11.68749999999999
 20
46.89071126365596
 30
0.0
 10
11.65432186748266
 20
46.89071126365596
 30
0.0
 10
11.62114373496534
 20
46.89071126365596
 30
0.0
  0
SPLINE
  5
19F
330
1F
100
AcDbEntity
  8
Default
 62
    18
420
        0
370
    -3
100
AcDbSpline
210
0.0
220
0.0
230
1.0
 70
    12
 71
     2
 72
     6
 73
     3
 74
     0
 42
0.000000001
 43
0.0000000001
 40
-0.3926990816987241
 40
-0.3926990816987241
 40
-0.3926990816987241
 40
0.0
 40
0.0
 40
0.0
 10
10.37499999999999
 20
42.04422571375201
 30
0.0
 41
1.0
 10
10.37499999999999
 20
42.08333433001206
 30
0.0
 41
0.7071067811865476
 10
10.12499999999999
 20
42.08333433001206
 30
0.0
 41
1.0
  0
SPLINE
  5
1A0
330
1F
100
AcDbEntity
  8
Default
 62
    18
420
        0
370
    -3
100
AcDbSpline
210
0.0
220
0.0
230
1.0
 70
    24
 71
     2
 72
     6
 73
     3
 74
     0
 42
0.000000001
 43
0.0000000001
 40
0.0
 40
0.0
 40
0.0
 40
1.5
 40
1.5
 40
1.5
 10
10.12499999999999
 20
42.08333433001206
 30
0.0
 10
9.374999999999986
 20
42.08333433001206
 30
0.0
 10
8.624999999999986
 20
42.08333433001206
 30
0.0
  0
SPLINE
  5
1A1
330
1F
100
AcDbEntity
  8
Default
 62
    18
420
        0
370
    -3
100
AcDbSpline
210
0.0
220
0.0
230
1.0
 70
    12
 71
     2
 72
     6
 73
     3
 74
     0
 42
0.000000001
 43
0.0000000001
 40
1.5
 40
1.5
 40
1.5
 40
1.892699081698724
 40
1.892699081698724
 40
1.892699081698724
 10
8.624999999999986
 20
42.08333433001206
 30
0.0
 41
1.0
 10
8.374999999999988
 20
42.08333433001206
 30
0.0
 41
0.7071067811865476
 10
8.374999999999986
 20
42.04422571375201
 30
0.0
 41
1.0
  0
SPLINE
  5
1A2
330
1F
100
AcDbEntity
  8
Default
 62
    18
420
        0
370
    -3
100
AcDbSpline
210
0.0
220
0.0
230
1.0
 70
    24
 71
     2
 72
     6
 73
     3
 74
     0
 42
0.000000001
 43
0.0000000001
 40
3.132289465258426
 40
3.132289465258426
 40
3.132289465258426
 40
4.632289465258426
 40
4.632289465258426
 40
4.632289465258426
 10
8.624999999999986
 20
41.92689986497186
 30
0.0
 10
9.374999999999986
 20
41.92689986497186
 30
0.0
 10
10.12499999999999
 20
41.92689986497186
 30
0.0
  0
SPLINE
  5
1A3
330
1F
100
AcDbEntity
  8
Default
 62
    18
420
        0
370
    -3
100
AcDbSpline
210
0.0
220
0.0
230
1.0
 70
    12
 71
     2
 72
     6
 73
     3
 74
     0
 42
0.000000001
 43
0.0000000001
 40
4.632289465258426
 40
4.632289465258426
 40
4.632289465258426
 40
5.02498854695715
 40
5.02498854695715
 40
5.02498854695715
 10
10.12499999999999
 20
41.92689986497186
 30
0.0
 41
1.0
 10
10.37499999999999
 20
41.92689986497186
 30
0.0
 41
0.7071067811865476
 10
10.37499999999999
 20
41.96600848123191
 30
0.0
 41
1.0
  0
LINE
  5
1A4
330
1F
100
AcDbEntity
  8
Default
 62
    18
420
        0
370
    -3
100
AcDbLine
 10
10.37499999999999
 20
41.9660084812319
 30
0.0
 11
10.37499999999999
 21
42.22941727761361
 31
0.0
  0
SPLINE
  5
1A5
330
1F
100
AcDbEntity
  8
Default
 62
    18
420
        0
370
    -3
100
AcDbSpline
210
0.0
220
0.0
230
1.0
 70
    12
 71
     2
 72
     6
 73
     3
 74
     0
 42
0.000000001
 43
0.0000000001
 40
5.291680767119404
 40
5.291680767119404
 40
5.291680767119404
 40
5.684379848818129
 40
5.684379848818129
 40
5.684379848818129
 10
10.37499999999999
 20
42.22941727761361
 30
0.0
 41
1.0
 10
10.37499999999999
 20
42.26852589387365
 30
0.0
 41
0.7071067811865476
 10
10.12499999999999
 20
42.26852589387366
 30
0.0
 41
1.0
  0
SPLINE
  5
1A6
330
1F
100
AcDbEntity
  8
Default
 62
    18
420
        0
370
    -3
100
AcDbSpline
210
0.0
220
0.0
230
1.0
 70
    24
 71
     2
 72
     6
 73
     3
 74
     0
 42
0.000000001
 43
0.0000000001
 40
5.684379848818129
 40
5.684379848818129
 40
5.684379848818129
 40
7.184379848818129
 40
7.184379848818129
 40
7.184379848818129
 10
10.12499999999999
 20
42.26852589387366
 30
0.0
 10
9.374999999999986
 20
42.26852589387366
 30
0.0
 10
8.624999999999986
 20
42.26852589387366
 30
0.0
  0
SPLINE
  5
1A7
330
1F
100
AcDbEntity
  8
Default
 62
    18
420
        0
370
    -3
100
AcDbSpline
210
0.0
220
0.0
230
1.0
 70
    12
 71
     2
 72
     6
 73
     3
 74
     0
 42
0.000000001
 43
0.0000000001
 40
7.184379848818129
 40
7.184379848818129
 40
7.184379848818129
 40
7.577078930516852
 40
7.577078930516852
 40
7.577078930516852
 10
8.624999999999986
 20
42.26852589387366
 30
0.0
 41
1.0
 10
8.374999999999988
 20
42.26852589387365
 30
0.0
 41
0.7071067811865476
 10
8.374999999999986
 20
42.22941727761361
 30
0.0
 41
1.0
  0
LINE
  5
1A8
330
1F
100
AcDbEntity
  8
Default
 62
    18
420
        0
370
    -3
100
AcDbLine
 10
8.374999999999986
 20
42.22941727761361
 30
0.0
 11
8.374999999999986
 21
41.96600848123191
 31
0.0
  0
SPLINE
  5
1A9
330
1F
100
AcDbEntity
  8
Default
 62
    18
420
        0
370
    -3
100
AcDbSpline
210
0.0
220
0.0
230
1.0
 70
    12
 71
     2
 72
     6
 73
     3
 74
     0
 42
0.000000001
 43
0.0000000001
 40
7.843771150679106
 40
7.843771150679106
 40
7.843771150679106
 40
8.23647023237783
 40
8.23647023237783
 40
8.23647023237783
 10
8.374999999999986
 20
41.96600848123191
 30
0.0
 41
1.0
 10
8.374999999999988
 20
41.92689986497186
 30
0.0
 41
0.7071067811865476
 10
8.624999999999986
 20
41.92689986497186
 30
0.0
 41
1.0
  0
SPLINE
  5
1AA
330
1F
100
AcDbEntity
  8
Default
 62
    18
420
        0
370
    -3
100
AcDbSpline
210
0.0
220
0.0
230
1.0
 70
    28
 71
     2
 72
     6
 73
     3
 74
     0
 42
0.000000001
 43
0.0000000001
 40
0.0
 40
0.0
 40
0.0
 40
21.25
 40
21.25
 40
21.25
 10
10.625
 20
42.59271126365596
 30
0.0
 41
1.0
 10
0.0000000000000071
 20
42.59271126365596
 30
0.0
 41
1.0
 10
-10.62499999999999
 20
42.59271126365596
 30
0.0
 41
1.0
  0
SPLINE
  5
1AB
330
1F
100
AcDbEntity
  8
Default
 62
    18
420
        0
370
    -3
100
AcDbSpline
210
0.0
220
0.0
230
1.0
 70
     8
 71
     3
 72
    16
 73
    12
 74
     0
 42
0.000000001
 43
0.0000000001
 40
21.25
 40
21.25
 40
21.25
 40
21.25
 40
22.25
 40
23.25
 40
24.25
 40
25.25
 40
26.25
 40
27.25
 40
28.25
 40
29.25
 40
30.25
 40
30.25
 40
30.25
 40
30.25
 10
-10.62499999999999
 20
42.59271126365596
 30
0.0
 10
-10.65439361087242
 20
42.62255020821787
 30
0.0
 10
-10.71266457021834
 20
42.68243885073827
 30
0.0
 10
-10.80105872185345
 20
42.77241011705225
 30
0.0
 10
-10.883115180535
 20
42.86501657291969
 30
0.0
 10
-10.97848025924461
 20
42.95734600607604
 30
0.0
 10
-10.9784803789867
 20
43.08807621407344
 30
0.0
 10
-10.88311509392234
 20
43.18040598054499
 30
0.0
 10
-10.80105874488025
 20
43.27301240325986
 30
0.0
 10
-10.71266457491065
 20
43.36298369949121
 30
0.0
 10
-10.65439359933642
 20
43.42287230480132
 30
0.0
 10
-10.62499999999998
 20
43.45271126365596
 30
0.0
  0
SPLINE
  5
1AC
330
1F
100
AcDbEntity
  8
Default
 62
    18
420
        0
370
    -3
100
AcDbSpline
210
0.0
220
0.0
230
1.0
 70
    28
 71
     2
 72
     6
 73
     3
 74
     0
 42
0.000000001
 43
0.0000000001
 40
30.25
 40
30.25
 40
30.25
 40
51.5
 40
51.5
 40
51.5
 10
-10.62499999999998
 20
43.45271126365596
 30
0.0
 41
1.0
 10
0.0000000000000151
 20
43.45271126365596
 30
0.0
 41
1.0
 10
10.62500000000001
 20
43.45271126365596
 30
0.0
 41
1.0
  0
SPLINE
  5
1AD
330
1F
100
AcDbEntity
  8
Default
 62
    18
420
        0
370
    -3
100
AcDbSpline
210
0.0
220
0.0
230
1.0
 70
     8
 71
     3
 72
    16
 73
    12
 74
     0
 42
0.000000001
 43
0.0000000001
 40
51.5
 40
51.5
 40
51.5
 40
51.5
 40
52.5
 40
53.5
 40
54.5
 40
55.5
 40
56.5
 40
57.5
 40
58.5
 40
59.5
 40
60.5
 40
60.5
 40
60.5
 40
60.5
 10
10.62499999999998
 20
43.45271126365595
 30
0.0
 10
10.65439359933642
 20
43.42287230480132
 30
0.0
 10
10.71266457491065
 20
43.36298369949121
 30
0.0
 10
10.80105874488025
 20
43.27301240325986
 30
0.0
 10
10.88311509392234
 20
43.18040598054499
 30
0.0
 10
10.9784803789867
 20
43.08807621407344
 30
0.0
 10
10.97848025924461
 20
42.95734600607604
 30
0.0
 10
10.883115180535
 20
42.86501657291969
 30
0.0
 10
10.80105872185345
 20
42.77241011705225
 30
0.0
 10
10.71266457021834
 20
42.68243885073827
 30
0.0
 10
10.65439361087242
 20
42.62255020821787
 30
0.0
 10
10.625
 20
42.59271126365596
 30
0.0
  0
SPLINE
  5
1AE
330
1F
100
AcDbEntity
  8
Default
 62
    18
420
        0
370
    -3
100
AcDbSpline
210
0.0
220
0.0
230
1.0
 70
     8
 71
     3
 72
    16
 73
    12
 74
     0
 42
0.000000001
 43
0.0000000001
 40
-9.0
 40
-9.0
 40
-9.0
 40
-9.0
 40
-8.0
 40
-7.0
 40
-6.0
 40
-5.0
 40
-4.0
 40
-3.0
 40
-2.0
 40
-1.0
 40
0.0
 40
0.0
 40
0.0
 40
0.0
 10
10.62499999999999
 20
20.57647104627886
 30
0.0
 10
10.62501116008963
 20
20.54643800195478
 30
0.0
 10
10.63246303767483
 20
20.48657877445635
 30
0.0
 10
10.6592114571141
 20
20.40031122663954
 30
0.0
 10
10.69736160928892
 20
20.31862334562124
 30
0.0
 10
10.74479598768191
 20
20.24171225509075
 30
0.0
 10
10.79962883713857
 20
20.17102067362833
 30
0.0
 10
10.86311706241556
 20
20.10347813589791
 30
0.0
 10
10.92546154620363
 20
20.05205372815271
 30
0.0
 10
11.0177133976322
 20
19.9681031132407
 30
0.0
 10
10.91217251495741
 20
19.95999080681203
 30
0.0
 10
10.88964348000919
 20
19.95981383090596
 30
0.0
  0
SPLINE
  5
1AF
330
1F
100
AcDbEntity
  8
Default
 62
    18
420
        0
370
    -3
100
AcDbSpline
210
0.0
220
0.0
230
1.0
 70
    28
 71
     2
 72
     6
 73
     3
 74
     0
 42
0.000000001
 43
0.0000000001
 40
0.0
 40
0.0
 40
0.0
 40
21.7792869600184
 40
21.7792869600184
 40
21.7792869600184
 10
10.88964348000919
 20
19.95981383090596
 30
0.0
 41
1.0
 10
0.0000000000000053
 20
19.95981383090596
 30
0.0
 41
1.0
 10
-10.88964348000918
 20
19.95981383090596
 30
0.0
 41
1.0
  0
SPLINE
  5
1B0
330
1F
100
AcDbEntity
  8
Default
 62
    18
420
        0
370
    -3
100
AcDbSpline
210
0.0
220
0.0
230
1.0
 70
     8
 71
     3
 72
    16
 73
    12
 74
     0
 42
0.000000001
 43
0.0000000001
 40
21.7792869600184
 40
21.7792869600184
 40
21.7792869600184
 40
21.7792869600184
 40
22.7792869600184
 40
23.7792869600184
 40
24.7792869600184
 40
25.7792869600184
 40
26.7792869600184
 40
27.7792869600184
 40
28.7792869600184
 40
29.7792869600184
 40
30.7792869600184
 40
30.7792869600184
 40
30.7792869600184
 40
30.7792869600184
 10
-10.88964348000918
 20
19.95981383090596
 30
0.0
 10
-10.91217251495741
 20
19.95999080681203
 30
0.0
 10
-11.0177133976322
 20
19.9681031132407
 30
0.0
 10
-10.92546154620363
 20
20.05205372815271
 30
0.0
 10
-10.86311706241556
 20
20.10347813589791
 30
0.0
 10
-10.79962883713857
 20
20.17102067362833
 30
0.0
 10
-10.74479598768191
 20
20.24171225509075
 30
0.0
 10
-10.69736160928892
 20
20.31862334562124
 30
0.0
 10
-10.6592114571141
 20
20.40031122663954
 30
0.0
 10
-10.63246303767483
 20
20.48657877445635
 30
0.0
 10
-10.62501116008963
 20
20.54643800195478
 30
0.0
 10
-10.62499999999999
 20
20.57647104627886
 30
0.0
  0
ENDSEC
  0
SECTION
  2
OBJECTS
  0
DICTIONARY
  5
C
330
0
100
AcDbDictionary
281
     1
  3
ACAD_DETAILVIEWSTYLE
350
1EC
  3
ACAD_GROUP
350
D
  3
ACAD_LAYOUT
350
1A
  3
ACAD_MATERIAL
350
43
  3
ACAD_MLEADERSTYLE
350
6B
  3
ACAD_MLINESTYLE
350
17
  3
ACAD_PLOTSETTINGS
350
19
  3
ACAD_PLOTSTYLENAME
350
E
  3
ACAD_SCALELIST
350
47
  3
ACAD_SECTIONVIEWSTYLE
350
1ED
  3
ACAD_TABLESTYLE
350
69
  3
ACAD_VISUALSTYLE
350
2A
  3
ACDB_RECOMPOSE_DATA
350
1E9
  3
AcDbVariableDictionary
350
1B1
  0
SUN
  5
6D
330
29
100
AcDbSun
 90
        1
290
     0
 63
     7
421
 16777215
 40
1.0
291
     1
 91
  2455826
 92
 54000000
292
     0
 70
     2
 71
   256
280
     1
  0
DICTIONARY
  5
1EC
102
{ACAD_REACTORS
330
C
102
}
330
C
100
AcDbDictionary
281
     1
  0
DICTIONARY
  5
D
102
{ACAD_REACTORS
330
C
102
}
330
C
100
AcDbDictionary
281
     1
  0
DICTIONARY
  5
1A
102
{ACAD_REACTORS
330
C
102
}
330
C
100
AcDbDictionary
281
     1
  3
Layout1
350
1E
  3
Layout2
350
26
  3
Model
350
22
  0
DICTIONARY
  5
43
102
{ACAD_REACTORS
330
C
102
}
330
C
100
AcDbDictionary
281
     1
  3
ByBlock
350
45
  3
ByLayer
350
44
  3
Global
350
46
  0
DICTIONARY
  5
6B
102
{ACAD_REACTORS
330
C
102
}
330
C
100
AcDbDictionary
281
     1
  3
Standard
350
6C
  0
DICTIONARY
  5
17
102
{ACAD_REACTORS
330
C
102
}
330
C
100
AcDbDictionary
281
     1
  3
Standard
350
18
  0
DICTIONARY
  5
19
102
{ACAD_REACTORS
330
C
102
}
330
C
100
AcDbDictionary
281
     1
  0
ACDBDICTIONARYWDFLT
  5
E
102
{ACAD_REACTORS
330
C
102
}
330
C
100
AcDbDictionary
281
     1
  3
Normal
350
F
100
AcDbDictionaryWithDefault
340
F
  0
DICTIONARY
  5
47
102
{ACAD_REACTORS
330
C
102
}
330
C
100
AcDbDictionary
281
     1
  3
A0
350
48
  3
A1
350
49
  3
A2
350
4A
  3
A3
350
4B
  3
A4
350
4C
  3
A5
350
4D
  3
A6
350
4E
  3
A7
350
4F
  3
A8
350
50
  3
A9
350
51
  3
B0
350
52
  3
B1
350
53
  3
B2
350
54
  3
B3
350
55
  3
B4
350
56
  3
B5
350
57
  3
B6
350
58
  3
B7
350
59
  3
B8
350
5A
  3
B9
350
5B
  3
C0
350
5C
  3
C1
350
5D
  3
C2
350
5E
  3
C3
350
5F
  3
C4
350
60
  3
C5
350
61
  3
C6
350
62
  3
C7
350
63
  3
C8
350
64
  3
C9
350
65
  3
D0
350
66
  3
D1
350
67
  3
D2
350
68
  0
DICTIONARY
  5
1ED
102
{ACAD_REACTORS
330
C
102
}
330
C
100
AcDbDictionary
281
     1
  0
DICTIONARY
  5
69
102
{ACAD_REACTORS
330
C
102
}
330
C
100
AcDbDictionary
281
     1
  3
Standard
350
6A
  0
DICTIONARY
  5
2A
102
{ACAD_REACTORS
330
C
102
}
330
C
100
AcDbDictionary
281
     1
  3
2dWireframe
350
2F
  3
Basic
350
32
  3
Brighten
350
36
  3
ColorChange
350
3A
  3
Conceptual
350
34
  3
Dim
350
35
  3
EdgeColorOff
350
3D
  3
Facepattern
350
39
  3
Flat
350
2B
  3
FlatWithEdges
350
2C
  3
Gouraud
350
2D
  3
GouraudWithEdges
350
2E
  3
Hidden
350
31
  3
JitterOff
350
3B
  3
Linepattern
350
38
  3
OverhangOff
350
3C
  3
Realistic
350
33
  3
Shaded
350
42
  3
Shaded with edges
350
41
  3
Shades of Gray
350
3E
  3
Sketchy
350
3F
  3
Thicken
350
37
  3
Wireframe
350
30
  3
X-Ray
350
40
  0
XRECORD
  5
1E9
102
{ACAD_REACTORS
330
C
102
}
330
C
100
AcDbXrecord
280
     1
 90
        1
330
6A
  0
DICTIONARY
  5
1B1
102
{ACAD_REACTORS
330
C
102
}
330
C
100
AcDbDictionary
281
     1
  3
CANNOSCALE
350
1B2
  3
CMLEADERSTYLE
350
1EB
  3
CTABLESTYLE
350
1EA
  3
XCLIPFRAME
350
1B3
  0
LAYOUT
  5
1E
102
{ACAD_REACTORS
330
1A
102
}
330
1A
100
AcDbPlotSettings
  1

  2
none_device
  4

  6

 40
0.0
 41
0.0
 42
0.0
 43
0.0
 44
0.0
 45
0.0
 46
0.0
 47
0.0
 48
0.0
 49
0.0
140
0.0
141
0.0
142
1.0
143
1.0
 70
   688
 72
     0
 73
     0
 74
     5
  7

 75
    16
 76
     0
 77
     2
 78
   300
147
1.0
148
0.0
149
0.0
100
AcDbLayout
  1
Layout1
 70
     1
 71
     1
 10
0.0
 20
0.0
 11
12.0
 21
9.0
 12
0.0
 22
0.0
 32
0.0
 14
1.000000000000000E+20
 24
1.000000000000000E+20
 34
1.000000000000000E+20
 15
-1.000000000000000E+20
 25
-1.000000000000000E+20
 35
-1.000000000000000E+20
146
0.0
 13
0.0
 23
0.0
 33
0.0
 16
1.0
 26
0.0
 36
0.0
 17
0.0
 27
1.0
 37
0.0
 76
     0
330
1B
  0
LAYOUT
  5
26
102
{ACAD_REACTORS
330
1A
102
}
330
1A
100
AcDbPlotSettings
  1

  2
none_device
  4

  6

 40
0.0
 41
0.0
 42
0.0
 43
0.0
 44
0.0
 45
0.0
 46
0.0
 47
0.0
 48
0.0
 49
0.0
140
0.0
141
0.0
142
1.0
143
1.0
 70
   688
 72
     0
 73
     0
 74
     5
  7

 75
    16
 76
     0
 77
     2
 78
   300
147
1.0
148
0.0
149
0.0
100
AcDbLayout
  1
Layout2
 70
     1
 71
     2
 10
0.0
 20
0.0
 11
0.0
 21
0.0
 12
0.0
 22
0.0
 32
0.0
 14
0.0
 24
0.0
 34
0.0
 15
0.0
 25
0.0
 35
0.0
146
0.0
 13
0.0
 23
0.0
 33
0.0
 16
1.0
 26
0.0
 36
0.0
 17
0.0
 27
1.0
 37
0.0
 76
     0
330
23
  0
LAYOUT
  5
22
102
{ACAD_REACTORS
330
1A
102
}
330
1A
100
AcDbPlotSettings
  1

  2
none_device
  4
Letter_(8.50_x_11.00_Inches)
  6

 40
6.35
 41
6.35
 42
6.35000508
 43
6.35000508
 44
215.9
 45
279.4
 46
0.0
 47
0.0
 48
0.0
 49
0.0
140
0.0
141
0.0
142
1.0
143
1.0
 70
  1712
 72
     0
 73
     0
 74
     0
  7

 75
     0
 76
     0
 77
     2
 78
   300
147
1.0
148
0.0
149
0.0
100
AcDbLayout
  1
Model
 70
     1
 71
     0
 10
0.0
 20
0.0
 11
12.0
 21
9.0
 12
0.0
 22
0.0
 32
0.0
 14
1.000000000000000E+20
 24
1.000000000000000E+20
 34
1.000000000000000E+20
 15
-1.000000000000000E+20
 25
-1.000000000000000E+20
 35
-1.000000000000000E+20
146
0.0
 13
0.0
 23
0.0
 33
0.0
 16
1.0
 26
0.0
 36
0.0
 17
0.0
 27
1.0
 37
0.0
 76
     0
330
1F
331
29
  0
MATERIAL
  5
45
102
{ACAD_REACTORS
330
43
102
}
330
43
100
AcDbMaterial
  1
ByBlock
 72
     1
 94
      127
  0
MATERIAL
  5
44
102
{ACAD_REACTORS
330
43
102
}
330
43
100
AcDbMaterial
  1
ByLayer
 72
     1
 94
      127
  0
MATERIAL
  5
46
102
{ACAD_REACTORS
330
43
102
}
330
43
100
AcDbMaterial
  1
Global
 72
     1
 94
      127
  0
MLEADERSTYLE
  5
6C
102
{ACAD_REACTORS
330
6B
102
}
102
{ACAD_XDICTIONARY
360
1E7
102
}
330
6B
100
AcDbMLeaderStyle
170
     2
171
     1
172
     0
 90
        2
 40
0.0
 41
0.0
173
     1
 91
-1056964608
340
14
 92
       -2
290
     1
 42
0.09
291
     1
 43
0.36
  3
Standard
341
0
 44
0.18
300

342
11
174
     1
178
     6
175
     1
176
     0
 93
-1056964608
 45
0.18
292
     0
297
     0
 46
0.18
343
0
 94
-1056964608
 47
1.0
 49
1.0
140
1.0
293
     1
141
0.0
294
     1
177
     0
142
1.0
295
     0
296
     0
143
0.125
1001
ACAD_MLEADERVER
1070
     2
  0
MLINESTYLE
  5
18
102
{ACAD_REACTORS
330
17
102
}
330
17
100
AcDbMlineStyle
  2
Standard
 70
     0
  3

 62
   256
 51
90.0
 52
90.0
 71
     2
 49
0.5
 62
   256
  6
BYLAYER
 49
-0.5
 62
   256
  6
BYLAYER
  0
ACDBPLACEHOLDER
  5
F
102
{ACAD_REACTORS
330
E
102
}
330
E
  0
SCALE
  5
48
102
{ACAD_REACTORS
330
47
102
}
330
47
100
AcDbScale
 70
     0
300
1:1
140
1.0
141
1.0
290
     1
  0
SCALE
  5
49
102
{ACAD_REACTORS
330
47
102
}
330
47
100
AcDbScale
 70
     0
300
1:2
140
1.0
141
2.0
290
     0
  0
SCALE
  5
4A
102
{ACAD_REACTORS
330
47
102
}
330
47
100
AcDbScale
 70
     0
300
1:4
140
1.0
141
4.0
290
     0
  0
SCALE
  5
4B
102
{ACAD_REACTORS
330
47
102
}
330
47
100
AcDbScale
 70
     0
300
1:5
140
1.0
141
5.0
290
     0
  0
SCALE
  5
4C
102
{ACAD_REACTORS
330
47
102
}
330
47
100
AcDbScale
 70
     0
300
1:8
140
1.0
141
8.0
290
     0
  0
SCALE
  5
4D
102
{ACAD_REACTORS
330
47
102
}
330
47
100
AcDbScale
 70
     0
300
1:10
140
1.0
141
10.0
290
     0
  0
SCALE
  5
4E
102
{ACAD_REACTORS
330
47
102
}
330
47
100
AcDbScale
 70
     0
300
1:16
140
1.0
141
16.0
290
     0
  0
SCALE
  5
4F
102
{ACAD_REACTORS
330
47
102
}
330
47
100
AcDbScale
 70
     0
300
1:20
140
1.0
141
20.0
290
     0
  0
SCALE
  5
50
102
{ACAD_REACTORS
330
47
102
}
330
47
100
AcDbScale
 70
     0
300
1:30
140
1.0
141
30.0
290
     0
  0
SCALE
  5
51
102
{ACAD_REACTORS
330
47
102
}
330
47
100
AcDbScale
 70
     0
300
1:40
140
1.0
141
40.0
290
     0
  0
SCALE
  5
52
102
{ACAD_REACTORS
330
47
102
}
330
47
100
AcDbScale
 70
     0
300
1:50
140
1.0
141
50.0
290
     0
  0
SCALE
  5
53
102
{ACAD_REACTORS
330
47
102
}
330
47
100
AcDbScale
 70
     0
300
1:100
140
1.0
141
100.0
290
     0
  0
SCALE
  5
54
102
{ACAD_REACTORS
330
47
102
}
330
47
100
AcDbScale
 70
     0
300
2:1
140
2.0
141
1.0
290
     0
  0
SCALE
  5
55
102
{ACAD_REACTORS
330
47
102
}
330
47
100
AcDbScale
 70
     0
300
4:1
140
4.0
141
1.0
290
     0
  0
SCALE
  5
56
102
{ACAD_REACTORS
330
47
102
}
330
47
100
AcDbScale
 70
     0
300
8:1
140
8.0
141
1.0
290
     0
  0
SCALE
  5
57
102
{ACAD_REACTORS
330
47
102
}
330
47
100
AcDbScale
 70
     0
300
10:1
140
10.0
141
1.0
290
     0
  0
SCALE
  5
58
102
{ACAD_REACTORS
330
47
102
}
330
47
100
AcDbScale
 70
     0
300
100:1
140
100.0
141
1.0
290
     0
  0
SCALE
  5
59
102
{ACAD_REACTORS
330
47
102
}
330
47
100
AcDbScale
 70
     0
300
1/128" = 1'-0"
140
0.0078125
141
12.0
290
     0
  0
SCALE
  5
5A
102
{ACAD_REACTORS
330
47
102
}
330
47
100
AcDbScale
 70
     0
300
1/64" = 1'-0"
140
0.015625
141
12.0
290
     0
  0
SCALE
  5
5B
102
{ACAD_REACTORS
330
47
102
}
330
47
100
AcDbScale
 70
     0
300
1/32" = 1'-0"
140
0.03125
141
12.0
290
     0
  0
SCALE
  5
5C
102
{ACAD_REACTORS
330
47
102
}
330
47
100
AcDbScale
 70
     0
300
1/16" = 1'-0"
140
0.0625
141
12.0
290
     0
  0
SCALE
  5
5D
102
{ACAD_REACTORS
330
47
102
}
330
47
100
AcDbScale
 70
     0
300
3/32" = 1'-0"
140
0.09375
141
12.0
290
     0
  0
SCALE
  5
5E
102
{ACAD_REACTORS
330
47
102
}
330
47
100
AcDbScale
 70
     0
300
1/8" = 1'-0"
140
0.125
141
12.0
290
     0
  0
SCALE
  5
5F
102
{ACAD_REACTORS
330
47
102
}
330
47
100
AcDbScale
 70
     0
300
3/16" = 1'-0"
140
0.1875
141
12.0
290
     0
  0
SCALE
  5
60
102
{ACAD_REACTORS
330
47
102
}
330
47
100
AcDbScale
 70
     0
300
1/4" = 1'-0"
140
0.25
141
12.0
290
     0
  0
SCALE
  5
61
102
{ACAD_REACTORS
330
47
102
}
330
47
100
AcDbScale
 70
     0
300
3/8" = 1'-0"
140
0.375
141
12.0
290
     0
  0
SCALE
  5
62
102
{ACAD_REACTORS
330
47
102
}
330
47
100
AcDbScale
 70
     0
300
1/2" = 1'-0"
140
0.5
141
12.0
290
     0
  0
SCALE
  5
63
102
{ACAD_REACTORS
330
47
102
}
330
47
100
AcDbScale
 70
     0
300
3/4" = 1'-0"
140
0.75
141
12.0
290
     0
  0
SCALE
  5
64
102
{ACAD_REACTORS
330
47
102
}
330
47
100
AcDbScale
 70
     0
300
1" = 1'-0"
140
1.0
141
12.0
290
     0
  0
SCALE
  5
65
102
{ACAD_REACTORS
330
47
102
}
330
47
100
AcDbScale
 70
     0
300
1-1/2" = 1'-0"
140
1.5
141
12.0
290
     0
  0
SCALE
  5
66
102
{ACAD_REACTORS
330
47
102
}
330
47
100
AcDbScale
 70
     0
300
3" = 1'-0"
140
3.0
141
12.0
290
     0
  0
SCALE
  5
67
102
{ACAD_REACTORS
330
47
102
}
330
47
100
AcDbScale
 70
     0
300
6" = 1'-0"
140
6.0
141
12.0
290
     0
  0
SCALE
  5
68
102
{ACAD_REACTORS
330
47
102
}
330
47
100
AcDbScale
 70
     0
300
1'-0" = 1'-0"
140
12.0
141
12.0
290
     0
  0
TABLESTYLE
  5
6A
102
{ACAD_REACTORS
330
69
102
}
102
{ACAD_XDICTIONARY
360
1E4
102
}
330
69
100
AcDbTableStyle
  3
Standard
 70
     0
 71
     0
 40
0.06
 41
0.06
280
     0
281
     0
  7
Standard
140
0.18
170
     2
 62
     0
 63
   257
283
     0
 90
        4
 91
        0
  1

274
    -2
284
     1
 64
     0
275
    -2
285
     1
 65
     0
276
    -2
286
     1
 66
     0
277
    -2
287
     1
 67
     0
278
    -2
288
     1
 68
     0
279
    -2
289
     1
 69
     0
  7
Standard
140
0.25
170
     5
 62
     0
 63
   257
283
     0
 90
        4
 91
        0
  1

274
    -2
284
     1
 64
     0
275
    -2
285
     1
 65
     0
276
    -2
286
     1
 66
     0
277
    -2
287
     1
 67
     0
278
    -2
288
     1
 68
     0
279
    -2
289
     1
 69
     0
  7
Standard
140
0.18
170
     5
 62
     0
 63
   257
283
     0
 90
        4
 91
        0
  1

274
    -2
284
     1
 64
     0
275
    -2
285
     1
 65
     0
276
    -2
286
     1
 66
     0
277
    -2
287
     1
 67
     0
278
    -2
288
     1
 68
     0
279
    -2
289
     1
 69
     0
  0
VISUALSTYLE
  5
2F
102
{ACAD_REACTORS
330
2A
102
}
102
{ACAD_XDICTIONARY
360
1BC
102
}
330
2A
100
AcDbVisualStyle
  2
2dWireframe
 70
     4
 71
     0
 72
     2
 73
     0
 90
        0
 40
0.6
 41
30.0
 62
     5
 63
     7
421
 16777215
 74
     1
 91
        4
 64
     7
 65
   257
 75
     1
175
     1
 42
1.0
 92
        0
 66
   257
 43
1.0
 76
     1
 77
     6
 78
     2
 67
     7
 79
     5
170
     0
171
     0
290
     0
174
     0
 93
        1
 44
0.0
173
     0
291
     0
 45
0.0
  0
VISUALSTYLE
  5
32
102
{ACAD_REACTORS
330
2A
102
}
102
{ACAD_XDICTIONARY
360
1C2
102
}
330
2A
100
AcDbVisualStyle
  2
Basic
 70
     7
 71
     1
 72
     0
 73
     1
 90
        0
 40
0.6
 41
30.0
 62
     5
 63
     7
421
 16777215
 74
     0
 91
        4
 64
     7
 65
   257
 75
     1
175
     1
 42
1.0
 92
        8
 66
     7
 43
1.0
 76
     1
 77
     6
 78
     2
 67
     7
 79
     5
170
     0
171
     0
290
     0
174
     0
 93
        1
 44
0.0
173
     0
291
     1
 45
0.0
  0
VISUALSTYLE
  5
36
102
{ACAD_REACTORS
330
2A
102
}
102
{ACAD_XDICTIONARY
360
1CA
102
}
330
2A
100
AcDbVisualStyle
  2
Brighten
 70
    12
 71
     2
 72
     2
 73
     0
 90
        0
 40
0.6
 41
30.0
 62
     5
 63
     7
421
 16777215
 74
     1
 91
        4
 64
     7
 65
   257
 75
     1
175
     1
 42
1.0
 92
        8
 66
     7
 43
1.0
 76
     1
 77
     6
 78
     2
 67
     7
 79
     5
170
     0
171
     0
290
     0
174
     0
 93
        1
 44
50.0
173
     0
291
     1
 45
0.0
  0
VISUALSTYLE
  5
3A
102
{ACAD_REACTORS
330
2A
102
}
102
{ACAD_XDICTIONARY
360
1D2
102
}
330
2A
100
AcDbVisualStyle
  2
ColorChange
 70
    16
 71
     2
 72
     2
 73
     3
 90
        0
 40
0.6
 41
30.0
 62
     5
 63
     8
421
  8421504
 74
     1
 91
        4
 64
     7
 65
   257
 75
     1
175
     1
 42
1.0
 92
        8
 66
     8
424
  8421504
 43
1.0
 76
     1
 77
     6
 78
     2
 67
     7
 79
     5
170
     0
171
     0
290
     0
174
     0
 93
        1
 44
0.0
173
     0
291
     1
 45
0.0
  0
VISUALSTYLE
  5
34
102
{ACAD_REACTORS
330
2A
102
}
102
{ACAD_XDICTIONARY
360
1C6
102
}
330
2A
100
AcDbVisualStyle
  2
Conceptual
 70
     9
 71
     3
 72
     2
 73
     0
 90
        0
 40
0.6
 41
30.0
 62
     5
 63
     7
421
 16777215
 74
     2
 91
        2
 64
     7
 65
   257
 75
     1
175
     1
 42
179.0
 92
        8
 66
     7
 43
1.0
 76
     1
 77
     6
 78
     2
 67
     7
 79
     3
170
     0
171
     0
290
     0
174
     0
 93
        1
 44
0.0
173
     0
291
     0
 45
0.0
  0
VISUALSTYLE
  5
35
102
{ACAD_REACTORS
330
2A
102
}
102
{ACAD_XDICTIONARY
360
1C8
102
}
330
2A
100
AcDbVisualStyle
  2
Dim
 70
    11
 71
     2
 72
     2
 73
     0
 90
        0
 40
0.6
 41
30.0
 62
     5
 63
     7
421
 16777215
 74
     1
 91
        4
 64
     7
 65
   257
 75
     1
175
     1
 42
1.0
 92
        8
 66
     7
 43
1.0
 76
     1
 77
     6
 78
     2
 67
     7
 79
     5
170
     0
171
     0
290
     0
174
     0
 93
        1
 44
-50.0
173
     0
291
     1
 45
0.0
  0
VISUALSTYLE
  5
3D
102
{ACAD_REACTORS
330
2A
102
}
102
{ACAD_XDICTIONARY
360
1D8
102
}
330
2A
100
AcDbVisualStyle
  2
EdgeColorOff
 70
    22
 71
     2
 72
     2
 73
     0
 90
        0
 40
0.6
 41
30.0
 62
     5
 63
     7
421
 16777215
 74
     1
 91
        4
 64
     7
 65
   257
 75
     1
175
     1
 42
1.0
 92
        8
 66
     7
 43
1.0
 76
     1
 77
     6
 78
     2
 67
     7
 79
     5
170
     0
171
     0
290
     0
174
     0
 93
        1
 44
0.0
173
     0
291
     1
 45
0.0
  0
VISUALSTYLE
  5
39
102
{ACAD_REACTORS
330
2A
102
}
102
{ACAD_XDICTIONARY
360
1D0
102
}
330
2A
100
AcDbVisualStyle
  2
Facepattern
 70
    15
 71
     2
 72
     2
 73
     0
 90
        0
 40
0.6
 41
30.0
 62
     5
 63
     7
421
 16777215
 74
     1
 91
        4
 64
     7
 65
   257
 75
     1
175
     1
 42
1.0
 92
        8
 66
     7
 43
1.0
 76
     1
 77
     6
 78
     2
 67
     7
 79
     5
170
     0
171
     0
290
     0
174
     0
 93
        1
 44
0.0
173
     0
291
     1
 45
0.0
  0
VISUALSTYLE
  5
2B
102
{ACAD_REACTORS
330
2A
102
}
102
{ACAD_XDICTIONARY
360
1B4
102
}
330
2A
100
AcDbVisualStyle
  2
Flat
 70
     0
 71
     2
 72
     1
 73
     1
 90
        2
 40
0.6
 41
30.0
 62
     5
 63
     7
421
 16777215
 74
     0
 91
        0
 64
     7
 65
   257
 75
     1
175
     1
 42
1.0
 92
        8
 66
     7
 43
1.0
 76
     1
 77
     6
 78
     2
 67
     7
 79
     5
170
     0
171
     0
290
     0
174
     0
 93
       13
 44
0.0
173
     0
291
     1
 45
0.0
  0
VISUALSTYLE
  5
2C
102
{ACAD_REACTORS
330
2A
102
}
102
{ACAD_XDICTIONARY
360
1B6
102
}
330
2A
100
AcDbVisualStyle
  2
FlatWithEdges
 70
     1
 71
     2
 72
     1
 73
     1
 90
        2
 40
0.6
 41
30.0
 62
     5
 63
     7
421
 16777215
 74
     1
 91
        0
 64
     7
 65
   257
 75
     1
175
     1
 42
1.0
 92
        0
 66
   257
 43
1.0
 76
     1
 77
     6
 78
     2
 67
     7
 79
     5
170
     0
171
     0
290
     0
174
     0
 93
       13
 44
0.0
173
     0
291
     1
 45
0.0
  0
VISUALSTYLE
  5
2D
102
{ACAD_REACTORS
330
2A
102
}
102
{ACAD_XDICTIONARY
360
1B8
102
}
330
2A
100
AcDbVisualStyle
  2
Gouraud
 70
     2
 71
     2
 72
     2
 73
     1
 90
        2
 40
0.6
 41
30.0
 62
     5
 63
     7
421
 16777215
 74
     0
 91
        0
 64
     7
 65
   257
 75
     1
175
     1
 42
1.0
 92
        0
 66
     7
 43
1.0
 76
     1
 77
     6
 78
     2
 67
     7
 79
     5
170
     0
171
     0
290
     0
174
     0
 93
       13
 44
0.0
173
     0
291
     1
 45
0.0
  0
VISUALSTYLE
  5
2E
102
{ACAD_REACTORS
330
2A
102
}
102
{ACAD_XDICTIONARY
360
1BA
102
}
330
2A
100
AcDbVisualStyle
  2
GouraudWithEdges
 70
     3
 71
     2
 72
     2
 73
     1
 90
        2
 40
0.6
 41
30.0
 62
     5
 63
     7
421
 16777215
 74
     1
 91
        0
 64
     7
 65
   257
 75
     1
175
     1
 42
1.0
 92
        0
 66
   257
 43
1.0
 76
     1
 77
     6
 78
     2
 67
     7
 79
     5
170
     0
171
     0
290
     0
174
     0
 93
       13
 44
0.0
173
     0
291
     1
 45
0.0
  0
VISUALSTYLE
  5
31
102
{ACAD_REACTORS
330
2A
102
}
102
{ACAD_XDICTIONARY
360
1C0
102
}
330
2A
100
AcDbVisualStyle
  2
Hidden
 70
     6
 71
     1
 72
     2
 73
     2
 90
        0
 40
0.6
 41
30.0
 62
     5
 63
     7
421
 16777215
 74
     2
 91
        2
 64
     7
 65
   257
 75
     2
175
     1
 42
40.0
 92
        0
 66
   257
 43
1.0
 76
     1
 77
     6
 78
     2
 67
     7
 79
     3
170
     0
171
     0
290
     0
174
     0
 93
        1
 44
0.0
173
     0
291
     0
 45
0.0
  0
VISUALSTYLE
  5
3B
102
{ACAD_REACTORS
330
2A
102
}
102
{ACAD_XDICTIONARY
360
1D4
102
}
330
2A
100
AcDbVisualStyle
  2
JitterOff
 70
    20
 71
     2
 72
     2
 73
     0
 90
        0
 40
0.6
 41
30.0
 62
     5
 63
     7
421
 16777215
 74
     1
 91
        4
 64
     7
 65
   257
 75
     1
175
     1
 42
1.0
 92
       10
 66
     7
 43
1.0
 76
     1
 77
     6
 78
     2
 67
     7
 79
     5
170
     0
171
     0
290
     0
174
     0
 93
        1
 44
0.0
173
     0
291
     1
 45
0.0
  0
VISUALSTYLE
  5
38
102
{ACAD_REACTORS
330
2A
102
}
102
{ACAD_XDICTIONARY
360
1CE
102
}
330
2A
100
AcDbVisualStyle
  2
Linepattern
 70
    14
 71
     2
 72
     2
 73
     0
 90
        0
 40
0.6
 41
30.0
 62
     5
 63
     7
421
 16777215
 74
     1
 91
        4
 64
     7
 65
   257
 75
     7
175
     7
 42
1.0
 92
        8
 66
     7
 43
1.0
 76
     1
 77
     6
 78
     2
 67
     7
 79
     5
170
     0
171
     0
290
     0
174
     0
 93
        1
 44
0.0
173
     0
291
     1
 45
0.0
  0
VISUALSTYLE
  5
3C
102
{ACAD_REACTORS
330
2A
102
}
102
{ACAD_XDICTIONARY
360
1D6
102
}
330
2A
100
AcDbVisualStyle
  2
OverhangOff
 70
    21
 71
     2
 72
     2
 73
     0
 90
        0
 40
0.6
 41
30.0
 62
     5
 63
     7
421
 16777215
 74
     1
 91
        4
 64
     7
 65
   257
 75
     1
175
     1
 42
1.0
 92
        9
 66
     7
 43
1.0
 76
     1
 77
     6
 78
     2
 67
     7
 79
     5
170
     0
171
     0
290
     0
174
     0
 93
        1
 44
0.0
173
     0
291
     1
 45
0.0
  0
VISUALSTYLE
  5
33
102
{ACAD_REACTORS
330
2A
102
}
102
{ACAD_XDICTIONARY
360
1C4
102
}
330
2A
100
AcDbVisualStyle
  2
Realistic
 70
     8
 71
     2
 72
     3
 73
     0
 90
        2
 40
0.6
 41
30.0
 62
     5
 63
     7
421
 16777215
 74
     0
 91
        0
 64
     7
 65
   257
 75
     1
175
     1
 42
1.0
 92
        8
 66
   257
 43
1.0
 76
     1
 77
     6
 78
     2
 67
     7
 79
     3
170
     0
171
     0
290
     0
174
     0
 93
       13
 44
0.0
173
     0
291
     0
 45
0.0
  0
VISUALSTYLE
  5
42
102
{ACAD_REACTORS
330
2A
102
}
102
{ACAD_XDICTIONARY
360
1E2
102
}
330
2A
100
AcDbVisualStyle
  2
Shaded
 70
    27
 71
     2
 72
     2
 73
     1
 90
        2
 40
0.6
 41
30.0
 62
     5
 63
     7
421
 16777215
 74
     0
 91
        4
 64
     7
 65
   257
 75
     1
175
     1
 42
1.0
 92
        8
 66
   257
 43
1.0
 76
     1
 77
     6
 78
     2
 67
     8
425
  7895160
 79
     3
170
     0
171
     0
290
     0
174
     0
 93
        5
 44
0.0
173
     0
291
     0
 45
0.0
  0
VISUALSTYLE
  5
41
102
{ACAD_REACTORS
330
2A
102
}
102
{ACAD_XDICTIONARY
360
1E0
102
}
330
2A
100
AcDbVisualStyle
  2
Shaded with edges
 70
    26
 71
     2
 72
     2
 73
     1
 90
        2
 40
0.6
 41
30.0
 62
     5
 63
     7
421
 16777215
 74
     1
 91
       10
 64
     7
 65
   257
 75
     2
175
     1
 42
1.0
 92
        8
 66
   257
 43
1.0
 76
     1
 77
     6
 78
     2
 67
     7
 79
     3
170
     0
171
     0
290
     0
174
     0
 93
        5
 44
0.0
173
     0
291
     0
 45
0.0
  0
VISUALSTYLE
  5
3E
102
{ACAD_REACTORS
330
2A
102
}
102
{ACAD_XDICTIONARY
360
1DA
102
}
330
2A
100
AcDbVisualStyle
  2
Shades of Gray
 70
    23
 71
     2
 72
     2
 73
     3
 90
        0
 40
0.6
 41
30.0
 62
     5
 63
     7
421
 16777215
 74
     2
 91
        2
 64
     7
 65
     7
 75
     1
175
     1
 42
40.0
 92
        8
 66
     7
 43
1.0
 76
     1
 77
     6
 78
     2
 67
     7
 79
     3
170
     0
171
     0
290
     0
174
     0
 93
        1
 44
0.0
173
     0
291
     0
 45
0.0
  0
VISUALSTYLE
  5
3F
102
{ACAD_REACTORS
330
2A
102
}
102
{ACAD_XDICTIONARY
360
1DC
102
}
330
2A
100
AcDbVisualStyle
  2
Sketchy
 70
    24
 71
     1
 72
     2
 73
     2
 90
        0
 40
0.6
 41
30.0
 62
     5
 63
     7
421
 16777215
 74
     2
 91
        2
 64
     7
 65
     7
 75
     1
175
     1
 42
40.0
 92
       11
 66
     7
 43
1.0
 76
     1
 77
     6
 78
     2
 67
     7
 79
     6
170
     0
171
     0
290
     0
174
     0
 93
        1
 44
0.0
173
     0
291
     0
 45
0.0
  0
VISUALSTYLE
  5
37
102
{ACAD_REACTORS
330
2A
102
}
102
{ACAD_XDICTIONARY
360
1CC
102
}
330
2A
100
AcDbVisualStyle
  2
Thicken
 70
    13
 71
     2
 72
     2
 73
     0
 90
        0
 40
0.6
 41
30.0
 62
     5
 63
     7
421
 16777215
 74
     1
 91
        4
 64
     7
 65
   257
 75
     1
175
     1
 42
1.0
 92
       12
 66
     7
 43
1.0
 76
     1
 77
     6
 78
     2
 67
     7
 79
     5
170
     0
171
     0
290
     0
174
     0
 93
        1
 44
0.0
173
     0
291
     1
 45
0.0
  0
VISUALSTYLE
  5
30
102
{ACAD_REACTORS
330
2A
102
}
102
{ACAD_XDICTIONARY
360
1BE
102
}
330
2A
100
AcDbVisualStyle
  2
Wireframe
 70
     5
 71
     0
 72
     2
 73
     0
 90
        0
 40
0.6
 41
30.0
 62
     5
 63
     7
421
 16777215
 74
     1
 91
        4
 64
     7
 65
   257
 75
     1
175
     1
 42
1.0
 92
        0
 66
   257
 43
1.0
 76
     1
 77
     6
 78
     2
 67
     7
 79
     3
170
     0
171
     0
290
     0
174
     0
 93
        1
 44
0.0
173
     0
291
     0
 45
0.0
  0
VISUALSTYLE
  5
40
102
{ACAD_REACTORS
330
2A
102
}
102
{ACAD_XDICTIONARY
360
1DE
102
}
330
2A
100
AcDbVisualStyle
  2
X-Ray
 70
    25
 71
     2
 72
     2
 73
     1
 90
        1
 40
0.5
 41
30.0
 62
     5
 63
     7
421
 16777215
 74
     1
 91
        0
 64
     7
 65
   257
 75
     1
175
     1
 42
1.0
 92
        8
 66
     7
 43
1.0
 76
     1
 77
     6
 78
     2
 67
     7
 79
     3
170
     0
171
     0
290
     0
174
     0
 93
       13
 44
0.0
173
     0
291
     0
 45
0.0
  0
DICTIONARYVAR
  5
1B2
102
{ACAD_REACTORS
330
1B1
102
}
330
1B1
100
DictionaryVariables
280
     0
  1
1:1
  0
DICTIONARYVAR
  5
1EB
102
{ACAD_REACTORS
330
1B1
102
}
330
1B1
100
DictionaryVariables
280
     0
  1
Standard
  0
DICTIONARYVAR
  5
1EA
102
{ACAD_REACTORS
330
1B1
102
}
330
1B1
100
DictionaryVariables
280
     0
  1
Standard
  0
DICTIONARYVAR
  5
1B3
102
{ACAD_REACTORS
330
1B1
102
}
330
1B1
100
DictionaryVariables
280
     0
  1
2
  0
DICTIONARY
  5
1E7
330
6C
100
AcDbDictionary
280
     1
281
     1
  3
ACAD_XREC_ROUNDTRIP
360
1E8
  0
DICTIONARY
  5
1E4
330
6A
100
AcDbDictionary
280
     1
281
     1
  3
ACAD_ROUNDTRIP_2008_TABLESTYLE_CELLSTYLEMAP
360
1E5
  0
DICTIONARY
  5
1BC
330
2F
100
AcDbDictionary
280
     1
281
     1
  3
ACAD_XREC_ROUNDTRIP
360
1BD
  0
DICTIONARY
  5
1C2
330
32
100
AcDbDictionary
280
     1
281
     1
  3
ACAD_XREC_ROUNDTRIP
360
1C3
  0
DICTIONARY
  5
1CA
330
36
100
AcDbDictionary
280
     1
281
     1
  3
ACAD_XREC_ROUNDTRIP
360
1CB
  0
DICTIONARY
  5
1D2
330
3A
100
AcDbDictionary
280
     1
281
     1
  3
ACAD_XREC_ROUNDTRIP
360
1D3
  0
DICTIONARY
  5
1C6
330
34
100
AcDbDictionary
280
     1
281
     1
  3
ACAD_XREC_ROUNDTRIP
360
1C7
  0
DICTIONARY
  5
1C8
330
35
100
AcDbDictionary
280
     1
281
     1
  3
ACAD_XREC_ROUNDTRIP
360
1C9
  0
DICTIONARY
  5
1D8
330
3D
100
AcDbDictionary
280
     1
281
     1
  3
ACAD_XREC_ROUNDTRIP
360
1D9
  0
DICTIONARY
  5
1D0
330
39
100
AcDbDictionary
280
     1
281
     1
  3
ACAD_XREC_ROUNDTRIP
360
1D1
  0
DICTIONARY
  5
1B4
330
2B
100
AcDbDictionary
280
     1
281
     1
  3
ACAD_XREC_ROUNDTRIP
360
1B5
  0
DICTIONARY
  5
1B6
330
2C
100
AcDbDictionary
280
     1
281
     1
  3
ACAD_XREC_ROUNDTRIP
360
1B7
  0
DICTIONARY
  5
1B8
330
2D
100
AcDbDictionary
280
     1
281
     1
  3
ACAD_XREC_ROUNDTRIP
360
1B9
  0
DICTIONARY
  5
1BA
330
2E
100
AcDbDictionary
280
     1
281
     1
  3
ACAD_XREC_ROUNDTRIP
360
1BB
  0
DICTIONARY
  5
1C0
330
31
100
AcDbDictionary
280
     1
281
     1
  3
ACAD_XREC_ROUNDTRIP
360
1C1
  0
DICTIONARY
  5
1D4
330
3B
100
AcDbDictionary
280
     1
281
     1
  3
ACAD_XREC_ROUNDTRIP
360
1D5
  0
DICTIONARY
  5
1CE
330
38
100
AcDbDictionary
280
     1
281
     1
  3
ACAD_XREC_ROUNDTRIP
360
1CF
  0
DICTIONARY
  5
1D6
330
3C
100
AcDbDictionary
280
     1
281
     1
  3
ACAD_XREC_ROUNDTRIP
360
1D7
  0
DICTIONARY
  5
1C4
330
33
100
AcDbDictionary
280
     1
281
     1
  3
ACAD_XREC_ROUNDTRIP
360
1C5
  0
DICTIONARY
  5
1E2
330
42
100
AcDbDictionary
280
     1
281
     1
  3
ACAD_XREC_ROUNDTRIP
360
1E3
  0
DICTIONARY
  5
1E0
330
41
100
AcDbDictionary
280
     1
281
     1
  3
ACAD_XREC_ROUNDTRIP
360
1E1
  0
DICTIONARY
  5
1DA
330
3E
100
AcDbDictionary
280
     1
281
     1
  3
ACAD_XREC_ROUNDTRIP
360
1DB
  0
DICTIONARY
  5
1DC
330
3F
100
AcDbDictionary
280
     1
281
     1
  3
ACAD_XREC_ROUNDTRIP
360
1DD
  0
DICTIONARY
  5
1CC
330
37
100
AcDbDictionary
280
     1
281
     1
  3
ACAD_XREC_ROUNDTRIP
360
1CD
  0
DICTIONARY
  5
1BE
330
30
100
AcDbDictionary
280
     1
281
     1
  3
ACAD_XREC_ROUNDTRIP
360
1BF
  0
DICTIONARY
  5
1DE
330
40
100
AcDbDictionary
280
     1
281
     1
  3
ACAD_XREC_ROUNDTRIP
360
1DF
  0
XRECORD
  5
1E8
102
{ACAD_REACTORS
330
1E7
102
}
330
1E7
100
AcDbXrecord
280
     1
102
ACAD_ROUNDTRIP_2010_MLEADER_STYLE
  0
CELLSTYLEMAP
  5
1E5
102
{ACAD_REACTORS
330
1E4
102
}
330
1E4
100
AcDbCellStyleMap
 90
        3
300
CELLSTYLE
  1
TABLEFORMAT_BEGIN
 90
        5
170
     1
 91
        0
 92
    32768
 62
   257
 93
        1
300
CONTENTFORMAT
  1
CONTENTFORMAT_BEGIN
 90
        0
 91
        0
 92
        4
 93
        0
300

 40
0.0
140
1.0
 94
        5
 62
     0
340
11
144
0.25
309
CONTENTFORMAT_END
171
     1
301
MARGIN
  1
CELLMARGIN_BEGIN
 40
0.06
 40
0.06
 40
0.06
 40
0.06
 40
0.06
 40
0.06
309
CELLMARGIN_END
 94
        6
 95
        1
302
GRIDFORMAT
  1
GRIDFORMAT_BEGIN
 90
        0
 91
        1
 62
     0
 92
       -2
340
14
 93
        0
 40
0.045
309
GRIDFORMAT_END
 95
        2
302
GRIDFORMAT
  1
GRIDFORMAT_BEGIN
 90
        0
 91
        1
 62
     0
 92
       -2
340
14
 93
        0
 40
0.045
309
GRIDFORMAT_END
 95
        4
302
GRIDFORMAT
  1
GRIDFORMAT_BEGIN
 90
        0
 91
        1
 62
     0
 92
       -2
340
14
 93
        0
 40
0.045
309
GRIDFORMAT_END
 95
        8
302
GRIDFORMAT
  1
GRIDFORMAT_BEGIN
 90
        0
 91
        1
 62
     0
 92
       -2
340
14
 93
        0
 40
0.045
309
GRIDFORMAT_END
 95
       16
302
GRIDFORMAT
  1
GRIDFORMAT_BEGIN
 90
        0
 91
        1
 62
     0
 92
       -2
340
14
 93
        0
 40
0.045
309
GRIDFORMAT_END
 95
       32
302
GRIDFORMAT
  1
GRIDFORMAT_BEGIN
 90
        0
 91
        1
 62
     0
 92
       -2
340
14
 93
        0
 40
0.045
309
GRIDFORMAT_END
309
TABLEFORMAT_END
  1
CELLSTYLE_BEGIN
 90
        1
 91
        1
300
_TITLE
309
CELLSTYLE_END
300
CELLSTYLE
  1
TABLEFORMAT_BEGIN
 90
        5
170
     1
 91
        0
 92
        0
 62
   257
 93
        1
300
CONTENTFORMAT
  1
CONTENTFORMAT_BEGIN
 90
        0
 91
        0
 92
        4
 93
        0
300

 40
0.0
140
1.0
 94
        5
 62
     0
340
11
144
0.18
309
CONTENTFORMAT_END
171
     1
301
MARGIN
  1
CELLMARGIN_BEGIN
 40
0.06
 40
0.06
 40
0.06
 40
0.06
 40
0.06
 40
0.06
309
CELLMARGIN_END
 94
        6
 95
        1
302
GRIDFORMAT
  1
GRIDFORMAT_BEGIN
 90
        0
 91
        1
 62
     0
 92
       -2
340
14
 93
        0
 40
0.045
309
GRIDFORMAT_END
 95
        2
302
GRIDFORMAT
  1
GRIDFORMAT_BEGIN
 90
        0
 91
        1
 62
     0
 92
       -2
340
14
 93
        0
 40
0.045
309
GRIDFORMAT_END
 95
        4
302
GRIDFORMAT
  1
GRIDFORMAT_BEGIN
 90
        0
 91
        1
 62
     0
 92
       -2
340
14
 93
        0
 40
0.045
309
GRIDFORMAT_END
 95
        8
302
GRIDFORMAT
  1
GRIDFORMAT_BEGIN
 90
        0
 91
        1
 62
     0
 92
       -2
340
14
 93
        0
 40
0.045
309
GRIDFORMAT_END
 95
       16
302
GRIDFORMAT
  1
GRIDFORMAT_BEGIN
 90
        0
 91
        1
 62
     0
 92
       -2
340
14
 93
        0
 40
0.045
309
GRIDFORMAT_END
 95
       32
302
GRIDFORMAT
  1
GRIDFORMAT_BEGIN
 90
        0
 91
        1
 62
     0
 92
       -2
340
14
 93
        0
 40
0.045
309
GRIDFORMAT_END
309
TABLEFORMAT_END
  1
CELLSTYLE_BEGIN
 90
        2
 91
        1
300
_HEADER
309
CELLSTYLE_END
300
CELLSTYLE
  1
TABLEFORMAT_BEGIN
 90
        5
170
     1
 91
        0
 92
        0
 62
   257
 93
        1
300
CONTENTFORMAT
  1
CONTENTFORMAT_BEGIN
 90
        0
 91
        0
 92
        4
 93
        0
300

 40
0.0
140
1.0
 94
        2
 62
     0
340
11
144
0.18
309
CONTENTFORMAT_END
171
     1
301
MARGIN
  1
CELLMARGIN_BEGIN
 40
0.06
 40
0.06
 40
0.06
 40
0.06
 40
0.06
 40
0.06
309
CELLMARGIN_END
 94
        6
 95
        1
302
GRIDFORMAT
  1
GRIDFORMAT_BEGIN
 90
        0
 91
        1
 62
     0
 92
       -2
340
14
 93
        0
 40
0.045
309
GRIDFORMAT_END
 95
        2
302
GRIDFORMAT
  1
GRIDFORMAT_BEGIN
 90
        0
 91
        1
 62
     0
 92
       -2
340
14
 93
        0
 40
0.045
309
GRIDFORMAT_END
 95
        4
302
GRIDFORMAT
  1
GRIDFORMAT_BEGIN
 90
        0
 91
        1
 62
     0
 92
       -2
340
14
 93
        0
 40
0.045
309
GRIDFORMAT_END
 95
        8
302
GRIDFORMAT
  1
GRIDFORMAT_BEGIN
 90
        0
 91
        1
 62
     0
 92
       -2
340
14
 93
        0
 40
0.045
309
GRIDFORMAT_END
 95
       16
302
GRIDFORMAT
  1
GRIDFORMAT_BEGIN
 90
        0
 91
        1
 62
     0
 92
       -2
340
14
 93
        0
 40
0.045
309
GRIDFORMAT_END
 95
       32
302
GRIDFORMAT
  1
GRIDFORMAT_BEGIN
 90
        0
 91
        1
 62
     0
 92
       -2
340
14
 93
        0
 40
0.045
309
GRIDFORMAT_END
309
TABLEFORMAT_END
  1
CELLSTYLE_BEGIN
 90
        3
 91
        2
300
_DATA
309
CELLSTYLE_END
  0
XRECORD
  5
1BD
102
{ACAD_REACTORS
330
1BC
102
}
330
1BC
100
AcDbXrecord
280
     1
102
RTVSPropertyOp0
 70
     1
102
RTVSPropertyOp1
 70
     1
102
RTVSPropertyOp2
 70
     1
102
RTVSPropertyOp3
 70
     1
102
RTVSPropertyOp4
 70
     1
102
RTVSPropertyOp5
 70
     1
102
RTVSPropertyOp6
 70
     1
102
RTVSPropertyOp7
 70
     1
102
RTVSPropertyOp8
 70
     1
102
RTVSPropertyOp9
 70
     1
102
RTVSPropertyOp10
 70
     1
102
RTVSPropertyOp11
 70
     1
102
RTVSPropertyOp12
 70
     1
102
RTVSPropertyOp13
 70
     1
102
RTVSPropertyOp14
 70
     1
102
RTVSPropertyOp15
 70
     1
102
RTVSPropertyOp16
 70
     1
102
RTVSPropertyOp17
 70
     1
102
RTVSPropertyOp18
 70
     1
102
RTVSPropertyOp19
 70
     1
102
RTVSPropertyOp20
 70
     1
102
RTVSPropertyOp21
 70
     1
102
RTVSPropertyOp22
 70
     1
102
RTVSPropertyOp23
 70
     1
102
RTVSPropertyOp24
 70
     1
102
RTVSPropertyOp25
 70
     1
102
RTVSPropertyOp26
 70
     1
102
RTVSPropertyOp27
 70
     1
102
RTVSPropertyOp28
 70
     1
102
RTVSPropertyOp29
 70
     1
102
RTVSPropertyOp30
 70
     1
102
RTVSPropertyOp31
 70
     1
102
RTVSPropertyOp32
 70
     1
102
RTVSPropertyOp33
 70
     1
102
RTVSPropertyOp34
 70
     1
102
RTVSPropertyOp35
 70
     1
102
RTVSPropertyOp36
 70
     1
102
RTVSPropertyOp37
 70
     1
102
RTVSPropertyOp38
 70
     1
102
RTVSPropertyOp39
 70
     1
102
RTVSPropertyOp40
 70
     1
102
RTVSPropertyOp41
 70
     1
102
RTVSPropertyOp42
 70
     1
102
RTVSPropertyOp43
 70
     1
102
RTVSPropertyOp44
 70
     1
102
RTVSPropertyOp45
 70
     1
102
RTVSPropertyOp46
 70
     1
102
RTVSPropertyOp47
 70
     1
102
RTVSPropertyOp48
 70
     1
102
RTVSPropertyOp49
 70
     1
102
RTVSPropertyOp50
 70
     1
102
RTVSPropertyOp51
 70
     0
102
RTVSPropertyOp52
 70
     0
102
RTVSPropertyOp53
 70
     1
102
RTVSPropertyOp54
 70
     1
102
RTVSPropertyOp55
 70
     1
102
RTVSPropertyOp56
 70
     1
102
RTVSPropertyOp57
 70
     1
102
RTVSPost2010Prop28
280
     1
102
RTVSPost2010PropOp28
 70
     1
102
RTVSPost2010Prop29
280
     1
102
RTVSPost2010PropOp29
 70
     1
102
RTVSPost2010Prop30
280
     0
102
RTVSPost2010PropOp30
 70
     1
102
RTVSPost2010Prop31
280
     0
102
RTVSPost2010PropOp31
 70
     1
102
RTVSPost2010Prop32
280
     0
102
RTVSPost2010PropOp32
 70
     1
102
RTVSPost2010Prop33
280
     0
102
RTVSPost2010PropOp33
 70
     1
102
RTVSPost2010Prop34
280
     0
102
RTVSPost2010PropOp34
 70
     1
102
RTVSPost2010Prop35
280
     0
102
RTVSPost2010PropOp35
 70
     1
102
RTVSPost2010Prop36
280
     0
102
RTVSPost2010PropOp36
 70
     1
102
RTVSPost2010Prop37
 90
       50
102
RTVSPost2010PropOp37
 70
     1
102
RTVSPost2010Prop38
140
0.0
102
RTVSPost2010PropOp38
 70
     1
102
RTVSPost2010Prop39
140
1.0
102
RTVSPost2010PropOp39
 70
     1
102
RTVSPost2010Prop40
 90
        0
102
RTVSPost2010PropOp40
 70
     1
102
RTVSPost2010Prop41ColorIndex
 90
       18
102
RTVSPost2010Prop41ColorRGB
 90
        0
102
RTVSPost2010PropOp41
 70
     1
102
RTVSPost2010Prop42
 90
       50
102
RTVSPost2010PropOp42
 70
     1
102
RTVSPost2010Prop43
 90
        3
102
RTVSPost2010PropOp43
 70
     1
102
RTVSPost2010Prop44ColorIndex
 90
        5
102
RTVSPost2010Prop44ColorRGB
 90
      255
102
RTVSPost2010PropOp44
 70
     1
102
RTVSPost2010Prop45
280
     0
102
RTVSPost2010PropOp45
 70
     1
102
RTVSPost2010Prop46
 90
       50
102
RTVSPost2010PropOp46
 70
     1
102
RTVSPost2010Prop47
 90
       50
102
RTVSPost2010PropOp47
 70
     1
102
RTVSPost2010Prop48
 90
       50
102
RTVSPost2010PropOp48
 70
     1
102
RTVSPost2010Prop49
280
     0
102
RTVSPost2010PropOp49
 70
     1
102
RTVSPost2010Prop50
 90
       50
102
RTVSPost2010PropOp50
 70
     1
102
RTVSPost2010Prop51ColorIndex
 90
      256
102
RTVSPost2010Prop51ColorRGB
 90
-16777216
102
RTVSPost2010PropOp51
 70
     0
102
RTVSPost2010Prop52
140
1.0
102
RTVSPost2010PropOp52
 70
     0
102
RTVSPost2010Prop53
 90
        2
102
RTVSPost2010PropOp53
 70
     1
102
RTVSPost2010Prop54
  1
strokes_ogs.tif
102
RTVSPost2010PropOp54
 70
     1
102
RTVSPost2010Prop55
280
     0
102
RTVSPost2010PropOp55
 70
     1
102
RTVSPost2010Prop56
140
1.0
102
RTVSPost2010PropOp56
 70
     1
102
RTVSPost2010Prop57
140
1.0
102
RTVSPost2010PropOp57
 70
     1
  0
XRECORD
  5
1C3
102
{ACAD_REACTORS
330
1C2
102
}
330
1C2
100
AcDbXrecord
280
     1
102
RTVSPropertyOp0
 70
     1
102
RTVSPropertyOp1
 70
     1
102
RTVSPropertyOp2
 70
     1
102
RTVSPropertyOp3
 70
     1
102
RTVSPropertyOp4
 70
     1
102
RTVSPropertyOp5
 70
     1
102
RTVSPropertyOp6
 70
     1
102
RTVSPropertyOp7
 70
     1
102
RTVSPropertyOp8
 70
     1
102
RTVSPropertyOp9
 70
     1
102
RTVSPropertyOp10
 70
     1
102
RTVSPropertyOp11
 70
     1
102
RTVSPropertyOp12
 70
     1
102
RTVSPropertyOp13
 70
     1
102
RTVSPropertyOp14
 70
     1
102
RTVSPropertyOp15
 70
     1
102
RTVSPropertyOp16
 70
     1
102
RTVSPropertyOp17
 70
     1
102
RTVSPropertyOp18
 70
     1
102
RTVSPropertyOp19
 70
     1
102
RTVSPropertyOp20
 70
     1
102
RTVSPropertyOp21
 70
     1
102
RTVSPropertyOp22
 70
     1
102
RTVSPropertyOp23
 70
     1
102
RTVSPropertyOp24
 70
     1
102
RTVSPropertyOp25
 70
     1
102
RTVSPropertyOp26
 70
     1
102
RTVSPropertyOp27
 70
     1
102
RTVSPropertyOp28
 70
     1
102
RTVSPropertyOp29
 70
     1
102
RTVSPropertyOp30
 70
     1
102
RTVSPropertyOp31
 70
     1
102
RTVSPropertyOp32
 70
     1
102
RTVSPropertyOp33
 70
     1
102
RTVSPropertyOp34
 70
     1
102
RTVSPropertyOp35
 70
     1
102
RTVSPropertyOp36
 70
     1
102
RTVSPropertyOp37
 70
     1
102
RTVSPropertyOp38
 70
     1
102
RTVSPropertyOp39
 70
     1
102
RTVSPropertyOp40
 70
     1
102
RTVSPropertyOp41
 70
     1
102
RTVSPropertyOp42
 70
     1
102
RTVSPropertyOp43
 70
     1
102
RTVSPropertyOp44
 70
     1
102
RTVSPropertyOp45
 70
     1
102
RTVSPropertyOp46
 70
     1
102
RTVSPropertyOp47
 70
     1
102
RTVSPropertyOp48
 70
     1
102
RTVSPropertyOp49
 70
     1
102
RTVSPropertyOp50
 70
     1
102
RTVSPropertyOp51
 70
     0
102
RTVSPropertyOp52
 70
     0
102
RTVSPropertyOp53
 70
     1
102
RTVSPropertyOp54
 70
     1
102
RTVSPropertyOp55
 70
     1
102
RTVSPropertyOp56
 70
     1
102
RTVSPropertyOp57
 70
     1
102
RTVSPost2010Prop28
280
     0
102
RTVSPost2010PropOp28
 70
     1
102
RTVSPost2010Prop29
280
     1
102
RTVSPost2010PropOp29
 70
     1
102
RTVSPost2010Prop30
280
     1
102
RTVSPost2010PropOp30
 70
     1
102
RTVSPost2010Prop31
280
     0
102
RTVSPost2010PropOp31
 70
     1
102
RTVSPost2010Prop32
280
     0
102
RTVSPost2010PropOp32
 70
     1
102
RTVSPost2010Prop33
280
     0
102
RTVSPost2010PropOp33
 70
     1
102
RTVSPost2010Prop34
280
     0
102
RTVSPost2010PropOp34
 70
     1
102
RTVSPost2010Prop35
280
     0
102
RTVSPost2010PropOp35
 70
     1
102
RTVSPost2010Prop36
280
     0
102
RTVSPost2010PropOp36
 70
     1
102
RTVSPost2010Prop37
 90
       50
102
RTVSPost2010PropOp37
 70
     1
102
RTVSPost2010Prop38
140
0.0
102
RTVSPost2010PropOp38
 70
     1
102
RTVSPost2010Prop39
140
1.0
102
RTVSPost2010PropOp39
 70
     1
102
RTVSPost2010Prop40
 90
        0
102
RTVSPost2010PropOp40
 70
     1
102
RTVSPost2010Prop41ColorIndex
 90
       18
102
RTVSPost2010Prop41ColorRGB
 90
        0
102
RTVSPost2010PropOp41
 70
     1
102
RTVSPost2010Prop42
 90
       50
102
RTVSPost2010PropOp42
 70
     1
102
RTVSPost2010Prop43
 90
        3
102
RTVSPost2010PropOp43
 70
     1
102
RTVSPost2010Prop44ColorIndex
 90
        5
102
RTVSPost2010Prop44ColorRGB
 90
      255
102
RTVSPost2010PropOp44
 70
     1
102
RTVSPost2010Prop45
280
     0
102
RTVSPost2010PropOp45
 70
     1
102
RTVSPost2010Prop46
 90
       50
102
RTVSPost2010PropOp46
 70
     1
102
RTVSPost2010Prop47
 90
       50
102
RTVSPost2010PropOp47
 70
     1
102
RTVSPost2010Prop48
 90
       50
102
RTVSPost2010PropOp48
 70
     1
102
RTVSPost2010Prop49
280
     0
102
RTVSPost2010PropOp49
 70
     1
102
RTVSPost2010Prop50
 90
       50
102
RTVSPost2010PropOp50
 70
     1
102
RTVSPost2010Prop51ColorIndex
 90
      256
102
RTVSPost2010Prop51ColorRGB
 90
-16777216
102
RTVSPost2010PropOp51
 70
     0
102
RTVSPost2010Prop52
140
1.0
102
RTVSPost2010PropOp52
 70
     0
102
RTVSPost2010Prop53
 90
        2
102
RTVSPost2010PropOp53
 70
     1
102
RTVSPost2010Prop54
  1
strokes_ogs.tif
102
RTVSPost2010PropOp54
 70
     1
102
RTVSPost2010Prop55
280
     0
102
RTVSPost2010PropOp55
 70
     1
102
RTVSPost2010Prop56
140
1.0
102
RTVSPost2010PropOp56
 70
     1
102
RTVSPost2010Prop57
140
1.0
102
RTVSPost2010PropOp57
 70
     1
  0
XRECORD
  5
1CB
102
{ACAD_REACTORS
330
1CA
102
}
330
1CA
100
AcDbXrecord
280
     1
102
RTVSPropertyOp0
 70
     1
102
RTVSPropertyOp1
 70
     1
102
RTVSPropertyOp2
 70
     1
102
RTVSPropertyOp3
 70
     1
102
RTVSPropertyOp4
 70
     1
102
RTVSPropertyOp5
 70
     1
102
RTVSPropertyOp6
 70
     1
102
RTVSPropertyOp7
 70
     1
102
RTVSPropertyOp8
 70
     1
102
RTVSPropertyOp9
 70
     1
102
RTVSPropertyOp10
 70
     1
102
RTVSPropertyOp11
 70
     1
102
RTVSPropertyOp12
 70
     1
102
RTVSPropertyOp13
 70
     1
102
RTVSPropertyOp14
 70
     1
102
RTVSPropertyOp15
 70
     1
102
RTVSPropertyOp16
 70
     1
102
RTVSPropertyOp17
 70
     1
102
RTVSPropertyOp18
 70
     1
102
RTVSPropertyOp19
 70
     1
102
RTVSPropertyOp20
 70
     1
102
RTVSPropertyOp21
 70
     1
102
RTVSPropertyOp22
 70
     1
102
RTVSPropertyOp23
 70
     1
102
RTVSPropertyOp24
 70
     1
102
RTVSPropertyOp25
 70
     1
102
RTVSPropertyOp26
 70
     1
102
RTVSPropertyOp27
 70
     1
102
RTVSPropertyOp28
 70
     1
102
RTVSPropertyOp29
 70
     1
102
RTVSPropertyOp30
 70
     1
102
RTVSPropertyOp31
 70
     1
102
RTVSPropertyOp32
 70
     1
102
RTVSPropertyOp33
 70
     1
102
RTVSPropertyOp34
 70
     1
102
RTVSPropertyOp35
 70
     1
102
RTVSPropertyOp36
 70
     1
102
RTVSPropertyOp37
 70
     1
102
RTVSPropertyOp38
 70
     1
102
RTVSPropertyOp39
 70
     1
102
RTVSPropertyOp40
 70
     1
102
RTVSPropertyOp41
 70
     1
102
RTVSPropertyOp42
 70
     1
102
RTVSPropertyOp43
 70
     1
102
RTVSPropertyOp44
 70
     1
102
RTVSPropertyOp45
 70
     1
102
RTVSPropertyOp46
 70
     1
102
RTVSPropertyOp47
 70
     1
102
RTVSPropertyOp48
 70
     1
102
RTVSPropertyOp49
 70
     1
102
RTVSPropertyOp50
 70
     1
102
RTVSPropertyOp51
 70
     0
102
RTVSPropertyOp52
 70
     0
102
RTVSPropertyOp53
 70
     1
102
RTVSPropertyOp54
 70
     1
102
RTVSPropertyOp55
 70
     1
102
RTVSPropertyOp56
 70
     1
102
RTVSPropertyOp57
 70
     1
102
RTVSPost2010Prop28
280
     0
102
RTVSPost2010PropOp28
 70
     1
102
RTVSPost2010Prop29
280
     1
102
RTVSPost2010PropOp29
 70
     1
102
RTVSPost2010Prop30
280
     1
102
RTVSPost2010PropOp30
 70
     1
102
RTVSPost2010Prop31
280
     0
102
RTVSPost2010PropOp31
 70
     1
102
RTVSPost2010Prop32
280
     0
102
RTVSPost2010PropOp32
 70
     1
102
RTVSPost2010Prop33
280
     0
102
RTVSPost2010PropOp33
 70
     1
102
RTVSPost2010Prop34
280
     0
102
RTVSPost2010PropOp34
 70
     1
102
RTVSPost2010Prop35
280
     0
102
RTVSPost2010PropOp35
 70
     1
102
RTVSPost2010Prop36
280
     0
102
RTVSPost2010PropOp36
 70
     1
102
RTVSPost2010Prop37
 90
       50
102
RTVSPost2010PropOp37
 70
     1
102
RTVSPost2010Prop38
140
0.0
102
RTVSPost2010PropOp38
 70
     1
102
RTVSPost2010Prop39
140
1.0
102
RTVSPost2010PropOp39
 70
     1
102
RTVSPost2010Prop40
 90
        0
102
RTVSPost2010PropOp40
 70
     1
102
RTVSPost2010Prop41ColorIndex
 90
       18
102
RTVSPost2010Prop41ColorRGB
 90
        0
102
RTVSPost2010PropOp41
 70
     1
102
RTVSPost2010Prop42
 90
       50
102
RTVSPost2010PropOp42
 70
     1
102
RTVSPost2010Prop43
 90
        3
102
RTVSPost2010PropOp43
 70
     1
102
RTVSPost2010Prop44ColorIndex
 90
        5
102
RTVSPost2010Prop44ColorRGB
 90
      255
102
RTVSPost2010PropOp44
 70
     1
102
RTVSPost2010Prop45
280
     0
102
RTVSPost2010PropOp45
 70
     1
102
RTVSPost2010Prop46
 90
       50
102
RTVSPost2010PropOp46
 70
     1
102
RTVSPost2010Prop47
 90
       50
102
RTVSPost2010PropOp47
 70
     1
102
RTVSPost2010Prop48
 90
       50
102
RTVSPost2010PropOp48
 70
     1
102
RTVSPost2010Prop49
280
     0
102
RTVSPost2010PropOp49
 70
     1
102
RTVSPost2010Prop50
 90
       50
102
RTVSPost2010PropOp50
 70
     1
102
RTVSPost2010Prop51ColorIndex
 90
      256
102
RTVSPost2010Prop51ColorRGB
 90
-16777216
102
RTVSPost2010PropOp51
 70
     0
102
RTVSPost2010Prop52
140
1.0
102
RTVSPost2010PropOp52
 70
     0
102
RTVSPost2010Prop53
 90
        2
102
RTVSPost2010PropOp53
 70
     1
102
RTVSPost2010Prop54
  1
strokes_ogs.tif
102
RTVSPost2010PropOp54
 70
     1
102
RTVSPost2010Prop55
280
     0
102
RTVSPost2010PropOp55
 70
     1
102
RTVSPost2010Prop56
140
1.0
102
RTVSPost2010PropOp56
 70
     1
102
RTVSPost2010Prop57
140
1.0
102
RTVSPost2010PropOp57
 70
     1
  0
XRECORD
  5
1D3
102
{ACAD_REACTORS
330
1D2
102
}
330
1D2
100
AcDbXrecord
280
     1
102
RTVSPropertyOp0
 70
     1
102
RTVSPropertyOp1
 70
     1
102
RTVSPropertyOp2
 70
     1
102
RTVSPropertyOp3
 70
     1
102
RTVSPropertyOp4
 70
     1
102
RTVSPropertyOp5
 70
     1
102
RTVSPropertyOp6
 70
     1
102
RTVSPropertyOp7
 70
     1
102
RTVSPropertyOp8
 70
     1
102
RTVSPropertyOp9
 70
     1
102
RTVSPropertyOp10
 70
     1
102
RTVSPropertyOp11
 70
     1
102
RTVSPropertyOp12
 70
     1
102
RTVSPropertyOp13
 70
     1
102
RTVSPropertyOp14
 70
     1
102
RTVSPropertyOp15
 70
     1
102
RTVSPropertyOp16
 70
     1
102
RTVSPropertyOp17
 70
     1
102
RTVSPropertyOp18
 70
     1
102
RTVSPropertyOp19
 70
     1
102
RTVSPropertyOp20
 70
     1
102
RTVSPropertyOp21
 70
     1
102
RTVSPropertyOp22
 70
     1
102
RTVSPropertyOp23
 70
     1
102
RTVSPropertyOp24
 70
     1
102
RTVSPropertyOp25
 70
     1
102
RTVSPropertyOp26
 70
     1
102
RTVSPropertyOp27
 70
     1
102
RTVSPropertyOp28
 70
     1
102
RTVSPropertyOp29
 70
     1
102
RTVSPropertyOp30
 70
     1
102
RTVSPropertyOp31
 70
     1
102
RTVSPropertyOp32
 70
     1
102
RTVSPropertyOp33
 70
     1
102
RTVSPropertyOp34
 70
     1
102
RTVSPropertyOp35
 70
     1
102
RTVSPropertyOp36
 70
     1
102
RTVSPropertyOp37
 70
     1
102
RTVSPropertyOp38
 70
     1
102
RTVSPropertyOp39
 70
     1
102
RTVSPropertyOp40
 70
     1
102
RTVSPropertyOp41
 70
     1
102
RTVSPropertyOp42
 70
     1
102
RTVSPropertyOp43
 70
     1
102
RTVSPropertyOp44
 70
     1
102
RTVSPropertyOp45
 70
     1
102
RTVSPropertyOp46
 70
     1
102
RTVSPropertyOp47
 70
     1
102
RTVSPropertyOp48
 70
     1
102
RTVSPropertyOp49
 70
     1
102
RTVSPropertyOp50
 70
     1
102
RTVSPropertyOp51
 70
     0
102
RTVSPropertyOp52
 70
     0
102
RTVSPropertyOp53
 70
     1
102
RTVSPropertyOp54
 70
     1
102
RTVSPropertyOp55
 70
     1
102
RTVSPropertyOp56
 70
     1
102
RTVSPropertyOp57
 70
     1
102
RTVSPost2010Prop28
280
     0
102
RTVSPost2010PropOp28
 70
     1
102
RTVSPost2010Prop29
280
     1
102
RTVSPost2010PropOp29
 70
     1
102
RTVSPost2010Prop30
280
     1
102
RTVSPost2010PropOp30
 70
     1
102
RTVSPost2010Prop31
280
     0
102
RTVSPost2010PropOp31
 70
     1
102
RTVSPost2010Prop32
280
     0
102
RTVSPost2010PropOp32
 70
     1
102
RTVSPost2010Prop33
280
     0
102
RTVSPost2010PropOp33
 70
     1
102
RTVSPost2010Prop34
280
     0
102
RTVSPost2010PropOp34
 70
     1
102
RTVSPost2010Prop35
280
     0
102
RTVSPost2010PropOp35
 70
     1
102
RTVSPost2010Prop36
280
     0
102
RTVSPost2010PropOp36
 70
     1
102
RTVSPost2010Prop37
 90
       50
102
RTVSPost2010PropOp37
 70
     1
102
RTVSPost2010Prop38
140
0.0
102
RTVSPost2010PropOp38
 70
     1
102
RTVSPost2010Prop39
140
1.0
102
RTVSPost2010PropOp39
 70
     1
102
RTVSPost2010Prop40
 90
        0
102
RTVSPost2010PropOp40
 70
     1
102
RTVSPost2010Prop41ColorIndex
 90
       18
102
RTVSPost2010Prop41ColorRGB
 90
        0
102
RTVSPost2010PropOp41
 70
     1
102
RTVSPost2010Prop42
 90
       50
102
RTVSPost2010PropOp42
 70
     1
102
RTVSPost2010Prop43
 90
        3
102
RTVSPost2010PropOp43
 70
     1
102
RTVSPost2010Prop44ColorIndex
 90
        5
102
RTVSPost2010Prop44ColorRGB
 90
      255
102
RTVSPost2010PropOp44
 70
     1
102
RTVSPost2010Prop45
280
     0
102
RTVSPost2010PropOp45
 70
     1
102
RTVSPost2010Prop46
 90
       50
102
RTVSPost2010PropOp46
 70
     1
102
RTVSPost2010Prop47
 90
       50
102
RTVSPost2010PropOp47
 70
     1
102
RTVSPost2010Prop48
 90
       50
102
RTVSPost2010PropOp48
 70
     1
102
RTVSPost2010Prop49
280
     0
102
RTVSPost2010PropOp49
 70
     1
102
RTVSPost2010Prop50
 90
       50
102
RTVSPost2010PropOp50
 70
     1
102
RTVSPost2010Prop51ColorIndex
 90
      256
102
RTVSPost2010Prop51ColorRGB
 90
-16777216
102
RTVSPost2010PropOp51
 70
     0
102
RTVSPost2010Prop52
140
1.0
102
RTVSPost2010PropOp52
 70
     0
102
RTVSPost2010Prop53
 90
        2
102
RTVSPost2010PropOp53
 70
     1
102
RTVSPost2010Prop54
  1
strokes_ogs.tif
102
RTVSPost2010PropOp54
 70
     1
102
RTVSPost2010Prop55
280
     0
102
RTVSPost2010PropOp55
 70
     1
102
RTVSPost2010Prop56
140
1.0
102
RTVSPost2010PropOp56
 70
     1
102
RTVSPost2010Prop57
140
1.0
102
RTVSPost2010PropOp57
 70
     1
  0
XRECORD
  5
1C7
102
{ACAD_REACTORS
330
1C6
102
}
330
1C6
100
AcDbXrecord
280
     1
102
RTVSPropertyOp0
 70
     1
102
RTVSPropertyOp1
 70
     1
102
RTVSPropertyOp2
 70
     1
102
RTVSPropertyOp3
 70
     1
102
RTVSPropertyOp4
 70
     1
102
RTVSPropertyOp5
 70
     1
102
RTVSPropertyOp6
 70
     1
102
RTVSPropertyOp7
 70
     1
102
RTVSPropertyOp8
 70
     1
102
RTVSPropertyOp9
 70
     1
102
RTVSPropertyOp10
 70
     1
102
RTVSPropertyOp11
 70
     1
102
RTVSPropertyOp12
 70
     1
102
RTVSPropertyOp13
 70
     1
102
RTVSPropertyOp14
 70
     1
102
RTVSPropertyOp15
 70
     1
102
RTVSPropertyOp16
 70
     1
102
RTVSPropertyOp17
 70
     1
102
RTVSPropertyOp18
 70
     1
102
RTVSPropertyOp19
 70
     1
102
RTVSPropertyOp20
 70
     1
102
RTVSPropertyOp21
 70
     1
102
RTVSPropertyOp22
 70
     1
102
RTVSPropertyOp23
 70
     1
102
RTVSPropertyOp24
 70
     1
102
RTVSPropertyOp25
 70
     1
102
RTVSPropertyOp26
 70
     1
102
RTVSPropertyOp27
 70
     1
102
RTVSPropertyOp28
 70
     1
102
RTVSPropertyOp29
 70
     1
102
RTVSPropertyOp30
 70
     1
102
RTVSPropertyOp31
 70
     1
102
RTVSPropertyOp32
 70
     1
102
RTVSPropertyOp33
 70
     1
102
RTVSPropertyOp34
 70
     1
102
RTVSPropertyOp35
 70
     1
102
RTVSPropertyOp36
 70
     1
102
RTVSPropertyOp37
 70
     1
102
RTVSPropertyOp38
 70
     1
102
RTVSPropertyOp39
 70
     1
102
RTVSPropertyOp40
 70
     1
102
RTVSPropertyOp41
 70
     1
102
RTVSPropertyOp42
 70
     1
102
RTVSPropertyOp43
 70
     1
102
RTVSPropertyOp44
 70
     1
102
RTVSPropertyOp45
 70
     1
102
RTVSPropertyOp46
 70
     1
102
RTVSPropertyOp47
 70
     1
102
RTVSPropertyOp48
 70
     1
102
RTVSPropertyOp49
 70
     1
102
RTVSPropertyOp50
 70
     1
102
RTVSPropertyOp51
 70
     0
102
RTVSPropertyOp52
 70
     0
102
RTVSPropertyOp53
 70
     1
102
RTVSPropertyOp54
 70
     1
102
RTVSPropertyOp55
 70
     1
102
RTVSPropertyOp56
 70
     1
102
RTVSPropertyOp57
 70
     1
102
RTVSPost2010Prop28
280
     0
102
RTVSPost2010PropOp28
 70
     1
102
RTVSPost2010Prop29
280
     1
102
RTVSPost2010PropOp29
 70
     1
102
RTVSPost2010Prop30
280
     1
102
RTVSPost2010PropOp30
 70
     1
102
RTVSPost2010Prop31
280
     0
102
RTVSPost2010PropOp31
 70
     1
102
RTVSPost2010Prop32
280
     0
102
RTVSPost2010PropOp32
 70
     1
102
RTVSPost2010Prop33
280
     0
102
RTVSPost2010PropOp33
 70
     1
102
RTVSPost2010Prop34
280
     0
102
RTVSPost2010PropOp34
 70
     1
102
RTVSPost2010Prop35
280
     0
102
RTVSPost2010PropOp35
 70
     1
102
RTVSPost2010Prop36
280
     0
102
RTVSPost2010PropOp36
 70
     1
102
RTVSPost2010Prop37
 90
       50
102
RTVSPost2010PropOp37
 70
     1
102
RTVSPost2010Prop38
140
0.0
102
RTVSPost2010PropOp38
 70
     1
102
RTVSPost2010Prop39
140
1.0
102
RTVSPost2010PropOp39
 70
     1
102
RTVSPost2010Prop40
 90
        0
102
RTVSPost2010PropOp40
 70
     1
102
RTVSPost2010Prop41ColorIndex
 90
       18
102
RTVSPost2010Prop41ColorRGB
 90
        0
102
RTVSPost2010PropOp41
 70
     1
102
RTVSPost2010Prop42
 90
       50
102
RTVSPost2010PropOp42
 70
     1
102
RTVSPost2010Prop43
 90
        3
102
RTVSPost2010PropOp43
 70
     1
102
RTVSPost2010Prop44ColorIndex
 90
        5
102
RTVSPost2010Prop44ColorRGB
 90
      255
102
RTVSPost2010PropOp44
 70
     1
102
RTVSPost2010Prop45
280
     0
102
RTVSPost2010PropOp45
 70
     1
102
RTVSPost2010Prop46
 90
       50
102
RTVSPost2010PropOp46
 70
     1
102
RTVSPost2010Prop47
 90
       50
102
RTVSPost2010PropOp47
 70
     1
102
RTVSPost2010Prop48
 90
       50
102
RTVSPost2010PropOp48
 70
     1
102
RTVSPost2010Prop49
280
     0
102
RTVSPost2010PropOp49
 70
     1
102
RTVSPost2010Prop50
 90
       50
102
RTVSPost2010PropOp50
 70
     1
102
RTVSPost2010Prop51ColorIndex
 90
      256
102
RTVSPost2010Prop51ColorRGB
 90
-16777216
102
RTVSPost2010PropOp51
 70
     0
102
RTVSPost2010Prop52
140
1.0
102
RTVSPost2010PropOp52
 70
     0
102
RTVSPost2010Prop53
 90
        2
102
RTVSPost2010PropOp53
 70
     1
102
RTVSPost2010Prop54
  1
strokes_ogs.tif
102
RTVSPost2010PropOp54
 70
     1
102
RTVSPost2010Prop55
280
     0
102
RTVSPost2010PropOp55
 70
     1
102
RTVSPost2010Prop56
140
1.0
102
RTVSPost2010PropOp56
 70
     1
102
RTVSPost2010Prop57
140
1.0
102
RTVSPost2010PropOp57
 70
     1
  0
XRECORD
  5
1C9
102
{ACAD_REACTORS
330
1C8
102
}
330
1C8
100
AcDbXrecord
280
     1
102
RTVSPropertyOp0
 70
     1
102
RTVSPropertyOp1
 70
     1
102
RTVSPropertyOp2
 70
     1
102
RTVSPropertyOp3
 70
     1
102
RTVSPropertyOp4
 70
     1
102
RTVSPropertyOp5
 70
     1
102
RTVSPropertyOp6
 70
     1
102
RTVSPropertyOp7
 70
     1
102
RTVSPropertyOp8
 70
     1
102
RTVSPropertyOp9
 70
     1
102
RTVSPropertyOp10
 70
     1
102
RTVSPropertyOp11
 70
     1
102
RTVSPropertyOp12
 70
     1
102
RTVSPropertyOp13
 70
     1
102
RTVSPropertyOp14
 70
     1
102
RTVSPropertyOp15
 70
     1
102
RTVSPropertyOp16
 70
     1
102
RTVSPropertyOp17
 70
     1
102
RTVSPropertyOp18
 70
     1
102
RTVSPropertyOp19
 70
     1
102
RTVSPropertyOp20
 70
     1
102
RTVSPropertyOp21
 70
     1
102
RTVSPropertyOp22
 70
     1
102
RTVSPropertyOp23
 70
     1
102
RTVSPropertyOp24
 70
     1
102
RTVSPropertyOp25
 70
     1
102
RTVSPropertyOp26
 70
     1
102
RTVSPropertyOp27
 70
     1
102
RTVSPropertyOp28
 70
     1
102
RTVSPropertyOp29
 70
     1
102
RTVSPropertyOp30
 70
     1
102
RTVSPropertyOp31
 70
     1
102
RTVSPropertyOp32
 70
     1
102
RTVSPropertyOp33
 70
     1
102
RTVSPropertyOp34
 70
     1
102
RTVSPropertyOp35
 70
     1
102
RTVSPropertyOp36
 70
     1
102
RTVSPropertyOp37
 70
     1
102
RTVSPropertyOp38
 70
     1
102
RTVSPropertyOp39
 70
     1
102
RTVSPropertyOp40
 70
     1
102
RTVSPropertyOp41
 70
     1
102
RTVSPropertyOp42
 70
     1
102
RTVSPropertyOp43
 70
     1
102
RTVSPropertyOp44
 70
     1
102
RTVSPropertyOp45
 70
     1
102
RTVSPropertyOp46
 70
     1
102
RTVSPropertyOp47
 70
     1
102
RTVSPropertyOp48
 70
     1
102
RTVSPropertyOp49
 70
     1
102
RTVSPropertyOp50
 70
     1
102
RTVSPropertyOp51
 70
     0
102
RTVSPropertyOp52
 70
     0
102
RTVSPropertyOp53
 70
     1
102
RTVSPropertyOp54
 70
     1
102
RTVSPropertyOp55
 70
     1
102
RTVSPropertyOp56
 70
     1
102
RTVSPropertyOp57
 70
     1
102
RTVSPost2010Prop28
280
     0
102
RTVSPost2010PropOp28
 70
     1
102
RTVSPost2010Prop29
280
     1
102
RTVSPost2010PropOp29
 70
     1
102
RTVSPost2010Prop30
280
     1
102
RTVSPost2010PropOp30
 70
     1
102
RTVSPost2010Prop31
280
     0
102
RTVSPost2010PropOp31
 70
     1
102
RTVSPost2010Prop32
280
     0
102
RTVSPost2010PropOp32
 70
     1
102
RTVSPost2010Prop33
280
     0
102
RTVSPost2010PropOp33
 70
     1
102
RTVSPost2010Prop34
280
     0
102
RTVSPost2010PropOp34
 70
     1
102
RTVSPost2010Prop35
280
     0
102
RTVSPost2010PropOp35
 70
     1
102
RTVSPost2010Prop36
280
     0
102
RTVSPost2010PropOp36
 70
     1
102
RTVSPost2010Prop37
 90
       50
102
RTVSPost2010PropOp37
 70
     1
102
RTVSPost2010Prop38
140
0.0
102
RTVSPost2010PropOp38
 70
     1
102
RTVSPost2010Prop39
140
1.0
102
RTVSPost2010PropOp39
 70
     1
102
RTVSPost2010Prop40
 90
        0
102
RTVSPost2010PropOp40
 70
     1
102
RTVSPost2010Prop41ColorIndex
 90
       18
102
RTVSPost2010Prop41ColorRGB
 90
        0
102
RTVSPost2010PropOp41
 70
     1
102
RTVSPost2010Prop42
 90
       50
102
RTVSPost2010PropOp42
 70
     1
102
RTVSPost2010Prop43
 90
        3
102
RTVSPost2010PropOp43
 70
     1
102
RTVSPost2010Prop44ColorIndex
 90
        5
102
RTVSPost2010Prop44ColorRGB
 90
      255
102
RTVSPost2010PropOp44
 70
     1
102
RTVSPost2010Prop45
280
     0
102
RTVSPost2010PropOp45
 70
     1
102
RTVSPost2010Prop46
 90
       50
102
RTVSPost2010PropOp46
 70
     1
102
RTVSPost2010Prop47
 90
       50
102
RTVSPost2010PropOp47
 70
     1
102
RTVSPost2010Prop48
 90
       50
102
RTVSPost2010PropOp48
 70
     1
102
RTVSPost2010Prop49
280
     0
102
RTVSPost2010PropOp49
 70
     1
102
RTVSPost2010Prop50
 90
       50
102
RTVSPost2010PropOp50
 70
     1
102
RTVSPost2010Prop51ColorIndex
 90
      256
102
RTVSPost2010Prop51ColorRGB
 90
-16777216
102
RTVSPost2010PropOp51
 70
     0
102
RTVSPost2010Prop52
140
1.0
102
RTVSPost2010PropOp52
 70
     0
102
RTVSPost2010Prop53
 90
        2
102
RTVSPost2010PropOp53
 70
     1
102
RTVSPost2010Prop54
  1
strokes_ogs.tif
102
RTVSPost2010PropOp54
 70
     1
102
RTVSPost2010Prop55
280
     0
102
RTVSPost2010PropOp55
 70
     1
102
RTVSPost2010Prop56
140
1.0
102
RTVSPost2010PropOp56
 70
     1
102
RTVSPost2010Prop57
140
1.0
102
RTVSPost2010PropOp57
 70
     1
  0
XRECORD
  5
1D9
102
{ACAD_REACTORS
330
1D8
102
}
330
1D8
100
AcDbXrecord
280
     1
102
RTVSPropertyOp0
 70
     0
102
RTVSPropertyOp1
 70
     0
102
RTVSPropertyOp2
 70
     0
102
RTVSPropertyOp3
 70
     0
102
RTVSPropertyOp4
 70
     0
102
RTVSPropertyOp5
 70
     0
102
RTVSPropertyOp6
 70
     0
102
RTVSPropertyOp7
 70
     0
102
RTVSPropertyOp8
 70
     0
102
RTVSPropertyOp9
 70
     0
102
RTVSPropertyOp10
 70
     0
102
RTVSPropertyOp11
 70
     0
102
RTVSPropertyOp12
 70
     0
102
RTVSPropertyOp13
 70
     0
102
RTVSPropertyOp14
 70
     2
102
RTVSPropertyOp15
 70
     0
102
RTVSPropertyOp16
 70
     0
102
RTVSPropertyOp17
 70
     0
102
RTVSPropertyOp18
 70
     0
102
RTVSPropertyOp19
 70
     0
102
RTVSPropertyOp20
 70
     0
102
RTVSPropertyOp21
 70
     0
102
RTVSPropertyOp22
 70
     0
102
RTVSPropertyOp23
 70
     0
102
RTVSPropertyOp24
 70
     0
102
RTVSPropertyOp25
 70
     0
102
RTVSPropertyOp26
 70
     0
102
RTVSPropertyOp27
 70
     0
102
RTVSPropertyOp28
 70
     0
102
RTVSPropertyOp29
 70
     0
102
RTVSPropertyOp30
 70
     0
102
RTVSPropertyOp31
 70
     0
102
RTVSPropertyOp32
 70
     0
102
RTVSPropertyOp33
 70
     0
102
RTVSPropertyOp34
 70
     0
102
RTVSPropertyOp35
 70
     0
102
RTVSPropertyOp36
 70
     0
102
RTVSPropertyOp37
 70
     0
102
RTVSPropertyOp38
 70
     0
102
RTVSPropertyOp39
 70
     0
102
RTVSPropertyOp40
 70
     0
102
RTVSPropertyOp41
 70
     0
102
RTVSPropertyOp42
 70
     0
102
RTVSPropertyOp43
 70
     0
102
RTVSPropertyOp44
 70
     0
102
RTVSPropertyOp45
 70
     0
102
RTVSPropertyOp46
 70
     0
102
RTVSPropertyOp47
 70
     0
102
RTVSPropertyOp48
 70
     0
102
RTVSPropertyOp49
 70
     0
102
RTVSPropertyOp50
 70
     0
102
RTVSPropertyOp51
 70
     0
102
RTVSPropertyOp52
 70
     0
102
RTVSPropertyOp53
 70
     0
102
RTVSPropertyOp54
 70
     0
102
RTVSPropertyOp55
 70
     0
102
RTVSPropertyOp56
 70
     0
102
RTVSPropertyOp57
 70
     0
102
RTVSPost2010Prop28
280
     0
102
RTVSPost2010PropOp28
 70
     0
102
RTVSPost2010Prop29
280
     1
102
RTVSPost2010PropOp29
 70
     0
102
RTVSPost2010Prop30
280
     1
102
RTVSPost2010PropOp30
 70
     0
102
RTVSPost2010Prop31
280
     0
102
RTVSPost2010PropOp31
 70
     0
102
RTVSPost2010Prop32
280
     0
102
RTVSPost2010PropOp32
 70
     0
102
RTVSPost2010Prop33
280
     0
102
RTVSPost2010PropOp33
 70
     0
102
RTVSPost2010Prop34
280
     0
102
RTVSPost2010PropOp34
 70
     0
102
RTVSPost2010Prop35
280
     0
102
RTVSPost2010PropOp35
 70
     0
102
RTVSPost2010Prop36
280
     0
102
RTVSPost2010PropOp36
 70
     0
102
RTVSPost2010Prop37
 90
       50
102
RTVSPost2010PropOp37
 70
     0
102
RTVSPost2010Prop38
140
0.0
102
RTVSPost2010PropOp38
 70
     0
102
RTVSPost2010Prop39
140
1.0
102
RTVSPost2010PropOp39
 70
     0
102
RTVSPost2010Prop40
 90
        0
102
RTVSPost2010PropOp40
 70
     0
102
RTVSPost2010Prop41ColorIndex
 90
       18
102
RTVSPost2010Prop41ColorRGB
 90
        0
102
RTVSPost2010PropOp41
 70
     0
102
RTVSPost2010Prop42
 90
       50
102
RTVSPost2010PropOp42
 70
     0
102
RTVSPost2010Prop43
 90
        3
102
RTVSPost2010PropOp43
 70
     0
102
RTVSPost2010Prop44ColorIndex
 90
        5
102
RTVSPost2010Prop44ColorRGB
 90
      255
102
RTVSPost2010PropOp44
 70
     0
102
RTVSPost2010Prop45
280
     0
102
RTVSPost2010PropOp45
 70
     0
102
RTVSPost2010Prop46
 90
       50
102
RTVSPost2010PropOp46
 70
     0
102
RTVSPost2010Prop47
 90
       50
102
RTVSPost2010PropOp47
 70
     0
102
RTVSPost2010Prop48
 90
       50
102
RTVSPost2010PropOp48
 70
     0
102
RTVSPost2010Prop49
280
     0
102
RTVSPost2010PropOp49
 70
     0
102
RTVSPost2010Prop50
 90
       50
102
RTVSPost2010PropOp50
 70
     0
102
RTVSPost2010Prop51ColorIndex
 90
      256
102
RTVSPost2010Prop51ColorRGB
 90
-16777216
102
RTVSPost2010PropOp51
 70
     0
102
RTVSPost2010Prop52
140
1.0
102
RTVSPost2010PropOp52
 70
     0
102
RTVSPost2010Prop53
 90
        2
102
RTVSPost2010PropOp53
 70
     0
102
RTVSPost2010Prop54
  1
strokes_ogs.tif
102
RTVSPost2010PropOp54
 70
     0
102
RTVSPost2010Prop55
280
     0
102
RTVSPost2010PropOp55
 70
     0
102
RTVSPost2010Prop56
140
1.0
102
RTVSPost2010PropOp56
 70
     0
102
RTVSPost2010Prop57
140
1.0
102
RTVSPost2010PropOp57
 70
     0
  0
XRECORD
  5
1D1
102
{ACAD_REACTORS
330
1D0
102
}
330
1D0
100
AcDbXrecord
280
     1
102
RTVSPropertyOp0
 70
     1
102
RTVSPropertyOp1
 70
     1
102
RTVSPropertyOp2
 70
     1
102
RTVSPropertyOp3
 70
     1
102
RTVSPropertyOp4
 70
     1
102
RTVSPropertyOp5
 70
     1
102
RTVSPropertyOp6
 70
     1
102
RTVSPropertyOp7
 70
     1
102
RTVSPropertyOp8
 70
     1
102
RTVSPropertyOp9
 70
     1
102
RTVSPropertyOp10
 70
     1
102
RTVSPropertyOp11
 70
     1
102
RTVSPropertyOp12
 70
     1
102
RTVSPropertyOp13
 70
     1
102
RTVSPropertyOp14
 70
     1
102
RTVSPropertyOp15
 70
     1
102
RTVSPropertyOp16
 70
     1
102
RTVSPropertyOp17
 70
     1
102
RTVSPropertyOp18
 70
     1
102
RTVSPropertyOp19
 70
     1
102
RTVSPropertyOp20
 70
     1
102
RTVSPropertyOp21
 70
     1
102
RTVSPropertyOp22
 70
     1
102
RTVSPropertyOp23
 70
     1
102
RTVSPropertyOp24
 70
     1
102
RTVSPropertyOp25
 70
     1
102
RTVSPropertyOp26
 70
     1
102
RTVSPropertyOp27
 70
     1
102
RTVSPropertyOp28
 70
     1
102
RTVSPropertyOp29
 70
     1
102
RTVSPropertyOp30
 70
     1
102
RTVSPropertyOp31
 70
     1
102
RTVSPropertyOp32
 70
     1
102
RTVSPropertyOp33
 70
     1
102
RTVSPropertyOp34
 70
     1
102
RTVSPropertyOp35
 70
     1
102
RTVSPropertyOp36
 70
     1
102
RTVSPropertyOp37
 70
     1
102
RTVSPropertyOp38
 70
     1
102
RTVSPropertyOp39
 70
     1
102
RTVSPropertyOp40
 70
     1
102
RTVSPropertyOp41
 70
     1
102
RTVSPropertyOp42
 70
     1
102
RTVSPropertyOp43
 70
     1
102
RTVSPropertyOp44
 70
     1
102
RTVSPropertyOp45
 70
     1
102
RTVSPropertyOp46
 70
     1
102
RTVSPropertyOp47
 70
     1
102
RTVSPropertyOp48
 70
     1
102
RTVSPropertyOp49
 70
     1
102
RTVSPropertyOp50
 70
     1
102
RTVSPropertyOp51
 70
     0
102
RTVSPropertyOp52
 70
     0
102
RTVSPropertyOp53
 70
     1
102
RTVSPropertyOp54
 70
     1
102
RTVSPropertyOp55
 70
     1
102
RTVSPropertyOp56
 70
     1
102
RTVSPropertyOp57
 70
     1
102
RTVSPost2010Prop28
280
     0
102
RTVSPost2010PropOp28
 70
     1
102
RTVSPost2010Prop29
280
     1
102
RTVSPost2010PropOp29
 70
     1
102
RTVSPost2010Prop30
280
     1
102
RTVSPost2010PropOp30
 70
     1
102
RTVSPost2010Prop31
280
     0
102
RTVSPost2010PropOp31
 70
     1
102
RTVSPost2010Prop32
280
     0
102
RTVSPost2010PropOp32
 70
     1
102
RTVSPost2010Prop33
280
     0
102
RTVSPost2010PropOp33
 70
     1
102
RTVSPost2010Prop34
280
     0
102
RTVSPost2010PropOp34
 70
     1
102
RTVSPost2010Prop35
280
     0
102
RTVSPost2010PropOp35
 70
     1
102
RTVSPost2010Prop36
280
     0
102
RTVSPost2010PropOp36
 70
     1
102
RTVSPost2010Prop37
 90
       50
102
RTVSPost2010PropOp37
 70
     1
102
RTVSPost2010Prop38
140
0.0
102
RTVSPost2010PropOp38
 70
     1
102
RTVSPost2010Prop39
140
1.0
102
RTVSPost2010PropOp39
 70
     1
102
RTVSPost2010Prop40
 90
        0
102
RTVSPost2010PropOp40
 70
     1
102
RTVSPost2010Prop41ColorIndex
 90
       18
102
RTVSPost2010Prop41ColorRGB
 90
        0
102
RTVSPost2010PropOp41
 70
     1
102
RTVSPost2010Prop42
 90
       50
102
RTVSPost2010PropOp42
 70
     1
102
RTVSPost2010Prop43
 90
        3
102
RTVSPost2010PropOp43
 70
     1
102
RTVSPost2010Prop44ColorIndex
 90
        5
102
RTVSPost2010Prop44ColorRGB
 90
      255
102
RTVSPost2010PropOp44
 70
     1
102
RTVSPost2010Prop45
280
     0
102
RTVSPost2010PropOp45
 70
     1
102
RTVSPost2010Prop46
 90
       50
102
RTVSPost2010PropOp46
 70
     1
102
RTVSPost2010Prop47
 90
       50
102
RTVSPost2010PropOp47
 70
     1
102
RTVSPost2010Prop48
 90
       50
102
RTVSPost2010PropOp48
 70
     1
102
RTVSPost2010Prop49
280
     0
102
RTVSPost2010PropOp49
 70
     1
102
RTVSPost2010Prop50
 90
       50
102
RTVSPost2010PropOp50
 70
     1
102
RTVSPost2010Prop51ColorIndex
 90
      256
102
RTVSPost2010Prop51ColorRGB
 90
-16777216
102
RTVSPost2010PropOp51
 70
     0
102
RTVSPost2010Prop52
140
1.0
102
RTVSPost2010PropOp52
 70
     0
102
RTVSPost2010Prop53
 90
        2
102
RTVSPost2010PropOp53
 70
     1
102
RTVSPost2010Prop54
  1
strokes_ogs.tif
102
RTVSPost2010PropOp54
 70
     1
102
RTVSPost2010Prop55
280
     0
102
RTVSPost2010PropOp55
 70
     1
102
RTVSPost2010Prop56
140
1.0
102
RTVSPost2010PropOp56
 70
     1
102
RTVSPost2010Prop57
140
1.0
102
RTVSPost2010PropOp57
 70
     1
  0
XRECORD
  5
1B5
102
{ACAD_REACTORS
330
1B4
102
}
330
1B4
100
AcDbXrecord
280
     1
102
RTVSPropertyOp0
 70
     1
102
RTVSPropertyOp1
 70
     1
102
RTVSPropertyOp2
 70
     1
102
RTVSPropertyOp3
 70
     1
102
RTVSPropertyOp4
 70
     1
102
RTVSPropertyOp5
 70
     1
102
RTVSPropertyOp6
 70
     1
102
RTVSPropertyOp7
 70
     1
102
RTVSPropertyOp8
 70
     1
102
RTVSPropertyOp9
 70
     1
102
RTVSPropertyOp10
 70
     1
102
RTVSPropertyOp11
 70
     1
102
RTVSPropertyOp12
 70
     1
102
RTVSPropertyOp13
 70
     1
102
RTVSPropertyOp14
 70
     1
102
RTVSPropertyOp15
 70
     1
102
RTVSPropertyOp16
 70
     1
102
RTVSPropertyOp17
 70
     1
102
RTVSPropertyOp18
 70
     1
102
RTVSPropertyOp19
 70
     1
102
RTVSPropertyOp20
 70
     1
102
RTVSPropertyOp21
 70
     1
102
RTVSPropertyOp22
 70
     1
102
RTVSPropertyOp23
 70
     1
102
RTVSPropertyOp24
 70
     1
102
RTVSPropertyOp25
 70
     1
102
RTVSPropertyOp26
 70
     1
102
RTVSPropertyOp27
 70
     1
102
RTVSPropertyOp28
 70
     1
102
RTVSPropertyOp29
 70
     1
102
RTVSPropertyOp30
 70
     1
102
RTVSPropertyOp31
 70
     1
102
RTVSPropertyOp32
 70
     1
102
RTVSPropertyOp33
 70
     1
102
RTVSPropertyOp34
 70
     1
102
RTVSPropertyOp35
 70
     1
102
RTVSPropertyOp36
 70
     1
102
RTVSPropertyOp37
 70
     1
102
RTVSPropertyOp38
 70
     1
102
RTVSPropertyOp39
 70
     1
102
RTVSPropertyOp40
 70
     1
102
RTVSPropertyOp41
 70
     1
102
RTVSPropertyOp42
 70
     1
102
RTVSPropertyOp43
 70
     1
102
RTVSPropertyOp44
 70
     1
102
RTVSPropertyOp45
 70
     1
102
RTVSPropertyOp46
 70
     1
102
RTVSPropertyOp47
 70
     1
102
RTVSPropertyOp48
 70
     1
102
RTVSPropertyOp49
 70
     1
102
RTVSPropertyOp50
 70
     1
102
RTVSPropertyOp51
 70
     0
102
RTVSPropertyOp52
 70
     0
102
RTVSPropertyOp53
 70
     1
102
RTVSPropertyOp54
 70
     1
102
RTVSPropertyOp55
 70
     1
102
RTVSPropertyOp56
 70
     1
102
RTVSPropertyOp57
 70
     1
102
RTVSPost2010Prop28
280
     0
102
RTVSPost2010PropOp28
 70
     1
102
RTVSPost2010Prop29
280
     1
102
RTVSPost2010PropOp29
 70
     1
102
RTVSPost2010Prop30
280
     1
102
RTVSPost2010PropOp30
 70
     1
102
RTVSPost2010Prop31
280
     0
102
RTVSPost2010PropOp31
 70
     1
102
RTVSPost2010Prop32
280
     0
102
RTVSPost2010PropOp32
 70
     1
102
RTVSPost2010Prop33
280
     0
102
RTVSPost2010PropOp33
 70
     1
102
RTVSPost2010Prop34
280
     0
102
RTVSPost2010PropOp34
 70
     1
102
RTVSPost2010Prop35
280
     0
102
RTVSPost2010PropOp35
 70
     1
102
RTVSPost2010Prop36
280
     0
102
RTVSPost2010PropOp36
 70
     1
102
RTVSPost2010Prop37
 90
       50
102
RTVSPost2010PropOp37
 70
     1
102
RTVSPost2010Prop38
140
0.0
102
RTVSPost2010PropOp38
 70
     1
102
RTVSPost2010Prop39
140
1.0
102
RTVSPost2010PropOp39
 70
     1
102
RTVSPost2010Prop40
 90
        0
102
RTVSPost2010PropOp40
 70
     1
102
RTVSPost2010Prop41ColorIndex
 90
       18
102
RTVSPost2010Prop41ColorRGB
 90
        0
102
RTVSPost2010PropOp41
 70
     1
102
RTVSPost2010Prop42
 90
       50
102
RTVSPost2010PropOp42
 70
     1
102
RTVSPost2010Prop43
 90
        3
102
RTVSPost2010PropOp43
 70
     1
102
RTVSPost2010Prop44ColorIndex
 90
        5
102
RTVSPost2010Prop44ColorRGB
 90
      255
102
RTVSPost2010PropOp44
 70
     1
102
RTVSPost2010Prop45
280
     0
102
RTVSPost2010PropOp45
 70
     1
102
RTVSPost2010Prop46
 90
       50
102
RTVSPost2010PropOp46
 70
     1
102
RTVSPost2010Prop47
 90
       50
102
RTVSPost2010PropOp47
 70
     1
102
RTVSPost2010Prop48
 90
       50
102
RTVSPost2010PropOp48
 70
     1
102
RTVSPost2010Prop49
280
     0
102
RTVSPost2010PropOp49
 70
     1
102
RTVSPost2010Prop50
 90
       50
102
RTVSPost2010PropOp50
 70
     1
102
RTVSPost2010Prop51ColorIndex
 90
      256
102
RTVSPost2010Prop51ColorRGB
 90
-16777216
102
RTVSPost2010PropOp51
 70
     0
102
RTVSPost2010Prop52
140
1.0
102
RTVSPost2010PropOp52
 70
     0
102
RTVSPost2010Prop53
 90
        2
102
RTVSPost2010PropOp53
 70
     1
102
RTVSPost2010Prop54
  1
strokes_ogs.tif
102
RTVSPost2010PropOp54
 70
     1
102
RTVSPost2010Prop55
280
     0
102
RTVSPost2010PropOp55
 70
     1
102
RTVSPost2010Prop56
140
1.0
102
RTVSPost2010PropOp56
 70
     1
102
RTVSPost2010Prop57
140
1.0
102
RTVSPost2010PropOp57
 70
     1
  0
XRECORD
  5
1B7
102
{ACAD_REACTORS
330
1B6
102
}
330
1B6
100
AcDbXrecord
280
     1
102
RTVSPropertyOp0
 70
     1
102
RTVSPropertyOp1
 70
     1
102
RTVSPropertyOp2
 70
     1
102
RTVSPropertyOp3
 70
     1
102
RTVSPropertyOp4
 70
     1
102
RTVSPropertyOp5
 70
     1
102
RTVSPropertyOp6
 70
     1
102
RTVSPropertyOp7
 70
     1
102
RTVSPropertyOp8
 70
     1
102
RTVSPropertyOp9
 70
     1
102
RTVSPropertyOp10
 70
     1
102
RTVSPropertyOp11
 70
     1
102
RTVSPropertyOp12
 70
     1
102
RTVSPropertyOp13
 70
     1
102
RTVSPropertyOp14
 70
     1
102
RTVSPropertyOp15
 70
     1
102
RTVSPropertyOp16
 70
     1
102
RTVSPropertyOp17
 70
     1
102
RTVSPropertyOp18
 70
     1
102
RTVSPropertyOp19
 70
     1
102
RTVSPropertyOp20
 70
     1
102
RTVSPropertyOp21
 70
     1
102
RTVSPropertyOp22
 70
     1
102
RTVSPropertyOp23
 70
     1
102
RTVSPropertyOp24
 70
     1
102
RTVSPropertyOp25
 70
     1
102
RTVSPropertyOp26
 70
     1
102
RTVSPropertyOp27
 70
     1
102
RTVSPropertyOp28
 70
     1
102
RTVSPropertyOp29
 70
     1
102
RTVSPropertyOp30
 70
     1
102
RTVSPropertyOp31
 70
     1
102
RTVSPropertyOp32
 70
     1
102
RTVSPropertyOp33
 70
     1
102
RTVSPropertyOp34
 70
     1
102
RTVSPropertyOp35
 70
     1
102
RTVSPropertyOp36
 70
     1
102
RTVSPropertyOp37
 70
     1
102
RTVSPropertyOp38
 70
     1
102
RTVSPropertyOp39
 70
     1
102
RTVSPropertyOp40
 70
     1
102
RTVSPropertyOp41
 70
     1
102
RTVSPropertyOp42
 70
     1
102
RTVSPropertyOp43
 70
     1
102
RTVSPropertyOp44
 70
     1
102
RTVSPropertyOp45
 70
     1
102
RTVSPropertyOp46
 70
     1
102
RTVSPropertyOp47
 70
     1
102
RTVSPropertyOp48
 70
     1
102
RTVSPropertyOp49
 70
     1
102
RTVSPropertyOp50
 70
     1
102
RTVSPropertyOp51
 70
     0
102
RTVSPropertyOp52
 70
     0
102
RTVSPropertyOp53
 70
     1
102
RTVSPropertyOp54
 70
     1
102
RTVSPropertyOp55
 70
     1
102
RTVSPropertyOp56
 70
     1
102
RTVSPropertyOp57
 70
     1
102
RTVSPost2010Prop28
280
     0
102
RTVSPost2010PropOp28
 70
     1
102
RTVSPost2010Prop29
280
     1
102
RTVSPost2010PropOp29
 70
     1
102
RTVSPost2010Prop30
280
     1
102
RTVSPost2010PropOp30
 70
     1
102
RTVSPost2010Prop31
280
     0
102
RTVSPost2010PropOp31
 70
     1
102
RTVSPost2010Prop32
280
     0
102
RTVSPost2010PropOp32
 70
     1
102
RTVSPost2010Prop33
280
     0
102
RTVSPost2010PropOp33
 70
     1
102
RTVSPost2010Prop34
280
     0
102
RTVSPost2010PropOp34
 70
     1
102
RTVSPost2010Prop35
280
     0
102
RTVSPost2010PropOp35
 70
     1
102
RTVSPost2010Prop36
280
     0
102
RTVSPost2010PropOp36
 70
     1
102
RTVSPost2010Prop37
 90
       50
102
RTVSPost2010PropOp37
 70
     1
102
RTVSPost2010Prop38
140
0.0
102
RTVSPost2010PropOp38
 70
     1
102
RTVSPost2010Prop39
140
1.0
102
RTVSPost2010PropOp39
 70
     1
102
RTVSPost2010Prop40
 90
        0
102
RTVSPost2010PropOp40
 70
     1
102
RTVSPost2010Prop41ColorIndex
 90
       18
102
RTVSPost2010Prop41ColorRGB
 90
        0
102
RTVSPost2010PropOp41
 70
     1
102
RTVSPost2010Prop42
 90
       50
102
RTVSPost2010PropOp42
 70
     1
102
RTVSPost2010Prop43
 90
        3
102
RTVSPost2010PropOp43
 70
     1
102
RTVSPost2010Prop44ColorIndex
 90
        5
102
RTVSPost2010Prop44ColorRGB
 90
      255
102
RTVSPost2010PropOp44
 70
     1
102
RTVSPost2010Prop45
280
     0
102
RTVSPost2010PropOp45
 70
     1
102
RTVSPost2010Prop46
 90
       50
102
RTVSPost2010PropOp46
 70
     1
102
RTVSPost2010Prop47
 90
       50
102
RTVSPost2010PropOp47
 70
     1
102
RTVSPost2010Prop48
 90
       50
102
RTVSPost2010PropOp48
 70
     1
102
RTVSPost2010Prop49
280
     0
102
RTVSPost2010PropOp49
 70
     1
102
RTVSPost2010Prop50
 90
       50
102
RTVSPost2010PropOp50
 70
     1
102
RTVSPost2010Prop51ColorIndex
 90
      256
102
RTVSPost2010Prop51ColorRGB
 90
-16777216
102
RTVSPost2010PropOp51
 70
     0
102
RTVSPost2010Prop52
140
1.0
102
RTVSPost2010PropOp52
 70
     0
102
RTVSPost2010Prop53
 90
        2
102
RTVSPost2010PropOp53
 70
     1
102
RTVSPost2010Prop54
  1
strokes_ogs.tif
102
RTVSPost2010PropOp54
 70
     1
102
RTVSPost2010Prop55
280
     0
102
RTVSPost2010PropOp55
 70
     1
102
RTVSPost2010Prop56
140
1.0
102
RTVSPost2010PropOp56
 70
     1
102
RTVSPost2010Prop57
140
1.0
102
RTVSPost2010PropOp57
 70
     1
  0
XRECORD
  5
1B9
102
{ACAD_REACTORS
330
1B8
102
}
330
1B8
100
AcDbXrecord
280
     1
102
RTVSPropertyOp0
 70
     1
102
RTVSPropertyOp1
 70
     1
102
RTVSPropertyOp2
 70
     1
102
RTVSPropertyOp3
 70
     1
102
RTVSPropertyOp4
 70
     1
102
RTVSPropertyOp5
 70
     1
102
RTVSPropertyOp6
 70
     1
102
RTVSPropertyOp7
 70
     1
102
RTVSPropertyOp8
 70
     1
102
RTVSPropertyOp9
 70
     1
102
RTVSPropertyOp10
 70
     1
102
RTVSPropertyOp11
 70
     1
102
RTVSPropertyOp12
 70
     1
102
RTVSPropertyOp13
 70
     1
102
RTVSPropertyOp14
 70
     1
102
RTVSPropertyOp15
 70
     1
102
RTVSPropertyOp16
 70
     1
102
RTVSPropertyOp17
 70
     1
102
RTVSPropertyOp18
 70
     1
102
RTVSPropertyOp19
 70
     1
102
RTVSPropertyOp20
 70
     1
102
RTVSPropertyOp21
 70
     1
102
RTVSPropertyOp22
 70
     1
102
RTVSPropertyOp23
 70
     1
102
RTVSPropertyOp24
 70
     1
102
RTVSPropertyOp25
 70
     1
102
RTVSPropertyOp26
 70
     1
102
RTVSPropertyOp27
 70
     1
102
RTVSPropertyOp28
 70
     1
102
RTVSPropertyOp29
 70
     1
102
RTVSPropertyOp30
 70
     1
102
RTVSPropertyOp31
 70
     1
102
RTVSPropertyOp32
 70
     1
102
RTVSPropertyOp33
 70
     1
102
RTVSPropertyOp34
 70
     1
102
RTVSPropertyOp35
 70
     1
102
RTVSPropertyOp36
 70
     1
102
RTVSPropertyOp37
 70
     1
102
RTVSPropertyOp38
 70
     1
102
RTVSPropertyOp39
 70
     1
102
RTVSPropertyOp40
 70
     1
102
RTVSPropertyOp41
 70
     1
102
RTVSPropertyOp42
 70
     1
102
RTVSPropertyOp43
 70
     1
102
RTVSPropertyOp44
 70
     1
102
RTVSPropertyOp45
 70
     1
102
RTVSPropertyOp46
 70
     1
102
RTVSPropertyOp47
 70
     1
102
RTVSPropertyOp48
 70
     1
102
RTVSPropertyOp49
 70
     1
102
RTVSPropertyOp50
 70
     1
102
RTVSPropertyOp51
 70
     0
102
RTVSPropertyOp52
 70
     0
102
RTVSPropertyOp53
 70
     1
102
RTVSPropertyOp54
 70
     1
102
RTVSPropertyOp55
 70
     1
102
RTVSPropertyOp56
 70
     1
102
RTVSPropertyOp57
 70
     1
102
RTVSPost2010Prop28
280
     0
102
RTVSPost2010PropOp28
 70
     1
102
RTVSPost2010Prop29
280
     1
102
RTVSPost2010PropOp29
 70
     1
102
RTVSPost2010Prop30
280
     1
102
RTVSPost2010PropOp30
 70
     1
102
RTVSPost2010Prop31
280
     0
102
RTVSPost2010PropOp31
 70
     1
102
RTVSPost2010Prop32
280
     0
102
RTVSPost2010PropOp32
 70
     1
102
RTVSPost2010Prop33
280
     0
102
RTVSPost2010PropOp33
 70
     1
102
RTVSPost2010Prop34
280
     0
102
RTVSPost2010PropOp34
 70
     1
102
RTVSPost2010Prop35
280
     0
102
RTVSPost2010PropOp35
 70
     1
102
RTVSPost2010Prop36
280
     0
102
RTVSPost2010PropOp36
 70
     1
102
RTVSPost2010Prop37
 90
       50
102
RTVSPost2010PropOp37
 70
     1
102
RTVSPost2010Prop38
140
0.0
102
RTVSPost2010PropOp38
 70
     1
102
RTVSPost2010Prop39
140
1.0
102
RTVSPost2010PropOp39
 70
     1
102
RTVSPost2010Prop40
 90
        0
102
RTVSPost2010PropOp40
 70
     1
102
RTVSPost2010Prop41ColorIndex
 90
       18
102
RTVSPost2010Prop41ColorRGB
 90
        0
102
RTVSPost2010PropOp41
 70
     1
102
RTVSPost2010Prop42
 90
       50
102
RTVSPost2010PropOp42
 70
     1
102
RTVSPost2010Prop43
 90
        3
102
RTVSPost2010PropOp43
 70
     1
102
RTVSPost2010Prop44ColorIndex
 90
        5
102
RTVSPost2010Prop44ColorRGB
 90
      255
102
RTVSPost2010PropOp44
 70
     1
102
RTVSPost2010Prop45
280
     0
102
RTVSPost2010PropOp45
 70
     1
102
RTVSPost2010Prop46
 90
       50
102
RTVSPost2010PropOp46
 70
     1
102
RTVSPost2010Prop47
 90
       50
102
RTVSPost2010PropOp47
 70
     1
102
RTVSPost2010Prop48
 90
       50
102
RTVSPost2010PropOp48
 70
     1
102
RTVSPost2010Prop49
280
     0
102
RTVSPost2010PropOp49
 70
     1
102
RTVSPost2010Prop50
 90
       50
102
RTVSPost2010PropOp50
 70
     1
102
RTVSPost2010Prop51ColorIndex
 90
      256
102
RTVSPost2010Prop51ColorRGB
 90
-16777216
102
RTVSPost2010PropOp51
 70
     0
102
RTVSPost2010Prop52
140
1.0
102
RTVSPost2010PropOp52
 70
     0
102
RTVSPost2010Prop53
 90
        2
102
RTVSPost2010PropOp53
 70
     1
102
RTVSPost2010Prop54
  1
strokes_ogs.tif
102
RTVSPost2010PropOp54
 70
     1
102
RTVSPost2010Prop55
280
     0
102
RTVSPost2010PropOp55
 70
     1
102
RTVSPost2010Prop56
140
1.0
102
RTVSPost2010PropOp56
 70
     1
102
RTVSPost2010Prop57
140
1.0
102
RTVSPost2010PropOp57
 70
     1
  0
XRECORD
  5
1BB
102
{ACAD_REACTORS
330
1BA
102
}
330
1BA
100
AcDbXrecord
280
     1
102
RTVSPropertyOp0
 70
     1
102
RTVSPropertyOp1
 70
     1
102
RTVSPropertyOp2
 70
     1
102
RTVSPropertyOp3
 70
     1
102
RTVSPropertyOp4
 70
     1
102
RTVSPropertyOp5
 70
     1
102
RTVSPropertyOp6
 70
     1
102
RTVSPropertyOp7
 70
     1
102
RTVSPropertyOp8
 70
     1
102
RTVSPropertyOp9
 70
     1
102
RTVSPropertyOp10
 70
     1
102
RTVSPropertyOp11
 70
     1
102
RTVSPropertyOp12
 70
     1
102
RTVSPropertyOp13
 70
     1
102
RTVSPropertyOp14
 70
     1
102
RTVSPropertyOp15
 70
     1
102
RTVSPropertyOp16
 70
     1
102
RTVSPropertyOp17
 70
     1
102
RTVSPropertyOp18
 70
     1
102
RTVSPropertyOp19
 70
     1
102
RTVSPropertyOp20
 70
     1
102
RTVSPropertyOp21
 70
     1
102
RTVSPropertyOp22
 70
     1
102
RTVSPropertyOp23
 70
     1
102
RTVSPropertyOp24
 70
     1
102
RTVSPropertyOp25
 70
     1
102
RTVSPropertyOp26
 70
     1
102
RTVSPropertyOp27
 70
     1
102
RTVSPropertyOp28
 70
     1
102
RTVSPropertyOp29
 70
     1
102
RTVSPropertyOp30
 70
     1
102
RTVSPropertyOp31
 70
     1
102
RTVSPropertyOp32
 70
     1
102
RTVSPropertyOp33
 70
     1
102
RTVSPropertyOp34
 70
     1
102
RTVSPropertyOp35
 70
     1
102
RTVSPropertyOp36
 70
     1
102
RTVSPropertyOp37
 70
     1
102
RTVSPropertyOp38
 70
     1
102
RTVSPropertyOp39
 70
     1
102
RTVSPropertyOp40
 70
     1
102
RTVSPropertyOp41
 70
     1
102
RTVSPropertyOp42
 70
     1
102
RTVSPropertyOp43
 70
     1
102
RTVSPropertyOp44
 70
     1
102
RTVSPropertyOp45
 70
     1
102
RTVSPropertyOp46
 70
     1
102
RTVSPropertyOp47
 70
     1
102
RTVSPropertyOp48
 70
     1
102
RTVSPropertyOp49
 70
     1
102
RTVSPropertyOp50
 70
     1
102
RTVSPropertyOp51
 70
     0
102
RTVSPropertyOp52
 70
     0
102
RTVSPropertyOp53
 70
     1
102
RTVSPropertyOp54
 70
     1
102
RTVSPropertyOp55
 70
     1
102
RTVSPropertyOp56
 70
     1
102
RTVSPropertyOp57
 70
     1
102
RTVSPost2010Prop28
280
     0
102
RTVSPost2010PropOp28
 70
     1
102
RTVSPost2010Prop29
280
     1
102
RTVSPost2010PropOp29
 70
     1
102
RTVSPost2010Prop30
280
     1
102
RTVSPost2010PropOp30
 70
     1
102
RTVSPost2010Prop31
280
     0
102
RTVSPost2010PropOp31
 70
     1
102
RTVSPost2010Prop32
280
     0
102
RTVSPost2010PropOp32
 70
     1
102
RTVSPost2010Prop33
280
     0
102
RTVSPost2010PropOp33
 70
     1
102
RTVSPost2010Prop34
280
     0
102
RTVSPost2010PropOp34
 70
     1
102
RTVSPost2010Prop35
280
     0
102
RTVSPost2010PropOp35
 70
     1
102
RTVSPost2010Prop36
280
     0
102
RTVSPost2010PropOp36
 70
     1
102
RTVSPost2010Prop37
 90
       50
102
RTVSPost2010PropOp37
 70
     1
102
RTVSPost2010Prop38
140
0.0
102
RTVSPost2010PropOp38
 70
     1
102
RTVSPost2010Prop39
140
1.0
102
RTVSPost2010PropOp39
 70
     1
102
RTVSPost2010Prop40
 90
        0
102
RTVSPost2010PropOp40
 70
     1
102
RTVSPost2010Prop41ColorIndex
 90
       18
102
RTVSPost2010Prop41ColorRGB
 90
        0
102
RTVSPost2010PropOp41
 70
     1
102
RTVSPost2010Prop42
 90
       50
102
RTVSPost2010PropOp42
 70
     1
102
RTVSPost2010Prop43
 90
        3
102
RTVSPost2010PropOp43
 70
     1
102
RTVSPost2010Prop44ColorIndex
 90
        5
102
RTVSPost2010Prop44ColorRGB
 90
      255
102
RTVSPost2010PropOp44
 70
     1
102
RTVSPost2010Prop45
280
     0
102
RTVSPost2010PropOp45
 70
     1
102
RTVSPost2010Prop46
 90
       50
102
RTVSPost2010PropOp46
 70
     1
102
RTVSPost2010Prop47
 90
       50
102
RTVSPost2010PropOp47
 70
     1
102
RTVSPost2010Prop48
 90
       50
102
RTVSPost2010PropOp48
 70
     1
102
RTVSPost2010Prop49
280
     0
102
RTVSPost2010PropOp49
 70
     1
102
RTVSPost2010Prop50
 90
       50
102
RTVSPost2010PropOp50
 70
     1
102
RTVSPost2010Prop51ColorIndex
 90
      256
102
RTVSPost2010Prop51ColorRGB
 90
-16777216
102
RTVSPost2010PropOp51
 70
     0
102
RTVSPost2010Prop52
140
1.0
102
RTVSPost2010PropOp52
 70
     0
102
RTVSPost2010Prop53
 90
        2
102
RTVSPost2010PropOp53
 70
     1
102
RTVSPost2010Prop54
  1
strokes_ogs.tif
102
RTVSPost2010PropOp54
 70
     1
102
RTVSPost2010Prop55
280
     0
102
RTVSPost2010PropOp55
 70
     1
102
RTVSPost2010Prop56
140
1.0
102
RTVSPost2010PropOp56
 70
     1
102
RTVSPost2010Prop57
140
1.0
102
RTVSPost2010PropOp57
 70
     1
  0
XRECORD
  5
1C1
102
{ACAD_REACTORS
330
1C0
102
}
330
1C0
100
AcDbXrecord
280
     1
102
RTVSPropertyOp0
 70
     1
102
RTVSPropertyOp1
 70
     1
102
RTVSPropertyOp2
 70
     1
102
RTVSPropertyOp3
 70
     1
102
RTVSPropertyOp4
 70
     1
102
RTVSPropertyOp5
 70
     1
102
RTVSPropertyOp6
 70
     1
102
RTVSPropertyOp7
 70
     1
102
RTVSPropertyOp8
 70
     1
102
RTVSPropertyOp9
 70
     1
102
RTVSPropertyOp10
 70
     1
102
RTVSPropertyOp11
 70
     1
102
RTVSPropertyOp12
 70
     1
102
RTVSPropertyOp13
 70
     1
102
RTVSPropertyOp14
 70
     1
102
RTVSPropertyOp15
 70
     1
102
RTVSPropertyOp16
 70
     1
102
RTVSPropertyOp17
 70
     1
102
RTVSPropertyOp18
 70
     1
102
RTVSPropertyOp19
 70
     1
102
RTVSPropertyOp20
 70
     1
102
RTVSPropertyOp21
 70
     1
102
RTVSPropertyOp22
 70
     1
102
RTVSPropertyOp23
 70
     1
102
RTVSPropertyOp24
 70
     1
102
RTVSPropertyOp25
 70
     1
102
RTVSPropertyOp26
 70
     1
102
RTVSPropertyOp27
 70
     1
102
RTVSPropertyOp28
 70
     1
102
RTVSPropertyOp29
 70
     1
102
RTVSPropertyOp30
 70
     1
102
RTVSPropertyOp31
 70
     1
102
RTVSPropertyOp32
 70
     1
102
RTVSPropertyOp33
 70
     1
102
RTVSPropertyOp34
 70
     1
102
RTVSPropertyOp35
 70
     1
102
RTVSPropertyOp36
 70
     1
102
RTVSPropertyOp37
 70
     1
102
RTVSPropertyOp38
 70
     1
102
RTVSPropertyOp39
 70
     1
102
RTVSPropertyOp40
 70
     1
102
RTVSPropertyOp41
 70
     1
102
RTVSPropertyOp42
 70
     1
102
RTVSPropertyOp43
 70
     1
102
RTVSPropertyOp44
 70
     1
102
RTVSPropertyOp45
 70
     1
102
RTVSPropertyOp46
 70
     1
102
RTVSPropertyOp47
 70
     1
102
RTVSPropertyOp48
 70
     1
102
RTVSPropertyOp49
 70
     1
102
RTVSPropertyOp50
 70
     1
102
RTVSPropertyOp51
 70
     0
102
RTVSPropertyOp52
 70
     0
102
RTVSPropertyOp53
 70
     1
102
RTVSPropertyOp54
 70
     1
102
RTVSPropertyOp55
 70
     1
102
RTVSPropertyOp56
 70
     1
102
RTVSPropertyOp57
 70
     1
102
RTVSPost2010Prop28
280
     0
102
RTVSPost2010PropOp28
 70
     1
102
RTVSPost2010Prop29
280
     1
102
RTVSPost2010PropOp29
 70
     1
102
RTVSPost2010Prop30
280
     1
102
RTVSPost2010PropOp30
 70
     1
102
RTVSPost2010Prop31
280
     0
102
RTVSPost2010PropOp31
 70
     1
102
RTVSPost2010Prop32
280
     0
102
RTVSPost2010PropOp32
 70
     1
102
RTVSPost2010Prop33
280
     0
102
RTVSPost2010PropOp33
 70
     1
102
RTVSPost2010Prop34
280
     0
102
RTVSPost2010PropOp34
 70
     1
102
RTVSPost2010Prop35
280
     0
102
RTVSPost2010PropOp35
 70
     1
102
RTVSPost2010Prop36
280
     0
102
RTVSPost2010PropOp36
 70
     1
102
RTVSPost2010Prop37
 90
       50
102
RTVSPost2010PropOp37
 70
     1
102
RTVSPost2010Prop38
140
0.0
102
RTVSPost2010PropOp38
 70
     1
102
RTVSPost2010Prop39
140
1.0
102
RTVSPost2010PropOp39
 70
     1
102
RTVSPost2010Prop40
 90
        0
102
RTVSPost2010PropOp40
 70
     1
102
RTVSPost2010Prop41ColorIndex
 90
       18
102
RTVSPost2010Prop41ColorRGB
 90
        0
102
RTVSPost2010PropOp41
 70
     1
102
RTVSPost2010Prop42
 90
       50
102
RTVSPost2010PropOp42
 70
     1
102
RTVSPost2010Prop43
 90
        3
102
RTVSPost2010PropOp43
 70
     1
102
RTVSPost2010Prop44ColorIndex
 90
        5
102
RTVSPost2010Prop44ColorRGB
 90
      255
102
RTVSPost2010PropOp44
 70
     1
102
RTVSPost2010Prop45
280
     0
102
RTVSPost2010PropOp45
 70
     1
102
RTVSPost2010Prop46
 90
       50
102
RTVSPost2010PropOp46
 70
     1
102
RTVSPost2010Prop47
 90
       50
102
RTVSPost2010PropOp47
 70
     1
102
RTVSPost2010Prop48
 90
       50
102
RTVSPost2010PropOp48
 70
     1
102
RTVSPost2010Prop49
280
     0
102
RTVSPost2010PropOp49
 70
     1
102
RTVSPost2010Prop50
 90
       50
102
RTVSPost2010PropOp50
 70
     1
102
RTVSPost2010Prop51ColorIndex
 90
      256
102
RTVSPost2010Prop51ColorRGB
 90
-16777216
102
RTVSPost2010PropOp51
 70
     0
102
RTVSPost2010Prop52
140
1.0
102
RTVSPost2010PropOp52
 70
     0
102
RTVSPost2010Prop53
 90
        2
102
RTVSPost2010PropOp53
 70
     1
102
RTVSPost2010Prop54
  1
strokes_ogs.tif
102
RTVSPost2010PropOp54
 70
     1
102
RTVSPost2010Prop55
280
     0
102
RTVSPost2010PropOp55
 70
     1
102
RTVSPost2010Prop56
140
1.0
102
RTVSPost2010PropOp56
 70
     1
102
RTVSPost2010Prop57
140
1.0
102
RTVSPost2010PropOp57
 70
     1
  0
XRECORD
  5
1D5
102
{ACAD_REACTORS
330
1D4
102
}
330
1D4
100
AcDbXrecord
280
     1
102
RTVSPropertyOp0
 70
     0
102
RTVSPropertyOp1
 70
     0
102
RTVSPropertyOp2
 70
     0
102
RTVSPropertyOp3
 70
     0
102
RTVSPropertyOp4
 70
     0
102
RTVSPropertyOp5
 70
     0
102
RTVSPropertyOp6
 70
     0
102
RTVSPropertyOp7
 70
     0
102
RTVSPropertyOp8
 70
     0
102
RTVSPropertyOp9
 70
     0
102
RTVSPropertyOp10
 70
     0
102
RTVSPropertyOp11
 70
     0
102
RTVSPropertyOp12
 70
     0
102
RTVSPropertyOp13
 70
     0
102
RTVSPropertyOp14
 70
     2
102
RTVSPropertyOp15
 70
     0
102
RTVSPropertyOp16
 70
     0
102
RTVSPropertyOp17
 70
     0
102
RTVSPropertyOp18
 70
     0
102
RTVSPropertyOp19
 70
     0
102
RTVSPropertyOp20
 70
     0
102
RTVSPropertyOp21
 70
     0
102
RTVSPropertyOp22
 70
     0
102
RTVSPropertyOp23
 70
     0
102
RTVSPropertyOp24
 70
     0
102
RTVSPropertyOp25
 70
     0
102
RTVSPropertyOp26
 70
     0
102
RTVSPropertyOp27
 70
     0
102
RTVSPropertyOp28
 70
     0
102
RTVSPropertyOp29
 70
     0
102
RTVSPropertyOp30
 70
     0
102
RTVSPropertyOp31
 70
     0
102
RTVSPropertyOp32
 70
     0
102
RTVSPropertyOp33
 70
     0
102
RTVSPropertyOp34
 70
     0
102
RTVSPropertyOp35
 70
     0
102
RTVSPropertyOp36
 70
     0
102
RTVSPropertyOp37
 70
     0
102
RTVSPropertyOp38
 70
     0
102
RTVSPropertyOp39
 70
     0
102
RTVSPropertyOp40
 70
     0
102
RTVSPropertyOp41
 70
     0
102
RTVSPropertyOp42
 70
     0
102
RTVSPropertyOp43
 70
     0
102
RTVSPropertyOp44
 70
     0
102
RTVSPropertyOp45
 70
     0
102
RTVSPropertyOp46
 70
     0
102
RTVSPropertyOp47
 70
     0
102
RTVSPropertyOp48
 70
     0
102
RTVSPropertyOp49
 70
     0
102
RTVSPropertyOp50
 70
     0
102
RTVSPropertyOp51
 70
     0
102
RTVSPropertyOp52
 70
     0
102
RTVSPropertyOp53
 70
     0
102
RTVSPropertyOp54
 70
     0
102
RTVSPropertyOp55
 70
     0
102
RTVSPropertyOp56
 70
     0
102
RTVSPropertyOp57
 70
     0
102
RTVSPost2010Prop28
280
     0
102
RTVSPost2010PropOp28
 70
     0
102
RTVSPost2010Prop29
280
     1
102
RTVSPost2010PropOp29
 70
     0
102
RTVSPost2010Prop30
280
     1
102
RTVSPost2010PropOp30
 70
     0
102
RTVSPost2010Prop31
280
     0
102
RTVSPost2010PropOp31
 70
     0
102
RTVSPost2010Prop32
280
     0
102
RTVSPost2010PropOp32
 70
     0
102
RTVSPost2010Prop33
280
     0
102
RTVSPost2010PropOp33
 70
     0
102
RTVSPost2010Prop34
280
     0
102
RTVSPost2010PropOp34
 70
     0
102
RTVSPost2010Prop35
280
     0
102
RTVSPost2010PropOp35
 70
     0
102
RTVSPost2010Prop36
280
     0
102
RTVSPost2010PropOp36
 70
     0
102
RTVSPost2010Prop37
 90
       50
102
RTVSPost2010PropOp37
 70
     0
102
RTVSPost2010Prop38
140
0.0
102
RTVSPost2010PropOp38
 70
     0
102
RTVSPost2010Prop39
140
1.0
102
RTVSPost2010PropOp39
 70
     0
102
RTVSPost2010Prop40
 90
        0
102
RTVSPost2010PropOp40
 70
     0
102
RTVSPost2010Prop41ColorIndex
 90
       18
102
RTVSPost2010Prop41ColorRGB
 90
        0
102
RTVSPost2010PropOp41
 70
     0
102
RTVSPost2010Prop42
 90
       50
102
RTVSPost2010PropOp42
 70
     0
102
RTVSPost2010Prop43
 90
        3
102
RTVSPost2010PropOp43
 70
     0
102
RTVSPost2010Prop44ColorIndex
 90
        5
102
RTVSPost2010Prop44ColorRGB
 90
      255
102
RTVSPost2010PropOp44
 70
     0
102
RTVSPost2010Prop45
280
     0
102
RTVSPost2010PropOp45
 70
     0
102
RTVSPost2010Prop46
 90
       50
102
RTVSPost2010PropOp46
 70
     0
102
RTVSPost2010Prop47
 90
       50
102
RTVSPost2010PropOp47
 70
     0
102
RTVSPost2010Prop48
 90
       50
102
RTVSPost2010PropOp48
 70
     0
102
RTVSPost2010Prop49
280
     0
102
RTVSPost2010PropOp49
 70
     0
102
RTVSPost2010Prop50
 90
       50
102
RTVSPost2010PropOp50
 70
     0
102
RTVSPost2010Prop51ColorIndex
 90
      256
102
RTVSPost2010Prop51ColorRGB
 90
-16777216
102
RTVSPost2010PropOp51
 70
     0
102
RTVSPost2010Prop52
140
1.0
102
RTVSPost2010PropOp52
 70
     0
102
RTVSPost2010Prop53
 90
        2
102
RTVSPost2010PropOp53
 70
     0
102
RTVSPost2010Prop54
  1
strokes_ogs.tif
102
RTVSPost2010PropOp54
 70
     0
102
RTVSPost2010Prop55
280
     0
102
RTVSPost2010PropOp55
 70
     0
102
RTVSPost2010Prop56
140
1.0
102
RTVSPost2010PropOp56
 70
     0
102
RTVSPost2010Prop57
140
1.0
102
RTVSPost2010PropOp57
 70
     0
  0
XRECORD
  5
1CF
102
{ACAD_REACTORS
330
1CE
102
}
330
1CE
100
AcDbXrecord
280
     1
102
RTVSPropertyOp0
 70
     1
102
RTVSPropertyOp1
 70
     1
102
RTVSPropertyOp2
 70
     1
102
RTVSPropertyOp3
 70
     1
102
RTVSPropertyOp4
 70
     1
102
RTVSPropertyOp5
 70
     1
102
RTVSPropertyOp6
 70
     1
102
RTVSPropertyOp7
 70
     1
102
RTVSPropertyOp8
 70
     1
102
RTVSPropertyOp9
 70
     1
102
RTVSPropertyOp10
 70
     1
102
RTVSPropertyOp11
 70
     1
102
RTVSPropertyOp12
 70
     1
102
RTVSPropertyOp13
 70
     1
102
RTVSPropertyOp14
 70
     1
102
RTVSPropertyOp15
 70
     1
102
RTVSPropertyOp16
 70
     1
102
RTVSPropertyOp17
 70
     1
102
RTVSPropertyOp18
 70
     1
102
RTVSPropertyOp19
 70
     1
102
RTVSPropertyOp20
 70
     1
102
RTVSPropertyOp21
 70
     1
102
RTVSPropertyOp22
 70
     1
102
RTVSPropertyOp23
 70
     1
102
RTVSPropertyOp24
 70
     1
102
RTVSPropertyOp25
 70
     1
102
RTVSPropertyOp26
 70
     1
102
RTVSPropertyOp27
 70
     1
102
RTVSPropertyOp28
 70
     1
102
RTVSPropertyOp29
 70
     1
102
RTVSPropertyOp30
 70
     1
102
RTVSPropertyOp31
 70
     1
102
RTVSPropertyOp32
 70
     1
102
RTVSPropertyOp33
 70
     1
102
RTVSPropertyOp34
 70
     1
102
RTVSPropertyOp35
 70
     1
102
RTVSPropertyOp36
 70
     1
102
RTVSPropertyOp37
 70
     1
102
RTVSPropertyOp38
 70
     1
102
RTVSPropertyOp39
 70
     1
102
RTVSPropertyOp40
 70
     1
102
RTVSPropertyOp41
 70
     1
102
RTVSPropertyOp42
 70
     1
102
RTVSPropertyOp43
 70
     1
102
RTVSPropertyOp44
 70
     1
102
RTVSPropertyOp45
 70
     1
102
RTVSPropertyOp46
 70
     1
102
RTVSPropertyOp47
 70
     1
102
RTVSPropertyOp48
 70
     1
102
RTVSPropertyOp49
 70
     1
102
RTVSPropertyOp50
 70
     1
102
RTVSPropertyOp51
 70
     0
102
RTVSPropertyOp52
 70
     0
102
RTVSPropertyOp53
 70
     1
102
RTVSPropertyOp54
 70
     1
102
RTVSPropertyOp55
 70
     1
102
RTVSPropertyOp56
 70
     1
102
RTVSPropertyOp57
 70
     1
102
RTVSPost2010Prop28
280
     0
102
RTVSPost2010PropOp28
 70
     1
102
RTVSPost2010Prop29
280
     1
102
RTVSPost2010PropOp29
 70
     1
102
RTVSPost2010Prop30
280
     1
102
RTVSPost2010PropOp30
 70
     1
102
RTVSPost2010Prop31
280
     0
102
RTVSPost2010PropOp31
 70
     1
102
RTVSPost2010Prop32
280
     0
102
RTVSPost2010PropOp32
 70
     1
102
RTVSPost2010Prop33
280
     0
102
RTVSPost2010PropOp33
 70
     1
102
RTVSPost2010Prop34
280
     0
102
RTVSPost2010PropOp34
 70
     1
102
RTVSPost2010Prop35
280
     0
102
RTVSPost2010PropOp35
 70
     1
102
RTVSPost2010Prop36
280
     0
102
RTVSPost2010PropOp36
 70
     1
102
RTVSPost2010Prop37
 90
       50
102
RTVSPost2010PropOp37
 70
     1
102
RTVSPost2010Prop38
140
0.0
102
RTVSPost2010PropOp38
 70
     1
102
RTVSPost2010Prop39
140
1.0
102
RTVSPost2010PropOp39
 70
     1
102
RTVSPost2010Prop40
 90
        0
102
RTVSPost2010PropOp40
 70
     1
102
RTVSPost2010Prop41ColorIndex
 90
       18
102
RTVSPost2010Prop41ColorRGB
 90
        0
102
RTVSPost2010PropOp41
 70
     1
102
RTVSPost2010Prop42
 90
       50
102
RTVSPost2010PropOp42
 70
     1
102
RTVSPost2010Prop43
 90
        3
102
RTVSPost2010PropOp43
 70
     1
102
RTVSPost2010Prop44ColorIndex
 90
        5
102
RTVSPost2010Prop44ColorRGB
 90
      255
102
RTVSPost2010PropOp44
 70
     1
102
RTVSPost2010Prop45
280
     0
102
RTVSPost2010PropOp45
 70
     1
102
RTVSPost2010Prop46
 90
       50
102
RTVSPost2010PropOp46
 70
     1
102
RTVSPost2010Prop47
 90
       50
102
RTVSPost2010PropOp47
 70
     1
102
RTVSPost2010Prop48
 90
       50
102
RTVSPost2010PropOp48
 70
     1
102
RTVSPost2010Prop49
280
     0
102
RTVSPost2010PropOp49
 70
     1
102
RTVSPost2010Prop50
 90
       50
102
RTVSPost2010PropOp50
 70
     1
102
RTVSPost2010Prop51ColorIndex
 90
      256
102
RTVSPost2010Prop51ColorRGB
 90
-16777216
102
RTVSPost2010PropOp51
 70
     0
102
RTVSPost2010Prop52
140
1.0
102
RTVSPost2010PropOp52
 70
     0
102
RTVSPost2010Prop53
 90
        2
102
RTVSPost2010PropOp53
 70
     1
102
RTVSPost2010Prop54
  1
strokes_ogs.tif
102
RTVSPost2010PropOp54
 70
     1
102
RTVSPost2010Prop55
280
     0
102
RTVSPost2010PropOp55
 70
     1
102
RTVSPost2010Prop56
140
1.0
102
RTVSPost2010PropOp56
 70
     1
102
RTVSPost2010Prop57
140
1.0
102
RTVSPost2010PropOp57
 70
     1
  0
XRECORD
  5
1D7
102
{ACAD_REACTORS
330
1D6
102
}
330
1D6
100
AcDbXrecord
280
     1
102
RTVSPropertyOp0
 70
     0
102
RTVSPropertyOp1
 70
     0
102
RTVSPropertyOp2
 70
     0
102
RTVSPropertyOp3
 70
     0
102
RTVSPropertyOp4
 70
     0
102
RTVSPropertyOp5
 70
     0
102
RTVSPropertyOp6
 70
     0
102
RTVSPropertyOp7
 70
     0
102
RTVSPropertyOp8
 70
     0
102
RTVSPropertyOp9
 70
     0
102
RTVSPropertyOp10
 70
     0
102
RTVSPropertyOp11
 70
     0
102
RTVSPropertyOp12
 70
     0
102
RTVSPropertyOp13
 70
     0
102
RTVSPropertyOp14
 70
     2
102
RTVSPropertyOp15
 70
     0
102
RTVSPropertyOp16
 70
     0
102
RTVSPropertyOp17
 70
     0
102
RTVSPropertyOp18
 70
     0
102
RTVSPropertyOp19
 70
     0
102
RTVSPropertyOp20
 70
     0
102
RTVSPropertyOp21
 70
     0
102
RTVSPropertyOp22
 70
     0
102
RTVSPropertyOp23
 70
     0
102
RTVSPropertyOp24
 70
     0
102
RTVSPropertyOp25
 70
     0
102
RTVSPropertyOp26
 70
     0
102
RTVSPropertyOp27
 70
     0
102
RTVSPropertyOp28
 70
     0
102
RTVSPropertyOp29
 70
     0
102
RTVSPropertyOp30
 70
     0
102
RTVSPropertyOp31
 70
     0
102
RTVSPropertyOp32
 70
     0
102
RTVSPropertyOp33
 70
     0
102
RTVSPropertyOp34
 70
     0
102
RTVSPropertyOp35
 70
     0
102
RTVSPropertyOp36
 70
     0
102
RTVSPropertyOp37
 70
     0
102
RTVSPropertyOp38
 70
     0
102
RTVSPropertyOp39
 70
     0
102
RTVSPropertyOp40
 70
     0
102
RTVSPropertyOp41
 70
     0
102
RTVSPropertyOp42
 70
     0
102
RTVSPropertyOp43
 70
     0
102
RTVSPropertyOp44
 70
     0
102
RTVSPropertyOp45
 70
     0
102
RTVSPropertyOp46
 70
     0
102
RTVSPropertyOp47
 70
     0
102
RTVSPropertyOp48
 70
     0
102
RTVSPropertyOp49
 70
     0
102
RTVSPropertyOp50
 70
     0
102
RTVSPropertyOp51
 70
     0
102
RTVSPropertyOp52
 70
     0
102
RTVSPropertyOp53
 70
     0
102
RTVSPropertyOp54
 70
     0
102
RTVSPropertyOp55
 70
     0
102
RTVSPropertyOp56
 70
     0
102
RTVSPropertyOp57
 70
     0
102
RTVSPost2010Prop28
280
     0
102
RTVSPost2010PropOp28
 70
     0
102
RTVSPost2010Prop29
280
     1
102
RTVSPost2010PropOp29
 70
     0
102
RTVSPost2010Prop30
280
     1
102
RTVSPost2010PropOp30
 70
     0
102
RTVSPost2010Prop31
280
     0
102
RTVSPost2010PropOp31
 70
     0
102
RTVSPost2010Prop32
280
     0
102
RTVSPost2010PropOp32
 70
     0
102
RTVSPost2010Prop33
280
     0
102
RTVSPost2010PropOp33
 70
     0
102
RTVSPost2010Prop34
280
     0
102
RTVSPost2010PropOp34
 70
     0
102
RTVSPost2010Prop35
280
     0
102
RTVSPost2010PropOp35
 70
     0
102
RTVSPost2010Prop36
280
     0
102
RTVSPost2010PropOp36
 70
     0
102
RTVSPost2010Prop37
 90
       50
102
RTVSPost2010PropOp37
 70
     0
102
RTVSPost2010Prop38
140
0.0
102
RTVSPost2010PropOp38
 70
     0
102
RTVSPost2010Prop39
140
1.0
102
RTVSPost2010PropOp39
 70
     0
102
RTVSPost2010Prop40
 90
        0
102
RTVSPost2010PropOp40
 70
     0
102
RTVSPost2010Prop41ColorIndex
 90
       18
102
RTVSPost2010Prop41ColorRGB
 90
        0
102
RTVSPost2010PropOp41
 70
     0
102
RTVSPost2010Prop42
 90
       50
102
RTVSPost2010PropOp42
 70
     0
102
RTVSPost2010Prop43
 90
        3
102
RTVSPost2010PropOp43
 70
     0
102
RTVSPost2010Prop44ColorIndex
 90
        5
102
RTVSPost2010Prop44ColorRGB
 90
      255
102
RTVSPost2010PropOp44
 70
     0
102
RTVSPost2010Prop45
280
     0
102
RTVSPost2010PropOp45
 70
     0
102
RTVSPost2010Prop46
 90
       50
102
RTVSPost2010PropOp46
 70
     0
102
RTVSPost2010Prop47
 90
       50
102
RTVSPost2010PropOp47
 70
     0
102
RTVSPost2010Prop48
 90
       50
102
RTVSPost2010PropOp48
 70
     0
102
RTVSPost2010Prop49
280
     0
102
RTVSPost2010PropOp49
 70
     0
102
RTVSPost2010Prop50
 90
       50
102
RTVSPost2010PropOp50
 70
     0
102
RTVSPost2010Prop51ColorIndex
 90
      256
102
RTVSPost2010Prop51ColorRGB
 90
-16777216
102
RTVSPost2010PropOp51
 70
     0
102
RTVSPost2010Prop52
140
1.0
102
RTVSPost2010PropOp52
 70
     0
102
RTVSPost2010Prop53
 90
        2
102
RTVSPost2010PropOp53
 70
     0
102
RTVSPost2010Prop54
  1
strokes_ogs.tif
102
RTVSPost2010PropOp54
 70
     0
102
RTVSPost2010Prop55
280
     0
102
RTVSPost2010PropOp55
 70
     0
102
RTVSPost2010Prop56
140
1.0
102
RTVSPost2010PropOp56
 70
     0
102
RTVSPost2010Prop57
140
1.0
102
RTVSPost2010PropOp57
 70
     0
  0
XRECORD
  5
1C5
102
{ACAD_REACTORS
330
1C4
102
}
330
1C4
100
AcDbXrecord
280
     1
102
RTVSPropertyOp0
 70
     1
102
RTVSPropertyOp1
 70
     1
102
RTVSPropertyOp2
 70
     1
102
RTVSPropertyOp3
 70
     1
102
RTVSPropertyOp4
 70
     1
102
RTVSPropertyOp5
 70
     1
102
RTVSPropertyOp6
 70
     1
102
RTVSPropertyOp7
 70
     1
102
RTVSPropertyOp8
 70
     1
102
RTVSPropertyOp9
 70
     1
102
RTVSPropertyOp10
 70
     1
102
RTVSPropertyOp11
 70
     1
102
RTVSPropertyOp12
 70
     1
102
RTVSPropertyOp13
 70
     1
102
RTVSPropertyOp14
 70
     1
102
RTVSPropertyOp15
 70
     1
102
RTVSPropertyOp16
 70
     1
102
RTVSPropertyOp17
 70
     1
102
RTVSPropertyOp18
 70
     1
102
RTVSPropertyOp19
 70
     1
102
RTVSPropertyOp20
 70
     1
102
RTVSPropertyOp21
 70
     1
102
RTVSPropertyOp22
 70
     1
102
RTVSPropertyOp23
 70
     1
102
RTVSPropertyOp24
 70
     1
102
RTVSPropertyOp25
 70
     1
102
RTVSPropertyOp26
 70
     1
102
RTVSPropertyOp27
 70
     1
102
RTVSPropertyOp28
 70
     1
102
RTVSPropertyOp29
 70
     1
102
RTVSPropertyOp30
 70
     1
102
RTVSPropertyOp31
 70
     1
102
RTVSPropertyOp32
 70
     1
102
RTVSPropertyOp33
 70
     1
102
RTVSPropertyOp34
 70
     1
102
RTVSPropertyOp35
 70
     1
102
RTVSPropertyOp36
 70
     1
102
RTVSPropertyOp37
 70
     1
102
RTVSPropertyOp38
 70
     1
102
RTVSPropertyOp39
 70
     1
102
RTVSPropertyOp40
 70
     1
102
RTVSPropertyOp41
 70
     1
102
RTVSPropertyOp42
 70
     1
102
RTVSPropertyOp43
 70
     1
102
RTVSPropertyOp44
 70
     1
102
RTVSPropertyOp45
 70
     1
102
RTVSPropertyOp46
 70
     1
102
RTVSPropertyOp47
 70
     1
102
RTVSPropertyOp48
 70
     1
102
RTVSPropertyOp49
 70
     1
102
RTVSPropertyOp50
 70
     1
102
RTVSPropertyOp51
 70
     0
102
RTVSPropertyOp52
 70
     0
102
RTVSPropertyOp53
 70
     1
102
RTVSPropertyOp54
 70
     1
102
RTVSPropertyOp55
 70
     1
102
RTVSPropertyOp56
 70
     1
102
RTVSPropertyOp57
 70
     1
102
RTVSPost2010Prop28
280
     0
102
RTVSPost2010PropOp28
 70
     1
102
RTVSPost2010Prop29
280
     1
102
RTVSPost2010PropOp29
 70
     1
102
RTVSPost2010Prop30
280
     1
102
RTVSPost2010PropOp30
 70
     1
102
RTVSPost2010Prop31
280
     0
102
RTVSPost2010PropOp31
 70
     1
102
RTVSPost2010Prop32
280
     0
102
RTVSPost2010PropOp32
 70
     1
102
RTVSPost2010Prop33
280
     0
102
RTVSPost2010PropOp33
 70
     1
102
RTVSPost2010Prop34
280
     0
102
RTVSPost2010PropOp34
 70
     1
102
RTVSPost2010Prop35
280
     0
102
RTVSPost2010PropOp35
 70
     1
102
RTVSPost2010Prop36
280
     0
102
RTVSPost2010PropOp36
 70
     1
102
RTVSPost2010Prop37
 90
       50
102
RTVSPost2010PropOp37
 70
     1
102
RTVSPost2010Prop38
140
0.0
102
RTVSPost2010PropOp38
 70
     1
102
RTVSPost2010Prop39
140
1.0
102
RTVSPost2010PropOp39
 70
     1
102
RTVSPost2010Prop40
 90
        0
102
RTVSPost2010PropOp40
 70
     1
102
RTVSPost2010Prop41ColorIndex
 90
       18
102
RTVSPost2010Prop41ColorRGB
 90
        0
102
RTVSPost2010PropOp41
 70
     1
102
RTVSPost2010Prop42
 90
       50
102
RTVSPost2010PropOp42
 70
     1
102
RTVSPost2010Prop43
 90
        3
102
RTVSPost2010PropOp43
 70
     1
102
RTVSPost2010Prop44ColorIndex
 90
        5
102
RTVSPost2010Prop44ColorRGB
 90
      255
102
RTVSPost2010PropOp44
 70
     1
102
RTVSPost2010Prop45
280
     0
102
RTVSPost2010PropOp45
 70
     1
102
RTVSPost2010Prop46
 90
       50
102
RTVSPost2010PropOp46
 70
     1
102
RTVSPost2010Prop47
 90
       50
102
RTVSPost2010PropOp47
 70
     1
102
RTVSPost2010Prop48
 90
       50
102
RTVSPost2010PropOp48
 70
     1
102
RTVSPost2010Prop49
280
     0
102
RTVSPost2010PropOp49
 70
     1
102
RTVSPost2010Prop50
 90
       50
102
RTVSPost2010PropOp50
 70
     1
102
RTVSPost2010Prop51ColorIndex
 90
      256
102
RTVSPost2010Prop51ColorRGB
 90
-16777216
102
RTVSPost2010PropOp51
 70
     0
102
RTVSPost2010Prop52
140
1.0
102
RTVSPost2010PropOp52
 70
     0
102
RTVSPost2010Prop53
 90
        2
102
RTVSPost2010PropOp53
 70
     1
102
RTVSPost2010Prop54
  1
strokes_ogs.tif
102
RTVSPost2010PropOp54
 70
     1
102
RTVSPost2010Prop55
280
     0
102
RTVSPost2010PropOp55
 70
     1
102
RTVSPost2010Prop56
140
1.0
102
RTVSPost2010PropOp56
 70
     1
102
RTVSPost2010Prop57
140
1.0
102
RTVSPost2010PropOp57
 70
     1
  0
XRECORD
  5
1E3
102
{ACAD_REACTORS
330
1E2
102
}
330
1E2
100
AcDbXrecord
280
     1
102
RTVSPropertyOp0
 70
     1
102
RTVSPropertyOp1
 70
     1
102
RTVSPropertyOp2
 70
     1
102
RTVSPropertyOp3
 70
     1
102
RTVSPropertyOp4
 70
     1
102
RTVSPropertyOp5
 70
     1
102
RTVSPropertyOp6
 70
     1
102
RTVSPropertyOp7
 70
     1
102
RTVSPropertyOp8
 70
     1
102
RTVSPropertyOp9
 70
     1
102
RTVSPropertyOp10
 70
     1
102
RTVSPropertyOp11
 70
     1
102
RTVSPropertyOp12
 70
     1
102
RTVSPropertyOp13
 70
     1
102
RTVSPropertyOp14
 70
     1
102
RTVSPropertyOp15
 70
     1
102
RTVSPropertyOp16
 70
     1
102
RTVSPropertyOp17
 70
     1
102
RTVSPropertyOp18
 70
     1
102
RTVSPropertyOp19
 70
     1
102
RTVSPropertyOp20
 70
     1
102
RTVSPropertyOp21
 70
     1
102
RTVSPropertyOp22
 70
     1
102
RTVSPropertyOp23
 70
     1
102
RTVSPropertyOp24
 70
     1
102
RTVSPropertyOp25
 70
     1
102
RTVSPropertyOp26
 70
     1
102
RTVSPropertyOp27
 70
     1
102
RTVSPropertyOp28
 70
     1
102
RTVSPropertyOp29
 70
     1
102
RTVSPropertyOp30
 70
     1
102
RTVSPropertyOp31
 70
     1
102
RTVSPropertyOp32
 70
     1
102
RTVSPropertyOp33
 70
     1
102
RTVSPropertyOp34
 70
     1
102
RTVSPropertyOp35
 70
     1
102
RTVSPropertyOp36
 70
     1
102
RTVSPropertyOp37
 70
     1
102
RTVSPropertyOp38
 70
     1
102
RTVSPropertyOp39
 70
     1
102
RTVSPropertyOp40
 70
     1
102
RTVSPropertyOp41
 70
     1
102
RTVSPropertyOp42
 70
     1
102
RTVSPropertyOp43
 70
     1
102
RTVSPropertyOp44
 70
     1
102
RTVSPropertyOp45
 70
     1
102
RTVSPropertyOp46
 70
     1
102
RTVSPropertyOp47
 70
     1
102
RTVSPropertyOp48
 70
     1
102
RTVSPropertyOp49
 70
     1
102
RTVSPropertyOp50
 70
     1
102
RTVSPropertyOp51
 70
     0
102
RTVSPropertyOp52
 70
     0
102
RTVSPropertyOp53
 70
     1
102
RTVSPropertyOp54
 70
     1
102
RTVSPropertyOp55
 70
     1
102
RTVSPropertyOp56
 70
     1
102
RTVSPropertyOp57
 70
     1
102
RTVSPost2010Prop28
280
     0
102
RTVSPost2010PropOp28
 70
     1
102
RTVSPost2010Prop29
280
     1
102
RTVSPost2010PropOp29
 70
     1
102
RTVSPost2010Prop30
280
     1
102
RTVSPost2010PropOp30
 70
     1
102
RTVSPost2010Prop31
280
     0
102
RTVSPost2010PropOp31
 70
     1
102
RTVSPost2010Prop32
280
     0
102
RTVSPost2010PropOp32
 70
     1
102
RTVSPost2010Prop33
280
     0
102
RTVSPost2010PropOp33
 70
     1
102
RTVSPost2010Prop34
280
     0
102
RTVSPost2010PropOp34
 70
     1
102
RTVSPost2010Prop35
280
     0
102
RTVSPost2010PropOp35
 70
     1
102
RTVSPost2010Prop36
280
     0
102
RTVSPost2010PropOp36
 70
     1
102
RTVSPost2010Prop37
 90
       50
102
RTVSPost2010PropOp37
 70
     1
102
RTVSPost2010Prop38
140
0.0
102
RTVSPost2010PropOp38
 70
     1
102
RTVSPost2010Prop39
140
1.0
102
RTVSPost2010PropOp39
 70
     1
102
RTVSPost2010Prop40
 90
        0
102
RTVSPost2010PropOp40
 70
     1
102
RTVSPost2010Prop41ColorIndex
 90
       18
102
RTVSPost2010Prop41ColorRGB
 90
        0
102
RTVSPost2010PropOp41
 70
     1
102
RTVSPost2010Prop42
 90
       50
102
RTVSPost2010PropOp42
 70
     1
102
RTVSPost2010Prop43
 90
        3
102
RTVSPost2010PropOp43
 70
     1
102
RTVSPost2010Prop44ColorIndex
 90
        5
102
RTVSPost2010Prop44ColorRGB
 90
      255
102
RTVSPost2010PropOp44
 70
     1
102
RTVSPost2010Prop45
280
     0
102
RTVSPost2010PropOp45
 70
     1
102
RTVSPost2010Prop46
 90
       50
102
RTVSPost2010PropOp46
 70
     1
102
RTVSPost2010Prop47
 90
       50
102
RTVSPost2010PropOp47
 70
     1
102
RTVSPost2010Prop48
 90
       50
102
RTVSPost2010PropOp48
 70
     1
102
RTVSPost2010Prop49
280
     0
102
RTVSPost2010PropOp49
 70
     1
102
RTVSPost2010Prop50
 90
       50
102
RTVSPost2010PropOp50
 70
     1
102
RTVSPost2010Prop51ColorIndex
 90
      256
102
RTVSPost2010Prop51ColorRGB
 90
-16777216
102
RTVSPost2010PropOp51
 70
     0
102
RTVSPost2010Prop52
140
1.0
102
RTVSPost2010PropOp52
 70
     0
102
RTVSPost2010Prop53
 90
        2
102
RTVSPost2010PropOp53
 70
     1
102
RTVSPost2010Prop54
  1
strokes_ogs.tif
102
RTVSPost2010PropOp54
 70
     1
102
RTVSPost2010Prop55
280
     0
102
RTVSPost2010PropOp55
 70
     1
102
RTVSPost2010Prop56
140
1.0
102
RTVSPost2010PropOp56
 70
     1
102
RTVSPost2010Prop57
140
1.0
102
RTVSPost2010PropOp57
 70
     1
  0
XRECORD
  5
1E1
102
{ACAD_REACTORS
330
1E0
102
}
330
1E0
100
AcDbXrecord
280
     1
102
RTVSPropertyOp0
 70
     1
102
RTVSPropertyOp1
 70
     1
102
RTVSPropertyOp2
 70
     1
102
RTVSPropertyOp3
 70
     1
102
RTVSPropertyOp4
 70
     1
102
RTVSPropertyOp5
 70
     1
102
RTVSPropertyOp6
 70
     1
102
RTVSPropertyOp7
 70
     1
102
RTVSPropertyOp8
 70
     1
102
RTVSPropertyOp9
 70
     1
102
RTVSPropertyOp10
 70
     1
102
RTVSPropertyOp11
 70
     1
102
RTVSPropertyOp12
 70
     1
102
RTVSPropertyOp13
 70
     1
102
RTVSPropertyOp14
 70
     1
102
RTVSPropertyOp15
 70
     1
102
RTVSPropertyOp16
 70
     1
102
RTVSPropertyOp17
 70
     1
102
RTVSPropertyOp18
 70
     1
102
RTVSPropertyOp19
 70
     1
102
RTVSPropertyOp20
 70
     1
102
RTVSPropertyOp21
 70
     1
102
RTVSPropertyOp22
 70
     1
102
RTVSPropertyOp23
 70
     1
102
RTVSPropertyOp24
 70
     1
102
RTVSPropertyOp25
 70
     1
102
RTVSPropertyOp26
 70
     1
102
RTVSPropertyOp27
 70
     1
102
RTVSPropertyOp28
 70
     1
102
RTVSPropertyOp29
 70
     1
102
RTVSPropertyOp30
 70
     1
102
RTVSPropertyOp31
 70
     1
102
RTVSPropertyOp32
 70
     1
102
RTVSPropertyOp33
 70
     1
102
RTVSPropertyOp34
 70
     1
102
RTVSPropertyOp35
 70
     1
102
RTVSPropertyOp36
 70
     1
102
RTVSPropertyOp37
 70
     1
102
RTVSPropertyOp38
 70
     1
102
RTVSPropertyOp39
 70
     1
102
RTVSPropertyOp40
 70
     1
102
RTVSPropertyOp41
 70
     1
102
RTVSPropertyOp42
 70
     1
102
RTVSPropertyOp43
 70
     1
102
RTVSPropertyOp44
 70
     1
102
RTVSPropertyOp45
 70
     1
102
RTVSPropertyOp46
 70
     1
102
RTVSPropertyOp47
 70
     1
102
RTVSPropertyOp48
 70
     1
102
RTVSPropertyOp49
 70
     1
102
RTVSPropertyOp50
 70
     1
102
RTVSPropertyOp51
 70
     0
102
RTVSPropertyOp52
 70
     0
102
RTVSPropertyOp53
 70
     1
102
RTVSPropertyOp54
 70
     1
102
RTVSPropertyOp55
 70
     1
102
RTVSPropertyOp56
 70
     1
102
RTVSPropertyOp57
 70
     1
102
RTVSPost2010Prop28
280
     0
102
RTVSPost2010PropOp28
 70
     1
102
RTVSPost2010Prop29
280
     1
102
RTVSPost2010PropOp29
 70
     1
102
RTVSPost2010Prop30
280
     1
102
RTVSPost2010PropOp30
 70
     1
102
RTVSPost2010Prop31
280
     0
102
RTVSPost2010PropOp31
 70
     1
102
RTVSPost2010Prop32
280
     0
102
RTVSPost2010PropOp32
 70
     1
102
RTVSPost2010Prop33
280
     0
102
RTVSPost2010PropOp33
 70
     1
102
RTVSPost2010Prop34
280
     0
102
RTVSPost2010PropOp34
 70
     1
102
RTVSPost2010Prop35
280
     0
102
RTVSPost2010PropOp35
 70
     1
102
RTVSPost2010Prop36
280
     0
102
RTVSPost2010PropOp36
 70
     1
102
RTVSPost2010Prop37
 90
       50
102
RTVSPost2010PropOp37
 70
     1
102
RTVSPost2010Prop38
140
0.0
102
RTVSPost2010PropOp38
 70
     1
102
RTVSPost2010Prop39
140
1.0
102
RTVSPost2010PropOp39
 70
     1
102
RTVSPost2010Prop40
 90
        0
102
RTVSPost2010PropOp40
 70
     1
102
RTVSPost2010Prop41ColorIndex
 90
       18
102
RTVSPost2010Prop41ColorRGB
 90
        0
102
RTVSPost2010PropOp41
 70
     1
102
RTVSPost2010Prop42
 90
       50
102
RTVSPost2010PropOp42
 70
     1
102
RTVSPost2010Prop43
 90
        3
102
RTVSPost2010PropOp43
 70
     1
102
RTVSPost2010Prop44ColorIndex
 90
        5
102
RTVSPost2010Prop44ColorRGB
 90
      255
102
RTVSPost2010PropOp44
 70
     1
102
RTVSPost2010Prop45
280
     0
102
RTVSPost2010PropOp45
 70
     1
102
RTVSPost2010Prop46
 90
       50
102
RTVSPost2010PropOp46
 70
     1
102
RTVSPost2010Prop47
 90
       50
102
RTVSPost2010PropOp47
 70
     1
102
RTVSPost2010Prop48
 90
       50
102
RTVSPost2010PropOp48
 70
     1
102
RTVSPost2010Prop49
280
     0
102
RTVSPost2010PropOp49
 70
     1
102
RTVSPost2010Prop50
 90
       50
102
RTVSPost2010PropOp50
 70
     1
102
RTVSPost2010Prop51ColorIndex
 90
      256
102
RTVSPost2010Prop51ColorRGB
 90
-16777216
102
RTVSPost2010PropOp51
 70
     0
102
RTVSPost2010Prop52
140
1.0
102
RTVSPost2010PropOp52
 70
     0
102
RTVSPost2010Prop53
 90
        2
102
RTVSPost2010PropOp53
 70
     1
102
RTVSPost2010Prop54
  1
strokes_ogs.tif
102
RTVSPost2010PropOp54
 70
     1
102
RTVSPost2010Prop55
280
     0
102
RTVSPost2010PropOp55
 70
     1
102
RTVSPost2010Prop56
140
1.0
102
RTVSPost2010PropOp56
 70
     1
102
RTVSPost2010Prop57
140
1.0
102
RTVSPost2010PropOp57
 70
     1
  0
XRECORD
  5
1DB
102
{ACAD_REACTORS
330
1DA
102
}
330
1DA
100
AcDbXrecord
280
     1
102
RTVSPropertyOp0
 70
     1
102
RTVSPropertyOp1
 70
     1
102
RTVSPropertyOp2
 70
     1
102
RTVSPropertyOp3
 70
     1
102
RTVSPropertyOp4
 70
     1
102
RTVSPropertyOp5
 70
     1
102
RTVSPropertyOp6
 70
     1
102
RTVSPropertyOp7
 70
     1
102
RTVSPropertyOp8
 70
     1
102
RTVSPropertyOp9
 70
     1
102
RTVSPropertyOp10
 70
     1
102
RTVSPropertyOp11
 70
     1
102
RTVSPropertyOp12
 70
     1
102
RTVSPropertyOp13
 70
     1
102
RTVSPropertyOp14
 70
     1
102
RTVSPropertyOp15
 70
     1
102
RTVSPropertyOp16
 70
     1
102
RTVSPropertyOp17
 70
     1
102
RTVSPropertyOp18
 70
     1
102
RTVSPropertyOp19
 70
     1
102
RTVSPropertyOp20
 70
     1
102
RTVSPropertyOp21
 70
     1
102
RTVSPropertyOp22
 70
     1
102
RTVSPropertyOp23
 70
     1
102
RTVSPropertyOp24
 70
     1
102
RTVSPropertyOp25
 70
     1
102
RTVSPropertyOp26
 70
     1
102
RTVSPropertyOp27
 70
     1
102
RTVSPropertyOp28
 70
     1
102
RTVSPropertyOp29
 70
     1
102
RTVSPropertyOp30
 70
     1
102
RTVSPropertyOp31
 70
     1
102
RTVSPropertyOp32
 70
     1
102
RTVSPropertyOp33
 70
     1
102
RTVSPropertyOp34
 70
     1
102
RTVSPropertyOp35
 70
     1
102
RTVSPropertyOp36
 70
     1
102
RTVSPropertyOp37
 70
     1
102
RTVSPropertyOp38
 70
     1
102
RTVSPropertyOp39
 70
     1
102
RTVSPropertyOp40
 70
     1
102
RTVSPropertyOp41
 70
     1
102
RTVSPropertyOp42
 70
     1
102
RTVSPropertyOp43
 70
     1
102
RTVSPropertyOp44
 70
     1
102
RTVSPropertyOp45
 70
     1
102
RTVSPropertyOp46
 70
     1
102
RTVSPropertyOp47
 70
     1
102
RTVSPropertyOp48
 70
     1
102
RTVSPropertyOp49
 70
     1
102
RTVSPropertyOp50
 70
     1
102
RTVSPropertyOp51
 70
     0
102
RTVSPropertyOp52
 70
     0
102
RTVSPropertyOp53
 70
     1
102
RTVSPropertyOp54
 70
     1
102
RTVSPropertyOp55
 70
     1
102
RTVSPropertyOp56
 70
     1
102
RTVSPropertyOp57
 70
     1
102
RTVSPost2010Prop28
280
     0
102
RTVSPost2010PropOp28
 70
     1
102
RTVSPost2010Prop29
280
     1
102
RTVSPost2010PropOp29
 70
     1
102
RTVSPost2010Prop30
280
     1
102
RTVSPost2010PropOp30
 70
     1
102
RTVSPost2010Prop31
280
     0
102
RTVSPost2010PropOp31
 70
     1
102
RTVSPost2010Prop32
280
     0
102
RTVSPost2010PropOp32
 70
     1
102
RTVSPost2010Prop33
280
     0
102
RTVSPost2010PropOp33
 70
     1
102
RTVSPost2010Prop34
280
     0
102
RTVSPost2010PropOp34
 70
     1
102
RTVSPost2010Prop35
280
     0
102
RTVSPost2010PropOp35
 70
     1
102
RTVSPost2010Prop36
280
     0
102
RTVSPost2010PropOp36
 70
     1
102
RTVSPost2010Prop37
 90
       50
102
RTVSPost2010PropOp37
 70
     1
102
RTVSPost2010Prop38
140
0.0
102
RTVSPost2010PropOp38
 70
     1
102
RTVSPost2010Prop39
140
1.0
102
RTVSPost2010PropOp39
 70
     1
102
RTVSPost2010Prop40
 90
        0
102
RTVSPost2010PropOp40
 70
     1
102
RTVSPost2010Prop41ColorIndex
 90
       18
102
RTVSPost2010Prop41ColorRGB
 90
        0
102
RTVSPost2010PropOp41
 70
     1
102
RTVSPost2010Prop42
 90
       50
102
RTVSPost2010PropOp42
 70
     1
102
RTVSPost2010Prop43
 90
        3
102
RTVSPost2010PropOp43
 70
     1
102
RTVSPost2010Prop44ColorIndex
 90
        5
102
RTVSPost2010Prop44ColorRGB
 90
      255
102
RTVSPost2010PropOp44
 70
     1
102
RTVSPost2010Prop45
280
     0
102
RTVSPost2010PropOp45
 70
     1
102
RTVSPost2010Prop46
 90
       50
102
RTVSPost2010PropOp46
 70
     1
102
RTVSPost2010Prop47
 90
       50
102
RTVSPost2010PropOp47
 70
     1
102
RTVSPost2010Prop48
 90
       50
102
RTVSPost2010PropOp48
 70
     1
102
RTVSPost2010Prop49
280
     0
102
RTVSPost2010PropOp49
 70
     1
102
RTVSPost2010Prop50
 90
       50
102
RTVSPost2010PropOp50
 70
     1
102
RTVSPost2010Prop51ColorIndex
 90
      256
102
RTVSPost2010Prop51ColorRGB
 90
-16777216
102
RTVSPost2010PropOp51
 70
     0
102
RTVSPost2010Prop52
140
1.0
102
RTVSPost2010PropOp52
 70
     0
102
RTVSPost2010Prop53
 90
        2
102
RTVSPost2010PropOp53
 70
     1
102
RTVSPost2010Prop54
  1
strokes_ogs.tif
102
RTVSPost2010PropOp54
 70
     1
102
RTVSPost2010Prop55
280
     0
102
RTVSPost2010PropOp55
 70
     1
102
RTVSPost2010Prop56
140
1.0
102
RTVSPost2010PropOp56
 70
     1
102
RTVSPost2010Prop57
140
1.0
102
RTVSPost2010PropOp57
 70
     1
  0
XRECORD
  5
1DD
102
{ACAD_REACTORS
330
1DC
102
}
330
1DC
100
AcDbXrecord
280
     1
102
RTVSPropertyOp0
 70
     1
102
RTVSPropertyOp1
 70
     1
102
RTVSPropertyOp2
 70
     1
102
RTVSPropertyOp3
 70
     1
102
RTVSPropertyOp4
 70
     1
102
RTVSPropertyOp5
 70
     1
102
RTVSPropertyOp6
 70
     1
102
RTVSPropertyOp7
 70
     1
102
RTVSPropertyOp8
 70
     1
102
RTVSPropertyOp9
 70
     1
102
RTVSPropertyOp10
 70
     1
102
RTVSPropertyOp11
 70
     1
102
RTVSPropertyOp12
 70
     1
102
RTVSPropertyOp13
 70
     1
102
RTVSPropertyOp14
 70
     1
102
RTVSPropertyOp15
 70
     1
102
RTVSPropertyOp16
 70
     1
102
RTVSPropertyOp17
 70
     1
102
RTVSPropertyOp18
 70
     1
102
RTVSPropertyOp19
 70
     1
102
RTVSPropertyOp20
 70
     1
102
RTVSPropertyOp21
 70
     1
102
RTVSPropertyOp22
 70
     1
102
RTVSPropertyOp23
 70
     1
102
RTVSPropertyOp24
 70
     1
102
RTVSPropertyOp25
 70
     1
102
RTVSPropertyOp26
 70
     1
102
RTVSPropertyOp27
 70
     1
102
RTVSPropertyOp28
 70
     1
102
RTVSPropertyOp29
 70
     1
102
RTVSPropertyOp30
 70
     1
102
RTVSPropertyOp31
 70
     1
102
RTVSPropertyOp32
 70
     1
102
RTVSPropertyOp33
 70
     1
102
RTVSPropertyOp34
 70
     1
102
RTVSPropertyOp35
 70
     1
102
RTVSPropertyOp36
 70
     1
102
RTVSPropertyOp37
 70
     1
102
RTVSPropertyOp38
 70
     1
102
RTVSPropertyOp39
 70
     1
102
RTVSPropertyOp40
 70
     1
102
RTVSPropertyOp41
 70
     1
102
RTVSPropertyOp42
 70
     1
102
RTVSPropertyOp43
 70
     1
102
RTVSPropertyOp44
 70
     1
102
RTVSPropertyOp45
 70
     1
102
RTVSPropertyOp46
 70
     1
102
RTVSPropertyOp47
 70
     1
102
RTVSPropertyOp48
 70
     1
102
RTVSPropertyOp49
 70
     1
102
RTVSPropertyOp50
 70
     1
102
RTVSPropertyOp51
 70
     0
102
RTVSPropertyOp52
 70
     0
102
RTVSPropertyOp53
 70
     1
102
RTVSPropertyOp54
 70
     1
102
RTVSPropertyOp55
 70
     1
102
RTVSPropertyOp56
 70
     1
102
RTVSPropertyOp57
 70
     1
102
RTVSPost2010Prop28
280
     0
102
RTVSPost2010PropOp28
 70
     1
102
RTVSPost2010Prop29
280
     1
102
RTVSPost2010PropOp29
 70
     1
102
RTVSPost2010Prop30
280
     1
102
RTVSPost2010PropOp30
 70
     1
102
RTVSPost2010Prop31
280
     0
102
RTVSPost2010PropOp31
 70
     1
102
RTVSPost2010Prop32
280
     0
102
RTVSPost2010PropOp32
 70
     1
102
RTVSPost2010Prop33
280
     0
102
RTVSPost2010PropOp33
 70
     1
102
RTVSPost2010Prop34
280
     0
102
RTVSPost2010PropOp34
 70
     1
102
RTVSPost2010Prop35
280
     0
102
RTVSPost2010PropOp35
 70
     1
102
RTVSPost2010Prop36
280
     0
102
RTVSPost2010PropOp36
 70
     1
102
RTVSPost2010Prop37
 90
       50
102
RTVSPost2010PropOp37
 70
     1
102
RTVSPost2010Prop38
140
0.0
102
RTVSPost2010PropOp38
 70
     1
102
RTVSPost2010Prop39
140
1.0
102
RTVSPost2010PropOp39
 70
     1
102
RTVSPost2010Prop40
 90
        0
102
RTVSPost2010PropOp40
 70
     1
102
RTVSPost2010Prop41ColorIndex
 90
       18
102
RTVSPost2010Prop41ColorRGB
 90
        0
102
RTVSPost2010PropOp41
 70
     1
102
RTVSPost2010Prop42
 90
       50
102
RTVSPost2010PropOp42
 70
     1
102
RTVSPost2010Prop43
 90
        3
102
RTVSPost2010PropOp43
 70
     1
102
RTVSPost2010Prop44ColorIndex
 90
        5
102
RTVSPost2010Prop44ColorRGB
 90
      255
102
RTVSPost2010PropOp44
 70
     1
102
RTVSPost2010Prop45
280
     0
102
RTVSPost2010PropOp45
 70
     1
102
RTVSPost2010Prop46
 90
       50
102
RTVSPost2010PropOp46
 70
     1
102
RTVSPost2010Prop47
 90
       50
102
RTVSPost2010PropOp47
 70
     1
102
RTVSPost2010Prop48
 90
       50
102
RTVSPost2010PropOp48
 70
     1
102
RTVSPost2010Prop49
280
     0
102
RTVSPost2010PropOp49
 70
     1
102
RTVSPost2010Prop50
 90
       50
102
RTVSPost2010PropOp50
 70
     1
102
RTVSPost2010Prop51ColorIndex
 90
      256
102
RTVSPost2010Prop51ColorRGB
 90
-16777216
102
RTVSPost2010PropOp51
 70
     0
102
RTVSPost2010Prop52
140
1.0
102
RTVSPost2010PropOp52
 70
     0
102
RTVSPost2010Prop53
 90
        2
102
RTVSPost2010PropOp53
 70
     1
102
RTVSPost2010Prop54
  1
strokes_ogs.tif
102
RTVSPost2010PropOp54
 70
     1
102
RTVSPost2010Prop55
280
     0
102
RTVSPost2010PropOp55
 70
     1
102
RTVSPost2010Prop56
140
1.0
102
RTVSPost2010PropOp56
 70
     1
102
RTVSPost2010Prop57
140
1.0
102
RTVSPost2010PropOp57
 70
     1
  0
XRECORD
  5
1CD
102
{ACAD_REACTORS
330
1CC
102
}
330
1CC
100
AcDbXrecord
280
     1
102
RTVSPropertyOp0
 70
     1
102
RTVSPropertyOp1
 70
     1
102
RTVSPropertyOp2
 70
     1
102
RTVSPropertyOp3
 70
     1
102
RTVSPropertyOp4
 70
     1
102
RTVSPropertyOp5
 70
     1
102
RTVSPropertyOp6
 70
     1
102
RTVSPropertyOp7
 70
     1
102
RTVSPropertyOp8
 70
     1
102
RTVSPropertyOp9
 70
     1
102
RTVSPropertyOp10
 70
     1
102
RTVSPropertyOp11
 70
     1
102
RTVSPropertyOp12
 70
     1
102
RTVSPropertyOp13
 70
     1
102
RTVSPropertyOp14
 70
     1
102
RTVSPropertyOp15
 70
     1
102
RTVSPropertyOp16
 70
     1
102
RTVSPropertyOp17
 70
     1
102
RTVSPropertyOp18
 70
     1
102
RTVSPropertyOp19
 70
     1
102
RTVSPropertyOp20
 70
     1
102
RTVSPropertyOp21
 70
     1
102
RTVSPropertyOp22
 70
     1
102
RTVSPropertyOp23
 70
     1
102
RTVSPropertyOp24
 70
     1
102
RTVSPropertyOp25
 70
     1
102
RTVSPropertyOp26
 70
     1
102
RTVSPropertyOp27
 70
     1
102
RTVSPropertyOp28
 70
     1
102
RTVSPropertyOp29
 70
     1
102
RTVSPropertyOp30
 70
     1
102
RTVSPropertyOp31
 70
     1
102
RTVSPropertyOp32
 70
     1
102
RTVSPropertyOp33
 70
     1
102
RTVSPropertyOp34
 70
     1
102
RTVSPropertyOp35
 70
     1
102
RTVSPropertyOp36
 70
     1
102
RTVSPropertyOp37
 70
     1
102
RTVSPropertyOp38
 70
     1
102
RTVSPropertyOp39
 70
     1
102
RTVSPropertyOp40
 70
     1
102
RTVSPropertyOp41
 70
     1
102
RTVSPropertyOp42
 70
     1
102
RTVSPropertyOp43
 70
     1
102
RTVSPropertyOp44
 70
     1
102
RTVSPropertyOp45
 70
     1
102
RTVSPropertyOp46
 70
     1
102
RTVSPropertyOp47
 70
     1
102
RTVSPropertyOp48
 70
     1
102
RTVSPropertyOp49
 70
     1
102
RTVSPropertyOp50
 70
     1
102
RTVSPropertyOp51
 70
     0
102
RTVSPropertyOp52
 70
     0
102
RTVSPropertyOp53
 70
     1
102
RTVSPropertyOp54
 70
     1
102
RTVSPropertyOp55
 70
     1
102
RTVSPropertyOp56
 70
     1
102
RTVSPropertyOp57
 70
     1
102
RTVSPost2010Prop28
280
     0
102
RTVSPost2010PropOp28
 70
     1
102
RTVSPost2010Prop29
280
     1
102
RTVSPost2010PropOp29
 70
     1
102
RTVSPost2010Prop30
280
     1
102
RTVSPost2010PropOp30
 70
     1
102
RTVSPost2010Prop31
280
     0
102
RTVSPost2010PropOp31
 70
     1
102
RTVSPost2010Prop32
280
     0
102
RTVSPost2010PropOp32
 70
     1
102
RTVSPost2010Prop33
280
     0
102
RTVSPost2010PropOp33
 70
     1
102
RTVSPost2010Prop34
280
     0
102
RTVSPost2010PropOp34
 70
     1
102
RTVSPost2010Prop35
280
     0
102
RTVSPost2010PropOp35
 70
     1
102
RTVSPost2010Prop36
280
     0
102
RTVSPost2010PropOp36
 70
     1
102
RTVSPost2010Prop37
 90
       50
102
RTVSPost2010PropOp37
 70
     1
102
RTVSPost2010Prop38
140
0.0
102
RTVSPost2010PropOp38
 70
     1
102
RTVSPost2010Prop39
140
1.0
102
RTVSPost2010PropOp39
 70
     1
102
RTVSPost2010Prop40
 90
        0
102
RTVSPost2010PropOp40
 70
     1
102
RTVSPost2010Prop41ColorIndex
 90
       18
102
RTVSPost2010Prop41ColorRGB
 90
        0
102
RTVSPost2010PropOp41
 70
     1
102
RTVSPost2010Prop42
 90
       50
102
RTVSPost2010PropOp42
 70
     1
102
RTVSPost2010Prop43
 90
        3
102
RTVSPost2010PropOp43
 70
     1
102
RTVSPost2010Prop44ColorIndex
 90
        5
102
RTVSPost2010Prop44ColorRGB
 90
      255
102
RTVSPost2010PropOp44
 70
     1
102
RTVSPost2010Prop45
280
     0
102
RTVSPost2010PropOp45
 70
     1
102
RTVSPost2010Prop46
 90
       50
102
RTVSPost2010PropOp46
 70
     1
102
RTVSPost2010Prop47
 90
       50
102
RTVSPost2010PropOp47
 70
     1
102
RTVSPost2010Prop48
 90
       50
102
RTVSPost2010PropOp48
 70
     1
102
RTVSPost2010Prop49
280
     0
102
RTVSPost2010PropOp49
 70
     1
102
RTVSPost2010Prop50
 90
       50
102
RTVSPost2010PropOp50
 70
     1
102
RTVSPost2010Prop51ColorIndex
 90
      256
102
RTVSPost2010Prop51ColorRGB
 90
-16777216
102
RTVSPost2010PropOp51
 70
     0
102
RTVSPost2010Prop52
140
1.0
102
RTVSPost2010PropOp52
 70
     0
102
RTVSPost2010Prop53
 90
        2
102
RTVSPost2010PropOp53
 70
     1
102
RTVSPost2010Prop54
  1
strokes_ogs.tif
102
RTVSPost2010PropOp54
 70
     1
102
RTVSPost2010Prop55
280
     0
102
RTVSPost2010PropOp55
 70
     1
102
RTVSPost2010Prop56
140
1.0
102
RTVSPost2010PropOp56
 70
     1
102
RTVSPost2010Prop57
140
1.0
102
RTVSPost2010PropOp57
 70
     1
  0
XRECORD
  5
1BF
102
{ACAD_REACTORS
330
1BE
102
}
330
1BE
100
AcDbXrecord
280
     1
102
RTVSPropertyOp0
 70
     1
102
RTVSPropertyOp1
 70
     1
102
RTVSPropertyOp2
 70
     1
102
RTVSPropertyOp3
 70
     1
102
RTVSPropertyOp4
 70
     1
102
RTVSPropertyOp5
 70
     1
102
RTVSPropertyOp6
 70
     1
102
RTVSPropertyOp7
 70
     1
102
RTVSPropertyOp8
 70
     1
102
RTVSPropertyOp9
 70
     1
102
RTVSPropertyOp10
 70
     1
102
RTVSPropertyOp11
 70
     1
102
RTVSPropertyOp12
 70
     1
102
RTVSPropertyOp13
 70
     1
102
RTVSPropertyOp14
 70
     1
102
RTVSPropertyOp15
 70
     1
102
RTVSPropertyOp16
 70
     1
102
RTVSPropertyOp17
 70
     1
102
RTVSPropertyOp18
 70
     1
102
RTVSPropertyOp19
 70
     1
102
RTVSPropertyOp20
 70
     1
102
RTVSPropertyOp21
 70
     1
102
RTVSPropertyOp22
 70
     1
102
RTVSPropertyOp23
 70
     1
102
RTVSPropertyOp24
 70
     1
102
RTVSPropertyOp25
 70
     1
102
RTVSPropertyOp26
 70
     1
102
RTVSPropertyOp27
 70
     1
102
RTVSPropertyOp28
 70
     1
102
RTVSPropertyOp29
 70
     1
102
RTVSPropertyOp30
 70
     1
102
RTVSPropertyOp31
 70
     1
102
RTVSPropertyOp32
 70
     1
102
RTVSPropertyOp33
 70
     1
102
RTVSPropertyOp34
 70
     1
102
RTVSPropertyOp35
 70
     1
102
RTVSPropertyOp36
 70
     1
102
RTVSPropertyOp37
 70
     1
102
RTVSPropertyOp38
 70
     1
102
RTVSPropertyOp39
 70
     1
102
RTVSPropertyOp40
 70
     1
102
RTVSPropertyOp41
 70
     1
102
RTVSPropertyOp42
 70
     1
102
RTVSPropertyOp43
 70
     1
102
RTVSPropertyOp44
 70
     1
102
RTVSPropertyOp45
 70
     1
102
RTVSPropertyOp46
 70
     1
102
RTVSPropertyOp47
 70
     1
102
RTVSPropertyOp48
 70
     1
102
RTVSPropertyOp49
 70
     1
102
RTVSPropertyOp50
 70
     1
102
RTVSPropertyOp51
 70
     0
102
RTVSPropertyOp52
 70
     0
102
RTVSPropertyOp53
 70
     1
102
RTVSPropertyOp54
 70
     1
102
RTVSPropertyOp55
 70
     1
102
RTVSPropertyOp56
 70
     1
102
RTVSPropertyOp57
 70
     1
102
RTVSPost2010Prop28
280
     0
102
RTVSPost2010PropOp28
 70
     1
102
RTVSPost2010Prop29
280
     1
102
RTVSPost2010PropOp29
 70
     1
102
RTVSPost2010Prop30
280
     1
102
RTVSPost2010PropOp30
 70
     1
102
RTVSPost2010Prop31
280
     0
102
RTVSPost2010PropOp31
 70
     1
102
RTVSPost2010Prop32
280
     0
102
RTVSPost2010PropOp32
 70
     1
102
RTVSPost2010Prop33
280
     0
102
RTVSPost2010PropOp33
 70
     1
102
RTVSPost2010Prop34
280
     0
102
RTVSPost2010PropOp34
 70
     1
102
RTVSPost2010Prop35
280
     0
102
RTVSPost2010PropOp35
 70
     1
102
RTVSPost2010Prop36
280
     0
102
RTVSPost2010PropOp36
 70
     1
102
RTVSPost2010Prop37
 90
       50
102
RTVSPost2010PropOp37
 70
     1
102
RTVSPost2010Prop38
140
0.0
102
RTVSPost2010PropOp38
 70
     1
102
RTVSPost2010Prop39
140
1.0
102
RTVSPost2010PropOp39
 70
     1
102
RTVSPost2010Prop40
 90
        0
102
RTVSPost2010PropOp40
 70
     1
102
RTVSPost2010Prop41ColorIndex
 90
       18
102
RTVSPost2010Prop41ColorRGB
 90
        0
102
RTVSPost2010PropOp41
 70
     1
102
RTVSPost2010Prop42
 90
       50
102
RTVSPost2010PropOp42
 70
     1
102
RTVSPost2010Prop43
 90
        3
102
RTVSPost2010PropOp43
 70
     1
102
RTVSPost2010Prop44ColorIndex
 90
        5
102
RTVSPost2010Prop44ColorRGB
 90
      255
102
RTVSPost2010PropOp44
 70
     1
102
RTVSPost2010Prop45
280
     0
102
RTVSPost2010PropOp45
 70
     1
102
RTVSPost2010Prop46
 90
       50
102
RTVSPost2010PropOp46
 70
     1
102
RTVSPost2010Prop47
 90
       50
102
RTVSPost2010PropOp47
 70
     1
102
RTVSPost2010Prop48
 90
       50
102
RTVSPost2010PropOp48
 70
     1
102
RTVSPost2010Prop49
280
     0
102
RTVSPost2010PropOp49
 70
     1
102
RTVSPost2010Prop50
 90
       50
102
RTVSPost2010PropOp50
 70
     1
102
RTVSPost2010Prop51ColorIndex
 90
      256
102
RTVSPost2010Prop51ColorRGB
 90
-16777216
102
RTVSPost2010PropOp51
 70
     0
102
RTVSPost2010Prop52
140
1.0
102
RTVSPost2010PropOp52
 70
     0
102
RTVSPost2010Prop53
 90
        2
102
RTVSPost2010PropOp53
 70
     1
102
RTVSPost2010Prop54
  1
strokes_ogs.tif
102
RTVSPost2010PropOp54
 70
     1
102
RTVSPost2010Prop55
280
     0
102
RTVSPost2010PropOp55
 70
     1
102
RTVSPost2010Prop56
140
1.0
102
RTVSPost2010PropOp56
 70
     1
102
RTVSPost2010Prop57
140
1.0
102
RTVSPost2010PropOp57
 70
     1
  0
XRECORD
  5
1DF
102
{ACAD_REACTORS
330
1DE
102
}
330
1DE
100
AcDbXrecord
280
     1
102
RTVSPropertyOp0
 70
     1
102
RTVSPropertyOp1
 70
     1
102
RTVSPropertyOp2
 70
     1
102
RTVSPropertyOp3
 70
     1
102
RTVSPropertyOp4
 70
     1
102
RTVSPropertyOp5
 70
     1
102
RTVSPropertyOp6
 70
     1
102
RTVSPropertyOp7
 70
     1
102
RTVSPropertyOp8
 70
     1
102
RTVSPropertyOp9
 70
     1
102
RTVSPropertyOp10
 70
     1
102
RTVSPropertyOp11
 70
     1
102
RTVSPropertyOp12
 70
     1
102
RTVSPropertyOp13
 70
     1
102
RTVSPropertyOp14
 70
     1
102
RTVSPropertyOp15
 70
     1
102
RTVSPropertyOp16
 70
     1
102
RTVSPropertyOp17
 70
     1
102
RTVSPropertyOp18
 70
     1
102
RTVSPropertyOp19
 70
     1
102
RTVSPropertyOp20
 70
     1
102
RTVSPropertyOp21
 70
     1
102
RTVSPropertyOp22
 70
     1
102
RTVSPropertyOp23
 70
     1
102
RTVSPropertyOp24
 70
     1
102
RTVSPropertyOp25
 70
     1
102
RTVSPropertyOp26
 70
     1
102
RTVSPropertyOp27
 70
     1
102
RTVSPropertyOp28
 70
     1
102
RTVSPropertyOp29
 70
     1
102
RTVSPropertyOp30
 70
     1
102
RTVSPropertyOp31
 70
     1
102
RTVSPropertyOp32
 70
     1
102
RTVSPropertyOp33
 70
     1
102
RTVSPropertyOp34
 70
     1
102
RTVSPropertyOp35
 70
     1
102
RTVSPropertyOp36
 70
     1
102
RTVSPropertyOp37
 70
     1
102
RTVSPropertyOp38
 70
     1
102
RTVSPropertyOp39
 70
     1
102
RTVSPropertyOp40
 70
     1
102
RTVSPropertyOp41
 70
     1
102
RTVSPropertyOp42
 70
     1
102
RTVSPropertyOp43
 70
     1
102
RTVSPropertyOp44
 70
     1
102
RTVSPropertyOp45
 70
     1
102
RTVSPropertyOp46
 70
     1
102
RTVSPropertyOp47
 70
     1
102
RTVSPropertyOp48
 70
     1
102
RTVSPropertyOp49
 70
     1
102
RTVSPropertyOp50
 70
     1
102
RTVSPropertyOp51
 70
     0
102
RTVSPropertyOp52
 70
     0
102
RTVSPropertyOp53
 70
     1
102
RTVSPropertyOp54
 70
     1
102
RTVSPropertyOp55
 70
     1
102
RTVSPropertyOp56
 70
     1
102
RTVSPropertyOp57
 70
     1
102
RTVSPost2010Prop28
280
     0
102
RTVSPost2010PropOp28
 70
     1
102
RTVSPost2010Prop29
280
     1
102
RTVSPost2010PropOp29
 70
     1
102
RTVSPost2010Prop30
280
     1
102
RTVSPost2010PropOp30
 70
     1
102
RTVSPost2010Prop31
280
     0
102
RTVSPost2010PropOp31
 70
     1
102
RTVSPost2010Prop32
280
     0
102
RTVSPost2010PropOp32
 70
     1
102
RTVSPost2010Prop33
280
     0
102
RTVSPost2010PropOp33
 70
     1
102
RTVSPost2010Prop34
280
     0
102
RTVSPost2010PropOp34
 70
     1
102
RTVSPost2010Prop35
280
     0
102
RTVSPost2010PropOp35
 70
     1
102
RTVSPost2010Prop36
280
     0
102
RTVSPost2010PropOp36
 70
     1
102
RTVSPost2010Prop37
 90
       50
102
RTVSPost2010PropOp37
 70
     1
102
RTVSPost2010Prop38
140
0.0
102
RTVSPost2010PropOp38
 70
     1
102
RTVSPost2010Prop39
140
1.0
102
RTVSPost2010PropOp39
 70
     1
102
RTVSPost2010Prop40
 90
        0
102
RTVSPost2010PropOp40
 70
     1
102
RTVSPost2010Prop41ColorIndex
 90
       18
102
RTVSPost2010Prop41ColorRGB
 90
        0
102
RTVSPost2010PropOp41
 70
     1
102
RTVSPost2010Prop42
 90
       50
102
RTVSPost2010PropOp42
 70
     1
102
RTVSPost2010Prop43
 90
        3
102
RTVSPost2010PropOp43
 70
     1
102
RTVSPost2010Prop44ColorIndex
 90
        5
102
RTVSPost2010Prop44ColorRGB
 90
      255
102
RTVSPost2010PropOp44
 70
     1
102
RTVSPost2010Prop45
280
     0
102
RTVSPost2010PropOp45
 70
     1
102
RTVSPost2010Prop46
 90
       50
102
RTVSPost2010PropOp46
 70
     1
102
RTVSPost2010Prop47
 90
       50
102
RTVSPost2010PropOp47
 70
     1
102
RTVSPost2010Prop48
 90
       50
102
RTVSPost2010PropOp48
 70
     1
102
RTVSPost2010Prop49
280
     0
102
RTVSPost2010PropOp49
 70
     1
102
RTVSPost2010Prop50
 90
       50
102
RTVSPost2010PropOp50
 70
     1
102
RTVSPost2010Prop51ColorIndex
 90
      256
102
RTVSPost2010Prop51ColorRGB
 90
-16777216
102
RTVSPost2010PropOp51
 70
     0
102
RTVSPost2010Prop52
140
1.0
102
RTVSPost2010PropOp52
 70
     0
102
RTVSPost2010Prop53
 90
        2
102
RTVSPost2010PropOp53
 70
     1
102
RTVSPost2010Prop54
  1
strokes_ogs.tif
102
RTVSPost2010PropOp54
 70
     1
102
RTVSPost2010Prop55
280
     0
102
RTVSPost2010PropOp55
 70
     1
102
RTVSPost2010Prop56
140
1.0
102
RTVSPost2010PropOp56
 70
     1
102
RTVSPost2010Prop57
140
1.0
102
RTVSPost2010PropOp57
 70
     1
  0
ENDSEC
  0
EOF
