  0
SECTION
  2
HEADER
  9
$ACADVER
  1
AC1018
  9
$ACADMAINTVER
 70
     0
  9
$DWGCODEPAGE
  3
ANSI_1252
  9
$INSBASE
 10
0.0
 20
0.0
 30
0.0
  9
$EXTMIN
 10
-19.84999056439925
 20
0.0000000433810285
 30
0.0
  9
$EXTMAX
 10
60.58215588483574
 20
71.67241418286989
 30
0.0
  9
$LIMMIN
 10
0.0
 20
0.0
  9
$LIMMAX
 10
12.0
 20
9.0
  9
$ORTHOMODE
 70
     0
  9
$REGENMODE
 70
     1
  9
$FILLMODE
 70
     1
  9
$QTEXTMODE
 70
     0
  9
$MIRRTEXT
 70
     1
  9
$LTSCALE
 40
0.0393700787401575
  9
$ATTMODE
 70
     1
  9
$TEXTSIZE
 40
0.2
  9
$TRACEWID
 40
0.05
  9
$TEXTSTYLE
  7
Standard
  9
$CLAYER
  8
Default
  9
$CELTYPE
  6
ByLayer
  9
$CECOLOR
 62
   256
  9
$CELTSCALE
 40
1.0
  9
$DISPSILH
 70
     0
  9
$DIMSCALE
 40
1.0
  9
$DIMASZ
 40
0.18
  9
$DIMEXO
 40
0.0625
  9
$DIMDLI
 40
0.38
  9
$DIMRND
 40
0.0
  9
$DIMDLE
 40
0.0
  9
$DIMEXE
 40
0.18
  9
$DIMTP
 40
0.0
  9
$DIMTM
 40
0.0
  9
$DIMTXT
 40
0.18
  9
$DIMCEN
 40
0.09
  9
$DIMTSZ
 40
0.0
  9
$DIMTOL
 70
     0
  9
$DIMLIM
 70
     0
  9
$DIMTIH
 70
     1
  9
$DIMTOH
 70
     1
  9
$DIMSE1
 70
     0
  9
$DIMSE2
 70
     0
  9
$DIMTAD
 70
     0
  9
$DIMZIN
 70
     0
  9
$DIMBLK
  1

  9
$DIMASO
 70
     1
  9
$DIMSHO
 70
     1
  9
$DIMPOST
  1

  9
$DIMAPOST
  1

  9
$DIMALT
 70
     0
  9
$DIMALTD
 70
     2
  9
$DIMALTF
 40
25.4
  9
$DIMLFAC
 40
1.0
  9
$DIMTOFL
 70
     0
  9
$DIMTVP
 40
0.0
  9
$DIMTIX
 70
     0
  9
$DIMSOXD
 70
     0
  9
$DIMSAH
 70
     0
  9
$DIMBLK1
  1

  9
$DIMBLK2
  1

  9
$DIMSTYLE
  2
Standard
  9
$DIMCLRD
 70
     0
  9
$DIMCLRE
 70
     0
  9
$DIMCLRT
 70
     0
  9
$DIMTFAC
 40
1.0
  9
$DIMGAP
 40
0.09
  9
$DIMJUST
 70
     0
  9
$DIMSD1
 70
     0
  9
$DIMSD2
 70
     0
  9
$DIMTOLJ
 70
     1
  9
$DIMTZIN
 70
     0
  9
$DIMALTZ
 70
     0
  9
$DIMALTTZ
 70
     0
  9
$DIMUPT
 70
     0
  9
$DIMDEC
 70
     4
  9
$DIMTDEC
 70
     4
  9
$DIMALTU
 70
     2
  9
$DIMALTTD
 70
     2
  9
$DIMTXSTY
  7
Standard
  9
$DIMAUNIT
 70
     0
  9
$DIMADEC
 70
     0
  9
$DIMALTRND
 40
0.0
  9
$DIMAZIN
 70
     0
  9
$DIMDSEP
 70
    46
  9
$DIMATFIT
 70
     3
  9
$DIMFRAC
 70
     0
  9
$DIMLDRBLK
  1

  9
$DIMLUNIT
 70
     2
  9
$DIMLWD
 70
    -2
  9
$DIMLWE
 70
    -2
  9
$DIMTMOVE
 70
     2
  9
$LUNITS
 70
     2
  9
$LUPREC
 70
     3
  9
$SKETCHINC
 40
0.1
  9
$FILLETRAD
 40
0.5
  9
$AUNITS
 70
     0
  9
$AUPREC
 70
     0
  9
$MENU
  1
.
  9
$ELEVATION
 40
0.0
  9
$PELEVATION
 40
0.0
  9
$THICKNESS
 40
0.0
  9
$LIMCHECK
 70
     0
  9
$CHAMFERA
 40
0.5
  9
$CHAMFERB
 40
0.5
  9
$CHAMFERC
 40
1.0
  9
$CHAMFERD
 40
0.0
  9
$SKPOLY
 70
     0
  9
$TDCREATE
 40
2458108.510288275
  9
$TDUCREATE
 40
2458108.718621609
  9
$TDUPDATE
 40
2458108.510288287
  9
$TDUUPDATE
 40
2458108.71862162
  9
$TDINDWG
 40
0.0000000116
  9
$TDUSRTIMER
 40
0.0000000116
  9
$USRTIMER
 70
     1
  9
$ANGBASE
 50
0.0
  9
$ANGDIR
 70
     0
  9
$PDMODE
 70
     0
  9
$PDSIZE
 40
0.0
  9
$PLINEWID
 40
0.0
  9
$SPLFRAME
 70
     0
  9
$SPLINETYPE
 70
     6
  9
$SPLINESEGS
 70
     8
  9
$HANDSEED
  5
9E
  9
$SURFTAB1
 70
     6
  9
$SURFTAB2
 70
     6
  9
$SURFTYPE
 70
     6
  9
$SURFU
 70
     6
  9
$SURFV
 70
     6
  9
$UCSBASE
  2

  9
$UCSNAME
  2

  9
$UCSORG
 10
0.0
 20
0.0
 30
0.0
  9
$UCSXDIR
 10
1.0
 20
0.0
 30
0.0
  9
$UCSYDIR
 10
0.0
 20
1.0
 30
0.0
  9
$UCSORTHOREF
  2

  9
$UCSORTHOVIEW
 70
     0
  9
$UCSORGTOP
 10
0.0
 20
0.0
 30
0.0
  9
$UCSORGBOTTOM
 10
0.0
 20
0.0
 30
0.0
  9
$UCSORGLEFT
 10
0.0
 20
0.0
 30
0.0
  9
$UCSORGRIGHT
 10
0.0
 20
0.0
 30
0.0
  9
$UCSORGFRONT
 10
0.0
 20
0.0
 30
0.0
  9
$UCSORGBACK
 10
0.0
 20
0.0
 30
0.0
  9
$PUCSBASE
  2

  9
$PUCSNAME
  2

  9
$PUCSORG
 10
0.0
 20
0.0
 30
0.0
  9
$PUCSXDIR
 10
1.0
 20
0.0
 30
0.0
  9
$PUCSYDIR
 10
0.0
 20
1.0
 30
0.0
  9
$PUCSORTHOREF
  2

  9
$PUCSORTHOVIEW
 70
     0
  9
$PUCSORGTOP
 10
0.0
 20
0.0
 30
0.0
  9
$PUCSORGBOTTOM
 10
0.0
 20
0.0
 30
0.0
  9
$PUCSORGLEFT
 10
0.0
 20
0.0
 30
0.0
  9
$PUCSORGRIGHT
 10
0.0
 20
0.0
 30
0.0
  9
$PUCSORGFRONT
 10
0.0
 20
0.0
 30
0.0
  9
$PUCSORGBACK
 10
0.0
 20
0.0
 30
0.0
  9
$USERI1
 70
     0
  9
$USERI2
 70
     0
  9
$USERI3
 70
     0
  9
$USERI4
 70
     0
  9
$USERI5
 70
     0
  9
$USERR1
 40
0.0
  9
$USERR2
 40
0.0
  9
$USERR3
 40
0.0
  9
$USERR4
 40
0.0
  9
$USERR5
 40
0.0
  9
$WORLDVIEW
 70
     1
  9
$SHADEDGE
 70
     3
  9
$SHADEDIF
 70
    70
  9
$TILEMODE
 70
     1
  9
$MAXACTVP
 70
    64
  9
$PINSBASE
 10
0.0
 20
0.0
 30
0.0
  9
$PLIMCHECK
 70
     0
  9
$PEXTMIN
 10
1.000000000000000E+20
 20
1.000000000000000E+20
 30
1.000000000000000E+20
  9
$PEXTMAX
 10
-1.000000000000000E+20
 20
-1.000000000000000E+20
 30
-1.000000000000000E+20
  9
$PLIMMIN
 10
0.0
 20
0.0
  9
$PLIMMAX
 10
12.0
 20
9.0
  9
$UNITMODE
 70
     0
  9
$VISRETAIN
 70
     1
  9
$PLINEGEN
 70
     0
  9
$PSLTSCALE
 70
     1
  9
$TREEDEPTH
 70
  3020
  9
$CMLSTYLE
  2
Standard
  9
$CMLJUST
 70
     0
  9
$CMLSCALE
 40
1.0
  9
$PROXYGRAPHICS
 70
     1
  9
$MEASUREMENT
 70
     0
  9
$CELWEIGHT
370
    -1
  9
$ENDCAPS
280
     0
  9
$JOINSTYLE
280
     0
  9
$LWDISPLAY
290
     0
  9
$INSUNITS
 70
     1
  9
$HYPERLINKBASE
  1

  9
$STYLESHEET
  1

  9
$XEDIT
290
     1
  9
$CEPSNTYPE
380
     0
  9
$PSTYLEMODE
290
     1
  9
$FINGERPRINTGUID
  2
{3C65FFAE-4150-42A7-BA65-09D667CA4483}
  9
$VERSIONGUID
  2
{FAEB1C32-E019-11D5-929B-00C0DF256EC4}
  9
$EXTNAMES
290
     1
  9
$PSVPSCALE
 40
0.0
  9
$OLESTARTUP
290
     0
  9
$SORTENTS
280
   127
  9
$INDEXCTL
280
     0
  9
$HIDETEXT
280
     1
  9
$XCLIPFRAME
290
     0
  9
$HALOGAP
280
     0
  9
$OBSCOLOR
 70
   257
  9
$OBSLTYPE
280
     0
  9
$INTERSECTIONDISPLAY
280
     0
  9
$INTERSECTIONCOLOR
 70
   257
  9
$DIMASSOC
280
     2
  9
$PROJECTNAME
  1

  0
ENDSEC
  0
SECTION
  2
CLASSES
  0
CLASS
  1
ACDBDICTIONARYWDFLT
  2
AcDbDictionaryWithDefault
  3
ObjectDBX Classes
 90
        0
 91
        4
280
     0
281
     0
  0
CLASS
  1
VISUALSTYLE
  2
AcDbVisualStyle
  3
ObjectDBX Classes
 90
     4095
 91
        4
280
     0
281
     0
  0
ENDSEC
  0
SECTION
  2
TABLES
  0
TABLE
  2
VPORT
  5
8
330
0
100
AcDbSymbolTable
 70
     1
  0
VPORT
  5
29
330
8
100
AcDbSymbolTableRecord
100
AcDbViewportTableRecord
  2
*Active
 70
     0
 10
0.0
 20
0.0
 11
1.0
 21
1.0
 12
20.36608266021825
 22
35.83620711312545
 13
0.0
 23
0.0
 14
0.5
 24
0.5
 15
0.5
 25
0.5
 16
0.0
 26
0.0
 36
1.0
 17
0.0
 27
0.0
 37
0.0
 40
73.10586242227865
 41
1.122219021291761
 42
50.0
 43
0.0
 44
0.0
 50
0.0
 51
0.0
 71
     0
 72
   100
 73
     1
 74
     3
 75
     0
 76
     0
 77
     0
 78
     0
281
     0
 65
     1
110
0.0
120
0.0
130
0.0
111
1.0
121
0.0
131
0.0
112
0.0
122
1.0
132
0.0
 79
     0
146
0.0
  0
ENDTAB
  0
TABLE
  2
LTYPE
  5
5
330
0
100
AcDbSymbolTable
 70
     1
  0
LTYPE
  5
14
330
5
100
AcDbSymbolTableRecord
100
AcDbLinetypeTableRecord
  2
ByBlock
 70
     0
  3

 72
    65
 73
     0
 40
0.0
  0
LTYPE
  5
15
330
5
100
AcDbSymbolTableRecord
100
AcDbLinetypeTableRecord
  2
ByLayer
 70
     0
  3

 72
    65
 73
     0
 40
0.0
  0
LTYPE
  5
16
330
5
100
AcDbSymbolTableRecord
100
AcDbLinetypeTableRecord
  2
Continuous
 70
     0
  3
Solid line
 72
    65
 73
     0
 40
0.0
  0
ENDTAB
  0
TABLE
  2
LAYER
  5
2
330
0
100
AcDbSymbolTable
 70
     3
  0
LAYER
  5
10
330
2
100
AcDbSymbolTableRecord
100
AcDbLayerTableRecord
  2
0
 70
     0
 62
     7
  6
Continuous
370
    -3
390
F
  0
LAYER
  5
3B
330
2
100
AcDbSymbolTableRecord
100
AcDbLayerTableRecord
  2
Default
 70
     0
 62
     7
  6
Continuous
370
    -3
390
F
  0
LAYER
  5
3D
330
2
100
AcDbSymbolTableRecord
100
AcDbLayerTableRecord
  2
2d
 70
     0
 62
     7
  6
Continuous
370
    -3
390
F
  0
ENDTAB
  0
TABLE
  2
STYLE
  5
3
330
0
100
AcDbSymbolTable
 70
     1
  0
STYLE
  5
11
330
3
100
AcDbSymbolTableRecord
100
AcDbTextStyleTableRecord
  2
Standard
 70
     0
 40
0.0
 41
1.0
 50
0.0
 71
     0
 42
0.2
  3
txt
  4

  0
ENDTAB
  0
TABLE
  2
VIEW
  5
6
330
0
100
AcDbSymbolTable
 70
     0
  0
ENDTAB
  0
TABLE
  2
UCS
  5
7
330
0
100
AcDbSymbolTable
 70
     0
  0
ENDTAB
  0
TABLE
  2
APPID
  5
9
330
0
100
AcDbSymbolTable
 70
     1
  0
APPID
  5
12
330
9
100
AcDbSymbolTableRecord
100
AcDbRegAppTableRecord
  2
ACAD
 70
     0
  0
ENDTAB
  0
TABLE
  2
DIMSTYLE
  5
A
330
0
100
AcDbSymbolTable
 70
     1
100
AcDbDimStyleTable
  0
DIMSTYLE
105
27
330
A
100
AcDbSymbolTableRecord
100
AcDbDimStyleTableRecord
  2
Standard
 70
     0
340
11
  0
ENDTAB
  0
TABLE
  2
BLOCK_RECORD
  5
1
330
0
100
AcDbSymbolTable
 70
     1
  0
BLOCK_RECORD
  5
1F
330
1
100
AcDbSymbolTableRecord
100
AcDbBlockTableRecord
  2
*Model_Space
340
22
  0
BLOCK_RECORD
  5
1B
330
1
100
AcDbSymbolTableRecord
100
AcDbBlockTableRecord
  2
*Paper_Space
340
1E
  0
BLOCK_RECORD
  5
23
330
1
100
AcDbSymbolTableRecord
100
AcDbBlockTableRecord
  2
*Paper_Space0
340
26
  0
ENDTAB
  0
ENDSEC
  0
SECTION
  2
BLOCKS
  0
BLOCK
  5
20
330
1F
100
AcDbEntity
  8
0
100
AcDbBlockBegin
  2
*Model_Space
 70
     0
 10
0.0
 20
0.0
 30
0.0
  3
*Model_Space
  1

  0
ENDBLK
  5
21
330
1F
100
AcDbEntity
  8
0
100
AcDbBlockEnd
  0
BLOCK
  5
1C
330
1B
100
AcDbEntity
 67
     1
  8
0
100
AcDbBlockBegin
  2
*Paper_Space
 70
     0
 10
0.0
 20
0.0
 30
0.0
  3
*Paper_Space
  1

  0
ENDBLK
  5
1D
330
1B
100
AcDbEntity
 67
     1
  8
0
100
AcDbBlockEnd
  0
BLOCK
  5
24
330
23
100
AcDbEntity
  8
0
100
AcDbBlockBegin
  2
*Paper_Space0
 70
     0
 10
0.0
 20
0.0
 30
0.0
  3
*Paper_Space0
  1

  0
ENDBLK
  5
25
330
23
100
AcDbEntity
  8
0
100
AcDbBlockEnd
  0
ENDSEC
  0
SECTION
  2
ENTITIES
  0
SPLINE
  5
3C
330
1F
100
AcDbEntity
  8
Default
100
AcDbSpline
210
0.0
220
0.0
230
1.0
 70
     8
 71
     3
 72
    34
 73
    30
 74
     0
 42
0.0000000001
 43
0.0000000001
 40
0.0
 40
0.0
 40
0.0
 40
0.0
 40
1.0
 40
2.0
 40
3.0
 40
4.0
 40
5.0
 40
6.0
 40
7.0
 40
8.0
 40
9.0
 40
10.0
 40
11.0
 40
12.0
 40
13.0
 40
14.0
 40
15.0
 40
16.0
 40
17.0
 40
18.0
 40
19.0
 40
20.0
 40
21.0
 40
22.0
 40
23.0
 40
24.0
 40
25.0
 40
26.0
 40
27.0
 40
27.0
 40
27.0
 40
27.0
 10
-14.00679960426263
 20
47.34792669514312
 30
0.0
 10
-13.61012688584178
 20
47.69448301613634
 30
0.0
 10
-12.87333276360909
 20
48.45413667982648
 30
0.0
 10
-12.01013603548639
 20
49.78846484038839
 30
0.0
 10
-11.40875932090789
 20
51.25189370818634
 30
0.0
 10
-10.92836483444489
 20
52.76793669165284
 30
0.0
 10
-10.07190454829282
 20
54.10045200079123
 30
0.0
 10
-9.14990557534009
 20
55.38365320836038
 30
0.0
 10
-8.243638627785124
 20
56.67894970812593
 30
0.0
 10
-7.33140353299995
 20
57.96914472773712
 30
0.0
 10
-6.365848976467276
 20
59.22387033793815
 30
0.0
 10
-5.19671166607191
 20
60.29852218631815
 30
0.0
 10
-3.837298759377355
 20
61.11950124220177
 30
0.0
 10
-2.355090689344904
 20
61.68598643377463
 30
0.0
 10
-0.7934923250166552
 20
61.97058518790961
 30
0.0
 10
0.7934961578652852
 20
61.97058540878673
 30
0.0
 10
2.355096510723801
 20
61.68598622457846
 30
0.0
 10
3.837303305270274
 20
61.11950140345176
 30
0.0
 10
5.196716516187329
 20
60.2985223296193
 30
0.0
 10
6.365853718712539
 20
59.22387060269644
 30
0.0
 10
7.331408147884607
 20
57.96914528151152
 30
0.0
 10
8.243643246801577
 20
56.67895025665386
 30
0.0
 10
9.149910421154365
 20
55.38365343673378
 30
0.0
 10
10.07190927580868
 20
54.10045239776411
 30
0.0
 10
10.92836987432445
 20
52.76793664714051
 30
0.0
 10
11.40876385640918
 20
51.25189493599376
 30
0.0
 10
12.01014126113385
 20
49.78846432745605
 30
0.0
 10
12.87333764912439
 20
48.45413695510885
 30
0.0
 10
13.61013153628449
 20
47.69448333139933
 30
0.0
 10
14.00680461048027
 20
47.34792669514312
 30
0.0
  0
SPLINE
  5
3E
330
1F
100
AcDbEntity
  8
2d
100
AcDbSpline
210
0.0
220
0.0
230
1.0
 70
     8
 71
     3
 72
    13
 73
     9
 74
     0
 42
0.0000000001
 43
0.0000000001
 40
0.0
 40
0.0
 40
0.0
 40
0.0
 40
1.0
 40
2.0
 40
3.0
 40
4.0
 40
5.0
 40
6.0
 40
6.0
 40
6.0
 40
6.0
 10
-7.819691442231402
 20
0.2479949730310692
 30
0.0
 10
-7.839753068166402
 20
0.2064303134485725
 30
0.0
 10
-7.892192023069725
 20
0.1289506208012991
 30
0.0
 10
-7.99693468301227
 20
0.0383356224198072
 30
0.0
 10
-8.131265870747747
 20
-0.0191576861413362
 30
0.0
 10
-8.265414176826482
 20
0.0382953824317085
 30
0.0
 10
-8.370147760457186
 20
0.1290307780810349
 30
0.0
 10
-8.422671044994601
 20
0.2064112335142632
 30
0.0
 10
-8.442714956217927
 20
0.2479950068535273
 30
0.0
  0
SPLINE
  5
3F
330
1F
100
AcDbEntity
  8
2d
100
AcDbSpline
210
0.0
220
0.0
230
1.0
 70
     8
 71
     3
 72
    13
 73
     9
 74
     0
 42
0.0000000001
 43
0.0000000001
 40
0.0
 40
0.0
 40
0.0
 40
0.0
 40
1.0
 40
2.0
 40
3.0
 40
4.0
 40
5.0
 40
6.0
 40
6.0
 40
6.0
 40
6.0
 10
-12.45912550349764
 20
0.2479949730310692
 30
0.0
 10
-12.47918712943264
 20
0.2064303134485725
 30
0.0
 10
-12.53162608433597
 20
0.1289506208012991
 30
0.0
 10
-12.63636874427851
 20
0.0383356224198072
 30
0.0
 10
-12.77069993201399
 20
-0.0191576861413362
 30
0.0
 10
-12.90484823809272
 20
0.0382953824317085
 30
0.0
 10
-13.00958182172343
 20
0.1290307780810349
 30
0.0
 10
-13.06210510626084
 20
0.2064112335142632
 30
0.0
 10
-13.08214901748417
 20
0.2479950068535273
 30
0.0
  0
SPLINE
  5
40
330
1F
100
AcDbEntity
  8
2d
100
AcDbSpline
210
0.0
220
0.0
230
1.0
 70
     8
 71
     3
 72
    13
 73
     9
 74
     0
 42
0.0000000001
 43
0.0000000001
 40
0.0
 40
0.0
 40
0.0
 40
0.0
 40
1.0
 40
2.0
 40
3.0
 40
4.0
 40
5.0
 40
6.0
 40
6.0
 40
6.0
 40
6.0
 10
7.819691442231402
 20
0.2479949730310692
 30
0.0
 10
7.839753068166402
 20
0.2064303134485725
 30
0.0
 10
7.892192023069725
 20
0.1289506208012991
 30
0.0
 10
7.99693468301227
 20
0.0383356224198072
 30
0.0
 10
8.131265870747747
 20
-0.0191576861413362
 30
0.0
 10
8.265414176826482
 20
0.0382953824317085
 30
0.0
 10
8.370147760457186
 20
0.1290307780810349
 30
0.0
 10
8.422671044994601
 20
0.2064112335142632
 30
0.0
 10
8.442714956217927
 20
0.2479950068535273
 30
0.0
  0
SPLINE
  5
41
330
1F
100
AcDbEntity
  8
2d
100
AcDbSpline
210
0.0
220
0.0
230
1.0
 70
     8
 71
     3
 72
    13
 73
     9
 74
     0
 42
0.0000000001
 43
0.0000000001
 40
0.0
 40
0.0
 40
0.0
 40
0.0
 40
1.0
 40
2.0
 40
3.0
 40
4.0
 40
5.0
 40
6.0
 40
6.0
 40
6.0
 40
6.0
 10
12.45912550349764
 20
0.2479949730310692
 30
0.0
 10
12.47918712943264
 20
0.2064303134485725
 30
0.0
 10
12.53162608433597
 20
0.1289506208012991
 30
0.0
 10
12.63636874427851
 20
0.0383356224198072
 30
0.0
 10
12.77069993201399
 20
-0.0191576861413362
 30
0.0
 10
12.90484823809272
 20
0.0382953824317085
 30
0.0
 10
13.00958182172343
 20
0.1290307780810349
 30
0.0
 10
13.06210510626084
 20
0.2064112335142632
 30
0.0
 10
13.08214901748417
 20
0.2479950068535273
 30
0.0
  0
POLYLINE
  5
42
330
1F
100
AcDbEntity
  8
2d
100
AcDb2dPolyline
 66
     1
 10
0.0
 20
0.0
 30
0.0
  0
VERTEX
  5
43
330
42
100
AcDbEntity
  8
2d
100
AcDbVertex
100
AcDb2dVertex
 10
0.0000007915837372
 20
8.699104250543026
 30
0.0
  0
VERTEX
  5
44
330
42
100
AcDbEntity
  8
2d
100
AcDbVertex
100
AcDb2dVertex
 10
0.0
 20
11.46910244158051
 30
0.0
  0
SEQEND
  5
45
330
42
100
AcDbEntity
  8
2d
  0
SPLINE
  5
46
330
1F
100
AcDbEntity
  8
2d
100
AcDbSpline
210
0.0
220
0.0
230
1.0
 70
     8
 71
     3
 72
    34
 73
    30
 74
     0
 42
0.0000000001
 43
0.0000000001
 40
0.0
 40
0.0
 40
0.0
 40
0.0
 40
1.0
 40
2.0
 40
3.0
 40
4.0
 40
5.0
 40
6.0
 40
7.0
 40
8.0
 40
9.0
 40
10.0
 40
11.0
 40
12.0
 40
13.0
 40
14.0
 40
15.0
 40
16.0
 40
17.0
 40
18.0
 40
19.0
 40
20.0
 40
21.0
 40
22.0
 40
23.0
 40
24.0
 40
25.0
 40
26.0
 40
27.0
 40
27.0
 40
27.0
 40
27.0
 10
0.00000250310881
 20
42.46741418569157
 30
0.0
 10
0.6645664692630258
 20
42.46653194920034
 30
0.0
 10
1.993637448352317
 20
42.50873413286865
 30
0.0
 10
3.979691577841174
 20
42.69235022345951
 30
0.0
 10
5.951096835168542
 20
42.99711073538361
 30
0.0
 10
7.892586306775447
 20
43.459052845812
 30
0.0
 10
9.78389040981598
 20
44.09487653636793
 30
0.0
 10
11.61847253691346
 20
44.88033008571031
 30
0.0
 10
13.37277517172497
 20
45.83259339108208
 30
0.0
 10
15.01227182615029
 20
46.97176040659772
 30
0.0
 10
16.53412251030196
 20
48.26390764524827
 30
0.0
 10
17.88776529117067
 20
49.73236745876477
 30
0.0
 10
19.00719756728344
 20
51.39691290107623
 30
0.0
 10
19.66083803256713
 20
53.29619300964754
 30
0.0
 10
19.91895133685923
 20
55.28340263158675
 30
0.0
 10
19.7229509053383
 20
57.28055952816467
 30
0.0
 10
19.0983535337617
 20
59.18554881197896
 30
0.0
 10
18.13023535240551
 20
60.93449110440091
 30
0.0
 10
16.98757560979353
 20
62.57067897291437
 30
0.0
 10
15.68291521629664
 20
64.08130315162948
 30
0.0
 10
14.26606291837487
 20
65.48512942056067
 30
0.0
 10
12.77362202086239
 20
66.80828605717231
 30
0.0
 10
11.19337544705406
 20
68.02619968590439
 30
0.0
 10
9.517898798132606
 20
69.1101650207386
 30
0.0
 10
7.748441490760592
 20
70.03411536759114
 30
0.0
 10
5.891397015209675
 20
70.76722913691252
 30
0.0
 10
3.965983244168582
 20
71.2959296523517
 30
0.0
 10
1.993872389282408
 20
71.60805876018172
 30
0.0
 10
0.6645453772247277
 20
71.67404471446612
 30
0.0
 10
0.0000025031088207
 20
71.67241418286942
 30
0.0
  0
SPLINE
  5
47
330
1F
100
AcDbEntity
  8
2d
100
AcDbSpline
210
0.0
220
0.0
230
1.0
 70
     8
 71
     3
 72
    34
 73
    30
 74
     0
 42
0.0000000001
 43
0.0000000001
 40
-27.0
 40
-27.0
 40
-27.0
 40
-27.0
 40
-26.0
 40
-25.0
 40
-24.0
 40
-23.0
 40
-22.0
 40
-21.0
 40
-20.0
 40
-19.0
 40
-18.0
 40
-17.0
 40
-16.0
 40
-15.0
 40
-14.0
 40
-13.0
 40
-12.0
 40
-11.0
 40
-10.0
 40
-9.0
 40
-8.0
 40
-7.0
 40
-6.0
 40
-5.0
 40
-4.0
 40
-3.0
 40
-2.0
 40
-1.0
 40
0.0
 40
0.0
 40
0.0
 40
0.0
 10
0.0000025031088207
 20
71.67241418286942
 30
0.0
 10
-0.6645403710070864
 20
71.67404471446612
 30
0.0
 10
-1.993867383064767
 20
71.60805876018172
 30
0.0
 10
-3.965978237950941
 20
71.2959296523517
 30
0.0
 10
-5.891392008992034
 20
70.76722913691252
 30
0.0
 10
-7.748436484542951
 20
70.03411536759114
 30
0.0
 10
-9.517893791914965
 20
69.1101650207386
 30
0.0
 10
-11.19337044083642
 20
68.02619968590439
 30
0.0
 10
-12.77361701464474
 20
66.80828605717231
 30
0.0
 10
-14.26605791215723
 20
65.48512942056067
 30
0.0
 10
-15.682910210079
 20
64.08130315162948
 30
0.0
 10
-16.98757060357589
 20
62.57067897291437
 30
0.0
 10
-18.13023034618787
 20
60.93449110440091
 30
0.0
 10
-19.09834852754406
 20
59.18554881197896
 30
0.0
 10
-19.72294589912066
 20
57.28055952816467
 30
0.0
 10
-19.91894633064159
 20
55.28340263158675
 30
0.0
 10
-19.66083302634949
 20
53.29619300964754
 30
0.0
 10
-19.0071925610658
 20
51.39691290107623
 30
0.0
 10
-17.88776028495303
 20
49.73236745876477
 30
0.0
 10
-16.53411750408432
 20
48.26390764524827
 30
0.0
 10
-15.01226681993264
 20
46.97176040659772
 30
0.0
 10
-13.37277016550732
 20
45.83259339108208
 30
0.0
 10
-11.61846753069582
 20
44.88033008571031
 30
0.0
 10
-9.783885403598338
 20
44.09487653636793
 30
0.0
 10
-7.892581300557806
 20
43.459052845812
 30
0.0
 10
-5.951091828950901
 20
42.99711073538361
 30
0.0
 10
-3.979686571623533
 20
42.69235022345951
 30
0.0
 10
-1.993632442134675
 20
42.50873413286865
 30
0.0
 10
-0.6645614630453844
 20
42.46653194920034
 30
0.0
 10
0.00000250310881
 20
42.46741418569157
 30
0.0
  0
SPLINE
  5
48
330
1F
100
AcDbEntity
  8
2d
100
AcDbSpline
210
0.0
220
0.0
230
1.0
 70
     8
 71
     3
 72
    64
 73
    60
 74
     0
 42
0.0000000001
 43
0.0000000001
 40
0.0
 40
0.0
 40
0.0
 40
0.0
 40
1.0
 40
2.0
 40
3.0
 40
4.0
 40
5.0
 40
6.0
 40
7.0
 40
8.0
 40
9.0
 40
10.0
 40
11.0
 40
12.0
 40
13.0
 40
14.0
 40
15.0
 40
16.0
 40
17.0
 40
18.0
 40
19.0
 40
20.0
 40
21.0
 40
22.0
 40
23.0
 40
24.0
 40
25.0
 40
26.0
 40
27.0
 40
28.0
 40
29.0
 40
30.0
 40
31.0
 40
32.0
 40
33.0
 40
34.0
 40
35.0
 40
36.0
 40
37.0
 40
38.0
 40
39.0
 40
40.0
 40
41.0
 40
42.0
 40
43.0
 40
44.0
 40
45.0
 40
46.0
 40
47.0
 40
48.0
 40
49.0
 40
50.0
 40
51.0
 40
52.0
 40
53.0
 40
54.0
 40
55.0
 40
56.0
 40
57.0
 40
57.0
 40
57.0
 40
57.0
 10
37.4873087604974
 20
12.80116525490869
 30
0.0
 10
37.37632627162081
 20
13.0704289559413
 30
0.0
 10
37.15436002571539
 20
13.60895943480135
 30
0.0
 10
36.82141204840554
 20
14.41675177684209
 30
0.0
 10
36.48846323077347
 20
15.22454615797736
 30
0.0
 10
36.15551498726771
 20
16.03233914499773
 30
0.0
 10
35.82256620756753
 20
16.8401334373236
 30
0.0
 10
35.489617866317
 20
17.64792664946972
 30
0.0
 10
35.15666899100922
 20
18.45572121862001
 30
0.0
 10
34.82372051511624
 20
19.26351459000209
 30
0.0
 10
34.49077257510402
 20
20.07130751481678
 30
0.0
 10
34.15782309713589
 20
20.87910098540038
 30
0.0
 10
33.82487756118715
 20
21.6868967807184
 30
0.0
 10
33.49191760707968
 20
22.49468318754225
 30
0.0
 10
33.1590130390348
 20
23.30250080719253
 30
0.0
 10
32.82590005710838
 20
24.11020608844366
 30
0.0
 10
32.49356592830512
 20
24.9183280944009
 30
0.0
 10
32.15832390537676
 20
25.72489771261259
 30
0.0
 10
31.83393484831331
 20
26.53725956878127
 30
0.0
 10
31.57360566658316
 20
27.36920168367827
 30
0.0
 10
31.28239185521912
 20
28.20204819444102
 30
0.0
 10
31.49095070374315
 20
29.13316648103767
 30
0.0
 10
32.43974809863369
 20
29.30992045146078
 30
0.0
 10
33.2823154155482
 20
29.41886662585904
 30
0.0
 10
34.15651229513696
 20
29.52154381820144
 30
0.0
 10
35.02449802043873
 20
29.60540654279637
 30
0.0
 10
35.89543813576137
 20
29.68062803321119
 30
0.0
 10
36.7663507314157
 20
29.74919150555569
 30
0.0
 10
37.63773239389236
 20
29.81330341163629
 30
0.0
 10
38.50999982982153
 20
29.86544938232534
 30
0.0
 10
39.38380486541385
 20
29.88028933220717
 30
0.0
 10
40.25745499580119
 20
29.85990411555408
 30
0.0
 10
41.12954543626292
 20
29.80273078270177
 30
0.0
 10
41.99736068114017
 20
29.69782935264481
 30
0.0
 10
42.85636124010609
 20
29.53508390976791
 30
0.0
 10
43.70080064476694
 20
29.30834470186483
 30
0.0
 10
44.52546562553309
 20
29.01761721002928
 30
0.0
 10
45.32374599743557
 20
28.66072091596163
 30
0.0
 10
46.09173397545028
 20
28.24280444579893
 30
0.0
 10
46.82779500257508
 20
27.7711246779061
 30
0.0
 10
47.53108116062383
 20
27.25190304413608
 30
0.0
 10
48.19913461984912
 20
26.68810254722147
 30
0.0
 10
48.82948081986386
 20
26.08237685089008
 30
0.0
 10
49.41897976902052
 20
25.43700700341353
 30
0.0
 10
49.97755145393167
 20
24.76493871753549
 30
0.0
 10
50.51103573689894
 20
24.07281349662807
 30
0.0
 10
51.01966592278281
 20
23.36229334455126
 30
0.0
 10
51.51455348357047
 20
22.64223120892631
 30
0.0
 10
52.00462172743671
 20
21.91888945900893
 30
0.0
 10
52.49203205946201
 20
21.19375720881515
 30
0.0
 10
52.97927048495846
 20
20.4685096145199
 30
0.0
 10
53.47163307501821
 20
19.74671401400429
 30
0.0
 10
53.97666747491656
 20
19.03367758198583
 30
0.0
 10
54.5126360064027
 20
18.34300934843947
 30
0.0
 10
55.10440575837085
 20
17.69928043090501
 30
0.0
 10
55.7372149804994
 20
17.0961813281038
 30
0.0
 10
56.43734744904006
 20
16.56816551158138
 30
0.0
 10
57.23310047216746
 20
16.19173772257906
 30
0.0
 10
57.81201080890762
 20
16.0930911276688
 30
0.0
 10
58.09924410836297
 20
16.04937650721973
 30
0.0
  0
SPLINE
  5
49
330
1F
100
AcDbEntity
  8
2d
100
AcDbSpline
210
0.0
220
0.0
230
1.0
 70
     8
 71
     3
 72
    24
 73
    20
 74
     0
 42
0.0000000001
 43
0.0000000001
 40
0.0
 40
0.0
 40
0.0
 40
0.0
 40
1.0
 40
2.0
 40
3.0
 40
4.0
 40
5.0
 40
6.0
 40
7.0
 40
8.0
 40
9.0
 40
10.0
 40
11.0
 40
12.0
 40
13.0
 40
14.0
 40
15.0
 40
16.0
 40
17.0
 40
17.0
 40
17.0
 40
17.0
 10
31.85215588480556
 20
29.16504526280472
 30
0.0
 10
32.53800956211177
 20
29.26646875764133
 30
0.0
 10
33.91336259233812
 20
29.44764682377322
 30
0.0
 10
35.98690545925538
 20
29.61279157649355
 30
0.0
 10
38.06147761334358
 20
29.77667164617808
 30
0.0
 10
40.1437573920254
 20
29.75787602893
 30
0.0
 10
42.21461581323803
 20
29.51906222497636
 30
0.0
 10
44.22174230273026
 20
28.93638218875556
 30
0.0
 10
46.07571179917903
 20
27.97555775987466
 30
0.0
 10
47.75275394438246
 20
26.73374658546611
 30
0.0
 10
49.21917567268243
 20
25.25271407915478
 30
0.0
 10
50.5117377545135
 20
23.61892520377501
 30
0.0
 10
51.63562276935118
 20
21.86722652626051
 30
0.0
 10
52.7405410920121
 20
20.10536300446554
 30
0.0
 10
53.89782641767588
 20
18.37560040092378
 30
0.0
 10
55.17867075381616
 20
16.7356967953839
 30
0.0
 10
56.6473946337238
 20
15.2486839442699
 30
0.0
 10
58.49024480788231
 20
14.21510554268692
 30
0.0
 10
59.8954302303113
 20
14.07236062485941
 30
0.0
 10
60.58215588483512
 20
14.01004526282266
 30
0.0
  0
SPLINE
  5
4A
330
1F
100
AcDbEntity
  8
2d
100
AcDbSpline
210
0.0
220
0.0
230
1.0
 70
     8
 71
     3
 72
    19
 73
    15
 74
     0
 42
0.0000000001
 43
0.0000000001
 40
0.0
 40
0.0
 40
0.0
 40
0.0
 40
1.0
 40
2.0
 40
3.0
 40
4.0
 40
5.0
 40
6.0
 40
7.0
 40
8.0
 40
9.0
 40
10.0
 40
11.0
 40
12.0
 40
12.0
 40
12.0
 40
12.0
 10
56.43955285343108
 20
16.60290167400805
 30
0.0
 10
56.5866589029702
 20
16.58106596919522
 30
0.0
 10
56.88088925624145
 20
16.5374668911233
 30
0.0
 10
57.32246966837642
 20
16.47385170072737
 30
0.0
 10
57.76385840869679
 20
16.40836585108256
 30
0.0
 10
58.20089668169142
 20
16.31761887637947
 30
0.0
 10
58.63161614453777
 20
16.19987621405533
 30
0.0
 10
59.04921041056904
 20
16.041406479137
 30
0.0
 10
59.44724974501393
 20
15.83718334050495
 30
0.0
 10
59.80514297641508
 20
15.56822260754004
 30
0.0
 10
60.11768194008042
 20
15.2476143074106
 30
0.0
 10
60.36286792473037
 20
14.8719815754522
 30
0.0
 10
60.52429988171604
 20
14.45345545981592
 30
0.0
 10
60.57310970263218
 20
14.15849604897261
 30
0.0
 10
60.58215588483574
 20
14.01004526282271
 30
0.0
  0
SPLINE
  5
4B
330
1F
100
AcDbEntity
  8
2d
100
AcDbSpline
210
0.0
220
0.0
230
1.0
 70
     8
 71
     3
 72
    19
 73
    15
 74
     0
 42
0.0000000001
 43
0.0000000001
 40
0.0
 40
0.0
 40
0.0
 40
0.0
 40
1.0
 40
2.0
 40
3.0
 40
4.0
 40
5.0
 40
6.0
 40
7.0
 40
8.0
 40
9.0
 40
10.0
 40
11.0
 40
12.0
 40
12.0
 40
12.0
 40
12.0
 10
60.58215588483574
 20
14.01004526282271
 30
0.0
 10
60.59441078534942
 20
13.84844431577775
 30
0.0
 10
60.53991461561244
 20
13.50238410399469
 30
0.0
 10
60.14609858926404
 20
13.17681496099545
 30
0.0
 10
59.69815523498274
 20
12.97621620014078
 30
0.0
 10
59.23003238923673
 20
12.82270619133469
 30
0.0
 10
58.75346214297662
 20
12.70100442060539
 30
0.0
 10
58.27231445868989
 20
12.59865635555222
 30
0.0
 10
57.78812884954694
 20
12.51214492493713
 30
0.0
 10
57.30213294116371
 20
12.43656798643418
 30
0.0
 10
56.81482167992485
 20
12.37004416906434
 30
0.0
 10
56.32646933060052
 20
12.31167972835831
 30
0.0
 10
55.83733492877498
 20
12.26032664611143
 30
0.0
 10
55.51085639315541
 20
12.23004270241497
 30
0.0
 10
55.34754725188928
 20
12.21570431101291
 30
0.0
  0
LINE
  5
4C
330
1F
100
AcDbEntity
  8
2d
100
AcDbLine
 10
55.34754725188928
 20
12.21570431101291
 30
0.0
 11
54.99992450265591
 21
12.18518335547961
 31
0.0
  0
SPLINE
  5
4D
330
1F
100
AcDbEntity
  8
2d
100
AcDbSpline
210
0.0
220
0.0
230
1.0
 70
    24
 71
     2
 72
     6
 73
     3
 74
     0
 42
0.0000000001
 43
0.0000000001
 40
0.0
 40
0.0
 40
0.0
 40
7.212462318197809
 40
7.212462318197809
 40
7.212462318197809
 10
53.52581224077801
 20
11.47336427112685
 30
0.0
 10
49.92357852155874
 20
11.30361326235624
 30
0.0
 10
46.32134480233947
 20
11.13386225358564
 30
0.0
  0
SPLINE
  5
4E
330
1F
100
AcDbEntity
  8
2d
100
AcDbSpline
210
0.0
220
0.0
230
1.0
 70
     8
 71
     3
 72
    11
 73
     7
 74
     0
 42
0.0000000001
 43
0.0000000001
 40
0.0
 40
0.0
 40
0.0
 40
0.0
 40
0.0288907184112484
 40
0.0693494208476328
 40
0.1640292809319614
 40
0.3863802485424125
 40
0.3863802485424125
 40
0.3863802485424125
 40
0.3863802485424125
 10
46.32134480233947
 20
11.13386225358564
 30
0.0
 10
46.31180818357794
 20
11.13553164875917
 30
0.0
 10
46.29106459047733
 20
11.14633454125755
 30
0.0
 10
46.24833987877476
 20
11.18075595981086
 30
0.0
 10
46.17432509151604
 20
11.27535107656812
 30
0.0
 10
46.13541222521758
 20
11.37524139263641
 30
0.0
 10
46.11700135736918
 20
11.44690124625584
 30
0.0
  0
POLYLINE
  5
4F
330
1F
100
AcDbEntity
  8
2d
100
AcDb2dPolyline
 66
     1
 10
0.0
 20
0.0
 30
0.0
  0
VERTEX
  5
50
330
4F
100
AcDbEntity
  8
2d
100
AcDbVertex
100
AcDb2dVertex
 10
38.10655364032995
 20
8.494248682077803
 30
0.0
  0
VERTEX
  5
51
330
4F
100
AcDbEntity
  8
2d
100
AcDbVertex
100
AcDb2dVertex
 10
53.93500009925631
 20
9.239989036900614
 30
0.0
  0
SEQEND
  5
52
330
4F
100
AcDbEntity
  8
2d
  0
LINE
  5
53
330
1F
100
AcDbEntity
  8
2d
100
AcDbLine
 10
43.04410128612047
 20
11.1909769798611
 30
0.0
 11
43.15996005578282
 21
8.732388881200848
 31
0.0
  0
SPLINE
  5
54
330
1F
100
AcDbEntity
  8
2d
100
AcDbSpline
210
0.0
220
0.0
230
1.0
 70
    12
 71
     2
 72
    12
 73
     9
 74
     0
 42
0.0000000001
 43
0.0000000001
 40
0.0
 40
0.0
 40
0.0
 40
0.0288287256506786
 40
0.0288287256506786
 40
0.0988691870805639
 40
0.0988691870805639
 40
0.1638180483526482
 40
0.1638180483526482
 40
0.2255330048737493
 40
0.2255330048737493
 40
0.2255330048737493
 10
40.23614613646154
 20
10.95720635576975
 30
0.0
 41
1.0
 10
40.22841802670707
 20
10.94502782696918
 30
0.0
 41
0.9990396196661305
 10
40.21965338748214
 20
10.93357263847748
 30
0.0
 41
1.0
 10
40.19837693173447
 20
10.90552196630949
 30
0.0
 41
0.9920646640603114
 10
40.17077556374936
 20
10.88366579410094
 30
0.0
 41
1.0
 10
40.1451225133637
 20
10.86336905545071
 30
0.0
 41
0.9891683482548869
 10
40.11468091061396
 20
10.85139636085213
 30
0.0
 41
1.0
 10
40.08568257470665
 20
10.84007934866399
 30
0.0
 41
0.9869952074213806
 10
40.0545917759653
 20
10.8385489123741
 30
0.0
 41
1.0
  0
SPLINE
  5
55
330
1F
100
AcDbEntity
  8
2d
100
AcDbSpline
210
0.0
220
0.0
230
1.0
 70
    24
 71
     2
 72
     6
 73
     3
 74
     0
 42
0.0000000001
 43
0.0000000001
 40
0.0
 40
0.0
 40
0.0
 40
1.414008418687741
 40
1.414008418687741
 40
1.414008418687741
 10
40.0545917759653
 20
10.8385489123741
 30
0.0
 10
39.34837336788938
 20
10.80522426663737
 30
0.0
 10
38.64215495981345
 20
10.77189962090064
 30
0.0
  0
POLYLINE
  5
56
330
1F
100
AcDbEntity
  8
2d
100
AcDb2dPolyline
 66
     1
 10
0.0
 20
0.0
 30
0.0
  0
VERTEX
  5
57
330
56
100
AcDbEntity
  8
2d
100
AcDbVertex
100
AcDb2dVertex
 10
53.42191172915261
 20
12.05502174819929
 30
0.0
  0
VERTEX
  5
58
330
56
100
AcDbEntity
  8
2d
100
AcDbVertex
100
AcDb2dVertex
 10
38.65456899616855
 20
10.8255094825114
 30
0.0
  0
SEQEND
  5
59
330
56
100
AcDbEntity
  8
2d
  0
SPLINE
  5
5A
330
1F
100
AcDbEntity
  8
2d
100
AcDbSpline
210
0.0
220
0.0
230
1.0
 70
    12
 71
     2
 72
     6
 73
     3
 74
     0
 42
0.0000000001
 43
0.0000000001
 40
-0.160651713608458
 40
-0.160651713608458
 40
-0.160651713608458
 40
0.0
 40
0.0
 40
0.0
 10
36.0037073428685
 20
0.3377392182091902
 30
0.0
 41
1.0
 10
35.97351679155179
 20
0.2498114283842101
 30
0.0
 41
0.8146151994956276
 10
35.88099786071099
 20
0.2500452628252429
 30
0.0
 41
1.0
  0
SPLINE
  5
5B
330
1F
100
AcDbEntity
  8
2d
100
AcDbSpline
210
0.0
220
0.0
230
1.0
 70
    24
 71
     2
 72
     6
 73
     3
 74
     0
 42
0.0000000001
 43
0.0000000001
 40
-0.4376497323730888
 40
-0.4376497323730888
 40
-0.4376497323730888
 40
0.0
 40
0.0
 40
0.0
 10
35.88099786071099
 20
0.2500452628252429
 30
0.0
 10
35.66104297889007
 20
0.2500452628239531
 30
0.0
 10
35.44108809706916
 20
0.2500452628226633
 30
0.0
  0
SPLINE
  5
5C
330
1F
100
AcDbEntity
  8
2d
100
AcDbSpline
210
0.0
220
0.0
230
1.0
 70
    24
 71
     2
 72
     6
 73
     3
 74
     0
 42
0.0000000001
 43
0.0000000001
 40
-0.4049399806730065
 40
-0.4049399806730065
 40
-0.4049399806730065
 40
0.0
 40
0.0
 40
0.0
 10
35.44108809706916
 20
0.2500452628226633
 30
0.0
 10
35.23714832124944
 20
0.2500452628238597
 30
0.0
 10
35.03320854542972
 20
0.2500452628250562
 30
0.0
  0
SPLINE
  5
5D
330
1F
100
AcDbEntity
  8
2d
100
AcDbSpline
210
0.0
220
0.0
230
1.0
 70
    12
 71
     2
 72
     8
 73
     5
 74
     0
 42
0.0000000001
 43
0.0000000001
 40
-0.2152587489798668
 40
-0.2152587489798668
 40
-0.2152587489798668
 40
-0.1076293744899334
 40
-0.1076293744899334
 40
0.0
 40
0.0
 40
0.0
 10
35.03320854542972
 20
0.2500452628250562
 30
0.0
 41
1.0
 10
34.97541875057431
 20
0.2508180150594345
 30
0.0
 41
0.9175379718337883
 10
34.93699186674348
 20
0.2929581714920789
 30
0.0
 41
1.0
 10
34.89856498291268
 20
0.3350983279247232
 30
0.0
 41
0.9175379718337883
 10
34.90322823507837
 20
0.3946059773537425
 30
0.0
 41
1.0
  0
SPLINE
  5
5E
330
1F
100
AcDbEntity
  8
2d
100
AcDbSpline
210
0.0
220
0.0
230
1.0
 70
     8
 71
     3
 72
    12
 73
     8
 74
     0
 42
0.0000000001
 43
0.0000000001
 40
-14.70734858773856
 40
-14.70734858773856
 40
-14.70734858773856
 40
-14.70734858773856
 40
-13.12965905923249
 40
-10.13826057681813
 40
-6.103577194124009
 40
-3.698998462289971
 40
0.0
 40
0.0
 40
0.0
 40
0.0
 10
34.90322823507837
 20
0.3946059773537425
 30
0.0
 10
34.95365193841826
 20
0.9211808348072569
 30
0.0
 10
35.20594752602013
 20
2.423608100277388
 30
0.0
 10
35.78451088727613
 20
5.232798656616988
 30
0.0
 10
36.46209926574895
 20
8.302415197645168
 30
0.0
 10
37.21119760362654
 20
11.59782959483123
 30
0.0
 10
37.66574651643148
 20
13.58088169727587
 30
0.0
 10
37.94181649635976
 20
14.78259517131163
 30
0.0
  0
SPLINE
  5
5F
330
1F
100
AcDbEntity
  8
2d
100
AcDbSpline
210
0.0
220
0.0
230
1.0
 70
     8
 71
     3
 72
     8
 73
     4
 74
     0
 42
0.0000000001
 43
0.0000000001
 40
0.0
 40
0.0
 40
0.0
 40
0.0
 40
1.0
 40
1.0
 40
1.0
 40
1.0
 10
37.94181649635976
 20
14.78259517131163
 30
0.0
 10
38.05205999365763
 20
15.26247746840922
 30
0.0
 10
39.27998911973719
 20
13.53734793041309
 30
0.0
 10
39.16201906261412
 20
13.02497691671773
 30
0.0
  0
SPLINE
  5
60
330
1F
100
AcDbEntity
  8
2d
100
AcDbSpline
210
0.0
220
0.0
230
1.0
 70
     8
 71
     3
 72
    12
 73
     8
 74
     0
 42
0.0000000001
 43
0.0000000001
 40
-13.07731475742222
 40
-13.07731475742222
 40
-13.07731475742222
 40
-13.07731475742222
 40
-7.914786729514161
 40
-4.264313394186536
 40
-1.481481006824066
 40
-0.6761785182736747
 40
0.0
 40
0.0
 40
0.0
 40
0.0
 10
39.16201906261412
 20
13.02497691671773
 30
0.0
 10
38.77591217591441
 20
11.34802615685922
 30
0.0
 10
38.11551486555742
 20
8.48549500667414
 30
0.0
 10
37.21600238897172
 20
4.726347745924303
 30
0.0
 10
36.61857920771268
 20
2.388417932413145
 30
0.0
 10
36.23215746273436
 20
1.020415529821175
 30
0.0
 10
36.07759454009089
 20
0.5512038318417988
 30
0.0
 10
36.0037073428685
 20
0.3377392182091902
 30
0.0
  0
SPLINE
  5
61
330
1F
100
AcDbEntity
  8
2d
100
AcDbSpline
210
0.0
220
0.0
230
1.0
 70
     8
 71
     3
 72
     8
 73
     4
 74
     0
 42
0.0000000001
 43
0.0000000001
 40
0.0
 40
0.0
 40
0.0
 40
0.0
 40
1.0
 40
1.0
 40
1.0
 40
1.0
 10
53.25430661396815
 20
13.00089666293669
 30
0.0
 10
53.20496935830536
 20
13.27970337177194
 30
0.0
 10
54.80522597428885
 20
13.26241344560883
 30
0.0
 10
54.84902474465672
 20
13.0211707622599
 30
0.0
  0
SPLINE
  5
62
330
1F
100
AcDbEntity
  8
2d
100
AcDbSpline
210
0.0
220
0.0
230
1.0
 70
     8
 71
     3
 72
    12
 73
     8
 74
     0
 42
0.0000000001
 43
0.0000000001
 40
-12.79312232388612
 40
-12.79312232388612
 40
-12.79312232388612
 40
-12.79312232388612
 40
-8.231457143480554
 40
-4.219231798169838
 40
-1.696247695051919
 40
-0.8131302634483223
 40
0.0
 40
0.0
 40
0.0
 40
0.0
 10
54.84902474465672
 20
13.0211707622599
 30
0.0
 10
55.12064866896502
 20
11.52507204050304
 30
0.0
 10
55.61527374190906
 20
8.710210544930247
 30
0.0
 10
56.23831565081526
 20
5.064094313132141
 30
0.0
 10
56.61439848564498
 20
2.619902993712062
 30
0.0
 10
56.79095344209093
 20
1.224506119498429
 30
0.0
 10
56.84406884869622
 20
0.6614925188648706
 30
0.0
 10
56.86681472864714
 20
0.3910551460196275
 30
0.0
  0
SPLINE
  5
63
330
1F
100
AcDbEntity
  8
2d
100
AcDbSpline
210
0.0
220
0.0
230
1.0
 70
    12
 71
     2
 72
     8
 73
     5
 74
     0
 42
0.0000000001
 43
0.0000000001
 40
-0.2144890338615323
 40
-0.2144890338615323
 40
-0.2144890338615323
 40
-0.1072445169307662
 40
-0.1072445169307662
 40
0.0
 40
0.0
 40
0.0
 10
56.86681472864714
 20
0.3910551460196275
 30
0.0
 41
1.0
 10
56.871194321163
 20
0.3340114797636698
 30
0.0
 41
0.9171472319850207
 10
56.83267560020595
 20
0.2922097497691575
 30
0.0
 41
1.0
 10
56.79415687924887
 20
0.2504080197746451
 30
0.0
 41
0.9171472319850207
 10
56.73705378062981
 20
0.2500452628270218
 30
0.0
 41
1.0
  0
SPLINE
  5
64
330
1F
100
AcDbEntity
  8
2d
100
AcDbSpline
210
0.0
220
0.0
230
1.0
 70
    24
 71
     2
 72
     6
 73
     3
 74
     0
 42
0.0000000001
 43
0.0000000001
 40
-0.4084194075053844
 40
-0.4084194075053844
 40
-0.4084194075053844
 40
0.0
 40
0.0
 40
0.0
 10
56.73705378062981
 20
0.2500452628270218
 30
0.0
 10
56.53271322821914
 20
0.2500452628248425
 30
0.0
 10
56.32837267580847
 20
0.2500452628226633
 30
0.0
  0
SPLINE
  5
65
330
1F
100
AcDbEntity
  8
2d
100
AcDbSpline
210
0.0
220
0.0
230
1.0
 70
    28
 71
     3
 72
     9
 73
     5
 74
     0
 42
0.0000000001
 43
0.0000000001
 40
-2.687892175062168
 40
-2.687892175062168
 40
-2.687892175062168
 40
-2.687892175062168
 40
-2.355081274066109
 40
-1.981450024723416
 40
-1.981450024723416
 40
-1.981450024723416
 40
-1.981450024723416
 10
56.32837267580847
 20
0.2500452628226633
 30
0.0
 41
1.0
 10
56.2173724665678
 20
0.2500452628226633
 30
0.0
 41
1.0
 10
55.98047880585793
 20
0.2500452628226633
 30
0.0
 41
1.0
 10
55.87037806164172
 20
0.2500452628226609
 30
0.0
 41
1.0
 10
55.87037539825853
 20
0.250045262876424
 30
0.0
 41
1.0
  0
SPLINE
  5
66
330
1F
100
AcDbEntity
  8
2d
100
AcDbSpline
210
0.0
220
0.0
230
1.0
 70
    12
 71
     2
 72
     6
 73
     3
 74
     0
 42
0.0000000001
 43
0.0000000001
 40
-0.1658276942948809
 40
-0.1658276942948809
 40
-0.1658276942948809
 40
0.0
 40
0.0
 40
0.0
 10
55.87037539825853
 20
0.250045262876424
 30
0.0
 41
1.0
 10
55.77395831133444
 20
0.2497802890634198
 30
0.0
 41
0.8026032901628245
 10
55.74567232384559
 20
0.3439601101610185
 30
0.0
 41
1.0
  0
SPLINE
  5
67
330
1F
100
AcDbEntity
  8
2d
100
AcDbSpline
210
0.0
220
0.0
230
1.0
 70
     8
 71
     3
 72
    13
 73
     9
 74
     0
 42
0.0000000001
 43
0.0000000001
 40
-12.90070025046173
 40
-12.90070025046173
 40
-12.90070025046173
 40
-12.90070025046173
 40
-11.20477213542936
 40
-8.726530418442385
 40
-7.052746681575661
 40
-4.500487130204908
 40
-2.07737777576956
 40
0.0
 40
0.0
 40
0.0
 40
0.0
 10
55.74567232384559
 20
0.3439601101610185
 30
0.0
 10
55.59561811598782
 20
0.8910741375852492
 30
0.0
 10
55.27489937265247
 20
2.245258540867795
 30
0.0
 10
54.88813957793965
 20
4.15599516942325
 30
0.0
 10
54.46465562596515
 20
6.350198512183157
 30
0.0
 10
54.06074812663616
 20
8.52953993168625
 30
0.0
 10
53.63690428416662
 20
10.84188477614306
 30
0.0
 10
53.37496625881003
 20
12.31904441931947
 30
0.0
 10
53.25430661396815
 20
13.00089666293669
 30
0.0
  0
SPLINE
  5
68
330
1F
100
AcDbEntity
  8
2d
100
AcDbSpline
210
0.0
220
0.0
230
1.0
 70
     8
 71
     3
 72
    13
 73
     9
 74
     0
 42
0.0000000001
 43
0.0000000001
 40
0.0
 40
0.0
 40
0.0
 40
0.0
 40
1.0
 40
2.0
 40
3.0
 40
4.0
 40
5.0
 40
6.0
 40
6.0
 40
6.0
 40
6.0
 10
56.03431655967909
 20
0.2479949730310683
 30
0.0
 10
56.0543781685138
 20
0.2064303404103458
 30
0.0
 10
56.1068171578748
 20
0.1289505977514484
 30
0.0
 10
56.21155979581309
 20
0.0383356285123325
 30
0.0
 10
56.34589098949571
 20
-0.0191576875061649
 30
0.0
 10
56.48003929372001
 20
0.0382953817984978
 30
0.0
 10
56.58477288126368
 20
0.1290307835450664
 30
0.0
 10
56.63729615497446
 20
0.2064112211869968
 30
0.0
 10
56.65734007366561
 20
0.2479950068535265
 30
0.0
  0
SPLINE
  5
69
330
1F
100
AcDbEntity
  8
2d
100
AcDbSpline
210
0.0
220
0.0
230
1.0
 70
     8
 71
     3
 72
    13
 73
     9
 74
     0
 42
0.0000000001
 43
0.0000000001
 40
0.0
 40
0.0
 40
0.0
 40
0.0
 40
1.0
 40
2.0
 40
3.0
 40
4.0
 40
5.0
 40
6.0
 40
6.0
 40
6.0
 40
6.0
 10
35.13799484630766
 20
0.2479949730310692
 30
0.0
 10
35.15805647224266
 20
0.2064303134485725
 30
0.0
 10
35.21049542714599
 20
0.1289506208012991
 30
0.0
 10
35.31523808708853
 20
0.0383356224198072
 30
0.0
 10
35.44956927482401
 20
-0.0191576861413362
 30
0.0
 10
35.58371758090274
 20
0.0382953824317085
 30
0.0
 10
35.68845116453345
 20
0.1290307780810349
 30
0.0
 10
35.74097444907086
 20
0.2064112335142632
 30
0.0
 10
35.76101836029419
 20
0.2479950068535273
 30
0.0
  0
SPLINE
  5
6A
330
1F
100
AcDbEntity
  8
2d
100
AcDbSpline
210
0.0
220
0.0
230
1.0
 70
     8
 71
     3
 72
    11
 73
     7
 74
     0
 42
0.0000000001
 43
0.0000000001
 40
0.0
 40
0.0
 40
0.0
 40
0.0
 40
1.945845117862335
 40
3.40416874598845
 40
5.954212501693674
 40
8.86022564290839
 40
8.86022564290839
 40
8.86022564290839
 40
8.86022564290839
 10
6.572328619240587
 20
9.008360315256866
 30
0.0
 10
6.739964392513262
 20
8.38168824991098
 30
0.0
 10
7.028214517984562
 20
7.284467190714092
 30
0.0
 10
7.532317299312663
 20
5.364331103475434
 30
0.0
 10
8.085787089929267
 20
3.127748053531676
 30
0.0
 10
8.505710021687227
 20
1.356795857004026
 30
0.0
 10
8.645702536523793
 20
0.3976125672629122
 30
0.0
  0
SPLINE
  5
6B
330
1F
100
AcDbEntity
  8
2d
100
AcDbSpline
210
0.0
220
0.0
230
1.0
 70
    12
 71
     2
 72
     8
 73
     5
 74
     0
 42
0.0000000001
 43
0.0000000001
 40
0.0
 40
0.0
 40
0.0
 40
0.1109050478174682
 40
0.1109050478174682
 40
0.2218100956349365
 40
0.2218100956349365
 40
0.2218100956349365
 10
8.645702536523793
 20
0.3976125672629122
 30
0.0
 41
1.0
 10
8.653689536502931
 20
0.3390745601984971
 30
0.0
 41
0.9103866375119865
 10
8.614841621809083
 20
0.2945624274291148
 30
0.0
 41
1.0
 10
8.575993707115233
 20
0.2500502946597324
 30
0.0
 41
0.9103866375119865
 10
8.516913334617929
 20
0.2500452628226414
 30
0.0
 41
1.0
  0
SPLINE
  5
6C
330
1F
100
AcDbEntity
  8
2d
100
AcDbSpline
210
0.0
220
0.0
230
1.0
 70
    24
 71
     2
 72
     6
 73
     3
 74
     0
 42
0.0000000001
 43
0.0000000001
 40
0.0
 40
0.0
 40
0.0
 40
0.8492409694485481
 40
0.8492409694485481
 40
0.8492409694485481
 10
8.516913334617929
 20
0.2500452628226414
 30
0.0
 10
8.090802723467537
 20
0.2500452628235961
 30
0.0
 10
7.664692112317143
 20
0.2500452628245509
 30
0.0
  0
SPLINE
  5
6D
330
1F
100
AcDbEntity
  8
2d
100
AcDbSpline
210
0.0
220
0.0
230
1.0
 70
    12
 71
     2
 72
     6
 73
     3
 74
     0
 42
0.0000000001
 43
0.0000000001
 40
-0.1501407907802203
 40
-0.1501407907802203
 40
-0.1501407907802203
 40
0.0
 40
0.0
 40
0.0
 10
7.664692112317143
 20
0.2500452628245509
 30
0.0
 41
1.0
 10
7.576880565223295
 20
0.2498466601038861
 30
0.0
 41
0.8360114232981763
 10
7.541312702292462
 20
0.3302875933625613
 30
0.0
 41
1.0
  0
SPLINE
  5
6E
330
1F
100
AcDbEntity
  8
2d
100
AcDbSpline
210
0.0
220
0.0
230
1.0
 70
     8
 71
     3
 72
    12
 73
     8
 74
     0
 42
0.0000000001
 43
0.0000000001
 40
-8.486179649476922
 40
-8.486179649476922
 40
-8.486179649476922
 40
-8.486179649476922
 40
-7.35025319352689
 40
-5.570312816809815
 40
-3.134737650023672
 40
-1.759900647564105
 40
0.0
 40
0.0
 40
0.0
 40
0.0
 10
7.541312702292462
 20
0.3302875933625613
 30
0.0
 10
7.40003567633314
 20
0.6850493656326896
 30
0.0
 10
7.083071980467846
 20
1.604108475388592
 30
0.0
 10
6.562917740580218
 20
3.310549013746833
 30
0.0
 10
6.040271629644336
 20
5.099168637125095
 30
0.0
 10
5.538261519588128
 20
6.886854555962747
 30
0.0
 10
5.257661508188827
 20
7.893347746075267
 30
0.0
 10
5.101693706282882
 20
8.458882176229727
 30
0.0
  0
SPLINE
  5
6F
330
1F
100
AcDbEntity
  8
2d
100
AcDbSpline
210
0.0
220
0.0
230
1.0
 70
    24
 71
     2
 72
     6
 73
     3
 74
     0
 42
0.0000000001
 43
0.0000000001
 40
-5.107464012610228
 40
-5.107464012610228
 40
-5.107464012610228
 40
0.0
 40
0.0
 40
0.0
 10
0.0000007915837372
 20
8.699104250543026
 30
0.0
 10
2.550877324904191
 20
8.57900160318047
 30
0.0
 10
5.101753858224646
 20
8.458898955817915
 30
0.0
  0
POLYLINE
  5
70
330
1F
100
AcDbEntity
  8
2d
100
AcDb2dPolyline
 66
     1
 10
0.0
 20
0.0
 30
0.0
  0
VERTEX
  5
71
330
70
100
AcDbEntity
  8
2d
100
AcDbVertex
100
AcDb2dVertex
 10
5.101753858224646
 20
8.458898955817915
 30
0.0
  0
VERTEX
  5
72
330
70
100
AcDbEntity
  8
2d
100
AcDbVertex
100
AcDb2dVertex
 10
5.766126592407211
 20
8.494246440657804
 30
0.0
  0
SEQEND
  5
73
330
70
100
AcDbEntity
  8
2d
  0
SPLINE
  5
74
330
1F
100
AcDbEntity
  8
2d
100
AcDbSpline
210
0.0
220
0.0
230
1.0
 70
    12
 71
     2
 72
     6
 73
     3
 74
     0
 42
0.0000000001
 43
0.0000000001
 40
0.0
 40
0.0
 40
0.0
 40
0.4881144055965251
 40
0.4881144055965251
 40
0.4881144055965251
 10
5.766126592407211
 20
8.494246440657804
 30
0.0
 41
1.0
 10
5.700130954937969
 20
8.729211330309683
 30
0.0
 41
0.9999999333106377
 10
5.634306958358561
 20
8.964224361881111
 30
0.0
 41
1.0
  0
SPLINE
  5
75
330
1F
100
AcDbEntity
  8
2d
100
AcDbSpline
210
0.0
220
0.0
230
1.0
 70
    24
 71
     2
 72
     6
 73
     3
 74
     0
 42
0.0000000001
 43
0.0000000001
 40
-5.107464012610228
 40
-5.107464012610228
 40
-5.107464012610228
 40
0.0
 40
0.0
 40
0.0
 10
-0.0000007915837372
 20
8.699104250543026
 30
0.0
 10
-2.550877324904191
 20
8.57900160318047
 30
0.0
 10
-5.101753858224646
 20
8.458898955817915
 30
0.0
  0
POLYLINE
  5
76
330
1F
100
AcDbEntity
  8
2d
100
AcDb2dPolyline
 66
     1
 10
0.0
 20
0.0
 30
0.0
  0
VERTEX
  5
77
330
76
100
AcDbEntity
  8
2d
100
AcDbVertex
100
AcDb2dVertex
 10
-5.101753858224646
 20
8.458898955817915
 30
0.0
  0
VERTEX
  5
78
330
76
100
AcDbEntity
  8
2d
100
AcDbVertex
100
AcDb2dVertex
 10
-5.766126592407211
 20
8.494246440657804
 30
0.0
  0
SEQEND
  5
79
330
76
100
AcDbEntity
  8
2d
  0
SPLINE
  5
7A
330
1F
100
AcDbEntity
  8
2d
100
AcDbSpline
210
0.0
220
0.0
230
1.0
 70
    12
 71
     2
 72
     6
 73
     3
 74
     0
 42
0.0000000001
 43
0.0000000001
 40
0.0
 40
0.0
 40
0.0
 40
0.4881144055965251
 40
0.4881144055965251
 40
0.4881144055965251
 10
-5.766126592407211
 20
8.494246440657804
 30
0.0
 41
1.0
 10
-5.700130954937969
 20
8.729211330309683
 30
0.0
 41
0.9999999333106377
 10
-5.634306958358561
 20
8.964224361881111
 30
0.0
 41
1.0
  0
SPLINE
  5
7B
330
1F
100
AcDbEntity
  8
2d
100
AcDbSpline
210
0.0
220
0.0
230
1.0
 70
     8
 71
     3
 72
    13
 73
     9
 74
     0
 42
0.0000000001
 43
0.0000000001
 40
-6.0
 40
-6.0
 40
-6.0
 40
-6.0
 40
-5.0
 40
-4.0
 40
-3.0
 40
-2.0
 40
-1.0
 40
0.0
 40
0.0
 40
0.0
 40
0.0
 10
11.83241901419438
 20
13.25144490018859
 30
0.0
 10
11.92856528374308
 20
12.53835955142331
 30
0.0
 10
12.11771405909721
 20
11.11176772514735
 30
0.0
 10
12.39267327256799
 20
8.970729943110886
 30
0.0
 10
12.65729508768107
 20
6.828402087473626
 30
0.0
 10
12.91717561509392
 20
4.685467493298557
 30
0.0
 10
13.15147533596051
 20
2.539562928062912
 30
0.0
 10
13.2658568915663
 20
1.104638733715113
 30
0.0
 10
13.2908548968508
 20
0.385403874019584
 30
0.0
  0
SPLINE
  5
7C
330
1F
100
AcDbEntity
  8
2d
100
AcDbSpline
210
0.0
220
0.0
230
1.0
 70
    12
 71
     2
 72
     8
 73
     5
 74
     0
 42
0.0000000001
 43
0.0000000001
 40
0.0
 40
0.0
 40
0.0
 40
0.1047537422594865
 40
0.1047537422594865
 40
0.209507484518973
 40
0.209507484518973
 40
0.209507484518973
 10
13.2908548968508
 20
0.385403874019584
 30
0.0
 41
1.0
 10
13.29315317533302
 20
0.3300420490125148
 30
0.0
 41
0.9198890619989323
 10
13.25479972368782
 20
0.2900517189439184
 30
0.0
 41
1.0
 10
13.21644627204264
 20
0.2500613888753221
 30
0.0
 41
0.9198890619989323
 10
13.16103676480746
 20
0.2500452628226417
 30
0.0
 41
1.0
  0
SPLINE
  5
7D
330
1F
100
AcDbEntity
  8
2d
100
AcDbSpline
210
0.0
220
0.0
230
1.0
 70
    24
 71
     2
 72
     6
 73
     3
 74
     0
 42
0.0000000001
 43
0.0000000001
 40
-0.8548565604633627
 40
-0.8548565604633627
 40
-0.8548565604633627
 40
0.0
 40
0.0
 40
0.0
 10
13.16103676480746
 20
0.2500452628226417
 30
0.0
 10
12.73360848457577
 20
0.2500452628226418
 30
0.0
 10
12.30618020434409
 20
0.2500452628226419
 30
0.0
  0
SPLINE
  5
7E
330
1F
100
AcDbEntity
  8
2d
100
AcDbSpline
210
0.0
220
0.0
230
1.0
 70
     8
 71
     3
 72
     8
 73
     4
 74
     0
 42
0.0000000001
 43
0.0000000001
 40
0.0
 40
0.0
 40
0.0
 40
0.0
 40
1.0
 40
1.0
 40
1.0
 40
1.0
 10
12.30618020434409
 20
0.2500452628226419
 30
0.0
 10
12.23643322890956
 20
0.2500452628226419
 30
0.0
 10
12.18860330553392
 20
0.2850624813478402
 30
0.0
 10
12.17407575644602
 20
0.3521584118217689
 30
0.0
  0
SPLINE
  5
7F
330
1F
100
AcDbEntity
  8
2d
100
AcDbSpline
210
0.0
220
0.0
230
1.0
 70
     8
 71
     3
 72
    11
 73
     7
 74
     0
 42
0.0000000001
 43
0.0000000001
 40
0.0
 40
0.0
 40
0.0
 40
0.0
 40
1.0
 40
2.0
 40
3.0
 40
4.0
 40
4.0
 40
4.0
 40
4.0
 10
12.17407575644602
 20
0.3521584118217689
 30
0.0
 10
11.94813174350464
 20
1.375278128586137
 30
0.0
 10
11.59794325896652
 20
3.441210865971382
 30
0.0
 10
11.14785733691521
 20
6.551247795974757
 30
0.0
 10
10.71856262580253
 20
9.664241991673354
 30
0.0
 10
10.44276442431851
 20
11.74096937942529
 30
0.0
 10
10.30790955919935
 20
12.77973172077139
 30
0.0
  0
SPLINE
  5
80
330
1F
100
AcDbEntity
  8
2d
100
AcDbSpline
210
0.0
220
0.0
230
1.0
 70
    24
 71
     2
 72
     6
 73
     3
 74
     0
 42
0.0000000001
 43
0.0000000001
 40
0.0
 40
0.0
 40
0.0
 40
7.239455973819561
 40
7.239455973819561
 40
7.239455973819561
 10
-10.4788955362305
 20
11.47426083274596
 30
0.0
 10
-6.861794665653716
 20
11.30452618872428
 30
0.0
 10
-3.244693795076934
 20
11.1347915447026
 30
0.0
  0
SPLINE
  5
81
330
1F
100
AcDbEntity
  8
2d
100
AcDbSpline
210
0.0
220
0.0
230
1.0
 70
     8
 71
     3
 72
    11
 73
     7
 74
     0
 42
0.0000000001
 43
0.0000000001
 40
0.0
 40
0.0
 40
0.0
 40
0.0
 40
0.0315371224849762
 40
0.0713907270096986
 40
0.1682350013297474
 40
0.3924703792560809
 40
0.3924703792560809
 40
0.3924703792560809
 40
0.3924703792560809
 10
-3.244693795076934
 20
11.1347915447026
 30
0.0
 10
-3.23235101465966
 20
11.14011074414902
 30
0.0
 10
-3.212938827797156
 20
11.15411503873645
 30
0.0
 10
-3.174088664166248
 20
11.1948596209733
 30
0.0
 10
-3.111014277704292
 20
11.29829090296787
 30
0.0
 10
-3.08284508974603
 20
11.40312190041404
 30
0.0
 10
-3.072318318681006
 20
11.47699806780883
 30
0.0
  0
LINE
  5
82
330
1F
100
AcDbEntity
  8
2d
100
AcDbLine
 10
-10.78343254841629
 20
9.206501936310286
 30
0.0
 11
0.0
 21
8.69911794051956
 31
0.0
  0
LINE
  5
83
330
1F
100
AcDbEntity
  8
2d
100
AcDbLine
 10
0.0
 20
8.69911794051956
 30
0.0
 11
10.78343254841629
 21
9.206501936310286
 31
0.0
  0
SPLINE
  5
84
330
1F
100
AcDbEntity
  8
2d
100
AcDbSpline
210
0.0
220
0.0
230
1.0
 70
    24
 71
     2
 72
     6
 73
     3
 74
     0
 42
0.0000000001
 43
0.0000000001
 40
0.0
 40
0.0
 40
0.0
 40
7.239455973819561
 40
7.239455973819561
 40
7.239455973819561
 10
10.4788955362305
 20
11.47426083274596
 30
0.0
 10
6.861794665653716
 20
11.30452618872428
 30
0.0
 10
3.244693795076934
 20
11.1347915447026
 30
0.0
  0
SPLINE
  5
85
330
1F
100
AcDbEntity
  8
2d
100
AcDbSpline
210
0.0
220
0.0
230
1.0
 70
     8
 71
     3
 72
    11
 73
     7
 74
     0
 42
0.0000000001
 43
0.0000000001
 40
0.0
 40
0.0
 40
0.0
 40
0.0
 40
0.0315371224849762
 40
0.0713907270096986
 40
0.1682350013297474
 40
0.3924703792560809
 40
0.3924703792560809
 40
0.3924703792560809
 40
0.3924703792560809
 10
3.244693795076934
 20
11.1347915447026
 30
0.0
 10
3.23235101465966
 20
11.14011074414902
 30
0.0
 10
3.212938827797156
 20
11.15411503873645
 30
0.0
 10
3.174088664166248
 20
11.1948596209733
 30
0.0
 10
3.111014277704292
 20
11.29829090296787
 30
0.0
 10
3.08284508974603
 20
11.40312190041404
 30
0.0
 10
3.072318318681006
 20
11.47699806780883
 30
0.0
  0
SPLINE
  5
86
330
1F
100
AcDbEntity
  8
2d
100
AcDbSpline
210
0.0
220
0.0
230
1.0
 70
     8
 71
     3
 72
     8
 73
     4
 74
     0
 42
0.0000000001
 43
0.0000000001
 40
-1.0
 40
-1.0
 40
-1.0
 40
-1.0
 40
0.0
 40
0.0
 40
0.0
 40
0.0
 10
-11.83232305622149
 20
13.25170585761591
 30
0.0
 10
-11.43165909660158
 20
13.10437569050167
 30
0.0
 10
-10.72206919583736
 20
12.88362991078596
 30
0.0
 10
-10.30864487009333
 20
12.77717160600371
 30
0.0
  0
SPLINE
  5
87
330
1F
100
AcDbEntity
  8
2d
100
AcDbSpline
210
0.0
220
0.0
230
1.0
 70
    12
 71
     2
 72
     6
 73
     3
 74
     0
 42
0.0000000001
 43
0.0000000001
 40
-3.496379263941091
 40
-3.496379263941091
 40
-3.496379263941091
 40
0.0
 40
0.0
 40
0.0
 10
-10.30864487009333
 20
12.77717160600371
 30
0.0
 41
1.0
 10
-8.615636380921556
 20
12.34121560990983
 30
0.0
 41
0.9999586794756128
 10
-6.92857319987265
 20
11.87391722888954
 30
0.0
 41
1.0
  0
SPLINE
  5
88
330
1F
100
AcDbEntity
  8
2d
100
AcDbSpline
210
0.0
220
0.0
230
1.0
 70
     8
 71
     3
 72
    12
 73
     8
 74
     0
 42
0.0000000001
 43
0.0000000001
 40
0.0
 40
0.0
 40
0.0
 40
0.0
 40
0.5532937468633132
 40
1.112783129485146
 40
2.352715484907769
 40
3.545368674290542
 40
6.959293723128658
 40
6.959293723128658
 40
6.959293723128658
 40
6.959293723128658
 10
-6.92857319987265
 20
11.87391722888954
 30
0.0
 10
-6.748743633614582
 20
11.8237227931093
 30
0.0
 10
-6.38839179248448
 20
11.73422210569372
 30
0.0
 10
-5.616380455121092
 20
11.59555628233351
 30
0.0
 10
-4.622337141457255
 20
11.49718211275302
 30
0.0
 10
-2.673460555918265
 20
11.467204650681
 30
0.0
 10
-1.137995837543794
 20
11.47170105391285
 30
0.0
 10
0.0
 20
11.46910244158051
 30
0.0
  0
SPLINE
  5
89
330
1F
100
AcDbEntity
  8
2d
100
AcDbSpline
210
0.0
220
0.0
230
1.0
 70
     8
 71
     3
 72
    12
 73
     8
 74
     0
 42
0.0000000001
 43
0.0000000001
 40
-6.959293723128658
 40
-6.959293723128658
 40
-6.959293723128658
 40
-6.959293723128658
 40
-3.545368674290542
 40
-2.352715484907769
 40
-1.112783129485146
 40
-0.5532937468633132
 40
0.0
 40
0.0
 40
0.0
 40
0.0
 10
0.0
 20
11.46910244158051
 30
0.0
 10
1.137995837543794
 20
11.47170105391285
 30
0.0
 10
2.673460555918265
 20
11.467204650681
 30
0.0
 10
4.622337141457255
 20
11.49718211275302
 30
0.0
 10
5.616380455121092
 20
11.59555628233351
 30
0.0
 10
6.38839179248448
 20
11.73422210569372
 30
0.0
 10
6.748743633614582
 20
11.8237227931093
 30
0.0
 10
6.92857319987265
 20
11.87391722888954
 30
0.0
  0
SPLINE
  5
8A
330
1F
100
AcDbEntity
  8
2d
100
AcDbSpline
210
0.0
220
0.0
230
1.0
 70
    12
 71
     2
 72
     6
 73
     3
 74
     0
 42
0.0000000001
 43
0.0000000001
 40
0.0
 40
0.0
 40
0.0
 40
3.496379263941091
 40
3.496379263941091
 40
3.496379263941091
 10
6.92857319987265
 20
11.87391722888954
 30
0.0
 41
1.0
 10
8.615636380921556
 20
12.34121560990983
 30
0.0
 41
0.9999586794756128
 10
10.30864487009333
 20
12.77717160600371
 30
0.0
 41
1.0
  0
SPLINE
  5
8B
330
1F
100
AcDbEntity
  8
2d
100
AcDbSpline
210
0.0
220
0.0
230
1.0
 70
     8
 71
     3
 72
     8
 73
     4
 74
     0
 42
0.0000000001
 43
0.0000000001
 40
0.0
 40
0.0
 40
0.0
 40
0.0
 40
1.0
 40
1.0
 40
1.0
 40
1.0
 10
10.30864487009333
 20
12.77717160600371
 30
0.0
 10
10.72206919583736
 20
12.88362991078596
 30
0.0
 10
11.43165909660158
 20
13.10437569050167
 30
0.0
 10
11.83232305622149
 20
13.25170585761591
 30
0.0
  0
SPLINE
  5
8C
330
1F
100
AcDbEntity
  8
2d
100
AcDbSpline
210
0.0
220
0.0
230
1.0
 70
     8
 71
     3
 72
    32
 73
    28
 74
     0
 42
0.0000000001
 43
0.0000000001
 40
7.629035968659477
 40
7.629035968659477
 40
7.629035968659477
 40
7.629035968659477
 40
8.0
 40
9.0
 40
10.0
 40
11.0
 40
12.0
 40
13.0
 40
14.0
 40
15.0
 40
16.0
 40
17.0
 40
18.0
 40
19.0
 40
20.0
 40
21.0
 40
22.0
 40
23.0
 40
24.0
 40
25.0
 40
26.0
 40
27.0
 40
28.0
 40
29.0
 40
30.0
 40
31.0
 40
32.0
 40
32.0
 40
32.0
 40
32.0
 10
11.83232305622149
 20
13.25170585761591
 30
0.0
 10
12.01398604089384
 20
13.31850607073126
 30
0.0
 10
12.68026573574126
 20
13.57918029060982
 30
0.0
 10
13.79535613587725
 20
14.12026130952983
 30
0.0
 10
15.09959659810565
 20
14.99431187727932
 30
0.0
 10
16.24365970716478
 20
16.070341587933
 30
0.0
 10
17.20411519381619
 20
17.31173190374691
 30
0.0
 10
17.98870447651198
 20
18.66930106354852
 30
0.0
 10
18.62747695597498
 20
20.10044438502711
 30
0.0
 10
19.12437330068951
 20
21.58628680540401
 30
0.0
 10
19.50518220783555
 20
23.10578351298127
 30
0.0
 10
19.775432498541
 20
24.6479879418258
 30
0.0
 10
19.91485989621583
 20
26.21131747282355
 30
0.0
 10
19.66507130299114
 20
27.7801493920707
 30
0.0
 10
18.68987397166588
 20
29.08904416179637
 30
0.0
 10
17.19169942976351
 20
29.66066979034613
 30
0.0
 10
15.64052328688462
 20
29.86586131602291
 30
0.0
 10
14.07231681551587
 20
29.89204435225476
 30
0.0
 10
12.50994316430747
 20
29.79532258529323
 30
0.0
 10
10.94744695444668
 20
29.70233850755357
 30
0.0
 10
9.384919977698793
 20
29.60939438877624
 30
0.0
 10
7.821916571196901
 20
29.52485062730198
 30
0.0
 10
6.258516125531756
 20
29.44802304773905
 30
0.0
 10
4.69472312164029
 20
29.37969082773375
 30
0.0
 10
3.130397875187084
 20
29.32377760827886
 30
0.0
 10
1.565270474711296
 20
29.29772069278564
 30
0.0
 10
0.5217602479380388
 20
29.29229282896685
 30
0.0
 10
-0.00000000000027
 20
29.29105919995127
 30
0.0
  0
SPLINE
  5
8D
330
1F
100
AcDbEntity
  8
2d
100
AcDbSpline
210
0.0
220
0.0
230
1.0
 70
     8
 71
     3
 72
    32
 73
    28
 74
     0
 42
0.0000000001
 43
0.0000000001
 40
-32.0
 40
-32.0
 40
-32.0
 40
-32.0
 40
-31.0
 40
-30.0
 40
-29.0
 40
-28.0
 40
-27.0
 40
-26.0
 40
-25.0
 40
-24.0
 40
-23.0
 40
-22.0
 40
-21.0
 40
-20.0
 40
-19.0
 40
-18.0
 40
-17.0
 40
-16.0
 40
-15.0
 40
-14.0
 40
-13.0
 40
-12.0
 40
-11.0
 40
-10.0
 40
-9.0
 40
-8.0
 40
-7.629035968659477
 40
-7.629035968659477
 40
-7.629035968659477
 40
-7.629035968659477
 10
0.00000000000027
 20
29.29105919995127
 30
0.0
 10
-0.5217602479380388
 20
29.29229282896685
 30
0.0
 10
-1.565270474711296
 20
29.29772069278564
 30
0.0
 10
-3.130397875187084
 20
29.32377760827886
 30
0.0
 10
-4.69472312164029
 20
29.37969082773375
 30
0.0
 10
-6.258516125531756
 20
29.44802304773905
 30
0.0
 10
-7.821916571196901
 20
29.52485062730198
 30
0.0
 10
-9.384919977698793
 20
29.60939438877624
 30
0.0
 10
-10.94744695444668
 20
29.70233850755357
 30
0.0
 10
-12.50994316430747
 20
29.79532258529323
 30
0.0
 10
-14.07231681551587
 20
29.89204435225476
 30
0.0
 10
-15.64052328688462
 20
29.86586131602291
 30
0.0
 10
-17.19169942976351
 20
29.66066979034613
 30
0.0
 10
-18.68987397166588
 20
29.08904416179637
 30
0.0
 10
-19.66507130299114
 20
27.7801493920707
 30
0.0
 10
-19.91485989621583
 20
26.21131747282355
 30
0.0
 10
-19.775432498541
 20
24.6479879418258
 30
0.0
 10
-19.50518220783555
 20
23.10578351298127
 30
0.0
 10
-19.12437330068951
 20
21.58628680540401
 30
0.0
 10
-18.62747695597498
 20
20.10044438502711
 30
0.0
 10
-17.98870447651198
 20
18.66930106354852
 30
0.0
 10
-17.20411519381619
 20
17.31173190374691
 30
0.0
 10
-16.24365970716478
 20
16.070341587933
 30
0.0
 10
-15.09959659810565
 20
14.99431187727932
 30
0.0
 10
-13.79535613587725
 20
14.12026130952983
 30
0.0
 10
-12.68026573574126
 20
13.57918029060982
 30
0.0
 10
-12.01398604089384
 20
13.31850607073126
 30
0.0
 10
-11.83232305622149
 20
13.25170585761591
 30
0.0
  0
SPLINE
  5
8E
330
1F
100
AcDbEntity
  8
2d
100
AcDbSpline
210
0.0
220
0.0
230
1.0
 70
     8
 71
     3
 72
    15
 73
    11
 74
     0
 42
0.0000000001
 43
0.0000000001
 40
0.0
 40
0.0
 40
0.0
 40
0.0
 40
1.0
 40
2.0
 40
3.0
 40
4.0
 40
5.0
 40
6.0
 40
7.0
 40
8.0
 40
8.0
 40
8.0
 40
8.0
 10
18.04224536297887
 20
18.92097585149603
 30
0.0
 10
17.66505029953883
 20
18.17524254803402
 30
0.0
 10
16.77224370363925
 20
16.7437396397273
 30
0.0
 10
14.86084115737683
 20
15.06695633769882
 30
0.0
 10
12.53341579591997
 20
14.05901592558769
 30
0.0
 10
10.03391442942115
 20
13.71391561803452
 30
0.0
 10
7.529489943932557
 20
13.57822373203413
 30
0.0
 10
5.019335336772719
 20
13.5319161910271
 30
0.0
 10
2.509814029384196
 20
13.51160834605226
 30
0.0
 10
0.8365908391390496
 20
13.50119702991649
 30
0.0
 10
0.0000000000000071
 20
13.50004526256361
 30
0.0
  0
SPLINE
  5
8F
330
1F
100
AcDbEntity
  8
2d
100
AcDbSpline
210
0.0
220
0.0
230
1.0
 70
     8
 71
     3
 72
    15
 73
    11
 74
     0
 42
0.0000000001
 43
0.0000000001
 40
-8.0
 40
-8.0
 40
-8.0
 40
-8.0
 40
-7.0
 40
-6.0
 40
-5.0
 40
-4.0
 40
-3.0
 40
-2.0
 40
-1.0
 40
0.0
 40
0.0
 40
0.0
 40
0.0
 10
0.0000000000000071
 20
13.50004526256361
 30
0.0
 10
-0.8365908391390354
 20
13.50119702991648
 30
0.0
 10
-2.509814029384181
 20
13.51160834605224
 30
0.0
 10
-5.019335336772705
 20
13.53191619102706
 30
0.0
 10
-7.529489943932544
 20
13.57822373203406
 30
0.0
 10
-10.03391442942113
 20
13.71391561803444
 30
0.0
 10
-12.53341579591996
 20
14.05901592558759
 30
0.0
 10
-14.86084115737683
 20
15.06695633769869
 30
0.0
 10
-16.77224370363926
 20
16.74373963972716
 30
0.0
 10
-17.66505029953885
 20
18.17524254803387
 30
0.0
 10
-18.04224536297891
 20
18.92097585149588
 30
0.0
  0
SPLINE
  5
90
330
1F
100
AcDbEntity
  8
2d
100
AcDbSpline
210
0.0
220
0.0
230
1.0
 70
     8
 71
     3
 72
    12
 73
     8
 74
     0
 42
0.0000000001
 43
0.0000000001
 40
0.0
 40
0.0
 40
0.0
 40
0.0
 40
1.0
 40
2.0
 40
3.0
 40
4.0
 40
5.0
 40
5.0
 40
5.0
 40
5.0
 10
13.57308259189359
 20
18.28282427365945
 30
0.0
 10
12.83442191168759
 20
17.71391485093498
 30
0.0
 10
11.05359071483994
 20
17.1269081799231
 30
0.0
 10
8.30810227738319
 20
16.78010210254416
 30
0.0
 10
5.537285483760343
 20
16.68457332219405
 30
0.0
 10
2.769630836052261
 20
16.61299937616265
 30
0.0
 10
0.9230895687945522
 20
16.59657348904613
 30
0.0
 10
-0.0000013944840873
 20
16.59827900699944
 30
0.0
  0
SPLINE
  5
91
330
1F
100
AcDbEntity
  8
2d
100
AcDbSpline
210
0.0
220
0.0
230
1.0
 70
     8
 71
     3
 72
    12
 73
     8
 74
     0
 42
0.0000000001
 43
0.0000000001
 40
-5.0
 40
-5.0
 40
-5.0
 40
-5.0
 40
-4.0
 40
-3.0
 40
-2.0
 40
-1.0
 40
0.0
 40
0.0
 40
0.0
 40
0.0
 10
-0.0000013944840873
 20
16.59827900699944
 30
0.0
 10
-0.9230923577627268
 20
16.59657348904613
 30
0.0
 10
-2.769633625020436
 20
16.61299937616265
 30
0.0
 10
-5.537288272728517
 20
16.68457332219405
 30
0.0
 10
-8.308105066351365
 20
16.78010210254416
 30
0.0
 10
-11.05359350380811
 20
17.1269081799231
 30
0.0
 10
-12.83442470065577
 20
17.71391485093498
 30
0.0
 10
-13.57308538086177
 20
18.28282427365945
 30
0.0
  0
SPLINE
  5
92
330
1F
100
AcDbEntity
  8
2d
100
AcDbSpline
210
0.0
220
0.0
230
1.0
 70
     8
 71
     3
 72
    11
 73
     7
 74
     0
 42
0.0000000001
 43
0.0000000001
 40
0.0
 40
0.0
 40
0.0
 40
0.0
 40
1.945845117862335
 40
3.40416874598845
 40
5.954212501693674
 40
8.86022564290839
 40
8.86022564290839
 40
8.86022564290839
 40
8.86022564290839
 10
-6.572328619240587
 20
9.008360315256866
 30
0.0
 10
-6.739964392513262
 20
8.38168824991098
 30
0.0
 10
-7.028214517984562
 20
7.284467190714092
 30
0.0
 10
-7.532317299312663
 20
5.364331103475434
 30
0.0
 10
-8.085787089929267
 20
3.127748053531676
 30
0.0
 10
-8.505710021687227
 20
1.356795857004026
 30
0.0
 10
-8.645702536523793
 20
0.3976125672629122
 30
0.0
  0
SPLINE
  5
93
330
1F
100
AcDbEntity
  8
2d
100
AcDbSpline
210
0.0
220
0.0
230
1.0
 70
    12
 71
     2
 72
     8
 73
     5
 74
     0
 42
0.0000000001
 43
0.0000000001
 40
0.0
 40
0.0
 40
0.0
 40
0.1109050478174682
 40
0.1109050478174682
 40
0.2218100956349365
 40
0.2218100956349365
 40
0.2218100956349365
 10
-8.645702536523793
 20
0.3976125672629122
 30
0.0
 41
1.0
 10
-8.653689536502931
 20
0.3390745601984971
 30
0.0
 41
0.9103866375119865
 10
-8.614841621809083
 20
0.2945624274291148
 30
0.0
 41
1.0
 10
-8.575993707115233
 20
0.2500502946597324
 30
0.0
 41
0.9103866375119865
 10
-8.516913334617929
 20
0.2500452628226414
 30
0.0
 41
1.0
  0
SPLINE
  5
94
330
1F
100
AcDbEntity
  8
2d
100
AcDbSpline
210
0.0
220
0.0
230
1.0
 70
    24
 71
     2
 72
     6
 73
     3
 74
     0
 42
0.0000000001
 43
0.0000000001
 40
0.0
 40
0.0
 40
0.0
 40
0.8492409694485481
 40
0.8492409694485481
 40
0.8492409694485481
 10
-8.516913334617929
 20
0.2500452628226414
 30
0.0
 10
-8.090802723467537
 20
0.2500452628235961
 30
0.0
 10
-7.664692112317143
 20
0.2500452628245509
 30
0.0
  0
SPLINE
  5
95
330
1F
100
AcDbEntity
  8
2d
100
AcDbSpline
210
0.0
220
0.0
230
1.0
 70
    12
 71
     2
 72
     6
 73
     3
 74
     0
 42
0.0000000001
 43
0.0000000001
 40
-0.1501407907802203
 40
-0.1501407907802203
 40
-0.1501407907802203
 40
0.0
 40
0.0
 40
0.0
 10
-7.664692112317143
 20
0.2500452628245509
 30
0.0
 41
1.0
 10
-7.576880565223295
 20
0.2498466601038861
 30
0.0
 41
0.8360114232981763
 10
-7.541312702292462
 20
0.3302875933625613
 30
0.0
 41
1.0
  0
SPLINE
  5
96
330
1F
100
AcDbEntity
  8
2d
100
AcDbSpline
210
0.0
220
0.0
230
1.0
 70
     8
 71
     3
 72
    12
 73
     8
 74
     0
 42
0.0000000001
 43
0.0000000001
 40
-8.486179649476922
 40
-8.486179649476922
 40
-8.486179649476922
 40
-8.486179649476922
 40
-7.35025319352689
 40
-5.570312816809815
 40
-3.134737650023672
 40
-1.759900647564105
 40
0.0
 40
0.0
 40
0.0
 40
0.0
 10
-7.541312702292462
 20
0.3302875933625613
 30
0.0
 10
-7.40003567633314
 20
0.6850493656326896
 30
0.0
 10
-7.083071980467846
 20
1.604108475388592
 30
0.0
 10
-6.562917740580218
 20
3.310549013746833
 30
0.0
 10
-6.040271629644336
 20
5.099168637125095
 30
0.0
 10
-5.538261519588128
 20
6.886854555962747
 30
0.0
 10
-5.257661508188827
 20
7.893347746075267
 30
0.0
 10
-5.101693706282882
 20
8.458882176229727
 30
0.0
  0
SPLINE
  5
97
330
1F
100
AcDbEntity
  8
2d
100
AcDbSpline
210
0.0
220
0.0
230
1.0
 70
     8
 71
     3
 72
    13
 73
     9
 74
     0
 42
0.0000000001
 43
0.0000000001
 40
-6.0
 40
-6.0
 40
-6.0
 40
-6.0
 40
-5.0
 40
-4.0
 40
-3.0
 40
-2.0
 40
-1.0
 40
0.0
 40
0.0
 40
0.0
 40
0.0
 10
-11.83241901419438
 20
13.25144490018859
 30
0.0
 10
-11.92856528374308
 20
12.53835955142331
 30
0.0
 10
-12.11771405909721
 20
11.11176772514735
 30
0.0
 10
-12.39267327256799
 20
8.970729943110886
 30
0.0
 10
-12.65729508768107
 20
6.828402087473626
 30
0.0
 10
-12.91717561509392
 20
4.685467493298557
 30
0.0
 10
-13.15147533596051
 20
2.539562928062912
 30
0.0
 10
-13.2658568915663
 20
1.104638733715113
 30
0.0
 10
-13.2908548968508
 20
0.385403874019584
 30
0.0
  0
SPLINE
  5
98
330
1F
100
AcDbEntity
  8
2d
100
AcDbSpline
210
0.0
220
0.0
230
1.0
 70
    12
 71
     2
 72
     8
 73
     5
 74
     0
 42
0.0000000001
 43
0.0000000001
 40
0.0
 40
0.0
 40
0.0
 40
0.1047537422594865
 40
0.1047537422594865
 40
0.209507484518973
 40
0.209507484518973
 40
0.209507484518973
 10
-13.2908548968508
 20
0.385403874019584
 30
0.0
 41
1.0
 10
-13.29315317533302
 20
0.3300420490125148
 30
0.0
 41
0.9198890619989323
 10
-13.25479972368782
 20
0.2900517189439184
 30
0.0
 41
1.0
 10
-13.21644627204264
 20
0.2500613888753221
 30
0.0
 41
0.9198890619989323
 10
-13.16103676480746
 20
0.2500452628226417
 30
0.0
 41
1.0
  0
SPLINE
  5
99
330
1F
100
AcDbEntity
  8
2d
100
AcDbSpline
210
0.0
220
0.0
230
1.0
 70
    24
 71
     2
 72
     6
 73
     3
 74
     0
 42
0.0000000001
 43
0.0000000001
 40
-0.8548565604633627
 40
-0.8548565604633627
 40
-0.8548565604633627
 40
0.0
 40
0.0
 40
0.0
 10
-13.16103676480746
 20
0.2500452628226417
 30
0.0
 10
-12.73360848457577
 20
0.2500452628226418
 30
0.0
 10
-12.30618020434409
 20
0.2500452628226419
 30
0.0
  0
SPLINE
  5
9A
330
1F
100
AcDbEntity
  8
2d
100
AcDbSpline
210
0.0
220
0.0
230
1.0
 70
     8
 71
     3
 72
     8
 73
     4
 74
     0
 42
0.0000000001
 43
0.0000000001
 40
0.0
 40
0.0
 40
0.0
 40
0.0
 40
1.0
 40
1.0
 40
1.0
 40
1.0
 10
-12.30618020434409
 20
0.2500452628226419
 30
0.0
 10
-12.23643322890956
 20
0.2500452628226419
 30
0.0
 10
-12.18860330553392
 20
0.2850624813478402
 30
0.0
 10
-12.17407575644602
 20
0.3521584118217689
 30
0.0
  0
SPLINE
  5
9B
330
1F
100
AcDbEntity
  8
2d
100
AcDbSpline
210
0.0
220
0.0
230
1.0
 70
     8
 71
     3
 72
    11
 73
     7
 74
     0
 42
0.0000000001
 43
0.0000000001
 40
0.0
 40
0.0
 40
0.0
 40
0.0
 40
1.0
 40
2.0
 40
3.0
 40
4.0
 40
4.0
 40
4.0
 40
4.0
 10
-12.17407575644602
 20
0.3521584118217689
 30
0.0
 10
-11.94813174350464
 20
1.375278128586137
 30
0.0
 10
-11.59794325896652
 20
3.441210865971382
 30
0.0
 10
-11.14785733691521
 20
6.551247795974757
 30
0.0
 10
-10.71856262580253
 20
9.664241991673354
 30
0.0
 10
-10.44276442431851
 20
11.74096937942529
 30
0.0
 10
-10.30790955919935
 20
12.77973172077139
 30
0.0
  0
ENDSEC
  0
SECTION
  2
OBJECTS
  0
DICTIONARY
  5
C
330
0
100
AcDbDictionary
281
     1
  3
ACAD_GROUP
350
D
  3
ACAD_LAYOUT
350
1A
  3
ACAD_MLEADERSTYLE
350
9D
  3
ACAD_MLINESTYLE
350
17
  3
ACAD_PLOTSETTINGS
350
19
  3
ACAD_PLOTSTYLENAME
350
E
  3
ACAD_TABLESTYLE
350
9C
  3
ACAD_VISUALSTYLE
350
2A
  0
DICTIONARY
  5
D
102
{ACAD_REACTORS
330
C
102
}
330
C
100
AcDbDictionary
281
     1
  0
DICTIONARY
  5
1A
102
{ACAD_REACTORS
330
C
102
}
330
C
100
AcDbDictionary
281
     1
  3
Layout1
350
1E
  3
Layout2
350
26
  3
Model
350
22
  0
DICTIONARY
  5
9D
102
{ACAD_REACTORS
330
C
102
}
330
C
100
AcDbDictionary
281
     1
  0
DICTIONARY
  5
17
102
{ACAD_REACTORS
330
C
102
}
330
C
100
AcDbDictionary
281
     1
  3
Standard
350
18
  0
DICTIONARY
  5
19
102
{ACAD_REACTORS
330
C
102
}
330
C
100
AcDbDictionary
281
     1
  0
ACDBDICTIONARYWDFLT
  5
E
102
{ACAD_REACTORS
330
C
102
}
330
C
100
AcDbDictionary
281
     1
  3
Normal
350
F
100
AcDbDictionaryWithDefault
340
F
  0
DICTIONARY
  5
9C
102
{ACAD_REACTORS
330
C
102
}
330
C
100
AcDbDictionary
281
     1
  0
DICTIONARY
  5
2A
102
{ACAD_REACTORS
330
C
102
}
330
C
100
AcDbDictionary
281
     1
  3
2dWireframe
350
2F
  3
3D Hidden
350
31
  3
3dWireframe
350
30
  3
Basic
350
32
  3
Brighten
350
36
  3
ColorChange
350
3A
  3
Conceptual
350
34
  3
Dim
350
35
  3
Facepattern
350
39
  3
Flat
350
2B
  3
FlatWithEdges
350
2C
  3
Gouraud
350
2D
  3
GouraudWithEdges
350
2E
  3
Linepattern
350
38
  3
Realistic
350
33
  3
Thicken
350
37
  0
LAYOUT
  5
1E
102
{ACAD_REACTORS
330
1A
102
}
330
1A
100
AcDbPlotSettings
  1

  2
none_device
  4

  6

 40
0.0
 41
0.0
 42
0.0
 43
0.0
 44
0.0
 45
0.0
 46
0.0
 47
0.0
 48
0.0
 49
0.0
140
0.0
141
0.0
142
1.0
143
1.0
 70
   688
 72
     0
 73
     0
 74
     5
  7

 75
    16
 76
     0
 77
     2
 78
   300
147
1.0
148
0.0
149
0.0
100
AcDbLayout
  1
Layout1
 70
     1
 71
     1
 10
0.0
 20
0.0
 11
12.0
 21
9.0
 12
0.0
 22
0.0
 32
0.0
 14
1.000000000000000E+20
 24
1.000000000000000E+20
 34
1.000000000000000E+20
 15
-1.000000000000000E+20
 25
-1.000000000000000E+20
 35
-1.000000000000000E+20
146
0.0
 13
0.0
 23
0.0
 33
0.0
 16
1.0
 26
0.0
 36
0.0
 17
0.0
 27
1.0
 37
0.0
 76
     0
330
1B
  0
LAYOUT
  5
26
102
{ACAD_REACTORS
330
1A
102
}
330
1A
100
AcDbPlotSettings
  1

  2
none_device
  4

  6

 40
0.0
 41
0.0
 42
0.0
 43
0.0
 44
0.0
 45
0.0
 46
0.0
 47
0.0
 48
0.0
 49
0.0
140
0.0
141
0.0
142
1.0
143
1.0
 70
   688
 72
     0
 73
     0
 74
     5
  7

 75
    16
 76
     0
 77
     2
 78
   300
147
1.0
148
0.0
149
0.0
100
AcDbLayout
  1
Layout2
 70
     1
 71
     2
 10
0.0
 20
0.0
 11
0.0
 21
0.0
 12
0.0
 22
0.0
 32
0.0
 14
0.0
 24
0.0
 34
0.0
 15
0.0
 25
0.0
 35
0.0
146
0.0
 13
0.0
 23
0.0
 33
0.0
 16
1.0
 26
0.0
 36
0.0
 17
0.0
 27
1.0
 37
0.0
 76
     0
330
23
  0
LAYOUT
  5
22
102
{ACAD_REACTORS
330
1A
102
}
330
1A
100
AcDbPlotSettings
  1

  2
none_device
  4

  6

 40
0.0
 41
0.0
 42
0.0
 43
0.0
 44
0.0
 45
0.0
 46
0.0
 47
0.0
 48
0.0
 49
0.0
140
0.0
141
0.0
142
1.0
143
1.0
 70
  1712
 72
     0
 73
     0
 74
     0
  7

 75
     0
 76
     0
 77
     2
 78
   300
147
1.0
148
0.0
149
0.0
100
AcDbLayout
  1
Model
 70
     1
 71
     0
 10
0.0
 20
0.0
 11
12.0
 21
9.0
 12
0.0
 22
0.0
 32
0.0
 14
-19.84999056439925
 24
0.0000000433810285
 34
0.0
 15
60.58215588483574
 25
71.67241418286989
 35
0.0
146
0.0
 13
0.0
 23
0.0
 33
0.0
 16
1.0
 26
0.0
 36
0.0
 17
0.0
 27
1.0
 37
0.0
 76
     0
330
1F
331
29
  0
MLINESTYLE
  5
18
102
{ACAD_REACTORS
330
17
102
}
330
17
100
AcDbMlineStyle
  2
Standard
 70
     0
  3

 62
   256
 51
90.0
 52
90.0
 71
     2
 49
0.5
 62
   256
  6
BYLAYER
 49
-0.5
 62
   256
  6
BYLAYER
  0
ACDBPLACEHOLDER
  5
F
102
{ACAD_REACTORS
330
E
102
}
330
E
  0
VISUALSTYLE
  5
2F
102
{ACAD_REACTORS
330
2A
102
}
330
2A
100
AcDbVisualStyle
  2
2dWireframe
 70
     4
 71
     0
 72
     2
 73
     0
 90
        0
 40
-0.6
 41
-30.0
 62
     5
 63
     7
421
 16777215
 74
     1
 91
        4
 64
     7
 65
   257
 75
     1
175
     1
 42
1.0
 92
        0
 66
   257
 43
1.0
 76
     1
 77
     6
 78
     2
 67
     7
 79
     5
170
     0
171
     0
290
     0
174
     0
 93
        1
 44
0.0
173
     0
291
     0
 45
0.0
1001
ACAD
1000
AcDbSavedByObjectVersion
1070
     0
  0
VISUALSTYLE
  5
31
102
{ACAD_REACTORS
330
2A
102
}
330
2A
100
AcDbVisualStyle
  2
3D Hidden
 70
     6
 71
     1
 72
     2
 73
     2
 90
        0
 40
-0.6
 41
-30.0
 62
     5
 63
     7
421
 16777215
 74
     2
 91
        2
 64
     7
 65
   257
 75
     2
175
     1
 42
40.0
 92
        0
 66
   257
 43
1.0
 76
     1
 77
     6
 78
     2
 67
     7
 79
     3
170
     0
171
     0
290
     0
174
     0
 93
        1
 44
0.0
173
     0
291
     0
 45
0.0
1001
ACAD
1000
AcDbSavedByObjectVersion
1070
     0
  0
VISUALSTYLE
  5
30
102
{ACAD_REACTORS
330
2A
102
}
330
2A
100
AcDbVisualStyle
  2
3dWireframe
 70
     5
 71
     0
 72
     2
 73
     0
 90
        0
 40
-0.6
 41
-30.0
 62
     5
 63
     7
421
 16777215
 74
     1
 91
        4
 64
     7
 65
   257
 75
     1
175
     1
 42
1.0
 92
        0
 66
   257
 43
1.0
 76
     1
 77
     6
 78
     2
 67
     7
 79
     5
170
     0
171
     0
290
     0
174
     0
 93
        1
 44
0.0
173
     0
291
     0
 45
0.0
1001
ACAD
1000
AcDbSavedByObjectVersion
1070
     0
  0
VISUALSTYLE
  5
32
102
{ACAD_REACTORS
330
2A
102
}
330
2A
100
AcDbVisualStyle
  2
Basic
 70
     7
 71
     1
 72
     0
 73
     1
 90
        0
 40
-0.6
 41
-30.0
 62
     5
 63
     7
421
 16777215
 74
     0
 91
        4
 64
     7
 65
   257
 75
     1
175
     1
 42
1.0
 92
        8
 66
     7
 43
1.0
 76
     1
 77
     6
 78
     2
 67
     7
 79
     5
170
     0
171
     0
290
     0
174
     0
 93
        1
 44
0.0
173
     0
291
     1
 45
0.0
1001
ACAD
1000
AcDbSavedByObjectVersion
1070
     0
  0
VISUALSTYLE
  5
36
102
{ACAD_REACTORS
330
2A
102
}
330
2A
100
AcDbVisualStyle
  2
Brighten
 70
    12
 71
     2
 72
     2
 73
     0
 90
        0
 40
-0.6
 41
-30.0
 62
     5
 63
     7
421
 16777215
 74
     1
 91
        4
 64
     7
 65
   257
 75
     1
175
     1
 42
1.0
 92
        8
 66
     7
 43
1.0
 76
     1
 77
     6
 78
     2
 67
     7
 79
     5
170
     0
171
     0
290
     0
174
     0
 93
        1
 44
50.0
173
     0
291
     1
 45
0.0
1001
ACAD
1000
AcDbSavedByObjectVersion
1070
     0
  0
VISUALSTYLE
  5
3A
102
{ACAD_REACTORS
330
2A
102
}
330
2A
100
AcDbVisualStyle
  2
ColorChange
 70
    16
 71
     2
 72
     2
 73
     3
 90
        0
 40
-0.6
 41
-30.0
 62
     5
 63
     8
421
  8421504
 74
     1
 91
        4
 64
     7
 65
   257
 75
     1
175
     1
 42
1.0
 92
        8
 66
     8
424
  8421504
 43
1.0
 76
     1
 77
     6
 78
     2
 67
     7
 79
     5
170
     0
171
     0
290
     0
174
     0
 93
        1
 44
0.0
173
     0
291
     1
 45
0.0
1001
ACAD
1000
AcDbSavedByObjectVersion
1070
     0
  0
VISUALSTYLE
  5
34
102
{ACAD_REACTORS
330
2A
102
}
330
2A
100
AcDbVisualStyle
  2
Conceptual
 70
     9
 71
     3
 72
     2
 73
     0
 90
        0
 40
-0.6
 41
-30.0
 62
     5
 63
     7
421
 16777215
 74
     2
 91
        2
 64
     7
 65
   257
 75
     1
175
     1
 42
40.0
 92
        8
 66
     7
 43
1.0
 76
     1
 77
     6
 78
     2
 67
     7
 79
     3
170
     0
171
     0
290
     0
174
     0
 93
        1
 44
0.0
173
     0
291
     0
 45
0.0
1001
ACAD
1000
AcDbSavedByObjectVersion
1070
     0
  0
VISUALSTYLE
  5
35
102
{ACAD_REACTORS
330
2A
102
}
330
2A
100
AcDbVisualStyle
  2
Dim
 70
    11
 71
     2
 72
     2
 73
     0
 90
        0
 40
-0.6
 41
-30.0
 62
     5
 63
     7
421
 16777215
 74
     1
 91
        4
 64
     7
 65
   257
 75
     1
175
     1
 42
1.0
 92
        8
 66
     7
 43
1.0
 76
     1
 77
     6
 78
     2
 67
     7
 79
     5
170
     0
171
     0
290
     0
174
     0
 93
        1
 44
-50.0
173
     0
291
     1
 45
0.0
1001
ACAD
1000
AcDbSavedByObjectVersion
1070
     0
  0
VISUALSTYLE
  5
39
102
{ACAD_REACTORS
330
2A
102
}
330
2A
100
AcDbVisualStyle
  2
Facepattern
 70
    15
 71
     2
 72
     2
 73
     0
 90
        0
 40
-0.6
 41
-30.0
 62
     5
 63
     7
421
 16777215
 74
     1
 91
        4
 64
     7
 65
   257
 75
     1
175
     1
 42
1.0
 92
        8
 66
     7
 43
1.0
 76
     1
 77
     6
 78
     2
 67
     7
 79
     5
170
     0
171
     0
290
     0
174
     0
 93
        1
 44
0.0
173
     0
291
     1
 45
0.0
1001
ACAD
1000
AcDbSavedByObjectVersion
1070
     0
  0
VISUALSTYLE
  5
2B
102
{ACAD_REACTORS
330
2A
102
}
330
2A
100
AcDbVisualStyle
  2
Flat
 70
     0
 71
     2
 72
     1
 73
     1
 90
        2
 40
-0.6
 41
30.0
 62
     5
 63
     7
421
 16777215
 74
     0
 91
        4
 64
     7
 65
   257
 75
     1
175
     1
 42
1.0
 92
        8
 66
     7
 43
1.0
 76
     1
 77
     6
 78
     2
 67
     7
 79
     5
170
     0
171
     0
290
     0
174
     0
 93
       13
 44
0.0
173
     0
291
     1
 45
0.0
1001
ACAD
1000
AcDbSavedByObjectVersion
1070
     0
  0
VISUALSTYLE
  5
2C
102
{ACAD_REACTORS
330
2A
102
}
330
2A
100
AcDbVisualStyle
  2
FlatWithEdges
 70
     1
 71
     2
 72
     1
 73
     1
 90
        2
 40
-0.6
 41
30.0
 62
     5
 63
     7
421
 16777215
 74
     1
 91
        4
 64
     7
 65
   257
 75
     1
175
     1
 42
1.0
 92
        0
 66
   257
 43
1.0
 76
     1
 77
     6
 78
     2
 67
     7
 79
     5
170
     0
171
     0
290
     0
174
     0
 93
       13
 44
0.0
173
     0
291
     1
 45
0.0
1001
ACAD
1000
AcDbSavedByObjectVersion
1070
     0
  0
VISUALSTYLE
  5
2D
102
{ACAD_REACTORS
330
2A
102
}
330
2A
100
AcDbVisualStyle
  2
Gouraud
 70
     2
 71
     2
 72
     2
 73
     1
 90
        2
 40
-0.6
 41
30.0
 62
     5
 63
     7
421
 16777215
 74
     0
 91
        4
 64
     7
 65
   257
 75
     1
175
     1
 42
1.0
 92
        0
 66
     7
 43
1.0
 76
     1
 77
     6
 78
     2
 67
     7
 79
     5
170
     0
171
     0
290
     0
174
     0
 93
       13
 44
0.0
173
     0
291
     1
 45
0.0
1001
ACAD
1000
AcDbSavedByObjectVersion
1070
     0
  0
VISUALSTYLE
  5
2E
102
{ACAD_REACTORS
330
2A
102
}
330
2A
100
AcDbVisualStyle
  2
GouraudWithEdges
 70
     3
 71
     2
 72
     2
 73
     1
 90
        2
 40
-0.6
 41
30.0
 62
     5
 63
     7
421
 16777215
 74
     1
 91
        4
 64
     7
 65
   257
 75
     1
175
     1
 42
1.0
 92
        0
 66
   257
 43
1.0
 76
     1
 77
     6
 78
     2
 67
     7
 79
     5
170
     0
171
     0
290
     0
174
     0
 93
       13
 44
0.0
173
     0
291
     1
 45
0.0
1001
ACAD
1000
AcDbSavedByObjectVersion
1070
     0
  0
VISUALSTYLE
  5
38
102
{ACAD_REACTORS
330
2A
102
}
330
2A
100
AcDbVisualStyle
  2
Linepattern
 70
    14
 71
     2
 72
     2
 73
     0
 90
        0
 40
-0.6
 41
-30.0
 62
     5
 63
     7
421
 16777215
 74
     1
 91
        4
 64
     7
 65
   257
 75
     7
175
     7
 42
1.0
 92
        8
 66
     7
 43
1.0
 76
     1
 77
     6
 78
     2
 67
     7
 79
     5
170
     0
171
     0
290
     0
174
     0
 93
        1
 44
0.0
173
     0
291
     1
 45
0.0
1001
ACAD
1000
AcDbSavedByObjectVersion
1070
     0
  0
VISUALSTYLE
  5
33
102
{ACAD_REACTORS
330
2A
102
}
330
2A
100
AcDbVisualStyle
  2
Realistic
 70
     8
 71
     2
 72
     2
 73
     0
 90
        0
 40
-0.6
 41
-30.0
 62
     5
 63
     7
421
 16777215
 74
     1
 91
        0
 64
     7
 65
   257
 75
     1
175
     1
 42
1.0
 92
        8
 66
     8
424
  7895160
 43
1.0
 76
     1
 77
     6
 78
     2
 67
     7
 79
     5
170
     0
171
     0
290
     0
174
     0
 93
       13
 44
0.0
173
     0
291
     0
 45
0.0
1001
ACAD
1000
AcDbSavedByObjectVersion
1070
     0
  0
VISUALSTYLE
  5
37
102
{ACAD_REACTORS
330
2A
102
}
330
2A
100
AcDbVisualStyle
  2
Thicken
 70
    13
 71
     2
 72
     2
 73
     0
 90
        0
 40
-0.6
 41
-30.0
 62
     5
 63
     7
421
 16777215
 74
     1
 91
        4
 64
     7
 65
   257
 75
     1
175
     1
 42
1.0
 92
       12
 66
     7
 43
1.0
 76
     1
 77
     6
 78
     2
 67
     7
 79
     5
170
     0
171
     0
290
     0
174
     0
 93
        1
 44
0.0
173
     0
291
     1
 45
0.0
1001
ACAD
1000
AcDbSavedByObjectVersion
1070
     0
  0
ENDSEC
  0
EOF
