  0
SECTION
  2
HEADER
  9
$ACADVER
  1
AC1018
  9
$ACADMAINTVER
 70
     0
  9
$DWGCODEPAGE
  3
ANSI_1252
  9
$INSBASE
 10
0.0
 20
0.0
 30
0.0
  9
$EXTMIN
 10
-13.41000108012884
 20
-0.0000000000000018
 30
0.0
  9
$EXTMAX
 10
48.94977982738381
 20
71.54478460618998
 30
0.0
  9
$LIMMIN
 10
0.0
 20
0.0
  9
$LIMMAX
 10
12.0
 20
9.0
  9
$ORTHOMODE
 70
     0
  9
$REGENMODE
 70
     1
  9
$FILLMODE
 70
     1
  9
$QTEXTMODE
 70
     0
  9
$MIRRTEXT
 70
     1
  9
$LTSCALE
 40
0.0393700787401575
  9
$ATTMODE
 70
     1
  9
$TEXTSIZE
 40
0.2
  9
$TRACEWID
 40
0.05
  9
$TEXTSTYLE
  7
Standard
  9
$CLAYER
  8
Default
  9
$CELTYPE
  6
ByLayer
  9
$CECOLOR
 62
   256
  9
$CELTSCALE
 40
1.0
  9
$DISPSILH
 70
     0
  9
$DIMSCALE
 40
1.0
  9
$DIMASZ
 40
0.18
  9
$DIMEXO
 40
0.0625
  9
$DIMDLI
 40
0.38
  9
$DIMRND
 40
0.0
  9
$DIMDLE
 40
0.0
  9
$DIMEXE
 40
0.18
  9
$DIMTP
 40
0.0
  9
$DIMTM
 40
0.0
  9
$DIMTXT
 40
0.18
  9
$DIMCEN
 40
0.09
  9
$DIMTSZ
 40
0.0
  9
$DIMTOL
 70
     0
  9
$DIMLIM
 70
     0
  9
$DIMTIH
 70
     1
  9
$DIMTOH
 70
     1
  9
$DIMSE1
 70
     0
  9
$DIMSE2
 70
     0
  9
$DIMTAD
 70
     0
  9
$DIMZIN
 70
     0
  9
$DIMBLK
  1

  9
$DIMASO
 70
     1
  9
$DIMSHO
 70
     1
  9
$DIMPOST
  1

  9
$DIMAPOST
  1

  9
$DIMALT
 70
     0
  9
$DIMALTD
 70
     2
  9
$DIMALTF
 40
25.4
  9
$DIMLFAC
 40
1.0
  9
$DIMTOFL
 70
     0
  9
$DIMTVP
 40
0.0
  9
$DIMTIX
 70
     0
  9
$DIMSOXD
 70
     0
  9
$DIMSAH
 70
     0
  9
$DIMBLK1
  1

  9
$DIMBLK2
  1

  9
$DIMSTYLE
  2
Standard
  9
$DIMCLRD
 70
     0
  9
$DIMCLRE
 70
     0
  9
$DIMCLRT
 70
     0
  9
$DIMTFAC
 40
1.0
  9
$DIMGAP
 40
0.09
  9
$DIMJUST
 70
     0
  9
$DIMSD1
 70
     0
  9
$DIMSD2
 70
     0
  9
$DIMTOLJ
 70
     1
  9
$DIMTZIN
 70
     0
  9
$DIMALTZ
 70
     0
  9
$DIMALTTZ
 70
     0
  9
$DIMUPT
 70
     0
  9
$DIMDEC
 70
     4
  9
$DIMTDEC
 70
     4
  9
$DIMALTU
 70
     2
  9
$DIMALTTD
 70
     2
  9
$DIMTXSTY
  7
Standard
  9
$DIMAUNIT
 70
     0
  9
$DIMADEC
 70
     0
  9
$DIMALTRND
 40
0.0
  9
$DIMAZIN
 70
     0
  9
$DIMDSEP
 70
    46
  9
$DIMATFIT
 70
     3
  9
$DIMFRAC
 70
     0
  9
$DIMLDRBLK
  1

  9
$DIMLUNIT
 70
     2
  9
$DIMLWD
 70
    -2
  9
$DIMLWE
 70
    -2
  9
$DIMTMOVE
 70
     2
  9
$LUNITS
 70
     2
  9
$LUPREC
 70
     3
  9
$SKETCHINC
 40
0.1
  9
$FILLETRAD
 40
0.5
  9
$AUNITS
 70
     0
  9
$AUPREC
 70
     0
  9
$MENU
  1
.
  9
$ELEVATION
 40
0.0
  9
$PELEVATION
 40
0.0
  9
$THICKNESS
 40
0.0
  9
$LIMCHECK
 70
     0
  9
$CHAMFERA
 40
0.5
  9
$CHAMFERB
 40
0.5
  9
$CHAMFERC
 40
1.0
  9
$CHAMFERD
 40
0.0
  9
$SKPOLY
 70
     0
  9
$TDCREATE
 40
2458096.385979433
  9
$TDUCREATE
 40
2458096.594312766
  9
$TDUPDATE
 40
2458096.385979444
  9
$TDUUPDATE
 40
2458096.594312778
  9
$TDINDWG
 40
0.0000000116
  9
$TDUSRTIMER
 40
0.0000000116
  9
$USRTIMER
 70
     1
  9
$ANGBASE
 50
0.0
  9
$ANGDIR
 70
     0
  9
$PDMODE
 70
     0
  9
$PDSIZE
 40
0.0
  9
$PLINEWID
 40
0.0
  9
$SPLFRAME
 70
     0
  9
$SPLINETYPE
 70
     6
  9
$SPLINESEGS
 70
     8
  9
$HANDSEED
  5
37E
  9
$SURFTAB1
 70
     6
  9
$SURFTAB2
 70
     6
  9
$SURFTYPE
 70
     6
  9
$SURFU
 70
     6
  9
$SURFV
 70
     6
  9
$UCSBASE
  2

  9
$UCSNAME
  2

  9
$UCSORG
 10
0.0
 20
0.0
 30
0.0
  9
$UCSXDIR
 10
1.0
 20
0.0
 30
0.0
  9
$UCSYDIR
 10
0.0
 20
1.0
 30
0.0
  9
$UCSORTHOREF
  2

  9
$UCSORTHOVIEW
 70
     0
  9
$UCSORGTOP
 10
0.0
 20
0.0
 30
0.0
  9
$UCSORGBOTTOM
 10
0.0
 20
0.0
 30
0.0
  9
$UCSORGLEFT
 10
0.0
 20
0.0
 30
0.0
  9
$UCSORGRIGHT
 10
0.0
 20
0.0
 30
0.0
  9
$UCSORGFRONT
 10
0.0
 20
0.0
 30
0.0
  9
$UCSORGBACK
 10
0.0
 20
0.0
 30
0.0
  9
$PUCSBASE
  2

  9
$PUCSNAME
  2

  9
$PUCSORG
 10
0.0
 20
0.0
 30
0.0
  9
$PUCSXDIR
 10
1.0
 20
0.0
 30
0.0
  9
$PUCSYDIR
 10
0.0
 20
1.0
 30
0.0
  9
$PUCSORTHOREF
  2

  9
$PUCSORTHOVIEW
 70
     0
  9
$PUCSORGTOP
 10
0.0
 20
0.0
 30
0.0
  9
$PUCSORGBOTTOM
 10
0.0
 20
0.0
 30
0.0
  9
$PUCSORGLEFT
 10
0.0
 20
0.0
 30
0.0
  9
$PUCSORGRIGHT
 10
0.0
 20
0.0
 30
0.0
  9
$PUCSORGFRONT
 10
0.0
 20
0.0
 30
0.0
  9
$PUCSORGBACK
 10
0.0
 20
0.0
 30
0.0
  9
$USERI1
 70
     0
  9
$USERI2
 70
     0
  9
$USERI3
 70
     0
  9
$USERI4
 70
     0
  9
$USERI5
 70
     0
  9
$USERR1
 40
0.0
  9
$USERR2
 40
0.0
  9
$USERR3
 40
0.0
  9
$USERR4
 40
0.0
  9
$USERR5
 40
0.0
  9
$WORLDVIEW
 70
     1
  9
$SHADEDGE
 70
     3
  9
$SHADEDIF
 70
    70
  9
$TILEMODE
 70
     1
  9
$MAXACTVP
 70
    64
  9
$PINSBASE
 10
0.0
 20
0.0
 30
0.0
  9
$PLIMCHECK
 70
     0
  9
$PEXTMIN
 10
1.000000000000000E+20
 20
1.000000000000000E+20
 30
1.000000000000000E+20
  9
$PEXTMAX
 10
-1.000000000000000E+20
 20
-1.000000000000000E+20
 30
-1.000000000000000E+20
  9
$PLIMMIN
 10
0.0
 20
0.0
  9
$PLIMMAX
 10
12.0
 20
9.0
  9
$UNITMODE
 70
     0
  9
$VISRETAIN
 70
     1
  9
$PLINEGEN
 70
     0
  9
$PSLTSCALE
 70
     1
  9
$TREEDEPTH
 70
  3020
  9
$CMLSTYLE
  2
Standard
  9
$CMLJUST
 70
     0
  9
$CMLSCALE
 40
1.0
  9
$PROXYGRAPHICS
 70
     1
  9
$MEASUREMENT
 70
     0
  9
$CELWEIGHT
370
    -1
  9
$ENDCAPS
280
     0
  9
$JOINSTYLE
280
     0
  9
$LWDISPLAY
290
     0
  9
$INSUNITS
 70
     1
  9
$HYPERLINKBASE
  1

  9
$STYLESHEET
  1

  9
$XEDIT
290
     1
  9
$CEPSNTYPE
380
     0
  9
$PSTYLEMODE
290
     1
  9
$FINGERPRINTGUID
  2
{86731B08-5022-4F95-952D-86E074D658A1}
  9
$VERSIONGUID
  2
{FAEB1C32-E019-11D5-929B-00C0DF256EC4}
  9
$EXTNAMES
290
     1
  9
$PSVPSCALE
 40
0.0
  9
$OLESTARTUP
290
     0
  9
$SORTENTS
280
   127
  9
$INDEXCTL
280
     0
  9
$HIDETEXT
280
     1
  9
$XCLIPFRAME
290
     0
  9
$HALOGAP
280
     0
  9
$OBSCOLOR
 70
   257
  9
$OBSLTYPE
280
     0
  9
$INTERSECTIONDISPLAY
280
     0
  9
$INTERSECTIONCOLOR
 70
   257
  9
$DIMASSOC
280
     2
  9
$PROJECTNAME
  1

  0
ENDSEC
  0
SECTION
  2
CLASSES
  0
CLASS
  1
ACDBDICTIONARYWDFLT
  2
AcDbDictionaryWithDefault
  3
ObjectDBX Classes
 90
        0
 91
        4
280
     0
281
     0
  0
CLASS
  1
VISUALSTYLE
  2
AcDbVisualStyle
  3
ObjectDBX Classes
 90
     4095
 91
        4
280
     0
281
     0
  0
ENDSEC
  0
SECTION
  2
TABLES
  0
TABLE
  2
VPORT
  5
8
330
0
100
AcDbSymbolTable
 70
     1
  0
VPORT
  5
29
330
8
100
AcDbSymbolTableRecord
100
AcDbViewportTableRecord
  2
*Active
 70
     0
 10
0.0
 20
0.0
 11
1.0
 21
1.0
 12
17.76988937362749
 22
35.77239230309499
 13
0.0
 23
0.0
 14
0.5
 24
0.5
 15
0.5
 25
0.5
 16
0.0
 26
0.0
 36
1.0
 17
0.0
 27
0.0
 37
0.0
 40
72.97568029831378
 41
0.8716188224028473
 42
50.0
 43
0.0
 44
0.0
 50
0.0
 51
0.0
 71
     0
 72
   100
 73
     1
 74
     3
 75
     0
 76
     0
 77
     0
 78
     0
281
     0
 65
     1
110
0.0
120
0.0
130
0.0
111
1.0
121
0.0
131
0.0
112
0.0
122
1.0
132
0.0
 79
     0
146
0.0
  0
ENDTAB
  0
TABLE
  2
LTYPE
  5
5
330
0
100
AcDbSymbolTable
 70
     1
  0
LTYPE
  5
14
330
5
100
AcDbSymbolTableRecord
100
AcDbLinetypeTableRecord
  2
ByBlock
 70
     0
  3

 72
    65
 73
     0
 40
0.0
  0
LTYPE
  5
15
330
5
100
AcDbSymbolTableRecord
100
AcDbLinetypeTableRecord
  2
ByLayer
 70
     0
  3

 72
    65
 73
     0
 40
0.0
  0
LTYPE
  5
16
330
5
100
AcDbSymbolTableRecord
100
AcDbLinetypeTableRecord
  2
Continuous
 70
     0
  3
Solid line
 72
    65
 73
     0
 40
0.0
  0
ENDTAB
  0
TABLE
  2
LAYER
  5
2
330
0
100
AcDbSymbolTable
 70
     2
  0
LAYER
  5
10
330
2
100
AcDbSymbolTableRecord
100
AcDbLayerTableRecord
  2
0
 70
     0
 62
     7
  6
Continuous
370
    -3
390
F
  0
LAYER
  5
3B
330
2
100
AcDbSymbolTableRecord
100
AcDbLayerTableRecord
  2
Default
 70
     0
 62
     7
  6
Continuous
370
    -3
390
F
  0
ENDTAB
  0
TABLE
  2
STYLE
  5
3
330
0
100
AcDbSymbolTable
 70
     1
  0
STYLE
  5
11
330
3
100
AcDbSymbolTableRecord
100
AcDbTextStyleTableRecord
  2
Standard
 70
     0
 40
0.0
 41
1.0
 50
0.0
 71
     0
 42
0.2
  3
txt
  4

  0
ENDTAB
  0
TABLE
  2
VIEW
  5
6
330
0
100
AcDbSymbolTable
 70
     0
  0
ENDTAB
  0
TABLE
  2
UCS
  5
7
330
0
100
AcDbSymbolTable
 70
     0
  0
ENDTAB
  0
TABLE
  2
APPID
  5
9
330
0
100
AcDbSymbolTable
 70
     1
  0
APPID
  5
12
330
9
100
AcDbSymbolTableRecord
100
AcDbRegAppTableRecord
  2
ACAD
 70
     0
  0
ENDTAB
  0
TABLE
  2
DIMSTYLE
  5
A
330
0
100
AcDbSymbolTable
 70
     1
100
AcDbDimStyleTable
  0
DIMSTYLE
105
27
330
A
100
AcDbSymbolTableRecord
100
AcDbDimStyleTableRecord
  2
Standard
 70
     0
340
11
  0
ENDTAB
  0
TABLE
  2
BLOCK_RECORD
  5
1
330
0
100
AcDbSymbolTable
 70
     1
  0
BLOCK_RECORD
  5
1F
330
1
100
AcDbSymbolTableRecord
100
AcDbBlockTableRecord
  2
*Model_Space
340
22
  0
BLOCK_RECORD
  5
1B
330
1
100
AcDbSymbolTableRecord
100
AcDbBlockTableRecord
  2
*Paper_Space
340
1E
  0
BLOCK_RECORD
  5
23
330
1
100
AcDbSymbolTableRecord
100
AcDbBlockTableRecord
  2
*Paper_Space0
340
26
  0
ENDTAB
  0
ENDSEC
  0
SECTION
  2
BLOCKS
  0
BLOCK
  5
20
330
1F
100
AcDbEntity
  8
0
100
AcDbBlockBegin
  2
*Model_Space
 70
     0
 10
0.0
 20
0.0
 30
0.0
  3
*Model_Space
  1

  0
ENDBLK
  5
21
330
1F
100
AcDbEntity
  8
0
100
AcDbBlockEnd
  0
BLOCK
  5
1C
330
1B
100
AcDbEntity
 67
     1
  8
0
100
AcDbBlockBegin
  2
*Paper_Space
 70
     0
 10
0.0
 20
0.0
 30
0.0
  3
*Paper_Space
  1

  0
ENDBLK
  5
1D
330
1B
100
AcDbEntity
 67
     1
  8
0
100
AcDbBlockEnd
  0
BLOCK
  5
24
330
23
100
AcDbEntity
  8
0
100
AcDbBlockBegin
  2
*Paper_Space0
 70
     0
 10
0.0
 20
0.0
 30
0.0
  3
*Paper_Space0
  1

  0
ENDBLK
  5
25
330
23
100
AcDbEntity
  8
0
100
AcDbBlockEnd
  0
ENDSEC
  0
SECTION
  2
ENTITIES
  0
SPLINE
  5
3C
330
1F
100
AcDbEntity
  8
Default
100
AcDbSpline
210
0.0
220
0.0
230
1.0
 70
     8
 71
     2
 72
     8
 73
     5
 74
     0
 42
0.0000000001
 43
0.0000000001
 40
0.0
 40
0.0
 40
0.0
 40
2.006456692913
 40
2.006456692913
 40
2.252762864475465
 40
2.252762864475465
 40
2.252762864475465
 10
0.5511811023634863
 20
8.655700787402008
 30
0.0
 10
0.5511811023634863
 20
9.658929133858507
 30
0.0
 10
0.5511811023634863
 20
11.30032070319112
 30
0.0
 10
0.5480903615141415
 20
11.42343499910529
 30
0.0
 10
0.5449996206647967
 20
11.54654929501946
 30
0.0
  0
SPLINE
  5
3D
330
1F
100
AcDbEntity
  8
Default
100
AcDbSpline
210
0.0
220
0.0
230
1.0
 70
     8
 71
     2
 72
     8
 73
     5
 74
     0
 42
0.0000000001
 43
0.0000000001
 40
0.0
 40
0.0
 40
0.0
 40
2.006456692913
 40
2.006456692913
 40
2.252762864475465
 40
2.252762864475465
 40
2.252762864475465
 10
-0.5511811023634863
 20
8.655700787402008
 30
0.0
 10
-0.5511811023634863
 20
9.658929133858507
 30
0.0
 10
-0.5511811023634863
 20
11.30032070319112
 30
0.0
 10
-0.5480903615141415
 20
11.42343499910529
 30
0.0
 10
-0.5449996206647967
 20
11.54654929501946
 30
0.0
  0
SPLINE
  5
3E
330
1F
100
AcDbEntity
  8
Default
100
AcDbSpline
210
0.0
220
0.0
230
1.0
 70
    24
 71
     2
 72
     6
 73
     3
 74
     0
 42
0.0000000001
 43
0.0000000001
 40
0.0
 40
0.0
 40
0.0
 40
0.1012133421293994
 40
0.1012133421293994
 40
0.1012133421293994
 10
12.19125108012875
 20
2.559999999999995
 30
0.0
 10
12.18343858012874
 20
2.610000000000001
 30
0.0
 10
12.17562608012874
 20
2.660000000000007
 30
0.0
  0
SPLINE
  5
3F
330
1F
100
AcDbEntity
  8
Default
100
AcDbSpline
210
0.0
220
0.0
230
1.0
 70
    24
 71
     2
 72
     6
 73
     3
 74
     0
 42
0.0000000001
 43
0.0000000001
 40
0.0
 40
0.0
 40
0.0
 40
0.1002871374692929
 40
0.1002871374692929
 40
0.1002871374692929
 10
12.894233095543
 20
2.659084898650105
 30
0.0
 10
12.88649208783596
 20
2.609542449325049
 30
0.0
 10
12.87875108012892
 20
2.559999999999993
 30
0.0
  0
SPLINE
  5
40
330
1F
100
AcDbEntity
  8
Default
100
AcDbSpline
210
0.0
220
0.0
230
1.0
 70
    24
 71
     2
 72
     6
 73
     3
 74
     0
 42
0.0000000001
 43
0.0000000001
 40
0.0
 40
0.0
 40
0.0
 40
0.1002871374692927
 40
0.1002871374692927
 40
0.1002871374692927
 10
8.106288731950933
 20
2.659084898650104
 30
0.0
 10
8.09854772424389
 20
2.609542449325049
 30
0.0
 10
8.090806716536846
 20
2.559999999999993
 30
0.0
  0
SPLINE
  5
41
330
1F
100
AcDbEntity
  8
Default
100
AcDbSpline
210
0.0
220
0.0
230
1.0
 70
    24
 71
     2
 72
     6
 73
     3
 74
     0
 42
0.0000000001
 43
0.0000000001
 40
0.0
 40
0.0
 40
0.0
 40
0.1012133421293994
 40
0.1012133421293994
 40
0.1012133421293994
 10
7.403306716536676
 20
2.559999999999995
 30
0.0
 10
7.395494216536669
 20
2.610000000000001
 30
0.0
 10
7.387681716536662
 20
2.660000000000007
 30
0.0
  0
SPLINE
  5
42
330
1F
100
AcDbEntity
  8
Default
100
AcDbSpline
210
0.0
220
0.0
230
1.0
 70
    24
 71
     2
 72
     6
 73
     3
 74
     0
 42
0.0000000001
 43
0.0000000001
 40
0.0
 40
0.0
 40
0.0
 40
0.1012133421294007
 40
0.1012133421294007
 40
0.1012133421294007
 10
0.3593750000013785
 20
2.660000000000009
 30
0.0
 10
0.3515625000013785
 20
2.610000000000001
 30
0.0
 10
0.3437500000013785
 20
2.559999999999993
 30
0.0
  0
SPLINE
  5
43
330
1F
100
AcDbEntity
  8
Default
100
AcDbSpline
210
0.0
220
0.0
230
1.0
 70
    24
 71
     2
 72
     6
 73
     3
 74
     0
 42
0.0000000001
 43
0.0000000001
 40
0.0
 40
0.0
 40
0.0
 40
1.727
 40
1.727
 40
1.727
 10
0.8759842519697969
 20
4.162000000000008
 30
0.0
 10
0.8759842519697933
 20
3.298500000000008
 30
0.0
 10
0.8759842519697898
 20
2.435000000000008
 30
0.0
  0
SPLINE
  5
44
330
1F
100
AcDbEntity
  8
Default
100
AcDbSpline
210
0.0
220
0.0
230
1.0
 70
    24
 71
     2
 72
     6
 73
     3
 74
     0
 42
0.0000000001
 43
0.0000000001
 40
-0.34375
 40
-0.34375
 40
-0.34375
 40
0.0
 40
0.0
 40
0.0
 10
8.153306716536761
 20
0.0000000000000071
 30
0.0
 10
8.325181716536761
 20
0.0000000000000071
 30
0.0
 10
8.497056716536761
 20
0.0000000000000089
 30
0.0
  0
SPLINE
  5
45
330
1F
100
AcDbEntity
  8
Default
100
AcDbSpline
210
0.0
220
0.0
230
1.0
 70
    12
 71
     2
 72
     6
 73
     3
 74
     0
 42
0.0000000001
 43
0.0000000001
 40
0.0
 40
0.0
 40
0.0
 40
0.1963495408493617
 40
0.1963495408493617
 40
0.1963495408493617
 10
8.497056716536761
 20
0.0000000000000089
 30
0.0
 41
1.0
 10
8.62205671653676
 20
0.0000000000000072
 30
0.0
 41
0.7071067811865455
 10
8.622056716536761
 20
0.1250000000000071
 30
0.0
 41
1.0
  0
SPLINE
  5
46
330
1F
100
AcDbEntity
  8
Default
100
AcDbSpline
210
0.0
220
0.0
230
1.0
 70
    24
 71
     2
 72
     6
 73
     3
 74
     0
 42
0.0000000001
 43
0.0000000001
 40
0.0
 40
0.0
 40
0.0
 40
2.31
 40
2.31
 40
2.31
 10
8.622056716536761
 20
0.1250000000000071
 30
0.0
 10
8.622056716536761
 20
1.280000000000006
 30
0.0
 10
8.622056716536761
 20
2.435000000000008
 30
0.0
  0
SPLINE
  5
47
330
1F
100
AcDbEntity
  8
Default
100
AcDbSpline
210
0.0
220
0.0
230
1.0
 70
    12
 71
     2
 72
     6
 73
     3
 74
     0
 42
0.0000000001
 43
0.0000000001
 40
0.0
 40
0.0
 40
0.0
 40
0.1963495408493625
 40
0.1963495408493625
 40
0.1963495408493625
 10
8.622056716536761
 20
2.435000000000008
 30
0.0
 41
1.0
 10
8.622056716536756
 20
2.560000000000008
 30
0.0
 41
0.7071067811865462
 10
8.497056716536761
 20
2.560000000000008
 30
0.0
 41
1.0
  0
SPLINE
  5
48
330
1F
100
AcDbEntity
  8
Default
100
AcDbSpline
210
0.0
220
0.0
230
1.0
 70
    24
 71
     2
 72
     6
 73
     3
 74
     0
 42
0.0000000001
 43
0.0000000001
 40
-0.34375
 40
-0.34375
 40
-0.34375
 40
0.0
 40
0.0
 40
0.0
 10
8.497056716536761
 20
2.560000000000008
 30
0.0
 10
8.325181716536761
 20
2.560000000000008
 30
0.0
 10
8.153306716536761
 20
2.560000000000008
 30
0.0
  0
SPLINE
  5
49
330
1F
100
AcDbEntity
  8
Default
100
AcDbSpline
210
0.0
220
0.0
230
1.0
 70
    12
 71
     2
 72
     8
 73
     5
 74
     0
 42
0.0000000001
 43
0.0000000001
 40
0.0
 40
0.0
 40
0.0
 40
0.0245437074331713
 40
0.0245437074331713
 40
0.049087414866342
 40
0.049087414866342
 40
0.049087414866342
 10
8.153306716536761
 20
2.560000000000008
 30
0.0
 41
1.0
 10
8.140362534027142
 20
2.560000000000006
 30
0.0
 41
0.9238794417265583
 10
8.131209619140407
 20
2.550847076427813
 30
0.0
 41
1.0
 10
8.122056704253676
 20
2.541694152855616
 30
0.0
 41
0.9238794417265895
 10
8.122056716536768
 20
2.528749970346007
 30
0.0
 41
1.0
  0
SPLINE
  5
4A
330
1F
100
AcDbEntity
  8
Default
100
AcDbSpline
210
0.0
220
0.0
230
1.0
 70
    24
 71
     2
 72
     6
 73
     3
 74
     0
 42
0.0000000001
 43
0.0000000001
 40
0.0
 40
0.0
 40
0.0
 40
2.492448632942286
 40
2.492448632942286
 40
2.492448632942286
 10
8.122056716536768
 20
2.528749970346007
 30
0.0
 10
8.122056716536768
 20
1.281262826937436
 30
0.0
 10
8.122056716536768
 20
0.0337756835288641
 30
0.0
  0
SPLINE
  5
4B
330
1F
100
AcDbEntity
  8
Default
100
AcDbSpline
210
0.0
220
0.0
230
1.0
 70
    12
 71
     2
 72
     8
 73
     5
 74
     0
 42
0.0000000001
 43
0.0000000001
 40
0.0
 40
0.0
 40
0.0
 40
0.0245437074331676
 40
0.0245437074331676
 40
0.049087384436277
 40
0.049087384436277
 40
0.049087384436277
 10
12.94125108012884
 20
2.560000000000008
 30
0.0
 41
1.0
 10
12.92830689761922
 20
2.560000000000003
 30
0.0
 41
0.9238794417265762
 10
12.91915398273249
 20
2.550847076427813
 30
0.0
 41
1.0
 10
12.91000108012882
 20
2.541694165138694
 30
0.0
 41
0.9238795361033111
 10
12.91000108012883
 20
2.528749999999963
 30
0.0
 41
0.9999998112468922
  0
LINE
  5
4C
330
1F
100
AcDbEntity
  8
Default
100
AcDbLine
 10
12.91000108012884
 20
2.528749999999963
 30
0.0
 11
12.91000108012884
 21
0.0337756835288641
 31
0.0
  0
SPLINE
  5
4D
330
1F
100
AcDbEntity
  8
Default
100
AcDbSpline
210
0.0
220
0.0
230
1.0
 70
    12
 71
     2
 72
     8
 73
     5
 74
     0
 42
0.0000000001
 43
0.0000000001
 40
0.0
 40
0.0
 40
0.0
 40
0.0245437074331748
 40
0.0245437074331748
 40
0.0490874148663442
 40
0.0490874148663442
 40
0.0490874148663442
 10
12.91000108012884
 20
0.0337756835288641
 30
0.0
 41
1.0
 10
12.91000106784575
 20
0.0183058471443945
 30
0.0
 41
0.9238794417264082
 10
12.91915398273249
 20
0.0091529235722021
 30
0.0
 41
1.0
 10
12.92830689761922
 20
0.0000000000000027
 30
0.0
 41
0.9238794417263674
 10
12.94125108012884
 20
0.0000000000000071
 30
0.0
 41
1.0
  0
SPLINE
  5
4E
330
1F
100
AcDbEntity
  8
Default
100
AcDbSpline
210
0.0
220
0.0
230
1.0
 70
    24
 71
     2
 72
     6
 73
     3
 74
     0
 42
0.0000000001
 43
0.0000000001
 40
-0.34375
 40
-0.34375
 40
-0.34375
 40
0.0
 40
0.0
 40
0.0
 10
12.94125108012884
 20
0.0000000000000071
 30
0.0
 10
13.11312608012884
 20
0.0000000000000071
 30
0.0
 10
13.28500108012884
 20
0.0000000000000071
 30
0.0
  0
SPLINE
  5
4F
330
1F
100
AcDbEntity
  8
Default
100
AcDbSpline
210
0.0
220
0.0
230
1.0
 70
    12
 71
     2
 72
     6
 73
     3
 74
     0
 42
0.0000000001
 43
0.0000000001
 40
0.0
 40
0.0
 40
0.0
 40
0.1963495408493612
 40
0.1963495408493612
 40
0.1963495408493612
 10
13.28500108012884
 20
0.0000000000000071
 30
0.0
 41
1.0
 10
13.41000108012884
 20
0.0000000000000078
 30
0.0
 41
0.7071067811865431
 10
13.41000108012884
 20
0.1250000000000071
 30
0.0
 41
1.0
  0
SPLINE
  5
50
330
1F
100
AcDbEntity
  8
Default
100
AcDbSpline
210
0.0
220
0.0
230
1.0
 70
    24
 71
     2
 72
     6
 73
     3
 74
     0
 42
0.0000000001
 43
0.0000000001
 40
0.0
 40
0.0
 40
0.0
 40
2.31
 40
2.31
 40
2.31
 10
13.41000108012884
 20
0.1250000000000071
 30
0.0
 10
13.41000108012884
 20
1.280000000000006
 30
0.0
 10
13.41000108012884
 20
2.435000000000008
 30
0.0
  0
SPLINE
  5
51
330
1F
100
AcDbEntity
  8
Default
100
AcDbSpline
210
0.0
220
0.0
230
1.0
 70
    12
 71
     2
 72
     6
 73
     3
 74
     0
 42
0.0000000001
 43
0.0000000001
 40
0.0
 40
0.0
 40
0.0
 40
0.1963495408493621
 40
0.1963495408493621
 40
0.1963495408493621
 10
13.41000108012884
 20
2.435000000000008
 30
0.0
 41
1.0
 10
13.41000108012884
 20
2.560000000000007
 30
0.0
 41
0.7071067811865476
 10
13.28500108012884
 20
2.560000000000008
 30
0.0
 41
1.0
  0
SPLINE
  5
52
330
1F
100
AcDbEntity
  8
Default
100
AcDbSpline
210
0.0
220
0.0
230
1.0
 70
    24
 71
     2
 72
     6
 73
     3
 74
     0
 42
0.0000000001
 43
0.0000000001
 40
-0.34375
 40
-0.34375
 40
-0.34375
 40
0.0
 40
0.0
 40
0.0
 10
13.28500108012884
 20
2.560000000000008
 30
0.0
 10
13.11312608012884
 20
2.560000000000008
 30
0.0
 10
12.94125108012884
 20
2.560000000000008
 30
0.0
  0
LINE
  5
53
330
1F
100
AcDbEntity
  8
Default
100
AcDbLine
 10
12.16000108012884
 20
0.0674330107713246
 30
0.0
 11
12.16000108012882
 21
2.528749970347015
 31
0.0
  0
SPLINE
  5
54
330
1F
100
AcDbEntity
  8
Default
100
AcDbSpline
210
0.0
220
0.0
230
1.0
 70
    12
 71
     2
 72
     8
 73
     5
 74
     0
 42
0.0000000001
 43
0.0000000001
 40
0.0
 40
0.0
 40
0.0
 40
0.0245437074326705
 40
0.0245437074326705
 40
0.0490874148653438
 40
0.0490874148653438
 40
0.0490874148653438
 10
12.16000108012882
 20
2.528749970347015
 30
0.0
 41
1.0
 10
12.16000109241151
 20
2.541694152856325
 30
0.0
 41
0.9238794417295467
 10
12.15084817752484
 20
2.550847076428166
 30
0.0
 41
1.0
 10
12.14169526263816
 20
2.560000000000004
 30
0.0
 41
0.9238794417296584
 10
12.12875108012884
 20
2.560000000000008
 30
0.0
 41
1.0
  0
SPLINE
  5
55
330
1F
100
AcDbEntity
  8
Default
100
AcDbSpline
210
0.0
220
0.0
230
1.0
 70
    24
 71
     2
 72
     6
 73
     3
 74
     0
 42
0.0000000001
 43
0.0000000001
 40
-0.34375
 40
-0.34375
 40
-0.34375
 40
0.0
 40
0.0
 40
0.0
 10
12.12875108012884
 20
2.560000000000008
 30
0.0
 10
11.95687608012884
 20
2.560000000000008
 30
0.0
 10
11.78500108012884
 20
2.560000000000008
 30
0.0
  0
SPLINE
  5
56
330
1F
100
AcDbEntity
  8
Default
100
AcDbSpline
210
0.0
220
0.0
230
1.0
 70
    12
 71
     2
 72
     6
 73
     3
 74
     0
 42
0.0000000001
 43
0.0000000001
 40
0.0
 40
0.0
 40
0.0
 40
0.196349540849359
 40
0.196349540849359
 40
0.196349540849359
 10
11.78500108012884
 20
2.560000000000008
 30
0.0
 41
1.0
 10
11.66000108012884
 20
2.56
 30
0.0
 41
0.7071067811865878
 10
11.66000108012884
 20
2.435000000000008
 30
0.0
 41
1.0
  0
SPLINE
  5
57
330
1F
100
AcDbEntity
  8
Default
100
AcDbSpline
210
0.0
220
0.0
230
1.0
 70
    24
 71
     2
 72
     6
 73
     3
 74
     0
 42
0.0000000001
 43
0.0000000001
 40
0.0
 40
0.0
 40
0.0
 40
2.305327919447875
 40
2.305327919447875
 40
2.305327919447875
 10
11.66000108012884
 20
2.435000000000008
 30
0.0
 10
11.66000108012884
 20
1.28116802013804
 30
0.0
 10
11.66000108012884
 20
0.1273360402760702
 30
0.0
  0
SPLINE
  5
58
330
1F
100
AcDbEntity
  8
Default
100
AcDbSpline
210
0.0
220
0.0
230
1.0
 70
    12
 71
     2
 72
     6
 73
     3
 74
     0
 42
0.0000000001
 43
0.0000000001
 40
0.0
 40
0.0
 40
0.0
 40
0.1963495408493596
 40
0.1963495408493596
 40
0.1963495408493596
 10
11.66000108012884
 20
0.1273360402760702
 30
0.0
 41
1.0
 10
11.66000108012884
 20
0.0000000000000136
 30
0.0
 41
0.7071067811865861
 10
11.78500108012884
 20
0.0000000000000071
 30
0.0
 41
1.0
  0
SPLINE
  5
59
330
1F
100
AcDbEntity
  8
Default
100
AcDbSpline
210
0.0
220
0.0
230
1.0
 70
    24
 71
     2
 72
     6
 73
     3
 74
     0
 42
0.0000000001
 43
0.0000000001
 40
-0.34375
 40
-0.34375
 40
-0.34375
 40
0.0
 40
0.0
 40
0.0
 10
11.78500108012884
 20
0.0000000000000071
 30
0.0
 10
11.95687608012884
 20
0.0000000000000071
 30
0.0
 10
12.12875108012884
 20
0.0000000000000071
 30
0.0
  0
SPLINE
  5
5A
330
1F
100
AcDbEntity
  8
Default
100
AcDbSpline
210
0.0
220
0.0
230
1.0
 70
    12
 71
     2
 72
     8
 73
     5
 74
     0
 42
0.0000000001
 43
0.0000000001
 40
0.0
 40
0.0
 40
0.0
 40
0.0245437074326727
 40
0.0245437074326727
 40
0.0490874148653435
 40
0.0490874148653435
 40
0.0490874148653435
 10
12.12875108012884
 20
0.0000000000000071
 30
0.0
 41
1.0
 10
12.14169526263816
 20
0.0000000000000073
 30
0.0
 41
0.923879441729618
 10
12.15084817752484
 20
0.0091529235718486
 30
0.0
 41
1.0
 10
12.16000109241151
 20
0.0183058471436901
 30
0.0
 41
0.9238794417296633
 10
12.16000108012884
 20
0.0312500296530089
 30
0.0
 41
1.0
  0
SPLINE
  5
5B
330
1F
100
AcDbEntity
  8
Default
100
AcDbSpline
210
0.0
220
0.0
230
1.0
 70
    28
 71
     3
 72
    10
 73
     6
 74
     0
 42
0.0000000001
 43
0.0000000001
 40
-3.924058572565469
 40
-3.924058572565469
 40
-3.924058572565469
 40
-3.924058572565469
 40
-3.905214231881589
 40
-3.905214231881589
 40
-3.76217791107922
 40
-3.76217791107922
 40
-3.76217791107922
 40
-3.76217791107922
 10
12.16000108012884
 20
0.0312500296530089
 30
0.0
 41
1.0
 10
12.16000108012884
 20
0.0313446649105682
 30
0.0
 41
1.0
 10
12.16000108012884
 20
0.0312971523482055
 30
0.0
 41
1.0
 10
12.16000108012884
 20
0.03211036334406
 30
0.0
 41
1.0
 10
12.16000108012884
 20
0.0355356793560304
 30
0.0
 41
1.0
 10
12.16000108012884
 20
0.0416737399966181
 30
0.0
 41
1.0
  0
SPLINE
  5
5C
330
1F
100
AcDbEntity
  8
Default
100
AcDbSpline
210
0.0
220
0.0
230
1.0
 70
    24
 71
     2
 72
     6
 73
     3
 74
     0
 42
0.0000000001
 43
0.0000000001
 40
0.0
 40
0.0
 40
0.0
 40
0.0180914894398488
 40
0.0180914894398488
 40
0.0180914894398488
 10
12.16000108012884
 20
0.0416737399966181
 30
0.0
 10
12.16000108012884
 20
0.0507194849957759
 30
0.0
 10
12.16000108012884
 20
0.0597652299949338
 30
0.0
  0
SPLINE
  5
5D
330
1F
100
AcDbEntity
  8
Default
100
AcDbSpline
210
0.0
220
0.0
230
1.0
 70
    24
 71
     2
 72
     6
 73
     3
 74
     0
 42
0.0000000001
 43
0.0000000001
 40
-0.0076677802215738
 40
-0.0076677802215738
 40
-0.0076677802215738
 40
0.0
 40
0.0
 40
0.0
 10
12.16000108012884
 20
0.0597652299949338
 30
0.0
 10
12.16000108012884
 20
0.0635991203831292
 30
0.0
 10
12.16000108012884
 20
0.0674330107713246
 30
0.0
  0
SPLINE
  5
5E
330
1F
100
AcDbEntity
  8
Default
100
AcDbSpline
210
0.0
220
0.0
230
1.0
 70
    12
 71
     3
 72
    12
 73
     8
 74
     0
 42
0.0000000001
 43
0.0000000001
 40
-1.0
 40
-1.0
 40
-1.0
 40
-1.0
 40
-0.7506987155205498
 40
-0.7506987155205498
 40
-0.5001593749518297
 40
-0.5001593749518297
 40
0.0
 40
0.0
 40
0.0
 40
0.0
 10
11.66169606035348
 20
4.646192146633989
 30
0.0
 41
1.0
 10
10.83978376065917
 20
4.901680007350064
 30
0.0
 41
1.0
 10
10.11001753075109
 20
5.140983746136461
 30
0.0
 41
1.0
 10
8.568860147831558
 20
5.639654035846315
 30
0.0
 41
1.0
 10
7.78417026274073
 20
5.890183510155294
 30
0.0
 41
1.0
 10
5.37264285250609
 20
6.653129569622896
 30
0.0
 41
1.0
 10
3.766904742702906
 20
7.153808346081863
 30
0.0
 41
1.0
 10
2.157703587724079
 20
7.657213360256314
 30
0.0
 41
1.0
  0
SPLINE
  5
5F
330
1F
100
AcDbEntity
  8
Default
100
AcDbSpline
210
0.0
220
0.0
230
1.0
 70
    12
 71
     2
 72
     6
 73
     3
 74
     0
 42
0.0000000001
 43
0.0000000001
 40
0.0
 40
0.0
 40
0.0
 40
0.9614022157832935
 40
0.9614022157832935
 40
0.9614022157832935
 10
2.157703587724079
 20
7.657213360256314
 30
0.0
 41
1.0
 10
1.701149389258332
 20
7.819297193627998
 30
0.0
 41
0.9883661983737412
 10
1.216987429427725
 20
7.836620641037307
 30
0.0
 41
1.0
  0
SPLINE
  5
60
330
1F
100
AcDbEntity
  8
Default
100
AcDbSpline
210
0.0
220
0.0
230
1.0
 70
    12
 71
     3
 72
    15
 73
    11
 74
     0
 42
0.0000000001
 43
0.0000000001
 40
-0.9614022157832935
 40
-0.9614022157832935
 40
-0.9614022157832935
 40
-0.9614022157832935
 40
0.0
 40
0.0
 40
0.0
 40
0.5001593749518297
 40
0.5001593749518297
 40
0.7506987155205498
 40
0.7506987155205498
 40
1.0
 40
1.0
 40
1.0
 40
1.0
 10
1.216987429427725
 20
7.836620641037307
 30
0.0
 41
1.0
 10
1.149923705367923
 20
7.836220838625269
 30
0.0
 41
0.9922441322491607
 10
1.083187549209834
 20
7.83370368735016
 30
0.0
 41
0.9922441322491607
 10
1.017942875572267
 20
7.817520846456989
 30
0.0
 41
1.0
 10
0.9846356284141748
 20
7.808909453196675
 30
0.0
 41
1.0
 10
0.950764599134132
 20
7.797016174127194
 30
0.0
 41
1.0
 10
0.9075431963607343
 20
7.767879443832116
 30
0.0
 41
1.0
 10
0.8948393365033169
 20
7.75588281797869
 30
0.0
 41
1.0
 10
0.8747226419189928
 20
7.72737102284936
 30
0.0
 41
1.0
 10
0.8673139790011106
 20
7.711275223913684
 30
0.0
 41
1.0
 10
0.8634729094956057
 20
7.694404642245926
 30
0.0
 41
1.0
  0
SPLINE
  5
61
330
1F
100
AcDbEntity
  8
Default
100
AcDbSpline
210
0.0
220
0.0
230
1.0
 70
     8
 71
     3
 72
    12
 73
     8
 74
     0
 42
0.0000000001
 43
0.0000000001
 40
0.0
 40
0.0
 40
0.0
 40
0.0
 40
0.1260766228409387
 40
0.237826563775455
 40
0.4344218079522603
 40
0.6303370446533767
 40
0.882694782768985
 40
0.882694782768985
 40
0.882694782768985
 40
0.882694782768985
 10
11.66169606035348
 20
4.646192146633989
 30
0.0
 10
11.70170139768107
 20
4.633837592494523
 30
0.0
 10
11.77712466731273
 20
4.60778162810302
 30
0.0
 10
11.90734865206845
 20
4.545332642646308
 30
0.0
 10
12.03960413133855
 20
4.435153673429197
 30
0.0
 10
12.1326469059439
 20
4.237189732693638
 30
0.0
 10
12.15739909419587
 20
4.089506238041587
 30
0.0
 10
12.16747818150696
 20
4.005901437485079
 30
0.0
  0
ARC
  5
62
330
1F
100
AcDbEntity
  8
Default
100
AcDbCircle
 10
-43.34163381361498
 20
-2.686072978285743
 30
0.0
 40
55.91103680015532
100
AcDbArc
 50
5.48686115216216
 51
6.874193798264431
  0
SPLINE
  5
63
330
1F
100
AcDbEntity
  8
Default
100
AcDbSpline
210
0.0
220
0.0
230
1.0
 70
     8
 71
     3
 72
    15
 73
    11
 74
     0
 42
0.0000000001
 43
0.0000000001
 40
0.0
 40
0.0
 40
0.0
 40
0.0
 40
1.0
 40
2.0
 40
3.0
 40
4.0
 40
5.0
 40
6.0
 40
7.0
 40
8.0
 40
8.0
 40
8.0
 40
8.0
 10
7.225868942922261
 20
4.111623924295762
 30
0.0
 10
6.964168455683584
 20
4.190680438698092
 30
0.0
 10
6.440767570674801
 20
4.348793788675735
 30
0.0
 10
5.655666199718056
 20
4.585962521014691
 30
0.0
 10
4.870565668078612
 20
4.823135178211315
 30
0.0
 10
4.085461040822779
 20
5.060293664775667
 30
0.0
 10
3.300372199934209
 20
5.29750483553709
 30
0.0
 10
2.515223752638128
 20
5.534519608271069
 30
0.0
 10
1.730299087076432
 20
5.772266943791103
 30
0.0
 10
1.206458467176148
 20
5.928942748513606
 30
0.0
 10
0.9455690830723356
 20
6.010650830627107
 30
0.0
  0
SPLINE
  5
64
330
1F
100
AcDbEntity
  8
Default
100
AcDbSpline
210
0.0
220
0.0
230
1.0
 70
     8
 71
     3
 72
    12
 73
     8
 74
     0
 42
0.0000000001
 43
0.0000000001
 40
0.0
 40
0.0
 40
0.0
 40
0.0
 40
0.0873163874398896
 40
0.1700224095601808
 40
0.3581656996438056
 40
0.6075952990052825
 40
0.9909780472260572
 40
0.9909780472260572
 40
0.9909780472260572
 40
0.9909780472260572
 10
8.04304088074646
 20
4.790774352238547
 30
0.0
 10
8.06381749160768
 20
4.770233992366641
 30
0.0
 10
8.100885716278498
 20
4.727511524647845
 30
0.0
 10
8.163940781265744
 20
4.625109838135341
 30
0.0
 10
8.214886951205472
 20
4.457963378126937
 30
0.0
 10
8.24233532762743
 20
4.185042723570207
 30
0.0
 10
8.241915472571847
 20
3.974050854746061
 30
0.0
 10
8.241874797038932
 20
3.84624487508764
 30
0.0
  0
LINE
  5
65
330
1F
100
AcDbEntity
  8
Default
100
AcDbLine
 10
8.241874797038932
 20
3.84624487508764
 30
0.0
 11
8.235180904697117
 21
2.89301568862315
 31
0.0
  0
ARC
  5
66
330
1F
100
AcDbEntity
  8
Default
100
AcDbCircle
 10
-53.06270811494419
 20
3.76134201049924
 30
0.0
 40
61.30403892783512
100
AcDbArc
 50
359.0455021666252
 51
359.1884205661177
  0
SPLINE
  5
67
330
1F
100
AcDbEntity
  8
Default
100
AcDbSpline
210
0.0
220
0.0
230
1.0
 70
     8
 71
     3
 72
     8
 73
     4
 74
     0
 42
0.0000000001
 43
0.0000000001
 40
-1.0
 40
-1.0
 40
-1.0
 40
-1.0
 40
0.0
 40
0.0
 40
0.0
 40
0.0
 10
8.232824258609554
 20
2.740117300580373
 30
0.0
 10
8.231516867916781
 20
2.70239892445724
 30
0.0
 10
8.190091022894883
 20
2.660000000000638
 30
0.0
 10
8.152355661988224
 20
2.660000000000519
 30
0.0
  0
POLYLINE
  5
68
330
1F
100
AcDbEntity
  8
Default
100
AcDb2dPolyline
 66
     1
 10
0.0
 20
0.0
 30
0.0
  0
VERTEX
  5
69
330
68
100
AcDbEntity
  8
Default
100
AcDbVertex
100
AcDb2dVertex
 10
8.152355661988224
 20
2.660000000000519
 30
0.0
  0
VERTEX
  5
6A
330
68
100
AcDbEntity
  8
Default
100
AcDbVertex
100
AcDb2dVertex
 10
7.356478913344631
 20
2.660000000014666
 30
0.0
  0
SEQEND
  5
6B
330
68
100
AcDbEntity
  8
Default
  0
SPLINE
  5
6C
330
1F
100
AcDbEntity
  8
Default
100
AcDbSpline
210
0.0
220
0.0
230
1.0
 70
    12
 71
     2
 72
     6
 73
     3
 74
     0
 42
0.0000000001
 43
0.0000000001
 40
0.0
 40
0.0
 40
0.0
 40
0.1189905253564627
 40
0.1189905253564627
 40
0.1189905253564627
 10
7.356478913344631
 20
2.660000000014666
 30
0.0
 41
1.0
 10
7.282993671275019
 20
2.660202674076015
 30
0.0
 41
0.737434850107945
 10
7.276740536499688
 20
2.733547609340757
 30
0.0
 41
1.0
  0
LINE
  5
6D
330
1F
100
AcDbEntity
  8
Default
100
AcDbLine
 10
7.276740536499688
 20
2.733547609340757
 30
0.0
 11
7.204247372081305
 21
3.562978285811129
 31
0.0
  0
SPLINE
  5
6E
330
1F
100
AcDbEntity
  8
Default
100
AcDbSpline
210
0.0
220
0.0
230
1.0
 70
    12
 71
     2
 72
     8
 73
     5
 74
     0
 42
0.0000000001
 43
0.0000000001
 40
0.0
 40
0.0
 40
0.0
 40
0.024543707433172
 40
0.024543707433172
 40
0.0490874148663429
 40
0.0490874148663429
 40
0.0490874148663429
 10
8.122056716536768
 20
0.0337756835288641
 30
0.0
 41
1.0
 10
8.122056704253668
 20
0.0183058471443949
 30
0.0
 41
0.9238794417264252
 10
8.131209619140407
 20
0.0091529235722021
 30
0.0
 41
1.0
 10
8.140362534027142
 20
0.0000000000000088
 30
0.0
 41
0.923879441726571
 10
8.153306716536761
 20
0.0000000000000071
 30
0.0
 41
1.0
  0
SPLINE
  5
6F
330
1F
100
AcDbEntity
  8
Default
100
AcDbSpline
210
0.0
220
0.0
230
1.0
 70
    24
 71
     2
 72
     6
 73
     3
 74
     0
 42
0.0000000001
 43
0.0000000001
 40
0.0
 40
0.0
 40
0.0
 40
1.5570398096186
 40
1.5570398096186
 40
1.5570398096186
 10
0.9462379164083146
 20
6.098077003711474
 30
0.0
 10
0.9267008037967948
 20
5.319802281383243
 30
0.0
 10
0.907163691185275
 20
4.541527559055009
 30
0.0
  0
SPLINE
  5
70
330
1F
100
AcDbEntity
  8
Default
100
AcDbSpline
210
0.0
220
0.0
230
1.0
 70
    24
 71
     2
 72
     6
 73
     3
 74
     0
 42
0.0000000001
 43
0.0000000001
 40
-0.34375
 40
-0.34375
 40
-0.34375
 40
0.0
 40
0.0
 40
0.0
 10
0.7500000000012861
 20
2.560000000000008
 30
0.0
 10
0.5781250000012861
 20
2.560000000000008
 30
0.0
 10
0.4062500000012861
 20
2.560000000000008
 30
0.0
  0
SPLINE
  5
71
330
1F
100
AcDbEntity
  8
Default
100
AcDbSpline
210
0.0
220
0.0
230
1.0
 70
    24
 71
     2
 72
     6
 73
     3
 74
     0
 42
0.0000000001
 43
0.0000000001
 40
0.0
 40
0.0
 40
0.0
 40
2.492448632942286
 40
2.492448632942286
 40
2.492448632942286
 10
0.3750000000012932
 20
2.528749970346007
 30
0.0
 10
0.3750000000012932
 20
1.281262826937436
 30
0.0
 10
0.3750000000012932
 20
0.0337756835288641
 30
0.0
  0
SPLINE
  5
72
330
1F
100
AcDbEntity
  8
Default
100
AcDbSpline
210
0.0
220
0.0
230
1.0
 70
    24
 71
     2
 72
     6
 73
     3
 74
     0
 42
0.0000000001
 43
0.0000000001
 40
0.3593750000000071
 40
0.3593750000000071
 40
0.3593750000000071
 40
0.71875
 40
0.71875
 40
0.71875
 10
0.0000000000012932
 20
2.560000000000008
 30
0.0
 10
0.1796875000012896
 20
2.560000000000008
 30
0.0
 10
0.3593750000012861
 20
2.560000000000008
 30
0.0
  0
SPLINE
  5
73
330
1F
100
AcDbEntity
  8
Default
100
AcDbSpline
210
0.0
220
0.0
230
1.0
 70
    12
 71
     2
 72
     6
 73
     3
 74
     0
 42
0.0000000001
 43
0.0000000001
 40
0.0
 40
0.0
 40
0.0
 40
0.1963495408493618
 40
0.1963495408493618
 40
0.1963495408493618
 10
0.7500000000012861
 20
0.0000000000000071
 30
0.0
 41
1.0
 10
0.8750000000012854
 20
0.0000000000000066
 30
0.0
 41
0.7071067811865464
 10
0.8750000000012861
 20
0.1250000000000071
 30
0.0
 41
1.0
  0
SPLINE
  5
74
330
1F
100
AcDbEntity
  8
Default
100
AcDbSpline
210
0.0
220
0.0
230
1.0
 70
    12
 71
     2
 72
     6
 73
     3
 74
     0
 42
0.0000000001
 43
0.0000000001
 40
0.0
 40
0.0
 40
0.0
 40
0.1963495408493625
 40
0.1963495408493625
 40
0.1963495408493625
 10
0.8750000000012861
 20
2.435000000000008
 30
0.0
 41
1.0
 10
0.8750000000012834
 20
2.560000000000008
 30
0.0
 41
0.7071067811865462
 10
0.7500000000012861
 20
2.560000000000008
 30
0.0
 41
1.0
  0
SPLINE
  5
75
330
1F
100
AcDbEntity
  8
Default
100
AcDbSpline
210
0.0
220
0.0
230
1.0
 70
    24
 71
     2
 72
     6
 73
     3
 74
     0
 42
0.0000000001
 43
0.0000000001
 40
-0.34375
 40
-0.34375
 40
-0.34375
 40
0.0
 40
0.0
 40
0.0
 10
-0.7499999999986997
 20
2.560000000000008
 30
0.0
 10
-0.5781249999986997
 20
2.560000000000008
 30
0.0
 10
-0.4062499999986997
 20
2.560000000000008
 30
0.0
  0
SPLINE
  5
76
330
1F
100
AcDbEntity
  8
Default
100
AcDbSpline
210
0.0
220
0.0
230
1.0
 70
    24
 71
     2
 72
     6
 73
     3
 74
     0
 42
0.0000000001
 43
0.0000000001
 40
0.0
 40
0.0
 40
0.0
 40
2.492448632942286
 40
2.492448632942286
 40
2.492448632942286
 10
-0.3749999999987068
 20
2.528749970346007
 30
0.0
 10
-0.3749999999987068
 20
1.281262826937436
 30
0.0
 10
-0.3749999999987068
 20
0.0337756835288641
 30
0.0
  0
SPLINE
  5
77
330
1F
100
AcDbEntity
  8
Default
100
AcDbSpline
210
0.0
220
0.0
230
1.0
 70
    24
 71
     2
 72
     6
 73
     3
 74
     0
 42
0.0000000001
 43
0.0000000001
 40
-0.34375
 40
-0.34375
 40
-0.34375
 40
0.0
 40
0.0
 40
0.0
 10
-0.4062499999986997
 20
0.0000000000000071
 30
0.0
 10
-0.5781249999986997
 20
0.0000000000000071
 30
0.0
 10
-0.7499999999986997
 20
0.0000000000000071
 30
0.0
  0
SPLINE
  5
78
330
1F
100
AcDbEntity
  8
Default
100
AcDbSpline
210
0.0
220
0.0
230
1.0
 70
    24
 71
     2
 72
     6
 73
     3
 74
     0
 42
0.0000000001
 43
0.0000000001
 40
0.0
 40
0.0
 40
0.0
 40
2.31
 40
2.31
 40
2.31
 10
-0.8749999999986997
 20
0.1250000000000071
 30
0.0
 10
-0.8749999999986997
 20
1.280000000000006
 30
0.0
 10
-0.8749999999986997
 20
2.435000000000008
 30
0.0
  0
SPLINE
  5
79
330
1F
100
AcDbEntity
  8
Default
100
AcDbSpline
210
0.0
220
0.0
230
1.0
 70
    24
 71
     2
 72
     6
 73
     3
 74
     0
 42
0.0000000001
 43
0.0000000001
 40
-0.3593749999999929
 40
-0.3593749999999929
 40
-0.3593749999999929
 40
0.0
 40
0.0
 40
0.0
 10
0.0000000000012932
 20
0.8425000000000082
 30
0.0
 10
-0.1796874999987033
 20
0.8425000000000082
 30
0.0
 10
-0.3593749999986997
 20
0.8425000000000082
 30
0.0
  0
SPLINE
  5
7A
330
1F
100
AcDbEntity
  8
Default
100
AcDbSpline
210
0.0
220
0.0
230
1.0
 70
    24
 71
     2
 72
     6
 73
     3
 74
     0
 42
0.0000000001
 43
0.0000000001
 40
-0.71875
 40
-0.71875
 40
-0.71875
 40
-0.3593750000000071
 40
-0.3593750000000071
 40
-0.3593750000000071
 10
-0.3593749999986997
 20
2.560000000000008
 30
0.0
 10
-0.1796874999987033
 20
2.560000000000008
 30
0.0
 10
0.0000000000012932
 20
2.560000000000008
 30
0.0
  0
LINE
  5
7B
330
1F
100
AcDbEntity
  8
Default
100
AcDbLine
 10
0.3593750000012861
 20
2.560000000000008
 30
0.0
 11
0.3593750000012861
 21
0.8425000000000082
 31
0.0
  0
SPLINE
  5
7C
330
1F
100
AcDbEntity
  8
Default
100
AcDbSpline
210
0.0
220
0.0
230
1.0
 70
    24
 71
     2
 72
     6
 73
     3
 74
     0
 42
0.0000000001
 43
0.0000000001
 40
0.0
 40
0.0
 40
0.0
 40
0.3593749999999929
 40
0.3593749999999929
 40
0.3593749999999929
 10
0.3593750000012861
 20
0.8425000000000082
 30
0.0
 10
0.1796875000012896
 20
0.8425000000000082
 30
0.0
 10
0.0000000000012932
 20
0.8425000000000082
 30
0.0
  0
LINE
  5
7D
330
1F
100
AcDbEntity
  8
Default
100
AcDbLine
 10
12.17562608012883
 20
2.560000000000008
 30
0.0
 11
12.17562608012884
 21
0.8425000000000082
 31
0.0
  0
SPLINE
  5
7E
330
1F
100
AcDbEntity
  8
Default
100
AcDbSpline
210
0.0
220
0.0
230
1.0
 70
    24
 71
     2
 72
     6
 73
     3
 74
     0
 42
0.0000000001
 43
0.0000000001
 40
-0.71875
 40
-0.71875
 40
-0.71875
 40
0.0
 40
0.0
 40
0.0
 10
12.17562608012884
 20
0.8425000000000082
 30
0.0
 10
12.53500108012884
 20
0.8425000000000082
 30
0.0
 10
12.89437608012884
 20
0.8425000000000082
 30
0.0
  0
LINE
  5
7F
330
1F
100
AcDbEntity
  8
Default
100
AcDbLine
 10
12.89437608012884
 20
0.8425000000000082
 30
0.0
 11
12.89437608012883
 21
2.560000000000008
 31
0.0
  0
SPLINE
  5
80
330
1F
100
AcDbEntity
  8
Default
100
AcDbSpline
210
0.0
220
0.0
230
1.0
 70
    24
 71
     2
 72
     6
 73
     3
 74
     0
 42
0.0000000001
 43
0.0000000001
 40
-0.71875
 40
-0.71875
 40
-0.71875
 40
0.0
 40
0.0
 40
0.0
 10
12.89437608012883
 20
2.560000000000008
 30
0.0
 10
12.53500108012883
 20
2.560000000000008
 30
0.0
 10
12.17562608012883
 20
2.560000000000008
 30
0.0
  0
LINE
  5
81
330
1F
100
AcDbEntity
  8
Default
100
AcDbLine
 10
8.106431716536761
 20
2.560000000000008
 30
0.0
 11
8.106431716536761
 21
0.8425000000000082
 31
0.0
  0
SPLINE
  5
82
330
1F
100
AcDbEntity
  8
Default
100
AcDbSpline
210
0.0
220
0.0
230
1.0
 70
    24
 71
     2
 72
     6
 73
     3
 74
     0
 42
0.0000000001
 43
0.0000000001
 40
0.0
 40
0.0
 40
0.0
 40
0.71875
 40
0.71875
 40
0.71875
 10
8.106431716536761
 20
0.8425000000000082
 30
0.0
 10
7.747056716536761
 20
0.8425000000000082
 30
0.0
 10
7.387681716536761
 20
0.8425000000000082
 30
0.0
  0
LINE
  5
83
330
1F
100
AcDbEntity
  8
Default
100
AcDbLine
 10
7.387681716536761
 20
0.8425000000000082
 30
0.0
 11
7.387681716536761
 21
2.560000000000008
 31
0.0
  0
SPLINE
  5
84
330
1F
100
AcDbEntity
  8
Default
100
AcDbSpline
210
0.0
220
0.0
230
1.0
 70
    24
 71
     2
 72
     6
 73
     3
 74
     0
 42
0.0000000001
 43
0.0000000001
 40
0.0
 40
0.0
 40
0.0
 40
0.71875
 40
0.71875
 40
0.71875
 10
7.387681716536761
 20
2.560000000000008
 30
0.0
 10
7.747056716536761
 20
2.560000000000008
 30
0.0
 10
8.106431716536761
 20
2.560000000000008
 30
0.0
  0
SPLINE
  5
85
330
1F
100
AcDbEntity
  8
Default
100
AcDbSpline
210
0.0
220
0.0
230
1.0
 70
    12
 71
     2
 72
     6
 73
     3
 74
     0
 42
0.0000000001
 43
0.0000000001
 40
0.0
 40
0.0
 40
0.0
 40
0.1963495408493613
 40
0.1963495408493613
 40
0.1963495408493613
 10
6.997056716536761
 20
2.560000000000008
 30
0.0
 41
1.0
 10
6.872056716536761
 20
2.560000000000004
 30
0.0
 41
0.7071067811865714
 10
6.872056716536761
 20
2.435000000000008
 30
0.0
 41
1.0
  0
SPLINE
  5
86
330
1F
100
AcDbEntity
  8
Default
100
AcDbSpline
210
0.0
220
0.0
230
1.0
 70
    24
 71
     2
 72
     6
 73
     3
 74
     0
 42
0.0000000001
 43
0.0000000001
 40
0.0
 40
0.0
 40
0.0
 40
2.305327919447875
 40
2.305327919447875
 40
2.305327919447875
 10
6.872056716536761
 20
2.435000000000008
 30
0.0
 10
6.872056716536761
 20
1.28116802013804
 30
0.0
 10
6.872056716536761
 20
0.1273360402760702
 30
0.0
  0
SPLINE
  5
87
330
1F
100
AcDbEntity
  8
Default
100
AcDbSpline
210
0.0
220
0.0
230
1.0
 70
    12
 71
     2
 72
     6
 73
     3
 74
     0
 42
0.0000000001
 43
0.0000000001
 40
0.0
 40
0.0
 40
0.0
 40
0.1963495408493619
 40
0.1963495408493619
 40
0.1963495408493619
 10
6.872056716536761
 20
0.1273360402760702
 30
0.0
 41
1.0
 10
6.872056716536763
 20
0.0000000000000141
 30
0.0
 41
0.7071067811865953
 10
6.997056716536761
 20
0.0000000000000053
 30
0.0
 41
1.0
  0
SPLINE
  5
88
330
1F
100
AcDbEntity
  8
Default
100
AcDbSpline
210
0.0
220
0.0
230
1.0
 70
    24
 71
     2
 72
     6
 73
     3
 74
     0
 42
0.0000000001
 43
0.0000000001
 40
-0.34375
 40
-0.34375
 40
-0.34375
 40
0.0
 40
0.0
 40
0.0
 10
6.997056716536761
 20
0.0000000000000053
 30
0.0
 10
7.168931716536761
 20
0.0000000000000071
 30
0.0
 10
7.340806716536761
 20
0.0000000000000089
 30
0.0
  0
SPLINE
  5
89
330
1F
100
AcDbEntity
  8
Default
100
AcDbSpline
210
0.0
220
0.0
230
1.0
 70
    12
 71
     2
 72
     8
 73
     5
 74
     0
 42
0.0000000001
 43
0.0000000001
 40
0.0
 40
0.0
 40
0.0
 40
0.0245437074326731
 40
0.0245437074326731
 40
0.049087414865344
 40
0.049087414865344
 40
0.049087414865344
 10
7.340806716536761
 20
0.0000000000000089
 30
0.0
 41
1.0
 10
7.353750899046074
 20
0.0000000000000071
 30
0.0
 41
0.9238794417295504
 10
7.36290381393276
 20
0.0091529235718486
 30
0.0
 41
1.0
 10
7.372056728819431
 20
0.0183058471436901
 30
0.0
 41
0.9238794417295761
 10
7.372056716536747
 20
0.0312500296530072
 30
0.0
 41
1.0
  0
SPLINE
  5
8A
330
1F
100
AcDbEntity
  8
Default
100
AcDbSpline
210
0.0
220
0.0
230
1.0
 70
    24
 71
     2
 72
     6
 73
     3
 74
     0
 42
0.0000000001
 43
0.0000000001
 40
0.0
 40
0.0
 40
0.0
 40
2.492448632944282
 40
2.492448632944282
 40
2.492448632944282
 10
7.372056716536747
 20
0.0312500296530072
 30
0.0
 10
7.372056716536747
 20
1.278737173062577
 30
0.0
 10
7.372056716536747
 20
2.526224316472149
 30
0.0
  0
SPLINE
  5
8B
330
1F
100
AcDbEntity
  8
Default
100
AcDbSpline
210
0.0
220
0.0
230
1.0
 70
    12
 71
     2
 72
     8
 73
     5
 74
     0
 42
0.0000000001
 43
0.0000000001
 40
0.0
 40
0.0
 40
0.0
 40
0.024543707432671
 40
0.024543707432671
 40
0.0490874148653413
 40
0.0490874148653413
 40
0.0490874148653413
 10
7.372056716536747
 20
2.526224316472149
 30
0.0
 41
1.0
 10
7.372056728819425
 20
2.541694152856324
 30
0.0
 41
0.9238794417296806
 10
7.36290381393276
 20
2.550847076428166
 30
0.0
 41
1.0
 10
7.353750899046086
 20
2.560000000000011
 30
0.0
 41
0.923879441729465
 10
7.340806716536761
 20
2.560000000000008
 30
0.0
 41
1.0
  0
SPLINE
  5
8C
330
1F
100
AcDbEntity
  8
Default
100
AcDbSpline
210
0.0
220
0.0
230
1.0
 70
    24
 71
     2
 72
     6
 73
     3
 74
     0
 42
0.0000000001
 43
0.0000000001
 40
-0.34375
 40
-0.34375
 40
-0.34375
 40
0.0
 40
0.0
 40
0.0
 10
7.340806716536761
 20
2.560000000000008
 30
0.0
 10
7.168931716536761
 20
2.560000000000008
 30
0.0
 10
6.997056716536761
 20
2.560000000000008
 30
0.0
  0
SPLINE
  5
8D
330
1F
100
AcDbEntity
  8
Default
100
AcDbSpline
210
0.0
220
0.0
230
1.0
 70
    12
 71
     2
 72
     6
 73
     3
 74
     0
 42
0.0000000001
 43
0.0000000001
 40
0.0
 40
0.0
 40
0.0
 40
0.3808160980565514
 40
0.3808160980565514
 40
0.3808160980565514
 10
0.8759842519697969
 20
4.162000000000008
 30
0.0
 41
1.0
 10
0.8891983461483778
 20
4.351958944982297
 30
0.0
 41
0.9999216483317138
 10
0.907163691185275
 20
4.541527559055009
 30
0.0
 41
1.0
  0
SPLINE
  5
8E
330
1F
100
AcDbEntity
  8
Default
100
AcDbSpline
210
0.0
220
0.0
230
1.0
 70
    12
 71
     2
 72
     8
 73
     5
 74
     0
 42
0.0000000001
 43
0.0000000001
 40
0.0
 40
0.0
 40
0.0
 40
0.0245437074331717
 40
0.0245437074331717
 40
0.0490874148663419
 40
0.0490874148663419
 40
0.0490874148663419
 10
0.4062500000012861
 20
2.560000000000008
 30
0.0
 41
1.0
 10
0.393305817491671
 20
2.560000000000008
 30
0.0
 41
0.9238794417265213
 10
0.3841529026049386
 20
2.550847076427813
 30
0.0
 41
1.0
 10
0.3749999877182013
 20
2.541694152855616
 30
0.0
 41
0.9238794417266049
 10
0.3750000000012932
 20
2.528749970346007
 30
0.0
 41
1.0
  0
SPLINE
  5
8F
330
1F
100
AcDbEntity
  8
Default
100
AcDbSpline
210
0.0
220
0.0
230
1.0
 70
    12
 71
     2
 72
     8
 73
     5
 74
     0
 42
0.0000000001
 43
0.0000000001
 40
0.0
 40
0.0
 40
0.0
 40
0.0245437074331713
 40
0.0245437074331713
 40
0.0490874148663428
 40
0.0490874148663428
 40
0.0490874148663428
 10
0.3750000000012932
 20
0.0337756835288641
 30
0.0
 41
1.0
 10
0.3749999877182029
 20
0.0183058471443963
 30
0.0
 41
0.9238794417265062
 10
0.3841529026049386
 20
0.0091529235722021
 30
0.0
 41
1.0
 10
0.3933058174916693
 20
0.0000000000000078
 30
0.0
 41
0.9238794417265562
 10
0.4062500000012861
 20
0.0000000000000071
 30
0.0
 41
1.0
  0
SPLINE
  5
90
330
1F
100
AcDbEntity
  8
Default
100
AcDbSpline
210
0.0
220
0.0
230
1.0
 70
    24
 71
     2
 72
     6
 73
     3
 74
     0
 42
0.0000000001
 43
0.0000000001
 40
-0.34375
 40
-0.34375
 40
-0.34375
 40
0.0
 40
0.0
 40
0.0
 10
0.4062500000012861
 20
0.0000000000000071
 30
0.0
 10
0.5781250000012861
 20
0.0000000000000071
 30
0.0
 10
0.7500000000012861
 20
0.0000000000000071
 30
0.0
  0
SPLINE
  5
91
330
1F
100
AcDbEntity
  8
Default
100
AcDbSpline
210
0.0
220
0.0
230
1.0
 70
    24
 71
     2
 72
     6
 73
     3
 74
     0
 42
0.0000000001
 43
0.0000000001
 40
0.0
 40
0.0
 40
0.0
 40
2.31
 40
2.31
 40
2.31
 10
0.8750000000012861
 20
0.1250000000000071
 30
0.0
 10
0.8750000000012861
 20
1.280000000000006
 30
0.0
 10
0.8750000000012861
 20
2.435000000000008
 30
0.0
  0
SPLINE
  5
92
330
1F
100
AcDbEntity
  8
Default
100
AcDbSpline
210
0.0
220
0.0
230
1.0
 70
    24
 71
     2
 72
     6
 73
     3
 74
     0
 42
0.0000000001
 43
0.0000000001
 40
0.0
 40
0.0
 40
0.0
 40
0.1012133421294007
 40
0.1012133421294007
 40
0.1012133421294007
 10
-0.3593749999987921
 20
2.660000000000009
 30
0.0
 10
-0.3515624999987921
 20
2.610000000000001
 30
0.0
 10
-0.3437499999987921
 20
2.559999999999993
 30
0.0
  0
SPLINE
  5
93
330
1F
100
AcDbEntity
  8
Default
100
AcDbSpline
210
0.0
220
0.0
230
1.0
 70
    12
 71
     2
 72
     8
 73
     5
 74
     0
 42
0.0000000001
 43
0.0000000001
 40
0.0
 40
0.0
 40
0.0
 40
0.0245437074331717
 40
0.0245437074331717
 40
0.0490874148663419
 40
0.0490874148663419
 40
0.0490874148663419
 10
-0.4062499999986997
 20
2.560000000000008
 30
0.0
 41
1.0
 10
-0.3933058174890839
 20
2.560000000000008
 30
0.0
 41
0.9238794417265213
 10
-0.3841529026023522
 20
2.550847076427813
 30
0.0
 41
1.0
 10
-0.3749999877156175
 20
2.541694152855616
 30
0.0
 41
0.9238794417266049
 10
-0.3749999999987068
 20
2.528749970346007
 30
0.0
 41
1.0
  0
SPLINE
  5
94
330
1F
100
AcDbEntity
  8
Default
100
AcDbSpline
210
0.0
220
0.0
230
1.0
 70
    12
 71
     2
 72
     8
 73
     5
 74
     0
 42
0.0000000001
 43
0.0000000001
 40
0.0
 40
0.0
 40
0.0
 40
0.0245437074331713
 40
0.0245437074331713
 40
0.0490874148663428
 40
0.0490874148663428
 40
0.0490874148663428
 10
-0.3749999999987068
 20
0.0337756835288641
 30
0.0
 41
1.0
 10
-0.3749999877156192
 20
0.0183058471443963
 30
0.0
 41
0.9238794417265062
 10
-0.3841529026023522
 20
0.0091529235722021
 30
0.0
 41
1.0
 10
-0.3933058174890792
 20
0.0000000000000078
 30
0.0
 41
0.9238794417265562
 10
-0.4062499999986997
 20
0.0000000000000071
 30
0.0
 41
1.0
  0
SPLINE
  5
95
330
1F
100
AcDbEntity
  8
Default
100
AcDbSpline
210
0.0
220
0.0
230
1.0
 70
    12
 71
     2
 72
     6
 73
     3
 74
     0
 42
0.0000000001
 43
0.0000000001
 40
0.0
 40
0.0
 40
0.0
 40
0.1963495408493618
 40
0.1963495408493618
 40
0.1963495408493618
 10
-0.7499999999986997
 20
0.0000000000000071
 30
0.0
 41
1.0
 10
-0.8749999999987014
 20
0.0000000000000066
 30
0.0
 41
0.7071067811865464
 10
-0.8749999999986997
 20
0.1250000000000071
 30
0.0
 41
1.0
  0
SPLINE
  5
96
330
1F
100
AcDbEntity
  8
Default
100
AcDbSpline
210
0.0
220
0.0
230
1.0
 70
    12
 71
     2
 72
     6
 73
     3
 74
     0
 42
0.0000000001
 43
0.0000000001
 40
0.0
 40
0.0
 40
0.0
 40
0.1963495408493625
 40
0.1963495408493625
 40
0.1963495408493625
 10
-0.8749999999986997
 20
2.435000000000008
 30
0.0
 41
1.0
 10
-0.8749999999986937
 20
2.560000000000008
 30
0.0
 41
0.7071067811865462
 10
-0.7499999999986997
 20
2.560000000000008
 30
0.0
 41
1.0
  0
LINE
  5
97
330
1F
100
AcDbEntity
  8
Default
100
AcDbLine
 10
-0.3593749999986997
 20
0.8425000000000082
 30
0.0
 11
-0.3593749999986997
 21
2.560000000000008
 31
0.0
  0
ARC
  5
98
330
1F
100
AcDbEntity
  8
Default
100
AcDbCircle
 10
-75.90395695643409
 20
-4.118056024824998
 30
0.0
 40
83.46239820896254
100
AcDbArc
 50
5.28039527027487
 51
5.674687777510693
  0
LINE
  5
99
330
1F
100
AcDbEntity
  8
Default
100
AcDbLine
 10
8.017082094686948
 20
4.001121268386274
 30
0.0
 11
8.019116777744742
 21
3.651516721835769
 31
0.0
  0
SPLINE
  5
9A
330
1F
100
AcDbEntity
  8
Default
100
AcDbSpline
210
0.0
220
0.0
230
1.0
 70
    12
 71
     2
 72
     6
 73
     3
 74
     0
 42
0.0000000001
 43
0.0000000001
 40
0.0
 40
0.0
 40
0.0
 40
0.6201447082721723
 40
0.6201447082721723
 40
0.6201447082721723
 10
7.261074599832362
 20
4.938572349993535
 30
0.0
 41
1.0
 10
7.533546752404561
 20
4.790563476915837
 30
0.0
 41
0.999977880596909
 10
7.808728286515219
 20
4.645789360260318
 30
0.0
 41
1.0
  0
LINE
  5
9B
330
1F
100
AcDbEntity
  8
Default
100
AcDbLine
 10
8.070964712206539
 20
4.005901437485187
 30
0.0
 11
8.07299939526434
 21
3.656296890934682
 31
0.0
  0
SPLINE
  5
9C
330
1F
100
AcDbEntity
  8
Default
100
AcDbSpline
210
0.0
220
0.0
230
1.0
 70
    24
 71
     2
 72
     6
 73
     3
 74
     0
 42
0.0000000001
 43
0.0000000001
 40
0.0
 40
0.0
 40
0.0
 40
0.1012133421293994
 40
0.1012133421293994
 40
0.1012133421293994
 10
-12.19125108012875
 20
2.559999999999995
 30
0.0
 10
-12.18343858012874
 20
2.610000000000001
 30
0.0
 10
-12.17562608012874
 20
2.660000000000007
 30
0.0
  0
SPLINE
  5
9D
330
1F
100
AcDbEntity
  8
Default
100
AcDbSpline
210
0.0
220
0.0
230
1.0
 70
    24
 71
     2
 72
     6
 73
     3
 74
     0
 42
0.0000000001
 43
0.0000000001
 40
0.0
 40
0.0
 40
0.0
 40
0.1002871374692927
 40
0.1002871374692927
 40
0.1002871374692927
 10
-8.106288731950933
 20
2.659084898650104
 30
0.0
 10
-8.09854772424389
 20
2.609542449325049
 30
0.0
 10
-8.090806716536846
 20
2.559999999999993
 30
0.0
  0
SPLINE
  5
9E
330
1F
100
AcDbEntity
  8
Default
100
AcDbSpline
210
0.0
220
0.0
230
1.0
 70
    24
 71
     2
 72
     6
 73
     3
 74
     0
 42
0.0000000001
 43
0.0000000001
 40
0.0
 40
0.0
 40
0.0
 40
1.727
 40
1.727
 40
1.727
 10
-0.8759842519697969
 20
4.162000000000008
 30
0.0
 10
-0.8759842519697933
 20
3.298500000000008
 30
0.0
 10
-0.8759842519697898
 20
2.435000000000008
 30
0.0
  0
SPLINE
  5
9F
330
1F
100
AcDbEntity
  8
Default
100
AcDbSpline
210
0.0
220
0.0
230
1.0
 70
    12
 71
     2
 72
     6
 73
     3
 74
     0
 42
0.0000000001
 43
0.0000000001
 40
0.0
 40
0.0
 40
0.0
 40
0.3808160980565514
 40
0.3808160980565514
 40
0.3808160980565514
 10
-0.8759842519697969
 20
4.162000000000008
 30
0.0
 41
1.0
 10
-0.8891983461483753
 20
4.351958944982297
 30
0.0
 41
0.9999216483317138
 10
-0.907163691185275
 20
4.541527559055009
 30
0.0
 41
1.0
  0
SPLINE
  5
A0
330
1F
100
AcDbEntity
  8
Default
100
AcDbSpline
210
0.0
220
0.0
230
1.0
 70
    24
 71
     2
 72
     6
 73
     3
 74
     0
 42
0.0000000001
 43
0.0000000001
 40
-0.71875
 40
-0.71875
 40
-0.71875
 40
0.0
 40
0.0
 40
0.0
 10
-12.17562608012884
 20
0.8425000000000082
 30
0.0
 10
-12.53500108012884
 20
0.8425000000000082
 30
0.0
 10
-12.89437608012884
 20
0.8425000000000082
 30
0.0
  0
SPLINE
  5
A1
330
1F
100
AcDbEntity
  8
Default
100
AcDbSpline
210
0.0
220
0.0
230
1.0
 70
    24
 71
     2
 72
     6
 73
     3
 74
     0
 42
0.0000000001
 43
0.0000000001
 40
-0.71875
 40
-0.71875
 40
-0.71875
 40
0.0
 40
0.0
 40
0.0
 10
-12.89437608012883
 20
2.560000000000008
 30
0.0
 10
-12.53500108012883
 20
2.560000000000008
 30
0.0
 10
-12.17562608012883
 20
2.560000000000008
 30
0.0
  0
SPLINE
  5
A2
330
1F
100
AcDbEntity
  8
Default
100
AcDbSpline
210
0.0
220
0.0
230
1.0
 70
    24
 71
     2
 72
     6
 73
     3
 74
     0
 42
0.0000000001
 43
0.0000000001
 40
0.0
 40
0.0
 40
0.0
 40
0.71875
 40
0.71875
 40
0.71875
 10
-8.106431716536761
 20
0.8425000000000082
 30
0.0
 10
-7.747056716536761
 20
0.8425000000000082
 30
0.0
 10
-7.387681716536761
 20
0.8425000000000082
 30
0.0
  0
SPLINE
  5
A3
330
1F
100
AcDbEntity
  8
Default
100
AcDbSpline
210
0.0
220
0.0
230
1.0
 70
    12
 71
     2
 72
     6
 73
     3
 74
     0
 42
0.0000000001
 43
0.0000000001
 40
0.0
 40
0.0
 40
0.0
 40
0.8199859379606601
 40
0.8199859379606601
 40
0.8199859379606601
 10
7.057140901998203
 20
4.973550849388175
 30
0.0
 41
1.0
 10
7.423376431196339
 20
4.789242238383848
 30
0.0
 41
0.99998263368664
 10
7.787414143909231
 20
4.600629750302737
 30
0.0
 41
1.0
  0
SPLINE
  5
A4
330
1F
100
AcDbEntity
  8
Default
100
AcDbSpline
210
0.0
220
0.0
230
1.0
 70
    12
 71
     2
 72
    34
 73
    31
 74
     0
 42
0.0000000001
 43
0.0000000001
 40
0.0
 40
0.0
 40
0.0
 40
0.0325629330256031
 40
0.0325629330256031
 40
0.0679867475747329
 40
0.0679867475747329
 40
0.1078548175612879
 40
0.1078548175612879
 40
0.1539416874961473
 40
0.1539416874961473
 40
0.2049083135201158
 40
0.2049083135201158
 40
0.2543078929230853
 40
0.2543078929230853
 40
0.3011102212885154
 40
0.3011102212885154
 40
0.3516822644554414
 40
0.3516822644554414
 40
0.4070049641826737
 40
0.4070049641826737
 40
0.4643605855870755
 40
0.4643605855870755
 40
0.5185444554455992
 40
0.5185444554455992
 40
0.5669809148546006
 40
0.5669809148546006
 40
0.6104726859179642
 40
0.6104726859179642
 40
0.6501902162813917
 40
0.6501902162813917
 40
0.6873951308628176
 40
0.6873951308628176
 40
0.6873951308628176
 10
7.787414143909231
 20
4.600629750302737
 30
0.0
 41
1.0
 10
7.801870790810079
 20
4.593135247876887
 30
0.0
 41
0.9997848817731985
 10
7.816004179027523
 20
4.585047631187063
 30
0.0
 41
1.0
 10
7.831384972769597
 20
4.576251548999005
 30
0.0
 41
0.9994547773423571
 10
7.846151701164764
 20
4.566459531306066
 30
0.0
 41
1.0
 10
7.862782754820408
 20
4.555440318788313
 30
0.0
 41
0.9987765555205204
 10
7.878243982821218
 20
4.542832169879143
 30
0.0
 41
1.0
 10
7.896121450433736
 20
4.528235919408163
 30
0.0
 41
0.9976702384926762
 10
7.911845611435524
 20
4.51134198153572
 30
0.0
 41
1.0
 10
7.929225793480787
 20
4.49263202623206
 30
0.0
 41
0.9968554709066841
 10
7.943431834267116
 20
4.471411244894675
 30
0.0
 41
1.0
 10
7.957206436983173
 20
4.450849678614835
 30
0.0
 41
0.9970143869160545
 10
7.967650898905511
 20
4.428412412671364
 30
0.0
 41
1.0
 10
7.977490424787976
 20
4.407141673202821
 30
0.0
 41
0.9977520697646052
 10
7.984397131564592
 20
4.384746181946049
 30
0.0
 41
1.0
 10
7.991801551875443
 20
4.360545139685645
 30
0.0
 41
0.998673277181905
 10
7.996677568538743
 20
4.335710882134251
 30
0.0
 41
1.0
 10
8.002053145285103
 20
4.3085646588594
 30
0.0
 41
0.9993497102211706
 10
8.005458356933048
 20
4.281101614653103
 30
0.0
 41
1.0
 10
8.008999887956369
 20
4.252637234722359
 30
0.0
 41
0.9996841037542856
 10
8.01110657780275
 20
4.224030850387356
 30
0.0
 41
1.0
 10
8.013122076169381
 20
4.197011475006225
 30
0.0
 41
0.9998611152163238
 10
8.01423597874144
 20
4.169939938280129
 30
0.0
 41
1.0
 10
8.015229046606324
 20
4.145741199800938
 30
0.0
 41
0.9999456865613557
 10
8.015717514053442
 20
4.121527019506708
 30
0.0
 41
1.0
 10
8.016159842873495
 20
4.099785439773354
 30
0.0
 41
0.9999866673554543
 10
8.016377611576246
 20
4.078040451365009
 30
0.0
 41
1.0
 10
8.016578234710407
 20
4.058182689074338
 30
0.0
 41
0.9999992045072397
 10
8.016728762367201
 20
4.038324483861899
 30
0.0
 41
1.0
 10
8.016870967495182
 20
4.019722548835272
 30
0.0
 41
0.9999982839715726
 10
8.017082094686948
 20
4.001121268386274
 30
0.0
 41
1.0
  0
ARC
  5
A5
330
1F
100
AcDbEntity
  8
Default
100
AcDbCircle
 10
-68.37079838939772
 20
3.206930781203855
 30
0.0
 40
76.39120889148064
100
AcDbArc
 50
359.5897814207933
 51
0.3334551475037604
  0
SPLINE
  5
A6
330
1F
100
AcDbEntity
  8
Default
100
AcDbSpline
210
0.0
220
0.0
230
1.0
 70
     8
 71
     3
 72
    12
 73
     8
 74
     0
 42
0.0000000001
 43
0.0000000001
 40
0.0
 40
0.0
 40
0.0
 40
0.0
 40
0.0807135580873582
 40
0.1561302048482713
 40
0.3085481570555513
 40
0.4875238302638922
 40
0.7348234087463479
 40
0.7348234087463479
 40
0.7348234087463479
 40
0.7348234087463479
 10
7.808728286515219
 20
4.645789360260318
 30
0.0
 10
7.833393949530432
 20
4.632865539328701
 30
0.0
 10
7.878055006372946
 20
4.606339897567555
 30
0.0
 10
7.957470766206697
 20
4.539688801882004
 30
0.0
 10
8.028753551920701
 20
4.421218715464782
 30
0.0
 10
8.066228827508084
 20
4.230296484905539
 30
0.0
 10
8.071081233822966
 20
4.088467010633474
 30
0.0
 10
8.070964712206539
 20
4.005901437485187
 30
0.0
  0
ARC
  5
A7
330
1F
100
AcDbEntity
  8
Default
100
AcDbCircle
 10
-68.31691577184154
 20
3.211710950303754
 30
0.0
 40
76.39120889144402
100
AcDbArc
 50
359.5861960527876
 51
0.3334551475031208
  0
SPLINE
  5
A8
330
1F
100
AcDbEntity
  8
Default
100
AcDbSpline
210
0.0
220
0.0
230
1.0
 70
    24
 71
     2
 72
     6
 73
     3
 74
     0
 42
0.0000000001
 43
0.0000000001
 40
0.0
 40
0.0
 40
0.0
 40
0.1002871374692929
 40
0.1002871374692929
 40
0.1002871374692929
 10
-12.894233095543
 20
2.659084898650105
 30
0.0
 10
-12.88649208783596
 20
2.609542449325049
 30
0.0
 10
-12.87875108012892
 20
2.559999999999993
 30
0.0
  0
SPLINE
  5
A9
330
1F
100
AcDbEntity
  8
Default
100
AcDbSpline
210
0.0
220
0.0
230
1.0
 70
    24
 71
     2
 72
     6
 73
     3
 74
     0
 42
0.0000000001
 43
0.0000000001
 40
0.0
 40
0.0
 40
0.0
 40
0.1012133421293994
 40
0.1012133421293994
 40
0.1012133421293994
 10
-7.403306716536676
 20
2.559999999999995
 30
0.0
 10
-7.395494216536669
 20
2.610000000000001
 30
0.0
 10
-7.387681716536662
 20
2.660000000000007
 30
0.0
  0
SPLINE
  5
AA
330
1F
100
AcDbEntity
  8
Default
100
AcDbSpline
210
0.0
220
0.0
230
1.0
 70
    24
 71
     2
 72
     6
 73
     3
 74
     0
 42
0.0000000001
 43
0.0000000001
 40
0.0
 40
0.0
 40
0.0
 40
1.5570398096186
 40
1.5570398096186
 40
1.5570398096186
 10
-0.9462379164083146
 20
6.098077003711474
 30
0.0
 10
-0.9267008037967948
 20
5.319802281383243
 30
0.0
 10
-0.907163691185275
 20
4.541527559055009
 30
0.0
  0
LINE
  5
AB
330
1F
100
AcDbEntity
  8
Default
100
AcDbLine
 10
-12.17562608012883
 20
2.560000000000008
 30
0.0
 11
-12.17562608012884
 21
0.8425000000000082
 31
0.0
  0
LINE
  5
AC
330
1F
100
AcDbEntity
  8
Default
100
AcDbLine
 10
-12.89437608012884
 20
0.8425000000000082
 30
0.0
 11
-12.89437608012883
 21
2.560000000000008
 31
0.0
  0
LINE
  5
AD
330
1F
100
AcDbEntity
  8
Default
100
AcDbLine
 10
-8.106431716536761
 20
2.560000000000008
 30
0.0
 11
-8.106431716536761
 21
0.8425000000000082
 31
0.0
  0
LINE
  5
AE
330
1F
100
AcDbEntity
  8
Default
100
AcDbLine
 10
-7.387681716536761
 20
0.8425000000000082
 30
0.0
 11
-7.387681716536761
 21
2.560000000000008
 31
0.0
  0
SPLINE
  5
AF
330
1F
100
AcDbEntity
  8
Default
100
AcDbSpline
210
0.0
220
0.0
230
1.0
 70
    24
 71
     2
 72
     6
 73
     3
 74
     0
 42
0.0000000001
 43
0.0000000001
 40
0.0
 40
0.0
 40
0.0
 40
0.71875
 40
0.71875
 40
0.71875
 10
-7.387681716536761
 20
2.560000000000008
 30
0.0
 10
-7.747056716536761
 20
2.560000000000008
 30
0.0
 10
-8.106431716536761
 20
2.560000000000008
 30
0.0
  0
SPLINE
  5
B0
330
1F
100
AcDbEntity
  8
Default
100
AcDbSpline
210
0.0
220
0.0
230
1.0
 70
    12
 71
     2
 72
     6
 73
     3
 74
     0
 42
0.0000000001
 43
0.0000000001
 40
0.0
 40
0.0
 40
0.0
 40
0.1963495408493613
 40
0.1963495408493613
 40
0.1963495408493613
 10
-6.997056716536761
 20
2.560000000000008
 30
0.0
 41
1.0
 10
-6.872056716536764
 20
2.560000000000004
 30
0.0
 41
0.7071067811865714
 10
-6.872056716536761
 20
2.435000000000008
 30
0.0
 41
1.0
  0
SPLINE
  5
B1
330
1F
100
AcDbEntity
  8
Default
100
AcDbSpline
210
0.0
220
0.0
230
1.0
 70
    24
 71
     2
 72
     6
 73
     3
 74
     0
 42
0.0000000001
 43
0.0000000001
 40
0.0
 40
0.0
 40
0.0
 40
2.305327919447875
 40
2.305327919447875
 40
2.305327919447875
 10
-6.872056716536761
 20
2.435000000000008
 30
0.0
 10
-6.872056716536761
 20
1.28116802013804
 30
0.0
 10
-6.872056716536761
 20
0.1273360402760702
 30
0.0
  0
SPLINE
  5
B2
330
1F
100
AcDbEntity
  8
Default
100
AcDbSpline
210
0.0
220
0.0
230
1.0
 70
    12
 71
     2
 72
     6
 73
     3
 74
     0
 42
0.0000000001
 43
0.0000000001
 40
0.0
 40
0.0
 40
0.0
 40
0.1963495408493619
 40
0.1963495408493619
 40
0.1963495408493619
 10
-6.872056716536761
 20
0.1273360402760702
 30
0.0
 41
1.0
 10
-6.872056716536761
 20
0.0000000000000141
 30
0.0
 41
0.7071067811865953
 10
-6.997056716536761
 20
0.0000000000000053
 30
0.0
 41
1.0
  0
SPLINE
  5
B3
330
1F
100
AcDbEntity
  8
Default
100
AcDbSpline
210
0.0
220
0.0
230
1.0
 70
    24
 71
     2
 72
     6
 73
     3
 74
     0
 42
0.0000000001
 43
0.0000000001
 40
-0.34375
 40
-0.34375
 40
-0.34375
 40
0.0
 40
0.0
 40
0.0
 10
-6.997056716536761
 20
0.0000000000000053
 30
0.0
 10
-7.168931716536761
 20
0.0000000000000071
 30
0.0
 10
-7.340806716536761
 20
0.0000000000000089
 30
0.0
  0
SPLINE
  5
B4
330
1F
100
AcDbEntity
  8
Default
100
AcDbSpline
210
0.0
220
0.0
230
1.0
 70
    12
 71
     2
 72
     8
 73
     5
 74
     0
 42
0.0000000001
 43
0.0000000001
 40
0.0
 40
0.0
 40
0.0
 40
0.0245437074326731
 40
0.0245437074326731
 40
0.049087414865344
 40
0.049087414865344
 40
0.049087414865344
 10
-7.340806716536761
 20
0.0000000000000089
 30
0.0
 41
1.0
 10
-7.353750899046072
 20
0.0000000000000071
 30
0.0
 41
0.9238794417295504
 10
-7.36290381393276
 20
0.0091529235718486
 30
0.0
 41
1.0
 10
-7.372056728819431
 20
0.0183058471436901
 30
0.0
 41
0.9238794417295761
 10
-7.372056716536747
 20
0.0312500296530072
 30
0.0
 41
1.0
  0
SPLINE
  5
B5
330
1F
100
AcDbEntity
  8
Default
100
AcDbSpline
210
0.0
220
0.0
230
1.0
 70
    24
 71
     2
 72
     6
 73
     3
 74
     0
 42
0.0000000001
 43
0.0000000001
 40
0.0
 40
0.0
 40
0.0
 40
2.492448632944282
 40
2.492448632944282
 40
2.492448632944282
 10
-7.372056716536747
 20
0.0312500296530072
 30
0.0
 10
-7.372056716536747
 20
1.278737173062577
 30
0.0
 10
-7.372056716536747
 20
2.526224316472149
 30
0.0
  0
SPLINE
  5
B6
330
1F
100
AcDbEntity
  8
Default
100
AcDbSpline
210
0.0
220
0.0
230
1.0
 70
    12
 71
     2
 72
     8
 73
     5
 74
     0
 42
0.0000000001
 43
0.0000000001
 40
0.0
 40
0.0
 40
0.0
 40
0.024543707432671
 40
0.024543707432671
 40
0.0490874148653413
 40
0.0490874148653413
 40
0.0490874148653413
 10
-7.372056716536747
 20
2.526224316472149
 30
0.0
 41
1.0
 10
-7.372056728819423
 20
2.541694152856324
 30
0.0
 41
0.9238794417296806
 10
-7.36290381393276
 20
2.550847076428166
 30
0.0
 41
1.0
 10
-7.353750899046086
 20
2.560000000000011
 30
0.0
 41
0.923879441729465
 10
-7.340806716536761
 20
2.560000000000008
 30
0.0
 41
1.0
  0
SPLINE
  5
B7
330
1F
100
AcDbEntity
  8
Default
100
AcDbSpline
210
0.0
220
0.0
230
1.0
 70
    24
 71
     2
 72
     6
 73
     3
 74
     0
 42
0.0000000001
 43
0.0000000001
 40
-0.34375
 40
-0.34375
 40
-0.34375
 40
0.0
 40
0.0
 40
0.0
 10
-7.340806716536761
 20
2.560000000000008
 30
0.0
 10
-7.168931716536761
 20
2.560000000000008
 30
0.0
 10
-6.997056716536761
 20
2.560000000000008
 30
0.0
  0
SPLINE
  5
B8
330
1F
100
AcDbEntity
  8
Default
100
AcDbSpline
210
0.0
220
0.0
230
1.0
 70
    12
 71
     2
 72
     8
 73
     5
 74
     0
 42
0.0000000001
 43
0.0000000001
 40
0.0
 40
0.0
 40
0.0
 40
0.024543707433172
 40
0.024543707433172
 40
0.0490874148663429
 40
0.0490874148663429
 40
0.0490874148663429
 10
-8.122056716536768
 20
0.0337756835288641
 30
0.0
 41
1.0
 10
-8.12205670425367
 20
0.0183058471443949
 30
0.0
 41
0.9238794417264252
 10
-8.131209619140407
 20
0.0091529235722021
 30
0.0
 41
1.0
 10
-8.140362534027142
 20
0.0000000000000088
 30
0.0
 41
0.923879441726571
 10
-8.153306716536761
 20
0.0000000000000071
 30
0.0
 41
1.0
  0
SPLINE
  5
B9
330
1F
100
AcDbEntity
  8
Default
100
AcDbSpline
210
0.0
220
0.0
230
1.0
 70
    24
 71
     2
 72
     6
 73
     3
 74
     0
 42
0.0000000001
 43
0.0000000001
 40
-0.34375
 40
-0.34375
 40
-0.34375
 40
0.0
 40
0.0
 40
0.0
 10
-8.153306716536761
 20
0.0000000000000071
 30
0.0
 10
-8.325181716536761
 20
0.0000000000000071
 30
0.0
 10
-8.497056716536761
 20
0.0000000000000089
 30
0.0
  0
SPLINE
  5
BA
330
1F
100
AcDbEntity
  8
Default
100
AcDbSpline
210
0.0
220
0.0
230
1.0
 70
    12
 71
     2
 72
     6
 73
     3
 74
     0
 42
0.0000000001
 43
0.0000000001
 40
0.0
 40
0.0
 40
0.0
 40
0.1963495408493617
 40
0.1963495408493617
 40
0.1963495408493617
 10
-8.497056716536761
 20
0.0000000000000089
 30
0.0
 41
1.0
 10
-8.622056716536758
 20
0.0000000000000072
 30
0.0
 41
0.7071067811865455
 10
-8.622056716536761
 20
0.1250000000000071
 30
0.0
 41
1.0
  0
SPLINE
  5
BB
330
1F
100
AcDbEntity
  8
Default
100
AcDbSpline
210
0.0
220
0.0
230
1.0
 70
    24
 71
     2
 72
     6
 73
     3
 74
     0
 42
0.0000000001
 43
0.0000000001
 40
0.0
 40
0.0
 40
0.0
 40
2.31
 40
2.31
 40
2.31
 10
-8.622056716536761
 20
0.1250000000000071
 30
0.0
 10
-8.622056716536761
 20
1.280000000000006
 30
0.0
 10
-8.622056716536761
 20
2.435000000000008
 30
0.0
  0
SPLINE
  5
BC
330
1F
100
AcDbEntity
  8
Default
100
AcDbSpline
210
0.0
220
0.0
230
1.0
 70
    12
 71
     2
 72
     6
 73
     3
 74
     0
 42
0.0000000001
 43
0.0000000001
 40
0.0
 40
0.0
 40
0.0
 40
0.1963495408493625
 40
0.1963495408493625
 40
0.1963495408493625
 10
-8.622056716536761
 20
2.435000000000008
 30
0.0
 41
1.0
 10
-8.622056716536752
 20
2.560000000000008
 30
0.0
 41
0.7071067811865462
 10
-8.497056716536761
 20
2.560000000000008
 30
0.0
 41
1.0
  0
SPLINE
  5
BD
330
1F
100
AcDbEntity
  8
Default
100
AcDbSpline
210
0.0
220
0.0
230
1.0
 70
    12
 71
     2
 72
     8
 73
     5
 74
     0
 42
0.0000000001
 43
0.0000000001
 40
0.0
 40
0.0
 40
0.0
 40
0.0245437074331713
 40
0.0245437074331713
 40
0.049087414866342
 40
0.049087414866342
 40
0.049087414866342
 10
-8.153306716536761
 20
2.560000000000008
 30
0.0
 41
1.0
 10
-8.140362534027142
 20
2.560000000000006
 30
0.0
 41
0.9238794417265583
 10
-8.131209619140407
 20
2.550847076427813
 30
0.0
 41
1.0
 10
-8.122056704253678
 20
2.541694152855616
 30
0.0
 41
0.9238794417265895
 10
-8.122056716536768
 20
2.528749970346007
 30
0.0
 41
1.0
  0
SPLINE
  5
BE
330
1F
100
AcDbEntity
  8
Default
100
AcDbSpline
210
0.0
220
0.0
230
1.0
 70
    12
 71
     2
 72
     8
 73
     5
 74
     0
 42
0.0000000001
 43
0.0000000001
 40
0.0
 40
0.0
 40
0.0
 40
0.0245437074331676
 40
0.0245437074331676
 40
0.049087384436277
 40
0.049087384436277
 40
0.049087384436277
 10
-12.94125108012884
 20
2.560000000000008
 30
0.0
 41
1.0
 10
-12.92830689761922
 20
2.560000000000003
 30
0.0
 41
0.9238794417265762
 10
-12.91915398273249
 20
2.550847076427813
 30
0.0
 41
1.0
 10
-12.91000108012882
 20
2.541694165138694
 30
0.0
 41
0.9238795361033111
 10
-12.91000108012883
 20
2.528749999999963
 30
0.0
 41
0.9999998112468922
  0
SPLINE
  5
BF
330
1F
100
AcDbEntity
  8
Default
100
AcDbSpline
210
0.0
220
0.0
230
1.0
 70
    12
 71
     2
 72
     8
 73
     5
 74
     0
 42
0.0000000001
 43
0.0000000001
 40
0.0
 40
0.0
 40
0.0
 40
0.0245437074331748
 40
0.0245437074331748
 40
0.0490874148663442
 40
0.0490874148663442
 40
0.0490874148663442
 10
-12.91000108012884
 20
0.0337756835288641
 30
0.0
 41
1.0
 10
-12.91000106784575
 20
0.0183058471443945
 30
0.0
 41
0.9238794417264082
 10
-12.91915398273249
 20
0.0091529235722021
 30
0.0
 41
1.0
 10
-12.92830689761922
 20
0.0000000000000027
 30
0.0
 41
0.9238794417263674
 10
-12.94125108012884
 20
0.0000000000000071
 30
0.0
 41
1.0
  0
SPLINE
  5
C0
330
1F
100
AcDbEntity
  8
Default
100
AcDbSpline
210
0.0
220
0.0
230
1.0
 70
    12
 71
     2
 72
     6
 73
     3
 74
     0
 42
0.0000000001
 43
0.0000000001
 40
0.0
 40
0.0
 40
0.0
 40
0.1963495408493612
 40
0.1963495408493612
 40
0.1963495408493612
 10
-13.28500108012884
 20
0.0000000000000071
 30
0.0
 41
1.0
 10
-13.41000108012884
 20
0.0000000000000078
 30
0.0
 41
0.7071067811865431
 10
-13.41000108012884
 20
0.1250000000000071
 30
0.0
 41
1.0
  0
SPLINE
  5
C1
330
1F
100
AcDbEntity
  8
Default
100
AcDbSpline
210
0.0
220
0.0
230
1.0
 70
    12
 71
     2
 72
     6
 73
     3
 74
     0
 42
0.0000000001
 43
0.0000000001
 40
0.0
 40
0.0
 40
0.0
 40
0.1963495408493621
 40
0.1963495408493621
 40
0.1963495408493621
 10
-13.41000108012884
 20
2.435000000000008
 30
0.0
 41
1.0
 10
-13.41000108012884
 20
2.560000000000007
 30
0.0
 41
0.7071067811865476
 10
-13.28500108012884
 20
2.560000000000008
 30
0.0
 41
1.0
  0
LINE
  5
C2
330
1F
100
AcDbEntity
  8
Default
100
AcDbLine
 10
-12.16000108012884
 20
0.0674330107713246
 30
0.0
 11
-12.16000108012882
 21
2.528749970347015
 31
0.0
  0
SPLINE
  5
C3
330
1F
100
AcDbEntity
  8
Default
100
AcDbSpline
210
0.0
220
0.0
230
1.0
 70
    24
 71
     2
 72
     6
 73
     3
 74
     0
 42
0.0000000001
 43
0.0000000001
 40
-0.34375
 40
-0.34375
 40
-0.34375
 40
0.0
 40
0.0
 40
0.0
 10
-12.12875108012884
 20
2.560000000000008
 30
0.0
 10
-11.95687608012884
 20
2.560000000000008
 30
0.0
 10
-11.78500108012884
 20
2.560000000000008
 30
0.0
  0
SPLINE
  5
C4
330
1F
100
AcDbEntity
  8
Default
100
AcDbSpline
210
0.0
220
0.0
230
1.0
 70
    24
 71
     2
 72
     6
 73
     3
 74
     0
 42
0.0000000001
 43
0.0000000001
 40
0.0
 40
0.0
 40
0.0
 40
2.305327919447875
 40
2.305327919447875
 40
2.305327919447875
 10
-11.66000108012884
 20
2.435000000000008
 30
0.0
 10
-11.66000108012884
 20
1.28116802013804
 30
0.0
 10
-11.66000108012884
 20
0.1273360402760702
 30
0.0
  0
SPLINE
  5
C5
330
1F
100
AcDbEntity
  8
Default
100
AcDbSpline
210
0.0
220
0.0
230
1.0
 70
    24
 71
     2
 72
     6
 73
     3
 74
     0
 42
0.0000000001
 43
0.0000000001
 40
-0.34375
 40
-0.34375
 40
-0.34375
 40
0.0
 40
0.0
 40
0.0
 10
-11.78500108012884
 20
0.0000000000000071
 30
0.0
 10
-11.95687608012884
 20
0.0000000000000071
 30
0.0
 10
-12.12875108012884
 20
0.0000000000000071
 30
0.0
  0
SPLINE
  5
C6
330
1F
100
AcDbEntity
  8
Default
100
AcDbSpline
210
0.0
220
0.0
230
1.0
 70
    28
 71
     3
 72
    10
 73
     6
 74
     0
 42
0.0000000001
 43
0.0000000001
 40
-3.924058572565469
 40
-3.924058572565469
 40
-3.924058572565469
 40
-3.924058572565469
 40
-3.905214231881589
 40
-3.905214231881589
 40
-3.76217791107922
 40
-3.76217791107922
 40
-3.76217791107922
 40
-3.76217791107922
 10
-12.16000108012884
 20
0.0312500296530089
 30
0.0
 41
1.0
 10
-12.16000108012884
 20
0.0313446649105682
 30
0.0
 41
1.0
 10
-12.16000108012884
 20
0.0312971523482055
 30
0.0
 41
1.0
 10
-12.16000108012884
 20
0.03211036334406
 30
0.0
 41
1.0
 10
-12.16000108012884
 20
0.0355356793560304
 30
0.0
 41
1.0
 10
-12.16000108012884
 20
0.0416737399966181
 30
0.0
 41
1.0
  0
SPLINE
  5
C7
330
1F
100
AcDbEntity
  8
Default
100
AcDbSpline
210
0.0
220
0.0
230
1.0
 70
    24
 71
     2
 72
     6
 73
     3
 74
     0
 42
0.0000000001
 43
0.0000000001
 40
-0.0076677802215738
 40
-0.0076677802215738
 40
-0.0076677802215738
 40
0.0
 40
0.0
 40
0.0
 10
-12.16000108012884
 20
0.0597652299949338
 30
0.0
 10
-12.16000108012884
 20
0.0635991203831292
 30
0.0
 10
-12.16000108012884
 20
0.0674330107713246
 30
0.0
  0
SPLINE
  5
C8
330
1F
100
AcDbEntity
  8
Default
100
AcDbSpline
210
0.0
220
0.0
230
1.0
 70
    12
 71
     2
 72
     6
 73
     3
 74
     0
 42
0.0000000001
 43
0.0000000001
 40
0.0
 40
0.0
 40
0.0
 40
0.9614022157832935
 40
0.9614022157832935
 40
0.9614022157832935
 10
-2.157703587724079
 20
7.657213360256314
 30
0.0
 41
1.0
 10
-1.701149389258332
 20
7.819297193627998
 30
0.0
 41
0.9883661983737412
 10
-1.216987429427725
 20
7.836620641037307
 30
0.0
 41
1.0
  0
SPLINE
  5
C9
330
1F
100
AcDbEntity
  8
Default
100
AcDbSpline
210
0.0
220
0.0
230
1.0
 70
    12
 71
     3
 72
    15
 73
    11
 74
     0
 42
0.0000000001
 43
0.0000000001
 40
-0.9614022157832935
 40
-0.9614022157832935
 40
-0.9614022157832935
 40
-0.9614022157832935
 40
0.0
 40
0.0
 40
0.0
 40
0.5001593749518297
 40
0.5001593749518297
 40
0.7506987155205498
 40
0.7506987155205498
 40
1.0
 40
1.0
 40
1.0
 40
1.0
 10
-1.216987429427725
 20
7.836620641037307
 30
0.0
 41
1.0
 10
-1.149923705367922
 20
7.836220838625269
 30
0.0
 41
0.9922441322491607
 10
-1.083187549209833
 20
7.83370368735016
 30
0.0
 41
0.9922441322491607
 10
-1.017942875572267
 20
7.817520846456989
 30
0.0
 41
1.0
 10
-0.9846356284141748
 20
7.808909453196675
 30
0.0
 41
1.0
 10
-0.950764599134132
 20
7.797016174127194
 30
0.0
 41
1.0
 10
-0.9075431963607343
 20
7.767879443832116
 30
0.0
 41
1.0
 10
-0.8948393365033169
 20
7.75588281797869
 30
0.0
 41
1.0
 10
-0.8747226419189928
 20
7.72737102284936
 30
0.0
 41
1.0
 10
-0.8673139790011106
 20
7.711275223913684
 30
0.0
 41
1.0
 10
-0.8634729094956057
 20
7.694404642245926
 30
0.0
 41
1.0
  0
ARC
  5
CA
330
1F
100
AcDbEntity
  8
Default
100
AcDbCircle
 10
43.34163381361499
 20
-2.686072978285743
 30
0.0
 40
55.91103680015532
100
AcDbArc
 50
173.1258062017355
 51
174.5131388478378
  0
SPLINE
  5
CB
330
1F
100
AcDbEntity
  8
Default
100
AcDbSpline
210
0.0
220
0.0
230
1.0
 70
    24
 71
     2
 72
     6
 73
     3
 74
     0
 42
0.0000000001
 43
0.0000000001
 40
-0.34375
 40
-0.34375
 40
-0.34375
 40
0.0
 40
0.0
 40
0.0
 10
-8.497056716536761
 20
2.560000000000008
 30
0.0
 10
-8.325181716536761
 20
2.560000000000008
 30
0.0
 10
-8.153306716536761
 20
2.560000000000008
 30
0.0
  0
SPLINE
  5
CC
330
1F
100
AcDbEntity
  8
Default
100
AcDbSpline
210
0.0
220
0.0
230
1.0
 70
    24
 71
     2
 72
     6
 73
     3
 74
     0
 42
0.0000000001
 43
0.0000000001
 40
0.0
 40
0.0
 40
0.0
 40
2.492448632942286
 40
2.492448632942286
 40
2.492448632942286
 10
-8.122056716536768
 20
2.528749970346007
 30
0.0
 10
-8.122056716536768
 20
1.281262826937436
 30
0.0
 10
-8.122056716536768
 20
0.0337756835288641
 30
0.0
  0
LINE
  5
CD
330
1F
100
AcDbEntity
  8
Default
100
AcDbLine
 10
-12.91000108012884
 20
2.528749999999963
 30
0.0
 11
-12.91000108012884
 21
0.0337756835288641
 31
0.0
  0
SPLINE
  5
CE
330
1F
100
AcDbEntity
  8
Default
100
AcDbSpline
210
0.0
220
0.0
230
1.0
 70
    24
 71
     2
 72
     6
 73
     3
 74
     0
 42
0.0000000001
 43
0.0000000001
 40
-0.34375
 40
-0.34375
 40
-0.34375
 40
0.0
 40
0.0
 40
0.0
 10
-12.94125108012884
 20
0.0000000000000071
 30
0.0
 10
-13.11312608012884
 20
0.0000000000000071
 30
0.0
 10
-13.28500108012884
 20
0.0000000000000071
 30
0.0
  0
SPLINE
  5
CF
330
1F
100
AcDbEntity
  8
Default
100
AcDbSpline
210
0.0
220
0.0
230
1.0
 70
    24
 71
     2
 72
     6
 73
     3
 74
     0
 42
0.0000000001
 43
0.0000000001
 40
0.0
 40
0.0
 40
0.0
 40
2.31
 40
2.31
 40
2.31
 10
-13.41000108012884
 20
0.1250000000000071
 30
0.0
 10
-13.41000108012884
 20
1.280000000000006
 30
0.0
 10
-13.41000108012884
 20
2.435000000000008
 30
0.0
  0
SPLINE
  5
D0
330
1F
100
AcDbEntity
  8
Default
100
AcDbSpline
210
0.0
220
0.0
230
1.0
 70
    24
 71
     2
 72
     6
 73
     3
 74
     0
 42
0.0000000001
 43
0.0000000001
 40
-0.34375
 40
-0.34375
 40
-0.34375
 40
0.0
 40
0.0
 40
0.0
 10
-13.28500108012884
 20
2.560000000000008
 30
0.0
 10
-13.11312608012884
 20
2.560000000000008
 30
0.0
 10
-12.94125108012884
 20
2.560000000000008
 30
0.0
  0
SPLINE
  5
D1
330
1F
100
AcDbEntity
  8
Default
100
AcDbSpline
210
0.0
220
0.0
230
1.0
 70
    12
 71
     2
 72
     8
 73
     5
 74
     0
 42
0.0000000001
 43
0.0000000001
 40
0.0
 40
0.0
 40
0.0
 40
0.0245437074326705
 40
0.0245437074326705
 40
0.0490874148653438
 40
0.0490874148653438
 40
0.0490874148653438
 10
-12.16000108012882
 20
2.528749970347015
 30
0.0
 41
1.0
 10
-12.16000109241151
 20
2.541694152856325
 30
0.0
 41
0.9238794417295467
 10
-12.15084817752484
 20
2.550847076428166
 30
0.0
 41
1.0
 10
-12.14169526263816
 20
2.560000000000004
 30
0.0
 41
0.9238794417296584
 10
-12.12875108012884
 20
2.560000000000008
 30
0.0
 41
1.0
  0
SPLINE
  5
D2
330
1F
100
AcDbEntity
  8
Default
100
AcDbSpline
210
0.0
220
0.0
230
1.0
 70
    12
 71
     2
 72
     6
 73
     3
 74
     0
 42
0.0000000001
 43
0.0000000001
 40
0.0
 40
0.0
 40
0.0
 40
0.196349540849359
 40
0.196349540849359
 40
0.196349540849359
 10
-11.78500108012884
 20
2.560000000000008
 30
0.0
 41
1.0
 10
-11.66000108012884
 20
2.56
 30
0.0
 41
0.7071067811865878
 10
-11.66000108012884
 20
2.435000000000008
 30
0.0
 41
1.0
  0
SPLINE
  5
D3
330
1F
100
AcDbEntity
  8
Default
100
AcDbSpline
210
0.0
220
0.0
230
1.0
 70
    12
 71
     2
 72
     6
 73
     3
 74
     0
 42
0.0000000001
 43
0.0000000001
 40
0.0
 40
0.0
 40
0.0
 40
0.1963495408493596
 40
0.1963495408493596
 40
0.1963495408493596
 10
-11.66000108012884
 20
0.1273360402760702
 30
0.0
 41
1.0
 10
-11.66000108012884
 20
0.0000000000000136
 30
0.0
 41
0.7071067811865861
 10
-11.78500108012884
 20
0.0000000000000071
 30
0.0
 41
1.0
  0
SPLINE
  5
D4
330
1F
100
AcDbEntity
  8
Default
100
AcDbSpline
210
0.0
220
0.0
230
1.0
 70
    12
 71
     2
 72
     8
 73
     5
 74
     0
 42
0.0000000001
 43
0.0000000001
 40
0.0
 40
0.0
 40
0.0
 40
0.0245437074326727
 40
0.0245437074326727
 40
0.0490874148653435
 40
0.0490874148653435
 40
0.0490874148653435
 10
-12.12875108012884
 20
0.0000000000000071
 30
0.0
 41
1.0
 10
-12.14169526263816
 20
0.0000000000000073
 30
0.0
 41
0.923879441729618
 10
-12.15084817752484
 20
0.0091529235718486
 30
0.0
 41
1.0
 10
-12.1600010924115
 20
0.0183058471436901
 30
0.0
 41
0.9238794417296633
 10
-12.16000108012884
 20
0.0312500296530089
 30
0.0
 41
1.0
  0
SPLINE
  5
D5
330
1F
100
AcDbEntity
  8
Default
100
AcDbSpline
210
0.0
220
0.0
230
1.0
 70
    24
 71
     2
 72
     6
 73
     3
 74
     0
 42
0.0000000001
 43
0.0000000001
 40
0.0
 40
0.0
 40
0.0
 40
0.0180914894398488
 40
0.0180914894398488
 40
0.0180914894398488
 10
-12.16000108012884
 20
0.0416737399966181
 30
0.0
 10
-12.16000108012884
 20
0.0507194849957759
 30
0.0
 10
-12.16000108012884
 20
0.0597652299949338
 30
0.0
  0
SPLINE
  5
D6
330
1F
100
AcDbEntity
  8
Default
100
AcDbSpline
210
0.0
220
0.0
230
1.0
 70
    12
 71
     3
 72
    12
 73
     8
 74
     0
 42
0.0000000001
 43
0.0000000001
 40
-1.0
 40
-1.0
 40
-1.0
 40
-1.0
 40
-0.7506987155205498
 40
-0.7506987155205498
 40
-0.5001593749518297
 40
-0.5001593749518297
 40
0.0
 40
0.0
 40
0.0
 40
0.0
 10
-11.66169606035348
 20
4.646192146633989
 30
0.0
 41
1.0
 10
-10.83978376065917
 20
4.901680007350064
 30
0.0
 41
1.0
 10
-10.11001753075109
 20
5.140983746136461
 30
0.0
 41
1.0
 10
-8.568860147831558
 20
5.639654035846315
 30
0.0
 41
1.0
 10
-7.78417026274073
 20
5.890183510155294
 30
0.0
 41
1.0
 10
-5.37264285250609
 20
6.653129569622896
 30
0.0
 41
1.0
 10
-3.766904742702906
 20
7.153808346081863
 30
0.0
 41
1.0
 10
-2.157703587724079
 20
7.657213360256314
 30
0.0
 41
1.0
  0
SPLINE
  5
D7
330
1F
100
AcDbEntity
  8
Default
100
AcDbSpline
210
0.0
220
0.0
230
1.0
 70
     8
 71
     3
 72
    12
 73
     8
 74
     0
 42
0.0000000001
 43
0.0000000001
 40
0.0
 40
0.0
 40
0.0
 40
0.0
 40
0.1260766228409387
 40
0.237826563775455
 40
0.4344218079522603
 40
0.6303370446533767
 40
0.882694782768985
 40
0.882694782768985
 40
0.882694782768985
 40
0.882694782768985
 10
-11.66169606035348
 20
4.646192146633989
 30
0.0
 10
-11.70170139768107
 20
4.633837592494523
 30
0.0
 10
-11.77712466731273
 20
4.60778162810302
 30
0.0
 10
-11.90734865206845
 20
4.545332642646308
 30
0.0
 10
-12.03960413133855
 20
4.435153673429197
 30
0.0
 10
-12.1326469059439
 20
4.237189732693638
 30
0.0
 10
-12.15739909419587
 20
4.089506238041587
 30
0.0
 10
-12.16747818150696
 20
4.005901437485079
 30
0.0
  0
SPLINE
  5
D8
330
1F
100
AcDbEntity
  8
Default
100
AcDbSpline
210
0.0
220
0.0
230
1.0
 70
     8
 71
     3
 72
    12
 73
     8
 74
     0
 42
0.0000000001
 43
0.0000000001
 40
0.0
 40
0.0
 40
0.0
 40
0.0
 40
0.0873163874398896
 40
0.1700224095601808
 40
0.3581656996438056
 40
0.6075952990052825
 40
0.9909780472260572
 40
0.9909780472260572
 40
0.9909780472260572
 40
0.9909780472260572
 10
-8.04304088074646
 20
4.790774352238547
 30
0.0
 10
-8.06381749160768
 20
4.770233992366641
 30
0.0
 10
-8.100885716278498
 20
4.727511524647845
 30
0.0
 10
-8.163940781265744
 20
4.625109838135341
 30
0.0
 10
-8.214886951205472
 20
4.457963378126937
 30
0.0
 10
-8.24233532762743
 20
4.185042723570207
 30
0.0
 10
-8.241915472571847
 20
3.974050854746061
 30
0.0
 10
-8.241874797038932
 20
3.84624487508764
 30
0.0
  0
ARC
  5
D9
330
1F
100
AcDbEntity
  8
Default
100
AcDbCircle
 10
53.06270811494419
 20
3.76134201049924
 30
0.0
 40
61.30403892783512
100
AcDbArc
 50
180.8115794338823
 51
180.9544978333747
  0
POLYLINE
  5
DA
330
1F
100
AcDbEntity
  8
Default
100
AcDb2dPolyline
 66
     1
 10
0.0
 20
0.0
 30
0.0
  0
VERTEX
  5
DB
330
DA
100
AcDbEntity
  8
Default
100
AcDbVertex
100
AcDb2dVertex
 10
-8.152355661988224
 20
2.660000000000519
 30
0.0
  0
VERTEX
  5
DC
330
DA
100
AcDbEntity
  8
Default
100
AcDbVertex
100
AcDb2dVertex
 10
-7.356478913344631
 20
2.660000000014666
 30
0.0
  0
SEQEND
  5
DD
330
DA
100
AcDbEntity
  8
Default
  0
LINE
  5
DE
330
1F
100
AcDbEntity
  8
Default
100
AcDbLine
 10
-7.276740536499688
 20
2.733547609340757
 30
0.0
 11
-7.204247372081305
 21
3.562978285811129
 31
0.0
  0
SPLINE
  5
DF
330
1F
100
AcDbEntity
  8
Default
100
AcDbSpline
210
0.0
220
0.0
230
1.0
 70
    12
 71
     2
 72
     6
 73
     3
 74
     0
 42
0.0000000001
 43
0.0000000001
 40
0.0
 40
0.0
 40
0.0
 40
0.8199859379606601
 40
0.8199859379606601
 40
0.8199859379606601
 10
-7.057140901998203
 20
4.973550849388175
 30
0.0
 41
1.0
 10
-7.423376431196343
 20
4.789242238383848
 30
0.0
 41
0.99998263368664
 10
-7.787414143909231
 20
4.600629750302737
 30
0.0
 41
1.0
  0
SPLINE
  5
E0
330
1F
100
AcDbEntity
  8
Default
100
AcDbSpline
210
0.0
220
0.0
230
1.0
 70
    12
 71
     2
 72
    34
 73
    31
 74
     0
 42
0.0000000001
 43
0.0000000001
 40
0.0
 40
0.0
 40
0.0
 40
0.0325629330256031
 40
0.0325629330256031
 40
0.0679867475747329
 40
0.0679867475747329
 40
0.1078548175612879
 40
0.1078548175612879
 40
0.1539416874961473
 40
0.1539416874961473
 40
0.2049083135201158
 40
0.2049083135201158
 40
0.2543078929230853
 40
0.2543078929230853
 40
0.3011102212885154
 40
0.3011102212885154
 40
0.3516822644554414
 40
0.3516822644554414
 40
0.4070049641826737
 40
0.4070049641826737
 40
0.4643605855870755
 40
0.4643605855870755
 40
0.5185444554455992
 40
0.5185444554455992
 40
0.5669809148546006
 40
0.5669809148546006
 40
0.6104726859179642
 40
0.6104726859179642
 40
0.6501902162813917
 40
0.6501902162813917
 40
0.6873951308628176
 40
0.6873951308628176
 40
0.6873951308628176
 10
-7.787414143909231
 20
4.600629750302737
 30
0.0
 41
1.0
 10
-7.801870790810076
 20
4.593135247876887
 30
0.0
 41
0.9997848817731985
 10
-7.816004179027523
 20
4.585047631187063
 30
0.0
 41
1.0
 10
-7.831384972769595
 20
4.576251548999005
 30
0.0
 41
0.9994547773423571
 10
-7.846151701164764
 20
4.566459531306066
 30
0.0
 41
1.0
 10
-7.862782754820406
 20
4.555440318788313
 30
0.0
 41
0.9987765555205204
 10
-7.878243982821218
 20
4.542832169879143
 30
0.0
 41
1.0
 10
-7.896121450433738
 20
4.528235919408163
 30
0.0
 41
0.9976702384926762
 10
-7.911845611435524
 20
4.51134198153572
 30
0.0
 41
1.0
 10
-7.929225793480786
 20
4.49263202623206
 30
0.0
 41
0.9968554709066841
 10
-7.943431834267116
 20
4.471411244894675
 30
0.0
 41
1.0
 10
-7.957206436983173
 20
4.450849678614835
 30
0.0
 41
0.9970143869160545
 10
-7.967650898905511
 20
4.428412412671364
 30
0.0
 41
1.0
 10
-7.977490424787972
 20
4.407141673202821
 30
0.0
 41
0.9977520697646052
 10
-7.984397131564592
 20
4.384746181946049
 30
0.0
 41
1.0
 10
-7.991801551875445
 20
4.360545139685645
 30
0.0
 41
0.998673277181905
 10
-7.996677568538743
 20
4.335710882134251
 30
0.0
 41
1.0
 10
-8.0020531452851
 20
4.3085646588594
 30
0.0
 41
0.9993497102211706
 10
-8.005458356933048
 20
4.281101614653103
 30
0.0
 41
1.0
 10
-8.008999887956369
 20
4.252637234722359
 30
0.0
 41
0.9996841037542856
 10
-8.01110657780275
 20
4.224030850387356
 30
0.0
 41
1.0
 10
-8.013122076169378
 20
4.197011475006225
 30
0.0
 41
0.9998611152163238
 10
-8.01423597874144
 20
4.169939938280129
 30
0.0
 41
1.0
 10
-8.015229046606324
 20
4.145741199800938
 30
0.0
 41
0.9999456865613557
 10
-8.015717514053442
 20
4.121527019506708
 30
0.0
 41
1.0
 10
-8.016159842873492
 20
4.099785439773354
 30
0.0
 41
0.9999866673554543
 10
-8.016377611576246
 20
4.078040451365009
 30
0.0
 41
1.0
 10
-8.016578234710407
 20
4.058182689074338
 30
0.0
 41
0.9999992045072397
 10
-8.016728762367201
 20
4.038324483861899
 30
0.0
 41
1.0
 10
-8.016870967495185
 20
4.019722548835272
 30
0.0
 41
0.9999982839715726
 10
-8.017082094686948
 20
4.001121268386274
 30
0.0
 41
1.0
  0
ARC
  5
E1
330
1F
100
AcDbEntity
  8
Default
100
AcDbCircle
 10
68.37079838939773
 20
3.206930781203855
 30
0.0
 40
76.39120889148064
100
AcDbArc
 50
179.6665448524962
 51
180.4102185792066
  0
SPLINE
  5
E2
330
1F
100
AcDbEntity
  8
Default
100
AcDbSpline
210
0.0
220
0.0
230
1.0
 70
     8
 71
     3
 72
    12
 73
     8
 74
     0
 42
0.0000000001
 43
0.0000000001
 40
0.0
 40
0.0
 40
0.0
 40
0.0
 40
0.0807135580873582
 40
0.1561302048482713
 40
0.3085481570555513
 40
0.4875238302638922
 40
0.7348234087463479
 40
0.7348234087463479
 40
0.7348234087463479
 40
0.7348234087463479
 10
-7.808728286515219
 20
4.645789360260318
 30
0.0
 10
-7.833393949530432
 20
4.632865539328701
 30
0.0
 10
-7.878055006372946
 20
4.606339897567555
 30
0.0
 10
-7.957470766206697
 20
4.539688801882004
 30
0.0
 10
-8.028753551920701
 20
4.421218715464782
 30
0.0
 10
-8.066228827508084
 20
4.230296484905539
 30
0.0
 10
-8.071081233822966
 20
4.088467010633474
 30
0.0
 10
-8.070964712206539
 20
4.005901437485187
 30
0.0
  0
ARC
  5
E3
330
1F
100
AcDbEntity
  8
Default
100
AcDbCircle
 10
68.31691577184154
 20
3.211710950303754
 30
0.0
 40
76.39120889144402
100
AcDbArc
 50
179.6665448524969
 51
180.4138039472125
  0
ARC
  5
E4
330
1F
100
AcDbEntity
  8
Default
100
AcDbCircle
 10
-0.7214083409712799
 20
-6.797963521514887
 30
0.0
 40
13.00472979436119
100
AcDbArc
 50
78.2815434581175
 51
81.85468025083318
  0
SPLINE
  5
E5
330
1F
100
AcDbEntity
  8
Default
100
AcDbSpline
210
0.0
220
0.0
230
1.0
 70
     8
 71
     3
 72
    11
 73
     7
 74
     0
 42
0.0000000001
 43
0.0000000001
 40
-0.5063519703326558
 40
-0.5063519703326558
 40
-0.5063519703326558
 40
-0.5063519703326558
 40
-0.2437288863794028
 40
-0.1337942712257442
 40
-0.0685392317844788
 40
0.0
 40
0.0
 40
0.0
 40
0.0
 10
11.68300399231629
 20
4.112735326154905
 30
0.0
 10
11.77358005763253
 20
4.095161847426471
 30
0.0
 10
11.90406174857566
 20
4.064213073112329
 30
0.0
 10
11.98842258890852
 20
3.93591858664051
 30
0.0
 10
12.00890500356142
 20
3.858834814894818
 30
0.0
 10
12.01673702831943
 20
3.813946980743458
 30
0.0
 10
12.01834201405201
 20
3.791395278120477
 30
0.0
  0
SPLINE
  5
E6
330
1F
100
AcDbEntity
  8
Default
100
AcDbSpline
210
0.0
220
0.0
230
1.0
 70
    12
 71
     2
 72
     6
 73
     3
 74
     0
 42
0.0000000001
 43
0.0000000001
 40
-0.1212866906408806
 40
-0.1212866906408806
 40
-0.1212866906408806
 40
0.0
 40
0.0
 40
0.0
 10
12.07487480926125
 20
2.735702831654399
 30
0.0
 41
1.0
 10
12.07911039143385
 20
2.660177419487761
 30
0.0
 41
0.7274390629246568
 10
12.15475427130298
 20
2.660000000135952
 30
0.0
 41
1.0
  0
SPLINE
  5
E7
330
1F
100
AcDbEntity
  8
Default
100
AcDbSpline
210
0.0
220
0.0
230
1.0
 70
    12
 71
     2
 72
     6
 73
     3
 74
     0
 42
0.0000000001
 43
0.0000000001
 40
-0.1235035941322005
 40
-0.1235035941322005
 40
-0.1235035941322005
 40
0.0
 40
0.0
 40
0.0
 10
12.91509809200299
 20
2.660372603167442
 30
0.0
 41
1.0
 10
12.99255159268252
 20
2.667921627997064
 30
0.0
 41
0.7171989190658197
 10
12.98722074763614
 20
2.745718756732316
 30
0.0
 41
1.0
  0
SPLINE
  5
E8
330
1F
100
AcDbEntity
  8
Default
100
AcDbSpline
210
0.0
220
0.0
230
1.0
 70
     8
 71
     3
 72
    11
 73
     7
 74
     0
 42
0.0000000001
 43
0.0000000001
 40
-1.422854144527428
 40
-1.422854144527428
 40
-1.422854144527428
 40
-1.422854144527428
 40
-0.7228545357604632
 40
-0.4361280553011403
 40
-0.2609833095624807
 40
0.0
 40
0.0
 40
0.0
 40
0.0
 10
12.89442205342407
 20
4.037804242385373
 30
0.0
 10
12.87549987466905
 20
4.264907909621456
 30
0.0
 10
12.7772895775776
 20
4.608325979404002
 30
0.0
 10
12.45781094429427
 20
4.843667185716598
 30
0.0
 10
12.23398092750209
 20
4.931917595137072
 30
0.0
 10
12.09611800325435
 20
4.979031577621583
 30
0.0
 10
12.01314743387862
 20
5.004894892528561
 30
0.0
  0
ARC
  5
E9
330
1F
100
AcDbEntity
  8
Default
100
AcDbCircle
 10
-10.52511647472811
 20
-34.32810576567275
 30
0.0
 40
44.39245555457344
100
AcDbArc
 50
74.1082522728601
 51
75.00230147977487
  0
SPLINE
  5
EA
330
1F
100
AcDbEntity
  8
Default
100
AcDbSpline
210
0.0
220
0.0
230
1.0
 70
    24
 71
     2
 72
     6
 73
     3
 74
     0
 42
0.0000000001
 43
0.0000000001
 40
0.0
 40
0.0
 40
0.0
 40
0.859248916403498
 40
0.859248916403498
 40
0.859248916403498
 10
0.8592489164047947
 20
8.65569936759816
 30
0.0
 10
0.4296244582023974
 20
8.65569936759816
 30
0.0
 10
0.0
 20
8.65569936759816
 30
0.0
  0
SPLINE
  5
EB
330
1F
100
AcDbEntity
  8
Default
100
AcDbSpline
210
0.0
220
0.0
230
1.0
 70
    24
 71
     2
 72
     6
 73
     3
 74
     0
 42
0.0000000001
 43
0.0000000001
 40
-0.146406090086195
 40
-0.146406090086195
 40
-0.146406090086195
 40
0.0
 40
0.0
 40
0.0
 10
-0.8592489164047947
 20
8.65569936759816
 30
0.0
 10
-0.9110114875378947
 20
8.60393719962509
 30
0.0
 10
-0.9627740586709947
 20
8.552175031652018
 30
0.0
  0
SPLINE
  5
EC
330
1F
100
AcDbEntity
  8
Default
100
AcDbSpline
210
0.0
220
0.0
230
1.0
 70
     8
 71
     2
 72
    11
 73
     8
 74
     0
 42
0.0000000001
 43
0.0000000001
 40
0.0
 40
0.0
 40
0.0
 40
0.9999999999999999
 40
2.0
 40
3.0
 40
3.999999999999999
 40
4.999999999999999
 40
5.999999999999999
 40
5.999999999999999
 40
5.999999999999999
 10
-1.630456642007793
 20
8.36770377541064
 30
0.0
 10
-2.504041734123348
 20
8.118992541801576
 30
0.0
 10
-4.225123716778491
 20
7.538288720910819
 30
0.0
 10
-5.951425797381788
 20
6.974108200836989
 30
0.0
 10
-7.677814486850401
 20
6.41009034271819
 30
0.0
 10
-9.404979012450355
 20
5.848469497456392
 30
0.0
 10
-11.13279805980072
 20
5.288862970564114
 30
0.0
 10
-12.01314743387862
 20
5.004894892528561
 30
0.0
  0
SPLINE
  5
ED
330
1F
100
AcDbEntity
  8
Default
100
AcDbSpline
210
0.0
220
0.0
230
1.0
 70
     8
 71
     3
 72
    11
 73
     7
 74
     0
 42
0.0000000001
 43
0.0000000001
 40
0.0
 40
0.0
 40
0.0
 40
0.0
 40
0.2609833095624807
 40
0.4361280553011403
 40
0.7228545357604632
 40
1.422854144527428
 40
1.422854144527428
 40
1.422854144527428
 40
1.422854144527428
 10
-12.01314743387862
 20
5.004894892528561
 30
0.0
 10
-12.09611800325435
 20
4.979031577621583
 30
0.0
 10
-12.23398092750209
 20
4.931917595137072
 30
0.0
 10
-12.45781094429427
 20
4.843667185716598
 30
0.0
 10
-12.7772895775776
 20
4.608325979404002
 30
0.0
 10
-12.87549987466905
 20
4.264907909621456
 30
0.0
 10
-12.89442205342407
 20
4.037804242385373
 30
0.0
  0
SPLINE
  5
EE
330
1F
100
AcDbEntity
  8
Default
100
AcDbSpline
210
0.0
220
0.0
230
1.0
 70
    12
 71
     2
 72
     6
 73
     3
 74
     0
 42
0.0000000001
 43
0.0000000001
 40
0.0
 40
0.0
 40
0.0
 40
1.279806876924132
 40
1.279806876924132
 40
1.279806876924132
 10
-12.89442205342407
 20
4.037804242385373
 30
0.0
 41
1.0
 10
-12.9408992315529
 20
3.384103012644089
 30
0.0
 41
0.9999997048608069
 10
-12.98722074763614
 20
2.745718756732316
 30
0.0
 41
1.0
  0
SPLINE
  5
EF
330
1F
100
AcDbEntity
  8
Default
100
AcDbSpline
210
0.0
220
0.0
230
1.0
 70
    12
 71
     2
 72
     6
 73
     3
 74
     0
 42
0.0000000001
 43
0.0000000001
 40
0.0
 40
0.0
 40
0.0
 40
0.1235035941322005
 40
0.1235035941322005
 40
0.1235035941322005
 10
-12.98722074763614
 20
2.745718756732316
 30
0.0
 41
1.0
 10
-12.99255159268252
 20
2.667921627997064
 30
0.0
 41
0.7171989190658197
 10
-12.91509809200299
 20
2.660372603167442
 30
0.0
 41
1.0
  0
POLYLINE
  5
F0
330
1F
100
AcDbEntity
  8
Default
100
AcDb2dPolyline
 66
     1
 10
0.0
 20
0.0
 30
0.0
  0
VERTEX
  5
F1
330
F0
100
AcDbEntity
  8
Default
100
AcDbVertex
100
AcDb2dVertex
 10
-12.91509809200299
 20
2.660372603167442
 30
0.0
  0
VERTEX
  5
F2
330
F0
100
AcDbEntity
  8
Default
100
AcDbVertex
100
AcDb2dVertex
 10
-12.15475427130298
 20
2.660000000135952
 30
0.0
  0
SEQEND
  5
F3
330
F0
100
AcDbEntity
  8
Default
  0
SPLINE
  5
F4
330
1F
100
AcDbEntity
  8
Default
100
AcDbSpline
210
0.0
220
0.0
230
1.0
 70
    12
 71
     2
 72
     6
 73
     3
 74
     0
 42
0.0000000001
 43
0.0000000001
 40
0.0
 40
0.0
 40
0.0
 40
0.1212866906408806
 40
0.1212866906408806
 40
0.1212866906408806
 10
-12.15475427130298
 20
2.660000000135952
 30
0.0
 41
1.0
 10
-12.07911039143385
 20
2.660177419487761
 30
0.0
 41
0.7274390629246568
 10
-12.07487480926125
 20
2.735702831654399
 30
0.0
 41
1.0
  0
POLYLINE
  5
F5
330
1F
100
AcDbEntity
  8
Default
100
AcDb2dPolyline
 66
     1
 10
0.0
 20
0.0
 30
0.0
  0
VERTEX
  5
F6
330
F5
100
AcDbEntity
  8
Default
100
AcDbVertex
100
AcDb2dVertex
 10
-12.07487480926125
 20
2.735702831654399
 30
0.0
  0
VERTEX
  5
F7
330
F5
100
AcDbEntity
  8
Default
100
AcDbVertex
100
AcDb2dVertex
 10
-12.01834201405201
 20
3.791395278120477
 30
0.0
  0
SEQEND
  5
F8
330
F5
100
AcDbEntity
  8
Default
  0
SPLINE
  5
F9
330
1F
100
AcDbEntity
  8
Default
100
AcDbSpline
210
0.0
220
0.0
230
1.0
 70
     8
 71
     3
 72
    15
 73
    11
 74
     0
 42
0.0000000001
 43
0.0000000001
 40
0.0
 40
0.0
 40
0.0
 40
0.0
 40
1.0
 40
2.0
 40
3.0
 40
4.0
 40
5.0
 40
6.0
 40
7.0
 40
8.0
 40
8.0
 40
8.0
 40
8.0
 10
-7.225868942922261
 20
4.111623924295762
 30
0.0
 10
-6.964168455683584
 20
4.190680438698092
 30
0.0
 10
-6.440767570674801
 20
4.348793788675735
 30
0.0
 10
-5.655666199718056
 20
4.585962521014691
 30
0.0
 10
-4.870565668078612
 20
4.823135178211315
 30
0.0
 10
-4.085461040822779
 20
5.060293664775667
 30
0.0
 10
-3.300372199934209
 20
5.29750483553709
 30
0.0
 10
-2.515223752638128
 20
5.534519608271069
 30
0.0
 10
-1.730299087076432
 20
5.772266943791103
 30
0.0
 10
-1.206458467176148
 20
5.928942748513606
 30
0.0
 10
-0.9455690830723356
 20
6.010650830627107
 30
0.0
  0
LINE
  5
FA
330
1F
100
AcDbEntity
  8
Default
100
AcDbLine
 10
-8.241874797038932
 20
3.84624487508764
 30
0.0
 11
-8.235180904697117
 21
2.89301568862315
 31
0.0
  0
SPLINE
  5
FB
330
1F
100
AcDbEntity
  8
Default
100
AcDbSpline
210
0.0
220
0.0
230
1.0
 70
     8
 71
     3
 72
     8
 73
     4
 74
     0
 42
0.0000000001
 43
0.0000000001
 40
-1.0
 40
-1.0
 40
-1.0
 40
-1.0
 40
0.0
 40
0.0
 40
0.0
 40
0.0
 10
-8.232824258609554
 20
2.740117300580373
 30
0.0
 10
-8.231516867916781
 20
2.70239892445724
 30
0.0
 10
-8.190091022894883
 20
2.660000000000638
 30
0.0
 10
-8.152355661988224
 20
2.660000000000519
 30
0.0
  0
SPLINE
  5
FC
330
1F
100
AcDbEntity
  8
Default
100
AcDbSpline
210
0.0
220
0.0
230
1.0
 70
    12
 71
     2
 72
     6
 73
     3
 74
     0
 42
0.0000000001
 43
0.0000000001
 40
0.0
 40
0.0
 40
0.0
 40
0.1189905253564627
 40
0.1189905253564627
 40
0.1189905253564627
 10
-7.356478913344631
 20
2.660000000014666
 30
0.0
 41
1.0
 10
-7.282993671275019
 20
2.660202674076015
 30
0.0
 41
0.737434850107945
 10
-7.276740536499688
 20
2.733547609340757
 30
0.0
 41
1.0
  0
ARC
  5
FD
330
1F
100
AcDbEntity
  8
Default
100
AcDbCircle
 10
75.90395695643407
 20
-4.118056024824998
 30
0.0
 40
83.46239820896254
100
AcDbArc
 50
174.3253122224892
 51
174.719604729725
  0
LINE
  5
FE
330
1F
100
AcDbEntity
  8
Default
100
AcDbLine
 10
-8.017082094686948
 20
4.001121268386274
 30
0.0
 11
-8.019116777744742
 21
3.651516721835769
 31
0.0
  0
SPLINE
  5
FF
330
1F
100
AcDbEntity
  8
Default
100
AcDbSpline
210
0.0
220
0.0
230
1.0
 70
    12
 71
     2
 72
     6
 73
     3
 74
     0
 42
0.0000000001
 43
0.0000000001
 40
0.0
 40
0.0
 40
0.0
 40
0.6201447082721723
 40
0.6201447082721723
 40
0.6201447082721723
 10
-7.261074599832362
 20
4.938572349993535
 30
0.0
 41
1.0
 10
-7.533546752404567
 20
4.790563476915837
 30
0.0
 41
0.999977880596909
 10
-7.808728286515219
 20
4.645789360260318
 30
0.0
 41
1.0
  0
LINE
  5
100
330
1F
100
AcDbEntity
  8
Default
100
AcDbLine
 10
-8.070964712206539
 20
4.005901437485187
 30
0.0
 11
-8.07299939526434
 21
3.656296890934682
 31
0.0
  0
ARC
  5
101
330
1F
100
AcDbEntity
  8
Default
100
AcDbCircle
 10
0.65462374993389
 20
2.816021755161387
 30
0.0
 40
3.292769270586952
100
AcDbArc
 50
81.85468025083281
 51
88.78130036237783
  0
SPLINE
  5
102
330
1F
100
AcDbEntity
  8
Default
100
AcDbSpline
210
0.0
220
0.0
230
1.0
 70
    12
 71
     2
 72
     6
 73
     3
 74
     0
 42
0.0000000001
 43
0.0000000001
 40
-9.923516069771367
 40
-9.923516069771367
 40
-9.923516069771367
 40
0.0
 40
0.0
 40
0.0
 10
1.919887644697816
 20
5.9357143658998
 30
0.0
 41
1.0
 10
6.799015975795769
 20
5.024991025830381
 30
0.0
 41
0.9999999980993496
 10
11.68300399231629
 20
4.112735326154905
 30
0.0
 41
1.0
  0
POLYLINE
  5
103
330
1F
100
AcDbEntity
  8
Default
100
AcDb2dPolyline
 66
     1
 10
0.0
 20
0.0
 30
0.0
  0
VERTEX
  5
104
330
103
100
AcDbEntity
  8
Default
100
AcDbVertex
100
AcDb2dVertex
 10
12.01834201405201
 20
3.791395278120477
 30
0.0
  0
VERTEX
  5
105
330
103
100
AcDbEntity
  8
Default
100
AcDbVertex
100
AcDb2dVertex
 10
12.07487480926125
 20
2.735702831654399
 30
0.0
  0
SEQEND
  5
106
330
103
100
AcDbEntity
  8
Default
  0
POLYLINE
  5
107
330
1F
100
AcDbEntity
  8
Default
100
AcDb2dPolyline
 66
     1
 10
0.0
 20
0.0
 30
0.0
  0
VERTEX
  5
108
330
107
100
AcDbEntity
  8
Default
100
AcDbVertex
100
AcDb2dVertex
 10
12.15475427130298
 20
2.660000000135952
 30
0.0
  0
VERTEX
  5
109
330
107
100
AcDbEntity
  8
Default
100
AcDbVertex
100
AcDb2dVertex
 10
12.91509809200299
 20
2.660372603167442
 30
0.0
  0
SEQEND
  5
10A
330
107
100
AcDbEntity
  8
Default
  0
SPLINE
  5
10B
330
1F
100
AcDbEntity
  8
Default
100
AcDbSpline
210
0.0
220
0.0
230
1.0
 70
    12
 71
     2
 72
     6
 73
     3
 74
     0
 42
0.0000000001
 43
0.0000000001
 40
-1.279806876924132
 40
-1.279806876924132
 40
-1.279806876924132
 40
0.0
 40
0.0
 40
0.0
 10
12.98722074763614
 20
2.745718756732316
 30
0.0
 41
1.0
 10
12.9408992315529
 20
3.384103012644089
 30
0.0
 41
0.9999997048608069
 10
12.89442205342407
 20
4.037804242385373
 30
0.0
 41
1.0
  0
SPLINE
  5
10C
330
1F
100
AcDbEntity
  8
Default
100
AcDbSpline
210
0.0
220
0.0
230
1.0
 70
     8
 71
     2
 72
    11
 73
     8
 74
     0
 42
0.0000000001
 43
0.0000000001
 40
-5.999999999999999
 40
-5.999999999999999
 40
-5.999999999999999
 40
-4.999999999999999
 40
-3.999999999999999
 40
-3.0
 40
-2.0
 40
-0.9999999999999999
 40
0.0
 40
0.0
 40
0.0
 10
12.01314743387862
 20
5.004894892528561
 30
0.0
 10
11.13279805980072
 20
5.288862970564114
 30
0.0
 10
9.404979012450355
 20
5.848469497456392
 30
0.0
 10
7.677814486850401
 20
6.41009034271819
 30
0.0
 10
5.951425797381788
 20
6.974108200836989
 30
0.0
 10
4.225123716778491
 20
7.538288720910819
 30
0.0
 10
2.504041734123348
 20
8.118992541801576
 30
0.0
 10
1.630456642007793
 20
8.36770377541064
 30
0.0
  0
SPLINE
  5
10D
330
1F
100
AcDbEntity
  8
Default
100
AcDbSpline
210
0.0
220
0.0
230
1.0
 70
    24
 71
     2
 72
     6
 73
     3
 74
     0
 42
0.0000000001
 43
0.0000000001
 40
0.0
 40
0.0
 40
0.0
 40
0.146406090086195
 40
0.146406090086195
 40
0.146406090086195
 10
0.9627740586709947
 20
8.552175031652018
 30
0.0
 10
0.9110114875378947
 20
8.60393719962509
 30
0.0
 10
0.8592489164047947
 20
8.65569936759816
 30
0.0
  0
SPLINE
  5
10E
330
1F
100
AcDbEntity
  8
Default
100
AcDbSpline
210
0.0
220
0.0
230
1.0
 70
    24
 71
     2
 72
     6
 73
     3
 74
     0
 42
0.0000000001
 43
0.0000000001
 40
-0.859248916403498
 40
-0.859248916403498
 40
-0.859248916403498
 40
0.0
 40
0.0
 40
0.0
 10
0.0
 20
8.65569936759816
 30
0.0
 10
-0.4296244582023974
 20
8.65569936759816
 30
0.0
 10
-0.8592489164047947
 20
8.65569936759816
 30
0.0
  0
ARC
  5
10F
330
1F
100
AcDbEntity
  8
Default
100
AcDbCircle
 10
10.52511647472811
 20
-34.32810576567275
 30
0.0
 40
44.39245555457344
100
AcDbArc
 50
104.9976985202252
 51
105.89174772714
  0
SPLINE
  5
110
330
1F
100
AcDbEntity
  8
Default
100
AcDbSpline
210
0.0
220
0.0
230
1.0
 70
     8
 71
     3
 72
    11
 73
     7
 74
     0
 42
0.0000000001
 43
0.0000000001
 40
0.0
 40
0.0
 40
0.0
 40
0.0
 40
0.0685392317844788
 40
0.1337942712257442
 40
0.2437288863794028
 40
0.5063519703326558
 40
0.5063519703326558
 40
0.5063519703326558
 40
0.5063519703326558
 10
-12.01834201405201
 20
3.791395278120477
 30
0.0
 10
-12.01673702831943
 20
3.813946980743458
 30
0.0
 10
-12.00890500356142
 20
3.858834814894818
 30
0.0
 10
-11.98842258890852
 20
3.93591858664051
 30
0.0
 10
-11.90406174857566
 20
4.064213073112329
 30
0.0
 10
-11.77358005763253
 20
4.095161847426471
 30
0.0
 10
-11.68300399231629
 20
4.112735326154905
 30
0.0
  0
ARC
  5
111
330
1F
100
AcDbEntity
  8
Default
100
AcDbCircle
 10
-0.65462374993389
 20
2.816021755161387
 30
0.0
 40
3.292769270586952
100
AcDbArc
 50
91.21869963762217
 51
98.1453197491672
  0
POLYLINE
  5
112
330
1F
100
AcDbEntity
  8
Default
100
AcDb2dPolyline
 66
     1
 10
0.0
 20
0.0
 30
0.0
  0
VERTEX
  5
113
330
112
100
AcDbEntity
  8
Default
100
AcDbVertex
100
AcDb2dVertex
 10
-12.41872206979274
 20
3.839516775168429
 30
0.0
  0
VERTEX
  5
114
330
112
100
AcDbEntity
  8
Default
100
AcDbVertex
100
AcDb2dVertex
 10
-12.39646696434079
 20
4.03452120165008
 30
0.0
  0
VERTEX
  5
115
330
112
100
AcDbEntity
  8
Default
100
AcDbVertex
100
AcDb2dVertex
 10
-12.38464421416575
 20
4.118262438547003
 30
0.0
  0
VERTEX
  5
116
330
112
100
AcDbEntity
  8
Default
100
AcDbVertex
100
AcDb2dVertex
 10
-12.37153487410936
 20
4.194604591920154
 30
0.0
  0
VERTEX
  5
117
330
112
100
AcDbEntity
  8
Default
100
AcDbVertex
100
AcDb2dVertex
 10
-12.3570688688045
 20
4.263437523667546
 30
0.0
  0
VERTEX
  5
118
330
112
100
AcDbEntity
  8
Default
100
AcDbVertex
100
AcDb2dVertex
 10
-12.34135712721979
 20
4.324608716603176
 30
0.0
  0
VERTEX
  5
119
330
112
100
AcDbEntity
  8
Default
100
AcDbVertex
100
AcDb2dVertex
 10
-12.32443813978642
 20
4.379073315795267
 30
0.0
  0
VERTEX
  5
11A
330
112
100
AcDbEntity
  8
Default
100
AcDbVertex
100
AcDb2dVertex
 10
-12.3054247206985
 20
4.429998491005843
 30
0.0
  0
VERTEX
  5
11B
330
112
100
AcDbEntity
  8
Default
100
AcDbVertex
100
AcDb2dVertex
 10
-12.28283784100232
 20
4.479818741562973
 30
0.0
  0
VERTEX
  5
11C
330
112
100
AcDbEntity
  8
Default
100
AcDbVertex
100
AcDb2dVertex
 10
-12.25568681025224
 20
4.528329301016679
 30
0.0
  0
VERTEX
  5
11D
330
112
100
AcDbEntity
  8
Default
100
AcDbVertex
100
AcDb2dVertex
 10
-12.22437165434565
 20
4.573377222846524
 30
0.0
  0
VERTEX
  5
11E
330
112
100
AcDbEntity
  8
Default
100
AcDbVertex
100
AcDb2dVertex
 10
-12.19107876283179
 20
4.612557081626971
 30
0.0
  0
VERTEX
  5
11F
330
112
100
AcDbEntity
  8
Default
100
AcDbVertex
100
AcDb2dVertex
 10
-12.15596583195703
 20
4.646745028334538
 30
0.0
  0
VERTEX
  5
120
330
112
100
AcDbEntity
  8
Default
100
AcDbVertex
100
AcDb2dVertex
 10
-12.11659951951932
 20
4.6786042302982
 30
0.0
  0
VERTEX
  5
121
330
112
100
AcDbEntity
  8
Default
100
AcDbVertex
100
AcDb2dVertex
 10
-12.07197459116874
 20
4.709064656690064
 30
0.0
  0
VERTEX
  5
122
330
112
100
AcDbEntity
  8
Default
100
AcDbVertex
100
AcDb2dVertex
 10
-12.02287700924082
 20
4.737829132307763
 30
0.0
  0
VERTEX
  5
123
330
112
100
AcDbEntity
  8
Default
100
AcDbVertex
100
AcDb2dVertex
 10
-11.97064293161085
 20
4.764544458416726
 30
0.0
  0
VERTEX
  5
124
330
112
100
AcDbEntity
  8
Default
100
AcDbVertex
100
AcDb2dVertex
 10
-11.91553568476347
 20
4.78939508022156
 30
0.0
  0
VERTEX
  5
125
330
112
100
AcDbEntity
  8
Default
100
AcDbVertex
100
AcDb2dVertex
 10
-11.85597981494183
 20
4.81332965095006
 30
0.0
  0
VERTEX
  5
126
330
112
100
AcDbEntity
  8
Default
100
AcDbVertex
100
AcDb2dVertex
 10
-11.79067277291997
 20
4.837032094536745
 30
0.0
  0
VERTEX
  5
127
330
112
100
AcDbEntity
  8
Default
100
AcDbVertex
100
AcDb2dVertex
 10
-11.7189029124185
 20
4.861018593350064
 30
0.0
  0
SEQEND
  5
128
330
112
100
AcDbEntity
  8
Default
  0
SPLINE
  5
129
330
1F
100
AcDbEntity
  8
Default
100
AcDbSpline
210
0.0
220
0.0
230
1.0
 70
     8
 71
     3
 72
     8
 73
     4
 74
     0
 42
0.0000000001
 43
0.0000000001
 40
-1.0
 40
-1.0
 40
-1.0
 40
-1.0
 40
0.0
 40
0.0
 40
0.0
 40
0.0
 10
-2.23220805647766
 20
7.936590583900404
 30
0.0
 10
-1.803305206639699
 20
8.075809907780275
 30
0.0
 10
-0.9174788928208102
 20
8.385912950761647
 30
0.0
 10
-0.8794120361308231
 20
7.936590584122239
 30
0.0
  0
SPLINE
  5
12A
330
1F
100
AcDbEntity
  8
Default
100
AcDbSpline
210
0.0
220
0.0
230
1.0
 70
     8
 71
     3
 72
     8
 73
     4
 74
     0
 42
0.0000000001
 43
0.0000000001
 40
0.0
 40
0.0
 40
0.0
 40
0.0
 40
1.0
 40
1.0
 40
1.0
 40
1.0
 10
-0.462188258463847
 20
2.734553175816488
 30
0.0
 10
-0.4587044579891497
 20
2.698307188930245
 30
0.0
 10
-0.418757625258074
 20
2.66000014459782
 30
0.0
 10
-0.3823445863495607
 20
2.660000000000005
 30
0.0
  0
SPLINE
  5
12B
330
1F
100
AcDbEntity
  8
Default
100
AcDbSpline
210
0.0
220
0.0
230
1.0
 70
     8
 71
     3
 72
     8
 73
     4
 74
     0
 42
0.0000000001
 43
0.0000000001
 40
-1.0
 40
-1.0
 40
-1.0
 40
-1.0
 40
0.0
 40
0.0
 40
0.0
 40
0.0
 10
0.3823443801769884
 20
2.660000000000018
 30
0.0
 10
0.4187574744704321
 20
2.66000000000002
 30
0.0
 10
0.4587044514139933
 20
2.698307120521291
 30
0.0
 10
0.462188258463847
 20
2.734553175816488
 30
0.0
  0
SPLINE
  5
12C
330
1F
100
AcDbEntity
  8
Default
100
AcDbSpline
210
0.0
220
0.0
230
1.0
 70
     8
 71
     3
 72
     8
 73
     4
 74
     0
 42
0.0000000001
 43
0.0000000001
 40
0.0
 40
0.0
 40
0.0
 40
0.0
 40
1.0
 40
1.0
 40
1.0
 40
1.0
 10
0.8794120361308231
 20
7.936590584122239
 30
0.0
 10
0.9174788928208102
 20
8.385912950761647
 30
0.0
 10
1.803305206639699
 20
8.075809907780275
 30
0.0
 10
2.23220805647766
 20
7.936590583900404
 30
0.0
  0
ARC
  5
12D
330
1F
100
AcDbEntity
  8
Default
100
AcDbCircle
 10
38.48657581572932
 20
6.630442674685654
 30
0.0
 40
26.2168317364272
100
AcDbArc
 50
186.1110305544023
 51
188.71075219125
  0
ARC
  5
12E
330
1F
100
AcDbEntity
  8
Default
100
AcDbCircle
 10
0.7214083409712799
 20
-6.797963521514887
 30
0.0
 40
13.00472979436119
100
AcDbArc
 50
98.1453197491668
 51
101.7184565418825
  0
SPLINE
  5
12F
330
1F
100
AcDbEntity
  8
Default
100
AcDbSpline
210
0.0
220
0.0
230
1.0
 70
    12
 71
     2
 72
     6
 73
     3
 74
     0
 42
0.0000000001
 43
0.0000000001
 40
-9.972518196955523
 40
-9.972518196955523
 40
-9.972518196955523
 40
0.0
 40
0.0
 40
0.0
 10
-11.7189029124185
 20
4.861018593350064
 30
0.0
 41
1.0
 10
-6.974876122895862
 20
6.397148629054801
 30
0.0
 41
0.9999999359462229
 10
-2.23220805647766
 20
7.936590583900404
 30
0.0
 41
1.0
  0
SPLINE
  5
130
330
1F
100
AcDbEntity
  8
Default
100
AcDbSpline
210
0.0
220
0.0
230
1.0
 70
     8
 71
     2
 72
    11
 73
     8
 74
     0
 42
0.0000000001
 43
0.0000000001
 40
-6.0
 40
-6.0
 40
-6.0
 40
-5.0
 40
-4.0
 40
-3.0
 40
-2.0
 40
-1.0
 40
0.0
 40
0.0
 40
0.0
 10
-0.8794120361308231
 20
7.936590584122239
 30
0.0
 10
-0.8427110839694407
 20
7.503235100615158
 30
0.0
 10
-0.7691913757953088
 20
6.63653319551112
 30
0.0
 10
-0.6961830247216838
 20
5.769792283118399
 30
0.0
 10
-0.6201220679098469
 20
4.903285480513539
 30
0.0
 10
-0.5617644989182295
 20
4.035421468713562
 30
0.0
 10
-0.5026184443573669
 20
3.167600978850501
 30
0.0
 10
-0.462188258463847
 20
2.734553175816488
 30
0.0
  0
LINE
  5
131
330
1F
100
AcDbEntity
  8
Default
100
AcDbLine
 10
-0.3823445863495607
 20
2.660000000000005
 30
0.0
 11
0.3823443801769884
 21
2.660000000000018
 31
0.0
  0
SPLINE
  5
132
330
1F
100
AcDbEntity
  8
Default
100
AcDbSpline
210
0.0
220
0.0
230
1.0
 70
     8
 71
     2
 72
    11
 73
     8
 74
     0
 42
0.0000000001
 43
0.0000000001
 40
0.0
 40
0.0
 40
0.0
 40
1.0
 40
2.0
 40
3.0
 40
4.0
 40
5.0
 40
6.0
 40
6.0
 40
6.0
 10
0.462188258463847
 20
2.734553175816488
 30
0.0
 10
0.5026184443573669
 20
3.167600978850501
 30
0.0
 10
0.5617644989182295
 20
4.035421468713562
 30
0.0
 10
0.6201220679098469
 20
4.903285480513539
 30
0.0
 10
0.6961830247216838
 20
5.769792283118399
 30
0.0
 10
0.7691913757953088
 20
6.63653319551112
 30
0.0
 10
0.8427110839694407
 20
7.503235100615158
 30
0.0
 10
0.8794120361308231
 20
7.936590584122239
 30
0.0
  0
SPLINE
  5
133
330
1F
100
AcDbEntity
  8
Default
100
AcDbSpline
210
0.0
220
0.0
230
1.0
 70
    12
 71
     2
 72
     6
 73
     3
 74
     0
 42
0.0000000001
 43
0.0000000001
 40
0.0
 40
0.0
 40
0.0
 40
9.972518196955523
 40
9.972518196955523
 40
9.972518196955523
 10
2.23220805647766
 20
7.936590583900404
 30
0.0
 41
1.0
 10
6.974876122895859
 20
6.397148629054801
 30
0.0
 41
0.9999999359462229
 10
11.7189029124185
 20
4.861018593350064
 30
0.0
 41
1.0
  0
POLYLINE
  5
134
330
1F
100
AcDbEntity
  8
Default
100
AcDb2dPolyline
 66
     1
 10
0.0
 20
0.0
 30
0.0
  0
VERTEX
  5
135
330
134
100
AcDbEntity
  8
Default
100
AcDbVertex
100
AcDb2dVertex
 10
11.7189029124185
 20
4.861018593350064
 30
0.0
  0
VERTEX
  5
136
330
134
100
AcDbEntity
  8
Default
100
AcDbVertex
100
AcDb2dVertex
 10
11.79067277291997
 20
4.837032094536745
 30
0.0
  0
VERTEX
  5
137
330
134
100
AcDbEntity
  8
Default
100
AcDbVertex
100
AcDb2dVertex
 10
11.85597981494183
 20
4.81332965095006
 30
0.0
  0
VERTEX
  5
138
330
134
100
AcDbEntity
  8
Default
100
AcDbVertex
100
AcDb2dVertex
 10
11.91553568476347
 20
4.78939508022156
 30
0.0
  0
VERTEX
  5
139
330
134
100
AcDbEntity
  8
Default
100
AcDbVertex
100
AcDb2dVertex
 10
11.97064293161085
 20
4.764544458416726
 30
0.0
  0
VERTEX
  5
13A
330
134
100
AcDbEntity
  8
Default
100
AcDbVertex
100
AcDb2dVertex
 10
12.02287700924082
 20
4.737829132307763
 30
0.0
  0
VERTEX
  5
13B
330
134
100
AcDbEntity
  8
Default
100
AcDbVertex
100
AcDb2dVertex
 10
12.07197459116874
 20
4.709064656690064
 30
0.0
  0
VERTEX
  5
13C
330
134
100
AcDbEntity
  8
Default
100
AcDbVertex
100
AcDb2dVertex
 10
12.11659951951932
 20
4.6786042302982
 30
0.0
  0
VERTEX
  5
13D
330
134
100
AcDbEntity
  8
Default
100
AcDbVertex
100
AcDb2dVertex
 10
12.15596583195703
 20
4.646745028334538
 30
0.0
  0
VERTEX
  5
13E
330
134
100
AcDbEntity
  8
Default
100
AcDbVertex
100
AcDb2dVertex
 10
12.19107876283179
 20
4.612557081626971
 30
0.0
  0
VERTEX
  5
13F
330
134
100
AcDbEntity
  8
Default
100
AcDbVertex
100
AcDb2dVertex
 10
12.22437165434565
 20
4.573377222846524
 30
0.0
  0
VERTEX
  5
140
330
134
100
AcDbEntity
  8
Default
100
AcDbVertex
100
AcDb2dVertex
 10
12.25568681025224
 20
4.528329301016679
 30
0.0
  0
VERTEX
  5
141
330
134
100
AcDbEntity
  8
Default
100
AcDbVertex
100
AcDb2dVertex
 10
12.28283784100232
 20
4.479818741562973
 30
0.0
  0
VERTEX
  5
142
330
134
100
AcDbEntity
  8
Default
100
AcDbVertex
100
AcDb2dVertex
 10
12.3054247206985
 20
4.429998491005843
 30
0.0
  0
VERTEX
  5
143
330
134
100
AcDbEntity
  8
Default
100
AcDbVertex
100
AcDb2dVertex
 10
12.32443813978642
 20
4.379073315795267
 30
0.0
  0
VERTEX
  5
144
330
134
100
AcDbEntity
  8
Default
100
AcDbVertex
100
AcDb2dVertex
 10
12.34135712721979
 20
4.324608716603176
 30
0.0
  0
VERTEX
  5
145
330
134
100
AcDbEntity
  8
Default
100
AcDbVertex
100
AcDb2dVertex
 10
12.3570688688045
 20
4.263437523667546
 30
0.0
  0
VERTEX
  5
146
330
134
100
AcDbEntity
  8
Default
100
AcDbVertex
100
AcDb2dVertex
 10
12.37153487410936
 20
4.194604591920154
 30
0.0
  0
VERTEX
  5
147
330
134
100
AcDbEntity
  8
Default
100
AcDbVertex
100
AcDb2dVertex
 10
12.38464421416575
 20
4.118262438547003
 30
0.0
  0
VERTEX
  5
148
330
134
100
AcDbEntity
  8
Default
100
AcDbVertex
100
AcDb2dVertex
 10
12.39646696434079
 20
4.03452120165008
 30
0.0
  0
VERTEX
  5
149
330
134
100
AcDbEntity
  8
Default
100
AcDbVertex
100
AcDb2dVertex
 10
12.41872206979274
 20
3.839516775168429
 30
0.0
  0
SEQEND
  5
14A
330
134
100
AcDbEntity
  8
Default
  0
SPLINE
  5
14B
330
1F
100
AcDbEntity
  8
Default
100
AcDbSpline
210
0.0
220
0.0
230
1.0
 70
    12
 71
     2
 72
     6
 73
     3
 74
     0
 42
0.0000000001
 43
0.0000000001
 40
0.0
 40
0.0
 40
0.0
 40
9.923516069771367
 40
9.923516069771367
 40
9.923516069771367
 10
-11.68300399231629
 20
4.112735326154905
 30
0.0
 41
1.0
 10
-6.799015975795769
 20
5.024991025830381
 30
0.0
 41
0.9999999980993496
 10
-1.919887644697816
 20
5.9357143658998
 30
0.0
 41
1.0
  0
ARC
  5
14C
330
1F
100
AcDbEntity
  8
Default
100
AcDbCircle
 10
-38.48657581572932
 20
6.630442674685654
 30
0.0
 40
26.2168317364272
100
AcDbArc
 50
351.28924780875
 51
353.8889694455976
  0
POLYLINE
  5
14D
330
1F
100
AcDbEntity
  8
Default
100
AcDb2dPolyline
 66
     1
 10
0.0
 20
0.0
 30
0.0
  0
VERTEX
  5
14E
330
14D
100
AcDbEntity
  8
Default
100
AcDbVertex
100
AcDb2dVertex
 10
9.258144327918227
 20
14.6893944672597
 30
0.0
  0
VERTEX
  5
14F
330
14D
100
AcDbEntity
  8
Default
100
AcDbVertex
100
AcDb2dVertex
 10
9.149818847727003
 20
14.63054663805458
 30
0.0
  0
SEQEND
  5
150
330
14D
100
AcDbEntity
  8
Default
  0
POLYLINE
  5
151
330
1F
100
AcDbEntity
  8
Default
100
AcDb2dPolyline
 66
     1
 10
0.0
 20
0.0
 30
0.0
  0
VERTEX
  5
152
330
151
100
AcDbEntity
  8
Default
100
AcDbVertex
100
AcDb2dVertex
 10
-9.258144327918227
 20
14.6893944672597
 30
0.0
  0
VERTEX
  5
153
330
151
100
AcDbEntity
  8
Default
100
AcDbVertex
100
AcDb2dVertex
 10
-9.149818843824269
 20
14.63054663805458
 30
0.0
  0
SEQEND
  5
154
330
151
100
AcDbEntity
  8
Default
  0
SPLINE
  5
155
330
1F
100
AcDbEntity
  8
Default
100
AcDbSpline
210
0.0
220
0.0
230
1.0
 70
     8
 71
     3
 72
     9
 73
     5
 74
     0
 42
0.0000000001
 43
0.0000000001
 40
0.0
 40
0.0
 40
0.0
 40
0.0
 40
1.0
 40
2.0
 40
2.0
 40
2.0
 40
2.0
 10
-9.190877307353539
 20
13.6143122850851
 30
0.0
 10
-9.25561735583611
 20
13.78283730190323
 30
0.0
 10
-9.299651387408407
 20
14.14807948172079
 30
0.0
 10
-9.269144778005625
 20
14.50843362417344
 30
0.0
 10
-9.258144327918227
 20
14.6893944672597
 30
0.0
  0
SPLINE
  5
156
330
1F
100
AcDbEntity
  8
Default
100
AcDbSpline
210
0.0
220
0.0
230
1.0
 70
     8
 71
     3
 72
    12
 73
     8
 74
     0
 42
0.0000000001
 43
0.0000000001
 40
0.0
 40
0.0
 40
0.0
 40
0.0
 40
1.0
 40
2.0
 40
3.0
 40
4.0
 40
5.0
 40
5.0
 40
5.0
 40
5.0
 10
-9.258144327918227
 20
14.6893944672597
 30
0.0
 10
-9.364062588372146
 20
14.73665119469713
 30
0.0
 10
-9.577169064864654
 20
14.83100829883407
 30
0.0
 10
-9.861518186131072
 20
15.03656064623827
 30
0.0
 10
-10.08059955585845
 20
15.31195992269642
 30
0.0
 10
-10.20986084694801
 20
15.63950641278362
 30
0.0
 10
-10.23162923260843
 20
15.87297822441331
 30
0.0
 10
-10.22563188107469
 20
15.98896000265017
 30
0.0
  0
LINE
  5
157
330
1F
100
AcDbEntity
  8
Default
100
AcDbLine
 10
-10.22563188107469
 20
15.98896000265017
 30
0.0
 11
-10.44902981550115
 21
23.43910309271658
 31
0.0
  0
ARC
  5
158
330
1F
100
AcDbEntity
  8
Default
100
AcDbCircle
 10
-3.954721203835492
 20
23.62694473437224
 30
0.0
 40
6.497024613305276
100
AcDbArc
 50
174.1677253868116
 51
181.6567635017989
  0
SPLINE
  5
159
330
1F
100
AcDbEntity
  8
Default
100
AcDbSpline
210
0.0
220
0.0
230
1.0
 70
     8
 71
     3
 72
     9
 73
     5
 74
     0
 42
0.0000000001
 43
0.0000000001
 40
0.0
 40
0.0
 40
0.0
 40
0.0
 40
1.0
 40
2.0
 40
2.0
 40
2.0
 40
2.0
 10
9.190877307353537
 20
13.6143122850851
 30
0.0
 10
9.25561735583611
 20
13.78283730190323
 30
0.0
 10
9.299651387408407
 20
14.14807948172079
 30
0.0
 10
9.269144778005625
 20
14.50843362417344
 30
0.0
 10
9.258144327918227
 20
14.6893944672597
 30
0.0
  0
SPLINE
  5
15A
330
1F
100
AcDbEntity
  8
Default
100
AcDbSpline
210
0.0
220
0.0
230
1.0
 70
     8
 71
     3
 72
    12
 73
     8
 74
     0
 42
0.0000000001
 43
0.0000000001
 40
0.0
 40
0.0
 40
0.0
 40
0.0
 40
1.0
 40
2.0
 40
3.0
 40
4.0
 40
5.0
 40
5.0
 40
5.0
 40
5.0
 10
9.258144327918227
 20
14.6893944672597
 30
0.0
 10
9.364062588372146
 20
14.73665119469713
 30
0.0
 10
9.577169064864654
 20
14.83100829883407
 30
0.0
 10
9.861518186131072
 20
15.03656064623827
 30
0.0
 10
10.08059955585845
 20
15.31195992269642
 30
0.0
 10
10.20986084694801
 20
15.63950641278362
 30
0.0
 10
10.23162923260843
 20
15.87297822441331
 30
0.0
 10
10.22563188107469
 20
15.98896000265017
 30
0.0
  0
LINE
  5
15B
330
1F
100
AcDbEntity
  8
Default
100
AcDbLine
 10
10.22563188107469
 20
15.98896000265017
 30
0.0
 11
10.44902981550115
 21
23.43910309271659
 31
0.0
  0
ARC
  5
15C
330
1F
100
AcDbEntity
  8
Default
100
AcDbCircle
 10
3.954721203835492
 20
23.62694473437224
 30
0.0
 40
6.497024613305276
100
AcDbArc
 50
358.3432364982012
 51
5.832274613188463
  0
ARC
  5
15D
330
1F
100
AcDbEntity
  8
Default
100
AcDbCircle
 10
8.004358659976845
 20
15.8744439266996
 30
0.0
 40
2.552649905098557
100
AcDbArc
 50
297.6984699127685
 51
336.7075327212762
  0
ARC
  5
15E
330
1F
100
AcDbEntity
  8
Default
100
AcDbCircle
 10
9.132744476070147
 20
13.72504619701368
 30
0.0
 40
0.1250656840385476
100
AcDbArc
 50
253.4279444497326
 51
297.6984699127685
  0
ARC
  5
15F
330
1F
100
AcDbEntity
  8
Default
100
AcDbCircle
 10
-8.004358659976845
 20
15.8744439266996
 30
0.0
 40
2.552649905098557
100
AcDbArc
 50
203.2924672787238
 51
242.3015300872315
  0
ARC
  5
160
330
1F
100
AcDbEntity
  8
Default
100
AcDbCircle
 10
-9.132744476070147
 20
13.72504619701368
 30
0.0
 40
0.1250656840385476
100
AcDbArc
 50
242.3015300872315
 51
286.5720555502674
  0
POLYLINE
  5
161
330
1F
100
AcDbEntity
  8
Default
100
AcDb2dPolyline
 66
     1
 10
0.0
 20
0.0
 30
0.0
  0
VERTEX
  5
162
330
161
100
AcDbEntity
  8
Default
100
AcDbVertex
100
AcDb2dVertex
 10
2.946514241781866
 20
12.06241516582331
 30
0.0
  0
VERTEX
  5
163
330
161
100
AcDbEntity
  8
Default
100
AcDbVertex
100
AcDb2dVertex
 10
2.946514241781866
 20
12.1763345120511
 30
0.0
  0
SEQEND
  5
164
330
161
100
AcDbEntity
  8
Default
  0
POLYLINE
  5
165
330
1F
100
AcDbEntity
  8
Default
100
AcDb2dPolyline
 66
     1
 10
0.0
 20
0.0
 30
0.0
  0
VERTEX
  5
166
330
165
100
AcDbEntity
  8
Default
100
AcDbVertex
100
AcDb2dVertex
 10
-2.946514241781866
 20
12.06241516582331
 30
0.0
  0
VERTEX
  5
167
330
165
100
AcDbEntity
  8
Default
100
AcDbVertex
100
AcDb2dVertex
 10
-2.946514241781866
 20
12.1763345120511
 30
0.0
  0
SEQEND
  5
168
330
165
100
AcDbEntity
  8
Default
  0
SPLINE
  5
169
330
1F
100
AcDbEntity
  8
Default
100
AcDbSpline
210
0.0
220
0.0
230
1.0
 70
    12
 71
     2
 72
     6
 73
     3
 74
     0
 42
0.0000000001
 43
0.0000000001
 40
0.0
 40
0.0
 40
0.0
 40
2.39681761224415
 40
2.39681761224415
 40
2.39681761224415
 10
-0.5445223577489813
 20
11.54654929501946
 30
0.0
 41
1.0
 10
-1.751701053758791
 20
11.56373234980693
 30
0.0
 41
0.9984818866571036
 10
-2.942044869630383
 20
11.71265537474489
 30
0.0
 41
1.0
  0
POLYLINE
  5
16A
330
1F
100
AcDbEntity
  8
Default
100
AcDb2dPolyline
 66
     1
 10
0.0
 20
0.0
 30
0.0
  0
VERTEX
  5
16B
330
16A
100
AcDbEntity
  8
Default
100
AcDbVertex
100
AcDb2dVertex
 10
-2.942044869630383
 20
11.71265537474489
 30
0.0
  0
VERTEX
  5
16C
330
16A
100
AcDbEntity
  8
Default
100
AcDbVertex
100
AcDb2dVertex
 10
-2.946514241781866
 20
12.06241516582331
 30
0.0
  0
SEQEND
  5
16D
330
16A
100
AcDbEntity
  8
Default
  0
ARC
  5
16E
330
1F
100
AcDbEntity
  8
Default
100
AcDbCircle
 10
-2.754225395599245
 20
11.62707379346848
 30
0.0
 40
0.4759171260314424
100
AcDbArc
 50
82.06180096811966
 51
113.8308892145161
  0
ARC
  5
16F
330
1F
100
AcDbEntity
  8
Default
100
AcDbCircle
 10
0.0796043802315071
 20
31.94985144485507
 30
0.0
 40
20.04348546434831
100
AcDbArc
 50
262.0618009681198
 51
269.7724455364877
  0
ARC
  5
170
330
1F
100
AcDbEntity
  8
Default
100
AcDbCircle
 10
-0.079603597394472
 20
31.94985144485507
 30
0.0
 40
20.04348546434831
100
AcDbArc
 50
270.2275544635123
 51
277.9381990318802
  0
ARC
  5
171
330
1F
100
AcDbEntity
  8
Default
100
AcDbCircle
 10
2.75422617843628
 20
11.62707379346848
 30
0.0
 40
0.4759171260314424
100
AcDbArc
 50
66.16911078548394
 51
97.93819903188036
  0
POLYLINE
  5
172
330
1F
100
AcDbEntity
  8
Default
100
AcDb2dPolyline
 66
     1
 10
0.0
 20
0.0
 30
0.0
  0
VERTEX
  5
173
330
172
100
AcDbEntity
  8
Default
100
AcDbVertex
100
AcDb2dVertex
 10
2.9465150246189
 20
12.06241516582331
 30
0.0
  0
VERTEX
  5
174
330
172
100
AcDbEntity
  8
Default
100
AcDbVertex
100
AcDb2dVertex
 10
2.942045652467417
 20
11.71265537474489
 30
0.0
  0
SEQEND
  5
175
330
172
100
AcDbEntity
  8
Default
  0
SPLINE
  5
176
330
1F
100
AcDbEntity
  8
Default
100
AcDbSpline
210
0.0
220
0.0
230
1.0
 70
    12
 71
     2
 72
     6
 73
     3
 74
     0
 42
0.0000000001
 43
0.0000000001
 40
-2.39681761224415
 40
-2.39681761224415
 40
-2.39681761224415
 40
0.0
 40
0.0
 40
0.0
 10
2.942045652467417
 20
11.71265537474489
 30
0.0
 41
1.0
 10
1.751701836595826
 20
11.56373234980693
 30
0.0
 41
0.9984818866571036
 10
0.5445231405860156
 20
11.54654929501946
 30
0.0
 41
1.0
  0
SPLINE
  5
177
330
1F
100
AcDbEntity
  8
Default
100
AcDbSpline
210
0.0
220
0.0
230
1.0
 70
    12
 71
     2
 72
     6
 73
     3
 74
     0
 42
0.0000000001
 43
0.0000000001
 40
0.0
 40
0.0
 40
0.0
 40
0.5368463379608942
 40
0.5368463379608942
 40
0.5368463379608942
 10
0.5445231405860156
 20
11.54654929501946
 30
0.0
 41
1.0
 10
0.2684239318866111
 20
11.54548281384168
 30
0.0
 41
0.999995177630969
 10
0.0000003914185172
 20
11.54617893816136
 30
0.0
 41
1.0
  0
SPLINE
  5
178
330
1F
100
AcDbEntity
  8
Default
100
AcDbSpline
210
0.0
220
0.0
230
1.0
 70
    12
 71
     2
 72
     6
 73
     3
 74
     0
 42
0.0000000001
 43
0.0000000001
 40
-0.5368463379608942
 40
-0.5368463379608942
 40
-0.5368463379608942
 40
0.0
 40
0.0
 40
0.0
 10
0.0000003914185172
 20
11.54617893816136
 30
0.0
 41
1.0
 10
-0.2684231490495768
 20
11.54548281384168
 30
0.0
 41
0.999995177630969
 10
-0.5445223577489813
 20
11.54654929501946
 30
0.0
 41
1.0
  0
SPLINE
  5
179
330
1F
100
AcDbEntity
  8
Default
100
AcDbSpline
210
0.0
220
0.0
230
1.0
 70
    12
 71
     2
 72
     6
 73
     3
 74
     0
 42
0.0000000001
 43
0.0000000001
 40
-9.398964518206558
 40
-9.398964518206558
 40
-9.398964518206558
 40
0.0
 40
0.0
 40
0.0
 10
-9.159373204059733
 20
13.98668054246088
 30
0.0
 41
1.0
 10
-4.757355136642905
 20
12.18230235664443
 30
0.0
 41
0.9818159748914095
 10
0.0000000008609078
 20
12.14889877928283
 30
0.0
 41
1.0
  0
SPLINE
  5
17A
330
1F
100
AcDbEntity
  8
Default
100
AcDbSpline
210
0.0
220
0.0
230
1.0
 70
    12
 71
     2
 72
     6
 73
     3
 74
     0
 42
0.0000000001
 43
0.0000000001
 40
0.0
 40
0.0
 40
0.0
 40
9.398964518206558
 40
9.398964518206558
 40
9.398964518206558
 10
0.0000000008609078
 20
12.14889877928283
 30
0.0
 41
1.0
 10
4.757355138364722
 20
12.18230235664443
 30
0.0
 41
0.9818159748914095
 10
9.159373205781549
 20
13.98668054246088
 30
0.0
 41
1.0
  0
SPLINE
  5
17B
330
1F
100
AcDbEntity
  8
Default
100
AcDbSpline
210
0.0
220
0.0
230
1.0
 70
    12
 71
     3
 72
     8
 73
     4
 74
     0
 42
0.0000000001
 43
0.0000000001
 40
0.6249070998662714
 40
0.6249070998662714
 40
0.6249070998662714
 40
0.6249070998662714
 40
1.0
 40
1.0
 40
1.0
 40
1.0
 10
9.051078792076389
 20
13.53639020833502
 30
0.0
 41
1.0
 10
9.092690594937913
 20
13.55007690800079
 30
0.0
 41
1.0
 10
9.130005259057471
 20
13.6715379293004
 30
0.0
 41
1.0
 10
9.159373207962467
 20
13.98668054246088
 30
0.0
 41
1.0
  0
SPLINE
  5
17C
330
1F
100
AcDbEntity
  8
Default
100
AcDbSpline
210
0.0
220
0.0
230
1.0
 70
     8
 71
     3
 72
     8
 73
     4
 74
     0
 42
0.0000000001
 43
0.0000000001
 40
-1.0
 40
-1.0
 40
-1.0
 40
-1.0
 40
0.0
 40
0.0
 40
0.0
 40
0.0
 10
9.159373207962467
 20
13.98668054246088
 30
0.0
 10
9.166233126267656
 20
14.06029319371405
 30
0.0
 10
9.168034859969685
 20
14.18850149792182
 30
0.0
 10
9.164959566799393
 20
14.26244929135985
 30
0.0
  0
SPLINE
  5
17D
330
1F
100
AcDbEntity
  8
Default
100
AcDbSpline
210
0.0
220
0.0
230
1.0
 70
    12
 71
     2
 72
     6
 73
     3
 74
     0
 42
0.0000000001
 43
0.0000000001
 40
-0.3618607082243719
 40
-0.3618607082243719
 40
-0.3618607082243719
 40
0.0
 40
0.0
 40
0.0
 10
9.164959566799393
 20
14.26244929135985
 30
0.0
 41
1.0
 10
9.157441649698473
 20
14.4432233997387
 30
0.0
 41
0.9999999015173984
 10
9.149818847727003
 20
14.63054663805458
 30
0.0
 41
1.0
  0
SPLINE
  5
17E
330
1F
100
AcDbEntity
  8
Default
100
AcDbSpline
210
0.0
220
0.0
230
1.0
 70
    12
 71
     2
 72
    88
 73
    85
 74
     0
 42
0.0000000001
 43
0.0000000001
 40
0.0
 40
0.0
 40
0.0
 40
0.0238929597375462
 40
0.0238929597375462
 40
0.1852612702393832
 40
0.1852612702393832
 40
0.3532833914703453
 40
0.3532833914703453
 40
0.5382470975727797
 40
0.5382470975727797
 40
0.7411068985224568
 40
0.7411068985224568
 40
0.9646721648975409
 40
0.9646721648975409
 40
1.211526434095797
 40
1.211526434095797
 40
1.485959103516197
 40
1.485959103516197
 40
1.793610028101384
 40
1.793610028101384
 40
2.134368465850639
 40
2.134368465850639
 40
2.486415793477413
 40
2.486415793477413
 40
2.816935076289841
 40
2.816935076289841
 40
3.116800605017265
 40
3.116800605017265
 40
3.390160424360793
 40
3.390160424360793
 40
3.635946888798483
 40
3.635946888798483
 40
3.852852876386769
 40
3.852852876386769
 40
4.045652024706101
 40
4.045652024706101
 40
4.220357141592779
 40
4.220357141592779
 40
4.379653228353186
 40
4.379653228353186
 40
4.523998538216201
 40
4.523998538216201
 40
4.655492424830024
 40
4.655492424830024
 40
4.778796182654599
 40
4.778796182654599
 40
4.899121960478391
 40
4.899121960478391
 40
5.021224418461415
 40
5.021224418461415
 40
5.149411287131666
 40
5.149411287131666
 40
5.287436155064012
 40
5.287436155064012
 40
5.437825103435331
 40
5.437825103435331
 40
5.601281444924428
 40
5.601281444924428
 40
5.777643264252672
 40
5.777643264252672
 40
5.967834719878002
 40
5.967834719878002
 40
6.174426187052411
 40
6.174426187052411
 40
6.400613319898135
 40
6.400613319898135
 40
6.648731507065898
 40
6.648731507065898
 40
6.920361409193681
 40
6.920361409193681
 40
7.217720954937797
 40
7.217720954937797
 40
7.545215372694519
 40
7.545215372694519
 40
7.906526519950256
 40
7.906526519950256
 40
8.290201948731
 40
8.290201948731
 40
8.66249014322856
 40
8.66249014322856
 40
8.996201040330604
 40
8.996201040330604
 40
9.290259161172202
 40
9.290259161172202
 40
9.395713736285732
 40
9.395713736285732
 40
9.395713736285732
 10
9.149818847727001
 20
14.63054663805458
 30
0.0
 41
0.9999999606440125
 10
9.13643183604178
 20
14.63160781969019
 30
0.0
 41
0.9999997738816803
 10
9.125405209614705
 20
14.62701840054295
 30
0.0
 41
1.0
 10
9.050932401722172
 20
14.5960239243694
 30
0.0
 41
0.9999909422002812
 10
8.976198455035963
 20
14.56566451262651
 30
0.0
 41
1.0
 10
8.898382900107414
 20
14.53405338238056
 30
0.0
 41
0.9999908360863913
 10
8.820299539752986
 20
14.50310967575021
 30
0.0
 41
1.0
 10
8.734342850554514
 20
14.46904630426247
 30
0.0
 41
0.9999896979305188
 10
8.648080468018904
 20
14.43576467187531
 30
0.0
 41
1.0
 10
8.553471540693044
 20
14.39926335559782
 30
0.0
 41
0.9999886032320936
 10
8.45851839787705
 20
14.36366706521378
 30
0.0
 41
1.0
 10
8.353873261917693
 20
14.32443815927769
 30
0.0
 41
0.9999873942206753
 10
8.248839463261046
 20
14.28626208456262
 30
0.0
 41
1.0
 10
8.132863749094156
 20
14.24411010780658
 30
0.0
 41
0.9999861770983901
 10
8.016451190936912
 20
14.20318002444179
 30
0.0
 41
1.0
 10
7.887032660016673
 20
14.15767812702198
 30
0.0
 41
0.9999848232468225
 10
7.757120618704862
 20
14.1136050021435
 30
0.0
 41
1.0
 10
7.611482304046953
 20
14.06420047275169
 30
0.0
 41
0.9999834942903293
 10
7.465285903449112
 20
14.01647271695847
 30
0.0
 41
1.0
 10
7.303360048815853
 20
13.96359798239901
 30
0.0
 41
0.999981655326889
 10
7.140805547827293
 20
13.91268870856994
 30
0.0
 41
1.0
 10
6.972867186484588
 20
13.8600880370974
 30
0.0
 41
0.9999804046978459
 10
6.80428341870553
 20
13.80959410586549
 30
0.0
 41
1.0
 10
6.64600872900302
 20
13.76218860729825
 30
0.0
 41
0.999982282638819
 10
6.487180886439555
 20
13.71667075232386
 30
0.0
 41
1.0
 10
6.343083764972842
 20
13.67537417105713
 30
0.0
 41
0.9999850357240728
 10
6.198543434765601
 20
13.63565665624445
 30
0.0
 41
1.0
 10
6.066779487889839
 20
13.59944994776937
 30
0.0
 41
0.9999871852060751
 10
5.934655703156392
 20
13.56457920154006
 30
0.0
 41
1.0
 10
5.815859174986619
 20
13.53322593119018
 30
0.0
 41
0.9999893087630002
 10
5.696777768502959
 20
13.50297264547279
 30
0.0
 41
1.0
 10
5.5916888114302
 20
13.47627437527553
 30
0.0
 41
0.9999914032624853
 10
5.486382061572838
 20
13.45044851682621
 30
0.0
 41
1.0
 10
5.392779098116597
 20
13.4274932067978
 30
0.0
 41
0.9999930063260115
 10
5.299007050494554
 20
13.40523867667337
 30
0.0
 41
1.0
 10
5.214035446604445
 20
13.38507291438163
 30
0.0
 41
0.99999411704122
 10
5.128927500151898
 20
13.36549055274942
 30
0.0
 41
1.0
 10
5.051326112998555
 20
13.34763548681333
 30
0.0
 41
0.9999950118777867
 10
4.973613483743248
 20
13.33027098503724
 30
0.0
 41
1.0
 10
4.903194613751222
 20
13.31453632759793
 30
0.0
 41
0.9999958378525723
 10
4.832686121795826
 20
13.29920827299657
 30
0.0
 41
1.0
 10
4.768455192931662
 20
13.28524497623304
 30
0.0
 41
0.9999965005651175
 10
4.704151282620684
 20
13.27162172412584
 30
0.0
 41
1.0
 10
4.643852565734514
 20
13.2588470356924
 30
0.0
 41
0.9999968895574237
 10
4.583490874822468
 20
13.2463732955585
 30
0.0
 41
1.0
 10
4.52458701418728
 20
13.23420083828316
 30
0.0
 41
0.999997011051943
 10
4.465624335341337
 20
13.22231656223624
 30
0.0
 41
1.0
 10
4.405791033363838
 20
13.21025680851723
 30
0.0
 41
0.9999968969840156
 10
4.345898387976217
 20
13.19849531567976
 30
0.0
 41
1.0
 10
4.283021246914833
 20
13.18614778535684
 30
0.0
 41
0.9999965588388926
 10
4.220080186144509
 20
13.17413032962632
 30
0.0
 41
1.0
 10
4.152308573066722
 20
13.16119039243943
 30
0.0
 41
0.9999959723649138
 10
4.084464600431659
 20
13.14863535796485
 30
0.0
 41
1.0
 10
4.010543298225645
 20
13.1349551943673
 30
0.0
 41
0.9999950933700279
 10
3.93653773806162
 20
13.12173842998648
 30
0.0
 41
1.0
 10
3.856101733402971
 20
13.10737321042784
 30
0.0
 41
0.9999939920901817
 10
3.775568071754375
 20
13.0935659760964
 30
0.0
 41
1.0
 10
3.688675932204601
 20
13.07866846973659
 30
0.0
 41
0.9999927528437007
 10
3.601672878781544
 20
13.06443301026586
 30
0.0
 41
1.0
 10
3.507847295438791
 20
13.04908113025764
 30
0.0
 41
0.9999912588303735
 10
3.413896615850216
 20
13.03451438339228
 30
0.0
 41
1.0
 10
3.311844555806861
 20
13.01869139736514
 30
0.0
 41
0.999989301306588
 10
3.209650479240235
 20
13.00381320659466
 30
0.0
 41
1.0
 10
3.097762901556414
 20
12.98752353892985
 30
0.0
 41
0.9999866902852457
 10
2.985713193506983
 20
12.97238926528951
 30
0.0
 41
1.0
 10
2.862798908040433
 20
12.95578748484124
 30
0.0
 41
0.999983396605084
 10
2.739701453030074
 20
12.940603372889
 30
0.0
 41
1.0
 10
2.604938605308527
 20
12.92398312570575
 30
0.0
 41
0.9999798271667516
 10
2.469975499229532
 20
12.90907615619601
 30
0.0
 41
1.0
 10
2.322227928953253
 20
12.89275662906096
 30
0.0
 41
0.999975920226777
 10
2.17426809073087
 20
12.87848926204171
 30
0.0
 41
1.0
 10
2.011313212572704
 20
12.86277606871934
 30
0.0
 41
0.9999708282410269
 10
1.848137313667001
 20
12.84955401228911
 30
0.0
 41
1.0
 10
1.668111465524594
 20
12.83496384182375
 30
0.0
 41
0.9999641587010971
 10
1.487864380391445
 20
12.82342402490127
 30
0.0
 41
1.0
 10
1.296459133943244
 20
12.81118332885698
 30
0.0
 41
0.9999606693774323
 10
1.104866881584696
 20
12.80233958283374
 30
0.0
 41
1.0
 10
0.918961457264007
 20
12.7937628213889
 30
0.0
 41
0.9999663379877944
 10
0.7329403235015963
 20
12.78823783971603
 30
0.0
 41
1.0
 10
0.5661962449010308
 20
12.78328198431778
 30
0.0
 41
0.9999757538350039
 10
0.399399318194174
 20
12.78064883179159
 30
0.0
 41
1.0
 10
0.2524225587480692
 20
12.77832688998211
 30
0.0
 41
0.9999829625297724
 10
0.105428708155026
 20
12.77772098662816
 30
0.0
 41
1.0
 10
0.0527145833311977
 20
12.777501507495
 30
0.0
 41
0.9999979515223483
 10
0.0000000019513671
 20
12.77749542626966
 30
0.0
 41
1.0
  0
SPLINE
  5
17F
330
1F
100
AcDbEntity
  8
Default
100
AcDbSpline
210
0.0
220
0.0
230
1.0
 70
    12
 71
     2
 72
    88
 73
    85
 74
     0
 42
0.0000000001
 43
0.0000000001
 40
-9.395713736285732
 40
-9.395713736285732
 40
-9.395713736285732
 40
-9.290259161172202
 40
-9.290259161172202
 40
-8.996201040330604
 40
-8.996201040330604
 40
-8.66249014322856
 40
-8.66249014322856
 40
-8.290201948731
 40
-8.290201948731
 40
-7.906526519950256
 40
-7.906526519950256
 40
-7.545215372694519
 40
-7.545215372694519
 40
-7.217720954937797
 40
-7.217720954937797
 40
-6.920361409193681
 40
-6.920361409193681
 40
-6.648731507065898
 40
-6.648731507065898
 40
-6.400613319898135
 40
-6.400613319898135
 40
-6.174426187052411
 40
-6.174426187052411
 40
-5.967834719878002
 40
-5.967834719878002
 40
-5.777643264252672
 40
-5.777643264252672
 40
-5.601281444924428
 40
-5.601281444924428
 40
-5.437825103435331
 40
-5.437825103435331
 40
-5.287436155064012
 40
-5.287436155064012
 40
-5.149411287131666
 40
-5.149411287131666
 40
-5.021224418461415
 40
-5.021224418461415
 40
-4.899121960478391
 40
-4.899121960478391
 40
-4.778796182654599
 40
-4.778796182654599
 40
-4.655492424830024
 40
-4.655492424830024
 40
-4.523998538216201
 40
-4.523998538216201
 40
-4.379653228353186
 40
-4.379653228353186
 40
-4.220357141592779
 40
-4.220357141592779
 40
-4.045652024706101
 40
-4.045652024706101
 40
-3.852852876386769
 40
-3.852852876386769
 40
-3.635946888798483
 40
-3.635946888798483
 40
-3.390160424360793
 40
-3.390160424360793
 40
-3.116800605017265
 40
-3.116800605017265
 40
-2.816935076289841
 40
-2.816935076289841
 40
-2.486415793477413
 40
-2.486415793477413
 40
-2.134368465850639
 40
-2.134368465850639
 40
-1.793610028101384
 40
-1.793610028101384
 40
-1.485959103516197
 40
-1.485959103516197
 40
-1.211526434095797
 40
-1.211526434095797
 40
-0.9646721648975409
 40
-0.9646721648975409
 40
-0.7411068985224568
 40
-0.7411068985224568
 40
-0.5382470975727797
 40
-0.5382470975727797
 40
-0.3532833914703453
 40
-0.3532833914703453
 40
-0.1852612702393832
 40
-0.1852612702393832
 40
-0.0238929597375462
 40
-0.0238929597375462
 40
0.0
 40
0.0
 40
0.0
 10
0.0000000019513671
 20
12.77749542626966
 30
0.0
 41
1.0
 10
-0.0527145794284636
 20
12.777501507495
 30
0.0
 41
0.9999979515223483
 10
-0.1054287042522919
 20
12.77772098662816
 30
0.0
 41
1.0
 10
-0.2524225548453352
 20
12.77832688998211
 30
0.0
 41
0.9999829625297724
 10
-0.3993993142914398
 20
12.78064883179159
 30
0.0
 41
1.0
 10
-0.5661962409982966
 20
12.78328198431778
 30
0.0
 41
0.9999757538350039
 10
-0.7329403195988622
 20
12.78823783971603
 30
0.0
 41
1.0
 10
-0.9189614533612729
 20
12.7937628213889
 30
0.0
 41
0.9999663379877944
 10
-1.104866877681962
 20
12.80233958283374
 30
0.0
 41
1.0
 10
-1.296459130040509
 20
12.81118332885698
 30
0.0
 41
0.9999606693774323
 10
-1.487864376488711
 20
12.82342402490127
 30
0.0
 41
1.0
 10
-1.66811146162186
 20
12.83496384182375
 30
0.0
 41
0.9999641587010971
 10
-1.848137309764267
 20
12.84955401228911
 30
0.0
 41
1.0
 10
-2.01131320866997
 20
12.86277606871934
 30
0.0
 41
0.9999708282410269
 10
-2.174268086828135
 20
12.87848926204171
 30
0.0
 41
1.0
 10
-2.322227925050519
 20
12.89275662906096
 30
0.0
 41
0.999975920226777
 10
-2.469975495326798
 20
12.90907615619601
 30
0.0
 41
1.0
 10
-2.604938601405792
 20
12.92398312570575
 30
0.0
 41
0.9999798271667516
 10
-2.73970144912734
 20
12.940603372889
 30
0.0
 41
1.0
 10
-2.862798904137699
 20
12.95578748484124
 30
0.0
 41
0.999983396605084
 10
-2.985713189604249
 20
12.97238926528951
 30
0.0
 41
1.0
 10
-3.09776289765368
 20
12.98752353892985
 30
0.0
 41
0.9999866902852457
 10
-3.209650475337501
 20
13.00381320659466
 30
0.0
 41
1.0
 10
-3.311844551904127
 20
13.01869139736514
 30
0.0
 41
0.999989301306588
 10
-3.413896611947482
 20
13.03451438339228
 30
0.0
 41
1.0
 10
-3.507847291536057
 20
13.04908113025764
 30
0.0
 41
0.9999912588303735
 10
-3.60167287487881
 20
13.06443301026586
 30
0.0
 41
1.0
 10
-3.688675928301866
 20
13.07866846973659
 30
0.0
 41
0.9999927528437007
 10
-3.775568067851641
 20
13.0935659760964
 30
0.0
 41
1.0
 10
-3.856101729500237
 20
13.10737321042784
 30
0.0
 41
0.9999939920901817
 10
-3.936537734158886
 20
13.12173842998648
 30
0.0
 41
1.0
 10
-4.010543294322912
 20
13.1349551943673
 30
0.0
 41
0.9999950933700279
 10
-4.084464596528925
 20
13.14863535796485
 30
0.0
 41
1.0
 10
-4.152308569163988
 20
13.16119039243943
 30
0.0
 41
0.9999959723649138
 10
-4.220080182241775
 20
13.17413032962632
 30
0.0
 41
1.0
 10
-4.283021243012099
 20
13.18614778535684
 30
0.0
 41
0.9999965588388926
 10
-4.345898384073482
 20
13.19849531567976
 30
0.0
 41
1.0
 10
-4.405791029461104
 20
13.21025680851723
 30
0.0
 41
0.9999968969840156
 10
-4.465624331438603
 20
13.22231656223624
 30
0.0
 41
1.0
 10
-4.524587010284546
 20
13.23420083828316
 30
0.0
 41
0.999997011051943
 10
-4.583490870919734
 20
13.2463732955585
 30
0.0
 41
1.0
 10
-4.64385256183178
 20
13.2588470356924
 30
0.0
 41
0.9999968895574237
 10
-4.70415127871795
 20
13.27162172412584
 30
0.0
 41
1.0
 10
-4.768455189028928
 20
13.28524497623304
 30
0.0
 41
0.9999965005651175
 10
-4.832686117893092
 20
13.29920827299657
 30
0.0
 41
1.0
 10
-4.903194609848488
 20
13.31453632759793
 30
0.0
 41
0.9999958378525723
 10
-4.973613479840514
 20
13.33027098503724
 30
0.0
 41
1.0
 10
-5.051326109095821
 20
13.34763548681333
 30
0.0
 41
0.9999950118777867
 10
-5.128927496249164
 20
13.36549055274942
 30
0.0
 41
1.0
 10
-5.214035442701711
 20
13.38507291438163
 30
0.0
 41
0.99999411704122
 10
-5.29900704659182
 20
13.40523867667337
 30
0.0
 41
1.0
 10
-5.392779094213862
 20
13.4274932067978
 30
0.0
 41
0.9999930063260115
 10
-5.486382057670104
 20
13.45044851682621
 30
0.0
 41
1.0
 10
-5.591688807527466
 20
13.47627437527553
 30
0.0
 41
0.9999914032624853
 10
-5.696777764600225
 20
13.50297264547279
 30
0.0
 41
1.0
 10
-5.815859171083885
 20
13.53322593119018
 30
0.0
 41
0.9999893087630002
 10
-5.934655699253658
 20
13.56457920154006
 30
0.0
 41
1.0
 10
-6.066779483987104
 20
13.59944994776937
 30
0.0
 41
0.9999871852060751
 10
-6.198543430862867
 20
13.63565665624445
 30
0.0
 41
1.0
 10
-6.343083761070108
 20
13.67537417105713
 30
0.0
 41
0.9999850357240728
 10
-6.487180882536821
 20
13.71667075232386
 30
0.0
 41
1.0
 10
-6.646008725100286
 20
13.76218860729825
 30
0.0
 41
0.999982282638819
 10
-6.804283414802796
 20
13.80959410586549
 30
0.0
 41
1.0
 10
-6.972867182581854
 20
13.8600880370974
 30
0.0
 41
0.9999804046978459
 10
-7.140805543924559
 20
13.91268870856994
 30
0.0
 41
1.0
 10
-7.303360044913119
 20
13.96359798239901
 30
0.0
 41
0.999981655326889
 10
-7.465285899546378
 20
14.01647271695847
 30
0.0
 41
1.0
 10
-7.611482300144218
 20
14.06420047275169
 30
0.0
 41
0.9999834942903293
 10
-7.757120614802128
 20
14.1136050021435
 30
0.0
 41
1.0
 10
-7.88703265611394
 20
14.15767812702198
 30
0.0
 41
0.9999848232468225
 10
-8.016451187034178
 20
14.20318002444179
 30
0.0
 41
1.0
 10
-8.132863745191422
 20
14.24411010780658
 30
0.0
 41
0.9999861770983901
 10
-8.248839459358312
 20
14.28626208456262
 30
0.0
 41
1.0
 10
-8.35387325801496
 20
14.32443815927769
 30
0.0
 41
0.9999873942206753
 10
-8.458518393974316
 20
14.36366706521378
 30
0.0
 41
1.0
 10
-8.55347153679031
 20
14.39926335559782
 30
0.0
 41
0.9999886032320936
 10
-8.64808046411617
 20
14.43576467187531
 30
0.0
 41
1.0
 10
-8.734342846651781
 20
14.46904630426247
 30
0.0
 41
0.9999896979305188
 10
-8.820299535850252
 20
14.50310967575021
 30
0.0
 41
1.0
 10
-8.89838289620468
 20
14.53405338238056
 30
0.0
 41
0.9999908360863913
 10
-8.976198451133229
 20
14.56566451262651
 30
0.0
 41
1.0
 10
-9.050932397819437
 20
14.5960239243694
 30
0.0
 41
0.9999909422002812
 10
-9.12540520571197
 20
14.62701840054295
 30
0.0
 41
1.0
 10
-9.136431832139044
 20
14.63160781969019
 30
0.0
 41
0.9999997738816803
 10
-9.149818843824267
 20
14.63054663805458
 30
0.0
 41
0.9999999606440125
  0
SPLINE
  5
180
330
1F
100
AcDbEntity
  8
Default
100
AcDbSpline
210
0.0
220
0.0
230
1.0
 70
    12
 71
     2
 72
     6
 73
     3
 74
     0
 42
0.0000000001
 43
0.0000000001
 40
0.0
 40
0.0
 40
0.0
 40
0.3618607082243719
 40
0.3618607082243719
 40
0.3618607082243719
 10
-9.149818843824269
 20
14.63054663805458
 30
0.0
 41
1.0
 10
-9.157441645795737
 20
14.4432233997387
 30
0.0
 41
0.9999999015173984
 10
-9.164959562896659
 20
14.26244929135985
 30
0.0
 41
1.0
  0
SPLINE
  5
181
330
1F
100
AcDbEntity
  8
Default
100
AcDbSpline
210
0.0
220
0.0
230
1.0
 70
     8
 71
     3
 72
     8
 73
     4
 74
     0
 42
0.0000000001
 43
0.0000000001
 40
0.0
 40
0.0
 40
0.0
 40
0.0
 40
1.0
 40
1.0
 40
1.0
 40
1.0
 10
-9.164959562896659
 20
14.26244929135985
 30
0.0
 10
-9.168034856066951
 20
14.18850149792182
 30
0.0
 10
-9.166233122364922
 20
14.06029319371405
 30
0.0
 10
-9.159373204059733
 20
13.98668054246088
 30
0.0
  0
SPLINE
  5
182
330
1F
100
AcDbEntity
  8
Default
100
AcDbSpline
210
0.0
220
0.0
230
1.0
 70
    12
 71
     3
 72
     8
 73
     4
 74
     0
 42
0.0000000001
 43
0.0000000001
 40
-1.0
 40
-1.0
 40
-1.0
 40
-1.0
 40
-0.6249070998662714
 40
-0.6249070998662714
 40
-0.6249070998662714
 40
-0.6249070998662714
 10
-9.159373204059733
 20
13.98668054246088
 30
0.0
 41
1.0
 10
-9.130005255154737
 20
13.6715379293004
 30
0.0
 41
1.0
 10
-9.09269059103518
 20
13.55007690800079
 30
0.0
 41
1.0
 10
-9.051078788173655
 20
13.53639020833502
 30
0.0
 41
1.0
  0
ARC
  5
183
330
1F
100
AcDbEntity
  8
Default
100
AcDbCircle
 10
0.2565508005585924
 20
33.18747848834062
 30
0.0
 40
21.74390119434913
100
AcDbArc
 50
244.655683075786
 51
251.4521163974143
  0
ARC
  5
184
330
1F
100
AcDbEntity
  8
Default
100
AcDbCircle
 10
-0.340388262900245
 20
31.40835831456294
 30
0.0
 40
19.86730724833262
100
AcDbArc
 50
251.4521163974144
 51
261.840506967004
  0
SPLINE
  5
185
330
1F
100
AcDbEntity
  8
Default
100
AcDbSpline
210
0.0
220
0.0
230
1.0
 70
    12
 71
     2
 72
     6
 73
     3
 74
     0
 42
0.0000000001
 43
0.0000000001
 40
0.0
 40
0.0
 40
0.0
 40
0.3478554322822073
 40
0.3478554322822073
 40
0.3478554322822073
 10
-3.160138217449447
 20
11.74217140673891
 30
0.0
 41
1.0
 10
-3.160878510208934
 20
11.92216251052931
 30
0.0
 41
0.9999676249987817
 10
-3.159670999625896
 20
12.09608978913632
 30
0.0
 41
1.0
  0
SPLINE
  5
186
330
1F
100
AcDbEntity
  8
Default
100
AcDbSpline
210
0.0
220
0.0
230
1.0
 70
    12
 71
     3
 72
    10
 73
     6
 74
     0
 42
0.0000000001
 43
0.0000000001
 40
-1.0
 40
-1.0
 40
-1.0
 40
-1.0
 40
-0.5000072502192608
 40
-0.5000072502192608
 40
0.0
 40
0.0
 40
0.0
 40
0.0
 10
-3.159670999625896
 20
12.09608978913632
 30
0.0
 41
1.0
 10
-3.159626725220537
 20
12.13074494139109
 30
0.0
 41
1.0
 10
-3.09937827043051
 20
12.15808372947452
 30
0.0
 41
1.0
 10
-2.921108783234768
 20
12.18245603015911
 30
0.0
 41
1.0
 10
-2.805474366741894
 20
12.18039373447657
 30
0.0
 41
1.0
 10
-2.690054318996702
 20
12.16508799419631
 30
0.0
 41
1.0
  0
SPLINE
  5
187
330
1F
100
AcDbEntity
  8
Default
100
AcDbSpline
210
0.0
220
0.0
230
1.0
 70
    12
 71
     2
 72
     6
 73
     3
 74
     0
 42
0.0000000001
 43
0.0000000001
 40
0.0
 40
0.0
 40
0.0
 40
2.697812645737958
 40
2.697812645737958
 40
2.697812645737958
 10
-2.690054318996702
 20
12.16508799419631
 30
0.0
 41
1.0
 10
-1.350840875555932
 20
11.98265865634808
 30
0.0
 41
0.9978414201874611
 10
0.0000000008609078
 20
11.97731467256469
 30
0.0
 41
0.9999999997344895
  0
SPLINE
  5
188
330
1F
100
AcDbEntity
  8
Default
100
AcDbSpline
210
0.0
220
0.0
230
1.0
 70
    12
 71
     2
 72
     6
 73
     3
 74
     0
 42
0.0000000001
 43
0.0000000001
 40
-2.697812645737958
 40
-2.697812645737958
 40
-2.697812645737958
 40
0.0
 40
0.0
 40
0.0
 10
0.0000000008609078
 20
11.97731467256469
 30
0.0
 41
0.9999999997344895
 10
1.350840877277747
 20
11.98265865634808
 30
0.0
 41
0.9978414201874611
 10
2.690054320718517
 20
12.16508799419631
 30
0.0
 41
1.0
  0
SPLINE
  5
189
330
1F
100
AcDbEntity
  8
Default
100
AcDbSpline
210
0.0
220
0.0
230
1.0
 70
    12
 71
     3
 72
    10
 73
     6
 74
     0
 42
0.0000000001
 43
0.0000000001
 40
0.0
 40
0.0
 40
0.0
 40
0.0
 40
0.5000072502192608
 40
0.5000072502192608
 40
1.0
 40
1.0
 40
1.0
 40
1.0
 10
2.690054320718517
 20
12.16508799419631
 30
0.0
 41
1.0
 10
2.80547436846371
 20
12.18039373447657
 30
0.0
 41
1.0
 10
2.921108784956584
 20
12.18245603015911
 30
0.0
 41
1.0
 10
3.099378272152325
 20
12.15808372947452
 30
0.0
 41
1.0
 10
3.159626726942353
 20
12.13074494139109
 30
0.0
 41
1.0
 10
3.159671001347712
 20
12.09608978913632
 30
0.0
 41
1.0
  0
SPLINE
  5
18A
330
1F
100
AcDbEntity
  8
Default
100
AcDbSpline
210
0.0
220
0.0
230
1.0
 70
    12
 71
     2
 72
     6
 73
     3
 74
     0
 42
0.0000000001
 43
0.0000000001
 40
-0.3478554322822073
 40
-0.3478554322822073
 40
-0.3478554322822073
 40
0.0
 40
0.0
 40
0.0
 10
3.159671001347712
 20
12.09608978913632
 30
0.0
 41
1.0
 10
3.160878511930749
 20
11.92216251052931
 30
0.0
 41
0.9999676249987817
 10
3.16013822135217
 20
11.74217140673891
 30
0.0
 41
1.0
  0
ARC
  5
18B
330
1F
100
AcDbEntity
  8
Default
100
AcDbCircle
 10
0.3403882668029791
 20
31.40835831456294
 30
0.0
 40
19.86730724833262
100
AcDbArc
 50
278.1594930329959
 51
288.5478836025855
  0
ARC
  5
18C
330
1F
100
AcDbEntity
  8
Default
100
AcDbCircle
 10
-0.2565507966559273
 20
33.18747848834078
 30
0.0
 40
21.74390119434931
100
AcDbArc
 50
288.5478836025857
 51
295.344316924214
  0
LINE
  5
18D
330
1F
100
AcDbEntity
  8
Default
100
AcDbLine
 10
9.75267063713765
 20
15.71783472130914
 30
0.0
 11
10.09694601001772
 21
23.43904983171145
 31
0.0
  0
SPLINE
  5
18E
330
1F
100
AcDbEntity
  8
Default
100
AcDbSpline
210
0.0
220
0.0
230
1.0
 70
    12
 71
     2
 72
     6
 73
     3
 74
     0
 42
0.0000000001
 43
0.0000000001
 40
-0.5222505403049349
 40
-0.5222505403049349
 40
-0.5222505403049349
 40
0.0
 40
0.0
 40
0.0
 10
10.09694601001772
 20
23.43904983171145
 30
0.0
 41
1.0
 10
10.09785478705475
 20
23.70040220672346
 30
0.0
 41
0.998688015819017
 10
10.12549028313827
 20
23.96029096976332
 30
0.0
 41
1.0
  0
POLYLINE
  5
18F
330
1F
100
AcDbEntity
  8
Default
100
AcDb2dPolyline
 66
     1
 10
0.0
 20
0.0
 30
0.0
  0
VERTEX
  5
190
330
18F
100
AcDbEntity
  8
Default
100
AcDbVertex
100
AcDb2dVertex
 10
10.12549028313827
 20
23.96029096976332
 30
0.0
  0
VERTEX
  5
191
330
18F
100
AcDbEntity
  8
Default
100
AcDbVertex
100
AcDb2dVertex
 10
10.18465521556615
 20
23.96029096976332
 30
0.0
  0
SEQEND
  5
192
330
18F
100
AcDbEntity
  8
Default
  0
SPLINE
  5
193
330
1F
100
AcDbEntity
  8
Default
100
AcDbSpline
210
0.0
220
0.0
230
1.0
 70
    12
 71
     2
 72
     6
 73
     3
 74
     0
 42
0.0000000001
 43
0.0000000001
 40
0.6484674280435896
 40
0.6484674280435896
 40
0.6484674280435896
 40
1.1704702566318
 40
1.1704702566318
 40
1.1704702566318
 10
10.18465521556615
 20
23.96029096976332
 30
0.0
 41
0.9984333540671093
 10
10.16268809951497
 20
23.70012201372724
 30
0.0
 41
0.9985861182938255
 10
10.15924203400601
 20
23.43901443900753
 30
0.0
 41
1.0
  0
LINE
  5
194
330
1F
100
AcDbEntity
  8
Default
100
AcDbLine
 10
10.15924203400601
 20
23.43901443900753
 30
0.0
 11
9.975004548237472
 21
15.98923399555641
 31
0.0
  0
ARC
  5
195
330
1F
100
AcDbEntity
  8
Default
100
AcDbCircle
 10
9.384776060236497
 20
16.00383069588653
 30
0.0
 40
0.5904089529372364
100
AcDbArc
 50
314.1173463250577
 51
358.5833301797816
  0
LINE
  5
196
330
1F
100
AcDbEntity
  8
Default
100
AcDbLine
 10
-9.75267063713765
 20
15.71783472130914
 30
0.0
 11
-10.09694601001772
 21
23.43904983171145
 31
0.0
  0
SPLINE
  5
197
330
1F
100
AcDbEntity
  8
Default
100
AcDbSpline
210
0.0
220
0.0
230
1.0
 70
    12
 71
     2
 72
     6
 73
     3
 74
     0
 42
0.0000000001
 43
0.0000000001
 40
-0.5222505403049349
 40
-0.5222505403049349
 40
-0.5222505403049349
 40
0.0
 40
0.0
 40
0.0
 10
-10.09694601001772
 20
23.43904983171145
 30
0.0
 41
1.0
 10
-10.09785478705475
 20
23.70040220672346
 30
0.0
 41
0.998688015819017
 10
-10.12549028313827
 20
23.96029096976332
 30
0.0
 41
1.0
  0
POLYLINE
  5
198
330
1F
100
AcDbEntity
  8
Default
100
AcDb2dPolyline
 66
     1
 10
0.0
 20
0.0
 30
0.0
  0
VERTEX
  5
199
330
198
100
AcDbEntity
  8
Default
100
AcDbVertex
100
AcDb2dVertex
 10
-10.12549028313827
 20
23.96029096976332
 30
0.0
  0
VERTEX
  5
19A
330
198
100
AcDbEntity
  8
Default
100
AcDbVertex
100
AcDb2dVertex
 10
-10.18465521556615
 20
23.96029096976332
 30
0.0
  0
SEQEND
  5
19B
330
198
100
AcDbEntity
  8
Default
  0
SPLINE
  5
19C
330
1F
100
AcDbEntity
  8
Default
100
AcDbSpline
210
0.0
220
0.0
230
1.0
 70
    12
 71
     2
 72
     6
 73
     3
 74
     0
 42
0.0000000001
 43
0.0000000001
 40
0.6484674280435896
 40
0.6484674280435896
 40
0.6484674280435896
 40
1.1704702566318
 40
1.1704702566318
 40
1.1704702566318
 10
-10.18465521556615
 20
23.96029096976332
 30
0.0
 41
0.9984333540671093
 10
-10.16268809951497
 20
23.70012201372724
 30
0.0
 41
0.9985861182938255
 10
-10.15924203400601
 20
23.43901443900753
 30
0.0
 41
1.0
  0
LINE
  5
19D
330
1F
100
AcDbEntity
  8
Default
100
AcDbLine
 10
-10.15924203400601
 20
23.43901443900753
 30
0.0
 11
-9.975004548237472
 21
15.98923399555641
 31
0.0
  0
ARC
  5
19E
330
1F
100
AcDbEntity
  8
Default
100
AcDbCircle
 10
-9.384776060236497
 20
16.00383069588653
 30
0.0
 40
0.5904089529372364
100
AcDbArc
 50
181.4166698202184
 51
225.8826536749422
  0
SPLINE
  5
19F
330
1F
100
AcDbEntity
  8
Default
100
AcDbSpline
210
0.0
220
0.0
230
1.0
 70
    12
 71
     2
 72
     6
 73
     3
 74
     0
 42
0.0000000001
 43
0.0000000001
 40
0.0144801989998538
 40
0.0144801989998538
 40
0.0144801989998538
 40
7.457273193954278
 40
7.457273193954278
 40
7.457273193954278
 10
9.600649883395514
 20
16.00372349645956
 30
0.0
 41
1.0
 10
9.767298231412408
 20
19.72138677107802
 30
0.0
 41
0.9999999999999999
 10
9.933946487225384
 20
23.43905004977471
 30
0.0
 41
1.0
  0
ARC
  5
1A0
330
1F
100
AcDbEntity
  8
Default
100
AcDbCircle
 10
19.69214074753372
 20
23.25925987137572
 30
0.0
 40
9.759850394865856
100
AcDbArc
 50
171.9269469889863
 51
178.9444714100021
  0
SPLINE
  5
1A1
330
1F
100
AcDbEntity
  8
Default
100
AcDbSpline
210
0.0
220
0.0
230
1.0
 70
    12
 71
     2
 72
     6
 73
     3
 74
     0
 42
0.0000000001
 43
0.0000000001
 40
0.0144801966593451
 40
0.0144801966593451
 40
0.0144801966593451
 40
7.457273193954278
 40
7.457273193954278
 40
7.457273193954278
 10
-9.600649883290703
 20
16.0037234941214
 30
0.0
 41
1.0
 10
-9.767298231360003
 20
19.72138676990894
 30
0.0
 41
0.9999999999999999
 10
-9.933946487225384
 20
23.43905004977471
 30
0.0
 41
1.0
  0
ARC
  5
1A2
330
1F
100
AcDbEntity
  8
Default
100
AcDbCircle
 10
-19.69214074753372
 20
23.25925987137572
 30
0.0
 40
9.759850394865856
100
AcDbArc
 50
1.055528589997927
 51
8.073053011013752
  0
SPLINE
  5
1A3
330
1F
100
AcDbEntity
  8
Default
100
AcDbSpline
210
0.0
220
0.0
230
1.0
 70
    12
 71
     2
 72
     6
 73
     3
 74
     0
 42
0.0000000001
 43
0.0000000001
 40
-2.279069960999924
 40
-2.279069960999924
 40
-2.279069960999924
 40
0.0
 40
0.0
 40
0.0
 10
9.274223583769544
 20
14.03554503700305
 30
0.0
 41
1.0
 10
10.43884023751219
 20
14.47046905861393
 30
0.0
 41
0.8795118997301867
 10
10.71191579871903
 20
15.68328421049013
 30
0.0
 41
1.0
  0
SPLINE
  5
1A4
330
1F
100
AcDbEntity
  8
Default
100
AcDbSpline
210
0.0
220
0.0
230
1.0
 70
     8
 71
     3
 72
     8
 73
     4
 74
     0
 42
0.0000000001
 43
0.0000000001
 40
0.0
 40
0.0
 40
0.0
 40
0.0
 40
1.0
 40
1.0
 40
1.0
 40
1.0
 10
10.71191579871903
 20
15.68328421049013
 30
0.0
 10
10.72838084143865
 20
15.75641068580849
 30
0.0
 10
10.74340645222173
 20
15.88466969934835
 30
0.0
 10
10.74668809622173
 20
15.95970151551713
 30
0.0
  0
LINE
  5
1A5
330
1F
100
AcDbEntity
  8
Default
100
AcDbLine
 10
10.74668809622173
 20
15.95970151551713
 30
0.0
 11
11.07379955732214
 21
23.438808638638
 31
0.0
  0
ARC
  5
1A6
330
1F
100
AcDbEntity
  8
Default
100
AcDbCircle
 10
11.83670230402361
 20
23.40544179042432
 30
0.0
 40
0.7636320759923281
100
AcDbArc
 50
115.4885394821945
 51
177.4956677373578
  0
SPLINE
  5
1A7
330
1F
100
AcDbEntity
  8
Default
100
AcDbSpline
210
0.0
220
0.0
230
1.0
 70
    12
 71
     2
 72
     6
 73
     3
 74
     0
 42
0.0000000001
 43
0.0000000001
 40
-2.279069960999924
 40
-2.279069960999924
 40
-2.279069960999924
 40
0.0
 40
0.0
 40
0.0
 10
-9.274223583769544
 20
14.03554503700305
 30
0.0
 41
1.0
 10
-10.43884023751219
 20
14.47046905861393
 30
0.0
 41
0.8795118997301867
 10
-10.71191579871903
 20
15.68328421049013
 30
0.0
 41
1.0
  0
SPLINE
  5
1A8
330
1F
100
AcDbEntity
  8
Default
100
AcDbSpline
210
0.0
220
0.0
230
1.0
 70
     8
 71
     3
 72
     8
 73
     4
 74
     0
 42
0.0000000001
 43
0.0000000001
 40
0.0
 40
0.0
 40
0.0
 40
0.0
 40
1.0
 40
1.0
 40
1.0
 40
1.0
 10
-10.71191579871903
 20
15.68328421049013
 30
0.0
 10
-10.72838084143865
 20
15.75641068580849
 30
0.0
 10
-10.74340645222173
 20
15.88466969934835
 30
0.0
 10
-10.74668809622173
 20
15.95970151551713
 30
0.0
  0
LINE
  5
1A9
330
1F
100
AcDbEntity
  8
Default
100
AcDbLine
 10
-10.74668809622173
 20
15.95970151551713
 30
0.0
 11
-11.07379955732214
 21
23.438808638638
 31
0.0
  0
ARC
  5
1AA
330
1F
100
AcDbEntity
  8
Default
100
AcDbCircle
 10
-11.83670230402361
 20
23.40544179042432
 30
0.0
 40
0.7636320759923281
100
AcDbArc
 50
2.504332262642229
 51
64.51146051780562
  0
SPLINE
  5
1AB
330
1F
100
AcDbEntity
  8
Default
100
AcDbSpline
210
0.0
220
0.0
230
1.0
 70
    12
 71
     2
 72
     6
 73
     3
 74
     0
 42
0.0000000001
 43
0.0000000001
 40
-0.3558017571430819
 40
-0.3558017571430819
 40
-0.3558017571430819
 40
0.0
 40
0.0
 40
0.0
 10
10.27948368521754
 20
24.60265971984479
 30
0.0
 41
1.0
 10
10.30289141390451
 20
24.42106073217641
 30
0.0
 41
0.9579360394844925
 10
10.42229031532201
 20
24.28224424747535
 30
0.0
 41
1.0
  0
SPLINE
  5
1AC
330
1F
100
AcDbEntity
  8
Default
100
AcDbSpline
210
0.0
220
0.0
230
1.0
 70
    12
 71
     2
 72
     6
 73
     3
 74
     0
 42
0.0000000001
 43
0.0000000001
 40
-0.7147930835180935
 40
-0.7147930835180935
 40
-0.7147930835180935
 40
0.0
 40
0.0
 40
0.0
 10
10.42229031532201
 20
24.28224424747535
 30
0.0
 41
1.0
 10
10.69279228984713
 20
24.01314624445634
 30
0.0
 41
0.9076731031391808
 10
11.07302267628751
 20
24.04492527336236
 30
0.0
 41
1.0
  0
SPLINE
  5
1AD
330
1F
100
AcDbEntity
  8
Default
100
AcDbSpline
210
0.0
220
0.0
230
1.0
 70
    12
 71
     2
 72
     6
 73
     3
 74
     0
 42
0.0000000001
 43
0.0000000001
 40
-0.4836458804641015
 40
-0.4836458804641015
 40
-0.4836458804641015
 40
0.0
 40
0.0
 40
0.0
 10
11.07302267628751
 20
24.04492527336236
 30
0.0
 41
1.0
 10
11.31558082494645
 20
24.05064344432574
 30
0.0
 41
0.9950454086320307
 10
11.55554788589899
 20
24.10502007569974
 30
0.0
 41
1.0
  0
SPLINE
  5
1AE
330
1F
100
AcDbEntity
  8
Default
100
AcDbSpline
210
0.0
220
0.0
230
1.0
 70
    12
 71
     2
 72
     6
 73
     3
 74
     0
 42
0.0000000001
 43
0.0000000001
 40
0.0
 40
0.0
 40
0.0
 40
0.4715481464610273
 40
0.4715481464610273
 40
0.4715481464610273
 10
11.55554788589899
 20
24.10502007569974
 30
0.0
 41
1.0
 10
11.7908950179485
 20
24.15357847489373
 30
0.0
 41
0.9930104057704547
 10
12.00524309809005
 20
24.25441064084427
 30
0.0
 41
1.0
  0
ARC
  5
1AF
330
1F
100
AcDbEntity
  8
Default
100
AcDbCircle
 10
11.66353946376795
 20
24.95513050368728
 30
0.0
 40
0.7795958567691724
100
AcDbArc
 50
295.9960182510531
 51
320.2846973566075
  0
ARC
  5
1B0
330
1F
100
AcDbEntity
  8
Default
100
AcDbCircle
 10
11.9741017294423
 20
24.66871030369545
 30
0.0
 40
0.3583562096313694
100
AcDbArc
 50
323.7854321867192
 51
353.7894148296655
  0
SPLINE
  5
1B1
330
1F
100
AcDbEntity
  8
Default
100
AcDbSpline
210
0.0
220
0.0
230
1.0
 70
    12
 71
     2
 72
     6
 73
     3
 74
     0
 42
0.0000000001
 43
0.0000000001
 40
-0.3558017571430819
 40
-0.3558017571430819
 40
-0.3558017571430819
 40
0.0
 40
0.0
 40
0.0
 10
-10.27948368521754
 20
24.60265971984479
 30
0.0
 41
1.0
 10
-10.30289141390451
 20
24.42106073217641
 30
0.0
 41
0.9579360394844925
 10
-10.42229031532201
 20
24.28224424747535
 30
0.0
 41
1.0
  0
SPLINE
  5
1B2
330
1F
100
AcDbEntity
  8
Default
100
AcDbSpline
210
0.0
220
0.0
230
1.0
 70
    12
 71
     2
 72
     6
 73
     3
 74
     0
 42
0.0000000001
 43
0.0000000001
 40
-0.7147930835180935
 40
-0.7147930835180935
 40
-0.7147930835180935
 40
0.0
 40
0.0
 40
0.0
 10
-10.42229031532201
 20
24.28224424747535
 30
0.0
 41
1.0
 10
-10.69279228984713
 20
24.01314624445634
 30
0.0
 41
0.9076731031391808
 10
-11.07302267628751
 20
24.04492527336236
 30
0.0
 41
1.0
  0
SPLINE
  5
1B3
330
1F
100
AcDbEntity
  8
Default
100
AcDbSpline
210
0.0
220
0.0
230
1.0
 70
    12
 71
     2
 72
     6
 73
     3
 74
     0
 42
0.0000000001
 43
0.0000000001
 40
-0.4836458804641015
 40
-0.4836458804641015
 40
-0.4836458804641015
 40
0.0
 40
0.0
 40
0.0
 10
-11.07302267628751
 20
24.04492527336236
 30
0.0
 41
1.0
 10
-11.31558082494645
 20
24.05064344432574
 30
0.0
 41
0.9950454086320307
 10
-11.55554788589899
 20
24.10502007569974
 30
0.0
 41
1.0
  0
SPLINE
  5
1B4
330
1F
100
AcDbEntity
  8
Default
100
AcDbSpline
210
0.0
220
0.0
230
1.0
 70
    12
 71
     2
 72
     6
 73
     3
 74
     0
 42
0.0000000001
 43
0.0000000001
 40
0.0
 40
0.0
 40
0.0
 40
0.4715481464610273
 40
0.4715481464610273
 40
0.4715481464610273
 10
-11.55554788589899
 20
24.10502007569974
 30
0.0
 41
1.0
 10
-11.7908950179485
 20
24.15357847489373
 30
0.0
 41
0.9930104057704547
 10
-12.00524309809005
 20
24.25441064084427
 30
0.0
 41
1.0
  0
ARC
  5
1B5
330
1F
100
AcDbEntity
  8
Default
100
AcDbCircle
 10
-11.66353946376795
 20
24.95513050368728
 30
0.0
 40
0.7795958567691724
100
AcDbArc
 50
219.7153026433924
 51
244.0039817489469
  0
ARC
  5
1B6
330
1F
100
AcDbEntity
  8
Default
100
AcDbCircle
 10
-11.9741017294423
 20
24.66871030369545
 30
0.0
 40
0.3583562096313694
100
AcDbArc
 50
186.2105851703346
 51
216.2145678132808
  0
ARC
  5
1B7
330
1F
100
AcDbEntity
  8
Default
100
AcDbCircle
 10
10.6653614514319
 20
24.66496625838365
 30
0.0
 40
0.3130767644866421
100
AcDbArc
 50
186.4210936084378
 51
191.5673315496128
  0
SPLINE
  5
1B8
330
1F
100
AcDbEntity
  8
Default
100
AcDbSpline
210
0.0
220
0.0
230
1.0
 70
     8
 71
     3
 72
    12
 73
     8
 74
     0
 42
0.0000000001
 43
0.0000000001
 40
0.0
 40
0.0
 40
0.0
 40
0.0
 40
0.1992112084554058
 40
0.4420876673210324
 40
1.110362005028499
 40
1.822470899976619
 40
2.280507113564661
 40
2.280507113564661
 40
2.280507113564661
 40
2.280507113564661
 10
10.35864335762927
 20
24.60218830528302
 30
0.0
 10
10.37208043021926
 20
24.53653797602678
 30
0.0
 10
10.44761469765718
 20
24.40560436941424
 30
0.0
 10
10.77183116131984
 20
24.20401659655502
 30
0.0
 10
11.31795383267321
 20
24.15501766866499
 30
0.0
 10
11.93288471657553
 20
24.20657622079832
 30
0.0
 10
12.27718635301531
 20
24.43778153893044
 30
0.0
 10
12.30563329455118
 20
24.60197617950772
 30
0.0
  0
ARC
  5
1B9
330
1F
100
AcDbEntity
  8
Default
100
AcDbCircle
 10
11.95587369375873
 20
24.6625724990975
 30
0.0
 40
0.3549699878783003
100
AcDbArc
 50
350.1709969307704
 51
354.7262954862356
  0
ARC
  5
1BA
330
1F
100
AcDbEntity
  8
Default
100
AcDbCircle
 10
-10.6653614514319
 20
24.66496625838365
 30
0.0
 40
0.3130767644866421
100
AcDbArc
 50
348.4326684503872
 51
353.5789063915622
  0
SPLINE
  5
1BB
330
1F
100
AcDbEntity
  8
Default
100
AcDbSpline
210
0.0
220
0.0
230
1.0
 70
     8
 71
     3
 72
    12
 73
     8
 74
     0
 42
0.0000000001
 43
0.0000000001
 40
0.0
 40
0.0
 40
0.0
 40
0.0
 40
0.1992112084554058
 40
0.4420876673210324
 40
1.110362005028499
 40
1.822470899976619
 40
2.280507113564661
 40
2.280507113564661
 40
2.280507113564661
 40
2.280507113564661
 10
-10.35864335762927
 20
24.60218830528302
 30
0.0
 10
-10.37208043021926
 20
24.53653797602678
 30
0.0
 10
-10.44761469765718
 20
24.40560436941424
 30
0.0
 10
-10.77183116131984
 20
24.20401659655502
 30
0.0
 10
-11.31795383267321
 20
24.15501766866499
 30
0.0
 10
-11.93288471657553
 20
24.20657622079832
 30
0.0
 10
-12.27718635301531
 20
24.43778153893044
 30
0.0
 10
-12.30563329455118
 20
24.60197617950772
 30
0.0
  0
ARC
  5
1BC
330
1F
100
AcDbEntity
  8
Default
100
AcDbCircle
 10
-11.95587369375873
 20
24.6625724990975
 30
0.0
 40
0.3549699878783003
100
AcDbArc
 50
185.2737045137644
 51
189.8290030692296
  0
SPLINE
  5
1BD
330
1F
100
AcDbEntity
  8
Default
100
AcDbSpline
210
0.0
220
0.0
230
1.0
 70
    12
 71
     2
 72
     6
 73
     3
 74
     0
 42
0.0000000001
 43
0.0000000001
 40
2.089016628501993
 40
2.089016628501993
 40
2.089016628501993
 40
2.394994155193811
 40
2.394994155193811
 40
2.394994155193811
 10
10.27429813997656
 20
24.62993957167245
 30
0.0
 41
0.9999999951862771
 10
10.12130937978088
 20
24.6299120753259
 30
0.0
 41
0.9999999972406064
 10
9.968320621261155
 20
24.62987645434404
 30
0.0
 41
1.0
  0
ARC
  5
1BE
330
1F
100
AcDbEntity
  8
Default
100
AcDbCircle
 10
10.10402001662307
 20
24.62413273774981
 30
0.0
 40
0.1358208974418323
100
AcDbArc
 50
110.245186756518
 51
177.5763016362851
  0
ARC
  5
1BF
330
1F
100
AcDbEntity
  8
Default
100
AcDbCircle
 10
11.16993408637272
 20
21.73409858818032
 30
0.0
 40
3.216156948876503
100
AcDbArc
 50
97.90573211010711
 51
110.2451867565179
  0
ARC
  5
1C0
330
1F
100
AcDbEntity
  8
Default
100
AcDbCircle
 10
11.34720043980279
 20
20.45754692711178
 30
0.0
 40
4.504957749402026
100
AcDbArc
 50
90.19535317393166
 51
97.90573211010735
  0
SPLINE
  5
1C1
330
1F
100
AcDbEntity
  8
Default
100
AcDbSpline
210
0.0
220
0.0
230
1.0
 70
    12
 71
     2
 72
     6
 73
     3
 74
     0
 42
0.0000000001
 43
0.0000000001
 40
0.0
 40
0.0
 40
0.0
 40
2.089016628501993
 40
2.089016628501993
 40
2.089016628501993
 10
12.36331475846394
 20
24.62993631459813
 30
0.0
 41
1.0
 10
11.31880644951548
 20
24.6301272989435
 30
0.0
 41
0.9999999811606456
 10
10.27429813997656
 20
24.62993957167245
 30
0.0
 41
0.9999999951862771
  0
ARC
  5
1C2
330
1F
100
AcDbEntity
  8
Default
100
AcDbCircle
 10
10.39493121551981
 20
24.61817444392553
 30
0.0
 40
0.1212054336485175
100
AcDbArc
 50
116.7878844603691
 51
174.429661916402
  0
ARC
  5
1C3
330
1F
100
AcDbEntity
  8
Default
100
AcDbCircle
 10
11.33184056343615
 20
22.76243423805265
 30
0.0
 40
2.200044253255792
100
AcDbArc
 50
63.21077433383452
 51
116.787884460369
  0
ARC
  5
1C4
330
1F
100
AcDbEntity
  8
Default
100
AcDbCircle
 10
12.28738717031344
 20
24.65497922339229
 30
0.0
 40
0.0799508969507181
100
AcDbArc
 50
341.7460899727405
 51
63.2107743338351
  0
SPLINE
  5
1C5
330
1F
100
AcDbEntity
  8
Default
100
AcDbSpline
210
0.0
220
0.0
230
1.0
 70
    12
 71
     2
 72
     6
 73
     3
 74
     0
 42
0.0000000001
 43
0.0000000001
 40
2.089016628501993
 40
2.089016628501993
 40
2.089016628501993
 40
2.394994155193811
 40
2.394994155193811
 40
2.394994155193811
 10
-10.27429813997656
 20
24.62993957167245
 30
0.0
 41
0.9999999951862771
 10
-10.12130937978088
 20
24.6299120753259
 30
0.0
 41
0.9999999972406064
 10
-9.968320621261155
 20
24.62987645434404
 30
0.0
 41
1.0
  0
ARC
  5
1C6
330
1F
100
AcDbEntity
  8
Default
100
AcDbCircle
 10
-10.10402001662307
 20
24.62413273774981
 30
0.0
 40
0.1358208974418323
100
AcDbArc
 50
2.423698363714957
 51
69.75481324348198
  0
ARC
  5
1C7
330
1F
100
AcDbEntity
  8
Default
100
AcDbCircle
 10
-11.16993408637272
 20
21.73409858818032
 30
0.0
 40
3.216156948876503
100
AcDbArc
 50
69.75481324348199
 51
82.09426788989279
  0
ARC
  5
1C8
330
1F
100
AcDbEntity
  8
Default
100
AcDbCircle
 10
-11.34720043980279
 20
20.45754692711178
 30
0.0
 40
4.504957749402026
100
AcDbArc
 50
82.09426788989269
 51
89.80464682606838
  0
SPLINE
  5
1C9
330
1F
100
AcDbEntity
  8
Default
100
AcDbSpline
210
0.0
220
0.0
230
1.0
 70
    12
 71
     2
 72
     6
 73
     3
 74
     0
 42
0.0000000001
 43
0.0000000001
 40
0.0
 40
0.0
 40
0.0
 40
2.089016628501993
 40
2.089016628501993
 40
2.089016628501993
 10
-12.36331475846394
 20
24.62993631459813
 30
0.0
 41
1.0
 10
-11.31880644951548
 20
24.6301272989435
 30
0.0
 41
0.9999999811606456
 10
-10.27429813997656
 20
24.62993957167245
 30
0.0
 41
0.9999999951862771
  0
ARC
  5
1CA
330
1F
100
AcDbEntity
  8
Default
100
AcDbCircle
 10
-10.39493121551981
 20
24.61817444392553
 30
0.0
 40
0.1212054336485175
100
AcDbArc
 50
5.570338083598064
 51
63.21211553963093
  0
ARC
  5
1CB
330
1F
100
AcDbEntity
  8
Default
100
AcDbCircle
 10
-11.33184056343615
 20
22.76243423805265
 30
0.0
 40
2.200044253255792
100
AcDbArc
 50
63.21211553963096
 51
116.7892256661655
  0
ARC
  5
1CC
330
1F
100
AcDbEntity
  8
Default
100
AcDbCircle
 10
-12.28738717031344
 20
24.65497922339229
 30
0.0
 40
0.0799508969507181
100
AcDbArc
 50
116.7892256661649
 51
198.2539100272595
  0
ARC
  5
1CD
330
1F
100
AcDbEntity
  8
Default
100
AcDbCircle
 10
9.337867597783264
 20
15.01811394142794
 30
0.0
 40
0.5358997375245989
100
AcDbArc
 50
5.413659357927956
 51
29.51609128932832
  0
SPLINE
  5
1CE
330
1F
100
AcDbEntity
  8
Default
100
AcDbSpline
210
0.0
220
0.0
230
1.0
 70
     8
 71
     3
 72
    19
 73
    15
 74
     0
 42
0.0000000001
 43
0.0000000001
 40
0.0
 40
0.0
 40
0.0
 40
0.0
 40
1.0
 40
2.0
 40
3.0
 40
4.0
 40
5.0
 40
6.0
 40
7.0
 40
8.0
 40
9.0
 40
10.0
 40
11.0
 40
12.0
 40
12.0
 40
12.0
 40
12.0
 10
9.804216856047887
 20
15.28213458076315
 30
0.0
 10
9.652080540815266
 20
15.55085848788833
 30
0.0
 10
9.050796715431146
 20
15.52939908964041
 30
0.0
 10
8.24762629068507
 20
15.49105016942476
 30
0.0
 10
7.418803362746401
 20
15.43821441177284
 30
0.0
 10
6.596562491979328
 20
15.39423512381693
 30
0.0
 10
5.772093542093873
 20
15.35705531156464
 30
0.0
 10
4.948089781136905
 20
15.32082238709557
 30
0.0
 10
4.123675276420369
 20
15.2914042566712
 30
0.0
 10
3.299159595947325
 20
15.26628434622414
 30
0.0
 10
2.474495542532891
 20
15.24613810973002
 30
0.0
 10
1.649731672123307
 20
15.23078544271135
 30
0.0
 10
0.8248912257630181
 20
15.2202754768249
 30
0.0
 10
0.2749657344917654
 20
15.21648846068637
 30
0.0
 10
0.0000000008609078
 20
15.21540086872417
 30
0.0
  0
SPLINE
  5
1CF
330
1F
100
AcDbEntity
  8
Default
100
AcDbSpline
210
0.0
220
0.0
230
1.0
 70
     8
 71
     3
 72
    19
 73
    15
 74
     0
 42
0.0000000001
 43
0.0000000001
 40
12.0
 40
12.0
 40
12.0
 40
12.0
 40
13.0
 40
14.0
 40
15.0
 40
16.0
 40
17.0
 40
18.0
 40
19.0
 40
20.0
 40
21.0
 40
22.0
 40
23.0
 40
24.0
 40
24.0
 40
24.0
 40
24.0
 10
0.0000000008609078
 20
15.21540086872417
 30
0.0
 10
-0.2749657327699498
 20
15.21648846068637
 30
0.0
 10
-0.8248912240412025
 20
15.2202754768249
 30
0.0
 10
-1.649731670401491
 20
15.23078544271135
 30
0.0
 10
-2.474495540811076
 20
15.24613810973002
 30
0.0
 10
-3.29915959422551
 20
15.26628434622414
 30
0.0
 10
-4.123675274698553
 20
15.2914042566712
 30
0.0
 10
-4.948089779415089
 20
15.32082238709557
 30
0.0
 10
-5.772093540372057
 20
15.35705531156464
 30
0.0
 10
-6.596562490257512
 20
15.39423512381693
 30
0.0
 10
-7.418803361024585
 20
15.43821441177284
 30
0.0
 10
-8.247626288963254
 20
15.49105016942476
 30
0.0
 10
-9.05079671370933
 20
15.52939908964041
 30
0.0
 10
-9.65208053909345
 20
15.55085848788833
 30
0.0
 10
-9.804216854326071
 20
15.28213458076315
 30
0.0
  0
ARC
  5
1D0
330
1F
100
AcDbEntity
  8
Default
100
AcDbCircle
 10
-9.337867596061464
 20
15.01811394142795
 30
0.0
 40
0.5358997375245812
100
AcDbArc
 50
150.4839087106717
 51
174.6105810170415
  0
SPLINE
  5
1D1
330
1F
100
AcDbEntity
  8
Default
100
AcDbSpline
210
0.0
220
0.0
230
1.0
 70
    12
 71
     2
 72
     6
 73
     3
 74
     0
 42
0.0000000001
 43
0.0000000001
 40
0.0
 40
0.0
 40
0.0
 40
0.0548860266366301
 40
0.0548860266366301
 40
0.0548860266366301
 10
9.804216856047887
 20
15.28213458076315
 30
0.0
 41
1.0
 10
9.82596831375432
 20
15.30153049347111
 30
0.0
 41
0.9147443831885206
 10
9.826281284209555
 20
15.330672034124
 30
0.0
 41
1.0
  0
SPLINE
  5
1D2
330
1F
100
AcDbEntity
  8
Default
100
AcDbSpline
210
0.0
220
0.0
230
1.0
 70
     8
 71
     3
 72
    19
 73
    15
 74
     0
 42
0.0000000001
 43
0.0000000001
 40
0.0
 40
0.0
 40
0.0
 40
0.0
 40
1.0
 40
2.0
 40
3.0
 40
4.0
 40
5.0
 40
6.0
 40
7.0
 40
8.0
 40
9.0
 40
10.0
 40
11.0
 40
12.0
 40
12.0
 40
12.0
 40
12.0
 10
9.826281284209555
 20
15.330672034124
 30
0.0
 10
9.826482955773448
 20
15.62951392068482
 30
0.0
 10
9.559177463150492
 20
16.1906362350548
 30
0.0
 10
8.803183004451883
 20
16.69059243200351
 30
0.0
 10
7.943943227722844
 20
16.92032068528298
 30
0.0
 10
7.071673042588532
 20
17.07134531770572
 30
0.0
 10
6.194065990044604
 20
17.19088307344128
 30
0.0
 10
5.311977212176758
 20
17.27115812187674
 30
0.0
 10
4.427099154205969
 20
17.30809985203284
 30
0.0
 10
3.541682768189916
 20
17.31944827936372
 30
0.0
 10
2.656307723510971
 20
17.33175355958496
 30
0.0
 10
1.770896309980154
 20
17.34181687611558
 30
0.0
 10
0.8854610227948936
 20
17.34938381025009
 30
0.0
 10
0.2951550215730412
 20
17.35206265068749
 30
0.0
 10
0.0000000008609238
 20
17.3526770476011
 30
0.0
  0
SPLINE
  5
1D3
330
1F
100
AcDbEntity
  8
Default
100
AcDbSpline
210
0.0
220
0.0
230
1.0
 70
     8
 71
     3
 72
    19
 73
    15
 74
     0
 42
0.0000000001
 43
0.0000000001
 40
-12.0
 40
-12.0
 40
-12.0
 40
-12.0
 40
-11.0
 40
-10.0
 40
-9.0
 40
-8.0
 40
-7.0
 40
-6.0
 40
-5.0
 40
-4.0
 40
-3.0
 40
-2.0
 40
-1.0
 40
0.0
 40
0.0
 40
0.0
 40
0.0
 10
0.0000000008609238
 20
17.3526770476011
 30
0.0
 10
-0.2951550198511936
 20
17.35206265068749
 30
0.0
 10
-0.885461021073046
 20
17.34938381025009
 30
0.0
 10
-1.770896308258307
 20
17.34181687611558
 30
0.0
 10
-2.656307721789123
 20
17.33175355958496
 30
0.0
 10
-3.541682766468068
 20
17.31944827936372
 30
0.0
 10
-4.427099152484121
 20
17.30809985203284
 30
0.0
 10
-5.31197721045491
 20
17.27115812187674
 30
0.0
 10
-6.194065988322756
 20
17.19088307344128
 30
0.0
 10
-7.071673040866685
 20
17.07134531770572
 30
0.0
 10
-7.943943226000997
 20
16.92032068528298
 30
0.0
 10
-8.803183002730036
 20
16.69059243200351
 30
0.0
 10
-9.559177461428645
 20
16.1906362350548
 30
0.0
 10
-9.8264829540516
 20
15.62951392068482
 30
0.0
 10
-9.826281282487724
 20
15.330672034124
 30
0.0
  0
SPLINE
  5
1D4
330
1F
100
AcDbEntity
  8
Default
100
AcDbSpline
210
0.0
220
0.0
230
1.0
 70
    12
 71
     2
 72
     6
 73
     3
 74
     0
 42
0.0000000001
 43
0.0000000001
 40
-0.0548860266366301
 40
-0.0548860266366301
 40
-0.0548860266366301
 40
0.0
 40
0.0
 40
0.0
 10
-9.826281282487724
 20
15.330672034124
 30
0.0
 41
1.0
 10
-9.825968312032504
 20
15.30153049347111
 30
0.0
 41
0.9147443831885206
 10
-9.804216854326071
 20
15.28213458076315
 30
0.0
 41
1.0
  0
SPLINE
  5
1D5
330
1F
100
AcDbEntity
  8
Default
100
AcDbSpline
210
0.0
220
0.0
230
1.0
 70
     8
 71
     3
 72
    29
 73
    25
 74
     0
 42
0.0000000001
 43
0.0000000001
 40
0.0
 40
0.0
 40
0.0
 40
0.0
 40
1.0
 40
2.0
 40
3.0
 40
4.0
 40
5.0
 40
6.0
 40
7.0
 40
8.0
 40
9.0
 40
10.0
 40
11.0
 40
12.0
 40
13.0
 40
14.0
 40
15.0
 40
16.0
 40
17.0
 40
18.0
 40
19.0
 40
20.0
 40
21.0
 40
22.0
 40
22.0
 40
22.0
 40
22.0
 10
9.535453201707332
 20
16.11405447390687
 30
0.0
 10
9.535391017705871
 20
16.38143888712898
 30
0.0
 10
9.53529667427943
 20
16.91620713773413
 30
0.0
 10
9.53568046641604
 20
17.71836277381846
 30
0.0
 10
9.535485924096882
 20
18.52050859704992
 30
0.0
 10
9.53884304848199
 20
19.32268745933295
 30
0.0
 10
9.540263286071228
 20
20.12469259533479
 30
0.0
 10
9.539459154583037
 20
20.92740487765361
 30
0.0
 10
9.542116098814288
 20
21.7274691697841
 30
0.0
 10
9.539022879531819
 20
22.53018744300143
 30
0.0
 10
9.544507408875806
 20
23.33216346718775
 30
0.0
 10
9.541744596458699
 20
24.13438932504032
 30
0.0
 10
9.524104163898674
 20
24.93636002805451
 30
0.0
 10
9.485703240476175
 20
25.7376727521771
 30
0.0
 10
9.432073233838663
 20
26.53803551838377
 30
0.0
 10
9.37528483219235
 20
27.33817626235392
 30
0.0
 10
9.316425875810108
 20
28.13816908951236
 30
0.0
 10
9.26100629417238
 20
28.93840246084162
 30
0.0
 10
9.202651355080278
 20
29.73843436541719
 30
0.0
 10
9.146609208352313
 20
30.53861554189489
 30
0.0
 10
9.089581001451087
 20
31.33874305413134
 30
0.0
 10
9.030879575527978
 20
32.13874477465429
 30
0.0
 10
8.974374734926599
 20
32.93890649902725
 30
0.0
 10
8.93649303004999
 20
33.47233125867778
 30
0.0
 10
8.9171688597801
 20
33.74385886349049
 30
0.0
  0
SPLINE
  5
1D6
330
1F
100
AcDbEntity
  8
Default
100
AcDbSpline
210
0.0
220
0.0
230
1.0
 70
     8
 71
     3
 72
    13
 73
     9
 74
     0
 42
0.0000000001
 43
0.0000000001
 40
-4.812946811709232
 40
-4.812946811709232
 40
-4.812946811709232
 40
-4.812946811709232
 40
-3.367180593128783
 40
-3.025540330333921
 40
-2.48067070841305
 40
-2.233533827462394
 40
-1.941327661363471
 40
0.0
 40
0.0
 40
0.0
 40
0.0
 10
8.9171688597801
 20
33.74385886349049
 30
0.0
 10
8.86977457480947
 20
34.22709082962928
 30
0.0
 10
8.842328890937955
 20
34.82626745173226
 30
0.0
 10
8.782462132589352
 20
35.5961992894407
 30
0.0
 10
8.659530146703844
 20
35.97550580533327
 30
0.0
 10
8.316105771214056
 20
36.14996129439931
 30
0.0
 10
7.495966096841402
 20
36.22040971980292
 30
0.0
 10
6.746122884486415
 20
36.16172265356705
 30
0.0
 10
6.100879774479577
 20
36.18308883356178
 30
0.0
  0
POLYLINE
  5
1D7
330
1F
100
AcDbEntity
  8
Default
100
AcDb2dPolyline
 66
     1
 10
0.0
 20
0.0
 30
0.0
  0
VERTEX
  5
1D8
330
1D7
100
AcDbEntity
  8
Default
100
AcDbVertex
100
AcDb2dVertex
 10
6.100879774479577
 20
36.18308883356178
 30
0.0
  0
VERTEX
  5
1D9
330
1D7
100
AcDbEntity
  8
Default
100
AcDbVertex
100
AcDb2dVertex
 10
0.0000000000000005
 20
36.18308883356178
 30
0.0
  0
SEQEND
  5
1DA
330
1D7
100
AcDbEntity
  8
Default
  0
POLYLINE
  5
1DB
330
1F
100
AcDbEntity
  8
Default
100
AcDb2dPolyline
 66
     1
 10
0.0
 20
0.0
 30
0.0
  0
VERTEX
  5
1DC
330
1DB
100
AcDbEntity
  8
Default
100
AcDbVertex
100
AcDb2dVertex
 10
0.0000000000000005
 20
36.18308883356178
 30
0.0
  0
VERTEX
  5
1DD
330
1DB
100
AcDbEntity
  8
Default
100
AcDbVertex
100
AcDb2dVertex
 10
-6.100879774479576
 20
36.18308883356178
 30
0.0
  0
SEQEND
  5
1DE
330
1DB
100
AcDbEntity
  8
Default
  0
SPLINE
  5
1DF
330
1F
100
AcDbEntity
  8
Default
100
AcDbSpline
210
0.0
220
0.0
230
1.0
 70
     8
 71
     3
 72
    13
 73
     9
 74
     0
 42
0.0000000001
 43
0.0000000001
 40
0.0
 40
0.0
 40
0.0
 40
0.0
 40
1.941327661363471
 40
2.233533827462394
 40
2.48067070841305
 40
3.025540330333921
 40
3.367180593128783
 40
4.812946811709232
 40
4.812946811709232
 40
4.812946811709232
 40
4.812946811709232
 10
-6.100879774479576
 20
36.18308883356178
 30
0.0
 10
-6.746122884486414
 20
36.16172265356706
 30
0.0
 10
-7.495966096841401
 20
36.22040971980292
 30
0.0
 10
-8.316105771214055
 20
36.14996129439932
 30
0.0
 10
-8.659530146703844
 20
35.97550580533328
 30
0.0
 10
-8.782462132589352
 20
35.5961992894407
 30
0.0
 10
-8.842328890937955
 20
34.82626745173227
 30
0.0
 10
-8.869774574809473
 20
34.22709082962928
 30
0.0
 10
-8.917168859780102
 20
33.7438588634905
 30
0.0
  0
SPLINE
  5
1E0
330
1F
100
AcDbEntity
  8
Default
100
AcDbSpline
210
0.0
220
0.0
230
1.0
 70
     8
 71
     3
 72
    29
 73
    25
 74
     0
 42
0.0000000001
 43
0.0000000001
 40
-22.0
 40
-22.0
 40
-22.0
 40
-22.0
 40
-21.0
 40
-20.0
 40
-19.0
 40
-18.0
 40
-17.0
 40
-16.0
 40
-15.0
 40
-14.0
 40
-13.0
 40
-12.0
 40
-11.0
 40
-10.0
 40
-9.0
 40
-8.0
 40
-7.0
 40
-6.0
 40
-5.0
 40
-4.0
 40
-3.0
 40
-2.0
 40
-1.0
 40
0.0
 40
0.0
 40
0.0
 40
0.0
 10
-8.917168859780102
 20
33.7438588634905
 30
0.0
 10
-8.936493030049991
 20
33.47233125867779
 30
0.0
 10
-8.9743747349266
 20
32.93890649902725
 30
0.0
 10
-9.030879575527981
 20
32.1387447746543
 30
0.0
 10
-9.08958100145109
 20
31.33874305413135
 30
0.0
 10
-9.146609208352318
 20
30.5386155418949
 30
0.0
 10
-9.202651355080283
 20
29.7384343654172
 30
0.0
 10
-9.261006294172388
 20
28.93840246084163
 30
0.0
 10
-9.316425875810115
 20
28.13816908951237
 30
0.0
 10
-9.375284832192358
 20
27.33817626235393
 30
0.0
 10
-9.432073233838672
 20
26.53803551838378
 30
0.0
 10
-9.485703240476186
 20
25.73767275217712
 30
0.0
 10
-9.524104163898684
 20
24.93636002805452
 30
0.0
 10
-9.541744596458711
 20
24.13438932504033
 30
0.0
 10
-9.544507408875818
 20
23.33216346718776
 30
0.0
 10
-9.539022879531831
 20
22.53018744300144
 30
0.0
 10
-9.542116098814303
 20
21.72746916978411
 30
0.0
 10
-9.539459154583051
 20
20.92740487765362
 30
0.0
 10
-9.540263286071244
 20
20.1246925953348
 30
0.0
 10
-9.538843048482006
 20
19.32268745933296
 30
0.0
 10
-9.5354859240969
 20
18.52050859704993
 30
0.0
 10
-9.535680466416057
 20
17.71836277381847
 30
0.0
 10
-9.535296674279449
 20
16.91620713773414
 30
0.0
 10
-9.53539101770589
 20
16.38143888712899
 30
0.0
 10
-9.535453201707352
 20
16.11405447390688
 30
0.0
  0
SPLINE
  5
1E1
330
1F
100
AcDbEntity
  8
Default
100
AcDbSpline
210
0.0
220
0.0
230
1.0
 70
     8
 71
     2
 72
     8
 73
     5
 74
     0
 42
0.0000000001
 43
0.0000000001
 40
0.0
 40
0.0
 40
0.0
 40
0.246306161938167
 40
0.246306161938167
 40
2.252762854851167
 40
2.252762854851167
 40
2.252762854851167
 10
34.77677144759389
 20
11.54654929491494
 30
0.0
 10
34.77368089641276
 20
11.42343499905303
 30
0.0
 10
34.77059034523161
 20
11.30032070319112
 30
0.0
 10
34.77059034523161
 20
9.658929133858507
 30
0.0
 10
34.77059034523161
 20
8.655700787402008
 30
0.0
  0
SPLINE
  5
1E2
330
1F
100
AcDbEntity
  8
Default
100
AcDbSpline
210
0.0
220
0.0
230
1.0
 70
     8
 71
     2
 72
     8
 73
     5
 74
     0
 42
0.0000000001
 43
0.0000000001
 40
0.0
 40
0.0
 40
0.0
 40
2.006456692913
 40
2.006456692913
 40
2.252762854848576
 40
2.252762854848576
 40
2.252762854848576
 10
35.87295254995603
 20
8.655700787402008
 30
0.0
 10
35.87295254995603
 20
9.658929133858507
 30
0.0
 10
35.87295254995603
 20
11.30032070319112
 30
0.0
 10
35.86986199877492
 20
11.42343499905174
 30
0.0
 10
35.86677144759381
 20
11.54654929491235
 30
0.0
  0
POLYLINE
  5
1E3
330
1F
100
AcDbEntity
  8
Default
100
AcDb2dPolyline
 66
     1
 10
0.0
 20
0.0
 30
0.0
  0
VERTEX
  5
1E4
330
1E3
100
AcDbEntity
  8
Default
100
AcDbVertex
100
AcDb2dVertex
 10
24.93614717681345
 20
3.83951677517042
 30
0.0
  0
VERTEX
  5
1E5
330
1E3
100
AcDbEntity
  8
Default
100
AcDbVertex
100
AcDb2dVertex
 10
24.78971402768022
 20
2.660000000055124
 30
0.0
  0
SEQEND
  5
1E6
330
1E3
100
AcDbEntity
  8
Default
  0
SPLINE
  5
1E7
330
1F
100
AcDbEntity
  8
Default
100
AcDbSpline
210
0.0
220
0.0
230
1.0
 70
     8
 71
     3
 72
    12
 73
     8
 74
     0
 42
0.0000000001
 43
0.0000000001
 40
0.0
 40
0.0
 40
0.0
 40
0.0
 40
0.4528053245932296
 40
0.6025348547585867
 40
0.7183869265375751
 40
0.9020379958181682
 40
1.087427918246554
 40
1.087427918246554
 40
1.087427918246554
 40
1.087427918246554
 10
38.8898756857722
 20
3.839516775603292
 30
0.0
 10
38.87551804183144
 20
3.989769257883143
 30
0.0
 10
38.85854223478214
 20
4.189934448671986
 30
0.0
 10
38.82161329220034
 20
4.426766265809054
 30
0.0
 10
38.78909851966086
 20
4.57280031365463
 30
0.0
 10
38.73091363070559
 20
4.725332610434167
 30
0.0
 10
38.64840572177485
 20
4.819638578680792
 30
0.0
 10
38.60302994588481
 20
4.861102071089988
 30
0.0
  0
SPLINE
  5
1E8
330
1F
100
AcDbEntity
  8
Default
100
AcDbSpline
210
0.0
220
0.0
230
1.0
 70
    12
 71
     2
 72
     6
 73
     3
 74
     0
 42
0.0000000001
 43
0.0000000001
 40
0.0
 40
0.0
 40
0.0
 40
8.715030799849089
 40
8.715030799849089
 40
8.715030799849089
 10
33.70868015177644
 20
7.936590583927853
 30
0.0
 41
1.0
 10
29.63212891395292
 20
6.397216526489315
 30
0.0
 41
0.9999999201045066
 10
25.55412656814986
 20
4.861018593350522
 30
0.0
 41
1.0
  0
SPLINE
  5
1E9
330
1F
100
AcDbEntity
  8
Default
100
AcDbSpline
210
0.0
220
0.0
230
1.0
 70
    12
 71
     2
 72
    46
 73
    43
 74
     0
 42
0.0000000001
 43
0.0000000001
 40
0.0
 40
0.0
 40
0.0
 40
0.0659571873082289
 40
0.0659571873082289
 40
0.1269161378663908
 40
0.1269161378663908
 40
0.1834855570194787
 40
0.1834855570194787
 40
0.2370759538645803
 40
0.2370759538645803
 40
0.2894667988967314
 40
0.2894667988967314
 40
0.3407331251471203
 40
0.3407331251471203
 40
0.3899539353612933
 40
0.3899539353612933
 40
0.4367071928549973
 40
0.4367071928549973
 40
0.4826217176296054
 40
0.4826217176296054
 40
0.5314897772241787
 40
0.5314897772241787
 40
0.5843485731994937
 40
0.5843485731994937
 40
0.638553640860386
 40
0.638553640860386
 40
0.6923583081395558
 40
0.6923583081395558
 40
0.7461391773858815
 40
0.7461391773858815
 40
0.8027881465460011
 40
0.8027881465460011
 40
0.8656995617364339
 40
0.8656995617364339
 40
0.9359021369911148
 40
0.9359021369911148
 40
1.013311575235653
 40
1.013311575235653
 40
1.097892305030133
 40
1.097892305030133
 40
1.190871115696934
 40
1.190871115696934
 40
1.294279609072523
 40
1.294279609072523
 40
1.294279609072523
 10
25.55412656814986
 20
4.861018593350522
 30
0.0
 41
1.0
 10
25.52302827656072
 20
4.849345244767755
 30
0.0
 41
0.9999307876787276
 10
25.4924329444694
 20
4.837032094536813
 30
0.0
 41
1.0
 10
25.46415572901148
 20
4.82564922172543
 30
0.0
 41
0.9998609284034288
 10
25.4362738552685
 20
4.813329650950646
 30
0.0
 41
1.0
 10
25.41039946120333
 20
4.801894170468435
 30
0.0
 41
0.9997847360520522
 10
25.38502176971811
 20
4.789395080222302
 30
0.0
 41
1.0
 10
25.36097968296028
 20
4.777552399873074
 30
0.0
 41
0.9996989041262764
 10
25.33754755816094
 20
4.764544458417422
 30
0.0
 41
1.0
 10
25.31464064031975
 20
4.75182290486513
 30
0.0
 41
0.9996016539731734
 10
25.29248800753262
 20
4.737829132308494
 30
0.0
 41
1.0
 10
25.27080117870329
 20
4.724146413096459
 30
0.0
 41
0.9994567137624072
 10
25.25006290554889
 20
4.709064656690817
 30
0.0
 41
1.0
 10
25.23014848386084
 20
4.694583808000847
 30
0.0
 41
0.9992489281209886
 10
25.21141529762837
 20
4.678604230298889
 30
0.0
 41
1.0
 10
25.19362002774436
 20
4.663422282276394
 30
0.0
 41
0.9990454036209698
 10
25.17721782127724
 20
4.646745028335408
 30
0.0
 41
1.0
 10
25.16113229681697
 20
4.630343499439286
 30
0.0
 41
0.9989791051134017
 10
25.14659277864245
 20
4.612557081628353
 30
0.0
 41
1.0
 10
25.13112383108681
 20
4.593622053409654
 30
0.0
 41
0.9989940424296736
 10
25.11741359886264
 20
4.573377222847707
 30
0.0
 41
1.0
 10
25.10257845488528
 20
4.551482087324394
 30
0.0
 41
0.9989648589444639
 10
25.08979460012096
 20
4.528329301017376
 30
0.0
 41
1.0
 10
25.07670965853925
 20
4.50457681577021
 30
0.0
 41
0.9991342054001678
 10
25.06564466811013
 20
4.479818741563658
 30
0.0
 41
1.0
 10
25.05466398055946
 20
4.455248411588056
 30
0.0
 41
0.9994397143484954
 10
25.04535172386025
 20
4.429998491006724
 30
0.0
 41
1.0
 10
25.03604021541564
 20
4.404764973233427
 30
0.0
 41
0.9996484079402856
 10
25.02807947758291
 20
4.379073315795868
 30
0.0
 41
1.0
 10
25.01968632409882
 20
4.352015937995184
 30
0.0
 41
0.9997474031092821
 10
25.01251757703509
 20
4.324608716603866
 30
0.0
 41
1.0
 10
25.00455867528703
 20
4.294172074009729
 30
0.0
 41
0.9997940422576044
 10
24.99784147760137
 20
4.263437523668296
 30
0.0
 41
1.0
 10
24.99034985543053
 20
4.229141366811176
 30
0.0
 41
0.9998476167875587
 10
24.98406002569653
 20
4.19460459192069
 30
0.0
 41
1.0
 10
24.97711940786844
 20
4.156524602631746
 30
0.0
 41
0.9998986430585649
 10
24.97126581412867
 20
4.118262438547482
 30
0.0
 41
1.0
 10
24.96487277603956
 20
4.076456397602239
 30
0.0
 41
0.9999408623786429
 10
24.95939050132656
 20
4.03452120165068
 30
0.0
 41
1.0
 10
24.95336869347444
 20
3.988422733350037
 30
0.0
 41
0.9999770484232422
 10
24.94797207198481
 20
3.942246901728165
 30
0.0
 41
1.0
 10
24.94197597237017
 20
3.890891467333305
 30
0.0
 41
0.9999986738689504
 10
24.93614717681345
 20
3.83951677517042
 30
0.0
 41
1.0
  0
SPLINE
  5
1EA
330
1F
100
AcDbEntity
  8
Default
100
AcDbSpline
210
0.0
220
0.0
230
1.0
 70
     8
 71
     3
 72
    12
 73
     8
 74
     0
 42
0.0000000001
 43
0.0000000001
 40
0.0
 40
0.0
 40
0.0
 40
0.0
 40
0.1061716198908092
 40
0.1979210319421837
 40
0.3973405194851193
 40
0.7016537148134274
 40
1.143586046931956
 40
1.143586046931956
 40
1.143586046931956
 40
1.143586046931956
 10
39.73205655382137
 20
4.940957136131823
 30
0.0
 10
39.75652448547471
 20
4.915044103402373
 30
0.0
 10
39.79821696894023
 20
4.864558019454803
 30
0.0
 10
39.86815489155401
 20
4.750499256176495
 30
0.0
 10
39.92065039680849
 20
4.557468913675123
 30
0.0
 10
39.94081886657856
 20
4.242120141001347
 30
0.0
 10
39.9374859948169
 20
3.993542265879379
 30
0.0
 10
39.93185971883955
 20
3.846248162785601
 30
0.0
  0
SPLINE
  5
1EB
330
1F
100
AcDbEntity
  8
Default
100
AcDbSpline
210
0.0
220
0.0
230
1.0
 70
    12
 71
     2
 72
     6
 73
     3
 74
     0
 42
0.0000000001
 43
0.0000000001
 40
0.0
 40
0.0
 40
0.0
 40
0.1211947988180546
 40
0.1211947988180546
 40
0.1211947988180546
 10
39.88560481926476
 20
2.737950189740072
 30
0.0
 41
1.0
 10
39.8851857692589
 20
2.661480028116985
 30
0.0
 41
0.7158325737197913
 10
39.8087287830618
 20
2.660000000000563
 30
0.0
 41
1.0
  0
SPLINE
  5
1EC
330
1F
100
AcDbEntity
  8
Default
100
AcDbSpline
210
0.0
220
0.0
230
1.0
 70
    12
 71
     2
 72
     6
 73
     3
 74
     0
 42
0.0000000001
 43
0.0000000001
 40
0.0
 40
0.0
 40
0.0
 40
0.1167830114678569
 40
0.1167830114678569
 40
0.1167830114678569
 10
38.99885007380266
 20
2.660000000000007
 30
0.0
 41
1.0
 10
38.92633823600497
 20
2.661600142978353
 30
0.0
 41
0.7316926319443237
 10
38.92280428478245
 20
2.73404350356817
 30
0.0
 41
1.0
  0
SPLINE
  5
1ED
330
1F
100
AcDbEntity
  8
Default
100
AcDbSpline
210
0.0
220
0.0
230
1.0
 70
     8
 71
     3
 72
    11
 73
     7
 74
     0
 42
0.0000000001
 43
0.0000000001
 40
-0.6883324649280499
 40
-0.6883324649280499
 40
-0.6883324649280499
 40
-0.6883324649280499
 40
-0.2567305176961274
 40
-0.1220175022752949
 40
-0.0609286099619221
 40
0.0
 40
0.0
 40
0.0
 40
0.0
 10
38.80647394416625
 20
4.005901412960304
 30
0.0
 10
38.79012862276466
 20
4.148221048394266
 30
0.0
 10
38.77278274856109
 20
4.338608745323608
 30
0.0
 10
38.6943652470799
 20
4.534042885585929
 30
0.0
 10
38.64359863685731
 20
4.60375755594945
 30
0.0
 10
38.61533115012827
 20
4.632752606433838
 30
0.0
 10
38.59995205820032
 20
4.646192147946834
 30
0.0
  0
SPLINE
  5
1EE
330
1F
100
AcDbEntity
  8
Default
100
AcDbSpline
210
0.0
220
0.0
230
1.0
 70
     8
 71
     3
 72
     8
 73
     4
 74
     0
 42
0.0000000001
 43
0.0000000001
 40
-1.0
 40
-1.0
 40
-1.0
 40
-1.0
 40
0.0
 40
0.0
 40
0.0
 40
0.0
 10
35.29354077284543
 20
7.657213398341442
 30
0.0
 10
34.84353143500521
 20
7.969354738479668
 30
0.0
 10
34.24649352599366
 20
7.823814307406503
 30
0.0
 10
33.76489122560663
 20
7.657213360256252
 30
0.0
  0
SPLINE
  5
1EF
330
1F
100
AcDbEntity
  8
Default
100
AcDbSpline
210
0.0
220
0.0
230
1.0
 70
     8
 71
     3
 72
    12
 73
     8
 74
     0
 42
0.0000000001
 43
0.0000000001
 40
0.0
 40
0.0
 40
0.0
 40
0.0
 40
0.11059852885043
 40
0.2103455703700047
 40
0.3931206249944565
 40
0.5849418018433136
 40
0.8368584941090736
 40
0.8368584941090736
 40
0.8368584941090736
 40
0.8368584941090736
 10
25.59689973849834
 20
4.646192146634364
 30
0.0
 10
25.56225251819101
 20
4.633769664948773
 30
0.0
 10
25.49699652289494
 20
4.607425343230176
 30
0.0
 10
25.38239026964121
 20
4.543743546550807
 30
0.0
 10
25.26704202427303
 20
4.430672945537417
 30
0.0
 10
25.18553550531715
 20
4.23524611333044
 30
0.0
 10
25.16095961932091
 20
4.089358379218016
 30
0.0
 10
25.15054317808898
 20
4.005901437485187
 30
0.0
  0
SPLINE
  5
1F0
330
1F
100
AcDbEntity
  8
Default
100
AcDbSpline
210
0.0
220
0.0
230
1.0
 70
     8
 71
     3
 72
     9
 73
     5
 74
     0
 42
0.0000000001
 43
0.0000000001
 40
0.0
 40
0.0
 40
0.0
 40
0.0
 40
1.0
 40
2.0
 40
2.0
 40
2.0
 40
2.0
 10
47.61541745789609
 20
4.111577096374665
 30
0.0
 10
47.71218354361064
 20
4.094526384872104
 30
0.0
 10
47.93259064471447
 20
4.038944740893122
 30
0.0
 10
47.99465458053793
 20
3.817558472023844
 30
0.0
 10
47.99797370912669
 20
3.719148794156141
 30
0.0
  0
SPLINE
  5
1F1
330
1F
100
AcDbEntity
  8
Default
100
AcDbSpline
210
0.0
220
0.0
230
1.0
 70
    12
 71
     2
 72
     6
 73
     3
 74
     0
 42
0.0000000001
 43
0.0000000001
 40
-0.1219774658213558
 40
-0.1219774658213558
 40
-0.1219774658213558
 40
0.0
 40
0.0
 40
0.0
 10
48.04329280400399
 20
2.736315063950583
 30
0.0
 41
1.0
 10
48.04681174061668
 20
2.659999999968205
 30
0.0
 41
0.7232087180855842
 10
48.12320789173386
 20
2.660000000000005
 30
0.0
 41
1.0
  0
SPLINE
  5
1F2
330
1F
100
AcDbEntity
  8
Default
100
AcDbSpline
210
0.0
220
0.0
230
1.0
 70
    12
 71
     2
 72
     8
 73
     5
 74
     0
 42
0.0000000001
 43
0.0000000001
 40
-0.1322141501358168
 40
-0.1322141501358168
 40
-0.1322141501358168
 40
-0.0661070750679084
 40
-0.0661070750679084
 40
0.0
 40
0.0
 40
0.0
 10
48.87005732706352
 20
2.660000000000005
 30
0.0
 41
1.0
 10
48.90512967207286
 20
2.660000000073535
 30
0.0
 41
0.915852939172972
 10
48.92889375349258
 20
2.685794143182598
 30
0.0
 41
1.0
 10
48.95265783491233
 20
2.711588286291658
 30
0.0
 41
0.915852939172972
 10
48.94977982737584
 20
2.746658555328523
 30
0.0
 41
1.0
  0
SPLINE
  5
1F3
330
1F
100
AcDbEntity
  8
Default
100
AcDbSpline
210
0.0
220
0.0
230
1.0
 70
     8
 71
     3
 72
     8
 73
     4
 74
     0
 42
0.0000000001
 43
0.0000000001
 40
0.0
 40
0.0
 40
0.0
 40
0.0
 40
1.0
 40
1.0
 40
1.0
 40
1.0
 10
47.89132091565336
 20
5.013967678531518
 30
0.0
 10
44.03736281984731
 20
6.191129512746684
 30
0.0
 10
40.18633507589198
 20
7.378023003802483
 30
0.0
 10
36.32944611082565
 20
8.545453339532866
 30
0.0
  0
SPLINE
  5
1F4
330
1F
100
AcDbEntity
  8
Default
100
AcDbSpline
210
0.0
220
0.0
230
1.0
 70
    24
 71
     2
 72
     6
 73
     3
 74
     0
 42
0.0000000001
 43
0.0000000001
 40
0.0
 40
0.0
 40
0.0
 40
0.1545298101607907
 40
0.1545298101607907
 40
0.1545298101607907
 10
36.29028911117769
 20
8.546429251557258
 30
0.0
 10
36.23565473758752
 20
8.601063954626747
 30
0.0
 10
36.18102036399733
 20
8.655698657696236
 30
0.0
  0
SPLINE
  5
1F5
330
1F
100
AcDbEntity
  8
Default
100
AcDbSpline
210
0.0
220
0.0
230
1.0
 70
    24
 71
     2
 72
     6
 73
     3
 74
     0
 42
0.0000000001
 43
0.0000000001
 40
0.0
 40
0.0
 40
0.0
 40
0.1539732691706344
 40
0.1539732691706344
 40
0.1539732691706344
 10
34.46252253119032
 20
8.655698657696236
 30
0.0
 10
34.40808492396089
 20
8.601260722174132
 30
0.0
 10
34.35364731673148
 20
8.546822786652026
 30
0.0
  0
POLYLINE
  5
1F6
330
1F
100
AcDbEntity
  8
Default
100
AcDb2dPolyline
 66
     1
 10
0.0
 20
0.0
 30
0.0
  0
VERTEX
  5
1F7
330
1F6
100
AcDbEntity
  8
Default
100
AcDbVertex
100
AcDb2dVertex
 10
34.35364731673148
 20
8.546822786652026
 30
0.0
  0
VERTEX
  5
1F8
330
1F6
100
AcDbEntity
  8
Default
100
AcDbVertex
100
AcDb2dVertex
 10
34.31403755394266
 20
8.547812825255257
 30
0.0
  0
SEQEND
  5
1F9
330
1F6
100
AcDbEntity
  8
Default
  0
SPLINE
  5
1FA
330
1F
100
AcDbEntity
  8
Default
100
AcDbSpline
210
0.0
220
0.0
230
1.0
 70
    12
 71
     2
 72
     8
 73
     5
 74
     0
 42
0.0000000001
 43
0.0000000001
 40
-1.116086164561692
 40
-1.116086164561692
 40
-1.116086164561692
 40
0.0
 40
0.0
 40
3.0
 40
3.0
 40
3.0
 10
34.31403755394266
 20
8.547812825255257
 30
0.0
 41
1.0
 10
33.76396013150726
 20
8.445047125979405
 30
0.0
 41
0.9954294235064894
 10
33.24345496027696
 20
8.239571272548124
 30
0.0
 41
1.0
 10
29.11963253603798
 20
6.61164137126269
 30
0.0
 41
0.9999976397863387
 10
24.90232475325967
 20
4.968134941867184
 30
0.0
 41
1.0
  0
SPLINE
  5
1FB
330
1F
100
AcDbEntity
  8
Default
100
AcDbSpline
210
0.0
220
0.0
230
1.0
 70
     8
 71
     3
 72
    10
 73
     6
 74
     0
 42
0.0000000001
 43
0.0000000001
 40
0.0
 40
0.0
 40
0.0
 40
0.0
 40
1.0
 40
2.0
 40
3.0
 40
3.0
 40
3.0
 40
3.0
 10
24.90232475325967
 20
4.968134941867184
 30
0.0
 10
24.76967169976222
 20
4.91749195137821
 30
0.0
 10
24.47946553684762
 20
4.805961670651914
 30
0.0
 10
24.27566326544971
 20
4.402188940823226
 30
0.0
 10
24.25494786833784
 20
4.10982837143758
 30
0.0
 10
24.24500509541543
 20
3.965315264584984
 30
0.0
  0
POLYLINE
  5
1FC
330
1F
100
AcDbEntity
  8
Default
100
AcDb2dPolyline
 66
     1
 10
0.0
 20
0.0
 30
0.0
  0
VERTEX
  5
1FD
330
1FC
100
AcDbEntity
  8
Default
100
AcDbVertex
100
AcDb2dVertex
 10
39.01299064656094
 20
2.66147780855249
 30
0.0
  0
VERTEX
  5
1FE
330
1FC
100
AcDbEntity
  8
Default
100
AcDbVertex
100
AcDb2dVertex
 10
38.8898756857722
 20
3.839516775603292
 30
0.0
  0
SEQEND
  5
1FF
330
1FC
100
AcDbEntity
  8
Default
  0
SPLINE
  5
200
330
1F
100
AcDbEntity
  8
Default
100
AcDbSpline
210
0.0
220
0.0
230
1.0
 70
     8
 71
     3
 72
    10
 73
     6
 74
     0
 42
0.0000000001
 43
0.0000000001
 40
-3.0
 40
-3.0
 40
-3.0
 40
-3.0
 40
-2.0
 40
-1.0
 40
0.0
 40
0.0
 40
0.0
 40
0.0
 10
35.29898725182282
 20
7.936590584121986
 30
0.0
 10
35.16191912979567
 20
8.065504706242395
 30
0.0
 10
34.79195740133098
 20
8.176967870342274
 30
0.0
 10
34.23621550335091
 20
8.114667844697951
 30
0.0
 10
33.88162006254879
 20
8.002806166789384
 30
0.0
 10
33.70868015177644
 20
7.936590583927853
 30
0.0
  0
SPLINE
  5
201
330
1F
100
AcDbEntity
  8
Default
100
AcDbSpline
210
0.0
220
0.0
230
1.0
 70
    12
 71
     2
 72
     6
 73
     3
 74
     0
 42
0.0000000001
 43
0.0000000001
 40
-4.145567169372296
 40
-4.145567169372296
 40
-4.145567169372296
 40
0.0
 40
0.0
 40
0.0
 10
36.95898106760234
 20
7.992417095956021
 30
0.0
 41
1.0
 10
38.35573083551472
 20
6.460906993112906
 30
0.0
 41
0.9999997695187969
 10
39.73205655382137
 20
4.940957136131823
 30
0.0
 41
1.0
  0
SPLINE
  5
202
330
1F
100
AcDbEntity
  8
Default
100
AcDbSpline
210
0.0
220
0.0
230
1.0
 70
     8
 71
     3
 72
     8
 73
     4
 74
     0
 42
0.0000000001
 43
0.0000000001
 40
-1.0
 40
-1.0
 40
-1.0
 40
-1.0
 40
0.0
 40
0.0
 40
0.0
 40
0.0
 10
39.93185971883955
 20
3.846248162785601
 30
0.0
 10
39.91875669327215
 20
3.476726743065718
 30
0.0
 10
39.90618046009225
 20
3.107149886506361
 30
0.0
 10
39.88560481926476
 20
2.737950189740072
 30
0.0
  0
POLYLINE
  5
203
330
1F
100
AcDbEntity
  8
Default
100
AcDb2dPolyline
 66
     1
 10
0.0
 20
0.0
 30
0.0
  0
VERTEX
  5
204
330
203
100
AcDbEntity
  8
Default
100
AcDbVertex
100
AcDb2dVertex
 10
39.8087287830618
 20
2.660000000000563
 30
0.0
  0
VERTEX
  5
205
330
203
100
AcDbEntity
  8
Default
100
AcDbVertex
100
AcDb2dVertex
 10
38.99885007380266
 20
2.660000000000007
 30
0.0
  0
SEQEND
  5
206
330
203
100
AcDbEntity
  8
Default
  0
POLYLINE
  5
207
330
1F
100
AcDbEntity
  8
Default
100
AcDb2dPolyline
 66
     1
 10
0.0
 20
0.0
 30
0.0
  0
VERTEX
  5
208
330
207
100
AcDbEntity
  8
Default
100
AcDbVertex
100
AcDb2dVertex
 10
38.92280428478245
 20
2.73404350356817
 30
0.0
  0
VERTEX
  5
209
330
207
100
AcDbEntity
  8
Default
100
AcDbVertex
100
AcDb2dVertex
 10
38.80647394416625
 20
4.005901412960304
 30
0.0
  0
SEQEND
  5
20A
330
207
100
AcDbEntity
  8
Default
  0
SPLINE
  5
20B
330
1F
100
AcDbEntity
  8
Default
100
AcDbSpline
210
0.0
220
0.0
230
1.0
 70
    12
 71
     3
 72
    12
 73
     8
 74
     0
 42
0.0000000001
 43
0.0000000001
 40
0.0
 40
0.0
 40
0.0
 40
0.0
 40
0.25
 40
0.25
 40
0.5
 40
0.5
 40
1.0
 40
1.0
 40
1.0
 40
1.0
 10
38.59995205820032
 20
4.646192147946834
 30
0.0
 41
1.0
 10
38.32437631361066
 20
4.892701194503717
 30
0.0
 41
1.0
 10
38.0489911080086
 20
5.150963882563943
 30
0.0
 41
1.0
 10
37.49807809457528
 20
5.662921621605191
 30
0.0
 41
1.0
 10
37.22253272552611
 20
5.915212380590486
 30
0.0
 41
1.0
 10
36.39587044760027
 20
6.666348404792432
 30
0.0
 41
1.0
 10
35.84469330954742
 20
7.161206205623538
 30
0.0
 41
1.0
 10
35.29354077284543
 20
7.657213398341442
 30
0.0
 41
1.0
  0
SPLINE
  5
20C
330
1F
100
AcDbEntity
  8
Default
100
AcDbSpline
210
0.0
220
0.0
230
1.0
 70
     8
 71
     3
 72
     8
 73
     4
 74
     0
 42
0.0000000001
 43
0.0000000001
 40
0.0
 40
0.0
 40
0.0
 40
0.0
 40
1.0
 40
1.0
 40
1.0
 40
1.0
 10
33.76489122560663
 20
7.657213360256252
 30
0.0
 10
31.03663274680129
 20
6.668788224224888
 30
0.0
 10
28.31307170384709
 20
5.667311757729139
 30
0.0
 10
25.59689973849834
 20
4.646192146634364
 30
0.0
  0
SPLINE
  5
20D
330
1F
100
AcDbEntity
  8
Default
100
AcDbSpline
210
0.0
220
0.0
230
1.0
 70
     8
 71
     3
 72
     9
 73
     5
 74
     0
 42
0.0000000001
 43
0.0000000001
 40
-2.0
 40
-2.0
 40
-2.0
 40
-2.0
 40
-1.0
 40
0.0
 40
0.0
 40
0.0
 40
0.0
 10
39.12579035761102
 20
5.619019341765803
 30
0.0
 10
40.54068425353788
 20
5.367786778967487
 30
0.0
 10
43.37047228459885
 20
4.865321610896506
 30
0.0
 10
46.20026004559698
 20
4.362856490779
 30
0.0
 10
47.61541745789609
 20
4.111577096374665
 30
0.0
  0
POLYLINE
  5
20E
330
1F
100
AcDbEntity
  8
Default
100
AcDb2dPolyline
 66
     1
 10
0.0
 20
0.0
 30
0.0
  0
VERTEX
  5
20F
330
20E
100
AcDbEntity
  8
Default
100
AcDbVertex
100
AcDb2dVertex
 10
47.99797370912669
 20
3.719148794156141
 30
0.0
  0
VERTEX
  5
210
330
20E
100
AcDbEntity
  8
Default
100
AcDbVertex
100
AcDb2dVertex
 10
48.04329280400399
 20
2.736315063950583
 30
0.0
  0
SEQEND
  5
211
330
20E
100
AcDbEntity
  8
Default
  0
POLYLINE
  5
212
330
1F
100
AcDbEntity
  8
Default
100
AcDb2dPolyline
 66
     1
 10
0.0
 20
0.0
 30
0.0
  0
VERTEX
  5
213
330
212
100
AcDbEntity
  8
Default
100
AcDbVertex
100
AcDb2dVertex
 10
48.12320789173386
 20
2.660000000000005
 30
0.0
  0
VERTEX
  5
214
330
212
100
AcDbEntity
  8
Default
100
AcDbVertex
100
AcDb2dVertex
 10
48.87005732706352
 20
2.660000000000005
 30
0.0
  0
SEQEND
  5
215
330
212
100
AcDbEntity
  8
Default
  0
SPLINE
  5
216
330
1F
100
AcDbEntity
  8
Default
100
AcDbSpline
210
0.0
220
0.0
230
1.0
 70
    12
 71
     2
 72
     6
 73
     3
 74
     0
 42
0.0000000001
 43
0.0000000001
 40
0.0
 40
0.0
 40
0.0
 40
1.309930630910038
 40
1.309930630910038
 40
1.309930630910038
 10
48.94977982737584
 20
2.746658555328523
 30
0.0
 41
1.0
 10
48.89620134001723
 20
3.399544942760107
 30
0.0
 41
0.9999999999985001
 10
48.84263458634793
 20
4.052316087460355
 30
0.0
 41
1.0
  0
SPLINE
  5
217
330
1F
100
AcDbEntity
  8
Default
100
AcDbSpline
210
0.0
220
0.0
230
1.0
 70
    12
 71
     3
 72
    13
 73
     9
 74
     0
 42
0.0000000001
 43
0.0000000001
 40
0.0
 40
0.0
 40
0.0
 40
0.0
 40
0.2499999999999873
 40
0.3750000000001832
 40
0.5000000000005594
 40
0.6250000000009357
 40
0.750000000001312
 40
1.0
 40
1.0
 40
1.0
 40
1.0
 10
48.84263458634793
 20
4.052316087460355
 30
0.0
 41
1.0
 10
48.83079919436879
 20
4.196543650885054
 30
0.0
 41
1.0
 10
48.78049727264659
 20
4.390615925744095
 30
0.0
 41
1.0
 10
48.66316493496247
 20
4.595828341537233
 30
0.0
 41
1.0
 10
48.5537262441457
 20
4.720735874546182
 30
0.0
 41
1.0
 10
48.42661366772537
 20
4.814296718388283
 30
0.0
 41
1.0
 10
48.22798445926544
 20
4.911220770392735
 30
0.0
 41
1.0
 10
48.03983063508594
 20
4.968515514021977
 30
0.0
 41
1.0
 10
47.89132091565336
 20
5.013967678531518
 30
0.0
 41
1.0
  0
POLYLINE
  5
218
330
1F
100
AcDbEntity
  8
Default
100
AcDb2dPolyline
 66
     1
 10
0.0
 20
0.0
 30
0.0
  0
VERTEX
  5
219
330
218
100
AcDbEntity
  8
Default
100
AcDbVertex
100
AcDb2dVertex
 10
36.32944611082565
 20
8.545453339532866
 30
0.0
  0
VERTEX
  5
21A
330
218
100
AcDbEntity
  8
Default
100
AcDbVertex
100
AcDb2dVertex
 10
36.29028911117769
 20
8.546429251557258
 30
0.0
  0
SEQEND
  5
21B
330
218
100
AcDbEntity
  8
Default
  0
POLYLINE
  5
21C
330
1F
100
AcDbEntity
  8
Default
100
AcDb2dPolyline
 66
     1
 10
0.0
 20
0.0
 30
0.0
  0
VERTEX
  5
21D
330
21C
100
AcDbEntity
  8
Default
100
AcDbVertex
100
AcDb2dVertex
 10
36.18102036399733
 20
8.655698657696236
 30
0.0
  0
VERTEX
  5
21E
330
21C
100
AcDbEntity
  8
Default
100
AcDbVertex
100
AcDb2dVertex
 10
34.46252253119032
 20
8.655698657696236
 30
0.0
  0
SEQEND
  5
21F
330
21C
100
AcDbEntity
  8
Default
  0
POLYLINE
  5
220
330
1F
100
AcDbEntity
  8
Default
100
AcDb2dPolyline
 66
     1
 10
0.0
 20
0.0
 30
0.0
  0
VERTEX
  5
221
330
220
100
AcDbEntity
  8
Default
100
AcDbVertex
100
AcDb2dVertex
 10
25.15054317808898
 20
4.005901437485187
 30
0.0
  0
VERTEX
  5
222
330
220
100
AcDbEntity
  8
Default
100
AcDbVertex
100
AcDb2dVertex
 10
25.01083079437102
 20
2.660000000013682
 30
0.0
  0
SEQEND
  5
223
330
220
100
AcDbEntity
  8
Default
  0
SPLINE
  5
224
330
1F
100
AcDbEntity
  8
Default
100
AcDbSpline
210
0.0
220
0.0
230
1.0
 70
    12
 71
     2
 72
     6
 73
     3
 74
     0
 42
0.0000000001
 43
0.0000000001
 40
0.0
 40
0.0
 40
0.0
 40
4.513904074055471
 40
4.513904074055471
 40
4.513904074055471
 10
38.60302994588481
 20
4.861102071089988
 30
0.0
 41
1.0
 10
36.9501192390231
 20
6.397890875216104
 30
0.0
 41
0.9999998327536348
 10
35.29898725182282
 20
7.936590584121986
 30
0.0
 41
1.0
  0
SPLINE
  5
225
330
1F
100
AcDbEntity
  8
Default
100
AcDbSpline
210
0.0
220
0.0
230
1.0
 70
    12
 71
     2
 72
     8
 73
     5
 74
     0
 42
0.0000000001
 43
0.0000000001
 40
0.0
 40
0.0
 40
0.0
 40
0.0644454006507243
 40
0.0644454006507243
 40
0.1288908013014487
 40
0.1288908013014487
 40
0.1288908013014487
 10
24.19377305716936
 20
2.744097279577867
 30
0.0
 41
1.0
 10
24.19242573557413
 20
2.709305575088231
 30
0.0
 41
0.920451290553868
 10
24.2160072029386
 20
2.684709506002449
 30
0.0
 41
1.0
 10
24.23958867030304
 20
2.660113436916664
 30
0.0
 41
0.920451290553868
 10
24.27366269779666
 20
2.660000000151843
 30
0.0
 41
1.0
  0
POLYLINE
  5
226
330
1F
100
AcDbEntity
  8
Default
100
AcDb2dPolyline
 66
     1
 10
0.0
 20
0.0
 30
0.0
  0
VERTEX
  5
227
330
226
100
AcDbEntity
  8
Default
100
AcDbVertex
100
AcDb2dVertex
 10
24.27366269779666
 20
2.660000000151843
 30
0.0
  0
VERTEX
  5
228
330
226
100
AcDbEntity
  8
Default
100
AcDbVertex
100
AcDb2dVertex
 10
25.04339053348858
 20
2.660000000007578
 30
0.0
  0
SEQEND
  5
229
330
226
100
AcDbEntity
  8
Default
  0
SPLINE
  5
22A
330
1F
100
AcDbEntity
  8
Default
100
AcDbSpline
210
0.0
220
0.0
230
1.0
 70
    12
 71
     2
 72
     6
 73
     3
 74
     0
 42
0.0000000001
 43
0.0000000001
 40
0.0
 40
0.0
 40
0.0
 40
0.1202037113378394
 40
0.1202037113378394
 40
0.1202037113378394
 10
25.04339053348858
 20
2.660000000007578
 30
0.0
 41
1.0
 10
25.11799910716526
 20
2.66020420594308
 30
0.0
 41
0.732306271403974
 10
25.12322175353814
 20
2.734825591810399
 30
0.0
 41
1.0
  0
SPLINE
  5
22B
330
1F
100
AcDbEntity
  8
Default
100
AcDbSpline
210
0.0
220
0.0
230
1.0
 70
    12
 71
     2
 72
     6
 73
     3
 74
     0
 42
0.0000000001
 43
0.0000000001
 40
0.0
 40
0.0
 40
0.0
 40
0.7804025542512569
 40
0.7804025542512569
 40
0.7804025542512569
 10
25.12322175353814
 20
2.734825591810399
 30
0.0
 41
1.0
 10
25.14949901117326
 20
3.124337198917439
 30
0.0
 41
0.9999976486257973
 10
25.2084105316369
 20
3.919820390259456
 30
0.0
 41
1.0
  0
SPLINE
  5
22C
330
1F
100
AcDbEntity
  8
Default
100
AcDbSpline
210
0.0
220
0.0
230
1.0
 70
     8
 71
     3
 72
    11
 73
     7
 74
     0
 42
0.0000000001
 43
0.0000000001
 40
0.0
 40
0.0
 40
0.0
 40
0.0
 40
0.0906004668381335
 40
0.1405408201131151
 40
0.2060462117523945
 40
0.3036363065331001
 40
0.3036363065331001
 40
0.3036363065331001
 40
0.3036363065331001
 10
25.2084105316369
 20
3.919820390259456
 30
0.0
 10
25.21364853899022
 20
3.949481797060951
 30
0.0
 10
25.2180162839936
 20
3.996527628405959
 30
0.0
 10
25.24881929365238
 20
4.059949931435861
 30
0.0
 10
25.31605210085333
 20
4.093069060731874
 30
0.0
 10
25.36619215408296
 20
4.10718329926455
 30
0.0
 10
25.39884456064906
 20
4.114042263205036
 30
0.0
  0
SPLINE
  5
22D
330
1F
100
AcDbEntity
  8
Default
100
AcDbSpline
210
0.0
220
0.0
230
1.0
 70
    12
 71
     3
 72
    19
 73
    15
 74
     0
 42
0.0000000001
 43
0.0000000001
 40
0.0
 40
0.0
 40
0.0
 40
0.0
 40
8.46484091291449
 40
8.46484091291449
 40
8.46484091291449
 40
9.46484091291449
 40
10.46484091291449
 40
11.46484091291449
 40
11.46484091291449
 40
11.46484091291449
 40
14.24470520222109
 40
14.24470520222109
 40
14.24470520222109
 40
14.82021649473989
 40
14.82021649473989
 40
14.82021649473989
 40
14.82021649473989
 10
25.39884456064906
 20
4.114042263205036
 30
0.0
 41
1.0
 10
28.18897250103711
 20
4.727767107644856
 30
0.0
 41
0.9999999593178602
 10
30.9531902015063
 20
5.336764761842486
 30
0.0
 41
0.9999999593178602
 10
33.72588965492682
 20
5.948604000378996
 30
0.0
 41
1.0
 10
33.95872098072609
 20
6.001644072563149
 30
0.0
 41
1.0
 10
34.4278334457586
 20
6.109156984426487
 30
0.0
 41
1.0
 10
35.14407960013006
 20
6.133521775231874
 30
0.0
 41
1.0
 10
35.62980426679302
 20
6.096161670104483
 30
0.0
 41
1.0
 10
35.83939064944686
 20
5.969723461258774
 30
0.0
 41
1.0
 10
36.65649177521714
 20
5.501037507373258
 30
0.0
 41
1.0
 10
37.46692005881636
 20
5.036151129614133
 30
0.0
 41
1.0
 10
38.27067550024447
 20
4.575064327981401
 30
0.0
 41
1.0
 10
38.43674458902493
 20
4.479031056714367
 30
0.0
 41
0.9999998289897812
 10
38.60274485026761
 20
4.382878861180378
 30
0.0
 41
0.9999998289897812
 10
38.76867619880921
 20
4.286607790708459
 30
0.0
 41
1.0
  0
SPLINE
  5
22E
330
1F
100
AcDbEntity
  8
Default
100
AcDbSpline
210
0.0
220
0.0
230
1.0
 70
    12
 71
     2
 72
     6
 73
     3
 74
     0
 42
0.0000000001
 43
0.0000000001
 40
0.0
 40
0.0
 40
0.0
 40
0.7840071436312355
 40
0.7840071436312355
 40
0.7840071436312355
 10
37.1060364390298
 20
7.831204175008549
 30
0.0
 41
1.0
 10
37.49650632466587
 20
7.783435317318741
 30
0.0
 41
0.9947560748952097
 10
37.86908735304377
 20
7.657213367418288
 30
0.0
 41
1.0
  0
SPLINE
  5
22F
330
1F
100
AcDbEntity
  8
Default
100
AcDbSpline
210
0.0
220
0.0
230
1.0
 70
    12
 71
     3
 72
    12
 73
     8
 74
     0
 42
0.0000000001
 43
0.0000000001
 40
-1.0
 40
-1.0
 40
-1.0
 40
-1.0
 40
-0.5
 40
-0.5
 40
-0.25
 40
-0.25
 40
0.0
 40
0.0
 40
0.0
 40
0.0
 10
37.86908735304377
 20
7.657213367418288
 30
0.0
 41
1.0
 10
39.52249456794306
 20
7.161206205625714
 30
0.0
 41
1.0
 10
41.17627512104998
 20
6.666348404793151
 30
0.0
 41
1.0
 10
43.65436519065972
 20
5.915212380591244
 30
0.0
 41
1.0
 10
44.47988216238281
 20
5.662921621607241
 30
0.0
 41
1.0
 10
46.12838708329898
 20
5.150963882562513
 30
0.0
 41
1.0
 10
46.9517573022232
 20
4.892701194500811
 30
0.0
 41
1.0
 10
47.7787637925757
 20
4.646192147946799
 30
0.0
 41
1.0
  0
SPLINE
  5
230
330
1F
100
AcDbEntity
  8
Default
100
AcDbSpline
210
0.0
220
0.0
230
1.0
 70
     8
 71
     3
 72
    12
 73
     8
 74
     0
 42
0.0000000001
 43
0.0000000001
 40
0.0
 40
0.0
 40
0.0
 40
0.0
 40
0.1341528311620818
 40
0.2481746834253521
 40
0.4405266612677292
 40
0.6413624167629144
 40
0.893590923424823
 40
0.893590923424823
 40
0.893590923424823
 40
0.893590923424823
 10
47.7787637925757
 20
4.646192147946799
 30
0.0
 10
47.82134730809074
 20
4.633453083002902
 30
0.0
 10
47.90082557988735
 20
4.607621291668023
 30
0.0
 10
48.03281395521422
 20
4.545110897653801
 30
0.0
 10
48.16873888595349
 20
4.437413621800907
 30
0.0
 10
48.26313323137939
 20
4.239410064493061
 30
0.0
 10
48.28546204989036
 20
4.089564340362635
 30
0.0
 10
48.29446200344859
 20
4.00590141296049
 30
0.0
  0
POLYLINE
  5
231
330
1F
100
AcDbEntity
  8
Default
100
AcDb2dPolyline
 66
     1
 10
0.0
 20
0.0
 30
0.0
  0
VERTEX
  5
232
330
231
100
AcDbEntity
  8
Default
100
AcDbVertex
100
AcDb2dVertex
 10
48.29446200344859
 20
4.00590141296049
 30
0.0
  0
VERTEX
  5
233
330
231
100
AcDbEntity
  8
Default
100
AcDbVertex
100
AcDb2dVertex
 10
48.39741880742422
 20
2.660000000000005
 30
0.0
  0
SEQEND
  5
234
330
231
100
AcDbEntity
  8
Default
  0
SPLINE
  5
235
330
1F
100
AcDbEntity
  8
Default
100
AcDbSpline
210
0.0
220
0.0
230
1.0
 70
    12
 71
     2
 72
     6
 73
     3
 74
     0
 42
0.0000000001
 43
0.0000000001
 40
-10.35710455733309
 40
-10.35710455733309
 40
-10.35710455733309
 40
0.0
 40
0.0
 40
0.0
 10
37.95459218726062
 20
7.936590584120853
 30
0.0
 41
1.0
 10
42.89902829770547
 20
6.397123981204134
 30
0.0
 41
0.999999939342662
 10
47.84453560873391
 20
4.861102071090258
 30
0.0
 41
1.0
  0
SPLINE
  5
236
330
1F
100
AcDbEntity
  8
Default
100
AcDbSpline
210
0.0
220
0.0
230
1.0
 70
     8
 71
     3
 72
    12
 73
     8
 74
     0
 42
0.0000000001
 43
0.0000000001
 40
-1.375863281721866
 40
-1.375863281721866
 40
-1.375863281721866
 40
-1.375863281721866
 40
-0.997103302562531
 40
-0.7392472921696889
 40
-0.4548350050699778
 40
-0.2649008873789054
 40
0.0
 40
0.0
 40
0.0
 40
0.0
 10
47.84453560873391
 20
4.861102071090258
 30
0.0
 10
47.96399509779622
 20
4.821552302851645
 30
0.0
 10
48.1691474515707
 20
4.758542253726965
 30
0.0
 10
48.41250288269818
 20
4.558186785177721
 30
0.0
 10
48.49561904414208
 20
4.319603648359649
 30
0.0
 10
48.53661432502945
 20
4.080078213531925
 30
0.0
 10
48.54996343063355
 20
3.926616410853612
 30
0.0
 10
48.55796027384584
 20
3.839516775598097
 30
0.0
  0
POLYLINE
  5
237
330
1F
100
AcDbEntity
  8
Default
100
AcDb2dPolyline
 66
     1
 10
0.0
 20
0.0
 30
0.0
  0
VERTEX
  5
238
330
237
100
AcDbEntity
  8
Default
100
AcDbVertex
100
AcDb2dVertex
 10
48.55796027384584
 20
3.839516775598097
 30
0.0
  0
VERTEX
  5
239
330
237
100
AcDbEntity
  8
Default
100
AcDbVertex
100
AcDb2dVertex
 10
48.67162467774907
 20
2.660000000000004
 30
0.0
  0
SEQEND
  5
23A
330
237
100
AcDbEntity
  8
Default
  0
POLYLINE
  5
23B
330
1F
100
AcDbEntity
  8
Default
100
AcDb2dPolyline
 66
     1
 10
0.0
 20
0.0
 30
0.0
  0
VERTEX
  5
23C
330
23B
100
AcDbEntity
  8
Default
100
AcDbVertex
100
AcDb2dVertex
 10
25.01823764608962
 20
2.560000000000008
 30
0.0
  0
VERTEX
  5
23D
330
23B
100
AcDbEntity
  8
Default
100
AcDbVertex
100
AcDb2dVertex
 10
23.73823764608958
 20
2.560000000000008
 30
0.0
  0
SEQEND
  5
23E
330
23B
100
AcDbEntity
  8
Default
  0
POLYLINE
  5
23F
330
1F
100
AcDbEntity
  8
Default
100
AcDb2dPolyline
 66
     1
 10
0.0
 20
0.0
 30
0.0
  0
VERTEX
  5
240
330
23F
100
AcDbEntity
  8
Default
100
AcDbVertex
100
AcDb2dVertex
 10
39.75401519082801
 20
2.560000000000008
 30
0.0
  0
VERTEX
  5
241
330
23F
100
AcDbEntity
  8
Default
100
AcDbVertex
100
AcDb2dVertex
 10
38.47401519082796
 20
2.560000000000008
 30
0.0
  0
SEQEND
  5
242
330
23F
100
AcDbEntity
  8
Default
  0
POLYLINE
  5
243
330
1F
100
AcDbEntity
  8
Default
100
AcDb2dPolyline
 66
     1
 10
0.0
 20
0.0
 30
0.0
  0
VERTEX
  5
244
330
243
100
AcDbEntity
  8
Default
100
AcDbVertex
100
AcDb2dVertex
 10
48.86122656413382
 20
2.560000000000008
 30
0.0
  0
VERTEX
  5
245
330
243
100
AcDbEntity
  8
Default
100
AcDbVertex
100
AcDb2dVertex
 10
47.58122656413376
 20
2.560000000000008
 30
0.0
  0
SEQEND
  5
246
330
243
100
AcDbEntity
  8
Default
  0
SPLINE
  5
247
330
1F
100
AcDbEntity
  8
Default
100
AcDbSpline
210
0.0
220
0.0
230
1.0
 70
    12
 71
     2
 72
     6
 73
     3
 74
     0
 42
0.0000000001
 43
0.0000000001
 40
0.0
 40
0.0
 40
0.0
 40
0.0775467449539539
 40
0.0775467449539539
 40
0.0775467449539539
 10
36.9398565608812
 20
8.014243103142007
 30
0.0
 41
1.0
 10
36.91351961277795
 20
8.04329892765875
 30
0.0
 41
0.9831643185963373
 10
36.89938094022131
 20
8.079877250639363
 30
0.0
 41
1.0
  0
SPLINE
  5
248
330
1F
100
AcDbEntity
  8
Default
100
AcDbSpline
210
0.0
220
0.0
230
1.0
 70
    24
 71
     2
 72
     6
 73
     3
 74
     0
 42
0.0000000001
 43
0.0000000001
 40
0.0
 40
0.0
 40
0.0
 40
0.1002871374692929
 40
0.1002871374692929
 40
0.1002871374692929
 10
48.14261954871964
 20
2.659084898650105
 30
0.0
 10
48.15036055642668
 20
2.609542449325049
 30
0.0
 10
48.15810156413372
 20
2.559999999999993
 30
0.0
  0
SPLINE
  5
249
330
1F
100
AcDbEntity
  8
Default
100
AcDbSpline
210
0.0
220
0.0
230
1.0
 70
    24
 71
     2
 72
     6
 73
     3
 74
     0
 42
0.0000000001
 43
0.0000000001
 40
0.0
 40
0.0
 40
0.0
 40
0.1002871374692938
 40
0.1002871374692938
 40
0.1002871374692938
 10
24.29963063067544
 20
2.659084898650104
 30
0.0
 10
24.30737163838249
 20
2.609542449325049
 30
0.0
 10
24.31511264608954
 20
2.559999999999993
 30
0.0
  0
SPLINE
  5
24A
330
1F
100
AcDbEntity
  8
Default
100
AcDbSpline
210
0.0
220
0.0
230
1.0
 70
    24
 71
     2
 72
     6
 73
     3
 74
     0
 42
0.0000000001
 43
0.0000000001
 40
0.0
 40
0.0
 40
0.0
 40
0.1012133421294007
 40
0.1012133421294007
 40
0.1012133421294007
 10
25.00261264608972
 20
2.559999999999993
 30
0.0
 10
25.01042514608972
 20
2.610000000000001
 30
0.0
 10
25.01823764608972
 20
2.660000000000009
 30
0.0
  0
SPLINE
  5
24B
330
1F
100
AcDbEntity
  8
Default
100
AcDbSpline
210
0.0
220
0.0
230
1.0
 70
    24
 71
     2
 72
     6
 73
     3
 74
     0
 42
0.0000000001
 43
0.0000000001
 40
0.0
 40
0.0
 40
0.0
 40
1.164986319490939
 40
1.164986319490939
 40
1.164986319490939
 10
25.01823764608962
 20
1.395013680509068
 30
0.0
 10
25.01823764608962
 20
1.977506840254538
 30
0.0
 10
25.01823764608962
 20
2.560000000000008
 30
0.0
  0
SPLINE
  5
24C
330
1F
100
AcDbEntity
  8
Default
100
AcDbSpline
210
0.0
220
0.0
230
1.0
 70
    24
 71
     2
 72
     6
 73
     3
 74
     0
 42
0.0000000001
 43
0.0000000001
 40
0.0
 40
0.0
 40
0.0
 40
0.1007968950763969
 40
0.1007968950763969
 40
0.1007968950763969
 10
48.8456015641339
 20
2.559999999999993
 30
0.0
 10
48.8533819192355
 20
2.609794272650108
 30
0.0
 10
48.86116227433708
 20
2.659588545300222
 30
0.0
  0
SPLINE
  5
24D
330
1F
100
AcDbEntity
  8
Default
100
AcDbSpline
210
0.0
220
0.0
230
1.0
 70
    24
 71
     2
 72
     6
 73
     3
 74
     0
 42
0.0000000001
 43
0.0000000001
 40
0.0
 40
0.0
 40
0.0
 40
1.164986319490939
 40
1.164986319490939
 40
1.164986319490939
 10
48.86122656413382
 20
1.39501368050907
 30
0.0
 10
48.86122656413382
 20
1.977506840254538
 30
0.0
 10
48.86122656413382
 20
2.560000000000008
 30
0.0
  0
SPLINE
  5
24E
330
1F
100
AcDbEntity
  8
Default
100
AcDbSpline
210
0.0
220
0.0
230
1.0
 70
    24
 71
     2
 72
     6
 73
     3
 74
     0
 42
0.0000000001
 43
0.0000000001
 40
0.0
 40
0.0
 40
0.0
 40
1.164986319490939
 40
1.164986319490939
 40
1.164986319490939
 10
39.75401519082801
 20
1.395013680509068
 30
0.0
 10
39.75401519082801
 20
1.977506840254538
 30
0.0
 10
39.75401519082801
 20
2.560000000000008
 30
0.0
  0
SPLINE
  5
24F
330
1F
100
AcDbEntity
  8
Default
100
AcDbSpline
210
0.0
220
0.0
230
1.0
 70
    12
 71
     2
 72
     6
 73
     3
 74
     0
 42
0.0000000001
 43
0.0000000001
 40
0.0
 40
0.0
 40
0.0
 40
0.0196191255512342
 40
0.0196191255512342
 40
0.0196191255512342
 10
37.02757303739665
 20
8.147297845144783
 30
0.0
 41
1.0
 10
37.03737640795846
 20
8.14767227108265
 30
0.0
 41
0.9998539107205031
 10
37.0471868482303
 20
8.147711396874776
 30
0.0
 41
1.0
  0
SPLINE
  5
250
330
1F
100
AcDbEntity
  8
Default
100
AcDbSpline
210
0.0
220
0.0
230
1.0
 70
    12
 71
     2
 72
     6
 73
     3
 74
     0
 42
0.0000000001
 43
0.0000000001
 40
0.0
 40
0.0
 40
0.0
 40
0.0053815498448406
 40
0.0053815498448406
 40
0.0053815498448406
 10
33.11971198565277
 20
7.34009290238397
 30
0.0
 41
1.0
 10
33.11844998457622
 20
7.342469390515988
 30
0.0
 41
0.9999924510718384
 10
33.1171695536352
 20
7.34483599972838
 30
0.0
 41
1.0
  0
SPLINE
  5
251
330
1F
100
AcDbEntity
  8
Default
100
AcDbSpline
210
0.0
220
0.0
230
1.0
 70
    12
 71
     2
 72
    42
 73
    39
 74
     0
 42
0.0000000001
 43
0.0000000001
 40
0.0
 40
0.0
 40
0.0
 40
0.0409340454553706
 40
0.0409340454553706
 40
0.0852030566016373
 40
0.0852030566016373
 40
0.1335798162228983
 40
0.1335798162228983
 40
0.1864459534839478
 40
0.1864459534839478
 40
0.2447079363980674
 40
0.2447079363980674
 40
0.3081599735567979
 40
0.3081599735567979
 40
0.3750746831064281
 40
0.3750746831064281
 40
0.4434835590212436
 40
0.4434835590212436
 40
0.5143337664584579
 40
0.5143337664584579
 40
0.5854834564686641
 40
0.5854834564686641
 40
0.6499898892693673
 40
0.6499898892693673
 40
0.7042800850380747
 40
0.7042800850380747
 40
0.7502842153448611
 40
0.7502842153448611
 40
0.7894119829068335
 40
0.7894119829068335
 40
0.8225216991404656
 40
0.8225216991404656
 40
0.8505535241757113
 40
0.8505535241757113
 40
0.874443083104413
 40
0.874443083104413
 40
0.895027868548681
 40
0.895027868548681
 40
0.9130430718511274
 40
0.9130430718511274
 40
0.9130430718511274
 10
37.95459218726082
 20
7.936590584122008
 30
0.0
 41
1.0
 10
37.93505223725495
 20
7.942680693356884
 30
0.0
 41
0.9999998972499533
 10
37.91550677372968
 20
7.948753084344562
 30
0.0
 41
1.0
 10
37.89436911278926
 20
7.955320876057694
 30
0.0
 41
0.999999600378785
 10
37.87321974238412
 20
7.961850863001404
 30
0.0
 41
1.0
 10
37.85010814093283
 20
7.968987569503802
 30
0.0
 41
0.9999987392957616
 10
37.82697399139284
 20
7.976050842569908
 30
0.0
 41
1.0
 10
37.80169335499853
 20
7.983770928617115
 30
0.0
 41
0.999996578141385
 10
37.77637267254239
 20
7.991358638748014
 30
0.0
 41
1.0
 10
37.74846739708548
 20
7.999720396860714
 30
0.0
 41
0.9999922812115397
 10
37.72049727600309
 20
8.00786261545877
 30
0.0
 41
1.0
 10
37.69003277309493
 20
8.01672077080407
 30
0.0
 41
0.9999906125127653
 10
37.65949265007373
 20
8.02531459064247
 30
0.0
 41
1.0
 10
37.6272883423817
 20
8.034386055944958
 30
0.0
 41
0.9999904002010442
 10
37.59500577475085
 20
8.043174954841597
 30
0.0
 41
1.0
 10
37.56200261874523
 20
8.052161492082819
 30
0.0
 41
0.999985523974095
 10
37.52890466757272
 20
8.060792354502155
 30
0.0
 41
1.0
 10
37.49462475207149
 20
8.069728773922792
 30
0.0
 41
0.9999795461313021
 10
37.46023333092161
 20
8.078225970526642
 30
0.0
 41
1.0
 10
37.42569698170019
 20
8.08676144525902
 30
0.0
 41
0.9999738371872798
 10
37.39104076554732
 20
8.094796395689349
 30
0.0
 41
1.0
 10
37.35962221426889
 20
8.102089711180966
 30
0.0
 41
0.9999655053629528
 10
37.32808684698669
 20
8.108860119268298
 30
0.0
 41
1.0
 10
37.30154521434613
 20
8.114555906969906
 30
0.0
 41
0.9999552975315221
 10
37.27490062141266
 20
8.119748779794746
 30
0.0
 41
1.0
 10
37.25232184924171
 20
8.124145163832901
 30
0.0
 41
0.999951603366058
 10
37.22966094675341
 20
8.12809644764634
 30
0.0
 41
1.0
 10
37.21038740678104
 20
8.13145820136622
 30
0.0
 41
0.9999506573079607
 10
37.191050883197
 20
8.134436386521974
 30
0.0
 41
1.0
 10
37.17468852997091
 20
8.136957687707312
 30
0.0
 41
0.9999446276555926
 10
37.15827673842627
 20
8.139134074864714
 30
0.0
 41
1.0
 10
37.1443817366476
 20
8.140975520535243
 30
0.0
 41
0.9999381830114642
 10
37.13044922334604
 20
8.14250753544682
 30
0.0
 41
1.0
 10
37.11857543062648
 20
8.143812630190974
 30
0.0
 41
0.9999344590014719
 10
37.10667486880158
 20
8.144845516481412
 30
0.0
 41
1.0
 10
37.09642054064605
 20
8.145735426065926
 30
0.0
 41
0.9999303607910578
 10
37.08614806586937
 20
8.14638307330963
 30
0.0
 41
1.0
 10
37.07715781911072
 20
8.14694895250767
 30
0.0
 41
0.9999272729384641
 10
37.06815653933477
 20
8.147297834210129
 30
0.0
 41
1.0
  0
SPLINE
  5
252
330
1F
100
AcDbEntity
  8
Default
100
AcDbSpline
210
0.0
220
0.0
230
1.0
 70
    24
 71
     2
 72
     6
 73
     3
 74
     0
 42
0.0000000001
 43
0.0000000001
 40
0.0
 40
0.0
 40
0.0
 40
0.1002871374692929
 40
0.1002871374692929
 40
0.1002871374692929
 10
39.03540817541382
 20
2.659084898650105
 30
0.0
 10
39.04314918312086
 20
2.609542449325049
 30
0.0
 10
39.0508901908279
 20
2.559999999999993
 30
0.0
  0
SPLINE
  5
253
330
1F
100
AcDbEntity
  8
Default
100
AcDbSpline
210
0.0
220
0.0
230
1.0
 70
    24
 71
     2
 72
     6
 73
     3
 74
     0
 42
0.0000000001
 43
0.0000000001
 40
0.0
 40
0.0
 40
0.0
 40
0.1002871374692929
 40
0.1002871374692929
 40
0.1002871374692929
 10
39.73839019082809
 20
2.559999999999993
 30
0.0
 10
39.74613119853513
 20
2.609542449325049
 30
0.0
 10
39.75387220624217
 20
2.659084898650105
 30
0.0
  0
SPLINE
  5
254
330
1F
100
AcDbEntity
  8
Default
100
AcDbSpline
210
0.0
220
0.0
230
1.0
 70
    12
 71
     3
 72
    12
 73
     8
 74
     0
 42
0.0000000001
 43
0.0000000001
 40
-0.3265855548606079
 40
-0.3265855548606079
 40
-0.3265855548606079
 40
-0.3265855548606079
 40
-0.2502593957580706
 40
-0.2502593957580706
 40
-0.1251434744293852
 40
-0.1251434744293852
 40
0.0
 40
0.0
 40
0.0
 40
0.0
 10
36.89825800001535
 20
8.08006590100331
 30
0.0
 41
1.0
 10
36.89926641369284
 20
8.086691311634677
 30
0.0
 41
1.0
 10
36.90141791599499
 20
8.093326632710296
 30
0.0
 41
1.0
 10
36.91109568734814
 20
8.110585538891446
 30
0.0
 41
1.0
 10
36.92089172154202
 20
8.121116694457399
 30
0.0
 41
1.0
 10
36.95771645252101
 20
8.138448271008276
 30
0.0
 41
1.0
 10
36.98448737002407
 20
8.145401264377828
 30
0.0
 41
1.0
 10
37.02757277382378
 20
8.147297834903885
 30
0.0
 41
1.0
  0
SPLINE
  5
255
330
1F
100
AcDbEntity
  8
Default
100
AcDbSpline
210
0.0
220
0.0
230
1.0
 70
    12
 71
     2
 72
    10
 73
     7
 74
     0
 42
0.0000000001
 43
0.0000000001
 40
0.0
 40
0.0
 40
0.0
 40
0.0071333852786713
 40
0.0071333852786713
 40
0.0141242748215342
 40
0.0141242748215342
 40
0.0209746380740941
 40
0.0209746380740941
 40
0.0209746380740941
 10
37.06815623729749
 20
8.147297845831531
 30
0.0
 41
1.0
 10
37.06459210911758
 20
8.147434264393492
 30
0.0
 41
0.9999809385415936
 10
37.06102656812622
 20
8.147526661069158
 30
0.0
 41
1.0
 10
37.05753226747682
 20
8.147617867951423
 30
0.0
 41
0.9999802609803023
 10
37.05403709661528
 20
8.147665158249191
 30
0.0
 41
1.0
 10
37.0506121730251
 20
8.147711168084005
 30
0.0
 41
0.9999776685048076
 10
37.04718694041245
 20
8.147711397301187
 30
0.0
 41
1.0
  0
SPLINE
  5
256
330
1F
100
AcDbEntity
  8
Default
100
AcDbSpline
210
0.0
220
0.0
230
1.0
 70
    12
 71
     2
 72
     6
 73
     3
 74
     0
 42
0.0000000001
 43
0.0000000001
 40
0.0
 40
0.0
 40
0.0
 40
0.1180357388021486
 40
0.1180357388021486
 40
0.1180357388021486
 10
24.93614717681345
 20
3.839516775170418
 30
0.0
 41
1.0
 10
24.9295555129396
 20
3.780867979141191
 30
0.0
 41
0.9999951768258929
 10
24.92259966887582
 20
3.722261259887645
 30
0.0
 41
1.0
  0
SPLINE
  5
257
330
1F
100
AcDbEntity
  8
Default
100
AcDbSpline
210
0.0
220
0.0
230
1.0
 70
    12
 71
     2
 72
     6
 73
     3
 74
     0
 42
0.0000000001
 43
0.0000000001
 40
0.0
 40
0.0
 40
0.0
 40
1.194530992737333
 40
1.194530992737333
 40
1.194530992737333
 10
24.24500509541543
 20
3.965315264584984
 30
0.0
 41
1.0
 10
24.21900708838374
 20
3.34157371918238
 30
0.0
 41
0.9999999373647314
 10
24.19377305716936
 20
2.744097279577867
 30
0.0
 41
1.0
  0
CIRCLE
  5
258
330
1F
100
AcDbEntity
  8
Default
100
AcDbCircle
 10
23.73823764608962
 20
1.28000000000001
 30
0.0
 40
1.062500000000005
  0
CIRCLE
  5
259
330
1F
100
AcDbEntity
  8
Default
100
AcDbCircle
 10
23.73823764608962
 20
1.28000000000001
 30
0.0
 40
1.15500000000001
  0
CIRCLE
  5
25A
330
1F
100
AcDbEntity
  8
Default
100
AcDbCircle
 10
23.73823764608962
 20
1.28000000000001
 30
0.0
 40
1.28000000000001
  0
CIRCLE
  5
25B
330
1F
100
AcDbEntity
  8
Default
100
AcDbCircle
 10
38.47401519082799
 20
1.280000000000008
 30
0.0
 40
1.062500000000005
  0
CIRCLE
  5
25C
330
1F
100
AcDbEntity
  8
Default
100
AcDbCircle
 10
38.47401519082799
 20
1.280000000000008
 30
0.0
 40
1.15500000000001
  0
CIRCLE
  5
25D
330
1F
100
AcDbEntity
  8
Default
100
AcDbCircle
 10
38.47401519082799
 20
1.280000000000008
 30
0.0
 40
1.28000000000001
  0
CIRCLE
  5
25E
330
1F
100
AcDbEntity
  8
Default
100
AcDbCircle
 10
47.58122656413379
 20
1.280000000000017
 30
0.0
 40
1.062500000000005
  0
CIRCLE
  5
25F
330
1F
100
AcDbEntity
  8
Default
100
AcDbCircle
 10
47.58122656413379
 20
1.280000000000017
 30
0.0
 40
1.15500000000001
  0
CIRCLE
  5
260
330
1F
100
AcDbEntity
  8
Default
100
AcDbCircle
 10
47.58122656413379
 20
1.280000000000017
 30
0.0
 40
1.28000000000001
  0
SPLINE
  5
261
330
1F
100
AcDbEntity
  8
Default
100
AcDbSpline
210
0.0
220
0.0
230
1.0
 70
    24
 71
     2
 72
     6
 73
     3
 74
     0
 42
0.0000000001
 43
0.0000000001
 40
0.0
 40
0.0
 40
0.0
 40
1.537998882794129
 40
1.537998882794129
 40
1.537998882794129
 10
34.37601136705107
 20
6.079042073524533
 30
0.0
 10
34.39531014275519
 20
5.310261714463016
 30
0.0
 10
34.41460891845928
 20
4.541481355401499
 30
0.0
  0
SPLINE
  5
262
330
1F
100
AcDbEntity
  8
Default
100
AcDbSpline
210
0.0
220
0.0
230
1.0
 70
    12
 71
     2
 72
     6
 73
     3
 74
     0
 42
0.0000000001
 43
0.0000000001
 40
0.0
 40
0.0
 40
0.0
 40
0.3807238872087164
 40
0.3807238872087164
 40
0.3807238872087164
 10
34.41460891845928
 20
4.541481355401499
 30
0.0
 41
1.0
 10
34.43258308511285
 20
4.351913499155474
 30
0.0
 41
0.999921026972745
 10
34.44578719562532
 20
4.162000000000008
 30
0.0
 41
1.0
  0
SPLINE
  5
263
330
1F
100
AcDbEntity
  8
Default
100
AcDbSpline
210
0.0
220
0.0
230
1.0
 70
    24
 71
     2
 72
     6
 73
     3
 74
     0
 42
0.0000000001
 43
0.0000000001
 40
0.0
 40
0.0
 40
0.0
 40
3.275
 40
3.275
 40
3.275
 10
34.44578719562532
 20
4.162000000000008
 30
0.0
 10
34.44578719562532
 20
2.524500000000009
 30
0.0
 10
34.44578719562532
 20
0.8870000000000076
 30
0.0
  0
SPLINE
  5
264
330
1F
100
AcDbEntity
  8
Default
100
AcDbSpline
210
0.0
220
0.0
230
1.0
 70
    12
 71
     2
 72
     6
 73
     3
 74
     0
 42
0.0000000001
 43
0.0000000001
 40
0.0
 40
0.0
 40
0.0
 40
0.1962734020549788
 40
0.1962734020549788
 40
0.1962734020549788
 10
34.44578719562532
 20
0.8870000000000076
 30
0.0
 41
1.0
 10
34.44596454866761
 20
0.7621773529975551
 30
0.0
 41
0.7081107520811522
 10
34.57078719567011
 20
0.762000000000004
 30
0.0
 41
1.0
  0
POLYLINE
  5
265
330
1F
100
AcDbEntity
  8
Default
100
AcDb2dPolyline
 66
     1
 10
0.0
 20
0.0
 30
0.0
  0
VERTEX
  5
266
330
265
100
AcDbEntity
  8
Default
100
AcDbVertex
100
AcDb2dVertex
 10
34.57078719567011
 20
0.762000000000004
 30
0.0
  0
VERTEX
  5
267
330
265
100
AcDbEntity
  8
Default
100
AcDbVertex
100
AcDb2dVertex
 10
36.07275569953639
 20
0.7620000000000076
 30
0.0
  0
SEQEND
  5
268
330
265
100
AcDbEntity
  8
Default
  0
SPLINE
  5
269
330
1F
100
AcDbEntity
  8
Default
100
AcDbSpline
210
0.0
220
0.0
230
1.0
 70
    12
 71
     2
 72
     6
 73
     3
 74
     0
 42
0.0000000001
 43
0.0000000001
 40
0.0
 40
0.0
 40
0.0
 40
0.1962869027771422
 40
0.1962869027771422
 40
0.1962869027771422
 10
36.07275569953639
 20
0.7620000000000076
 30
0.0
 41
1.0
 10
36.19760978812676
 20
0.7621459114096544
 30
0.0
 41
0.7079326620138805
 10
36.19775569956231
 20
0.8870000000000076
 30
0.0
 41
1.0
  0
SPLINE
  5
26A
330
1F
100
AcDbEntity
  8
Default
100
AcDbSpline
210
0.0
220
0.0
230
1.0
 70
    24
 71
     2
 72
     6
 73
     3
 74
     0
 42
0.0000000001
 43
0.0000000001
 40
0.0
 40
0.0
 40
0.0
 40
3.275
 40
3.275
 40
3.275
 10
36.19775569956231
 20
0.8870000000000076
 30
0.0
 10
36.19775569956232
 20
2.524500000000009
 30
0.0
 10
36.19775569956234
 20
4.162000000000008
 30
0.0
  0
SPLINE
  5
26B
330
1F
100
AcDbEntity
  8
Default
100
AcDbSpline
210
0.0
220
0.0
230
1.0
 70
    12
 71
     2
 72
     6
 73
     3
 74
     0
 42
0.0000000001
 43
0.0000000001
 40
0.0
 40
0.0
 40
0.0
 40
0.3807238872087164
 40
0.3807238872087164
 40
0.3807238872087164
 10
36.19775569956234
 20
4.162000000000008
 30
0.0
 41
1.0
 10
36.21095981007477
 20
4.351913499155471
 30
0.0
 41
0.9999210269727451
 10
36.22893397672836
 20
4.541481355401499
 30
0.0
 41
1.0
  0
SPLINE
  5
26C
330
1F
100
AcDbEntity
  8
Default
100
AcDbSpline
210
0.0
220
0.0
230
1.0
 70
    24
 71
     2
 72
     6
 73
     3
 74
     0
 42
0.0000000001
 43
0.0000000001
 40
0.0
 40
0.0
 40
0.0
 40
1.188721026706985
 40
1.188721026706985
 40
1.188721026706985
 10
36.22893397672836
 20
4.541481355401499
 30
0.0
 10
36.24385015362866
 20
5.135677786176551
 30
0.0
 10
36.25876633052897
 20
5.729874216951605
 30
0.0
  0
SPLINE
  5
26D
330
1F
100
AcDbEntity
  8
Default
100
AcDbSpline
210
0.0
220
0.0
230
1.0
 70
     8
 71
     3
 72
     8
 73
     4
 74
     0
 42
0.0000000001
 43
0.0000000001
 40
0.0
 40
0.0
 40
0.0
 40
0.0
 40
1.0
 40
1.0
 40
1.0
 40
1.0
 10
32.48935100142035
 20
23.94496482983232
 30
0.0
 10
32.2086037315603
 20
23.94496673446967
 30
0.0
 10
32.05458567948666
 20
23.73769065450336
 30
0.0
 10
31.98472633410551
 20
23.43905006759243
 30
0.0
  0
SPLINE
  5
26E
330
1F
100
AcDbEntity
  8
Default
100
AcDbSpline
210
0.0
220
0.0
230
1.0
 70
    12
 71
     2
 72
     6
 73
     3
 74
     0
 42
0.0000000001
 43
0.0000000001
 40
-7.651086001007589
 40
-7.651086001007589
 40
-7.651086001007589
 40
0.0
 40
0.0
 40
0.0
 10
31.98472633410551
 20
23.43905006759243
 30
0.0
 41
1.0
 10
31.113361474375
 20
19.71406650664268
 30
0.0
 41
0.9999999999999981
 10
30.24199615354019
 20
15.98908305168152
 30
0.0
 41
1.0
  0
SPLINE
  5
26F
330
1F
100
AcDbEntity
  8
Default
100
AcDbSpline
210
0.0
220
0.0
230
1.0
 70
     8
 71
     3
 72
     8
 73
     4
 74
     0
 42
0.0000000001
 43
0.0000000001
 40
0.0
 40
0.0
 40
0.0
 40
0.0
 40
1.0
 40
1.0
 40
1.0
 40
1.0
 10
30.24199615354019
 20
15.98908305168152
 30
0.0
 10
30.12607574083818
 20
15.49353702858117
 30
0.0
 10
30.3236552928453
 20
15.15626583391724
 30
0.0
 10
30.74600311444622
 20
15.11020367287932
 30
0.0
  0
SPLINE
  5
270
330
1F
100
AcDbEntity
  8
Default
100
AcDbSpline
210
0.0
220
0.0
230
1.0
 70
     8
 71
     3
 72
    10
 73
     6
 74
     0
 42
0.0000000001
 43
0.0000000001
 40
-3.0
 40
-3.0
 40
-3.0
 40
-3.0
 40
-2.0
 40
-1.0
 40
0.0
 40
0.0
 40
0.0
 40
0.0
 10
30.74600311444622
 20
15.11020367287932
 30
0.0
 10
31.4566299195249
 20
15.03270118639954
 30
0.0
 10
32.88885208715559
 20
14.98268370918674
 30
0.0
 10
35.03444386612932
 20
14.97006566749001
 30
0.0
 10
36.46757028003424
 20
14.99627099605126
 30
0.0
 10
37.17840890863616
 20
15.07194393181388
 30
0.0
  0
SPLINE
  5
271
330
1F
100
AcDbEntity
  8
Default
100
AcDbSpline
210
0.0
220
0.0
230
1.0
 70
     8
 71
     3
 72
     8
 73
     4
 74
     0
 42
0.0000000001
 43
0.0000000001
 40
-1.0
 40
-1.0
 40
-1.0
 40
-1.0
 40
0.0
 40
0.0
 40
0.0
 40
0.0
 10
37.17840890863616
 20
15.07194393181388
 30
0.0
 10
37.61550517020751
 20
15.11847538915607
 30
0.0
 10
37.93711872843006
 20
15.45315225426013
 30
0.0
 10
37.85411905106458
 20
15.98916995336185
 30
0.0
  0
SPLINE
  5
272
330
1F
100
AcDbEntity
  8
Default
100
AcDbSpline
210
0.0
220
0.0
230
1.0
 70
    12
 71
     2
 72
     6
 73
     3
 74
     0
 42
0.0000000001
 43
0.0000000001
 40
0.0
 40
0.0
 40
0.0
 40
7.538743214639539
 40
7.538743214639539
 40
7.538743214639539
 10
37.85411905106458
 20
15.98916995336185
 30
0.0
 41
1.0
 10
37.27732452325398
 20
19.71414919984824
 30
0.0
 41
0.9999999999924898
 10
36.70055886862125
 20
23.43913291712573
 30
0.0
 41
1.0
  0
SPLINE
  5
273
330
1F
100
AcDbEntity
  8
Default
100
AcDbSpline
210
0.0
220
0.0
230
1.0
 70
     8
 71
     3
 72
     8
 73
     4
 74
     0
 42
0.0000000001
 43
0.0000000001
 40
0.0
 40
0.0
 40
0.0
 40
0.0
 40
1.0
 40
1.0
 40
1.0
 40
1.0
 10
36.70055886862125
 20
23.43913291712573
 30
0.0
 10
36.65023102739435
 20
23.76417028297809
 30
0.0
 10
36.45043376888756
 20
23.94493848224927
 30
0.0
 10
36.12435099776282
 20
23.94494061457531
 30
0.0
  0
SPLINE
  5
274
330
1F
100
AcDbEntity
  8
Default
100
AcDbSpline
210
0.0
220
0.0
230
1.0
 70
    12
 71
     2
 72
     6
 73
     3
 74
     0
 42
0.0000000001
 43
0.0000000001
 40
-3.634999996423143
 40
-3.634999996423143
 40
-3.634999996423143
 40
0.0
 40
0.0
 40
0.0
 10
36.12435099776282
 20
23.94494061457531
 30
0.0
 41
1.0
 10
34.3068509995901
 20
23.9449524996024
 30
0.0
 41
0.9999999999999925
 10
32.48935100142035
 20
23.94496482983232
 30
0.0
 41
1.0
  0
SPLINE
  5
275
330
1F
100
AcDbEntity
  8
Default
100
AcDbSpline
210
0.0
220
0.0
230
1.0
 70
     8
 71
     3
 72
    34
 73
    30
 74
     0
 42
0.0000000001
 43
0.0000000001
 40
0.0
 40
0.0
 40
0.0
 40
0.0
 40
1.0
 40
2.0
 40
3.0
 40
4.0
 40
5.0
 40
6.0
 40
7.0
 40
8.0
 40
9.0
 40
10.0
 40
11.0
 40
12.0
 40
13.0
 40
14.0
 40
15.0
 40
16.0
 40
17.0
 40
18.0
 40
19.0
 40
20.0
 40
21.0
 40
22.0
 40
23.0
 40
24.0
 40
25.0
 40
26.0
 40
27.0
 40
27.0
 40
27.0
 40
27.0
 10
28.3915181910946
 20
14.73747308463562
 30
0.0
 10
28.20774259433313
 20
14.94398372975805
 30
0.0
 10
28.03663788445501
 20
15.48190131047646
 30
0.0
 10
28.1415037305203
 20
16.30113740012815
 30
0.0
 10
28.25639619489418
 20
17.1077774951484
 30
0.0
 10
28.40420899884805
 20
17.91229273294276
 30
0.0
 10
28.54172564840877
 20
18.71763400219596
 30
0.0
 10
28.68069521092236
 20
19.52298216328537
 30
0.0
 10
28.81733613888487
 20
20.32865268100347
 30
0.0
 10
28.95502362811635
 20
21.13419161549434
 30
0.0
 10
29.07320530238103
 20
21.94286090169198
 30
0.0
 10
29.17394791928562
 20
22.75389342366277
 30
0.0
 10
29.23714759909128
 20
23.5690669971681
 30
0.0
 10
29.23819178963553
 20
24.38697425592288
 30
0.0
 10
29.17401035437353
 20
25.20211629141372
 30
0.0
 10
29.05351455224447
 20
26.01113158956075
 30
0.0
 10
28.8656100520295
 20
26.80686428814699
 30
0.0
 10
28.65508661836785
 20
27.59647718320759
 30
0.0
 10
28.41917706827072
 20
28.37900612122484
 30
0.0
 10
28.16332968729603
 20
29.15516096019638
 30
0.0
 10
27.89307277812962
 20
29.92639926751595
 30
0.0
 10
27.61416803628232
 20
30.69453416921965
 30
0.0
 10
27.33179089070435
 20
31.46138623712198
 30
0.0
 10
27.05281179344065
 20
32.22951556106441
 30
0.0
 10
26.7777339972381
 20
32.99892388703989
 30
0.0
 10
26.53446326776198
 20
33.78001275465711
 30
0.0
 10
26.34819111747867
 20
34.57403651845342
 30
0.0
 10
26.25283328227519
 20
35.39554685857311
 30
0.0
 10
26.44160151124041
 20
35.92482769042126
 30
0.0
 10
26.57990459390759
 20
36.1582334571495
 30
0.0
  0
SPLINE
  5
276
330
1F
100
AcDbEntity
  8
Default
100
AcDbSpline
210
0.0
220
0.0
230
1.0
 70
     8
 71
     3
 72
    12
 73
     8
 74
     0
 42
0.0000000001
 43
0.0000000001
 40
0.0
 40
0.0
 40
0.0
 40
0.0
 40
0.6978690049512207
 40
1.491606399257186
 40
3.521468567986739
 40
6.829957996285679
 40
9.53559738092193
 40
9.53559738092193
 40
9.53559738092193
 40
9.53559738092193
 10
30.98808904767292
 20
24.56714323537485
 30
0.0
 10
30.97160769478969
 20
24.79938034530926
 30
0.0
 10
30.91594572471707
 20
25.29308246322156
 30
0.0
 10
30.7181166799343
 20
26.45165925467727
 30
0.0
 10
30.2057038639386
 20
28.43113022795031
 30
0.0
 10
29.42347722694671
 20
30.99633121510415
 30
0.0
 10
28.78212600521712
 20
32.8958654128523
 30
0.0
 10
28.46148669945183
 20
33.73906220565052
 30
0.0
  0
SPLINE
  5
277
330
1F
100
AcDbEntity
  8
Default
100
AcDbSpline
210
0.0
220
0.0
230
1.0
 70
     8
 71
     3
 72
     8
 73
     4
 74
     0
 42
0.0000000001
 43
0.0000000001
 40
-1.0
 40
-1.0
 40
-1.0
 40
-1.0
 40
0.0
 40
0.0
 40
0.0
 40
0.0
 10
28.46148669945183
 20
33.73906220565052
 30
0.0
 10
28.3287116182316
 20
34.08822564455335
 30
0.0
 10
28.08191130167959
 20
34.69007192496158
 30
0.0
 10
27.9185195998946
 20
35.02550116318842
 30
0.0
  0
SPLINE
  5
278
330
1F
100
AcDbEntity
  8
Default
100
AcDbSpline
210
0.0
220
0.0
230
1.0
 70
    12
 71
     2
 72
     6
 73
     3
 74
     0
 42
0.0000000001
 43
0.0000000001
 40
0.0
 40
0.0
 40
0.0
 40
1.577876585638125
 40
1.577876585638125
 40
1.577876585638125
 10
27.9185195998946
 20
35.02550116318842
 30
0.0
 41
1.0
 10
27.55989312785858
 20
35.76173074528381
 30
0.0
 41
0.9459593623031665
 10
26.82500113553048
 20
36.1230902665495
 30
0.0
 41
1.0
  0
SPLINE
  5
279
330
1F
100
AcDbEntity
  8
Default
100
AcDbSpline
210
0.0
220
0.0
230
1.0
 70
     8
 71
     3
 72
     8
 73
     4
 74
     0
 42
0.0000000001
 43
0.0000000001
 40
0.0
 40
0.0
 40
0.0
 40
0.0
 40
1.0
 40
1.0
 40
1.0
 40
1.0
 10
26.82500113553048
 20
36.1230902665495
 30
0.0
 10
26.69628768382904
 20
36.18638097018058
 30
0.0
 10
26.59061632334614
 20
36.25905508059419
 30
0.0
 10
26.52298632106071
 20
36.16876646117806
 30
0.0
  0
SPLINE
  5
27A
330
1F
100
AcDbEntity
  8
Default
100
AcDbSpline
210
0.0
220
0.0
230
1.0
 70
    12
 71
     3
 72
    21
 73
    17
 74
     0
 42
0.0000000001
 43
0.0000000001
 40
-10.81071738137563
 40
-10.81071738137563
 40
-10.81071738137563
 40
-10.81071738137563
 40
-10.61943199387847
 40
-10.41065401474158
 40
-9.952745306011007
 40
-8.831010938746507
 40
-8.831010938746507
 40
-8.831010938746507
 40
-8.335207797199331
 40
-7.709139351589491
 40
-4.088267346372885
 40
-2.40707919533349
 40
0.0
 40
0.0
 40
0.0
 40
0.5495338626750884
 40
0.5495338626750884
 40
0.5495338626750884
 40
0.5495338626750884
 10
26.52298632106071
 20
36.16876646117806
 30
0.0
 41
1.0
 10
26.48476085153823
 20
36.11773400881836
 30
0.0
 41
1.0
 10
26.41395915364074
 20
36.00421968791915
 30
0.0
 41
1.0
 10
26.30151700050521
 20
35.74034515918556
 30
0.0
 41
1.0
 10
26.1905164767271
 20
35.14937126611086
 30
0.0
 41
1.0
 10
26.26066772617849
 20
34.61898213096883
 30
0.0
 41
1.0
 10
26.34183661855107
 20
34.25517825237632
 30
0.0
 41
1.0
 10
26.38030736329787
 20
34.09470636979462
 30
0.0
 41
1.0
 10
26.46850135836916
 20
33.73045245769653
 30
0.0
 41
1.0
 10
26.96618226870508
 20
32.23006185757975
 30
0.0
 41
1.0
 10
27.62341657068776
 20
30.36616694256681
 30
0.0
 41
1.0
 10
28.42694515243932
 20
27.9254672234133
 30
0.0
 41
1.0
 10
28.78079987114818
 20
26.60749675521432
 30
0.0
 41
1.0
 10
28.9227992803929
 20
25.72435833204771
 30
0.0
 41
1.0
 10
28.95059428216631
 20
25.54297963448518
 30
0.0
 41
0.9965379318750025
 10
28.99670572578448
 20
25.36537183955344
 30
0.0
 41
0.9965379318750025
 10
29.09788350521909
 20
25.15291895454252
 30
0.0
 41
1.0
  0
ARC
  5
27B
330
1F
100
AcDbEntity
  8
Default
100
AcDbCircle
 10
25.44171878466944
 20
24.36855689855086
 30
0.0
 40
3.739353459980936
100
AcDbArc
 50
358.3264434133746
 51
12.10821394940824
  0
SPLINE
  5
27C
330
1F
100
AcDbEntity
  8
Default
100
AcDbSpline
210
0.0
220
0.0
230
1.0
 70
     8
 71
     3
 72
     8
 73
     4
 74
     0
 42
0.0000000001
 43
0.0000000001
 40
-1.0
 40
-1.0
 40
-1.0
 40
-1.0
 40
0.0
 40
0.0
 40
0.0
 40
0.0
 10
29.17947720610227
 20
24.25934938196264
 30
0.0
 10
29.0889377190642
 20
24.00040696085904
 30
0.0
 10
29.04176134825236
 20
23.72606337313648
 30
0.0
 10
29.04450865115209
 20
23.45164057168225
 30
0.0
  0
SPLINE
  5
27D
330
1F
100
AcDbEntity
  8
Default
100
AcDbSpline
210
0.0
220
0.0
230
1.0
 70
     8
 71
     3
 72
    13
 73
     9
 74
     0
 42
0.0000000001
 43
0.0000000001
 40
-9.315329735351103
 40
-9.315329735351103
 40
-9.315329735351103
 40
-9.315329735351103
 40
-7.227931403876212
 40
-2.611698489636925
 40
-1.754933715698675
 40
-0.7731504062637823
 40
-0.369387962288207
 40
0.0
 40
0.0
 40
0.0
 40
0.0
 10
29.04450865115209
 20
23.45164057168225
 30
0.0
 10
29.00159522493414
 20
22.71891720843766
 30
0.0
 10
28.69124812454064
 20
20.50474271994053
 30
0.0
 10
28.19399056480928
 20
18.03331299757111
 30
0.0
 10
27.83594948952615
 20
15.91192343048398
 30
0.0
 10
27.79831851004922
 20
15.16164362167393
 30
0.0
 10
27.8847678872751
 20
14.58099803852259
 30
0.0
 10
27.97029203516018
 20
14.33634938725384
 30
0.0
 10
28.01974477613165
 20
14.22383415126383
 30
0.0
  0
SPLINE
  5
27E
330
1F
100
AcDbEntity
  8
Default
100
AcDbSpline
210
0.0
220
0.0
230
1.0
 70
     8
 71
     3
 72
    12
 73
     8
 74
     0
 42
0.0000000001
 43
0.0000000001
 40
0.0
 40
0.0
 40
0.0
 40
0.0
 40
1.0
 40
2.0
 40
3.0
 40
4.0
 40
5.0
 40
5.0
 40
5.0
 40
5.0
 10
30.14048160426481
 20
21.33785521586179
 30
0.0
 10
30.31642435156441
 20
22.35450404621251
 30
0.0
 10
30.45442833395062
 20
24.4410648243974
 30
0.0
 10
29.80177846021685
 20
27.4851443653697
 30
0.0
 10
28.90386057990023
 20
30.45331795539342
 30
0.0
 10
27.8336211838533
 20
33.36463038468231
 30
0.0
 10
27.05403847810661
 20
35.28015348713627
 30
0.0
 10
26.60377978328706
 20
36.21112187817302
 30
0.0
  0
POLYLINE
  5
27F
330
1F
100
AcDbEntity
  8
Default
100
AcDb2dPolyline
 66
     1
 10
0.0
 20
0.0
 30
0.0
  0
VERTEX
  5
280
330
27F
100
AcDbEntity
  8
Default
100
AcDbVertex
100
AcDb2dVertex
 10
32.56992462642999
 20
11.9700712026569
 30
0.0
  0
VERTEX
  5
281
330
27F
100
AcDbEntity
  8
Default
100
AcDbVertex
100
AcDb2dVertex
 10
32.56992462642999
 20
11.79289510790186
 30
0.0
  0
SEQEND
  5
282
330
27F
100
AcDbEntity
  8
Default
  0
SPLINE
  5
283
330
1F
100
AcDbEntity
  8
Default
100
AcDbSpline
210
0.0
220
0.0
230
1.0
 70
     8
 71
     3
 72
    10
 73
     6
 74
     0
 42
0.0000000001
 43
0.0000000001
 40
0.0
 40
0.0
 40
0.0
 40
0.0
 40
1.0
 40
2.0
 40
3.0
 40
3.0
 40
3.0
 40
3.0
 10
32.56992462642999
 20
11.79289510790186
 30
0.0
 10
33.21909172933673
 20
11.67724212476167
 30
0.0
 10
34.53027014320048
 20
11.5390186732908
 30
0.0
 10
36.51264704762014
 20
11.51002362463572
 30
0.0
 10
37.81916334386705
 20
11.72553747151446
 30
0.0
 10
38.45312947590731
 20
11.9065240571935
 30
0.0
  0
POLYLINE
  5
284
330
1F
100
AcDbEntity
  8
Default
100
AcDb2dPolyline
 66
     1
 10
0.0
 20
0.0
 30
0.0
  0
VERTEX
  5
285
330
284
100
AcDbEntity
  8
Default
100
AcDbVertex
100
AcDb2dVertex
 10
38.45312947590731
 20
11.9065240571935
 30
0.0
  0
VERTEX
  5
286
330
284
100
AcDbEntity
  8
Default
100
AcDbVertex
100
AcDb2dVertex
 10
38.45312947590731
 20
12.14261785145706
 30
0.0
  0
SEQEND
  5
287
330
284
100
AcDbEntity
  8
Default
  0
SPLINE
  5
288
330
1F
100
AcDbEntity
  8
Default
100
AcDbSpline
210
0.0
220
0.0
230
1.0
 70
    12
 71
     2
 72
     6
 73
     3
 74
     0
 42
0.0000000001
 43
0.0000000001
 40
0.0
 40
0.0
 40
0.0
 40
0.1427447406128625
 40
0.1427447406128625
 40
0.1427447406128625
 10
32.36102276943277
 20
11.8311572831735
 30
0.0
 41
1.0
 10
32.36304353113358
 20
11.90252336882869
 30
0.0
 41
0.9995311447570617
 10
32.36069231235259
 20
11.97387933164778
 30
0.0
 41
1.0
  0
ARC
  5
289
330
1F
100
AcDbEntity
  8
Default
100
AcDbCircle
 10
32.42121758553501
 20
9.549463403434164
 30
0.0
 40
2.425171313880667
100
AcDbArc
 50
80.14379119193308
 51
91.43008569481334
  0
ARC
  5
28A
330
1F
100
AcDbEntity
  8
Default
100
AcDbCircle
 10
35.13520315981121
 20
25.17038170872143
 30
0.0
 40
13.42975872058616
100
AcDbArc
 50
260.143791191933
 51
283.2006519266491
  0
ARC
  5
28B
330
1F
100
AcDbEntity
  8
Default
100
AcDbCircle
 10
38.85276764123766
 20
9.321275823436505
 30
0.0
 40
2.849505483810082
100
AcDbArc
 50
93.59181821722838
 51
103.2006519266491
  0
SPLINE
  5
28C
330
1F
100
AcDbEntity
  8
Default
100
AcDbSpline
210
0.0
220
0.0
230
1.0
 70
    12
 71
     2
 72
     6
 73
     3
 74
     0
 42
0.0000000001
 43
0.0000000001
 40
0.0
 40
0.0
 40
0.0
 40
0.1878698048744683
 40
0.1878698048744683
 40
0.1878698048744683
 10
38.67425181706358
 20
12.16518397996744
 30
0.0
 41
1.0
 10
38.67446895137708
 20
12.07124932848456
 30
0.0
 41
0.9999999999467437
 10
38.67468414678645
 20
11.97731467253983
 30
0.0
 41
1.0
  0
SPLINE
  5
28D
330
1F
100
AcDbEntity
  8
Default
100
AcDbSpline
210
0.0
220
0.0
230
1.0
 70
     8
 71
     3
 72
     8
 73
     4
 74
     0
 42
0.0000000001
 43
0.0000000001
 40
0.0
 40
0.0
 40
0.0
 40
0.0
 40
1.0
 40
1.0
 40
1.0
 40
1.0
 10
38.67468414678645
 20
11.97731467253983
 30
0.0
 10
39.02549325686651
 20
12.09402055687402
 30
0.0
 10
39.36117732483419
 20
12.25011378102364
 30
0.0
 10
39.69691210583584
 20
12.40360214609391
 30
0.0
  0
SPLINE
  5
28E
330
1F
100
AcDbEntity
  8
Default
100
AcDbSpline
210
0.0
220
0.0
230
1.0
 70
    12
 71
     2
 72
     6
 73
     3
 74
     0
 42
0.0000000001
 43
0.0000000001
 40
0.0
 40
0.0
 40
0.0
 40
1.845112980275748
 40
1.845112980275748
 40
1.845112980275748
 10
39.69691210583584
 20
12.40360214609391
 30
0.0
 41
1.0
 10
39.5346658890346
 20
13.31213657520773
 30
0.0
 41
0.9994292585608844
 10
39.43413737019483
 20
14.22955287147206
 30
0.0
 41
1.0
  0
SPLINE
  5
28F
330
1F
100
AcDbEntity
  8
Default
100
AcDbSpline
210
0.0
220
0.0
230
1.0
 70
     8
 71
     3
 72
    16
 73
    12
 74
     0
 42
0.0000000001
 43
0.0000000001
 40
0.0
 40
0.0
 40
0.0
 40
0.0
 40
1.0
 40
2.0
 40
3.0
 40
4.0
 40
5.0
 40
6.0
 40
7.0
 40
8.0
 40
9.0
 40
9.0
 40
9.0
 40
9.0
 10
39.43413737019483
 20
14.22955287147206
 30
0.0
 10
39.07326240703122
 20
14.01819972037687
 30
0.0
 10
38.25745113577391
 20
13.83779308942602
 30
0.0
 10
37.03460939262754
 20
13.62902019829209
 30
0.0
 10
35.79313738029661
 20
13.53916030870733
 30
0.0
 10
34.55046919588909
 20
13.52804885026352
 30
0.0
 10
33.30845492046436
 20
13.57893480342674
 30
0.0
 10
32.06994817327305
 20
13.68190666494677
 30
0.0
 10
30.83727296495508
 20
13.84482527506452
 30
0.0
 10
29.61760536062189
 20
14.07978680673783
 30
0.0
 10
28.80965862488953
 20
14.27353409455362
 30
0.0
 10
28.43079222892151
 20
14.44486325136518
 30
0.0
  0
SPLINE
  5
290
330
1F
100
AcDbEntity
  8
Default
100
AcDbSpline
210
0.0
220
0.0
230
1.0
 70
    12
 71
     2
 72
     6
 73
     3
 74
     0
 42
0.0000000001
 43
0.0000000001
 40
0.0
 40
0.0
 40
0.0
 40
0.9771193592266089
 40
0.9771193592266089
 40
0.9771193592266089
 10
28.43079222892151
 20
14.44486325136518
 30
0.0
 41
1.0
 10
28.14984949807343
 20
14.0451294134351
 30
0.0
 41
0.9999202020473666
 10
27.84723114583968
 20
13.63507478437081
 30
0.0
 41
1.0
  0
SPLINE
  5
291
330
1F
100
AcDbEntity
  8
Default
100
AcDbSpline
210
0.0
220
0.0
230
1.0
 70
     8
 71
     3
 72
    10
 73
     6
 74
     0
 42
0.0000000001
 43
0.0000000001
 40
-3.0
 40
-3.0
 40
-3.0
 40
-3.0
 40
-2.0
 40
-1.0
 40
0.0
 40
0.0
 40
0.0
 40
0.0
 10
27.84723114583968
 20
13.63507478437081
 30
0.0
 10
28.23601233194557
 20
13.24264970388297
 30
0.0
 10
29.21689821330343
 20
12.74096770292388
 30
0.0
 10
30.7624520349575
 20
12.19622058223413
 30
0.0
 10
31.82438106810667
 20
11.9326839438134
 30
0.0
 10
32.36102276943277
 20
11.8311572831735
 30
0.0
  0
POLYLINE
  5
292
330
1F
100
AcDbEntity
  8
Default
100
AcDb2dPolyline
 66
     1
 10
0.0
 20
0.0
 30
0.0
  0
VERTEX
  5
293
330
292
100
AcDbEntity
  8
Default
100
AcDbVertex
100
AcDb2dVertex
 10
27.84723114583968
 20
13.63507478437081
 30
0.0
  0
VERTEX
  5
294
330
292
100
AcDbEntity
  8
Default
100
AcDbVertex
100
AcDb2dVertex
 10
27.94773126341033
 20
14.11757822487517
 30
0.0
  0
SEQEND
  5
295
330
292
100
AcDbEntity
  8
Default
  0
SPLINE
  5
296
330
1F
100
AcDbEntity
  8
Default
100
AcDbSpline
210
0.0
220
0.0
230
1.0
 70
    12
 71
     2
 72
     6
 73
     3
 74
     0
 42
0.0000000001
 43
0.0000000001
 40
0.0
 40
0.0
 40
0.0
 40
1.01361036859142
 40
1.01361036859142
 40
1.01361036859142
 10
27.94773126341033
 20
14.11757822487517
 30
0.0
 41
1.0
 10
28.23319264500629
 20
14.53643784949451
 30
0.0
 41
0.9997662082467698
 10
28.53649638254891
 20
14.94256397314529
 30
0.0
 41
1.0
  0
POLYLINE
  5
297
330
1F
100
AcDbEntity
  8
Default
100
AcDb2dPolyline
 66
     1
 10
0.0
 20
0.0
 30
0.0
  0
VERTEX
  5
298
330
297
100
AcDbEntity
  8
Default
100
AcDbVertex
100
AcDb2dVertex
 10
28.53649638254891
 20
14.94256397314529
 30
0.0
  0
VERTEX
  5
299
330
297
100
AcDbEntity
  8
Default
100
AcDbVertex
100
AcDb2dVertex
 10
28.43079222892151
 20
14.44486325136518
 30
0.0
  0
SEQEND
  5
29A
330
297
100
AcDbEntity
  8
Default
  0
LINE
  5
29B
330
1F
100
AcDbEntity
  8
Default
100
AcDbLine
 10
31.23593002713343
 20
24.62009143389702
 30
0.0
 11
31.71716082472783
 21
24.62993180461231
 31
0.0
  0
SPLINE
  5
29C
330
1F
100
AcDbEntity
  8
Default
100
AcDbSpline
210
0.0
220
0.0
230
1.0
 70
    12
 71
     2
 72
     6
 73
     3
 74
     0
 42
0.0000000001
 43
0.0000000001
 40
0.0
 40
0.0
 40
0.0
 40
9.784371204744486
 40
9.784371204744486
 40
9.784371204744486
 10
31.71716082472783
 20
24.62993180461231
 30
0.0
 41
1.0
 10
36.61299601188839
 20
24.62994115700886
 30
0.0
 41
0.9999999999999728
 10
41.50518161425531
 20
24.62993387992567
 30
0.0
 41
1.0
  0
ARC
  5
29D
330
1F
100
AcDbEntity
  8
Default
100
AcDbCircle
 10
41.40853138316975
 20
24.66540080493301
 30
0.0
 40
0.1029522701953149
100
AcDbArc
 50
339.8488013924592
 51
56.12134167573056
  0
SPLINE
  5
29E
330
1F
100
AcDbEntity
  8
Default
100
AcDbSpline
210
0.0
220
0.0
230
1.0
 70
     8
 71
     3
 72
    19
 73
    15
 74
     0
 42
0.0000000001
 43
0.0000000001
 40
0.0
 40
0.0
 40
0.0
 40
0.0
 40
1.0
 40
2.0
 40
3.0
 40
4.0
 40
5.0
 40
6.0
 40
7.0
 40
8.0
 40
9.0
 40
10.0
 40
11.0
 40
12.0
 40
12.0
 40
12.0
 40
12.0
 10
41.46592067510222
 20
24.75087383640996
 30
0.0
 10
41.22044732532832
 20
24.91569239365996
 30
0.0
 10
40.64156987379344
 20
24.98003470464265
 30
0.0
 10
39.78071600224355
 20
24.97111681977298
 30
0.0
 10
38.9177555077755
 20
24.9805167459728
 30
0.0
 10
38.05533845681698
 20
24.97786657295817
 30
0.0
 10
37.19278563097819
 20
24.97404344212747
 30
0.0
 10
36.33028713655906
 20
24.9670818175354
 30
0.0
 10
35.46780492051005
 20
24.95818804804008
 30
0.0
 10
34.60532017133752
 20
24.9472525675621
 30
0.0
 10
33.74294363994927
 20
24.93625742815509
 30
0.0
 10
32.88024208028445
 20
24.91953630868253
 30
0.0
 10
32.02035665745247
 20
24.85622689742533
 30
0.0
 10
31.44634318220528
 20
24.80514232747264
 30
0.0
 10
31.16912612362878
 20
24.72417459996232
 30
0.0
  0
ARC
  5
29F
330
1F
100
AcDbEntity
  8
Default
100
AcDbCircle
 10
31.20134157904694
 20
24.61387542192764
 30
0.0
 40
0.1149075465012071
100
AcDbArc
 50
106.2816791686184
 51
182.1477771505234
  0
ARC
  5
2A0
330
1F
100
AcDbEntity
  8
Default
100
AcDbCircle
 10
31.26664952672072
 20
23.11779342950168
 30
0.0
 40
1.502612052948172
100
AcDbArc
 50
91.1714402949653
 51
96.88523998835828
  0
SPLINE
  5
2A1
330
1F
100
AcDbEntity
  8
Default
100
AcDbSpline
210
0.0
220
0.0
230
1.0
 70
    12
 71
     2
 72
     6
 73
     3
 74
     0
 42
0.0000000001
 43
0.0000000001
 40
0.0
 40
0.0
 40
0.0
 40
0.4587310834158679
 40
0.4587310834158679
 40
0.4587310834158679
 10
31.20090995900531
 20
24.61908595574716
 30
0.0
 41
1.0
 10
30.9527329462203
 20
24.6211104573952
 30
0.0
 41
0.752067199479363
 10
30.88413617635775
 20
24.35033221739666
 30
0.0
 41
1.0
  0
POLYLINE
  5
2A2
330
1F
100
AcDbEntity
  8
Default
100
AcDb2dPolyline
 66
     1
 10
0.0
 20
0.0
 30
0.0
  0
VERTEX
  5
2A3
330
2A2
100
AcDbEntity
  8
Default
100
AcDbVertex
100
AcDb2dVertex
 10
30.88413617635775
 20
24.35033221739666
 30
0.0
  0
VERTEX
  5
2A4
330
2A2
100
AcDbEntity
  8
Default
100
AcDbVertex
100
AcDb2dVertex
 10
28.93971948752993
 20
15.98821672499792
 30
0.0
  0
SEQEND
  5
2A5
330
2A2
100
AcDbEntity
  8
Default
  0
SPLINE
  5
2A6
330
1F
100
AcDbEntity
  8
Default
100
AcDbSpline
210
0.0
220
0.0
230
1.0
 70
    12
 71
     2
 72
     6
 73
     3
 74
     0
 42
0.0000000001
 43
0.0000000001
 40
0.0
 40
0.0
 40
0.0
 40
1.578187189048761
 40
1.578187189048761
 40
1.578187189048761
 10
28.93971948752993
 20
15.98821672499792
 30
0.0
 41
1.0
 10
28.80032161032792
 20
15.20652587484443
 30
0.0
 41
0.9907139542829982
 10
28.44432077533148
 20
14.46960990620419
 30
0.0
 41
1.0
  0
SPLINE
  5
2A7
330
1F
100
AcDbEntity
  8
Default
100
AcDbSpline
210
0.0
220
0.0
230
1.0
 70
     8
 71
     3
 72
    16
 73
    12
 74
     0
 42
0.0000000001
 43
0.0000000001
 40
0.0
 40
0.0
 40
0.0
 40
0.0
 40
1.0
 40
2.0
 40
3.0
 40
4.0
 40
5.0
 40
6.0
 40
7.0
 40
8.0
 40
9.0
 40
9.0
 40
9.0
 40
9.0
 10
28.44432077533148
 20
14.46960990620419
 30
0.0
 10
28.82330337831312
 20
14.30053716005915
 30
0.0
 10
29.63135377479627
 20
14.11442294945887
 30
0.0
 10
30.85011861623964
 20
13.88929250559549
 30
0.0
 10
32.08121014725633
 20
13.73472688280107
 30
0.0
 10
33.31741805335941
 20
13.63646439882497
 30
0.0
 10
34.55675082584624
 20
13.5852145833713
 30
0.0
 10
35.79680974874236
 20
13.59462069724846
 30
0.0
 10
37.03575580217012
 20
13.68316946347283
 30
0.0
 10
38.25624318034122
 20
13.89044602038983
 30
0.0
 10
39.07041234829622
 20
14.06880134746248
 30
0.0
 10
39.43183858735505
 20
14.27730040569092
 30
0.0
  0
POLYLINE
  5
2A8
330
1F
100
AcDbEntity
  8
Default
100
AcDb2dPolyline
 66
     1
 10
0.0
 20
0.0
 30
0.0
  0
VERTEX
  5
2A9
330
2A8
100
AcDbEntity
  8
Default
100
AcDbVertex
100
AcDb2dVertex
 10
39.43183858735505
 20
14.27730040569092
 30
0.0
  0
VERTEX
  5
2AA
330
2A8
100
AcDbEntity
  8
Default
100
AcDbVertex
100
AcDb2dVertex
 10
38.05910964203289
 20
23.44023849708596
 30
0.0
  0
SEQEND
  5
2AB
330
2A8
100
AcDbEntity
  8
Default
  0
SPLINE
  5
2AC
330
1F
100
AcDbEntity
  8
Default
100
AcDbSpline
210
0.0
220
0.0
230
1.0
 70
     8
 71
     3
 72
     8
 73
     4
 74
     0
 42
0.0000000001
 43
0.0000000001
 40
0.0
 40
0.0
 40
0.0
 40
0.0
 40
1.0
 40
1.0
 40
1.0
 40
1.0
 10
38.05910964203289
 20
23.44023849708596
 30
0.0
 10
37.99811998395481
 20
23.84734323767524
 30
0.0
 10
38.26258189849931
 20
24.02197257248299
 30
0.0
 10
38.70436576229306
 20
24.04466703145189
 30
0.0
  0
SPLINE
  5
2AD
330
1F
100
AcDbEntity
  8
Default
100
AcDbSpline
210
0.0
220
0.0
230
1.0
 70
    12
 71
     2
 72
     6
 73
     3
 74
     0
 42
0.0000000001
 43
0.0000000001
 40
0.0
 40
0.0
 40
0.0
 40
1.938395960932932
 40
1.938395960932932
 40
1.938395960932932
 10
38.70436576229306
 20
24.04466703145189
 30
0.0
 41
1.0
 10
39.67236543308631
 20
24.09439322249492
 30
0.0
 41
0.9998791916157809
 10
40.63894041982154
 20
24.17423267900222
 30
0.0
 41
1.0
  0
SPLINE
  5
2AE
330
1F
100
AcDbEntity
  8
Default
100
AcDbSpline
210
0.0
220
0.0
230
1.0
 70
     8
 71
     3
 72
    11
 73
     7
 74
     0
 42
0.0000000001
 43
0.0000000001
 40
0.0
 40
0.0
 40
0.0
 40
0.0
 40
0.3160124908430086
 40
0.5666082679233622
 40
0.7872492670022833
 40
0.9775020363256344
 40
0.9775020363256344
 40
0.9775020363256344
 40
0.9775020363256344
 10
40.63894041982154
 20
24.17423267900222
 30
0.0
 10
40.7443535137869
 20
24.18339659549342
 30
0.0
 10
40.93226739353202
 20
24.20970765590758
 30
0.0
 10
41.18145277944787
 20
24.29582683164525
 30
0.0
 10
41.36606434943013
 20
24.42241284790876
 30
0.0
 10
41.4414810049519
 20
24.54058059505416
 30
0.0
 10
41.46152507874643
 20
24.60083937809743
 30
0.0
  0
POLYLINE
  5
2AF
330
1F
100
AcDbEntity
  8
Default
100
AcDb2dPolyline
 66
     1
 10
0.0
 20
0.0
 30
0.0
  0
VERTEX
  5
2B0
330
2AF
100
AcDbEntity
  8
Default
100
AcDbVertex
100
AcDb2dVertex
 10
41.46152507874643
 20
24.60083937809743
 30
0.0
  0
VERTEX
  5
2B1
330
2AF
100
AcDbEntity
  8
Default
100
AcDbVertex
100
AcDb2dVertex
 10
41.47215576024349
 20
24.62993392886182
 30
0.0
  0
SEQEND
  5
2B2
330
2AF
100
AcDbEntity
  8
Default
  0
SPLINE
  5
2B3
330
1F
100
AcDbEntity
  8
Default
100
AcDbSpline
210
0.0
220
0.0
230
1.0
 70
     8
 71
     3
 72
    10
 73
     6
 74
     0
 42
0.0000000001
 43
0.0000000001
 40
0.0
 40
0.0
 40
0.0
 40
0.0
 40
1.0
 40
2.0
 40
3.0
 40
3.0
 40
3.0
 40
3.0
 10
39.64791265158886
 20
12.83134930586294
 30
0.0
 10
40.68181949799045
 20
12.88365739096856
 30
0.0
 10
42.74827778699826
 20
13.04977739535043
 30
0.0
 10
45.80223717077678
 20
13.65585243853624
 30
0.0
 10
47.7139988825874
 20
14.52748766551867
 30
0.0
 10
48.49788686024934
 20
15.21540086872421
 30
0.0
  0
SPLINE
  5
2B4
330
1F
100
AcDbEntity
  8
Default
100
AcDbSpline
210
0.0
220
0.0
230
1.0
 70
    12
 71
     2
 72
     6
 73
     3
 74
     0
 42
0.0000000001
 43
0.0000000001
 40
0.0
 40
0.0
 40
0.0
 40
0.0652686284857392
 40
0.0652686284857392
 40
0.0652686284857392
 10
48.49788686024934
 20
15.21540086872421
 30
0.0
 41
1.0
 10
48.52474838151366
 20
15.23922534612434
 30
0.0
 41
0.8688088247205614
 10
48.51794051784759
 20
15.27447871532967
 30
0.0
 41
1.0
  0
SPLINE
  5
2B5
330
1F
100
AcDbEntity
  8
Default
100
AcDbSpline
210
0.0
220
0.0
230
1.0
 70
     8
 71
     3
 72
    16
 73
    12
 74
     0
 42
0.0000000001
 43
0.0000000001
 40
-9.0
 40
-9.0
 40
-9.0
 40
-9.0
 40
-8.0
 40
-7.0
 40
-6.0
 40
-5.0
 40
-4.0
 40
-3.0
 40
-2.0
 40
-1.0
 40
0.0
 40
0.0
 40
0.0
 40
0.0
 10
48.51794051784759
 20
15.27447871532967
 30
0.0
 10
48.44936567688084
 20
15.65497763157354
 30
0.0
 10
47.98097446335893
 20
16.29696995330258
 30
0.0
 10
46.95929613222297
 20
16.84112045229264
 30
0.0
 10
45.85101803597085
 20
17.13212871892225
 30
0.0
 10
44.71715342185421
 20
17.28196483888868
 30
0.0
 10
43.57610969515753
 20
17.34694321894364
 30
0.0
 10
42.43354178690144
 20
17.35678329910722
 30
0.0
 10
41.29122939912607
 20
17.33849463590501
 30
0.0
 10
40.14922760677723
 20
17.30704170837551
 30
0.0
 10
39.3880239281559
 20
17.28190969349672
 30
0.0
 10
39.00740745713141
 20
17.26981372470873
 30
0.0
  0
SPLINE
  5
2B6
330
1F
100
AcDbEntity
  8
Default
100
AcDbSpline
210
0.0
220
0.0
230
1.0
 70
     8
 71
     3
 72
    16
 73
    12
 74
     0
 42
0.0000000001
 43
0.0000000001
 40
0.0
 40
0.0
 40
0.0
 40
0.0
 40
1.0
 40
2.0
 40
3.0
 40
4.0
 40
5.0
 40
6.0
 40
7.0
 40
8.0
 40
9.0
 40
9.0
 40
9.0
 40
9.0
 10
39.31899325557765
 20
15.13281987692524
 30
0.0
 10
39.66019374665212
 20
15.1497085818518
 30
0.0
 10
40.34255443200624
 20
15.18432142609117
 30
0.0
 10
41.36592580760648
 20
15.23941444229491
 30
0.0
 10
42.38921881464015
 20
15.29612266476649
 30
0.0
 10
43.41236193422221
 20
15.35478537520093
 30
0.0
 10
44.43526631153832
 20
15.42008067801604
 30
0.0
 10
45.4580688121643
 20
15.4772018740035
 30
0.0
 10
46.48182304112469
 20
15.55536147642912
 30
0.0
 10
47.5056094593068
 20
15.48087597650991
 30
0.0
 10
48.17181047330168
 20
15.31449272228601
 30
0.0
 10
48.49788686024934
 20
15.21540086872421
 30
0.0
  0
SPLINE
  5
2B7
330
1F
100
AcDbEntity
  8
Default
100
AcDbSpline
210
0.0
220
0.0
230
1.0
 70
    12
 71
     2
 72
     6
 73
     3
 74
     0
 42
0.0000000001
 43
0.0000000001
 40
0.0
 40
0.0
 40
0.0
 40
7.270551178493563
 40
7.270551178493563
 40
7.270551178493563
 10
30.412022720904
 20
16.71592650044552
 30
0.0
 41
1.0
 10
34.02849920375647
 20
17.10071616065821
 30
0.0
 41
0.9993344910682499
 10
37.66340499942047
 20
17.22082065799244
 30
0.0
 41
1.0
  0
SPLINE
  5
2B8
330
1F
100
AcDbEntity
  8
Default
100
AcDbSpline
210
0.0
220
0.0
230
1.0
 70
     8
 71
     3
 72
     8
 73
     4
 74
     0
 42
0.0000000001
 43
0.0000000001
 40
0.0
 40
0.0
 40
0.0
 40
0.0
 40
1.0
 40
1.0
 40
1.0
 40
1.0
 10
32.48936369801077
 20
23.97088715317659
 30
0.0
 10
32.17736221522471
 20
23.97088627007202
 30
0.0
 10
31.99103457564254
 20
23.76135479274816
 30
0.0
 10
31.9154990999
 20
23.43905024422565
 30
0.0
  0
SPLINE
  5
2B9
330
1F
100
AcDbEntity
  8
Default
100
AcDbSpline
210
0.0
220
0.0
230
1.0
 70
    12
 71
     2
 72
     6
 73
     3
 74
     0
 42
0.0000000001
 43
0.0000000001
 40
0.0
 40
0.0
 40
0.0
 40
7.138340347384302
 40
7.138340347384302
 40
7.138340347384302
 10
31.9154990999
 20
23.43905024422565
 30
0.0
 41
1.0
 10
31.10109299012758
 20
19.96403680261027
 30
0.0
 41
0.9999999998652032
 10
30.16905495813202
 20
15.98903783872739
 30
0.0
 41
1.0
  0
SPLINE
  5
2BA
330
1F
100
AcDbEntity
  8
Default
100
AcDbSpline
210
0.0
220
0.0
230
1.0
 70
     8
 71
     3
 72
    12
 73
     8
 74
     0
 42
0.0000000001
 43
0.0000000001
 40
-1.76944564282276
 40
-1.76944564282276
 40
-1.76944564282276
 40
-1.76944564282276
 40
-1.265611546882576
 40
-0.8532981897782359
 40
-0.4906530245029243
 40
-0.2490887210700219
 40
0.0
 40
0.0
 40
0.0
 40
0.0
 10
30.16905495813202
 20
15.98903783872739
 30
0.0
 10
30.12926545003804
 20
15.82358994405483
 30
0.0
 10
30.09244099076916
 20
15.52371930216335
 30
0.0
 10
30.19120358191453
 20
15.0894443367385
 30
0.0
 10
30.46302684806984
 20
14.86214972775235
 30
0.0
 10
30.73531391293383
 20
14.77680153534548
 30
0.0
 10
30.89573113555064
 20
14.74500013148083
 30
0.0
 10
30.97948190075349
 20
14.74282142010827
 30
0.0
  0
SPLINE
  5
2BB
330
1F
100
AcDbEntity
  8
Default
100
AcDbSpline
210
0.0
220
0.0
230
1.0
 70
     8
 71
     3
 72
    10
 73
     6
 74
     0
 42
0.0000000001
 43
0.0000000001
 40
-3.0
 40
-3.0
 40
-3.0
 40
-3.0
 40
-2.0
 40
-1.0
 40
0.0
 40
0.0
 40
0.0
 40
0.0
 10
30.97948190075349
 20
14.74282142010827
 30
0.0
 10
31.62368644645131
 20
14.71037302510912
 30
0.0
 10
32.91242251932408
 20
14.65428583451889
 30
0.0
 10
34.84752433305253
 20
14.64437220319959
 30
0.0
 10
36.1367592058111
 20
14.68709577853756
 30
0.0
 10
36.78131313399553
 20
14.70750384086191
 30
0.0
  0
SPLINE
  5
2BC
330
1F
100
AcDbEntity
  8
Default
100
AcDbSpline
210
0.0
220
0.0
230
1.0
 70
     8
 71
     3
 72
    12
 73
     8
 74
     0
 42
0.0000000001
 43
0.0000000001
 40
-1.99147636178946
 40
-1.99147636178946
 40
-1.99147636178946
 40
-1.99147636178946
 40
-1.450485277614024
 40
-1.001348960696717
 40
-0.4979739790761759
 40
-0.2897801235234266
 40
0.0
 40
0.0
 40
0.0
 40
0.0
 10
36.78131313399553
 20
14.70750384086191
 30
0.0
 10
36.9628787396668
 20
14.71325969627244
 30
0.0
 10
37.28848688953806
 20
14.76398204496646
 30
0.0
 10
37.73885515802069
 20
15.01885839336368
 30
0.0
 10
37.88700989213368
 20
15.40232979072251
 30
0.0
 10
37.92891044336206
 20
15.72506133055385
 30
0.0
 10
37.89796794088816
 20
15.8981229583725
 30
0.0
 10
37.88770072854458
 20
15.9905714860499
 30
0.0
  0
POLYLINE
  5
2BD
330
1F
100
AcDbEntity
  8
Default
100
AcDb2dPolyline
 66
     1
 10
0.0
 20
0.0
 30
0.0
  0
VERTEX
  5
2BE
330
2BD
100
AcDbEntity
  8
Default
100
AcDbVertex
100
AcDb2dVertex
 10
37.88770072854458
 20
15.9905714860499
 30
0.0
  0
VERTEX
  5
2BF
330
2BD
100
AcDbEntity
  8
Default
100
AcDbVertex
100
AcDb2dVertex
 10
36.72754718457308
 20
23.44062681040731
 30
0.0
  0
SEQEND
  5
2C0
330
2BD
100
AcDbEntity
  8
Default
  0
SPLINE
  5
2C1
330
1F
100
AcDbEntity
  8
Default
100
AcDbSpline
210
0.0
220
0.0
230
1.0
 70
     8
 71
     3
 72
     8
 73
     4
 74
     0
 42
0.0000000001
 43
0.0000000001
 40
-1.0
 40
-1.0
 40
-1.0
 40
-1.0
 40
0.0
 40
0.0
 40
0.0
 40
0.0
 10
36.72754718457308
 20
23.44062681040731
 30
0.0
 10
36.66109070432956
 20
23.86738450730784
 30
0.0
 10
36.48130248932934
 20
23.97089253232759
 30
0.0
 10
36.12435090442927
 20
23.97089249377906
 30
0.0
  0
SPLINE
  5
2C2
330
1F
100
AcDbEntity
  8
Default
100
AcDbSpline
210
0.0
220
0.0
230
1.0
 70
    12
 71
     2
 72
     6
 73
     3
 74
     0
 42
0.0000000001
 43
0.0000000001
 40
-3.634987206423546
 40
-3.634987206423546
 40
-3.634987206423546
 40
0.0
 40
0.0
 40
0.0
 10
36.12435090442927
 20
23.97089249377906
 30
0.0
 41
1.0
 10
34.30685730121638
 20
23.97089229750121
 30
0.0
 41
0.9999999999990735
 10
32.48936369801077
 20
23.97088715317659
 30
0.0
 41
1.0
  0
ARC
  5
2C3
330
1F
100
AcDbEntity
  8
Default
100
AcDbCircle
 10
24.89993383323507
 20
16.96112493182756
 30
0.0
 40
4.159227755123336
100
AcDbArc
 50
330.9664883347805
 51
345.5820808908047
  0
POLYLINE
  5
2C4
330
1F
100
AcDbEntity
  8
Default
100
AcDb2dPolyline
 66
     1
 10
0.0
 20
0.0
 30
0.0
  0
VERTEX
  5
2C5
330
2C4
100
AcDbEntity
  8
Default
100
AcDbVertex
100
AcDb2dVertex
 10
-12.94125108012754
 20
54.2490070614516
 30
0.0
  0
VERTEX
  5
2C6
330
2C4
100
AcDbEntity
  8
Default
100
AcDbVertex
100
AcDb2dVertex
 10
-12.94125108012756
 20
56.8090070614516
 30
0.0
  0
SEQEND
  5
2C7
330
2C4
100
AcDbEntity
  8
Default
  0
SPLINE
  5
2C8
330
1F
100
AcDbEntity
  8
Default
100
AcDbSpline
210
0.0
220
0.0
230
1.0
 70
    24
 71
     2
 72
     6
 73
     3
 74
     0
 42
0.0000000001
 43
0.0000000001
 40
-0.3437499999999982
 40
-0.3437499999999982
 40
-0.3437499999999982
 40
0.0
 40
0.0
 40
0.0
 10
-12.94125108012756
 20
56.8090070614516
 30
0.0
 10
-13.11312608012756
 20
56.8090070614516
 30
0.0
 10
-13.28500108012756
 20
56.8090070614516
 30
0.0
  0
SPLINE
  5
2C9
330
1F
100
AcDbEntity
  8
Default
100
AcDbSpline
210
0.0
220
0.0
230
1.0
 70
    12
 71
     2
 72
     6
 73
     3
 74
     0
 42
0.0000000001
 43
0.0000000001
 40
-0.1961795420046342
 40
-0.1961795420046342
 40
-0.1961795420046342
 40
0.0
 40
0.0
 40
0.0
 10
-13.28500108012756
 20
56.8090070614516
 30
0.0
 41
1.0
 10
-13.40960674233594
 20
56.8086138718925
 30
0.0
 41
0.7093377523987406
 10
-13.41000108012224
 20
56.68400821331257
 30
0.0
 41
1.0
  0
POLYLINE
  5
2CA
330
1F
100
AcDbEntity
  8
Default
100
AcDb2dPolyline
 66
     1
 10
0.0
 20
0.0
 30
0.0
  0
VERTEX
  5
2CB
330
2CA
100
AcDbEntity
  8
Default
100
AcDbVertex
100
AcDb2dVertex
 10
-13.41000108012224
 20
56.68400821331257
 30
0.0
  0
VERTEX
  5
2CC
330
2CA
100
AcDbEntity
  8
Default
100
AcDbVertex
100
AcDb2dVertex
 10
-13.41000108012223
 20
54.37400590959063
 30
0.0
  0
SEQEND
  5
2CD
330
2CA
100
AcDbEntity
  8
Default
  0
SPLINE
  5
2CE
330
1F
100
AcDbEntity
  8
Default
100
AcDbSpline
210
0.0
220
0.0
230
1.0
 70
    12
 71
     2
 72
     6
 73
     3
 74
     0
 42
0.0000000001
 43
0.0000000001
 40
-0.1962262002634722
 40
-0.1962262002634722
 40
-0.1962262002634722
 40
0.0
 40
0.0
 40
0.0
 10
-13.41000108012223
 20
54.37400590959063
 30
0.0
 41
1.0
 10
-13.40971535212939
 20
54.24929164021642
 30
0.0
 41
0.7087216954006997
 10
-13.28500108012754
 20
54.2490070614516
 30
0.0
 41
1.0
  0
SPLINE
  5
2CF
330
1F
100
AcDbEntity
  8
Default
100
AcDbSpline
210
0.0
220
0.0
230
1.0
 70
    24
 71
     2
 72
     6
 73
     3
 74
     0
 42
0.0000000001
 43
0.0000000001
 40
-0.3437499999999982
 40
-0.3437499999999982
 40
-0.3437499999999982
 40
0.0
 40
0.0
 40
0.0
 10
-13.28500108012754
 20
54.2490070614516
 30
0.0
 10
-13.11312608012754
 20
54.2490070614516
 30
0.0
 10
-12.94125108012754
 20
54.2490070614516
 30
0.0
  0
SPLINE
  5
2D0
330
1F
100
AcDbEntity
  8
Default
100
AcDbSpline
210
0.0
220
0.0
230
1.0
 70
    24
 71
     2
 72
     6
 73
     3
 74
     0
 42
0.0000000001
 43
0.0000000001
 40
-0.5921891274203368
 40
-0.5921891274203368
 40
-0.5921891274203368
 40
0.0
 40
0.0
 40
0.0
 10
-12.30218695270722
 20
56.8090070614516
 30
0.0
 10
-12.59828151641739
 20
56.8090070614516
 30
0.0
 10
-12.89437608012756
 20
56.8090070614516
 30
0.0
  0
POLYLINE
  5
2D1
330
1F
100
AcDbEntity
  8
Default
100
AcDb2dPolyline
 66
     1
 10
0.0
 20
0.0
 30
0.0
  0
VERTEX
  5
2D2
330
2D1
100
AcDbEntity
  8
Default
100
AcDbVertex
100
AcDb2dVertex
 10
-12.89437608012756
 20
56.8090070614516
 30
0.0
  0
VERTEX
  5
2D3
330
2D1
100
AcDbEntity
  8
Default
100
AcDbVertex
100
AcDb2dVertex
 10
-12.89437608012756
 20
54.94051088666126
 30
0.0
  0
SEQEND
  5
2D4
330
2D1
100
AcDbEntity
  8
Default
  0
SPLINE
  5
2D5
330
1F
100
AcDbEntity
  8
Default
100
AcDbSpline
210
0.0
220
0.0
230
1.0
 70
     8
 71
     3
 72
    34
 73
    30
 74
     0
 42
0.0000000001
 43
0.0000000001
 40
0.0
 40
0.0
 40
0.0
 40
0.0
 40
1.0
 40
2.0
 40
3.0
 40
4.0
 40
5.0
 40
6.0
 40
7.0
 40
8.0
 40
9.0
 40
10.0
 40
11.0
 40
12.0
 40
13.0
 40
14.0
 40
15.0
 40
16.0
 40
17.0
 40
18.0
 40
19.0
 40
20.0
 40
21.0
 40
22.0
 40
23.0
 40
24.0
 40
25.0
 40
26.0
 40
27.0
 40
27.0
 40
27.0
 40
27.0
 10
12.33567370111574
 20
55.31593853274655
 30
0.0
 10
12.35874908784922
 20
55.30792940890522
 30
0.0
 10
12.40487984636309
 20
55.29185640120237
 30
0.0
 10
12.47263140498144
 20
55.26388271140549
 30
0.0
 10
12.54081576721897
 20
55.23705620052989
 30
0.0
 10
12.60871349543383
 20
55.20950515169256
 30
0.0
 10
12.67732493106342
 20
55.18370508577147
 30
0.0
 10
12.74155386634149
 20
55.14738644890192
 30
0.0
 10
12.79353592131461
 20
55.09491872268138
 30
0.0
 10
12.83530665261979
 20
55.03461925485861
 30
0.0
 10
12.87389860226892
 20
54.97234582820054
 30
0.0
 10
12.91381517822822
 20
54.91083849985475
 30
0.0
 10
12.94690045034008
 20
54.84528811776963
 30
0.0
 10
12.97005070576482
 20
54.77555497078379
 30
0.0
 10
12.9836797584488
 20
54.70340604621212
 30
0.0
 10
12.98759326090058
 20
54.63005634490152
 30
0.0
 10
12.98173984246546
 20
54.55689766533885
 30
0.0
 10
12.96716616940077
 20
54.48486248151934
 30
0.0
 10
12.94127170382259
 20
54.41613501278378
 30
0.0
 10
12.90623650638955
 20
54.35159016509909
 30
0.0
 10
12.86334097107391
 20
54.29200365814501
 30
0.0
 10
12.81294237471241
 20
54.23857702164559
 30
0.0
 10
12.75582257808449
 20
54.19243314631657
 30
0.0
 10
12.69299200980643
 20
54.15433434748933
 30
0.0
 10
12.62519509254133
 20
54.12609275760712
 30
0.0
 10
12.5568530219638
 20
54.10039067331243
 30
0.0
 10
12.48928241065346
 20
54.06951495264555
 30
0.0
 10
12.41566758140213
 20
54.06593459287011
 30
0.0
 10
12.36800465202971
 20
54.0793043557766
 30
0.0
 10
12.34448941287316
 20
54.08551771434249
 30
0.0
  0
POLYLINE
  5
2D6
330
1F
100
AcDbEntity
  8
Default
100
AcDb2dPolyline
 66
     1
 10
0.0
 20
0.0
 30
0.0
  0
VERTEX
  5
2D7
330
2D6
100
AcDbEntity
  8
Default
100
AcDbVertex
100
AcDb2dVertex
 10
12.94125108012754
 20
54.2490070614516
 30
0.0
  0
VERTEX
  5
2D8
330
2D6
100
AcDbEntity
  8
Default
100
AcDbVertex
100
AcDb2dVertex
 10
12.94125108012756
 20
56.8090070614516
 30
0.0
  0
SEQEND
  5
2D9
330
2D6
100
AcDbEntity
  8
Default
  0
SPLINE
  5
2DA
330
1F
100
AcDbEntity
  8
Default
100
AcDbSpline
210
0.0
220
0.0
230
1.0
 70
    24
 71
     2
 72
     6
 73
     3
 74
     0
 42
0.0000000001
 43
0.0000000001
 40
-0.3437499999999982
 40
-0.3437499999999982
 40
-0.3437499999999982
 40
0.0
 40
0.0
 40
0.0
 10
12.94125108012756
 20
56.8090070614516
 30
0.0
 10
13.11312608012756
 20
56.8090070614516
 30
0.0
 10
13.28500108012756
 20
56.8090070614516
 30
0.0
  0
SPLINE
  5
2DB
330
1F
100
AcDbEntity
  8
Default
100
AcDbSpline
210
0.0
220
0.0
230
1.0
 70
    12
 71
     2
 72
     6
 73
     3
 74
     0
 42
0.0000000001
 43
0.0000000001
 40
-0.1961795420046342
 40
-0.1961795420046342
 40
-0.1961795420046342
 40
0.0
 40
0.0
 40
0.0
 10
13.28500108012756
 20
56.8090070614516
 30
0.0
 41
1.0
 10
13.40960674233594
 20
56.8086138718925
 30
0.0
 41
0.7093377523987406
 10
13.41000108012224
 20
56.68400821331257
 30
0.0
 41
1.0
  0
POLYLINE
  5
2DC
330
1F
100
AcDbEntity
  8
Default
100
AcDb2dPolyline
 66
     1
 10
0.0
 20
0.0
 30
0.0
  0
VERTEX
  5
2DD
330
2DC
100
AcDbEntity
  8
Default
100
AcDbVertex
100
AcDb2dVertex
 10
13.41000108012224
 20
56.68400821331257
 30
0.0
  0
VERTEX
  5
2DE
330
2DC
100
AcDbEntity
  8
Default
100
AcDbVertex
100
AcDb2dVertex
 10
13.41000108012223
 20
54.37400590959063
 30
0.0
  0
SEQEND
  5
2DF
330
2DC
100
AcDbEntity
  8
Default
  0
SPLINE
  5
2E0
330
1F
100
AcDbEntity
  8
Default
100
AcDbSpline
210
0.0
220
0.0
230
1.0
 70
    12
 71
     2
 72
     6
 73
     3
 74
     0
 42
0.0000000001
 43
0.0000000001
 40
-0.1962262002634722
 40
-0.1962262002634722
 40
-0.1962262002634722
 40
0.0
 40
0.0
 40
0.0
 10
13.41000108012223
 20
54.37400590959063
 30
0.0
 41
1.0
 10
13.40971535212939
 20
54.24929164021642
 30
0.0
 41
0.7087216954006997
 10
13.28500108012754
 20
54.2490070614516
 30
0.0
 41
1.0
  0
SPLINE
  5
2E1
330
1F
100
AcDbEntity
  8
Default
100
AcDbSpline
210
0.0
220
0.0
230
1.0
 70
    24
 71
     2
 72
     6
 73
     3
 74
     0
 42
0.0000000001
 43
0.0000000001
 40
-0.3437499999999982
 40
-0.3437499999999982
 40
-0.3437499999999982
 40
0.0
 40
0.0
 40
0.0
 10
13.28500108012754
 20
54.2490070614516
 30
0.0
 10
13.11312608012754
 20
54.2490070614516
 30
0.0
 10
12.94125108012754
 20
54.2490070614516
 30
0.0
  0
SPLINE
  5
2E2
330
1F
100
AcDbEntity
  8
Default
100
AcDbSpline
210
0.0
220
0.0
230
1.0
 70
    24
 71
     2
 72
     6
 73
     3
 74
     0
 42
0.0000000001
 43
0.0000000001
 40
-0.5921891274203368
 40
-0.5921891274203368
 40
-0.5921891274203368
 40
0.0
 40
0.0
 40
0.0
 10
12.30218695270722
 20
56.8090070614516
 30
0.0
 10
12.59828151641739
 20
56.8090070614516
 30
0.0
 10
12.89437608012756
 20
56.8090070614516
 30
0.0
  0
POLYLINE
  5
2E3
330
1F
100
AcDbEntity
  8
Default
100
AcDb2dPolyline
 66
     1
 10
0.0
 20
0.0
 30
0.0
  0
VERTEX
  5
2E4
330
2E3
100
AcDbEntity
  8
Default
100
AcDbVertex
100
AcDb2dVertex
 10
12.89437608012756
 20
56.8090070614516
 30
0.0
  0
VERTEX
  5
2E5
330
2E3
100
AcDbEntity
  8
Default
100
AcDbVertex
100
AcDb2dVertex
 10
12.89437608012756
 20
54.94051088666126
 30
0.0
  0
SEQEND
  5
2E6
330
2E3
100
AcDbEntity
  8
Default
  0
LINE
  5
2E7
330
1F
100
AcDbEntity
  8
Default
100
AcDbLine
 10
10.18824863508571
 20
57.11865491822649
 30
0.0
 11
10.02188210229766
 21
56.10873015164038
 31
0.0
  0
ARC
  5
2E8
330
1F
100
AcDbEntity
  8
Default
100
AcDbCircle
 10
9.826834980717967
 20
56.25952431811381
 30
0.0
 40
0.2465405854599642
100
AcDbArc
 50
276.5442867473606
 51
322.2917953420088
  0
LINE
  5
2E9
330
1F
100
AcDbEntity
  8
Default
100
AcDbLine
 10
-10.18824863508571
 20
57.11865491822649
 30
0.0
 11
-10.02188210229766
 21
56.10873015164038
 31
0.0
  0
ARC
  5
2EA
330
1F
100
AcDbEntity
  8
Default
100
AcDbCircle
 10
-9.826834980717967
 20
56.25952431811381
 30
0.0
 40
0.2465405854599642
100
AcDbArc
 50
217.7082046579912
 51
263.4557132526394
  0
SPLINE
  5
2EB
330
1F
100
AcDbEntity
  8
Default
100
AcDbSpline
210
0.0
220
0.0
230
1.0
 70
     8
 71
     3
 72
    10
 73
     6
 74
     0
 42
0.0000000001
 43
0.0000000001
 40
-0.9734267581108843
 40
-0.9734267581108843
 40
-0.9734267581108843
 40
-0.9734267581108843
 40
-0.499923794646946
 40
-0.499923794646946
 40
-0.0143046903051701
 40
-0.0143046903051701
 40
-0.0143046903051701
 40
-0.0143046903051701
 10
9.85654121411412
 20
54.70120138895629
 30
0.0
 10
10.03129612619429
 20
54.72460387568356
 30
0.0
 10
10.09398109975866
 20
54.73420241633124
 30
0.0
 10
10.18022038076091
 20
54.75683290714543
 30
0.0
 10
10.21864616739517
 20
54.76658090991106
 30
0.0
 10
10.22563188107472
 20
54.79856787745155
 30
0.0
  0
SPLINE
  5
2EC
330
1F
100
AcDbEntity
  8
Default
100
AcDbSpline
210
0.0
220
0.0
230
1.0
 70
    12
 71
     2
 72
     6
 73
     3
 74
     0
 42
0.0000000001
 43
0.0000000001
 40
-0.2401652800100547
 40
-0.2401652800100547
 40
-0.2401652800100547
 40
0.0
 40
0.0
 40
0.0
 10
10.22563188107472
 20
54.79856787745155
 30
0.0
 41
1.0
 10
10.24872342223174
 20
54.91640962006734
 30
0.0
 41
0.9999971318189055
 10
10.27237917498016
 20
55.0341393993827
 30
0.0
 41
1.0
  0
ARC
  5
2ED
330
1F
100
AcDbEntity
  8
Default
100
AcDbCircle
 10
9.620276180192656
 20
58.22341446881402
 30
0.0
 40
3.633574279353966
100
AcDbArc
 50
273.7240338100743
 51
280.5951242002684
  0
SPLINE
  5
2EE
330
1F
100
AcDbEntity
  8
Default
100
AcDbSpline
210
0.0
220
0.0
230
1.0
 70
     8
 71
     3
 72
    10
 73
     6
 74
     0
 42
0.0000000001
 43
0.0000000001
 40
-0.9734267581108843
 40
-0.9734267581108843
 40
-0.9734267581108843
 40
-0.9734267581108843
 40
-0.499923794646946
 40
-0.499923794646946
 40
-0.0143046903051701
 40
-0.0143046903051701
 40
-0.0143046903051701
 40
-0.0143046903051701
 10
-9.85654121411412
 20
54.70120138895629
 30
0.0
 10
-10.03129612619429
 20
54.72460387568356
 30
0.0
 10
-10.09398109975866
 20
54.73420241633124
 30
0.0
 10
-10.18022038076091
 20
54.75683290714543
 30
0.0
 10
-10.21864616739517
 20
54.76658090991106
 30
0.0
 10
-10.22563188107472
 20
54.79856787745155
 30
0.0
  0
SPLINE
  5
2EF
330
1F
100
AcDbEntity
  8
Default
100
AcDbSpline
210
0.0
220
0.0
230
1.0
 70
    12
 71
     2
 72
     6
 73
     3
 74
     0
 42
0.0000000001
 43
0.0000000001
 40
-0.2401652800100547
 40
-0.2401652800100547
 40
-0.2401652800100547
 40
0.0
 40
0.0
 40
0.0
 10
-10.22563188107472
 20
54.79856787745155
 30
0.0
 41
1.0
 10
-10.24872342223174
 20
54.91640962006734
 30
0.0
 41
0.9999971318189055
 10
-10.27237917498016
 20
55.0341393993827
 30
0.0
 41
1.0
  0
ARC
  5
2F0
330
1F
100
AcDbEntity
  8
Default
100
AcDbCircle
 10
-9.620276180192656
 20
58.22341446881402
 30
0.0
 40
3.633574279353966
100
AcDbArc
 50
259.4048757997315
 51
266.2759661899257
  0
ARC
  5
2F1
330
1F
100
AcDbEntity
  8
Default
100
AcDbCircle
 10
9.186839631630077
 20
64.33300056581126
 30
0.0
 40
0.4207579064059515
100
AcDbArc
 50
10.90362953192448
 51
33.72413192231286
  0
LINE
  5
2F2
330
1F
100
AcDbEntity
  8
Default
100
AcDbLine
 10
9.600001482806984
 20
64.41259014135471
 30
0.0
 11
9.971886475943442
 21
62.48207736829374
 31
0.0
  0
ARC
  5
2F3
330
1F
100
AcDbEntity
  8
Default
100
AcDbCircle
 10
-9.186839631630077
 20
64.33300056581126
 30
0.0
 40
0.4207579064059515
100
AcDbArc
 50
146.2758680776871
 51
169.0963704680755
  0
LINE
  5
2F4
330
1F
100
AcDbEntity
  8
Default
100
AcDbLine
 10
-9.600001482806984
 20
64.41259014135471
 30
0.0
 11
-9.971886475943442
 21
62.48207736829374
 31
0.0
  0
ARC
  5
2F5
330
1F
100
AcDbEntity
  8
Default
100
AcDbCircle
 10
9.211679376724792
 20
63.15020430957721
 30
0.0
 40
0.8873280545367181
100
AcDbArc
 50
332.9972151863041
 51
359.6494887372664
  0
POLYLINE
  5
2F6
330
1F
100
AcDbEntity
  8
Default
100
AcDb2dPolyline
 66
     1
 10
0.0
 20
0.0
 30
0.0
  0
VERTEX
  5
2F7
330
2F6
100
AcDbEntity
  8
Default
100
AcDbVertex
100
AcDb2dVertex
 10
10.09899082730632
 20
63.14477604698025
 30
0.0
  0
VERTEX
  5
2F8
330
2F6
100
AcDbEntity
  8
Default
100
AcDbVertex
100
AcDb2dVertex
 10
9.687728133005958
 20
65.09152158170363
 30
0.0
  0
SEQEND
  5
2F9
330
2F6
100
AcDbEntity
  8
Default
  0
ARC
  5
2FA
330
1F
100
AcDbEntity
  8
Default
100
AcDbCircle
 10
9.00278892067536
 20
64.53051278127114
 30
0.0
 40
0.88536579940201
100
AcDbArc
 50
39.31965836201832
 51
82.12803703431464
  0
ARC
  5
2FB
330
1F
100
AcDbEntity
  8
Default
100
AcDbCircle
 10
-9.211679376724792
 20
63.15020430957721
 30
0.0
 40
0.8873280545367181
100
AcDbArc
 50
180.3505112627336
 51
207.0027848136959
  0
POLYLINE
  5
2FC
330
1F
100
AcDbEntity
  8
Default
100
AcDb2dPolyline
 66
     1
 10
0.0
 20
0.0
 30
0.0
  0
VERTEX
  5
2FD
330
2FC
100
AcDbEntity
  8
Default
100
AcDbVertex
100
AcDb2dVertex
 10
-10.09899082730632
 20
63.14477604698025
 30
0.0
  0
VERTEX
  5
2FE
330
2FC
100
AcDbEntity
  8
Default
100
AcDbVertex
100
AcDb2dVertex
 10
-9.687728133005958
 20
65.09152158170363
 30
0.0
  0
SEQEND
  5
2FF
330
2FC
100
AcDbEntity
  8
Default
  0
ARC
  5
300
330
1F
100
AcDbEntity
  8
Default
100
AcDbCircle
 10
-9.00278892067536
 20
64.53051278127114
 30
0.0
 40
0.88536579940201
100
AcDbArc
 50
97.87196296568558
 51
140.6803416379817
  0
SPLINE
  5
301
330
1F
100
AcDbEntity
  8
Default
100
AcDbSpline
210
0.0
220
0.0
230
1.0
 70
    12
 71
     2
 72
     6
 73
     3
 74
     0
 42
0.0000000001
 43
0.0000000001
 40
-0.6326724875889493
 40
-0.6326724875889493
 40
-0.6326724875889493
 40
0.0
 40
0.0
 40
0.0
 10
9.088032510985627
 20
65.43014312000415
 30
0.0
 41
1.0
 10
9.363653757828873
 20
65.26313286658858
 30
0.0
 41
0.9725981329776378
 10
9.533949379896082
 20
64.98952932574502
 30
0.0
 41
1.0
  0
POLYLINE
  5
302
330
1F
100
AcDbEntity
  8
Default
100
AcDb2dPolyline
 66
     1
 10
0.0
 20
0.0
 30
0.0
  0
VERTEX
  5
303
330
302
100
AcDbEntity
  8
Default
100
AcDbVertex
100
AcDb2dVertex
 10
9.533949379896082
 20
64.98952932574502
 30
0.0
  0
VERTEX
  5
304
330
302
100
AcDbEntity
  8
Default
100
AcDbVertex
100
AcDb2dVertex
 10
9.542959160769433
 20
63.64930897112078
 30
0.0
  0
SEQEND
  5
305
330
302
100
AcDbEntity
  8
Default
  0
SPLINE
  5
306
330
1F
100
AcDbEntity
  8
Default
100
AcDbSpline
210
0.0
220
0.0
230
1.0
 70
    12
 71
     2
 72
     6
 73
     3
 74
     0
 42
0.0000000001
 43
0.0000000001
 40
-0.6326724875889493
 40
-0.6326724875889493
 40
-0.6326724875889493
 40
0.0
 40
0.0
 40
0.0
 10
-9.088032510985627
 20
65.43014312000415
 30
0.0
 41
1.0
 10
-9.363653757828873
 20
65.26313286658858
 30
0.0
 41
0.9725981329776378
 10
-9.533949379896082
 20
64.98952932574502
 30
0.0
 41
1.0
  0
POLYLINE
  5
307
330
1F
100
AcDbEntity
  8
Default
100
AcDb2dPolyline
 66
     1
 10
0.0
 20
0.0
 30
0.0
  0
VERTEX
  5
308
330
307
100
AcDbEntity
  8
Default
100
AcDbVertex
100
AcDb2dVertex
 10
-9.533949379896082
 20
64.98952932574502
 30
0.0
  0
VERTEX
  5
309
330
307
100
AcDbEntity
  8
Default
100
AcDbVertex
100
AcDb2dVertex
 10
-9.542959160769433
 20
63.64930897112078
 30
0.0
  0
SEQEND
  5
30A
330
307
100
AcDbEntity
  8
Default
  0
SPLINE
  5
30B
330
1F
100
AcDbEntity
  8
Default
100
AcDbSpline
210
0.0
220
0.0
230
1.0
 70
    12
 71
     2
 72
     8
 73
     5
 74
     0
 42
0.0000000001
 43
0.0000000001
 40
-0.2073726838776902
 40
-0.2073726838776902
 40
-0.2073726838776902
 40
0.0
 40
0.0
 40
1.684266150509172
 40
1.684266150509172
 40
1.684266150509172
 10
10.80844378238497
 20
62.79871130393884
 30
0.0
 41
1.0
 10
10.79882589276107
 20
62.83905524378972
 30
0.0
 41
0.9999999654578179
 10
10.78922921239047
 20
62.87940423398
 30
0.0
 41
1.0
 10
10.59437033506263
 20
63.698683258202
 30
0.0
 41
1.0
 10
10.36988413386686
 20
64.64958595912907
 30
0.0
 41
1.0
  0
ARC
  5
30C
330
1F
100
AcDbEntity
  8
Default
100
AcDbCircle
 10
9.11247765256911
 20
64.34290814670936
 30
0.0
 40
1.294265173695144
100
AcDbArc
 50
13.70667305498344
 51
33.81573237204217
  0
ARC
  5
30D
330
1F
100
AcDbEntity
  8
Default
100
AcDbCircle
 10
9.182641829319621
 20
64.38990687400778
 30
0.0
 40
1.209814643402273
100
AcDbArc
 50
33.81573237204064
 51
36.44916985783718
  0
SPLINE
  5
30E
330
1F
100
AcDbEntity
  8
Default
100
AcDbSpline
210
0.0
220
0.0
230
1.0
 70
    12
 71
     3
 72
    16
 73
    12
 74
     0
 42
0.0000000001
 43
0.0000000001
 40
-2.627557565517984
 40
-2.627557565517984
 40
-2.627557565517984
 40
-2.627557565517984
 40
-2.496879158897686
 40
-2.496879158897686
 40
-2.496879158897686
 40
-2.153740973284751
 40
-2.153740973284751
 40
-1.653716175146606
 40
-1.653716175146606
 40
-1.653716175146606
 40
0.0
 40
0.0
 40
0.0
 40
0.0
 10
9.066486301530546
 20
65.54883034248147
 30
0.0
 41
1.0
 10
9.109447514465463
 20
65.54162987915817
 30
0.0
 41
0.9999551202950724
 10
9.152297491377908
 20
65.53379675880119
 30
0.0
 41
0.9999551202950724
 10
9.195030462984914
 20
65.52533203605489
 30
0.0
 41
1.0
 10
9.407314311150987
 20
65.48401461746238
 30
0.0
 41
1.0
 10
9.599947519911854
 20
65.43338176424899
 30
0.0
 41
1.0
 10
9.985494119740832
 20
65.29004515694339
 30
0.0
 41
1.0
 10
10.14159780423776
 20
65.18795517962337
 30
0.0
 41
1.0
 10
10.1678732213115
 20
65.0741120021826
 30
0.0
 41
1.0
 10
10.29964605948155
 20
64.45718266519644
 30
0.0
 41
0.9999999993812452
 10
10.42307909106861
 20
63.87917315676526
 30
0.0
 41
0.9999999993812452
 10
10.58288810885053
 20
63.12801575925065
 30
0.0
 41
1.0
  0
ARC
  5
30F
330
1F
100
AcDbEntity
  8
Default
100
AcDbCircle
 10
11.52835233372294
 20
63.53135524589303
 30
0.0
 40
1.027903371917098
100
AcDbArc
 50
203.1033233948164
 51
223.3807478437528
  0
SPLINE
  5
310
330
1F
100
AcDbEntity
  8
Default
100
AcDbSpline
210
0.0
220
0.0
230
1.0
 70
    12
 71
     2
 72
     8
 73
     5
 74
     0
 42
0.0000000001
 43
0.0000000001
 40
-0.2073726838776902
 40
-0.2073726838776902
 40
-0.2073726838776902
 40
0.0
 40
0.0
 40
1.684266150509172
 40
1.684266150509172
 40
1.684266150509172
 10
-10.80844378238497
 20
62.79871130393884
 30
0.0
 41
1.0
 10
-10.79882589276107
 20
62.83905524378972
 30
0.0
 41
0.9999999654578179
 10
-10.78922921239047
 20
62.87940423398
 30
0.0
 41
1.0
 10
-10.59437033506263
 20
63.698683258202
 30
0.0
 41
1.0
 10
-10.36988413386686
 20
64.64958595912907
 30
0.0
 41
1.0
  0
ARC
  5
311
330
1F
100
AcDbEntity
  8
Default
100
AcDbCircle
 10
-9.11247765256911
 20
64.34290814670936
 30
0.0
 40
1.294265173695144
100
AcDbArc
 50
146.1842676279578
 51
166.2933269450166
  0
ARC
  5
312
330
1F
100
AcDbEntity
  8
Default
100
AcDbCircle
 10
-9.182641829319621
 20
64.38990687400778
 30
0.0
 40
1.209814643402273
100
AcDbArc
 50
143.5508301421628
 51
146.1842676279594
  0
SPLINE
  5
313
330
1F
100
AcDbEntity
  8
Default
100
AcDbSpline
210
0.0
220
0.0
230
1.0
 70
    12
 71
     3
 72
    16
 73
    12
 74
     0
 42
0.0000000001
 43
0.0000000001
 40
-2.627557565517984
 40
-2.627557565517984
 40
-2.627557565517984
 40
-2.627557565517984
 40
-2.496879158897686
 40
-2.496879158897686
 40
-2.496879158897686
 40
-2.153740973284751
 40
-2.153740973284751
 40
-1.653716175146606
 40
-1.653716175146606
 40
-1.653716175146606
 40
0.0
 40
0.0
 40
0.0
 40
0.0
 10
-9.066486301530546
 20
65.54883034248147
 30
0.0
 41
1.0
 10
-9.109447514465463
 20
65.54162987915817
 30
0.0
 41
0.9999551202950724
 10
-9.152297491377908
 20
65.53379675880119
 30
0.0
 41
0.9999551202950724
 10
-9.195030462984914
 20
65.52533203605489
 30
0.0
 41
1.0
 10
-9.407314311150987
 20
65.48401461746238
 30
0.0
 41
1.0
 10
-9.599947519911854
 20
65.43338176424899
 30
0.0
 41
1.0
 10
-9.985494119740832
 20
65.29004515694339
 30
0.0
 41
1.0
 10
-10.14159780423776
 20
65.18795517962337
 30
0.0
 41
1.0
 10
-10.1678732213115
 20
65.0741120021826
 30
0.0
 41
1.0
 10
-10.29964605948155
 20
64.45718266519644
 30
0.0
 41
0.9999999993812452
 10
-10.42307909106861
 20
63.87917315676526
 30
0.0
 41
0.9999999993812452
 10
-10.58288810885053
 20
63.12801575925065
 30
0.0
 41
1.0
  0
ARC
  5
314
330
1F
100
AcDbEntity
  8
Default
100
AcDbCircle
 10
-11.52835233372294
 20
63.53135524589303
 30
0.0
 40
1.027903371917098
100
AcDbArc
 50
316.6192521562472
 51
336.8966766051835
  0
SPLINE
  5
315
330
1F
100
AcDbEntity
  8
Default
100
AcDbSpline
210
0.0
220
0.0
230
1.0
 70
     8
 71
     3
 72
    19
 73
    15
 74
     0
 42
0.0000000001
 43
0.0000000001
 40
0.0
 40
0.0
 40
0.0
 40
0.0
 40
1.0
 40
2.0
 40
3.0
 40
4.0
 40
5.0
 40
6.0
 40
7.0
 40
8.0
 40
9.0
 40
10.0
 40
11.0
 40
12.0
 40
12.0
 40
12.0
 40
12.0
 10
11.12476564774535
 20
62.27974428405401
 30
0.0
 10
11.09649205063458
 20
62.32954103110033
 30
0.0
 10
11.04227401935176
 20
62.42405466377237
 30
0.0
 10
10.95896338064865
 20
62.56523955492212
 30
0.0
 10
10.8758482082302
 20
62.70470161808849
 30
0.0
 10
10.78518698073986
 20
62.84643307394277
 30
0.0
 10
10.62278535379107
 20
62.90075852851165
 30
0.0
 10
10.45869442787308
 20
62.88805041627754
 30
0.0
 10
10.29610680694791
 20
62.89114315999006
 30
0.0
 10
10.12903640337488
 20
62.89005303784193
 30
0.0
 10
9.993727707174655
 20
62.7747360720828
 30
0.0
 10
9.968274829257982
 20
62.60956290854472
 30
0.0
 10
9.973000118195312
 20
62.44642491907729
 30
0.0
 10
9.975039376645574
 20
62.3372729103858
 30
0.0
 10
9.978832582874393
 20
62.2825517457753
 30
0.0
  0
SPLINE
  5
316
330
1F
100
AcDbEntity
  8
Default
100
AcDbSpline
210
0.0
220
0.0
230
1.0
 70
    12
 71
     2
 72
     6
 73
     3
 74
     0
 42
0.0000000001
 43
0.0000000001
 40
-8.916753955582376
 40
-8.916753955582376
 40
-8.916753955582376
 40
0.0
 40
0.0
 40
0.0
 10
9.978832582874393
 20
62.2825517457753
 30
0.0
 41
1.0
 10
10.1593995003465
 20
57.82751610117307
 30
0.0
 41
0.999999992133563
 10
10.34030525366302
 20
53.37281009684475
 30
0.0
 41
1.0
  0
SPLINE
  5
317
330
1F
100
AcDbEntity
  8
Default
100
AcDbSpline
210
0.0
220
0.0
230
1.0
 70
     8
 71
     3
 72
    13
 73
     9
 74
     0
 42
0.0000000001
 43
0.0000000001
 40
0.0
 40
0.0
 40
0.0
 40
0.0
 40
0.395527703351349
 40
0.7115296423533725
 40
1.473711888702568
 40
1.918618861522269
 40
2.261375290675533
 40
2.993305820681012
 40
2.993305820681012
 40
2.993305820681012
 40
2.993305820681012
 10
10.34030525366302
 20
53.37281009684475
 30
0.0
 10
10.34810588664418
 20
53.24126264573513
 30
0.0
 10
10.36017839996018
 20
53.00185012202229
 30
0.0
 10
10.65354991776124
 20
52.56929597752285
 30
0.0
 10
11.19831861010367
 20
52.49370557477467
 30
0.0
 10
11.69742096120602
 20
52.52467182699513
 30
0.0
 10
12.19298591906866
 20
52.72720365631818
 30
0.0
 10
12.31613803649902
 20
53.11186193544525
 30
0.0
 10
12.32342566337068
 20
53.35055674396458
 30
0.0
  0
SPLINE
  5
318
330
1F
100
AcDbEntity
  8
Default
100
AcDbSpline
210
0.0
220
0.0
230
1.0
 70
     8
 71
     3
 72
    13
 73
     9
 74
     0
 42
0.0000000001
 43
0.0000000001
 40
-9.122654605371297
 40
-9.122654605371297
 40
-9.122654605371297
 40
-9.122654605371297
 40
-7.881510781715873
 40
-5.624433338112524
 40
-3.246071165084628
 40
-1.644483531213838
 40
-0.8879805977067776
 40
0.0
 40
0.0
 40
0.0
 40
0.0
 10
12.32342566337068
 20
53.35055674396458
 30
0.0
 10
12.34403482211335
 20
53.76384099289945
 30
0.0
 10
12.34581805726379
 20
54.93049280384461
 30
0.0
 10
12.31066644608845
 20
56.88809730448985
 30
0.0
 10
12.22726480796158
 20
58.96781421979406
 30
0.0
 10
11.92586787416685
 20
60.52459295095469
 30
0.0
 10
11.52279315565631
 20
61.53284387877135
 30
0.0
 10
11.27311262426002
 20
62.01984932389447
 30
0.0
 10
11.12476564774535
 20
62.27974428405401
 30
0.0
  0
SPLINE
  5
319
330
1F
100
AcDbEntity
  8
Default
100
AcDbSpline
210
0.0
220
0.0
230
1.0
 70
     8
 71
     3
 72
    19
 73
    15
 74
     0
 42
0.0000000001
 43
0.0000000001
 40
0.0
 40
0.0
 40
0.0
 40
0.0
 40
1.0
 40
2.0
 40
3.0
 40
4.0
 40
5.0
 40
6.0
 40
7.0
 40
8.0
 40
9.0
 40
10.0
 40
11.0
 40
12.0
 40
12.0
 40
12.0
 40
12.0
 10
-11.12476564774535
 20
62.27974428405401
 30
0.0
 10
-11.09649205063458
 20
62.32954103110033
 30
0.0
 10
-11.04227401935176
 20
62.42405466377237
 30
0.0
 10
-10.95896338064865
 20
62.56523955492212
 30
0.0
 10
-10.8758482082302
 20
62.70470161808849
 30
0.0
 10
-10.78518698073986
 20
62.84643307394277
 30
0.0
 10
-10.62278535379107
 20
62.90075852851165
 30
0.0
 10
-10.45869442787308
 20
62.88805041627754
 30
0.0
 10
-10.29610680694791
 20
62.89114315999006
 30
0.0
 10
-10.12903640337488
 20
62.89005303784193
 30
0.0
 10
-9.993727707174655
 20
62.7747360720828
 30
0.0
 10
-9.968274829257982
 20
62.60956290854472
 30
0.0
 10
-9.973000118195312
 20
62.44642491907729
 30
0.0
 10
-9.975039376645574
 20
62.3372729103858
 30
0.0
 10
-9.978832582874393
 20
62.2825517457753
 30
0.0
  0
SPLINE
  5
31A
330
1F
100
AcDbEntity
  8
Default
100
AcDbSpline
210
0.0
220
0.0
230
1.0
 70
    12
 71
     2
 72
     6
 73
     3
 74
     0
 42
0.0000000001
 43
0.0000000001
 40
-8.916753955582376
 40
-8.916753955582376
 40
-8.916753955582376
 40
0.0
 40
0.0
 40
0.0
 10
-9.978832582874393
 20
62.2825517457753
 30
0.0
 41
1.0
 10
-10.1593995003465
 20
57.82751610117307
 30
0.0
 41
0.999999992133563
 10
-10.34030525366302
 20
53.37281009684475
 30
0.0
 41
1.0
  0
SPLINE
  5
31B
330
1F
100
AcDbEntity
  8
Default
100
AcDbSpline
210
0.0
220
0.0
230
1.0
 70
     8
 71
     3
 72
    13
 73
     9
 74
     0
 42
0.0000000001
 43
0.0000000001
 40
0.0
 40
0.0
 40
0.0
 40
0.0
 40
0.395527703351349
 40
0.7115296423533725
 40
1.473711888702568
 40
1.918618861522269
 40
2.261375290675533
 40
2.993305820681012
 40
2.993305820681012
 40
2.993305820681012
 40
2.993305820681012
 10
-10.34030525366302
 20
53.37281009684475
 30
0.0
 10
-10.34810588664418
 20
53.24126264573513
 30
0.0
 10
-10.36017839996018
 20
53.00185012202229
 30
0.0
 10
-10.65354991776124
 20
52.56929597752285
 30
0.0
 10
-11.19831861010367
 20
52.49370557477467
 30
0.0
 10
-11.69742096120602
 20
52.52467182699513
 30
0.0
 10
-12.19298591906866
 20
52.72720365631818
 30
0.0
 10
-12.31613803649902
 20
53.11186193544525
 30
0.0
 10
-12.32342566337068
 20
53.35055674396458
 30
0.0
  0
SPLINE
  5
31C
330
1F
100
AcDbEntity
  8
Default
100
AcDbSpline
210
0.0
220
0.0
230
1.0
 70
     8
 71
     3
 72
    13
 73
     9
 74
     0
 42
0.0000000001
 43
0.0000000001
 40
-9.122654605371297
 40
-9.122654605371297
 40
-9.122654605371297
 40
-9.122654605371297
 40
-7.881510781715873
 40
-5.624433338112524
 40
-3.246071165084628
 40
-1.644483531213838
 40
-0.8879805977067776
 40
0.0
 40
0.0
 40
0.0
 40
0.0
 10
-12.32342566337068
 20
53.35055674396458
 30
0.0
 10
-12.34403482211335
 20
53.76384099289945
 30
0.0
 10
-12.34581805726379
 20
54.93049280384461
 30
0.0
 10
-12.31066644608845
 20
56.88809730448985
 30
0.0
 10
-12.22726480796158
 20
58.96781421979406
 30
0.0
 10
-11.92586787416685
 20
60.52459295095469
 30
0.0
 10
-11.52279315565631
 20
61.53284387877135
 30
0.0
 10
-11.27311262426002
 20
62.01984932389447
 30
0.0
 10
-11.12476564774535
 20
62.27974428405401
 30
0.0
  0
SPLINE
  5
31D
330
1F
100
AcDbEntity
  8
Default
100
AcDbSpline
210
0.0
220
0.0
230
1.0
 70
    12
 71
     3
 72
    15
 73
    11
 74
     0
 42
0.0000000001
 43
0.0000000001
 40
-2.459698854556232
 40
-2.459698854556232
 40
-2.459698854556232
 40
-2.459698854556232
 40
-2.268166335785546
 40
-2.058313909167876
 40
-1.562252329640201
 40
-0.8455266239665629
 40
0.0
 40
0.0
 40
0.0
 40
6.20925689701994
 40
6.20925689701994
 40
6.20925689701994
 40
6.20925689701994
 10
-8.736366572760287
 20
67.07619603611434
 30
0.0
 41
1.0
 10
-8.653009951362167
 20
67.23339741860232
 30
0.0
 41
1.0
 10
-8.463307158793256
 20
67.3518735554199
 30
0.0
 41
1.0
 10
-8.189698935959774
 20
67.47802272984768
 30
0.0
 41
1.0
 10
-7.727267205012157
 20
67.58654620340508
 30
0.0
 41
1.0
 10
-7.045469553838839
 20
67.67352588725288
 30
0.0
 41
1.0
 10
-6.490117705675918
 20
67.68305787519057
 30
0.0
 41
1.0
 10
-6.208429549100515
 20
67.6917817254159
 30
0.0
 41
1.0
 10
-4.139548144117664
 20
67.75585474762073
 30
0.0
 41
0.9998830559991921
 10
-2.06982958629012
 20
67.7811670261145
 30
0.0
 41
0.9998830559991921
 10
0.000000000876021
 20
67.76770968053987
 30
0.0
 41
1.0
  0
SPLINE
  5
31E
330
1F
100
AcDbEntity
  8
Default
100
AcDbSpline
210
0.0
220
0.0
230
1.0
 70
    12
 71
     3
 72
    15
 73
    11
 74
     0
 42
0.0000000001
 43
0.0000000001
 40
-6.20925689701994
 40
-6.20925689701994
 40
-6.20925689701994
 40
-6.20925689701994
 40
0.0
 40
0.0
 40
0.0
 40
0.8455266239665629
 40
1.562252329640201
 40
2.058313909167876
 40
2.268166335785546
 40
2.459698854556232
 40
2.459698854556232
 40
2.459698854556232
 40
2.459698854556232
 10
0.000000000876021
 20
67.76770968053987
 30
0.0
 41
1.0
 10
2.069829588042162
 20
67.7811670261145
 30
0.0
 41
0.9998830559991921
 10
4.139548145869705
 20
67.75585474762073
 30
0.0
 41
0.9998830559991921
 10
6.208429550852557
 20
67.6917817254159
 30
0.0
 41
1.0
 10
6.49011770742796
 20
67.68305787519057
 30
0.0
 41
1.0
 10
7.045469555590881
 20
67.67352588725288
 30
0.0
 41
1.0
 10
7.727267206764199
 20
67.58654620340508
 30
0.0
 41
1.0
 10
8.189698937711816
 20
67.47802272984768
 30
0.0
 41
1.0
 10
8.463307160545298
 20
67.3518735554199
 30
0.0
 41
1.0
 10
8.653009953114209
 20
67.23339741860232
 30
0.0
 41
1.0
 10
8.73636657451233
 20
67.07619603611434
 30
0.0
 41
1.0
  0
SPLINE
  5
31F
330
1F
100
AcDbEntity
  8
Default
100
AcDbSpline
210
0.0
220
0.0
230
1.0
 70
     8
 71
     3
 72
    13
 73
     9
 74
     0
 42
0.0000000001
 43
0.0000000001
 40
0.0
 40
0.0
 40
0.0
 40
0.0
 40
1.674929523489223
 40
2.203368228823596
 40
2.457683809125602
 40
2.788163095648862
 40
2.900762073900839
 40
3.452832494218632
 40
3.452832494218632
 40
3.452832494218632
 40
3.452832494218632
 10
-6.100879774479424
 20
67.38189094992748
 30
0.0
 10
-6.658589024047177
 20
67.36348530822343
 30
0.0
 10
-7.395027901451857
 20
67.36470894530154
 30
0.0
 10
-8.20910994454799
 20
67.27862482649743
 30
0.0
 10
-8.577720293631849
 20
67.22312843067087
 30
0.0
 10
-8.77632066432837
 20
67.07079472113247
 30
0.0
 10
-8.846941603891036
 20
66.7369247408385
 30
0.0
 10
-8.882542385119315
 20
66.52596110706187
 30
0.0
 10
-8.917168859779984
 20
66.34037889171162
 30
0.0
  0
SPLINE
  5
320
330
1F
100
AcDbEntity
  8
Default
100
AcDbSpline
210
0.0
220
0.0
230
1.0
 70
     8
 71
     3
 72
    14
 73
    10
 74
     0
 42
0.0000000001
 43
0.0000000001
 40
-7.0
 40
-7.0
 40
-7.0
 40
-7.0
 40
-6.0
 40
-5.0
 40
-4.0
 40
-3.0
 40
-2.0
 40
-1.0
 40
0.0
 40
0.0
 40
0.0
 40
0.0
 10
-8.917168859779984
 20
66.34037889171162
 30
0.0
 10
-8.941306213675094
 20
66.21101361117283
 30
0.0
 10
-8.989547904960448
 20
65.95223822282213
 30
0.0
 10
-9.062850158000291
 20
65.56439620630789
 30
0.0
 10
-9.143506074061435
 20
65.17749579221191
 30
0.0
 10
-9.222477619495288
 20
64.79219112716157
 30
0.0
 10
-9.315146219137278
 20
64.40798106427357
 30
0.0
 10
-9.42158464258628
 20
64.02752981764701
 30
0.0
 10
-9.505569668516364
 20
63.77875553169607
 30
0.0
 10
-9.542959160769433
 20
63.64930897112078
 30
0.0
  0
SPLINE
  5
321
330
1F
100
AcDbEntity
  8
Default
100
AcDbSpline
210
0.0
220
0.0
230
1.0
 70
     8
 71
     3
 72
    12
 73
     8
 74
     0
 42
0.0000000001
 43
0.0000000001
 40
-2.841786112680442
 40
-2.841786112680442
 40
-2.841786112680442
 40
-2.841786112680442
 40
-2.33100029786116
 40
-1.730312260355039
 40
-1.006628381189417
 40
-0.5601813325919797
 40
0.0
 40
0.0
 40
0.0
 40
0.0
 10
-9.542959160769433
 20
63.64930897112078
 30
0.0
 10
-9.464691022826145
 20
63.49439224489351
 30
0.0
 10
-9.190938853384008
 20
63.22865755902254
 30
0.0
 10
-8.605142536705927
 20
63.02133566813382
 30
0.0
 10
-8.014622553939585
 20
62.97688328382718
 30
0.0
 10
-7.437670234227297
 20
63.00494779602521
 30
0.0
 10
-7.104275057103315
 20
63.04048434102969
 30
0.0
 10
-6.918726261103044
 20
63.06234337154707
 30
0.0
  0
SPLINE
  5
322
330
1F
100
AcDbEntity
  8
Default
100
AcDbSpline
210
0.0
220
0.0
230
1.0
 70
    12
 71
     2
 72
     6
 73
     3
 74
     0
 42
0.0000000001
 43
0.0000000001
 40
-6.88575748835304
 40
-6.88575748835304
 40
-6.88575748835304
 40
0.0
 40
0.0
 40
0.0
 10
-6.918726261103044
 20
63.06234337154707
 30
0.0
 41
1.0
 10
-3.496720773731824
 20
63.46548111208499
 30
0.0
 41
0.9987853380929268
 10
0.0000000008610819
 20
63.49414654920972
 30
0.0
 41
1.0
  0
SPLINE
  5
323
330
1F
100
AcDbEntity
  8
Default
100
AcDbSpline
210
0.0
220
0.0
230
1.0
 70
    12
 71
     2
 72
     6
 73
     3
 74
     0
 42
0.0000000001
 43
0.0000000001
 40
0.0
 40
0.0
 40
0.0
 40
6.88575748835304
 40
6.88575748835304
 40
6.88575748835304
 10
0.0000000008610819
 20
63.49414654920972
 30
0.0
 41
1.0
 10
3.496720775453988
 20
63.46548111208499
 30
0.0
 41
0.9987853380929268
 10
6.918726262825207
 20
63.06234337154707
 30
0.0
 41
1.0
  0
SPLINE
  5
324
330
1F
100
AcDbEntity
  8
Default
100
AcDbSpline
210
0.0
220
0.0
230
1.0
 70
     8
 71
     3
 72
    12
 73
     8
 74
     0
 42
0.0000000001
 43
0.0000000001
 40
0.0
 40
0.0
 40
0.0
 40
0.0
 40
0.5601813325919797
 40
1.006628381189417
 40
1.730312260355039
 40
2.33100029786116
 40
2.841786112680442
 40
2.841786112680442
 40
2.841786112680442
 40
2.841786112680442
 10
6.918726262825207
 20
63.06234337154707
 30
0.0
 10
7.104275058825479
 20
63.04048434102969
 30
0.0
 10
7.437670235949461
 20
63.00494779602521
 30
0.0
 10
8.014622555661749
 20
62.97688328382718
 30
0.0
 10
8.60514253842809
 20
63.02133566813382
 30
0.0
 10
9.190938855106172
 20
63.22865755902254
 30
0.0
 10
9.464691024548308
 20
63.49439224489351
 30
0.0
 10
9.542959162491597
 20
63.64930897112078
 30
0.0
  0
SPLINE
  5
325
330
1F
100
AcDbEntity
  8
Default
100
AcDbSpline
210
0.0
220
0.0
230
1.0
 70
     8
 71
     3
 72
    14
 73
    10
 74
     0
 42
0.0000000001
 43
0.0000000001
 40
0.0
 40
0.0
 40
0.0
 40
0.0
 40
1.0
 40
2.0
 40
3.0
 40
4.0
 40
5.0
 40
6.0
 40
7.0
 40
7.0
 40
7.0
 40
7.0
 10
9.542959162491597
 20
63.64930897112078
 30
0.0
 10
9.505569670238527
 20
63.77875553169607
 30
0.0
 10
9.421584644308444
 20
64.02752981764701
 30
0.0
 10
9.315146220859441
 20
64.40798106427357
 30
0.0
 10
9.222477621217452
 20
64.79219112716157
 30
0.0
 10
9.143506075783598
 20
65.17749579221191
 30
0.0
 10
9.062850159722455
 20
65.56439620630789
 30
0.0
 10
8.989547906682612
 20
65.95223822282213
 30
0.0
 10
8.941306215397258
 20
66.21101361117283
 30
0.0
 10
8.917168861502148
 20
66.34037889171162
 30
0.0
  0
SPLINE
  5
326
330
1F
100
AcDbEntity
  8
Default
100
AcDbSpline
210
0.0
220
0.0
230
1.0
 70
     8
 71
     3
 72
    13
 73
     9
 74
     0
 42
0.0000000001
 43
0.0000000001
 40
-3.452832494218632
 40
-3.452832494218632
 40
-3.452832494218632
 40
-3.452832494218632
 40
-2.900762073900839
 40
-2.788163095648862
 40
-2.457683809125602
 40
-2.203368228823596
 40
-1.674929523489223
 40
0.0
 40
0.0
 40
0.0
 40
0.0
 10
8.917168861502148
 20
66.34037889171162
 30
0.0
 10
8.882542386841479
 20
66.52596110706187
 30
0.0
 10
8.8469416056132
 20
66.7369247408385
 30
0.0
 10
8.776320666050534
 20
67.07079472113247
 30
0.0
 10
8.577720295354013
 20
67.22312843067087
 30
0.0
 10
8.209109946270154
 20
67.27862482649743
 30
0.0
 10
7.395027903174021
 20
67.36470894530154
 30
0.0
 10
6.658589025769341
 20
67.36348530822343
 30
0.0
 10
6.100879776201587
 20
67.38189094992748
 30
0.0
  0
SPLINE
  5
327
330
1F
100
AcDbEntity
  8
Default
100
AcDbSpline
210
0.0
220
0.0
230
1.0
 70
    12
 71
     2
 72
     6
 73
     3
 74
     0
 42
0.0000000001
 43
0.0000000001
 40
-6.101722152267229
 40
-6.101722152267229
 40
-6.101722152267229
 40
0.0
 40
0.0
 40
0.0
 10
6.100879776201587
 20
67.38189094992748
 30
0.0
 41
1.0
 10
3.051140853104133
 20
67.48253909580801
 30
0.0
 41
0.9997354533728051
 10
0.0000000008610819
 20
67.44282678889832
 30
0.0
 41
1.0
  0
SPLINE
  5
328
330
1F
100
AcDbEntity
  8
Default
100
AcDbSpline
210
0.0
220
0.0
230
1.0
 70
    12
 71
     2
 72
     6
 73
     3
 74
     0
 42
0.0000000001
 43
0.0000000001
 40
0.0
 40
0.0
 40
0.0
 40
6.101722152267229
 40
6.101722152267229
 40
6.101722152267229
 10
0.0000000008610819
 20
67.44282678889832
 30
0.0
 41
1.0
 10
-3.051140851381969
 20
67.48253909580801
 30
0.0
 41
0.9997354533728051
 10
-6.100879774479424
 20
67.38189094992748
 30
0.0
 41
1.0
  0
SPLINE
  5
329
330
1F
100
AcDbEntity
  8
Default
100
AcDbSpline
210
0.0
220
0.0
230
1.0
 70
     8
 71
     3
 72
    28
 73
    24
 74
     0
 42
0.0000000001
 43
0.0000000001
 40
0.0
 40
0.0
 40
0.0
 40
0.0
 40
1.000000000032454
 40
2.000000000064908
 40
3.000000000097362
 40
4.000000000129816
 40
5.00000000016227
 40
6.000000000194724
 40
7.000000000227178
 40
8.000000000259632
 40
9.000000000292086
 40
10.00000000032454
 40
11.00000000035699
 40
12.00000000038945
 40
13.0000000004219
 40
14.00000000045436
 40
15.00000000048681
 40
16.00000000051926
 40
17.00000000055172
 40
18.00000000058417
 40
19.00000000061663
 40
20.00000000064908
 40
21.0
 40
21.0
 40
21.0
 40
21.0
 10
9.561933681146986
 20
64.24930553544507
 30
0.0
 10
9.609035536712513
 20
63.83083859604644
 30
0.0
 10
9.68822738591701
 20
62.9920451449857
 30
0.0
 10
9.74855351950187
 20
61.72993109315959
 30
0.0
 10
9.781198875970503
 20
60.46694405776926
 30
0.0
 10
9.815864642773747
 20
59.20403009832162
 30
0.0
 10
9.837634805482658
 20
57.94081297055828
 30
0.0
 10
9.852208625765813
 20
56.67750472430394
 30
0.0
 10
9.858058033462362
 20
55.41412022953095
 30
0.0
 10
9.85608834989
 20
54.15073266000461
 30
0.0
 10
9.844182942145554
 20
52.88735943156849
 30
0.0
 10
9.829420247943565
 20
51.62419381228293
 30
0.0
 10
9.76438103443732
 20
50.36117492118191
 30
0.0
 10
9.687453192410764
 20
49.10485302347957
 30
0.0
 10
9.547672998505522
 20
47.83020067650724
 30
0.0
 10
8.749888182089716
 20
46.77046304421851
 30
0.0
 10
7.491861435354149
 20
46.42836688919179
 30
0.0
 10
6.272865362433442
 20
46.14002141258333
 30
0.0
 10
5.030862354552299
 20
45.89148200920167
 30
0.0
 10
3.781708884716576
 20
45.70523034957255
 30
0.0
 10
2.524849766927218
 20
45.57217777662505
 30
0.0
 10
1.263489414242355
 20
45.4959996171773
 30
0.0
 10
0.4211201401491964
 20
45.48249279703109
 30
0.0
 10
0.0
 20
45.48516064608813
 30
0.0
  0
SPLINE
  5
32A
330
1F
100
AcDbEntity
  8
Default
100
AcDbSpline
210
0.0
220
0.0
230
1.0
 70
     8
 71
     3
 72
    28
 73
    24
 74
     0
 42
0.0000000001
 43
0.0000000001
 40
-21.0
 40
-21.0
 40
-21.0
 40
-21.0
 40
-20.00000000064908
 40
-19.00000000061663
 40
-18.00000000058417
 40
-17.00000000055172
 40
-16.00000000051926
 40
-15.00000000048681
 40
-14.00000000045436
 40
-13.0000000004219
 40
-12.00000000038945
 40
-11.00000000035699
 40
-10.00000000032454
 40
-9.000000000292086
 40
-8.000000000259632
 40
-7.000000000227178
 40
-6.000000000194724
 40
-5.00000000016227
 40
-4.000000000129816
 40
-3.000000000097362
 40
-2.000000000064908
 40
-1.000000000032454
 40
0.0
 40
0.0
 40
0.0
 40
0.0
 10
0.0
 20
45.48516064608813
 30
0.0
 10
-0.4211201401491964
 20
45.48249279703109
 30
0.0
 10
-1.263489414242355
 20
45.4959996171773
 30
0.0
 10
-2.524849766927218
 20
45.57217777662505
 30
0.0
 10
-3.781708884716576
 20
45.70523034957255
 30
0.0
 10
-5.030862354552299
 20
45.89148200920167
 30
0.0
 10
-6.272865362433442
 20
46.14002141258333
 30
0.0
 10
-7.491861435354149
 20
46.42836688919179
 30
0.0
 10
-8.749888182089716
 20
46.77046304421851
 30
0.0
 10
-9.547672998505522
 20
47.83020067650724
 30
0.0
 10
-9.687453192410764
 20
49.10485302347957
 30
0.0
 10
-9.76438103443732
 20
50.36117492118191
 30
0.0
 10
-9.829420247943565
 20
51.62419381228293
 30
0.0
 10
-9.844182942145554
 20
52.88735943156849
 30
0.0
 10
-9.85608834989
 20
54.15073266000461
 30
0.0
 10
-9.858058033462362
 20
55.41412022953095
 30
0.0
 10
-9.852208625765813
 20
56.67750472430394
 30
0.0
 10
-9.837634805482658
 20
57.94081297055828
 30
0.0
 10
-9.815864642773747
 20
59.20403009832162
 30
0.0
 10
-9.781198875970503
 20
60.46694405776926
 30
0.0
 10
-9.74855351950187
 20
61.72993109315959
 30
0.0
 10
-9.68822738591701
 20
62.9920451449857
 30
0.0
 10
-9.609035536712513
 20
63.83083859604644
 30
0.0
 10
-9.561933681146986
 20
64.24930553544507
 30
0.0
  0
SPLINE
  5
32B
330
1F
100
AcDbEntity
  8
Default
100
AcDbSpline
210
0.0
220
0.0
230
1.0
 70
     8
 71
     3
 72
     9
 73
     5
 74
     0
 42
0.0000000001
 43
0.0000000001
 40
0.0
 40
0.0
 40
0.0
 40
0.0
 40
1.0
 40
2.0
 40
2.0
 40
2.0
 40
2.0
 10
-7.302681326772444
 20
67.63563578717225
 30
0.0
 10
-7.457869071080452
 20
67.86008958480261
 30
0.0
 10
-7.76279185765037
 20
68.31226918968719
 30
0.0
 10
-8.081615606558003
 20
68.75608386282178
 30
0.0
 10
-8.213677125208449
 20
68.99489798588155
 30
0.0
  0
SPLINE
  5
32C
330
1F
100
AcDbEntity
  8
Default
100
AcDbSpline
210
0.0
220
0.0
230
1.0
 70
     8
 71
     3
 72
     8
 73
     4
 74
     0
 42
0.0000000001
 43
0.0000000001
 40
0.0
 40
0.0
 40
0.0
 40
0.0
 40
1.0
 40
1.0
 40
1.0
 40
1.0
 10
-8.213677125208449
 20
68.99489798588155
 30
0.0
 10
-8.250341053143373
 20
69.06119938758573
 30
0.0
 10
-8.237149676519195
 20
69.17869649219253
 30
0.0
 10
-8.234468487141925
 20
69.26272978000523
 30
0.0
  0
SPLINE
  5
32D
330
1F
100
AcDbEntity
  8
Default
100
AcDbSpline
210
0.0
220
0.0
230
1.0
 70
     8
 71
     3
 72
    12
 73
     8
 74
     0
 42
0.0000000001
 43
0.0000000001
 40
0.0
 40
0.0
 40
0.0
 40
0.0
 40
1.0
 40
2.0
 40
3.0
 40
4.0
 40
5.0
 40
5.0
 40
5.0
 40
5.0
 10
-8.234468487141925
 20
69.26272978000523
 30
0.0
 10
-8.232249395969433
 20
69.3322800806151
 30
0.0
 10
-8.208331018518805
 20
69.47195987388841
 30
0.0
 10
-8.093404888551731
 20
69.65180648626199
 30
0.0
 10
-7.919716960028154
 20
69.7744950702699
 30
0.0
 10
-7.711804108699269
 20
69.8235093412834
 30
0.0
 10
-7.572412611088225
 20
69.79828388486473
 30
0.0
 10
-7.505588972674815
 20
69.77918932510198
 30
0.0
  0
SPLINE
  5
32E
330
1F
100
AcDbEntity
  8
Default
100
AcDbSpline
210
0.0
220
0.0
230
1.0
 70
     8
 71
     3
 72
     8
 73
     4
 74
     0
 42
0.0000000001
 43
0.0000000001
 40
-1.0
 40
-1.0
 40
-1.0
 40
-1.0
 40
0.0
 40
0.0
 40
0.0
 40
0.0
 10
-7.505588972674815
 20
69.77918932510198
 30
0.0
 10
-7.416217410289562
 20
69.7536517955754
 30
0.0
 10
-7.291816355869543
 20
69.70964749533891
 30
0.0
 10
-7.23483331796632
 20
69.64466050646635
 30
0.0
  0
SPLINE
  5
32F
330
1F
100
AcDbEntity
  8
Default
100
AcDbSpline
210
0.0
220
0.0
230
1.0
 70
     8
 71
     3
 72
    10
 73
     6
 74
     0
 42
0.0000000001
 43
0.0000000001
 40
-3.0
 40
-3.0
 40
-3.0
 40
-3.0
 40
-2.0
 40
-1.0
 40
0.0
 40
0.0
 40
0.0
 40
0.0
 10
-7.23483331796632
 20
69.64466050646635
 30
0.0
 10
-7.055070770738411
 20
69.43964815390902
 30
0.0
 10
-6.729774337047743
 20
69.00214617702122
 30
0.0
 10
-6.229434621667366
 20
68.35581982407601
 30
0.0
 10
-5.898412845299816
 20
67.92290147236852
 30
0.0
 10
-5.73237901704212
 20
67.70686088899896
 30
0.0
  0
LINE
  5
330
330
1F
100
AcDbEntity
  8
Default
100
AcDbLine
 10
-6.87205671653301
 20
69.1941609933175
 30
0.0
 11
-6.872056716538125
 21
71.41014403238106
 31
0.0
  0
SPLINE
  5
331
330
1F
100
AcDbEntity
  8
Default
100
AcDbSpline
210
0.0
220
0.0
230
1.0
 70
    12
 71
     2
 72
     6
 73
     3
 74
     0
 42
0.0000000001
 43
0.0000000001
 40
-0.1962262002655539
 40
-0.1962262002655539
 40
-0.1962262002655539
 40
0.0
 40
0.0
 40
0.0
 10
-6.872056716538125
 20
71.41014403238106
 30
0.0
 41
1.0
 10
-6.872342444528746
 20
71.54450002743002
 30
0.0
 41
0.7087216953731701
 10
-6.997056716535468
 20
71.54478460618998
 30
0.0
 41
1.0
  0
SPLINE
  5
332
330
1F
100
AcDbEntity
  8
Default
100
AcDbSpline
210
0.0
220
0.0
230
1.0
 70
    24
 71
     2
 72
     6
 73
     3
 74
     0
 42
0.0000000001
 43
0.0000000001
 40
-0.34375
 40
-0.34375
 40
-0.34375
 40
0.0
 40
0.0
 40
0.0
 10
-6.997056716535468
 20
71.54478460618998
 30
0.0
 10
-7.168931716535468
 20
71.54478460618998
 30
0.0
 10
-7.340806716535468
 20
71.54478460618998
 30
0.0
  0
POLYLINE
  5
333
330
1F
100
AcDbEntity
  8
Default
100
AcDb2dPolyline
 66
     1
 10
0.0
 20
0.0
 30
0.0
  0
VERTEX
  5
334
330
333
100
AcDbEntity
  8
Default
100
AcDbVertex
100
AcDb2dVertex
 10
-7.340806716535468
 20
71.54478460618998
 30
0.0
  0
VERTEX
  5
335
330
333
100
AcDbEntity
  8
Default
100
AcDbVertex
100
AcDb2dVertex
 10
-7.340806716535468
 20
69.71862977424502
 30
0.0
  0
SEQEND
  5
336
330
333
100
AcDbEntity
  8
Default
  0
POLYLINE
  5
337
330
1F
100
AcDbEntity
  8
Default
100
AcDb2dPolyline
 66
     1
 10
0.0
 20
0.0
 30
0.0
  0
VERTEX
  5
338
330
337
100
AcDbEntity
  8
Default
100
AcDbVertex
100
AcDb2dVertex
 10
-8.106431716535468
 20
69.616772395114
 30
0.0
  0
VERTEX
  5
339
330
337
100
AcDbEntity
  8
Default
100
AcDbVertex
100
AcDb2dVertex
 10
-8.106431716535468
 20
71.54478460618998
 30
0.0
  0
SEQEND
  5
33A
330
337
100
AcDbEntity
  8
Default
  0
SPLINE
  5
33B
330
1F
100
AcDbEntity
  8
Default
100
AcDbSpline
210
0.0
220
0.0
230
1.0
 70
    24
 71
     2
 72
     6
 73
     3
 74
     0
 42
0.0000000001
 43
0.0000000001
 40
0.0
 40
0.0
 40
0.0
 40
0.71875
 40
0.71875
 40
0.71875
 10
-8.106431716535468
 20
71.54478460618998
 30
0.0
 10
-7.747056716535468
 20
71.54478460618998
 30
0.0
 10
-7.387681716535468
 20
71.54478460618998
 30
0.0
  0
POLYLINE
  5
33C
330
1F
100
AcDbEntity
  8
Default
100
AcDb2dPolyline
 66
     1
 10
0.0
 20
0.0
 30
0.0
  0
VERTEX
  5
33D
330
33C
100
AcDbEntity
  8
Default
100
AcDbVertex
100
AcDb2dVertex
 10
-7.387681716535468
 20
71.54478460618998
 30
0.0
  0
VERTEX
  5
33E
330
33C
100
AcDbEntity
  8
Default
100
AcDbVertex
100
AcDb2dVertex
 10
-7.387681716535468
 20
69.73935631021413
 30
0.0
  0
SEQEND
  5
33F
330
33C
100
AcDbEntity
  8
Default
  0
SPLINE
  5
340
330
1F
100
AcDbEntity
  8
Default
100
AcDbSpline
210
0.0
220
0.0
230
1.0
 70
    24
 71
     2
 72
     6
 73
     3
 74
     0
 42
0.0000000001
 43
0.0000000001
 40
0.0
 40
0.0
 40
0.0
 40
0.2777755386439109
 40
0.2777755386439109
 40
0.2777755386439109
 10
-8.21928117789156
 20
68.98478460618998
 30
0.0
 10
-8.358168947213514
 20
68.98478460618998
 30
0.0
 10
-8.497056716535468
 20
68.98478460618998
 30
0.0
  0
SPLINE
  5
341
330
1F
100
AcDbEntity
  8
Default
100
AcDbSpline
210
0.0
220
0.0
230
1.0
 70
    12
 71
     2
 72
     6
 73
     3
 74
     0
 42
0.0000000001
 43
0.0000000001
 40
0.0
 40
0.0
 40
0.0
 40
0.1962262002633594
 40
0.1962262002633594
 40
0.1962262002633594
 10
-8.497056716535468
 20
68.98478460618998
 30
0.0
 41
1.0
 10
-8.621770988537047
 20
68.98506918495508
 30
0.0
 41
0.7087216954022736
 10
-8.622056716532825
 20
69.109783454329
 30
0.0
 41
1.0
  0
LINE
  5
342
330
1F
100
AcDbEntity
  8
Default
100
AcDbLine
 10
-8.622056716532825
 20
69.109783454329
 30
0.0
 11
-8.62205671653281
 21
71.41014403238106
 31
0.0
  0
SPLINE
  5
343
330
1F
100
AcDbEntity
  8
Default
100
AcDbSpline
210
0.0
220
0.0
230
1.0
 70
    12
 71
     2
 72
     6
 73
     3
 74
     0
 42
0.0000000001
 43
0.0000000001
 40
0.0
 40
0.0
 40
0.0
 40
0.1961795420040537
 40
0.1961795420040537
 40
0.1961795420040537
 10
-8.62205671653281
 20
71.41014403238106
 30
0.0
 41
1.0
 10
-8.621662378742565
 20
71.54439141662958
 30
0.0
 41
0.7093377524061443
 10
-8.497056716535468
 20
71.54478460618998
 30
0.0
 41
1.0
  0
SPLINE
  5
344
330
1F
100
AcDbEntity
  8
Default
100
AcDbSpline
210
0.0
220
0.0
230
1.0
 70
    24
 71
     2
 72
     6
 73
     3
 74
     0
 42
0.0000000001
 43
0.0000000001
 40
0.0
 40
0.0
 40
0.0
 40
0.34375
 40
0.34375
 40
0.34375
 10
-8.497056716535468
 20
71.54478460618998
 30
0.0
 10
-8.325181716535468
 20
71.54478460618998
 30
0.0
 10
-8.153306716535468
 20
71.54478460618998
 30
0.0
  0
POLYLINE
  5
345
330
1F
100
AcDbEntity
  8
Default
100
AcDb2dPolyline
 66
     1
 10
0.0
 20
0.0
 30
0.0
  0
VERTEX
  5
346
330
345
100
AcDbEntity
  8
Default
100
AcDbVertex
100
AcDb2dVertex
 10
-8.153306716535468
 20
71.54478460618998
 30
0.0
  0
VERTEX
  5
347
330
345
100
AcDbEntity
  8
Default
100
AcDbVertex
100
AcDb2dVertex
 10
-8.153306716535468
 20
69.55156542076702
 30
0.0
  0
SEQEND
  5
348
330
345
100
AcDbEntity
  8
Default
  0
SPLINE
  5
349
330
1F
100
AcDbEntity
  8
Default
100
AcDbSpline
210
0.0
220
0.0
230
1.0
 70
     8
 71
     3
 72
     9
 73
     5
 74
     0
 42
0.0000000001
 43
0.0000000001
 40
0.0
 40
0.0
 40
0.0
 40
0.0
 40
1.0
 40
2.0
 40
2.0
 40
2.0
 40
2.0
 10
7.302681326772444
 20
67.63563578717225
 30
0.0
 10
7.457869071080452
 20
67.86008958480261
 30
0.0
 10
7.76279185765037
 20
68.31226918968719
 30
0.0
 10
8.081615606558003
 20
68.75608386282178
 30
0.0
 10
8.213677125208449
 20
68.99489798588155
 30
0.0
  0
SPLINE
  5
34A
330
1F
100
AcDbEntity
  8
Default
100
AcDbSpline
210
0.0
220
0.0
230
1.0
 70
     8
 71
     3
 72
     8
 73
     4
 74
     0
 42
0.0000000001
 43
0.0000000001
 40
0.0
 40
0.0
 40
0.0
 40
0.0
 40
1.0
 40
1.0
 40
1.0
 40
1.0
 10
8.213677125208449
 20
68.99489798588155
 30
0.0
 10
8.250341053143373
 20
69.06119938758573
 30
0.0
 10
8.237149676519195
 20
69.17869649219253
 30
0.0
 10
8.234468487141925
 20
69.26272978000523
 30
0.0
  0
SPLINE
  5
34B
330
1F
100
AcDbEntity
  8
Default
100
AcDbSpline
210
0.0
220
0.0
230
1.0
 70
     8
 71
     3
 72
    12
 73
     8
 74
     0
 42
0.0000000001
 43
0.0000000001
 40
0.0
 40
0.0
 40
0.0
 40
0.0
 40
1.0
 40
2.0
 40
3.0
 40
4.0
 40
5.0
 40
5.0
 40
5.0
 40
5.0
 10
8.234468487141925
 20
69.26272978000523
 30
0.0
 10
8.232249395969433
 20
69.3322800806151
 30
0.0
 10
8.208331018518805
 20
69.47195987388841
 30
0.0
 10
8.093404888551731
 20
69.65180648626199
 30
0.0
 10
7.919716960028154
 20
69.7744950702699
 30
0.0
 10
7.711804108699269
 20
69.8235093412834
 30
0.0
 10
7.572412611088225
 20
69.79828388486473
 30
0.0
 10
7.505588972674815
 20
69.77918932510198
 30
0.0
  0
SPLINE
  5
34C
330
1F
100
AcDbEntity
  8
Default
100
AcDbSpline
210
0.0
220
0.0
230
1.0
 70
     8
 71
     3
 72
     8
 73
     4
 74
     0
 42
0.0000000001
 43
0.0000000001
 40
-1.0
 40
-1.0
 40
-1.0
 40
-1.0
 40
0.0
 40
0.0
 40
0.0
 40
0.0
 10
7.505588972674815
 20
69.77918932510198
 30
0.0
 10
7.416217410289562
 20
69.7536517955754
 30
0.0
 10
7.291816355869543
 20
69.70964749533891
 30
0.0
 10
7.23483331796632
 20
69.64466050646635
 30
0.0
  0
SPLINE
  5
34D
330
1F
100
AcDbEntity
  8
Default
100
AcDbSpline
210
0.0
220
0.0
230
1.0
 70
     8
 71
     3
 72
    10
 73
     6
 74
     0
 42
0.0000000001
 43
0.0000000001
 40
-3.0
 40
-3.0
 40
-3.0
 40
-3.0
 40
-2.0
 40
-1.0
 40
0.0
 40
0.0
 40
0.0
 40
0.0
 10
7.23483331796632
 20
69.64466050646635
 30
0.0
 10
7.055070770738411
 20
69.43964815390902
 30
0.0
 10
6.729774337047743
 20
69.00214617702122
 30
0.0
 10
6.229434621667366
 20
68.35581982407601
 30
0.0
 10
5.898412845299816
 20
67.92290147236852
 30
0.0
 10
5.73237901704212
 20
67.70686088899896
 30
0.0
  0
LINE
  5
34E
330
1F
100
AcDbEntity
  8
Default
100
AcDbLine
 10
6.87205671653301
 20
69.1941609933175
 30
0.0
 11
6.872056716538125
 21
71.41014403238106
 31
0.0
  0
SPLINE
  5
34F
330
1F
100
AcDbEntity
  8
Default
100
AcDbSpline
210
0.0
220
0.0
230
1.0
 70
    12
 71
     2
 72
     6
 73
     3
 74
     0
 42
0.0000000001
 43
0.0000000001
 40
-0.1962262002655539
 40
-0.1962262002655539
 40
-0.1962262002655539
 40
0.0
 40
0.0
 40
0.0
 10
6.872056716538125
 20
71.41014403238106
 30
0.0
 41
1.0
 10
6.872342444528746
 20
71.54450002743002
 30
0.0
 41
0.7087216953731701
 10
6.997056716535468
 20
71.54478460618998
 30
0.0
 41
1.0
  0
SPLINE
  5
350
330
1F
100
AcDbEntity
  8
Default
100
AcDbSpline
210
0.0
220
0.0
230
1.0
 70
    24
 71
     2
 72
     6
 73
     3
 74
     0
 42
0.0000000001
 43
0.0000000001
 40
-0.34375
 40
-0.34375
 40
-0.34375
 40
0.0
 40
0.0
 40
0.0
 10
6.997056716535468
 20
71.54478460618998
 30
0.0
 10
7.168931716535468
 20
71.54478460618998
 30
0.0
 10
7.340806716535468
 20
71.54478460618998
 30
0.0
  0
POLYLINE
  5
351
330
1F
100
AcDbEntity
  8
Default
100
AcDb2dPolyline
 66
     1
 10
0.0
 20
0.0
 30
0.0
  0
VERTEX
  5
352
330
351
100
AcDbEntity
  8
Default
100
AcDbVertex
100
AcDb2dVertex
 10
7.340806716535468
 20
71.54478460618998
 30
0.0
  0
VERTEX
  5
353
330
351
100
AcDbEntity
  8
Default
100
AcDbVertex
100
AcDb2dVertex
 10
7.340806716535468
 20
69.71862977424502
 30
0.0
  0
SEQEND
  5
354
330
351
100
AcDbEntity
  8
Default
  0
POLYLINE
  5
355
330
1F
100
AcDbEntity
  8
Default
100
AcDb2dPolyline
 66
     1
 10
0.0
 20
0.0
 30
0.0
  0
VERTEX
  5
356
330
355
100
AcDbEntity
  8
Default
100
AcDbVertex
100
AcDb2dVertex
 10
8.106431716535468
 20
69.616772395114
 30
0.0
  0
VERTEX
  5
357
330
355
100
AcDbEntity
  8
Default
100
AcDbVertex
100
AcDb2dVertex
 10
8.106431716535468
 20
71.54478460618998
 30
0.0
  0
SEQEND
  5
358
330
355
100
AcDbEntity
  8
Default
  0
SPLINE
  5
359
330
1F
100
AcDbEntity
  8
Default
100
AcDbSpline
210
0.0
220
0.0
230
1.0
 70
    24
 71
     2
 72
     6
 73
     3
 74
     0
 42
0.0000000001
 43
0.0000000001
 40
0.0
 40
0.0
 40
0.0
 40
0.71875
 40
0.71875
 40
0.71875
 10
8.106431716535468
 20
71.54478460618998
 30
0.0
 10
7.747056716535468
 20
71.54478460618998
 30
0.0
 10
7.387681716535468
 20
71.54478460618998
 30
0.0
  0
POLYLINE
  5
35A
330
1F
100
AcDbEntity
  8
Default
100
AcDb2dPolyline
 66
     1
 10
0.0
 20
0.0
 30
0.0
  0
VERTEX
  5
35B
330
35A
100
AcDbEntity
  8
Default
100
AcDbVertex
100
AcDb2dVertex
 10
7.387681716535468
 20
71.54478460618998
 30
0.0
  0
VERTEX
  5
35C
330
35A
100
AcDbEntity
  8
Default
100
AcDbVertex
100
AcDb2dVertex
 10
7.387681716535468
 20
69.73935631021413
 30
0.0
  0
SEQEND
  5
35D
330
35A
100
AcDbEntity
  8
Default
  0
SPLINE
  5
35E
330
1F
100
AcDbEntity
  8
Default
100
AcDbSpline
210
0.0
220
0.0
230
1.0
 70
    24
 71
     2
 72
     6
 73
     3
 74
     0
 42
0.0000000001
 43
0.0000000001
 40
0.0
 40
0.0
 40
0.0
 40
0.2777755386439109
 40
0.2777755386439109
 40
0.2777755386439109
 10
8.21928117789156
 20
68.98478460618998
 30
0.0
 10
8.358168947213514
 20
68.98478460618998
 30
0.0
 10
8.497056716535468
 20
68.98478460618998
 30
0.0
  0
SPLINE
  5
35F
330
1F
100
AcDbEntity
  8
Default
100
AcDbSpline
210
0.0
220
0.0
230
1.0
 70
    12
 71
     2
 72
     6
 73
     3
 74
     0
 42
0.0000000001
 43
0.0000000001
 40
0.0
 40
0.0
 40
0.0
 40
0.1962262002633594
 40
0.1962262002633594
 40
0.1962262002633594
 10
8.497056716535468
 20
68.98478460618998
 30
0.0
 41
1.0
 10
8.621770988537047
 20
68.98506918495508
 30
0.0
 41
0.7087216954022736
 10
8.622056716532825
 20
69.109783454329
 30
0.0
 41
1.0
  0
LINE
  5
360
330
1F
100
AcDbEntity
  8
Default
100
AcDbLine
 10
8.622056716532825
 20
69.109783454329
 30
0.0
 11
8.62205671653281
 21
71.41014403238106
 31
0.0
  0
SPLINE
  5
361
330
1F
100
AcDbEntity
  8
Default
100
AcDbSpline
210
0.0
220
0.0
230
1.0
 70
    12
 71
     2
 72
     6
 73
     3
 74
     0
 42
0.0000000001
 43
0.0000000001
 40
0.0
 40
0.0
 40
0.0
 40
0.1961795420040537
 40
0.1961795420040537
 40
0.1961795420040537
 10
8.62205671653281
 20
71.41014403238106
 30
0.0
 41
1.0
 10
8.621662378742565
 20
71.54439141662958
 30
0.0
 41
0.7093377524061443
 10
8.497056716535468
 20
71.54478460618998
 30
0.0
 41
1.0
  0
SPLINE
  5
362
330
1F
100
AcDbEntity
  8
Default
100
AcDbSpline
210
0.0
220
0.0
230
1.0
 70
    24
 71
     2
 72
     6
 73
     3
 74
     0
 42
0.0000000001
 43
0.0000000001
 40
0.0
 40
0.0
 40
0.0
 40
0.34375
 40
0.34375
 40
0.34375
 10
8.497056716535468
 20
71.54478460618998
 30
0.0
 10
8.325181716535468
 20
71.54478460618998
 30
0.0
 10
8.153306716535468
 20
71.54478460618998
 30
0.0
  0
POLYLINE
  5
363
330
1F
100
AcDbEntity
  8
Default
100
AcDb2dPolyline
 66
     1
 10
0.0
 20
0.0
 30
0.0
  0
VERTEX
  5
364
330
363
100
AcDbEntity
  8
Default
100
AcDbVertex
100
AcDb2dVertex
 10
8.153306716535468
 20
71.54478460618998
 30
0.0
  0
VERTEX
  5
365
330
363
100
AcDbEntity
  8
Default
100
AcDbVertex
100
AcDb2dVertex
 10
8.153306716535468
 20
69.55156542076702
 30
0.0
  0
SEQEND
  5
366
330
363
100
AcDbEntity
  8
Default
  0
SPLINE
  5
367
330
1F
100
AcDbEntity
  8
Default
100
AcDbSpline
210
0.0
220
0.0
230
1.0
 70
    12
 71
     2
 72
     6
 73
     3
 74
     0
 42
0.0000000001
 43
0.0000000001
 40
-0.1045617875627914
 40
-0.1045617875627914
 40
-0.1045617875627914
 40
0.0
 40
0.0
 40
0.0
 10
0.556110533506931
 20
45.48710002875494
 30
0.0
 41
0.9769332189278873
 10
0.5560196309659086
 20
45.43332561195243
 30
0.0
 41
0.9515205244919627
 10
0.5279239052166815
 20
45.38747447935631
 30
0.0
 41
1.0
  0
SPLINE
  5
368
330
1F
100
AcDbEntity
  8
Default
100
AcDbSpline
210
0.0
220
0.0
230
1.0
 70
     8
 71
     3
 72
     8
 73
     4
 74
     0
 42
0.0000000001
 43
0.0000000001
 40
-1.0
 40
-1.0
 40
-1.0
 40
-1.0
 40
0.0
 40
0.0
 40
0.0
 40
0.0
 10
0.5279239052166815
 20
45.38747447935631
 30
0.0
 10
0.5002395111767441
 20
45.342294624125
 30
0.0
 10
0.4386932111577266
 20
45.27459218682709
 30
0.0
 10
0.4030625955213054
 20
45.23451088657336
 30
0.0
  0
SPLINE
  5
369
330
1F
100
AcDbEntity
  8
Default
100
AcDbSpline
210
0.0
220
0.0
230
1.0
 70
    12
 71
     2
 72
     6
 73
     3
 74
     0
 42
0.0000000001
 43
0.0000000001
 40
0.0
 40
0.0
 40
0.0
 40
0.4553123520955741
 40
0.4553123520955741
 40
0.4553123520955741
 10
0.4030625955213054
 20
45.23451088657336
 30
0.0
 41
1.0
 10
0.2421678103305034
 20
45.05351844287559
 30
0.0
 41
0.9124893307104815
 10
-0.0000001377396472
 20
45.05323295241215
 30
0.0
 41
1.0
  0
SPLINE
  5
36A
330
1F
100
AcDbEntity
  8
Default
100
AcDbSpline
210
0.0
220
0.0
230
1.0
 70
    12
 71
     2
 72
     6
 73
     3
 74
     0
 42
0.0000000001
 43
0.0000000001
 40
0.0
 40
0.0
 40
0.0
 40
0.4553137925105857
 40
0.4553137925105857
 40
0.4553137925105857
 10
-0.0000001377396472
 20
45.05323295241215
 30
0.0
 41
1.0
 10
-0.2421730390843372
 20
45.05350769387203
 30
0.0
 41
0.9124662956040588
 10
-0.4030587632281595
 20
45.23451480255927
 30
0.0
 41
1.0
  0
SPLINE
  5
36B
330
1F
100
AcDbEntity
  8
Default
100
AcDbSpline
210
0.0
220
0.0
230
1.0
 70
     8
 71
     3
 72
     8
 73
     4
 74
     0
 42
0.0000000001
 43
0.0000000001
 40
0.0
 40
0.0
 40
0.0
 40
0.0
 40
1.0
 40
1.0
 40
1.0
 40
1.0
 10
-0.4030587632281595
 20
45.23451480255927
 30
0.0
 10
-0.4386264171608332
 20
45.27453077187789
 30
0.0
 10
-0.4999525545269989
 20
45.34249935453801
 30
0.0
 10
-0.5279239052321145
 20
45.38747447936641
 30
0.0
  0
SPLINE
  5
36C
330
1F
100
AcDbEntity
  8
Default
100
AcDbSpline
210
0.0
220
0.0
230
1.0
 70
    12
 71
     2
 72
     6
 73
     3
 74
     0
 42
0.0000000001
 43
0.0000000001
 40
0.0
 40
0.0
 40
0.0
 40
0.1045693797713414
 40
0.1045693797713414
 40
0.1045693797713414
 10
-0.5279239052321145
 20
45.38747447936641
 30
0.0
 41
1.0
 10
-0.5563766922204022
 20
45.43322370542291
 30
0.0
 41
0.9494732110040195
 10
-0.5558211405522441
 20
45.4870961857307
 30
0.0
 41
0.9779363008775486
  0
SPLINE
  5
36D
330
1F
100
AcDbEntity
  8
Default
100
AcDbSpline
210
0.0
220
0.0
230
1.0
 70
    28
 71
     2
 72
     8
 73
     5
 74
     0
 42
0.0000000001
 43
0.0000000001
 40
-4.376759307856418
 40
-4.376759307856418
 40
-4.376759307856418
 40
-3.575076885829619
 40
-3.575076885829619
 40
-3.401755795215198
 40
-3.401755795215198
 40
-3.401755795215198
 10
0.8750000000000254
 20
45.49573754468821
 30
0.0
 41
0.8580477297570923
 10
0.8749999999999943
 20
45.2667956881458
 30
0.0
 41
0.8792084238628894
 10
0.875
 20
45.2667956881458
 30
0.0
 41
1.0
 10
0.8749999999999986
 20
45.26679568814581
 30
0.0
 41
0.9738852603750628
 10
0.8749999999973463
 20
45.27643626195474
 30
0.0
 41
0.9524273689246313
  0
SPLINE
  5
36E
330
1F
100
AcDbEntity
  8
Default
100
AcDbSpline
210
0.0
220
0.0
230
1.0
 70
    12
 71
     2
 72
     6
 73
     3
 74
     0
 42
0.0000000001
 43
0.0000000001
 40
0.0
 40
0.0
 40
0.0
 40
0.1961795420047159
 40
0.1961795420047159
 40
0.1961795420047159
 10
0.8749999999973426
 20
45.27643626195474
 30
0.0
 41
1.0
 10
0.8746056622086085
 20
45.1421888777047
 30
0.0
 41
0.7093377523974896
 10
0.75
 20
45.1417956881458
 30
0.0
 41
1.0
  0
SPLINE
  5
36F
330
1F
100
AcDbEntity
  8
Default
100
AcDbSpline
210
0.0
220
0.0
230
1.0
 70
    24
 71
     2
 72
     6
 73
     3
 74
     0
 42
0.0000000001
 43
0.0000000001
 40
0.0
 40
0.0
 40
0.0
 40
0.34375
 40
0.34375
 40
0.34375
 10
0.75
 20
45.1417956881458
 30
0.0
 10
0.578125
 20
45.1417956881458
 30
0.0
 10
0.40625
 20
45.1417956881458
 30
0.0
  0
POLYLINE
  5
370
330
1F
100
AcDbEntity
  8
Default
100
AcDb2dPolyline
 66
     1
 10
0.0
 20
0.0
 30
0.0
  0
VERTEX
  5
371
330
370
100
AcDbEntity
  8
Default
100
AcDbVertex
100
AcDb2dVertex
 10
0.40625
 20
45.1417956881458
 30
0.0
  0
VERTEX
  5
372
330
370
100
AcDbEntity
  8
Default
100
AcDbVertex
100
AcDb2dVertex
 10
0.40625
 20
45.23809294049827
 30
0.0
  0
SEQEND
  5
373
330
370
100
AcDbEntity
  8
Default
  0
SPLINE
  5
374
330
1F
100
AcDbEntity
  8
Default
100
AcDbSpline
210
0.0
220
0.0
230
1.0
 70
    28
 71
     2
 72
     8
 73
     5
 74
     0
 42
0.0000000001
 43
0.0000000001
 40
-4.376759307856418
 40
-4.376759307856418
 40
-4.376759307856418
 40
-3.575076885829619
 40
-3.575076885829619
 40
-3.401755795215198
 40
-3.401755795215198
 40
-3.401755795215198
 10
-0.8750000000000266
 20
45.49573754468821
 30
0.0
 41
0.8580477297570923
 10
-0.8749999999999898
 20
45.2667956881458
 30
0.0
 41
0.8792084238628894
 10
-0.875
 20
45.2667956881458
 30
0.0
 41
1.0
 10
-0.8749999999999963
 20
45.26679568814581
 30
0.0
 41
0.9738852603750628
 10
-0.8749999999973533
 20
45.27643626195474
 30
0.0
 41
0.9524273689246313
  0
SPLINE
  5
375
330
1F
100
AcDbEntity
  8
Default
100
AcDbSpline
210
0.0
220
0.0
230
1.0
 70
    12
 71
     2
 72
     6
 73
     3
 74
     0
 42
0.0000000001
 43
0.0000000001
 40
0.0
 40
0.0
 40
0.0
 40
0.1961795420047159
 40
0.1961795420047159
 40
0.1961795420047159
 10
-0.8749999999973426
 20
45.27643626195474
 30
0.0
 41
1.0
 10
-0.8746056622086056
 20
45.1421888777047
 30
0.0
 41
0.7093377523974896
 10
-0.75
 20
45.1417956881458
 30
0.0
 41
1.0
  0
SPLINE
  5
376
330
1F
100
AcDbEntity
  8
Default
100
AcDbSpline
210
0.0
220
0.0
230
1.0
 70
    24
 71
     2
 72
     6
 73
     3
 74
     0
 42
0.0000000001
 43
0.0000000001
 40
0.0
 40
0.0
 40
0.0
 40
0.34375
 40
0.34375
 40
0.34375
 10
-0.75
 20
45.1417956881458
 30
0.0
 10
-0.578125
 20
45.1417956881458
 30
0.0
 10
-0.40625
 20
45.1417956881458
 30
0.0
  0
POLYLINE
  5
377
330
1F
100
AcDbEntity
  8
Default
100
AcDb2dPolyline
 66
     1
 10
0.0
 20
0.0
 30
0.0
  0
VERTEX
  5
378
330
377
100
AcDbEntity
  8
Default
100
AcDbVertex
100
AcDb2dVertex
 10
-0.40625
 20
45.1417956881458
 30
0.0
  0
VERTEX
  5
379
330
377
100
AcDbEntity
  8
Default
100
AcDbVertex
100
AcDb2dVertex
 10
-0.40625
 20
45.23809294049827
 30
0.0
  0
SEQEND
  5
37A
330
377
100
AcDbEntity
  8
Default
  0
SPLINE
  5
37B
330
1F
100
AcDbEntity
  8
Default
100
AcDbSpline
210
0.0
220
0.0
230
1.0
 70
     8
 71
     3
 72
    34
 73
    30
 74
     0
 42
0.0000000001
 43
0.0000000001
 40
0.0
 40
0.0
 40
0.0
 40
0.0
 40
1.0
 40
2.0
 40
3.0
 40
4.0
 40
5.0
 40
6.0
 40
7.0
 40
8.0
 40
9.0
 40
10.0
 40
11.0
 40
12.0
 40
13.0
 40
14.0
 40
15.0
 40
16.0
 40
17.0
 40
18.0
 40
19.0
 40
20.0
 40
21.0
 40
22.0
 40
23.0
 40
24.0
 40
25.0
 40
26.0
 40
27.0
 40
27.0
 40
27.0
 40
27.0
 10
-12.33567370111574
 20
55.31593853274655
 30
0.0
 10
-12.35874908784922
 20
55.30792940890522
 30
0.0
 10
-12.40487984636309
 20
55.29185640120237
 30
0.0
 10
-12.47263140498144
 20
55.26388271140549
 30
0.0
 10
-12.54081576721897
 20
55.23705620052989
 30
0.0
 10
-12.60871349543383
 20
55.20950515169256
 30
0.0
 10
-12.67732493106342
 20
55.18370508577147
 30
0.0
 10
-12.74155386634149
 20
55.14738644890192
 30
0.0
 10
-12.79353592131461
 20
55.09491872268138
 30
0.0
 10
-12.83530665261979
 20
55.03461925485861
 30
0.0
 10
-12.87389860226892
 20
54.97234582820054
 30
0.0
 10
-12.91381517822822
 20
54.91083849985475
 30
0.0
 10
-12.94690045034008
 20
54.84528811776963
 30
0.0
 10
-12.97005070576482
 20
54.77555497078379
 30
0.0
 10
-12.9836797584488
 20
54.70340604621212
 30
0.0
 10
-12.98759326090058
 20
54.63005634490152
 30
0.0
 10
-12.98173984246546
 20
54.55689766533885
 30
0.0
 10
-12.96716616940077
 20
54.48486248151934
 30
0.0
 10
-12.94127170382259
 20
54.41613501278378
 30
0.0
 10
-12.90623650638955
 20
54.35159016509909
 30
0.0
 10
-12.86334097107391
 20
54.29200365814501
 30
0.0
 10
-12.81294237471241
 20
54.23857702164559
 30
0.0
 10
-12.75582257808449
 20
54.19243314631657
 30
0.0
 10
-12.69299200980643
 20
54.15433434748933
 30
0.0
 10
-12.62519509254133
 20
54.12609275760712
 30
0.0
 10
-12.5568530219638
 20
54.10039067331243
 30
0.0
 10
-12.48928241065346
 20
54.06951495264555
 30
0.0
 10
-12.41566758140213
 20
54.06593459287011
 30
0.0
 10
-12.36800465202971
 20
54.0793043557766
 30
0.0
 10
-12.34448941287316
 20
54.08551771434249
 30
0.0
  0
ENDSEC
  0
SECTION
  2
OBJECTS
  0
DICTIONARY
  5
C
330
0
100
AcDbDictionary
281
     1
  3
ACAD_GROUP
350
D
  3
ACAD_LAYOUT
350
1A
  3
ACAD_MLEADERSTYLE
350
37D
  3
ACAD_MLINESTYLE
350
17
  3
ACAD_PLOTSETTINGS
350
19
  3
ACAD_PLOTSTYLENAME
350
E
  3
ACAD_TABLESTYLE
350
37C
  3
ACAD_VISUALSTYLE
350
2A
  0
DICTIONARY
  5
D
102
{ACAD_REACTORS
330
C
102
}
330
C
100
AcDbDictionary
281
     1
  0
DICTIONARY
  5
1A
102
{ACAD_REACTORS
330
C
102
}
330
C
100
AcDbDictionary
281
     1
  3
Layout1
350
1E
  3
Layout2
350
26
  3
Model
350
22
  0
DICTIONARY
  5
37D
102
{ACAD_REACTORS
330
C
102
}
330
C
100
AcDbDictionary
281
     1
  0
DICTIONARY
  5
17
102
{ACAD_REACTORS
330
C
102
}
330
C
100
AcDbDictionary
281
     1
  3
Standard
350
18
  0
DICTIONARY
  5
19
102
{ACAD_REACTORS
330
C
102
}
330
C
100
AcDbDictionary
281
     1
  0
ACDBDICTIONARYWDFLT
  5
E
102
{ACAD_REACTORS
330
C
102
}
330
C
100
AcDbDictionary
281
     1
  3
Normal
350
F
100
AcDbDictionaryWithDefault
340
F
  0
DICTIONARY
  5
37C
102
{ACAD_REACTORS
330
C
102
}
330
C
100
AcDbDictionary
281
     1
  0
DICTIONARY
  5
2A
102
{ACAD_REACTORS
330
C
102
}
330
C
100
AcDbDictionary
281
     1
  3
2dWireframe
350
2F
  3
3D Hidden
350
31
  3
3dWireframe
350
30
  3
Basic
350
32
  3
Brighten
350
36
  3
ColorChange
350
3A
  3
Conceptual
350
34
  3
Dim
350
35
  3
Facepattern
350
39
  3
Flat
350
2B
  3
FlatWithEdges
350
2C
  3
Gouraud
350
2D
  3
GouraudWithEdges
350
2E
  3
Linepattern
350
38
  3
Realistic
350
33
  3
Thicken
350
37
  0
LAYOUT
  5
1E
102
{ACAD_REACTORS
330
1A
102
}
330
1A
100
AcDbPlotSettings
  1

  2
none_device
  4

  6

 40
0.0
 41
0.0
 42
0.0
 43
0.0
 44
0.0
 45
0.0
 46
0.0
 47
0.0
 48
0.0
 49
0.0
140
0.0
141
0.0
142
1.0
143
1.0
 70
   688
 72
     0
 73
     0
 74
     5
  7

 75
    16
 76
     0
 77
     2
 78
   300
147
1.0
148
0.0
149
0.0
100
AcDbLayout
  1
Layout1
 70
     1
 71
     1
 10
0.0
 20
0.0
 11
12.0
 21
9.0
 12
0.0
 22
0.0
 32
0.0
 14
1.000000000000000E+20
 24
1.000000000000000E+20
 34
1.000000000000000E+20
 15
-1.000000000000000E+20
 25
-1.000000000000000E+20
 35
-1.000000000000000E+20
146
0.0
 13
0.0
 23
0.0
 33
0.0
 16
1.0
 26
0.0
 36
0.0
 17
0.0
 27
1.0
 37
0.0
 76
     0
330
1B
  0
LAYOUT
  5
26
102
{ACAD_REACTORS
330
1A
102
}
330
1A
100
AcDbPlotSettings
  1

  2
none_device
  4

  6

 40
0.0
 41
0.0
 42
0.0
 43
0.0
 44
0.0
 45
0.0
 46
0.0
 47
0.0
 48
0.0
 49
0.0
140
0.0
141
0.0
142
1.0
143
1.0
 70
   688
 72
     0
 73
     0
 74
     5
  7

 75
    16
 76
     0
 77
     2
 78
   300
147
1.0
148
0.0
149
0.0
100
AcDbLayout
  1
Layout2
 70
     1
 71
     2
 10
0.0
 20
0.0
 11
0.0
 21
0.0
 12
0.0
 22
0.0
 32
0.0
 14
0.0
 24
0.0
 34
0.0
 15
0.0
 25
0.0
 35
0.0
146
0.0
 13
0.0
 23
0.0
 33
0.0
 16
1.0
 26
0.0
 36
0.0
 17
0.0
 27
1.0
 37
0.0
 76
     0
330
23
  0
LAYOUT
  5
22
102
{ACAD_REACTORS
330
1A
102
}
330
1A
100
AcDbPlotSettings
  1

  2
none_device
  4

  6

 40
0.0
 41
0.0
 42
0.0
 43
0.0
 44
0.0
 45
0.0
 46
0.0
 47
0.0
 48
0.0
 49
0.0
140
0.0
141
0.0
142
1.0
143
1.0
 70
  1712
 72
     0
 73
     0
 74
     0
  7

 75
     0
 76
     0
 77
     2
 78
   300
147
1.0
148
0.0
149
0.0
100
AcDbLayout
  1
Model
 70
     1
 71
     0
 10
0.0
 20
0.0
 11
12.0
 21
9.0
 12
0.0
 22
0.0
 32
0.0
 14
-13.41000108012884
 24
-0.0000000000000018
 34
0.0
 15
48.94977982738381
 25
71.54478460618998
 35
0.0
146
0.0
 13
0.0
 23
0.0
 33
0.0
 16
1.0
 26
0.0
 36
0.0
 17
0.0
 27
1.0
 37
0.0
 76
     0
330
1F
331
29
  0
MLINESTYLE
  5
18
102
{ACAD_REACTORS
330
17
102
}
330
17
100
AcDbMlineStyle
  2
Standard
 70
     0
  3

 62
   256
 51
90.0
 52
90.0
 71
     2
 49
0.5
 62
   256
  6
BYLAYER
 49
-0.5
 62
   256
  6
BYLAYER
  0
ACDBPLACEHOLDER
  5
F
102
{ACAD_REACTORS
330
E
102
}
330
E
  0
VISUALSTYLE
  5
2F
102
{ACAD_REACTORS
330
2A
102
}
330
2A
100
AcDbVisualStyle
  2
2dWireframe
 70
     4
 71
     0
 72
     2
 73
     0
 90
        0
 40
-0.6
 41
-30.0
 62
     5
 63
     7
421
 16777215
 74
     1
 91
        4
 64
     7
 65
   257
 75
     1
175
     1
 42
1.0
 92
        0
 66
   257
 43
1.0
 76
     1
 77
     6
 78
     2
 67
     7
 79
     5
170
     0
171
     0
290
     0
174
     0
 93
        1
 44
0.0
173
     0
291
     0
 45
0.0
1001
ACAD
1000
AcDbSavedByObjectVersion
1070
     0
  0
VISUALSTYLE
  5
31
102
{ACAD_REACTORS
330
2A
102
}
330
2A
100
AcDbVisualStyle
  2
3D Hidden
 70
     6
 71
     1
 72
     2
 73
     2
 90
        0
 40
-0.6
 41
-30.0
 62
     5
 63
     7
421
 16777215
 74
     2
 91
        2
 64
     7
 65
   257
 75
     2
175
     1
 42
40.0
 92
        0
 66
   257
 43
1.0
 76
     1
 77
     6
 78
     2
 67
     7
 79
     3
170
     0
171
     0
290
     0
174
     0
 93
        1
 44
0.0
173
     0
291
     0
 45
0.0
1001
ACAD
1000
AcDbSavedByObjectVersion
1070
     0
  0
VISUALSTYLE
  5
30
102
{ACAD_REACTORS
330
2A
102
}
330
2A
100
AcDbVisualStyle
  2
3dWireframe
 70
     5
 71
     0
 72
     2
 73
     0
 90
        0
 40
-0.6
 41
-30.0
 62
     5
 63
     7
421
 16777215
 74
     1
 91
        4
 64
     7
 65
   257
 75
     1
175
     1
 42
1.0
 92
        0
 66
   257
 43
1.0
 76
     1
 77
     6
 78
     2
 67
     7
 79
     5
170
     0
171
     0
290
     0
174
     0
 93
        1
 44
0.0
173
     0
291
     0
 45
0.0
1001
ACAD
1000
AcDbSavedByObjectVersion
1070
     0
  0
VISUALSTYLE
  5
32
102
{ACAD_REACTORS
330
2A
102
}
330
2A
100
AcDbVisualStyle
  2
Basic
 70
     7
 71
     1
 72
     0
 73
     1
 90
        0
 40
-0.6
 41
-30.0
 62
     5
 63
     7
421
 16777215
 74
     0
 91
        4
 64
     7
 65
   257
 75
     1
175
     1
 42
1.0
 92
        8
 66
     7
 43
1.0
 76
     1
 77
     6
 78
     2
 67
     7
 79
     5
170
     0
171
     0
290
     0
174
     0
 93
        1
 44
0.0
173
     0
291
     1
 45
0.0
1001
ACAD
1000
AcDbSavedByObjectVersion
1070
     0
  0
VISUALSTYLE
  5
36
102
{ACAD_REACTORS
330
2A
102
}
330
2A
100
AcDbVisualStyle
  2
Brighten
 70
    12
 71
     2
 72
     2
 73
     0
 90
        0
 40
-0.6
 41
-30.0
 62
     5
 63
     7
421
 16777215
 74
     1
 91
        4
 64
     7
 65
   257
 75
     1
175
     1
 42
1.0
 92
        8
 66
     7
 43
1.0
 76
     1
 77
     6
 78
     2
 67
     7
 79
     5
170
     0
171
     0
290
     0
174
     0
 93
        1
 44
50.0
173
     0
291
     1
 45
0.0
1001
ACAD
1000
AcDbSavedByObjectVersion
1070
     0
  0
VISUALSTYLE
  5
3A
102
{ACAD_REACTORS
330
2A
102
}
330
2A
100
AcDbVisualStyle
  2
ColorChange
 70
    16
 71
     2
 72
     2
 73
     3
 90
        0
 40
-0.6
 41
-30.0
 62
     5
 63
     8
421
  8421504
 74
     1
 91
        4
 64
     7
 65
   257
 75
     1
175
     1
 42
1.0
 92
        8
 66
     8
424
  8421504
 43
1.0
 76
     1
 77
     6
 78
     2
 67
     7
 79
     5
170
     0
171
     0
290
     0
174
     0
 93
        1
 44
0.0
173
     0
291
     1
 45
0.0
1001
ACAD
1000
AcDbSavedByObjectVersion
1070
     0
  0
VISUALSTYLE
  5
34
102
{ACAD_REACTORS
330
2A
102
}
330
2A
100
AcDbVisualStyle
  2
Conceptual
 70
     9
 71
     3
 72
     2
 73
     0
 90
        0
 40
-0.6
 41
-30.0
 62
     5
 63
     7
421
 16777215
 74
     2
 91
        2
 64
     7
 65
   257
 75
     1
175
     1
 42
40.0
 92
        8
 66
     7
 43
1.0
 76
     1
 77
     6
 78
     2
 67
     7
 79
     3
170
     0
171
     0
290
     0
174
     0
 93
        1
 44
0.0
173
     0
291
     0
 45
0.0
1001
ACAD
1000
AcDbSavedByObjectVersion
1070
     0
  0
VISUALSTYLE
  5
35
102
{ACAD_REACTORS
330
2A
102
}
330
2A
100
AcDbVisualStyle
  2
Dim
 70
    11
 71
     2
 72
     2
 73
     0
 90
        0
 40
-0.6
 41
-30.0
 62
     5
 63
     7
421
 16777215
 74
     1
 91
        4
 64
     7
 65
   257
 75
     1
175
     1
 42
1.0
 92
        8
 66
     7
 43
1.0
 76
     1
 77
     6
 78
     2
 67
     7
 79
     5
170
     0
171
     0
290
     0
174
     0
 93
        1
 44
-50.0
173
     0
291
     1
 45
0.0
1001
ACAD
1000
AcDbSavedByObjectVersion
1070
     0
  0
VISUALSTYLE
  5
39
102
{ACAD_REACTORS
330
2A
102
}
330
2A
100
AcDbVisualStyle
  2
Facepattern
 70
    15
 71
     2
 72
     2
 73
     0
 90
        0
 40
-0.6
 41
-30.0
 62
     5
 63
     7
421
 16777215
 74
     1
 91
        4
 64
     7
 65
   257
 75
     1
175
     1
 42
1.0
 92
        8
 66
     7
 43
1.0
 76
     1
 77
     6
 78
     2
 67
     7
 79
     5
170
     0
171
     0
290
     0
174
     0
 93
        1
 44
0.0
173
     0
291
     1
 45
0.0
1001
ACAD
1000
AcDbSavedByObjectVersion
1070
     0
  0
VISUALSTYLE
  5
2B
102
{ACAD_REACTORS
330
2A
102
}
330
2A
100
AcDbVisualStyle
  2
Flat
 70
     0
 71
     2
 72
     1
 73
     1
 90
        2
 40
-0.6
 41
30.0
 62
     5
 63
     7
421
 16777215
 74
     0
 91
        4
 64
     7
 65
   257
 75
     1
175
     1
 42
1.0
 92
        8
 66
     7
 43
1.0
 76
     1
 77
     6
 78
     2
 67
     7
 79
     5
170
     0
171
     0
290
     0
174
     0
 93
       13
 44
0.0
173
     0
291
     1
 45
0.0
1001
ACAD
1000
AcDbSavedByObjectVersion
1070
     0
  0
VISUALSTYLE
  5
2C
102
{ACAD_REACTORS
330
2A
102
}
330
2A
100
AcDbVisualStyle
  2
FlatWithEdges
 70
     1
 71
     2
 72
     1
 73
     1
 90
        2
 40
-0.6
 41
30.0
 62
     5
 63
     7
421
 16777215
 74
     1
 91
        4
 64
     7
 65
   257
 75
     1
175
     1
 42
1.0
 92
        0
 66
   257
 43
1.0
 76
     1
 77
     6
 78
     2
 67
     7
 79
     5
170
     0
171
     0
290
     0
174
     0
 93
       13
 44
0.0
173
     0
291
     1
 45
0.0
1001
ACAD
1000
AcDbSavedByObjectVersion
1070
     0
  0
VISUALSTYLE
  5
2D
102
{ACAD_REACTORS
330
2A
102
}
330
2A
100
AcDbVisualStyle
  2
Gouraud
 70
     2
 71
     2
 72
     2
 73
     1
 90
        2
 40
-0.6
 41
30.0
 62
     5
 63
     7
421
 16777215
 74
     0
 91
        4
 64
     7
 65
   257
 75
     1
175
     1
 42
1.0
 92
        0
 66
     7
 43
1.0
 76
     1
 77
     6
 78
     2
 67
     7
 79
     5
170
     0
171
     0
290
     0
174
     0
 93
       13
 44
0.0
173
     0
291
     1
 45
0.0
1001
ACAD
1000
AcDbSavedByObjectVersion
1070
     0
  0
VISUALSTYLE
  5
2E
102
{ACAD_REACTORS
330
2A
102
}
330
2A
100
AcDbVisualStyle
  2
GouraudWithEdges
 70
     3
 71
     2
 72
     2
 73
     1
 90
        2
 40
-0.6
 41
30.0
 62
     5
 63
     7
421
 16777215
 74
     1
 91
        4
 64
     7
 65
   257
 75
     1
175
     1
 42
1.0
 92
        0
 66
   257
 43
1.0
 76
     1
 77
     6
 78
     2
 67
     7
 79
     5
170
     0
171
     0
290
     0
174
     0
 93
       13
 44
0.0
173
     0
291
     1
 45
0.0
1001
ACAD
1000
AcDbSavedByObjectVersion
1070
     0
  0
VISUALSTYLE
  5
38
102
{ACAD_REACTORS
330
2A
102
}
330
2A
100
AcDbVisualStyle
  2
Linepattern
 70
    14
 71
     2
 72
     2
 73
     0
 90
        0
 40
-0.6
 41
-30.0
 62
     5
 63
     7
421
 16777215
 74
     1
 91
        4
 64
     7
 65
   257
 75
     7
175
     7
 42
1.0
 92
        8
 66
     7
 43
1.0
 76
     1
 77
     6
 78
     2
 67
     7
 79
     5
170
     0
171
     0
290
     0
174
     0
 93
        1
 44
0.0
173
     0
291
     1
 45
0.0
1001
ACAD
1000
AcDbSavedByObjectVersion
1070
     0
  0
VISUALSTYLE
  5
33
102
{ACAD_REACTORS
330
2A
102
}
330
2A
100
AcDbVisualStyle
  2
Realistic
 70
     8
 71
     2
 72
     2
 73
     0
 90
        0
 40
-0.6
 41
-30.0
 62
     5
 63
     7
421
 16777215
 74
     1
 91
        0
 64
     7
 65
   257
 75
     1
175
     1
 42
1.0
 92
        8
 66
     8
424
  7895160
 43
1.0
 76
     1
 77
     6
 78
     2
 67
     7
 79
     5
170
     0
171
     0
290
     0
174
     0
 93
       13
 44
0.0
173
     0
291
     0
 45
0.0
1001
ACAD
1000
AcDbSavedByObjectVersion
1070
     0
  0
VISUALSTYLE
  5
37
102
{ACAD_REACTORS
330
2A
102
}
330
2A
100
AcDbVisualStyle
  2
Thicken
 70
    13
 71
     2
 72
     2
 73
     0
 90
        0
 40
-0.6
 41
-30.0
 62
     5
 63
     7
421
 16777215
 74
     1
 91
        4
 64
     7
 65
   257
 75
     1
175
     1
 42
1.0
 92
       12
 66
     7
 43
1.0
 76
     1
 77
     6
 78
     2
 67
     7
 79
     5
170
     0
171
     0
290
     0
174
     0
 93
        1
 44
0.0
173
     0
291
     1
 45
0.0
1001
ACAD
1000
AcDbSavedByObjectVersion
1070
     0
  0
ENDSEC
  0
EOF
