  0
SECTION
  2
HEADER
  9
$ACADVER
  1
AC1018
  9
$ACADMAINTVER
 70
     0
  9
$DWGCODEPAGE
  3
ANSI_1252
  9
$INSBASE
 10
0.0
 20
0.0
 30
0.0
  9
$EXTMIN
 10
-13.53509251861207
 20
-0.0000000000000111
 30
0.0
  9
$EXTMAX
 10
48.87550618956396
 20
71.54420546862093
 30
0.0
  9
$LIMMIN
 10
0.0
 20
0.0
  9
$LIMMAX
 10
12.0
 20
9.0
  9
$ORTHOMODE
 70
     0
  9
$REGENMODE
 70
     1
  9
$FILLMODE
 70
     1
  9
$QTEXTMODE
 70
     0
  9
$MIRRTEXT
 70
     1
  9
$LTSCALE
 40
0.0393700787401575
  9
$ATTMODE
 70
     1
  9
$TEXTSIZE
 40
0.2
  9
$TRACEWID
 40
0.05
  9
$TEXTSTYLE
  7
Standard
  9
$CLAYER
  8
Default
  9
$CELTYPE
  6
ByLayer
  9
$CECOLOR
 62
   256
  9
$CELTSCALE
 40
1.0
  9
$DISPSILH
 70
     0
  9
$DIMSCALE
 40
1.0
  9
$DIMASZ
 40
0.18
  9
$DIMEXO
 40
0.0625
  9
$DIMDLI
 40
0.38
  9
$DIMRND
 40
0.0
  9
$DIMDLE
 40
0.0
  9
$DIMEXE
 40
0.18
  9
$DIMTP
 40
0.0
  9
$DIMTM
 40
0.0
  9
$DIMTXT
 40
0.18
  9
$DIMCEN
 40
0.09
  9
$DIMTSZ
 40
0.0
  9
$DIMTOL
 70
     0
  9
$DIMLIM
 70
     0
  9
$DIMTIH
 70
     1
  9
$DIMTOH
 70
     1
  9
$DIMSE1
 70
     0
  9
$DIMSE2
 70
     0
  9
$DIMTAD
 70
     0
  9
$DIMZIN
 70
     0
  9
$DIMBLK
  1

  9
$DIMASO
 70
     1
  9
$DIMSHO
 70
     1
  9
$DIMPOST
  1

  9
$DIMAPOST
  1

  9
$DIMALT
 70
     0
  9
$DIMALTD
 70
     2
  9
$DIMALTF
 40
25.4
  9
$DIMLFAC
 40
1.0
  9
$DIMTOFL
 70
     0
  9
$DIMTVP
 40
0.0
  9
$DIMTIX
 70
     0
  9
$DIMSOXD
 70
     0
  9
$DIMSAH
 70
     0
  9
$DIMBLK1
  1

  9
$DIMBLK2
  1

  9
$DIMSTYLE
  2
Standard
  9
$DIMCLRD
 70
     0
  9
$DIMCLRE
 70
     0
  9
$DIMCLRT
 70
     0
  9
$DIMTFAC
 40
1.0
  9
$DIMGAP
 40
0.09
  9
$DIMJUST
 70
     0
  9
$DIMSD1
 70
     0
  9
$DIMSD2
 70
     0
  9
$DIMTOLJ
 70
     1
  9
$DIMTZIN
 70
     0
  9
$DIMALTZ
 70
     0
  9
$DIMALTTZ
 70
     0
  9
$DIMUPT
 70
     0
  9
$DIMDEC
 70
     4
  9
$DIMTDEC
 70
     4
  9
$DIMALTU
 70
     2
  9
$DIMALTTD
 70
     2
  9
$DIMTXSTY
  7
Standard
  9
$DIMAUNIT
 70
     0
  9
$DIMADEC
 70
     0
  9
$DIMALTRND
 40
0.0
  9
$DIMAZIN
 70
     0
  9
$DIMDSEP
 70
    46
  9
$DIMATFIT
 70
     3
  9
$DIMFRAC
 70
     0
  9
$DIMLDRBLK
  1

  9
$DIMLUNIT
 70
     2
  9
$DIMLWD
 70
    -2
  9
$DIMLWE
 70
    -2
  9
$DIMTMOVE
 70
     2
  9
$LUNITS
 70
     2
  9
$LUPREC
 70
     3
  9
$SKETCHINC
 40
0.1
  9
$FILLETRAD
 40
0.5
  9
$AUNITS
 70
     0
  9
$AUPREC
 70
     0
  9
$MENU
  1
.
  9
$ELEVATION
 40
0.0
  9
$PELEVATION
 40
0.0
  9
$THICKNESS
 40
0.0
  9
$LIMCHECK
 70
     0
  9
$CHAMFERA
 40
0.5
  9
$CHAMFERB
 40
0.5
  9
$CHAMFERC
 40
1.0
  9
$CHAMFERD
 40
0.0
  9
$SKPOLY
 70
     0
  9
$TDCREATE
 40
2458096.382068032
  9
$TDUCREATE
 40
2458096.590401366
  9
$TDUPDATE
 40
2458096.382068044
  9
$TDUUPDATE
 40
2458096.590401378
  9
$TDINDWG
 40
0.0000000116
  9
$TDUSRTIMER
 40
0.0000000116
  9
$USRTIMER
 70
     1
  9
$ANGBASE
 50
0.0
  9
$ANGDIR
 70
     0
  9
$PDMODE
 70
     0
  9
$PDSIZE
 40
0.0
  9
$PLINEWID
 40
0.0
  9
$SPLFRAME
 70
     0
  9
$SPLINETYPE
 70
     6
  9
$SPLINESEGS
 70
     8
  9
$HANDSEED
  5
385
  9
$SURFTAB1
 70
     6
  9
$SURFTAB2
 70
     6
  9
$SURFTYPE
 70
     6
  9
$SURFU
 70
     6
  9
$SURFV
 70
     6
  9
$UCSBASE
  2

  9
$UCSNAME
  2

  9
$UCSORG
 10
0.0
 20
0.0
 30
0.0
  9
$UCSXDIR
 10
1.0
 20
0.0
 30
0.0
  9
$UCSYDIR
 10
0.0
 20
1.0
 30
0.0
  9
$UCSORTHOREF
  2

  9
$UCSORTHOVIEW
 70
     0
  9
$UCSORGTOP
 10
0.0
 20
0.0
 30
0.0
  9
$UCSORGBOTTOM
 10
0.0
 20
0.0
 30
0.0
  9
$UCSORGLEFT
 10
0.0
 20
0.0
 30
0.0
  9
$UCSORGRIGHT
 10
0.0
 20
0.0
 30
0.0
  9
$UCSORGFRONT
 10
0.0
 20
0.0
 30
0.0
  9
$UCSORGBACK
 10
0.0
 20
0.0
 30
0.0
  9
$PUCSBASE
  2

  9
$PUCSNAME
  2

  9
$PUCSORG
 10
0.0
 20
0.0
 30
0.0
  9
$PUCSXDIR
 10
1.0
 20
0.0
 30
0.0
  9
$PUCSYDIR
 10
0.0
 20
1.0
 30
0.0
  9
$PUCSORTHOREF
  2

  9
$PUCSORTHOVIEW
 70
     0
  9
$PUCSORGTOP
 10
0.0
 20
0.0
 30
0.0
  9
$PUCSORGBOTTOM
 10
0.0
 20
0.0
 30
0.0
  9
$PUCSORGLEFT
 10
0.0
 20
0.0
 30
0.0
  9
$PUCSORGRIGHT
 10
0.0
 20
0.0
 30
0.0
  9
$PUCSORGFRONT
 10
0.0
 20
0.0
 30
0.0
  9
$PUCSORGBACK
 10
0.0
 20
0.0
 30
0.0
  9
$USERI1
 70
     0
  9
$USERI2
 70
     0
  9
$USERI3
 70
     0
  9
$USERI4
 70
     0
  9
$USERI5
 70
     0
  9
$USERR1
 40
0.0
  9
$USERR2
 40
0.0
  9
$USERR3
 40
0.0
  9
$USERR4
 40
0.0
  9
$USERR5
 40
0.0
  9
$WORLDVIEW
 70
     1
  9
$SHADEDGE
 70
     3
  9
$SHADEDIF
 70
    70
  9
$TILEMODE
 70
     1
  9
$MAXACTVP
 70
    64
  9
$PINSBASE
 10
0.0
 20
0.0
 30
0.0
  9
$PLIMCHECK
 70
     0
  9
$PEXTMIN
 10
1.000000000000000E+20
 20
1.000000000000000E+20
 30
1.000000000000000E+20
  9
$PEXTMAX
 10
-1.000000000000000E+20
 20
-1.000000000000000E+20
 30
-1.000000000000000E+20
  9
$PLIMMIN
 10
0.0
 20
0.0
  9
$PLIMMAX
 10
12.0
 20
9.0
  9
$UNITMODE
 70
     0
  9
$VISRETAIN
 70
     1
  9
$PLINEGEN
 70
     0
  9
$PSLTSCALE
 70
     1
  9
$TREEDEPTH
 70
  3020
  9
$CMLSTYLE
  2
Standard
  9
$CMLJUST
 70
     0
  9
$CMLSCALE
 40
1.0
  9
$PROXYGRAPHICS
 70
     1
  9
$MEASUREMENT
 70
     0
  9
$CELWEIGHT
370
    -1
  9
$ENDCAPS
280
     0
  9
$JOINSTYLE
280
     0
  9
$LWDISPLAY
290
     0
  9
$INSUNITS
 70
     1
  9
$HYPERLINKBASE
  1

  9
$STYLESHEET
  1

  9
$XEDIT
290
     1
  9
$CEPSNTYPE
380
     0
  9
$PSTYLEMODE
290
     1
  9
$FINGERPRINTGUID
  2
{47749261-6B0C-4A8B-9444-23C3B1D814FD}
  9
$VERSIONGUID
  2
{FAEB1C32-E019-11D5-929B-00C0DF256EC4}
  9
$EXTNAMES
290
     1
  9
$PSVPSCALE
 40
0.0
  9
$OLESTARTUP
290
     0
  9
$SORTENTS
280
   127
  9
$INDEXCTL
280
     0
  9
$HIDETEXT
280
     1
  9
$XCLIPFRAME
290
     0
  9
$HALOGAP
280
     0
  9
$OBSCOLOR
 70
   257
  9
$OBSLTYPE
280
     0
  9
$INTERSECTIONDISPLAY
280
     0
  9
$INTERSECTIONCOLOR
 70
   257
  9
$DIMASSOC
280
     2
  9
$PROJECTNAME
  1

  0
ENDSEC
  0
SECTION
  2
CLASSES
  0
CLASS
  1
ACDBDICTIONARYWDFLT
  2
AcDbDictionaryWithDefault
  3
ObjectDBX Classes
 90
        0
 91
        4
280
     0
281
     0
  0
CLASS
  1
VISUALSTYLE
  2
AcDbVisualStyle
  3
ObjectDBX Classes
 90
     4095
 91
        4
280
     0
281
     0
  0
ENDSEC
  0
SECTION
  2
TABLES
  0
TABLE
  2
VPORT
  5
8
330
0
100
AcDbSymbolTable
 70
     1
  0
VPORT
  5
29
330
8
100
AcDbSymbolTableRecord
100
AcDbViewportTableRecord
  2
*Active
 70
     0
 10
0.0
 20
0.0
 11
1.0
 21
1.0
 12
17.67020683547595
 22
35.77210273431046
 13
0.0
 23
0.0
 14
0.5
 24
0.5
 15
0.5
 25
0.5
 16
0.0
 26
0.0
 36
1.0
 17
0.0
 27
0.0
 37
0.0
 40
72.97508957799336
 41
0.8723361773239501
 42
50.0
 43
0.0
 44
0.0
 50
0.0
 51
0.0
 71
     0
 72
   100
 73
     1
 74
     3
 75
     0
 76
     0
 77
     0
 78
     0
281
     0
 65
     1
110
0.0
120
0.0
130
0.0
111
1.0
121
0.0
131
0.0
112
0.0
122
1.0
132
0.0
 79
     0
146
0.0
  0
ENDTAB
  0
TABLE
  2
LTYPE
  5
5
330
0
100
AcDbSymbolTable
 70
     1
  0
LTYPE
  5
14
330
5
100
AcDbSymbolTableRecord
100
AcDbLinetypeTableRecord
  2
ByBlock
 70
     0
  3

 72
    65
 73
     0
 40
0.0
  0
LTYPE
  5
15
330
5
100
AcDbSymbolTableRecord
100
AcDbLinetypeTableRecord
  2
ByLayer
 70
     0
  3

 72
    65
 73
     0
 40
0.0
  0
LTYPE
  5
16
330
5
100
AcDbSymbolTableRecord
100
AcDbLinetypeTableRecord
  2
Continuous
 70
     0
  3
Solid line
 72
    65
 73
     0
 40
0.0
  0
ENDTAB
  0
TABLE
  2
LAYER
  5
2
330
0
100
AcDbSymbolTable
 70
     2
  0
LAYER
  5
10
330
2
100
AcDbSymbolTableRecord
100
AcDbLayerTableRecord
  2
0
 70
     0
 62
     7
  6
Continuous
370
    -3
390
F
  0
LAYER
  5
3B
330
2
100
AcDbSymbolTableRecord
100
AcDbLayerTableRecord
  2
Default
 70
     0
 62
     7
  6
Continuous
370
    -3
390
F
  0
ENDTAB
  0
TABLE
  2
STYLE
  5
3
330
0
100
AcDbSymbolTable
 70
     1
  0
STYLE
  5
11
330
3
100
AcDbSymbolTableRecord
100
AcDbTextStyleTableRecord
  2
Standard
 70
     0
 40
0.0
 41
1.0
 50
0.0
 71
     0
 42
0.2
  3
txt
  4

  0
ENDTAB
  0
TABLE
  2
VIEW
  5
6
330
0
100
AcDbSymbolTable
 70
     0
  0
ENDTAB
  0
TABLE
  2
UCS
  5
7
330
0
100
AcDbSymbolTable
 70
     0
  0
ENDTAB
  0
TABLE
  2
APPID
  5
9
330
0
100
AcDbSymbolTable
 70
     1
  0
APPID
  5
12
330
9
100
AcDbSymbolTableRecord
100
AcDbRegAppTableRecord
  2
ACAD
 70
     0
  0
ENDTAB
  0
TABLE
  2
DIMSTYLE
  5
A
330
0
100
AcDbSymbolTable
 70
     1
100
AcDbDimStyleTable
  0
DIMSTYLE
105
27
330
A
100
AcDbSymbolTableRecord
100
AcDbDimStyleTableRecord
  2
Standard
 70
     0
340
11
  0
ENDTAB
  0
TABLE
  2
BLOCK_RECORD
  5
1
330
0
100
AcDbSymbolTable
 70
     1
  0
BLOCK_RECORD
  5
1F
330
1
100
AcDbSymbolTableRecord
100
AcDbBlockTableRecord
  2
*Model_Space
340
22
  0
BLOCK_RECORD
  5
1B
330
1
100
AcDbSymbolTableRecord
100
AcDbBlockTableRecord
  2
*Paper_Space
340
1E
  0
BLOCK_RECORD
  5
23
330
1
100
AcDbSymbolTableRecord
100
AcDbBlockTableRecord
  2
*Paper_Space0
340
26
  0
ENDTAB
  0
ENDSEC
  0
SECTION
  2
BLOCKS
  0
BLOCK
  5
20
330
1F
100
AcDbEntity
  8
0
100
AcDbBlockBegin
  2
*Model_Space
 70
     0
 10
0.0
 20
0.0
 30
0.0
  3
*Model_Space
  1

  0
ENDBLK
  5
21
330
1F
100
AcDbEntity
  8
0
100
AcDbBlockEnd
  0
BLOCK
  5
1C
330
1B
100
AcDbEntity
 67
     1
  8
0
100
AcDbBlockBegin
  2
*Paper_Space
 70
     0
 10
0.0
 20
0.0
 30
0.0
  3
*Paper_Space
  1

  0
ENDBLK
  5
1D
330
1B
100
AcDbEntity
 67
     1
  8
0
100
AcDbBlockEnd
  0
BLOCK
  5
24
330
23
100
AcDbEntity
  8
0
100
AcDbBlockBegin
  2
*Paper_Space0
 70
     0
 10
0.0
 20
0.0
 30
0.0
  3
*Paper_Space0
  1

  0
ENDBLK
  5
25
330
23
100
AcDbEntity
  8
0
100
AcDbBlockEnd
  0
ENDSEC
  0
SECTION
  2
ENTITIES
  0
ARC
  5
3C
330
1F
100
AcDbEntity
  8
Default
100
AcDbCircle
 10
24.8998546736352
 20
16.96112493182756
 30
0.0
 40
4.159227755123336
100
AcDbArc
 50
330.9664883347805
 51
345.5820808908047
  0
SPLINE
  5
3D
330
1F
100
AcDbEntity
  8
Default
100
AcDbSpline
210
0.0
220
0.0
230
1.0
 70
     8
 71
     3
 72
     8
 73
     4
 74
     0
 42
0.0000000001
 43
0.0000000001
 40
0.0
 40
0.0
 40
0.0
 40
0.0
 40
1.0
 40
1.0
 40
1.0
 40
1.0
 10
32.48928453841091
 20
23.97088715317659
 30
0.0
 10
32.17728305562485
 20
23.97088627007202
 30
0.0
 10
31.99095541604268
 20
23.76135479274816
 30
0.0
 10
31.91541994030013
 20
23.43905024422565
 30
0.0
  0
SPLINE
  5
3E
330
1F
100
AcDbEntity
  8
Default
100
AcDbSpline
210
0.0
220
0.0
230
1.0
 70
    12
 71
     2
 72
     6
 73
     3
 74
     0
 42
0.0000000001
 43
0.0000000001
 40
0.0
 40
0.0
 40
0.0
 40
7.138340347384302
 40
7.138340347384302
 40
7.138340347384302
 10
31.91541994030013
 20
23.43905024422565
 30
0.0
 41
1.0
 10
31.10101383052771
 20
19.96403680261027
 30
0.0
 41
0.9999999998652032
 10
30.16897579853215
 20
15.98903783872739
 30
0.0
 41
1.0
  0
SPLINE
  5
3F
330
1F
100
AcDbEntity
  8
Default
100
AcDbSpline
210
0.0
220
0.0
230
1.0
 70
     8
 71
     3
 72
    12
 73
     8
 74
     0
 42
0.0000000001
 43
0.0000000001
 40
-1.76944564282276
 40
-1.76944564282276
 40
-1.76944564282276
 40
-1.76944564282276
 40
-1.265611546882576
 40
-0.8532981897782359
 40
-0.4906530245029243
 40
-0.2490887210700219
 40
0.0
 40
0.0
 40
0.0
 40
0.0
 10
30.16897579853215
 20
15.98903783872739
 30
0.0
 10
30.12918629043818
 20
15.82358994405483
 30
0.0
 10
30.09236183116929
 20
15.52371930216335
 30
0.0
 10
30.19112442231467
 20
15.0894443367385
 30
0.0
 10
30.46294768846997
 20
14.86214972775235
 30
0.0
 10
30.73523475333396
 20
14.77680153534548
 30
0.0
 10
30.89565197595078
 20
14.74500013148083
 30
0.0
 10
30.97940274115363
 20
14.74282142010827
 30
0.0
  0
SPLINE
  5
40
330
1F
100
AcDbEntity
  8
Default
100
AcDbSpline
210
0.0
220
0.0
230
1.0
 70
     8
 71
     3
 72
    10
 73
     6
 74
     0
 42
0.0000000001
 43
0.0000000001
 40
-3.0
 40
-3.0
 40
-3.0
 40
-3.0
 40
-2.0
 40
-1.0
 40
0.0
 40
0.0
 40
0.0
 40
0.0
 10
30.97940274115363
 20
14.74282142010827
 30
0.0
 10
31.62360728685145
 20
14.71037302510912
 30
0.0
 10
32.91234335972422
 20
14.65428583451889
 30
0.0
 10
34.84744517345267
 20
14.64437220319959
 30
0.0
 10
36.13668004621123
 20
14.68709577853756
 30
0.0
 10
36.78123397439567
 20
14.70750384086191
 30
0.0
  0
SPLINE
  5
41
330
1F
100
AcDbEntity
  8
Default
100
AcDbSpline
210
0.0
220
0.0
230
1.0
 70
     8
 71
     3
 72
    12
 73
     8
 74
     0
 42
0.0000000001
 43
0.0000000001
 40
-1.99147636178946
 40
-1.99147636178946
 40
-1.99147636178946
 40
-1.99147636178946
 40
-1.450485277614024
 40
-1.001348960696717
 40
-0.4979739790761759
 40
-0.2897801235234266
 40
0.0
 40
0.0
 40
0.0
 40
0.0
 10
36.78123397439567
 20
14.70750384086191
 30
0.0
 10
36.96279958006694
 20
14.71325969627244
 30
0.0
 10
37.28840772993819
 20
14.76398204496646
 30
0.0
 10
37.73877599842083
 20
15.01885839336368
 30
0.0
 10
37.88693073253382
 20
15.40232979072251
 30
0.0
 10
37.9288312837622
 20
15.72506133055385
 30
0.0
 10
37.89788878128829
 20
15.8981229583725
 30
0.0
 10
37.88762156894472
 20
15.9905714860499
 30
0.0
  0
POLYLINE
  5
42
330
1F
100
AcDbEntity
  8
Default
100
AcDb2dPolyline
 66
     1
 10
0.0
 20
0.0
 30
0.0
  0
VERTEX
  5
43
330
42
100
AcDbEntity
  8
Default
100
AcDbVertex
100
AcDb2dVertex
 10
37.88762156894472
 20
15.9905714860499
 30
0.0
  0
VERTEX
  5
44
330
42
100
AcDbEntity
  8
Default
100
AcDbVertex
100
AcDb2dVertex
 10
36.72746802497321
 20
23.44062681040731
 30
0.0
  0
SEQEND
  5
45
330
42
100
AcDbEntity
  8
Default
  0
SPLINE
  5
46
330
1F
100
AcDbEntity
  8
Default
100
AcDbSpline
210
0.0
220
0.0
230
1.0
 70
     8
 71
     3
 72
     8
 73
     4
 74
     0
 42
0.0000000001
 43
0.0000000001
 40
-1.0
 40
-1.0
 40
-1.0
 40
-1.0
 40
0.0
 40
0.0
 40
0.0
 40
0.0
 10
36.72746802497321
 20
23.44062681040731
 30
0.0
 10
36.6610115447297
 20
23.86738450730784
 30
0.0
 10
36.48122332972948
 20
23.97089253232759
 30
0.0
 10
36.12427174482941
 20
23.97089249377906
 30
0.0
  0
SPLINE
  5
47
330
1F
100
AcDbEntity
  8
Default
100
AcDbSpline
210
0.0
220
0.0
230
1.0
 70
    12
 71
     2
 72
     6
 73
     3
 74
     0
 42
0.0000000001
 43
0.0000000001
 40
-3.634987206423546
 40
-3.634987206423546
 40
-3.634987206423546
 40
0.0
 40
0.0
 40
0.0
 10
36.12427174482941
 20
23.97089249377906
 30
0.0
 41
1.0
 10
34.30677814161652
 20
23.97089229750121
 30
0.0
 41
0.9999999999990735
 10
32.48928453841091
 20
23.97088715317659
 30
0.0
 41
1.0
  0
SPLINE
  5
48
330
1F
100
AcDbEntity
  8
Default
100
AcDbSpline
210
0.0
220
0.0
230
1.0
 70
    12
 71
     2
 72
     6
 73
     3
 74
     0
 42
0.0000000001
 43
0.0000000001
 40
0.0
 40
0.0
 40
0.0
 40
7.270551178493563
 40
7.270551178493563
 40
7.270551178493563
 10
30.41194356130413
 20
16.71592650044552
 30
0.0
 41
1.0
 10
34.0284200441566
 20
17.10071616065821
 30
0.0
 41
0.9993344910682499
 10
37.66332583982061
 20
17.22082065799244
 30
0.0
 41
1.0
  0
SPLINE
  5
49
330
1F
100
AcDbEntity
  8
Default
100
AcDbSpline
210
0.0
220
0.0
230
1.0
 70
    28
 71
     2
 72
    10
 73
     7
 74
     0
 42
0.0000000001
 43
0.0000000001
 40
1.374446785945534
 40
1.374446785945534
 40
1.374446785945534
 40
1.570796326794897
 40
1.570796326794897
 40
3.141592653589793
 40
3.141592653589793
 40
4.516039439535327
 40
4.516039439535327
 40
4.516039439535327
 10
48.22292521604789
 20
2.786999999999999
 30
0.0
 41
0.9359296083845573
 10
48.21819228799397
 20
2.786999999999999
 30
0.0
 41
0.9633883476483185
 10
48.21819228799396
 20
2.786999999999999
 30
0.0
 41
1.0
 10
48.21819228799396
 20
2.787000000000001
 30
0.0
 41
0.7071067811865476
 10
48.50169228799396
 20
2.786999999999999
 30
0.0
 41
1.0
 10
48.73754320683376
 20
2.787000000000001
 30
0.0
 41
0.7437184335382292
 10
48.78045935994006
 20
2.786999999999999
 30
0.0
 41
0.9359296083845572
  0
SPLINE
  5
4A
330
1F
100
AcDbEntity
  8
Default
100
AcDbSpline
210
0.0
220
0.0
230
1.0
 70
    28
 71
     2
 72
    10
 73
     7
 74
     0
 42
0.0000000001
 43
0.0000000001
 40
-4.908738521234052
 40
-4.908738521234052
 40
-4.908738521234052
 40
-4.71238898038469
 40
-4.71238898038469
 40
-3.141592653589793
 40
-3.141592653589793
 40
-1.767145867644259
 40
-1.767145867644259
 40
-1.767145867644259
 10
48.78045935994006
 20
2.715
 30
0.0
 41
0.9359296083845572
 10
48.78519228799397
 20
2.715
 30
0.0
 41
0.9633883476483184
 10
48.78519228799397
 20
2.715
 30
0.0
 41
1.0
 10
48.78519228799397
 20
2.715000000000001
 30
0.0
 41
0.7071067811865476
 10
48.50169228799396
 20
2.715
 30
0.0
 41
1.0
 10
48.26584136915416
 20
2.715000000000002
 30
0.0
 41
0.7437184335382291
 10
48.22292521604789
 20
2.715
 30
0.0
 41
0.9359296083845573
  0
SPLINE
  5
4B
330
1F
100
AcDbEntity
  8
Default
100
AcDbSpline
210
0.0
220
0.0
230
1.0
 70
    24
 71
     2
 72
     6
 73
     3
 74
     0
 42
0.0000000001
 43
0.0000000001
 40
0.0
 40
0.0
 40
0.0
 40
0.0299999999999994
 40
0.0299999999999994
 40
0.0299999999999994
 10
48.38569228799396
 20
2.715
 30
0.0
 10
48.38569228799396
 20
2.700000000000001
 30
0.0
 10
48.38569228799396
 20
2.685000000000001
 30
0.0
  0
SPLINE
  5
4C
330
1F
100
AcDbEntity
  8
Default
100
AcDbSpline
210
0.0
220
0.0
230
1.0
 70
    24
 71
     2
 72
     6
 73
     3
 74
     0
 42
0.0000000001
 43
0.0000000001
 40
0.0
 40
0.0
 40
0.0
 40
0.0299999999999994
 40
0.0299999999999994
 40
0.0299999999999994
 10
48.61769228799396
 20
2.685000000000001
 30
0.0
 10
48.61769228799396
 20
2.700000000000001
 30
0.0
 10
48.61769228799396
 20
2.715
 30
0.0
  0
SPLINE
  5
4D
330
1F
100
AcDbEntity
  8
Default
100
AcDbSpline
210
0.0
220
0.0
230
1.0
 70
    24
 71
     2
 72
     6
 73
     3
 74
     0
 42
0.0000000001
 43
0.0000000001
 40
0.0
 40
0.0
 40
0.0
 40
0.6544907715774642
 40
0.6544907715774642
 40
0.6544907715774642
 10
48.17720151641649
 20
2.685000000000001
 30
0.0
 10
48.50444690220522
 20
2.685000000000001
 30
0.0
 10
48.83169228799396
 20
2.685000000000001
 30
0.0
  0
SPLINE
  5
4E
330
1F
100
AcDbEntity
  8
Default
100
AcDbSpline
210
0.0
220
0.0
230
1.0
 70
    24
 71
     2
 72
     6
 73
     3
 74
     0
 42
0.0000000001
 43
0.0000000001
 40
0.0
 40
0.0
 40
0.0
 40
0.125
 40
0.125
 40
0.125
 10
48.83169228799396
 20
2.560000000000001
 30
0.0
 10
48.83169228799396
 20
2.622500000000001
 30
0.0
 10
48.83169228799396
 20
2.685000000000001
 30
0.0
  0
SPLINE
  5
4F
330
1F
100
AcDbEntity
  8
Default
100
AcDbSpline
210
0.0
220
0.0
230
1.0
 70
    24
 71
     2
 72
     6
 73
     3
 74
     0
 42
0.0000000001
 43
0.0000000001
 40
0.0
 40
0.0
 40
0.0
 40
0.125
 40
0.125
 40
0.125
 10
48.17169228799396
 20
2.685000000000001
 30
0.0
 10
48.17169228799396
 20
2.622500000000001
 30
0.0
 10
48.17169228799396
 20
2.560000000000001
 30
0.0
  0
SPLINE
  5
50
330
1F
100
AcDbEntity
  8
Default
100
AcDbSpline
210
0.0
220
0.0
230
1.0
 70
    24
 71
     2
 72
     6
 73
     3
 74
     0
 42
0.0000000001
 43
0.0000000001
 40
0.0
 40
0.0
 40
0.0
 40
0.0719999999999992
 40
0.0719999999999992
 40
0.0719999999999992
 10
48.78519228799397
 20
2.715
 30
0.0
 10
48.78519228799397
 20
2.751
 30
0.0
 10
48.78519228799397
 20
2.786999999999999
 30
0.0
  0
SPLINE
  5
51
330
1F
100
AcDbEntity
  8
Default
100
AcDbSpline
210
0.0
220
0.0
230
1.0
 70
    24
 71
     2
 72
     6
 73
     3
 74
     0
 42
0.0000000001
 43
0.0000000001
 40
0.0
 40
0.0
 40
0.0
 40
0.0719999999999992
 40
0.0719999999999992
 40
0.0719999999999992
 10
48.21819228799396
 20
2.786999999999999
 30
0.0
 10
48.21819228799396
 20
2.751
 30
0.0
 10
48.21819228799396
 20
2.715
 30
0.0
  0
SPLINE
  5
52
330
1F
100
AcDbEntity
  8
Default
100
AcDbSpline
210
0.0
220
0.0
230
1.0
 70
    24
 71
     2
 72
     6
 73
     3
 74
     0
 42
0.0000000001
 43
0.0000000001
 40
0.0
 40
0.0
 40
0.0
 40
0.0719999999999992
 40
0.0719999999999992
 40
0.0719999999999992
 10
39.67803627385577
 20
2.715
 30
0.0
 10
39.67803627385577
 20
2.751
 30
0.0
 10
39.67803627385577
 20
2.786999999999999
 30
0.0
  0
SPLINE
  5
53
330
1F
100
AcDbEntity
  8
Default
100
AcDbSpline
210
0.0
220
0.0
230
1.0
 70
    24
 71
     2
 72
     6
 73
     3
 74
     0
 42
0.0000000001
 43
0.0000000001
 40
0.0
 40
0.0
 40
0.0
 40
0.0719999999999992
 40
0.0719999999999992
 40
0.0719999999999992
 10
39.11103627385577
 20
2.786999999999999
 30
0.0
 10
39.11103627385577
 20
2.751
 30
0.0
 10
39.11103627385577
 20
2.715
 30
0.0
  0
SPLINE
  5
54
330
1F
100
AcDbEntity
  8
Default
100
AcDbSpline
210
0.0
220
0.0
230
1.0
 70
    12
 71
     2
 72
     6
 73
     3
 74
     0
 42
0.0000000001
 43
0.0000000001
 40
0.0
 40
0.0
 40
0.0
 40
0.0131105786163571
 40
0.0131105786163571
 40
0.0131105786163571
 10
35.6050677294736
 20
7.299418559586991
 30
0.0
 41
1.0
 10
35.61000877181379
 20
7.295110661004769
 30
0.0
 41
0.9999987488056045
 10
35.61493616016818
 20
7.29078715159608
 30
0.0
 41
1.0
  0
SPLINE
  5
55
330
1F
100
AcDbEntity
  8
Default
100
AcDbSpline
210
0.0
220
0.0
230
1.0
 70
    24
 71
     2
 72
     6
 73
     3
 74
     0
 42
0.0000000001
 43
0.0000000001
 40
0.0
 40
0.0
 40
0.0
 40
0.1250000000000018
 40
0.1250000000000018
 40
0.1250000000000018
 10
24.33500187801005
 20
2.685000000000001
 30
0.0
 10
24.33500187801005
 20
2.6225
 30
0.0
 10
24.33500187801005
 20
2.559999999999999
 30
0.0
  0
SPLINE
  5
56
330
1F
100
AcDbEntity
  8
Default
100
AcDbSpline
210
0.0
220
0.0
230
1.0
 70
     8
 71
     3
 72
     9
 73
     5
 74
     0
 42
0.0000000001
 43
0.0000000001
 40
0.0
 40
0.0
 40
0.0
 40
0.0
 40
1.0
 40
2.0
 40
2.0
 40
2.0
 40
2.0
 10
25.61501888785599
 20
4.81129572307691
 30
0.0
 10
27.09672242453165
 20
5.349708279664165
 30
0.0
 10
30.0706692784203
 20
6.388392665104148
 30
0.0
 10
33.01827490088323
 20
7.522408775059632
 30
0.0
 10
34.53291220277425
 20
7.941636223510169
 30
0.0
  0
ARC
  5
57
330
1F
100
AcDbEntity
  8
Default
100
AcDbCircle
 10
90.16773200633713
 20
-172.8368333176223
 30
0.0
 40
189.0129903541496
100
AcDbArc
 50
109.9698292093318
 51
110.0669122955547
  0
SPLINE
  5
58
330
1F
100
AcDbEntity
  8
Default
100
AcDbSpline
210
0.0
220
0.0
230
1.0
 70
     8
 71
     3
 72
    14
 73
    10
 74
     0
 42
0.0000000001
 43
0.0000000001
 40
0.0
 40
0.0
 40
0.0
 40
0.0
 40
0.9325266621168733
 40
1.214628429134138
 40
1.311332361826301
 40
1.352114056204227
 40
1.470970236391123
 40
1.732375692471004
 40
1.966751097566519
 40
1.966751097566519
 40
1.966751097566519
 40
1.966751097566519
 10
24.94497721526156
 20
2.850270766845396
 30
0.0
 10
24.95295771270648
 20
3.160742581213267
 30
0.0
 10
24.97741289273008
 20
3.565314945517164
 30
0.0
 10
25.00137017536477
 20
4.001526078336102
 30
0.0
 10
25.01041816602188
 20
4.141131261917547
 30
0.0
 10
25.01485273072595
 20
4.226632923925727
 30
0.0
 10
25.03135568002344
 20
4.365655336896212
 30
0.0
 10
25.10961827213111
 20
4.561240579642618
 30
0.0
 10
25.24291376496109
 20
4.668700717753433
 30
0.0
 10
25.31410124469939
 20
4.70166138043185
 30
0.0
  0
ARC
  5
59
330
1F
100
AcDbEntity
  8
Default
100
AcDbCircle
 10
38.49342878741705
 20
4.25556550377762
 30
0.0
 40
0.3838449679841116
100
AcDbArc
 50
12.40213538026598
 51
48.37326284055269
  0
SPLINE
  5
5A
330
1F
100
AcDbEntity
  8
Default
100
AcDbSpline
210
0.0
220
0.0
230
1.0
 70
     8
 71
     3
 72
     9
 73
     5
 74
     0
 42
0.0000000001
 43
0.0000000001
 40
0.0
 40
0.0
 40
0.0
 40
0.0
 40
1.0
 40
2.0
 40
2.0
 40
2.0
 40
2.0
 10
34.858679859367
 20
7.840225246782977
 30
0.0
 10
35.58127473241515
 20
7.386682753790045
 30
0.0
 10
36.81284538497031
 20
6.20329014979057
 30
0.0
 10
38.11226684570778
 20
5.107808210211442
 30
0.0
 10
38.748407442456
 20
4.542485082965332
 30
0.0
  0
SPLINE
  5
5B
330
1F
100
AcDbEntity
  8
Default
100
AcDbSpline
210
0.0
220
0.0
230
1.0
 70
     8
 71
     3
 72
    12
 73
     8
 74
     0
 42
0.0000000001
 43
0.0000000001
 40
-2.100455798127051
 40
-2.100455798127051
 40
-2.100455798127051
 40
-2.100455798127051
 40
-1.911908348968459
 40
-1.619927592219261
 40
-1.423665919557605
 40
-0.4481863286833334
 40
0.0
 40
0.0
 40
0.0
 40
0.0
 10
38.79390292302914
 20
4.899278152503046
 30
0.0
 10
38.84319357212482
 20
4.853238349617827
 30
0.0
 10
38.91391431644771
 20
4.708036390791508
 30
0.0
 10
38.97040742139613
 20
4.488589308086048
 30
0.0
 10
39.03409192068966
 20
4.004884620172838
 30
0.0
 10
39.09049890294926
 20
3.467746873700604
 30
0.0
 10
39.15845674563732
 20
2.998011349957456
 30
0.0
 10
39.18076546962688
 20
2.850307025571507
 30
0.0
  0
SPLINE
  5
5C
330
1F
100
AcDbEntity
  8
Default
100
AcDbSpline
210
0.0
220
0.0
230
1.0
 70
    12
 71
     2
 72
     6
 73
     3
 74
     0
 42
0.0000000001
 43
0.0000000001
 40
0.0
 40
0.0
 40
0.0
 40
4.717953031657331
 40
4.717953031657331
 40
4.717953031657331
 10
35.30000969899742
 20
8.074728831299796
 30
0.0
 41
1.0
 10
37.04576231355097
 20
6.488186044512489
 30
0.0
 41
0.9999999995542623
 10
38.79390292302914
 20
4.899278152503046
 30
0.0
 41
1.0
  0
SPLINE
  5
5D
330
1F
100
AcDbEntity
  8
Default
100
AcDbSpline
210
0.0
220
0.0
230
1.0
 70
     8
 71
     3
 72
    11
 73
     7
 74
     0
 42
0.0000000001
 43
0.0000000001
 40
0.0
 40
0.0
 40
0.0
 40
0.0
 40
0.999999999993674
 40
1.999999999995783
 40
2.999999999997891
 40
4.0
 40
4.0
 40
4.0
 40
4.0
 10
33.70590007974417
 20
8.074728831533715
 30
0.0
 10
33.83433255947386
 20
8.128197427819927
 30
0.0
 10
34.09915727928705
 20
8.216832984388514
 30
0.0
 10
34.51182776181584
 20
8.285556817677028
 30
0.0
 10
34.93296917855345
 20
8.281687659028622
 30
0.0
 10
35.1970917379901
 20
8.169974994883773
 30
0.0
 10
35.30000969899742
 20
8.074728831299796
 30
0.0
  0
SPLINE
  5
5E
330
1F
100
AcDbEntity
  8
Default
100
AcDbSpline
210
0.0
220
0.0
230
1.0
 70
    12
 71
     2
 72
     6
 73
     3
 74
     0
 42
0.0000000001
 43
0.0000000001
 40
-9.064516935471278
 40
-9.064516935471278
 40
-9.064516935471278
 40
0.0
 40
0.0
 40
0.0
 10
25.20891870068402
 20
4.899278189748825
 30
0.0
 41
1.0
 10
29.4604131461763
 20
6.48815783849645
 30
0.0
 41
0.9999999999841367
 10
33.70590007974417
 20
8.074728831533715
 30
0.0
 41
1.0
  0
SPLINE
  5
5F
330
1F
100
AcDbEntity
  8
Default
100
AcDbSpline
210
0.0
220
0.0
230
1.0
 70
     8
 71
     3
 72
    13
 73
     9
 74
     0
 42
0.0000000001
 43
0.0000000001
 40
-2.213265743474088
 40
-2.213265743474088
 40
-2.213265743474088
 40
-2.213265743474088
 40
-1.616620974610573
 40
-0.818198538745523
 40
-0.5938507212725546
 40
-0.2826307502816505
 40
-0.1438899734413501
 40
0.0
 40
0.0
 40
0.0
 40
0.0
 10
24.64757016484668
 20
2.850299939363254
 30
0.0
 10
24.6720735111198
 20
3.047659644681695
 30
0.0
 10
24.72991855425087
 20
3.509094794971068
 30
0.0
 10
24.77221838731296
 20
4.047544964286442
 30
0.0
 10
24.83031796775501
 20
4.488340886546646
 30
0.0
 10
24.93252194783096
 20
4.696176361760089
 30
0.0
 10
25.07235438185145
 20
4.836205931223327
 30
0.0
 10
25.15894993938977
 20
4.879762541142439
 30
0.0
 10
25.20891870068402
 20
4.899278189748825
 30
0.0
  0
SPLINE
  5
60
330
1F
100
AcDbEntity
  8
Default
100
AcDbSpline
210
0.0
220
0.0
230
1.0
 70
    12
 71
     2
 72
     6
 73
     3
 74
     0
 42
0.0000000001
 43
0.0000000001
 40
0.0
 40
0.0
 40
0.0
 40
0.0441979079326412
 40
0.0441979079326412
 40
0.0441979079326412
 10
36.42966968727455
 20
6.525000000001479
 30
0.0
 41
1.0
 10
36.45434838780706
 20
6.525104772249231
 30
0.0
 41
0.9513614948908506
 10
36.47280008146745
 20
6.538584381107463
 30
0.0
 41
1.0
  0
SPLINE
  5
61
330
1F
100
AcDbEntity
  8
Default
100
AcDbSpline
210
0.0
220
0.0
230
1.0
 70
    28
 71
     2
 72
    10
 73
     7
 74
     0
 42
0.0000000001
 43
0.0000000001
 40
1.394621802680968
 40
1.394621802680968
 40
1.394621802680968
 40
2.799287973343522
 40
2.799287973343522
 40
4.203957994833183
 40
4.203957994833183
 40
4.968340172050947
 40
4.968340172050947
 40
4.968340172050947
 10
34.2118871972711
 20
6.525000000001482
 30
0.0
 41
0.9999989528636511
 10
34.21189011836983
 20
6.525000000000007
 30
0.0
 41
0.8090175179445619
 10
34.97874375418099
 20
6.525000000000006
 30
0.0
 41
1.0
 10
35.74559998857001
 20
6.525000000000007
 30
0.0
 41
0.8090169943749521
 10
36.21954320590734
 20
6.525000000000002
 30
0.0
 41
1.0
 10
36.45239366689582
 20
6.524999999999996
 30
0.0
 41
0.8960723846754772
 10
36.42966968727455
 20
6.525000000001477
 30
0.0
 41
0.9052537780995884
  0
SPLINE
  5
62
330
1F
100
AcDbEntity
  8
Default
100
AcDbSpline
210
0.0
220
0.0
230
1.0
 70
    12
 71
     2
 72
     6
 73
     3
 74
     0
 42
0.0000000001
 43
0.0000000001
 40
0.0
 40
0.0
 40
0.0
 40
0.1095812811990372
 40
0.1095812811990372
 40
0.1095812811990372
 10
34.14188820595411
 20
6.594694568441529
 30
0.0
 41
1.0
 10
34.14235103786161
 20
6.525160087555863
 30
0.0
 41
0.7102668067101289
 10
34.2118871972711
 20
6.525000000001481
 30
0.0
 41
1.0
  0
SPLINE
  5
63
330
1F
100
AcDbEntity
  8
Default
100
AcDbSpline
210
0.0
220
0.0
230
1.0
 70
     8
 71
     3
 72
    11
 73
     7
 74
     0
 42
0.0000000001
 43
0.0000000001
 40
0.0
 40
0.0
 40
0.0
 40
0.0
 40
1.000000000110961
 40
2.000000000221922
 40
3.000000000332883
 40
4.0
 40
4.0
 40
4.0
 40
4.0
 10
34.05979848963392
 20
7.20062896249678
 30
0.0
 10
34.08304532297856
 20
7.154592266628307
 30
0.0
 10
34.11684484441915
 20
7.056848283486296
 30
0.0
 10
34.14318120388923
 20
6.903948764501512
 30
0.0
 10
34.1403886370504
 20
6.749116799386041
 30
0.0
 10
34.14182855351263
 20
6.646210658026948
 30
0.0
 10
34.14188820595411
 20
6.594694568441529
 30
0.0
  0
SPLINE
  5
64
330
1F
100
AcDbEntity
  8
Default
100
AcDbSpline
210
0.0
220
0.0
230
1.0
 70
    24
 71
     2
 72
     6
 73
     3
 74
     0
 42
0.0000000001
 43
0.0000000001
 40
0.0
 40
0.0
 40
0.0
 40
1.849054771382128
 40
1.849054771382128
 40
1.849054771382128
 10
36.22885481712849
 20
4.676481355401492
 30
0.0
 10
36.25205659767953
 20
5.600740677700747
 30
0.0
 10
36.27525837823057
 20
6.525000000000002
 30
0.0
  0
SPLINE
  5
65
330
1F
100
AcDbEntity
  8
Default
100
AcDbSpline
210
0.0
220
0.0
230
1.0
 70
    12
 71
     2
 72
     6
 73
     3
 74
     0
 42
0.0000000001
 43
0.0000000001
 40
0.0
 40
0.0
 40
0.0
 40
0.3807238872087158
 40
0.3807238872087158
 40
0.3807238872087158
 10
36.19767653996247
 20
4.297000000000001
 30
0.0
 41
1.0
 10
36.21088065047489
 20
4.486913499155462
 30
0.0
 41
0.9999210269727447
 10
36.22885481712849
 20
4.676481355401492
 30
0.0
 41
1.0
  0
SPLINE
  5
66
330
1F
100
AcDbEntity
  8
Default
100
AcDbSpline
210
0.0
220
0.0
230
1.0
 70
    24
 71
     2
 72
     6
 73
     3
 74
     0
 42
0.0000000001
 43
0.0000000001
 40
0.0
 40
0.0
 40
0.0
 40
3.275
 40
3.275
 40
3.275
 10
36.19767653996246
 20
1.022000000000001
 30
0.0
 10
36.19767653996246
 20
2.6595
 30
0.0
 10
36.19767653996247
 20
4.297000000000001
 30
0.0
  0
SPLINE
  5
67
330
1F
100
AcDbEntity
  8
Default
100
AcDbSpline
210
0.0
220
0.0
230
1.0
 70
    12
 71
     2
 72
     6
 73
     3
 74
     0
 42
0.0000000001
 43
0.0000000001
 40
0.0
 40
0.0
 40
0.0
 40
0.1962869027771344
 40
0.1962869027771344
 40
0.1962869027771344
 10
36.07267653993654
 20
0.8970000000000007
 30
0.0
 41
1.0
 10
36.19753062852691
 20
0.8971459114096628
 30
0.0
 41
0.7079326620139522
 10
36.19767653996246
 20
1.022000000000001
 30
0.0
 41
1.0
  0
POLYLINE
  5
68
330
1F
100
AcDbEntity
  8
Default
100
AcDb2dPolyline
 66
     1
 10
0.0
 20
0.0
 30
0.0
  0
VERTEX
  5
69
330
68
100
AcDbEntity
  8
Default
100
AcDbVertex
100
AcDb2dVertex
 10
34.57070803607026
 20
0.8969999999999989
 30
0.0
  0
VERTEX
  5
6A
330
68
100
AcDbEntity
  8
Default
100
AcDbVertex
100
AcDb2dVertex
 10
36.07267653993654
 20
0.8970000000000007
 30
0.0
  0
SEQEND
  5
6B
330
68
100
AcDbEntity
  8
Default
  0
SPLINE
  5
6C
330
1F
100
AcDbEntity
  8
Default
100
AcDbSpline
210
0.0
220
0.0
230
1.0
 70
    12
 71
     2
 72
     6
 73
     3
 74
     0
 42
0.0000000001
 43
0.0000000001
 40
0.0
 40
0.0
 40
0.0
 40
0.1962734020549735
 40
0.1962734020549735
 40
0.1962734020549735
 10
34.44570803602546
 20
1.022000000000001
 30
0.0
 41
1.0
 10
34.44588538906771
 20
0.8971773529975585
 30
0.0
 41
0.7081107520811987
 10
34.57070803607026
 20
0.8969999999999989
 30
0.0
 41
1.0
  0
SPLINE
  5
6D
330
1F
100
AcDbEntity
  8
Default
100
AcDbSpline
210
0.0
220
0.0
230
1.0
 70
    24
 71
     2
 72
     6
 73
     3
 74
     0
 42
0.0000000001
 43
0.0000000001
 40
0.0
 40
0.0
 40
0.0
 40
3.275
 40
3.275
 40
3.275
 10
34.44570803602546
 20
4.297000000000001
 30
0.0
 10
34.44570803602546
 20
2.6595
 30
0.0
 10
34.44570803602546
 20
1.022000000000001
 30
0.0
  0
SPLINE
  5
6E
330
1F
100
AcDbEntity
  8
Default
100
AcDbSpline
210
0.0
220
0.0
230
1.0
 70
    12
 71
     2
 72
     6
 73
     3
 74
     0
 42
0.0000000001
 43
0.0000000001
 40
0.0
 40
0.0
 40
0.0
 40
0.3807238872087157
 40
0.3807238872087157
 40
0.3807238872087157
 10
34.41452975885943
 20
4.676481355401492
 30
0.0
 41
1.0
 10
34.43250392551301
 20
4.486913499155466
 30
0.0
 41
0.9999210269727445
 10
34.44570803602546
 20
4.297000000000001
 30
0.0
 41
1.0
  0
SPLINE
  5
6F
330
1F
100
AcDbEntity
  8
Default
100
AcDbSpline
210
0.0
220
0.0
230
1.0
 70
    24
 71
     2
 72
     6
 73
     3
 74
     0
 42
0.0000000001
 43
0.0000000001
 40
0.0
 40
0.0
 40
0.0
 40
1.849054771382129
 40
1.849054771382129
 40
1.849054771382129
 10
34.36812619775733
 20
6.525000000000003
 30
0.0
 10
34.39132797830838
 20
5.600740677700747
 30
0.0
 10
34.41452975885943
 20
4.676481355401492
 30
0.0
  0
POLYLINE
  5
70
330
1F
100
AcDbEntity
  8
Default
100
AcDb2dPolyline
 66
     1
 10
0.0
 20
0.0
 30
0.0
  0
VERTEX
  5
71
330
70
100
AcDbEntity
  8
Default
100
AcDbVertex
100
AcDb2dVertex
 10
24.38150187801003
 20
2.786999999999999
 30
0.0
  0
VERTEX
  5
72
330
70
100
AcDbEntity
  8
Default
100
AcDbVertex
100
AcDb2dVertex
 10
24.94850187801003
 20
2.786999999999999
 30
0.0
  0
SEQEND
  5
73
330
70
100
AcDbEntity
  8
Default
  0
SPLINE
  5
74
330
1F
100
AcDbEntity
  8
Default
100
AcDbSpline
210
0.0
220
0.0
230
1.0
 70
    24
 71
     2
 72
     6
 73
     3
 74
     0
 42
0.0000000001
 43
0.0000000001
 40
-1.16498631949094
 40
-1.16498631949094
 40
-1.16498631949094
 40
0.0
 40
0.0
 40
0.0
 10
48.85619228799396
 20
2.560000000000001
 30
0.0
 10
48.85619228799396
 20
1.977506840254531
 30
0.0
 10
48.85619228799396
 20
1.395013680509061
 30
0.0
  0
LINE
  5
75
330
1F
100
AcDbEntity
  8
Default
100
AcDbLine
 10
47.69120596850303
 20
2.560000000000001
 30
0.0
 11
48.85619228799396
 21
2.560000000000001
 31
0.0
  0
SPLINE
  5
76
330
1F
100
AcDbEntity
  8
Default
100
AcDbSpline
210
0.0
220
0.0
230
1.0
 70
    24
 71
     2
 72
     6
 73
     3
 74
     0
 42
0.0000000001
 43
0.0000000001
 40
-1.16498631949094
 40
-1.16498631949094
 40
-1.16498631949094
 40
0.0
 40
0.0
 40
0.0
 10
39.74903627385578
 20
2.560000000000001
 30
0.0
 10
39.74903627385578
 20
1.977506840254531
 30
0.0
 10
39.74903627385578
 20
1.395013680509061
 30
0.0
  0
LINE
  5
77
330
1F
100
AcDbEntity
  8
Default
100
AcDbLine
 10
38.58404995436476
 20
2.560000000000001
 30
0.0
 11
39.74903627385578
 21
2.560000000000001
 31
0.0
  0
SPLINE
  5
78
330
1F
100
AcDbEntity
  8
Default
100
AcDbSpline
210
0.0
220
0.0
230
1.0
 70
    24
 71
     2
 72
     6
 73
     3
 74
     0
 42
0.0000000001
 43
0.0000000001
 40
-1.16498631949094
 40
-1.16498631949094
 40
-1.16498631949094
 40
0.0
 40
0.0
 40
0.0
 10
25.01950187801006
 20
2.560000000000001
 30
0.0
 10
25.01950187801006
 20
1.977506840254531
 30
0.0
 10
25.01950187801006
 20
1.395013680509061
 30
0.0
  0
LINE
  5
79
330
1F
100
AcDbEntity
  8
Default
100
AcDbLine
 10
23.85491755101279
 20
2.560000000000001
 30
0.0
 11
25.01950187801006
 21
2.560000000000001
 31
0.0
  0
CIRCLE
  5
7A
330
1F
100
AcDbEntity
  8
Default
100
AcDbCircle
 10
47.57557472312391
 20
1.280446144376533
 30
0.0
 40
1.079999505048338
  0
CIRCLE
  5
7B
330
1F
100
AcDbEntity
  8
Default
100
AcDbCircle
 10
47.57576590521068
 20
1.280446346434227
 30
0.0
 40
1.279999211064931
  0
CIRCLE
  5
7C
330
1F
100
AcDbEntity
  8
Default
100
AcDbCircle
 10
38.46841870898578
 20
1.280446144376612
 30
0.0
 40
1.079999505048338
  0
CIRCLE
  5
7D
330
1F
100
AcDbEntity
  8
Default
100
AcDbCircle
 10
38.46860989107255
 20
1.280446346434305
 30
0.0
 40
1.279999211064931
  0
CIRCLE
  5
7E
330
1F
100
AcDbEntity
  8
Default
100
AcDbCircle
 10
23.73854492180578
 20
1.279999505048333
 30
0.0
 40
1.079999505048338
  0
CIRCLE
  5
7F
330
1F
100
AcDbEntity
  8
Default
100
AcDbCircle
 10
23.73873610389255
 20
1.279999707106026
 30
0.0
 40
1.279999211064931
  0
SPLINE
  5
80
330
1F
100
AcDbEntity
  8
Default
100
AcDbSpline
210
0.0
220
0.0
230
1.0
 70
    28
 71
     2
 72
    10
 73
     7
 74
     0
 42
0.0000000001
 43
0.0000000001
 40
1.374446785945534
 40
1.374446785945534
 40
1.374446785945534
 40
1.570796326794897
 40
1.570796326794897
 40
3.141592653589793
 40
3.141592653589793
 40
4.516039439535327
 40
4.516039439535327
 40
4.516039439535327
 10
39.11576920190969
 20
2.786999999999999
 30
0.0
 41
0.9359296083845573
 10
39.11103627385576
 20
2.786999999999999
 30
0.0
 41
0.9633883476483185
 10
39.11103627385577
 20
2.786999999999999
 30
0.0
 41
1.0
 10
39.1110362738558
 20
2.787000000000001
 30
0.0
 41
0.7071067811865476
 10
39.39453627385582
 20
2.786999999999999
 30
0.0
 41
1.0
 10
39.63038719269562
 20
2.787000000000001
 30
0.0
 41
0.7437184335382292
 10
39.67330334580187
 20
2.786999999999999
 30
0.0
 41
0.9359296083845572
  0
SPLINE
  5
81
330
1F
100
AcDbEntity
  8
Default
100
AcDbSpline
210
0.0
220
0.0
230
1.0
 70
    28
 71
     2
 72
    10
 73
     7
 74
     0
 42
0.0000000001
 43
0.0000000001
 40
-4.908738521234052
 40
-4.908738521234052
 40
-4.908738521234052
 40
-4.71238898038469
 40
-4.71238898038469
 40
-3.141592653589793
 40
-3.141592653589793
 40
-1.767145867644259
 40
-1.767145867644259
 40
-1.767145867644259
 10
39.67330334580183
 20
2.715
 30
0.0
 41
0.9359296083845572
 10
39.6780362738558
 20
2.715
 30
0.0
 41
0.9633883476483184
 10
39.67803627385577
 20
2.715
 30
0.0
 41
1.0
 10
39.67803627385581
 20
2.715000000000001
 30
0.0
 41
0.7071067811865476
 10
39.39453627385582
 20
2.715
 30
0.0
 41
1.0
 10
39.15868535501603
 20
2.715000000000002
 30
0.0
 41
0.7437184335382291
 10
39.11576920190969
 20
2.715
 30
0.0
 41
0.9359296083845573
  0
SPLINE
  5
82
330
1F
100
AcDbEntity
  8
Default
100
AcDbSpline
210
0.0
220
0.0
230
1.0
 70
    24
 71
     2
 72
     6
 73
     3
 74
     0
 42
0.0000000001
 43
0.0000000001
 40
0.0
 40
0.0
 40
0.0
 40
0.0299999999999994
 40
0.0299999999999994
 40
0.0299999999999994
 10
39.27853627385576
 20
2.715
 30
0.0
 10
39.27853627385576
 20
2.700000000000001
 30
0.0
 10
39.27853627385576
 20
2.685000000000001
 30
0.0
  0
SPLINE
  5
83
330
1F
100
AcDbEntity
  8
Default
100
AcDbSpline
210
0.0
220
0.0
230
1.0
 70
    24
 71
     2
 72
     6
 73
     3
 74
     0
 42
0.0000000001
 43
0.0000000001
 40
0.0
 40
0.0
 40
0.0
 40
0.0299999999999994
 40
0.0299999999999994
 40
0.0299999999999994
 10
39.51053627385576
 20
2.685000000000001
 30
0.0
 10
39.51053627385576
 20
2.700000000000001
 30
0.0
 10
39.51053627385576
 20
2.715
 30
0.0
  0
SPLINE
  5
84
330
1F
100
AcDbEntity
  8
Default
100
AcDbSpline
210
0.0
220
0.0
230
1.0
 70
    24
 71
     2
 72
     6
 73
     3
 74
     0
 42
0.0000000001
 43
0.0000000001
 40
0.0
 40
0.0
 40
0.0
 40
0.6544907715787645
 40
0.6544907715787645
 40
0.6544907715787645
 10
39.070045502277
 20
2.685000000000001
 30
0.0
 10
39.39729088806638
 20
2.685000000000001
 30
0.0
 10
39.72453627385576
 20
2.685000000000001
 30
0.0
  0
SPLINE
  5
85
330
1F
100
AcDbEntity
  8
Default
100
AcDbSpline
210
0.0
220
0.0
230
1.0
 70
    24
 71
     2
 72
     6
 73
     3
 74
     0
 42
0.0000000001
 43
0.0000000001
 40
0.0
 40
0.0
 40
0.0
 40
0.125
 40
0.125
 40
0.125
 10
39.72453627385576
 20
2.560000000000001
 30
0.0
 10
39.72453627385576
 20
2.622500000000001
 30
0.0
 10
39.72453627385576
 20
2.685000000000001
 30
0.0
  0
SPLINE
  5
86
330
1F
100
AcDbEntity
  8
Default
100
AcDbSpline
210
0.0
220
0.0
230
1.0
 70
    24
 71
     2
 72
     6
 73
     3
 74
     0
 42
0.0000000001
 43
0.0000000001
 40
0.0
 40
0.0
 40
0.0
 40
0.125
 40
0.125
 40
0.125
 10
39.06453627385576
 20
2.685000000000001
 30
0.0
 10
39.06453627385576
 20
2.622500000000001
 30
0.0
 10
39.06453627385576
 20
2.560000000000001
 30
0.0
  0
SPLINE
  5
87
330
1F
100
AcDbEntity
  8
Default
100
AcDbSpline
210
0.0
220
0.0
230
1.0
 70
    28
 71
     2
 72
    10
 73
     7
 74
     0
 42
0.0000000001
 43
0.0000000001
 40
-4.908738521234052
 40
-4.908738521234052
 40
-4.908738521234052
 40
-4.71238898038469
 40
-4.71238898038469
 40
-3.141592653589793
 40
-3.141592653589793
 40
-1.767145867644259
 40
-1.767145867644259
 40
-1.767145867644259
 10
24.94381821012608
 20
2.715
 30
0.0
 41
0.9359296083845572
 10
24.94852664991148
 20
2.715
 30
0.0
 41
0.9633883476483184
 10
24.94850174808519
 20
2.715
 30
0.0
 41
1.0
 10
24.94823033075586
 20
2.715000000000001
 30
0.0
 41
0.7071067811865476
 10
24.66473046068071
 20
2.715
 30
0.0
 41
1.0
 10
24.4288796499287
 20
2.715000000000002
 30
0.0
 41
0.7437184335382291
 10
24.38618554589402
 20
2.715
 30
0.0
 41
0.9359296083845573
  0
SPLINE
  5
88
330
1F
100
AcDbEntity
  8
Default
100
AcDbSpline
210
0.0
220
0.0
230
1.0
 70
    24
 71
     2
 72
     6
 73
     3
 74
     0
 42
0.0000000001
 43
0.0000000001
 40
0.0
 40
0.0
 40
0.0
 40
0.0299999999999994
 40
0.0299999999999994
 40
0.0299999999999994
 10
24.78100182484857
 20
2.685000000000001
 30
0.0
 10
24.78100182484857
 20
2.700000000000001
 30
0.0
 10
24.78100182484857
 20
2.715
 30
0.0
  0
SPLINE
  5
89
330
1F
100
AcDbEntity
  8
Default
100
AcDbSpline
210
0.0
220
0.0
230
1.0
 70
    24
 71
     2
 72
     6
 73
     3
 74
     0
 42
0.0000000001
 43
0.0000000001
 40
0.0
 40
0.0
 40
0.0
 40
0.6545479602225583
 40
0.6545479602225583
 40
0.6545479602225583
 10
24.34045376655223
 20
2.685000000000001
 30
0.0
 10
24.66772774666351
 20
2.685000000000001
 30
0.0
 10
24.9950017267748
 20
2.685000000000001
 30
0.0
  0
SPLINE
  5
8A
330
1F
100
AcDbEntity
  8
Default
100
AcDbSpline
210
0.0
220
0.0
230
1.0
 70
    24
 71
     2
 72
     6
 73
     3
 74
     0
 42
0.0000000001
 43
0.0000000001
 40
0.0
 40
0.0
 40
0.0
 40
0.125
 40
0.125
 40
0.125
 10
24.9950017267748
 20
2.560000000000001
 30
0.0
 10
24.9950017267748
 20
2.622500000000001
 30
0.0
 10
24.9950017267748
 20
2.685000000000001
 30
0.0
  0
SPLINE
  5
8B
330
1F
100
AcDbEntity
  8
Default
100
AcDbSpline
210
0.0
220
0.0
230
1.0
 70
    24
 71
     2
 72
     6
 73
     3
 74
     0
 42
0.0000000001
 43
0.0000000001
 40
0.0
 40
0.0
 40
0.0
 40
0.0719999999999992
 40
0.0719999999999992
 40
0.0719999999999992
 10
24.38150187801003
 20
2.786999999999999
 30
0.0
 10
24.38150187801003
 20
2.751
 30
0.0
 10
24.38150187801003
 20
2.715
 30
0.0
  0
SPLINE
  5
8C
330
1F
100
AcDbEntity
  8
Default
100
AcDbSpline
210
0.0
220
0.0
230
1.0
 70
    24
 71
     2
 72
     6
 73
     3
 74
     0
 42
0.0000000001
 43
0.0000000001
 40
0.0
 40
0.0
 40
0.0
 40
0.0299999999999994
 40
0.0299999999999994
 40
0.0299999999999994
 10
24.54900187801004
 20
2.715
 30
0.0
 10
24.54900187801004
 20
2.700000000000001
 30
0.0
 10
24.54900187801004
 20
2.685000000000001
 30
0.0
  0
SPLINE
  5
8D
330
1F
100
AcDbEntity
  8
Default
100
AcDbSpline
210
0.0
220
0.0
230
1.0
 70
    24
 71
     2
 72
     6
 73
     3
 74
     0
 42
0.0000000001
 43
0.0000000001
 40
0.0
 40
0.0
 40
0.0
 40
0.0719999999999992
 40
0.0719999999999992
 40
0.0719999999999992
 10
24.94850187801003
 20
2.715
 30
0.0
 10
24.94850187801003
 20
2.751
 30
0.0
 10
24.94850187801003
 20
2.786999999999999
 30
0.0
  0
SPLINE
  5
8E
330
1F
100
AcDbEntity
  8
Default
100
AcDbSpline
210
0.0
220
0.0
230
1.0
 70
     8
 71
     3
 72
    16
 73
    12
 74
     0
 42
0.0000000001
 43
0.0000000001
 40
0.0
 40
0.0
 40
0.0
 40
0.0
 40
1.0
 40
2.0
 40
3.0
 40
4.0
 40
5.0
 40
6.0
 40
7.0
 40
8.0
 40
9.0
 40
9.0
 40
9.0
 40
9.0
 10
39.31891409597778
 20
15.13281987692524
 30
0.0
 10
39.66011458705226
 20
15.1497085818518
 30
0.0
 10
40.34247527240638
 20
15.18432142609117
 30
0.0
 10
41.36584664800662
 20
15.23941444229491
 30
0.0
 10
42.38913965504028
 20
15.29612266476649
 30
0.0
 10
43.41228277462235
 20
15.35478537520093
 30
0.0
 10
44.43518715193846
 20
15.42008067801604
 30
0.0
 10
45.45798965256444
 20
15.4772018740035
 30
0.0
 10
46.48174388152483
 20
15.55536147642912
 30
0.0
 10
47.50553029970694
 20
15.48087597650991
 30
0.0
 10
48.17173131370182
 20
15.31449272228601
 30
0.0
 10
48.49780770064948
 20
15.21540086872421
 30
0.0
  0
SPLINE
  5
8F
330
1F
100
AcDbEntity
  8
Default
100
AcDbSpline
210
0.0
220
0.0
230
1.0
 70
     8
 71
     3
 72
    10
 73
     6
 74
     0
 42
0.0000000001
 43
0.0000000001
 40
0.0
 40
0.0
 40
0.0
 40
0.0
 40
1.0
 40
2.0
 40
3.0
 40
3.0
 40
3.0
 40
3.0
 10
39.647833491989
 20
12.83134930586294
 30
0.0
 10
40.68174033839058
 20
12.88365739096856
 30
0.0
 10
42.74819862739839
 20
13.04977739535043
 30
0.0
 10
45.80215801117691
 20
13.65585243853624
 30
0.0
 10
47.71391972298754
 20
14.52748766551867
 30
0.0
 10
48.49780770064948
 20
15.21540086872421
 30
0.0
  0
SPLINE
  5
90
330
1F
100
AcDbEntity
  8
Default
100
AcDbSpline
210
0.0
220
0.0
230
1.0
 70
    12
 71
     2
 72
     6
 73
     3
 74
     0
 42
0.0000000001
 43
0.0000000001
 40
0.0
 40
0.0
 40
0.0
 40
0.0652686284857392
 40
0.0652686284857392
 40
0.0652686284857392
 10
48.49780770064948
 20
15.21540086872421
 30
0.0
 41
1.0
 10
48.52466922191379
 20
15.23922534612434
 30
0.0
 41
0.8688088247205614
 10
48.51786135824773
 20
15.27447871532967
 30
0.0
 41
1.0
  0
SPLINE
  5
91
330
1F
100
AcDbEntity
  8
Default
100
AcDbSpline
210
0.0
220
0.0
230
1.0
 70
     8
 71
     3
 72
    16
 73
    12
 74
     0
 42
0.0000000001
 43
0.0000000001
 40
-9.0
 40
-9.0
 40
-9.0
 40
-9.0
 40
-8.0
 40
-7.0
 40
-6.0
 40
-5.0
 40
-4.0
 40
-3.0
 40
-2.0
 40
-1.0
 40
0.0
 40
0.0
 40
0.0
 40
0.0
 10
48.51786135824773
 20
15.27447871532967
 30
0.0
 10
48.44928651728098
 20
15.65497763157354
 30
0.0
 10
47.98089530375907
 20
16.29696995330258
 30
0.0
 10
46.95921697262311
 20
16.84112045229264
 30
0.0
 10
45.85093887637099
 20
17.13212871892225
 30
0.0
 10
44.71707426225434
 20
17.28196483888868
 30
0.0
 10
43.57603053555767
 20
17.34694321894364
 30
0.0
 10
42.43346262730157
 20
17.35678329910722
 30
0.0
 10
41.2911502395262
 20
17.33849463590501
 30
0.0
 10
40.14914844717737
 20
17.30704170837551
 30
0.0
 10
39.38794476855603
 20
17.28190969349672
 30
0.0
 10
39.00732829753155
 20
17.26981372470873
 30
0.0
  0
SPLINE
  5
92
330
1F
100
AcDbEntity
  8
Default
100
AcDbSpline
210
0.0
220
0.0
230
1.0
 70
    12
 71
     2
 72
     6
 73
     3
 74
     0
 42
0.0000000001
 43
0.0000000001
 40
0.0
 40
0.0
 40
0.0
 40
0.4587310834158679
 40
0.4587310834158679
 40
0.4587310834158679
 10
31.20083079940544
 20
24.61908595574716
 30
0.0
 41
1.0
 10
30.95265378662044
 20
24.6211104573952
 30
0.0
 41
0.752067199479363
 10
30.88405701675789
 20
24.35033221739666
 30
0.0
 41
1.0
  0
POLYLINE
  5
93
330
1F
100
AcDbEntity
  8
Default
100
AcDb2dPolyline
 66
     1
 10
0.0
 20
0.0
 30
0.0
  0
VERTEX
  5
94
330
93
100
AcDbEntity
  8
Default
100
AcDbVertex
100
AcDb2dVertex
 10
30.88405701675789
 20
24.35033221739666
 30
0.0
  0
VERTEX
  5
95
330
93
100
AcDbEntity
  8
Default
100
AcDbVertex
100
AcDb2dVertex
 10
28.93964032793007
 20
15.98821672499792
 30
0.0
  0
SEQEND
  5
96
330
93
100
AcDbEntity
  8
Default
  0
SPLINE
  5
97
330
1F
100
AcDbEntity
  8
Default
100
AcDbSpline
210
0.0
220
0.0
230
1.0
 70
    12
 71
     2
 72
     6
 73
     3
 74
     0
 42
0.0000000001
 43
0.0000000001
 40
0.0
 40
0.0
 40
0.0
 40
1.578187189048761
 40
1.578187189048761
 40
1.578187189048761
 10
28.93964032793007
 20
15.98821672499792
 30
0.0
 41
1.0
 10
28.80024245072805
 20
15.20652587484443
 30
0.0
 41
0.9907139542829982
 10
28.44424161573162
 20
14.46960990620419
 30
0.0
 41
1.0
  0
SPLINE
  5
98
330
1F
100
AcDbEntity
  8
Default
100
AcDbSpline
210
0.0
220
0.0
230
1.0
 70
     8
 71
     3
 72
    16
 73
    12
 74
     0
 42
0.0000000001
 43
0.0000000001
 40
0.0
 40
0.0
 40
0.0
 40
0.0
 40
1.0
 40
2.0
 40
3.0
 40
4.0
 40
5.0
 40
6.0
 40
7.0
 40
8.0
 40
9.0
 40
9.0
 40
9.0
 40
9.0
 10
28.44424161573162
 20
14.46960990620419
 30
0.0
 10
28.82322421871326
 20
14.30053716005915
 30
0.0
 10
29.6312746151964
 20
14.11442294945887
 30
0.0
 10
30.85003945663978
 20
13.88929250559549
 30
0.0
 10
32.08113098765646
 20
13.73472688280107
 30
0.0
 10
33.31733889375955
 20
13.63646439882497
 30
0.0
 10
34.55667166624638
 20
13.5852145833713
 30
0.0
 10
35.7967305891425
 20
13.59462069724846
 30
0.0
 10
37.03567664257026
 20
13.68316946347283
 30
0.0
 10
38.25616402074135
 20
13.89044602038983
 30
0.0
 10
39.07033318869635
 20
14.06880134746248
 30
0.0
 10
39.43175942775519
 20
14.27730040569092
 30
0.0
  0
POLYLINE
  5
99
330
1F
100
AcDbEntity
  8
Default
100
AcDb2dPolyline
 66
     1
 10
0.0
 20
0.0
 30
0.0
  0
VERTEX
  5
9A
330
99
100
AcDbEntity
  8
Default
100
AcDbVertex
100
AcDb2dVertex
 10
39.43175942775519
 20
14.27730040569092
 30
0.0
  0
VERTEX
  5
9B
330
99
100
AcDbEntity
  8
Default
100
AcDbVertex
100
AcDb2dVertex
 10
38.05903048243302
 20
23.44023849708596
 30
0.0
  0
SEQEND
  5
9C
330
99
100
AcDbEntity
  8
Default
  0
SPLINE
  5
9D
330
1F
100
AcDbEntity
  8
Default
100
AcDbSpline
210
0.0
220
0.0
230
1.0
 70
     8
 71
     3
 72
     8
 73
     4
 74
     0
 42
0.0000000001
 43
0.0000000001
 40
0.0
 40
0.0
 40
0.0
 40
0.0
 40
1.0
 40
1.0
 40
1.0
 40
1.0
 10
38.05903048243302
 20
23.44023849708596
 30
0.0
 10
37.99804082435494
 20
23.84734323767524
 30
0.0
 10
38.26250273889944
 20
24.02197257248299
 30
0.0
 10
38.70428660269319
 20
24.04466703145189
 30
0.0
  0
SPLINE
  5
9E
330
1F
100
AcDbEntity
  8
Default
100
AcDbSpline
210
0.0
220
0.0
230
1.0
 70
    12
 71
     2
 72
     6
 73
     3
 74
     0
 42
0.0000000001
 43
0.0000000001
 40
0.0
 40
0.0
 40
0.0
 40
1.938395960932932
 40
1.938395960932932
 40
1.938395960932932
 10
38.70428660269319
 20
24.04466703145189
 30
0.0
 41
1.0
 10
39.67228627348643
 20
24.09439322249492
 30
0.0
 41
0.9998791916157809
 10
40.63886126022167
 20
24.17423267900222
 30
0.0
 41
1.0
  0
SPLINE
  5
9F
330
1F
100
AcDbEntity
  8
Default
100
AcDbSpline
210
0.0
220
0.0
230
1.0
 70
     8
 71
     3
 72
    11
 73
     7
 74
     0
 42
0.0000000001
 43
0.0000000001
 40
0.0
 40
0.0
 40
0.0
 40
0.0
 40
0.3160124908430086
 40
0.5666082679233622
 40
0.7872492670022833
 40
0.9775020363256344
 40
0.9775020363256344
 40
0.9775020363256344
 40
0.9775020363256344
 10
40.63886126022167
 20
24.17423267900222
 30
0.0
 10
40.74427435418703
 20
24.18339659549342
 30
0.0
 10
40.93218823393216
 20
24.20970765590758
 30
0.0
 10
41.18137361984801
 20
24.29582683164525
 30
0.0
 10
41.36598518983026
 20
24.42241284790876
 30
0.0
 10
41.44140184535204
 20
24.54058059505416
 30
0.0
 10
41.46144591914656
 20
24.60083937809743
 30
0.0
  0
POLYLINE
  5
A0
330
1F
100
AcDbEntity
  8
Default
100
AcDb2dPolyline
 66
     1
 10
0.0
 20
0.0
 30
0.0
  0
VERTEX
  5
A1
330
A0
100
AcDbEntity
  8
Default
100
AcDbVertex
100
AcDb2dVertex
 10
41.46144591914656
 20
24.60083937809743
 30
0.0
  0
VERTEX
  5
A2
330
A0
100
AcDbEntity
  8
Default
100
AcDbVertex
100
AcDb2dVertex
 10
41.47207660064362
 20
24.62993392886182
 30
0.0
  0
SEQEND
  5
A3
330
A0
100
AcDbEntity
  8
Default
  0
LINE
  5
A4
330
1F
100
AcDbEntity
  8
Default
100
AcDbLine
 10
31.23585086753356
 20
24.62009143389702
 30
0.0
 11
31.71708166512797
 21
24.62993180461231
 31
0.0
  0
SPLINE
  5
A5
330
1F
100
AcDbEntity
  8
Default
100
AcDbSpline
210
0.0
220
0.0
230
1.0
 70
    12
 71
     2
 72
     6
 73
     3
 74
     0
 42
0.0000000001
 43
0.0000000001
 40
0.0
 40
0.0
 40
0.0
 40
9.784371204744486
 40
9.784371204744486
 40
9.784371204744486
 10
31.71708166512797
 20
24.62993180461231
 30
0.0
 41
1.0
 10
36.61291685228853
 20
24.62994115700886
 30
0.0
 41
0.9999999999999728
 10
41.50510245465545
 20
24.62993387992567
 30
0.0
 41
1.0
  0
ARC
  5
A6
330
1F
100
AcDbEntity
  8
Default
100
AcDbCircle
 10
41.40845222356989
 20
24.66540080493301
 30
0.0
 40
0.1029522701953149
100
AcDbArc
 50
339.8488013924592
 51
56.12134167573056
  0
SPLINE
  5
A7
330
1F
100
AcDbEntity
  8
Default
100
AcDbSpline
210
0.0
220
0.0
230
1.0
 70
     8
 71
     3
 72
    19
 73
    15
 74
     0
 42
0.0000000001
 43
0.0000000001
 40
0.0
 40
0.0
 40
0.0
 40
0.0
 40
1.0
 40
2.0
 40
3.0
 40
4.0
 40
5.0
 40
6.0
 40
7.0
 40
8.0
 40
9.0
 40
10.0
 40
11.0
 40
12.0
 40
12.0
 40
12.0
 40
12.0
 10
41.46584151550235
 20
24.75087383640996
 30
0.0
 10
41.22036816572846
 20
24.91569239365996
 30
0.0
 10
40.64149071419357
 20
24.98003470464265
 30
0.0
 10
39.78063684264369
 20
24.97111681977298
 30
0.0
 10
38.91767634817563
 20
24.9805167459728
 30
0.0
 10
38.05525929721712
 20
24.97786657295817
 30
0.0
 10
37.19270647137833
 20
24.97404344212747
 30
0.0
 10
36.33020797695919
 20
24.9670818175354
 30
0.0
 10
35.46772576091018
 20
24.95818804804008
 30
0.0
 10
34.60524101173766
 20
24.9472525675621
 30
0.0
 10
33.7428644803494
 20
24.93625742815509
 30
0.0
 10
32.88016292068458
 20
24.91953630868253
 30
0.0
 10
32.0202774978526
 20
24.85622689742533
 30
0.0
 10
31.44626402260541
 20
24.80514232747264
 30
0.0
 10
31.16904696402892
 20
24.72417459996232
 30
0.0
  0
ARC
  5
A8
330
1F
100
AcDbEntity
  8
Default
100
AcDbCircle
 10
31.20126241944708
 20
24.61387542192764
 30
0.0
 40
0.1149075465012071
100
AcDbArc
 50
106.2816791686184
 51
182.1477771505234
  0
ARC
  5
A9
330
1F
100
AcDbEntity
  8
Default
100
AcDbCircle
 10
31.26657036712086
 20
23.11779342950168
 30
0.0
 40
1.502612052948172
100
AcDbArc
 50
91.1714402949653
 51
96.88523998835828
  0
POLYLINE
  5
AA
330
1F
100
AcDbEntity
  8
Default
100
AcDb2dPolyline
 66
     1
 10
0.0
 20
0.0
 30
0.0
  0
VERTEX
  5
AB
330
AA
100
AcDbEntity
  8
Default
100
AcDbVertex
100
AcDb2dVertex
 10
27.84715198623982
 20
13.63507478437081
 30
0.0
  0
VERTEX
  5
AC
330
AA
100
AcDbEntity
  8
Default
100
AcDbVertex
100
AcDb2dVertex
 10
27.94765210381046
 20
14.11757822487517
 30
0.0
  0
SEQEND
  5
AD
330
AA
100
AcDbEntity
  8
Default
  0
SPLINE
  5
AE
330
1F
100
AcDbEntity
  8
Default
100
AcDbSpline
210
0.0
220
0.0
230
1.0
 70
    12
 71
     2
 72
     6
 73
     3
 74
     0
 42
0.0000000001
 43
0.0000000001
 40
0.0
 40
0.0
 40
0.0
 40
1.01361036859142
 40
1.01361036859142
 40
1.01361036859142
 10
27.94765210381046
 20
14.11757822487517
 30
0.0
 41
1.0
 10
28.23311348540642
 20
14.53643784949451
 30
0.0
 41
0.9997662082467698
 10
28.53641722294905
 20
14.94256397314529
 30
0.0
 41
1.0
  0
POLYLINE
  5
AF
330
1F
100
AcDbEntity
  8
Default
100
AcDb2dPolyline
 66
     1
 10
0.0
 20
0.0
 30
0.0
  0
VERTEX
  5
B0
330
AF
100
AcDbEntity
  8
Default
100
AcDbVertex
100
AcDb2dVertex
 10
28.53641722294905
 20
14.94256397314529
 30
0.0
  0
VERTEX
  5
B1
330
AF
100
AcDbEntity
  8
Default
100
AcDbVertex
100
AcDb2dVertex
 10
28.43071306932165
 20
14.44486325136518
 30
0.0
  0
SEQEND
  5
B2
330
AF
100
AcDbEntity
  8
Default
  0
SPLINE
  5
B3
330
1F
100
AcDbEntity
  8
Default
100
AcDbSpline
210
0.0
220
0.0
230
1.0
 70
    12
 71
     2
 72
     6
 73
     3
 74
     0
 42
0.0000000001
 43
0.0000000001
 40
0.0
 40
0.0
 40
0.0
 40
0.1427447406128625
 40
0.1427447406128625
 40
0.1427447406128625
 10
32.36094360983291
 20
11.8311572831735
 30
0.0
 41
1.0
 10
32.36296437153372
 20
11.90252336882869
 30
0.0
 41
0.9995311447570617
 10
32.36061315275273
 20
11.97387933164778
 30
0.0
 41
1.0
  0
ARC
  5
B4
330
1F
100
AcDbEntity
  8
Default
100
AcDbCircle
 10
32.42113842593515
 20
9.549463403434164
 30
0.0
 40
2.425171313880667
100
AcDbArc
 50
80.14379119193308
 51
91.43008569481334
  0
ARC
  5
B5
330
1F
100
AcDbEntity
  8
Default
100
AcDbCircle
 10
35.13512400021135
 20
25.17038170872143
 30
0.0
 40
13.42975872058616
100
AcDbArc
 50
260.143791191933
 51
283.2006519266491
  0
ARC
  5
B6
330
1F
100
AcDbEntity
  8
Default
100
AcDbCircle
 10
38.85268848163779
 20
9.321275823436505
 30
0.0
 40
2.849505483810082
100
AcDbArc
 50
93.59181821722838
 51
103.2006519266491
  0
SPLINE
  5
B7
330
1F
100
AcDbEntity
  8
Default
100
AcDbSpline
210
0.0
220
0.0
230
1.0
 70
    12
 71
     2
 72
     6
 73
     3
 74
     0
 42
0.0000000001
 43
0.0000000001
 40
0.0
 40
0.0
 40
0.0
 40
0.1878698048744683
 40
0.1878698048744683
 40
0.1878698048744683
 10
38.67417265746372
 20
12.16518397996744
 30
0.0
 41
1.0
 10
38.67438979177722
 20
12.07124932848456
 30
0.0
 41
0.9999999999467437
 10
38.67460498718659
 20
11.97731467253983
 30
0.0
 41
1.0
  0
SPLINE
  5
B8
330
1F
100
AcDbEntity
  8
Default
100
AcDbSpline
210
0.0
220
0.0
230
1.0
 70
     8
 71
     3
 72
     8
 73
     4
 74
     0
 42
0.0000000001
 43
0.0000000001
 40
0.0
 40
0.0
 40
0.0
 40
0.0
 40
1.0
 40
1.0
 40
1.0
 40
1.0
 10
38.67460498718659
 20
11.97731467253983
 30
0.0
 10
39.02541409726665
 20
12.09402055687402
 30
0.0
 10
39.36109816523432
 20
12.25011378102364
 30
0.0
 10
39.69683294623598
 20
12.40360214609391
 30
0.0
  0
SPLINE
  5
B9
330
1F
100
AcDbEntity
  8
Default
100
AcDbSpline
210
0.0
220
0.0
230
1.0
 70
    12
 71
     2
 72
     6
 73
     3
 74
     0
 42
0.0000000001
 43
0.0000000001
 40
0.0
 40
0.0
 40
0.0
 40
1.845112980275748
 40
1.845112980275748
 40
1.845112980275748
 10
39.69683294623598
 20
12.40360214609391
 30
0.0
 41
1.0
 10
39.53458672943474
 20
13.31213657520773
 30
0.0
 41
0.9994292585608844
 10
39.43405821059496
 20
14.22955287147206
 30
0.0
 41
1.0
  0
SPLINE
  5
BA
330
1F
100
AcDbEntity
  8
Default
100
AcDbSpline
210
0.0
220
0.0
230
1.0
 70
     8
 71
     3
 72
    16
 73
    12
 74
     0
 42
0.0000000001
 43
0.0000000001
 40
0.0
 40
0.0
 40
0.0
 40
0.0
 40
1.0
 40
2.0
 40
3.0
 40
4.0
 40
5.0
 40
6.0
 40
7.0
 40
8.0
 40
9.0
 40
9.0
 40
9.0
 40
9.0
 10
39.43405821059496
 20
14.22955287147206
 30
0.0
 10
39.07318324743135
 20
14.01819972037687
 30
0.0
 10
38.25737197617404
 20
13.83779308942602
 30
0.0
 10
37.03453023302768
 20
13.62902019829209
 30
0.0
 10
35.79305822069674
 20
13.53916030870733
 30
0.0
 10
34.55039003628922
 20
13.52804885026352
 30
0.0
 10
33.3083757608645
 20
13.57893480342674
 30
0.0
 10
32.06986901367318
 20
13.68190666494677
 30
0.0
 10
30.83719380535521
 20
13.84482527506452
 30
0.0
 10
29.61752620102202
 20
14.07978680673783
 30
0.0
 10
28.80957946528967
 20
14.27353409455362
 30
0.0
 10
28.43071306932165
 20
14.44486325136518
 30
0.0
  0
SPLINE
  5
BB
330
1F
100
AcDbEntity
  8
Default
100
AcDbSpline
210
0.0
220
0.0
230
1.0
 70
    12
 71
     2
 72
     6
 73
     3
 74
     0
 42
0.0000000001
 43
0.0000000001
 40
0.0
 40
0.0
 40
0.0
 40
0.9771193592266089
 40
0.9771193592266089
 40
0.9771193592266089
 10
28.43071306932165
 20
14.44486325136518
 30
0.0
 41
1.0
 10
28.14977033847357
 20
14.0451294134351
 30
0.0
 41
0.9999202020473666
 10
27.84715198623982
 20
13.63507478437081
 30
0.0
 41
1.0
  0
SPLINE
  5
BC
330
1F
100
AcDbEntity
  8
Default
100
AcDbSpline
210
0.0
220
0.0
230
1.0
 70
     8
 71
     3
 72
    10
 73
     6
 74
     0
 42
0.0000000001
 43
0.0000000001
 40
-3.0
 40
-3.0
 40
-3.0
 40
-3.0
 40
-2.0
 40
-1.0
 40
0.0
 40
0.0
 40
0.0
 40
0.0
 10
27.84715198623982
 20
13.63507478437081
 30
0.0
 10
28.23593317234571
 20
13.24264970388297
 30
0.0
 10
29.21681905370357
 20
12.74096770292388
 30
0.0
 10
30.76237287535763
 20
12.19622058223413
 30
0.0
 10
31.82430190850681
 20
11.9326839438134
 30
0.0
 10
32.36094360983291
 20
11.8311572831735
 30
0.0
  0
POLYLINE
  5
BD
330
1F
100
AcDbEntity
  8
Default
100
AcDb2dPolyline
 66
     1
 10
0.0
 20
0.0
 30
0.0
  0
VERTEX
  5
BE
330
BD
100
AcDbEntity
  8
Default
100
AcDbVertex
100
AcDb2dVertex
 10
32.56984546683012
 20
11.9700712026569
 30
0.0
  0
VERTEX
  5
BF
330
BD
100
AcDbEntity
  8
Default
100
AcDbVertex
100
AcDb2dVertex
 10
32.56984546683012
 20
11.79289510790186
 30
0.0
  0
SEQEND
  5
C0
330
BD
100
AcDbEntity
  8
Default
  0
SPLINE
  5
C1
330
1F
100
AcDbEntity
  8
Default
100
AcDbSpline
210
0.0
220
0.0
230
1.0
 70
     8
 71
     3
 72
    10
 73
     6
 74
     0
 42
0.0000000001
 43
0.0000000001
 40
0.0
 40
0.0
 40
0.0
 40
0.0
 40
1.0
 40
2.0
 40
3.0
 40
3.0
 40
3.0
 40
3.0
 10
32.56984546683012
 20
11.79289510790186
 30
0.0
 10
33.21901256973687
 20
11.67724212476167
 30
0.0
 10
34.53019098360062
 20
11.5390186732908
 30
0.0
 10
36.51256788802028
 20
11.51002362463572
 30
0.0
 10
37.81908418426719
 20
11.72553747151446
 30
0.0
 10
38.45305031630745
 20
11.9065240571935
 30
0.0
  0
POLYLINE
  5
C2
330
1F
100
AcDbEntity
  8
Default
100
AcDb2dPolyline
 66
     1
 10
0.0
 20
0.0
 30
0.0
  0
VERTEX
  5
C3
330
C2
100
AcDbEntity
  8
Default
100
AcDbVertex
100
AcDb2dVertex
 10
38.45305031630745
 20
11.9065240571935
 30
0.0
  0
VERTEX
  5
C4
330
C2
100
AcDbEntity
  8
Default
100
AcDbVertex
100
AcDb2dVertex
 10
38.45305031630745
 20
12.14261785145706
 30
0.0
  0
SEQEND
  5
C5
330
C2
100
AcDbEntity
  8
Default
  0
SPLINE
  5
C6
330
1F
100
AcDbEntity
  8
Default
100
AcDbSpline
210
0.0
220
0.0
230
1.0
 70
     8
 71
     2
 72
     8
 73
     5
 74
     0
 42
0.0000000001
 43
0.0000000001
 40
0.0
 40
0.0
 40
0.0
 40
2.006456692913
 40
2.006456692913
 40
2.117720325348162
 40
2.117720325348162
 40
2.117720325348162
 10
35.87287339035616
 20
8.790700787402
 30
0.0
 10
35.87293964104016
 20
9.793929133858502
 30
0.0
 10
35.87300589172417
 20
11.43532070329846
 30
0.0
 10
35.87163972753144
 20
11.49093499915896
 30
0.0
 10
35.87027356333873
 20
11.54654929501946
 30
0.0
  0
SPLINE
  5
C7
330
1F
100
AcDbEntity
  8
Default
100
AcDbSpline
210
0.0
220
0.0
230
1.0
 70
     8
 71
     2
 72
     8
 73
     5
 74
     0
 42
0.0000000001
 43
0.0000000001
 40
1.166654823027946
 40
1.166654823027946
 40
1.166654823027946
 40
1.277918455463108
 40
1.277918455463108
 40
3.284375148376108
 40
3.284375148376108
 40
3.284375148376108
 10
34.77330336872563
 20
11.54654929501946
 30
0.0
 10
34.7719072771787
 20
11.49093499915896
 30
0.0
 10
34.77051118563176
 20
11.43532070329846
 30
0.0
 10
34.77051118563176
 20
9.793929133858502
 30
0.0
 10
34.77051118563176
 20
8.790700787402
 30
0.0
  0
SPLINE
  5
C8
330
1F
100
AcDbEntity
  8
Default
100
AcDbSpline
210
0.0
220
0.0
230
1.0
 70
     8
 71
     3
 72
    12
 73
     8
 74
     0
 42
0.0000000001
 43
0.0000000001
 40
0.0
 40
0.0
 40
0.0
 40
0.0
 40
0.1353718667531918
 40
0.2596529265218601
 40
0.5207440340048826
 40
0.6706936874288018
 40
1.995825492147781
 40
1.995825492147781
 40
1.995825492147781
 40
1.995825492147781
 10
48.08023966337106
 20
4.698415029092558
 30
0.0
 10
48.12189065226676
 20
4.683030149717359
 30
0.0
 10
48.20251499375575
 20
4.645292185267698
 30
0.0
 10
48.33235293743651
 20
4.531220657910659
 30
0.0
 10
48.41474989531468
 20
4.362520020381353
 30
0.0
 10
48.42228753577339
 20
3.783297928000434
 30
0.0
 10
48.42681860685197
 20
3.292040919016634
 30
0.0
 10
48.42118154453672
 20
2.850194630645632
 30
0.0
  0
SPLINE
  5
C9
330
1F
100
AcDbEntity
  8
Default
100
AcDbSpline
210
0.0
220
0.0
230
1.0
 70
     8
 71
     3
 72
     9
 73
     5
 74
     0
 42
0.0000000001
 43
0.0000000001
 40
0.0
 40
0.0
 40
0.0
 40
0.0
 40
1.0
 40
2.0
 40
2.0
 40
2.0
 40
2.0
 10
37.13418792372296
 20
7.935021172343085
 30
0.0
 10
38.96805709192057
 20
7.432215606553187
 30
0.0
 10
42.60851941139623
 20
6.321624291620096
 30
0.0
 10
46.25942453548405
 20
5.250268176064216
 30
0.0
 10
48.08023966337106
 20
4.698415029092558
 30
0.0
  0
SPLINE
  5
CA
330
1F
100
AcDbEntity
  8
Default
100
AcDbSpline
210
0.0
220
0.0
230
1.0
 70
    24
 71
     2
 72
     6
 73
     3
 74
     0
 42
0.0000000001
 43
0.0000000001
 40
0.0
 40
0.0
 40
0.0
 40
10.00158214249702
 40
10.00158214249702
 40
10.00158214249702
 10
47.60118190332376
 20
4.390668571139283
 30
0.0
 10
42.77627551127275
 20
5.705274841557978
 30
0.0
 10
37.95136911922174
 20
7.019881111976673
 30
0.0
  0
SPLINE
  5
CB
330
1F
100
AcDbEntity
  8
Default
100
AcDbSpline
210
0.0
220
0.0
230
1.0
 70
     8
 71
     3
 72
    12
 73
     8
 74
     0
 42
0.0000000001
 43
0.0000000001
 40
0.0
 40
0.0
 40
0.0
 40
0.0
 40
1.106130637604308
 40
1.16610577065074
 40
1.223397575646607
 40
1.469212128646635
 40
1.771201415240579
 40
1.771201415240579
 40
1.771201415240579
 40
1.771201415240579
 10
48.1224815322786
 20
2.850160338526153
 30
0.0
 10
48.09341617361269
 20
3.217881658782564
 30
0.0
 10
48.06615366878566
 20
3.605916204837474
 30
0.0
 10
48.03284895251615
 20
4.012084622090798
 30
0.0
 10
48.00097241592253
 20
4.130393442702365
 30
0.0
 10
47.87429107967711
 20
4.296251757505203
 30
0.0
 10
47.69657190817176
 20
4.363590122350822
 30
0.0
 10
47.60118190332376
 20
4.390668571139283
 30
0.0
  0
SPLINE
  5
CC
330
1F
100
AcDbEntity
  8
Default
100
AcDbSpline
210
0.0
220
0.0
230
1.0
 70
    12
 71
     2
 72
     6
 73
     3
 74
     0
 42
0.0000000001
 43
0.0000000001
 40
0.0
 40
0.0
 40
0.0
 40
0.0891301147137397
 40
0.0891301147137397
 40
0.0891301147137397
 10
48.18228540604396
 20
2.795
 30
0.0
 41
1.0
 10
48.12719660005808
 20
2.795000000004392
 30
0.0
 41
0.7366108304809286
 10
48.1224815322786
 20
2.850160338526153
 30
0.0
 41
1.0
  0
POLYLINE
  5
CD
330
1F
100
AcDbEntity
  8
Default
100
AcDb2dPolyline
 66
     1
 10
0.0
 20
0.0
 30
0.0
  0
VERTEX
  5
CE
330
CD
100
AcDbEntity
  8
Default
100
AcDbVertex
100
AcDb2dVertex
 10
48.81551753791385
 20
2.795000000000002
 30
0.0
  0
VERTEX
  5
CF
330
CD
100
AcDbEntity
  8
Default
100
AcDbVertex
100
AcDb2dVertex
 10
48.18228540604396
 20
2.795
 30
0.0
  0
SEQEND
  5
D0
330
CD
100
AcDbEntity
  8
Default
  0
SPLINE
  5
D1
330
1F
100
AcDbEntity
  8
Default
100
AcDbSpline
210
0.0
220
0.0
230
1.0
 70
    12
 71
     2
 72
     8
 73
     5
 74
     0
 42
0.0000000001
 43
0.0000000001
 40
-0.0954147604265322
 40
-0.0954147604265322
 40
-0.0954147604265322
 40
-0.0477073802132661
 40
-0.0477073802132661
 40
0.0
 40
0.0
 40
0.0
 10
48.87550618956396
 20
2.856166907262702
 30
0.0
 41
1.0
 10
48.87599619933034
 20
2.830976365662058
 30
0.0
 41
0.9220078506346165
 10
48.85835452213084
 20
2.812988182838509
 30
0.0
 41
1.0
 10
48.84071284493134
 20
2.79500000001496
 30
0.0
 41
0.9220078506346165
 10
48.81551753791385
 20
2.795000000000002
 30
0.0
 41
1.0
  0
SPLINE
  5
D2
330
1F
100
AcDbEntity
  8
Default
100
AcDbSpline
210
0.0
220
0.0
230
1.0
 70
     8
 71
     3
 72
     9
 73
     5
 74
     0
 42
0.0000000001
 43
0.0000000001
 40
0.0
 40
0.0
 40
0.0
 40
0.0
 40
1.0
 40
2.0
 40
2.0
 40
2.0
 40
2.0
 10
48.79017829166055
 20
4.573662997155761
 30
0.0
 10
48.875313822894
 20
4.296621943683648
 30
0.0
 10
48.84382284893147
 20
3.716080873583064
 30
0.0
 10
48.87283515739378
 20
3.14391872948098
 30
0.0
 10
48.87550618956396
 20
2.856166907262702
 30
0.0
  0
SPLINE
  5
D3
330
1F
100
AcDbEntity
  8
Default
100
AcDbSpline
210
0.0
220
0.0
230
1.0
 70
    12
 71
     2
 72
     6
 73
     3
 74
     0
 42
0.0000000001
 43
0.0000000001
 40
0.0
 40
0.0
 40
0.0
 40
0.7424846775142795
 40
0.7424846775142795
 40
0.7424846775142795
 10
48.2683616717939
 20
5.061635519572786
 30
0.0
 41
1.0
 10
48.65594504163153
 20
4.953110065159843
 30
0.0
 41
0.8875111227291526
 10
48.79017829166055
 20
4.573662997155761
 30
0.0
 41
1.0
  0
SPLINE
  5
D4
330
1F
100
AcDbEntity
  8
Default
100
AcDbSpline
210
0.0
220
0.0
230
1.0
 70
     8
 71
     3
 72
     9
 73
     5
 74
     0
 42
0.0000000001
 43
0.0000000001
 40
0.0
 40
0.0
 40
0.0
 40
0.0
 40
1.0
 40
2.0
 40
2.0
 40
2.0
 40
2.0
 10
36.36514635948819
 20
8.671339608996147
 30
0.0
 10
38.3601171356194
 20
8.10857429741042
 30
0.0
 10
42.31804460711077
 20
6.871005330801099
 30
0.0
 10
46.28629964225364
 20
5.669577630527879
 30
0.0
 10
48.2683616717939
 20
5.061635519572786
 30
0.0
  0
POLYLINE
  5
D5
330
1F
100
AcDbEntity
  8
Default
100
AcDb2dPolyline
 66
     1
 10
0.0
 20
0.0
 30
0.0
  0
VERTEX
  5
D6
330
D5
100
AcDbEntity
  8
Default
100
AcDbVertex
100
AcDb2dVertex
 10
36.29740706903212
 20
8.67423209069988
 30
0.0
  0
VERTEX
  5
D7
330
D5
100
AcDbEntity
  8
Default
100
AcDbVertex
100
AcDb2dVertex
 10
36.36514635948819
 20
8.671339608996147
 30
0.0
  0
SEQEND
  5
D8
330
D5
100
AcDbEntity
  8
Default
  0
SPLINE
  5
D9
330
1F
100
AcDbEntity
  8
Default
100
AcDbSpline
210
0.0
220
0.0
230
1.0
 70
    24
 71
     2
 72
     6
 73
     3
 74
     0
 42
0.0000000001
 43
0.0000000001
 40
-0.164708101965294
 40
-0.164708101965294
 40
-0.164708101965294
 40
0.0
 40
0.0
 40
0.0
 10
36.18094120439747
 20
8.790698657696229
 30
0.0
 10
36.23917413671479
 20
8.732465374198053
 30
0.0
 10
36.29740706903212
 20
8.67423209069988
 30
0.0
  0
POLYLINE
  5
DA
330
1F
100
AcDbEntity
  8
Default
100
AcDb2dPolyline
 66
     1
 10
0.0
 20
0.0
 30
0.0
  0
VERTEX
  5
DB
330
DA
100
AcDbEntity
  8
Default
100
AcDbVertex
100
AcDb2dVertex
 10
34.46244337159045
 20
8.790698657696229
 30
0.0
  0
VERTEX
  5
DC
330
DA
100
AcDbEntity
  8
Default
100
AcDbVertex
100
AcDb2dVertex
 10
36.18094120439747
 20
8.790698657696229
 30
0.0
  0
SEQEND
  5
DD
330
DA
100
AcDbEntity
  8
Default
  0
SPLINE
  5
DE
330
1F
100
AcDbEntity
  8
Default
100
AcDbSpline
210
0.0
220
0.0
230
1.0
 70
    24
 71
     2
 72
     6
 73
     3
 74
     0
 42
0.0000000001
 43
0.0000000001
 40
-0.1661171429414394
 40
-0.1661171429414394
 40
-0.1661171429414394
 40
0.0
 40
0.0
 40
0.0
 10
34.3449811675309
 20
8.6732357452664
 30
0.0
 10
34.40371226956068
 20
8.731967201481314
 30
0.0
 10
34.46244337159045
 20
8.790698657696229
 30
0.0
  0
POLYLINE
  5
DF
330
1F
100
AcDbEntity
  8
Default
100
AcDb2dPolyline
 66
     1
 10
0.0
 20
0.0
 30
0.0
  0
VERTEX
  5
E0
330
DF
100
AcDbEntity
  8
Default
100
AcDbVertex
100
AcDb2dVertex
 10
34.27830013673983
 20
8.675740133868361
 30
0.0
  0
VERTEX
  5
E1
330
DF
100
AcDbEntity
  8
Default
100
AcDbVertex
100
AcDb2dVertex
 10
34.3449811675309
 20
8.6732357452664
 30
0.0
  0
SEQEND
  5
E2
330
DF
100
AcDbEntity
  8
Default
  0
ARC
  5
E3
330
1F
100
AcDbEntity
  8
Default
100
AcDbCircle
 10
35.22776769691965
 20
3.433264449609753
 30
0.0
 40
5.3277612510206
100
AcDbArc
 50
100.2655936893655
 51
111.9166732728439
  0
LINE
  5
E4
330
1F
100
AcDbEntity
  8
Default
100
AcDbLine
 10
32.69338146914079
 20
8.15639821160137
 30
0.0
 11
33.23913941122512
 21
8.37597600190696
 31
0.0
  0
SPLINE
  5
E5
330
1F
100
AcDbEntity
  8
Default
100
AcDbSpline
210
0.0
220
0.0
230
1.0
 70
    12
 71
     2
 72
     6
 73
     3
 74
     0
 42
0.0000000001
 43
0.0000000001
 40
-4.149794126265283
 40
-4.149794126265283
 40
-4.149794126265283
 40
0.0
 40
0.0
 40
0.0
 10
28.83135481455383
 20
6.637997286817313
 30
0.0
 41
1.0
 10
30.76248846312747
 20
7.396891723052145
 30
0.0
 41
0.9999999853279933
 10
32.69338146914079
 20
8.15639821160137
 30
0.0
 41
1.0
  0
SPLINE
  5
E6
330
1F
100
AcDbEntity
  8
Default
100
AcDbSpline
210
0.0
220
0.0
230
1.0
 70
    12
 71
     2
 72
     6
 73
     3
 74
     0
 42
0.0000000001
 43
0.0000000001
 40
-4.423508505471553
 40
-4.423508505471553
 40
-4.423508505471553
 40
0.0
 40
0.0
 40
0.0
 10
24.70144683450611
 20
5.036141042820902
 30
0.0
 41
1.0
 10
26.77222890618959
 20
5.830593340729374
 30
0.0
 41
0.9999932792173165
 10
28.83135481455383
 20
6.637997286817314
 30
0.0
 41
0.9999999999998963
  0
SPLINE
  5
E7
330
1F
100
AcDbEntity
  8
Default
100
AcDbSpline
210
0.0
220
0.0
230
1.0
 70
    12
 71
     2
 72
     6
 73
     3
 74
     0
 42
0.0000000001
 43
0.0000000001
 40
-0.313823952045967
 40
-0.313823952045967
 40
-0.313823952045967
 40
0.0
 40
0.0
 40
0.0
 10
24.42843649108499
 20
4.872416345163588
 30
0.0
 41
1.0
 10
24.54699900110222
 20
4.978309397889793
 30
0.0
 41
0.9828471116576076
 10
24.70144683450611
 20
5.036141042820902
 30
0.0
 41
1.0
  0
SPLINE
  5
E8
330
1F
100
AcDbEntity
  8
Default
100
AcDbSpline
210
0.0
220
0.0
230
1.0
 70
     8
 71
     3
 72
    13
 73
     9
 74
     0
 42
0.0000000001
 43
0.0000000001
 40
-1.215500659333206
 40
-1.215500659333206
 40
-1.215500659333206
 40
-1.215500659333206
 40
-0.8055641351610875
 40
-0.6695770962217532
 40
-0.4417703575904594
 40
-0.2031200489289497
 40
-0.1003385362762291
 40
0.0
 40
0.0
 40
0.0
 40
0.0
 10
24.24917463084367
 20
3.709694531977434
 30
0.0
 10
24.2428060991929
 20
3.846190874157889
 30
0.0
 10
24.23444510984083
 20
4.02797557759441
 30
0.0
 10
24.22232102792364
 20
4.28559641958665
 30
0.0
 10
24.23052786487201
 20
4.486846084848335
 30
0.0
 10
24.28300494490736
 20
4.671484295338187
 30
0.0
 10
24.35846673538307
 20
4.79879860203299
 30
0.0
 10
24.40362024341652
 20
4.849627027726217
 30
0.0
 10
24.42843649108499
 20
4.872416345163588
 30
0.0
  0
SPLINE
  5
E9
330
1F
100
AcDbEntity
  8
Default
100
AcDbSpline
210
0.0
220
0.0
230
1.0
 70
    12
 71
     2
 72
     6
 73
     3
 74
     0
 42
0.0000000001
 43
0.0000000001
 40
-0.8572850253707347
 40
-0.8572850253707347
 40
-0.8572850253707347
 40
0.0
 40
0.0
 40
0.0
 10
24.28251597934238
 20
2.852924215961421
 30
0.0
 41
1.0
 10
24.26920917224698
 20
3.28151160709481
 30
0.0
 41
0.999969336254774
 10
24.24917463084367
 20
3.709694531977434
 30
0.0
 41
1.0
  0
SPLINE
  5
EA
330
1F
100
AcDbEntity
  8
Default
100
AcDbSpline
210
0.0
220
0.0
230
1.0
 70
    12
 71
     2
 72
     6
 73
     3
 74
     0
 42
0.0000000001
 43
0.0000000001
 40
-0.0919459071861886
 40
-0.0919459071861886
 40
-0.0919459071861886
 40
0.0
 40
0.0
 40
0.0
 10
24.34247704288427
 20
2.795000000010251
 30
0.0
 41
1.0
 10
24.28483840804027
 20
2.795189304503868
 30
0.0
 41
0.7223070757634289
 10
24.28251597934238
 20
2.852924215961421
 30
0.0
 41
1.0
  0
POLYLINE
  5
EB
330
1F
100
AcDbEntity
  8
Default
100
AcDb2dPolyline
 66
     1
 10
0.0
 20
0.0
 30
0.0
  0
VERTEX
  5
EC
330
EB
100
AcDbEntity
  8
Default
100
AcDbVertex
100
AcDb2dVertex
 10
24.97912167363887
 20
2.795
 30
0.0
  0
VERTEX
  5
ED
330
EB
100
AcDbEntity
  8
Default
100
AcDbVertex
100
AcDb2dVertex
 10
24.34247704288427
 20
2.795000000010251
 30
0.0
  0
SEQEND
  5
EE
330
EB
100
AcDbEntity
  8
Default
  0
SPLINE
  5
EF
330
1F
100
AcDbEntity
  8
Default
100
AcDbSpline
210
0.0
220
0.0
230
1.0
 70
    12
 71
     2
 72
     6
 73
     3
 74
     0
 42
0.0000000001
 43
0.0000000001
 40
-0.0885540202935225
 40
-0.0885540202935225
 40
-0.0885540202935225
 40
0.0
 40
0.0
 40
0.0
 10
25.03889065354426
 20
2.84974408183464
 30
0.0
 41
1.0
 10
25.03353998204014
 20
2.795268943686358
 30
0.0
 41
0.7425227986788628
 10
24.97912167363887
 20
2.795
 30
0.0
 41
1.0
  0
SPLINE
  5
F0
330
1F
100
AcDbEntity
  8
Default
100
AcDbSpline
210
0.0
220
0.0
230
1.0
 70
     8
 71
     3
 72
    11
 73
     7
 74
     0
 42
0.0000000001
 43
0.0000000001
 40
-1.697465826684414
 40
-1.697465826684414
 40
-1.697465826684414
 40
-1.697465826684414
 40
-1.471979579671222
 40
-1.264137483963555
 40
-1.158173033130941
 40
0.0
 40
0.0
 40
0.0
 40
0.0
 10
25.45328479378946
 20
4.400953795500877
 30
0.0
 10
25.38231560056013
 20
4.37703836295525
 30
0.0
 10
25.25070826600307
 20
4.307008955440814
 30
0.0
 10
25.15870890412509
 20
4.142806493821173
 30
0.0
 10
25.11105661936887
 20
3.653988984669299
 30
0.0
 10
25.07527570503026
 20
3.234556215156028
 30
0.0
 10
25.03889065354426
 20
2.84974408183464
 30
0.0
  0
SPLINE
  5
F1
330
1F
100
AcDbEntity
  8
Default
100
AcDbSpline
210
0.0
220
0.0
230
1.0
 70
    12
 71
     2
 72
     6
 73
     3
 74
     0
 42
0.0000000001
 43
0.0000000001
 40
-8.438557648563242
 40
-8.438557648563242
 40
-8.438557648563242
 40
0.0
 40
0.0
 40
0.0
 10
33.80687295429709
 20
7.214805974340506
 30
0.0
 41
1.0
 10
29.48656709300451
 20
5.761734286019482
 30
0.0
 41
0.9999999480863285
 10
25.45328479378946
 20
4.400953795500877
 30
0.0
 41
1.0
  0
SPLINE
  5
F2
330
1F
100
AcDbEntity
  8
Default
100
AcDbSpline
210
0.0
220
0.0
230
1.0
 70
     8
 71
     3
 72
     9
 73
     5
 74
     0
 42
0.0000000001
 43
0.0000000001
 40
0.0
 40
0.0
 40
0.0
 40
0.0
 40
1.0
 40
2.0
 40
2.0
 40
2.0
 40
2.0
 10
34.53291220277425
 20
7.941636223510169
 30
0.0
 10
34.66635869318414
 20
7.956371673111045
 30
0.0
 10
34.94223894940069
 20
7.957127641214203
 30
0.0
 10
35.192788291016
 20
7.837611646629322
 30
0.0
 10
35.29330767321203
 20
7.74655401068442
 30
0.0
  0
SPLINE
  5
F3
330
1F
100
AcDbEntity
  8
Default
100
AcDbSpline
210
0.0
220
0.0
230
1.0
 70
     8
 71
     3
 72
     9
 73
     5
 74
     0
 42
0.0000000001
 43
0.0000000001
 40
0.0
 40
0.0
 40
0.0
 40
0.0
 40
1.0
 40
2.0
 40
2.0
 40
2.0
 40
2.0
 10
35.29330767321203
 20
7.74655401068442
 30
0.0
 10
35.87074605682459
 20
7.239090452351485
 30
0.0
 10
37.02405359850567
 20
6.2228940662353
 30
0.0
 10
38.18070042474478
 20
5.210382332763325
 30
0.0
 10
38.75384820304009
 20
4.698415029092622
 30
0.0
  0
SPLINE
  5
F4
330
1F
100
AcDbEntity
  8
Default
100
AcDbSpline
210
0.0
220
0.0
230
1.0
 70
     8
 71
     3
 72
    13
 73
     9
 74
     0
 42
0.0000000001
 43
0.0000000001
 40
0.0
 40
0.0
 40
0.0
 40
0.0
 40
0.0739352763098284
 40
0.1729869619444807
 40
0.4153008535315079
 40
0.5406066860268025
 40
0.9825451633662299
 40
1.882863857083701
 40
1.882863857083701
 40
1.882863857083701
 40
1.882863857083701
 10
38.75384820304009
 20
4.698415029092622
 30
0.0
 10
38.77041319950959
 20
4.680334130341018
 30
0.0
 10
38.80393030347528
 20
4.632561961535542
 30
0.0
 10
38.8559710514351
 20
4.504036428717165
 30
0.0
 10
38.88967189533443
 20
4.351286263293244
 30
0.0
 10
38.91624878508367
 20
4.082818647066611
 30
0.0
 10
38.95844165950225
 20
3.595379456832108
 30
0.0
 10
38.99475777348881
 20
3.149500693112099
 30
0.0
 10
39.01702980715811
 20
2.850196543208678
 30
0.0
  0
SPLINE
  5
F5
330
1F
100
AcDbEntity
  8
Default
100
AcDbSpline
210
0.0
220
0.0
230
1.0
 70
    12
 71
     2
 72
     6
 73
     3
 74
     0
 42
0.0000000001
 43
0.0000000001
 40
-0.0890215447644557
 40
-0.0890215447644557
 40
-0.0890215447644557
 40
0.0
 40
0.0
 40
0.0
 10
39.01702980715811
 20
2.850196543208678
 30
0.0
 41
1.0
 10
39.02104329918276
 20
2.795136831877833
 30
0.0
 41
0.7332026837717942
 10
39.07624892577196
 20
2.795000000006303
 30
0.0
 41
1.0
  0
POLYLINE
  5
F6
330
1F
100
AcDbEntity
  8
Default
100
AcDb2dPolyline
 66
     1
 10
0.0
 20
0.0
 30
0.0
  0
VERTEX
  5
F7
330
F6
100
AcDbEntity
  8
Default
100
AcDbVertex
100
AcDb2dVertex
 10
39.07624892577196
 20
2.795000000006303
 30
0.0
  0
VERTEX
  5
F8
330
F6
100
AcDbEntity
  8
Default
100
AcDbVertex
100
AcDb2dVertex
 10
39.71260504014087
 20
2.79500000267399
 30
0.0
  0
SEQEND
  5
F9
330
F6
100
AcDbEntity
  8
Default
  0
SPLINE
  5
FA
330
1F
100
AcDbEntity
  8
Default
100
AcDbSpline
210
0.0
220
0.0
230
1.0
 70
    12
 71
     2
 72
     6
 73
     3
 74
     0
 42
0.0000000001
 43
0.0000000001
 40
0.0
 40
0.0
 40
0.0
 40
0.0900432612778161
 40
0.0900432612778161
 40
0.0900432612778161
 10
39.71260504014087
 20
2.79500000267399
 30
0.0
 41
1.0
 10
39.76845468842352
 20
2.795161799311246
 30
0.0
 41
0.7330117940480554
 10
39.77246984976997
 20
2.850977690104741
 30
0.0
 41
1.0
  0
SPLINE
  5
FB
330
1F
100
AcDbEntity
  8
Default
100
AcDbSpline
210
0.0
220
0.0
230
1.0
 70
     8
 71
     3
 72
    11
 73
     7
 74
     0
 42
0.0000000001
 43
0.0000000001
 40
0.0
 40
0.0
 40
0.0
 40
0.0
 40
0.660412846694103
 40
0.9260141922223191
 40
1.172921221959083
 40
1.344780895407807
 40
1.344780895407807
 40
1.344780895407807
 40
1.344780895407807
 10
39.83321813741786
 20
3.630896250019709
 30
0.0
 10
39.85207914338034
 20
3.850181384404757
 30
0.0
 10
39.88916702114554
 20
4.156903411039822
 30
0.0
 10
39.90919903700387
 20
4.547417901431856
 30
0.0
 10
39.89033043216987
 20
4.775973723704406
 30
0.0
 10
39.83979947211026
 20
4.908561651431109
 30
0.0
 10
39.8012701992764
 20
4.952071226142241
 30
0.0
  0
ARC
  5
FC
330
1F
100
AcDbEntity
  8
Default
100
AcDbCircle
 10
88.14449949740793
 20
-0.5244212927809102
 30
0.0
 40
48.48965426279747
100
AcDbArc
 50
175.0840127429252
 51
176.0083723277634
  0
LINE
  5
FD
330
1F
100
AcDbEntity
  8
Default
100
AcDbLine
 10
39.8012701992764
 20
4.952071226142241
 30
0.0
 11
36.96096116668045
 21
8.129119443402494
 31
0.0
  0
SPLINE
  5
FE
330
1F
100
AcDbEntity
  8
Default
100
AcDbSpline
210
0.0
220
0.0
230
1.0
 70
     8
 71
     3
 72
    14
 73
    10
 74
     0
 42
0.0000000001
 43
0.0000000001
 40
-7.0
 40
-7.0
 40
-7.0
 40
-7.0
 40
-5.99999999987161
 40
-4.99999999974322
 40
-3.999999999614829
 40
-2.999999999486438
 40
-1.999999999358048
 40
-0.9999999992296582
 40
0.0
 40
0.0
 40
0.0
 40
0.0
 10
36.90107474982216
 20
8.221027480947802
 30
0.0
 10
36.9224654646122
 20
8.27491164428483
 30
0.0
 10
37.03961192070802
 20
8.285992218977158
 30
0.0
 10
37.19242998685582
 20
8.270400193889426
 30
0.0
 10
37.34905338512347
 20
8.241902958009952
 30
0.0
 10
37.50255003601109
 20
8.206049598150301
 30
0.0
 10
37.65521485890838
 20
8.165260869100088
 30
0.0
 10
37.80683886236335
 20
8.121177125039317
 30
0.0
 10
37.90751288339781
 20
8.090346494403954
 30
0.0
 10
37.9577815868946
 20
8.074728831477415
 30
0.0
  0
SPLINE
  5
FF
330
1F
100
AcDbEntity
  8
Default
100
AcDbSpline
210
0.0
220
0.0
230
1.0
 70
     8
 71
     3
 72
     9
 73
     5
 74
     0
 42
0.0000000001
 43
0.0000000001
 40
0.0
 40
0.0
 40
0.0
 40
0.0
 40
0.9999999999868002
 40
2.0
 40
2.0
 40
2.0
 40
2.0
 10
37.9577815868946
 20
8.074728831477415
 30
0.0
 10
39.66807977554212
 20
7.545116019509355
 30
0.0
 10
43.08867252922586
 20
6.485878797828057
 30
0.0
 10
46.50927236231644
 20
5.426665000881626
 30
0.0
 10
48.21955987248812
 20
4.897017292360071
 30
0.0
  0
SPLINE
  5
100
330
1F
100
AcDbEntity
  8
Default
100
AcDbSpline
210
0.0
220
0.0
230
1.0
 70
     8
 71
     3
 72
    12
 73
     8
 74
     0
 42
0.0000000001
 43
0.0000000001
 40
-2.245705389699855
 40
-2.245705389699855
 40
-2.245705389699855
 40
-2.245705389699855
 40
-1.934229526246694
 40
-1.596560311621988
 40
-1.484234008369274
 40
-1.371280599674155
 40
0.0
 40
0.0
 40
0.0
 40
0.0
 10
48.21955987248812
 20
4.897017292360071
 30
0.0
 10
48.31765575172366
 20
4.867072382048876
 30
0.0
 10
48.51486277672757
 20
4.753364341462633
 30
0.0
 10
48.62790355841318
 20
4.516706924358726
 30
0.0
 10
48.66535168005123
 20
4.332847777473862
 30
0.0
 10
48.69019102857666
 20
3.800973440006972
 30
0.0
 10
48.70603312290248
 20
3.306661832553157
 30
0.0
 10
48.73371900328884
 20
2.850306536151172
 30
0.0
  0
SPLINE
  5
101
330
1F
100
AcDbEntity
  8
Default
100
AcDbSpline
210
0.0
220
0.0
230
1.0
 70
     8
 71
     3
 72
    11
 73
     7
 74
     0
 42
0.0000000001
 43
0.0000000001
 40
-4.0
 40
-4.0
 40
-4.0
 40
-4.0
 40
-3.0
 40
-2.0
 40
-1.0
 40
0.0
 40
0.0
 40
0.0
 40
0.0
 10
34.36641188544541
 20
6.820991580863408
 30
0.0
 10
34.36636618558445
 20
6.885965373100086
 30
0.0
 10
34.35362262965189
 20
7.026448238583795
 30
0.0
 10
34.19662099080149
 20
7.164219693941833
 30
0.0
 10
34.00553788310967
 20
7.22300624033632
 30
0.0
 10
33.8715805679716
 20
7.230905367700347
 30
0.0
 10
33.80687295429709
 20
7.214805974340506
 30
0.0
  0
ARC
  5
102
330
1F
100
AcDbEntity
  8
Default
100
AcDbCircle
 10
37.23303046386827
 20
8.371861983515064
 30
0.0
 40
0.3646171187047864
100
AcDbArc
 50
204.4361642609525
 51
221.7396139245643
  0
SPLINE
  5
103
330
1F
100
AcDbEntity
  8
Default
100
AcDbSpline
210
0.0
220
0.0
230
1.0
 70
     8
 71
     3
 72
    12
 73
     8
 74
     0
 42
0.0000000001
 43
0.0000000001
 40
0.0
 40
0.0
 40
0.0
 40
0.0
 40
1.0
 40
2.0
 40
3.0
 40
4.0
 40
5.0
 40
5.0
 40
5.0
 40
5.0
 10
30.14040244466494
 20
21.33785521586179
 30
0.0
 10
30.31634519196454
 20
22.35450404621251
 30
0.0
 10
30.45434917435075
 20
24.4410648243974
 30
0.0
 10
29.80169930061699
 20
27.4851443653697
 30
0.0
 10
28.90378142030036
 20
30.45331795539342
 30
0.0
 10
27.83354202425344
 20
33.36463038468231
 30
0.0
 10
27.05395931850675
 20
35.28015348713627
 30
0.0
 10
26.60370062368719
 20
36.21112187817302
 30
0.0
  0
SPLINE
  5
104
330
1F
100
AcDbEntity
  8
Default
100
AcDbSpline
210
0.0
220
0.0
230
1.0
 70
     8
 71
     3
 72
    12
 73
     8
 74
     0
 42
0.0000000001
 43
0.0000000001
 40
0.0
 40
0.0
 40
0.0
 40
0.0
 40
0.6978690049512207
 40
1.491606399257186
 40
3.521468567986739
 40
6.829957996285679
 40
9.53559738092193
 40
9.53559738092193
 40
9.53559738092193
 40
9.53559738092193
 10
30.98800988807306
 20
24.56714323537485
 30
0.0
 10
30.97152853518983
 20
24.79938034530926
 30
0.0
 10
30.91586656511721
 20
25.29308246322156
 30
0.0
 10
30.71803752033444
 20
26.45165925467727
 30
0.0
 10
30.20562470433874
 20
28.43113022795031
 30
0.0
 10
29.42339806734685
 20
30.99633121510415
 30
0.0
 10
28.78204684561725
 20
32.8958654128523
 30
0.0
 10
28.46140753985197
 20
33.73906220565052
 30
0.0
  0
SPLINE
  5
105
330
1F
100
AcDbEntity
  8
Default
100
AcDbSpline
210
0.0
220
0.0
230
1.0
 70
     8
 71
     3
 72
     8
 73
     4
 74
     0
 42
0.0000000001
 43
0.0000000001
 40
-1.0
 40
-1.0
 40
-1.0
 40
-1.0
 40
0.0
 40
0.0
 40
0.0
 40
0.0
 10
28.46140753985197
 20
33.73906220565052
 30
0.0
 10
28.32863245863174
 20
34.08822564455335
 30
0.0
 10
28.08183214207973
 20
34.69007192496158
 30
0.0
 10
27.91844044029474
 20
35.02550116318842
 30
0.0
  0
SPLINE
  5
106
330
1F
100
AcDbEntity
  8
Default
100
AcDbSpline
210
0.0
220
0.0
230
1.0
 70
    12
 71
     2
 72
     6
 73
     3
 74
     0
 42
0.0000000001
 43
0.0000000001
 40
0.0
 40
0.0
 40
0.0
 40
1.577876585638125
 40
1.577876585638125
 40
1.577876585638125
 10
27.91844044029474
 20
35.02550116318842
 30
0.0
 41
1.0
 10
27.55981396825872
 20
35.76173074528381
 30
0.0
 41
0.9459593623031665
 10
26.82492197593061
 20
36.1230902665495
 30
0.0
 41
1.0
  0
SPLINE
  5
107
330
1F
100
AcDbEntity
  8
Default
100
AcDbSpline
210
0.0
220
0.0
230
1.0
 70
     8
 71
     3
 72
     8
 73
     4
 74
     0
 42
0.0000000001
 43
0.0000000001
 40
0.0
 40
0.0
 40
0.0
 40
0.0
 40
1.0
 40
1.0
 40
1.0
 40
1.0
 10
26.82492197593061
 20
36.1230902665495
 30
0.0
 10
26.69620852422918
 20
36.18638097018058
 30
0.0
 10
26.59053716374627
 20
36.25905508059419
 30
0.0
 10
26.52290716146084
 20
36.16876646117806
 30
0.0
  0
SPLINE
  5
108
330
1F
100
AcDbEntity
  8
Default
100
AcDbSpline
210
0.0
220
0.0
230
1.0
 70
    12
 71
     3
 72
    21
 73
    17
 74
     0
 42
0.0000000001
 43
0.0000000001
 40
-10.81071738137563
 40
-10.81071738137563
 40
-10.81071738137563
 40
-10.81071738137563
 40
-10.61943199387847
 40
-10.41065401474158
 40
-9.952745306011007
 40
-8.831010938746507
 40
-8.831010938746507
 40
-8.831010938746507
 40
-8.335207797199331
 40
-7.709139351589491
 40
-4.088267346372885
 40
-2.40707919533349
 40
0.0
 40
0.0
 40
0.0
 40
0.5495338626750884
 40
0.5495338626750884
 40
0.5495338626750884
 40
0.5495338626750884
 10
26.52290716146084
 20
36.16876646117806
 30
0.0
 41
1.0
 10
26.48468169193837
 20
36.11773400881836
 30
0.0
 41
1.0
 10
26.41387999404088
 20
36.00421968791915
 30
0.0
 41
1.0
 10
26.30143784090534
 20
35.74034515918556
 30
0.0
 41
1.0
 10
26.19043731712724
 20
35.14937126611086
 30
0.0
 41
1.0
 10
26.26058856657863
 20
34.61898213096883
 30
0.0
 41
1.0
 10
26.34175745895121
 20
34.25517825237632
 30
0.0
 41
1.0
 10
26.380228203698
 20
34.09470636979462
 30
0.0
 41
1.0
 10
26.4684221987693
 20
33.73045245769653
 30
0.0
 41
1.0
 10
26.96610310910521
 20
32.23006185757975
 30
0.0
 41
1.0
 10
27.6233374110879
 20
30.36616694256681
 30
0.0
 41
1.0
 10
28.42686599283946
 20
27.9254672234133
 30
0.0
 41
1.0
 10
28.78072071154832
 20
26.60749675521432
 30
0.0
 41
1.0
 10
28.92272012079304
 20
25.72435833204771
 30
0.0
 41
1.0
 10
28.95051512256645
 20
25.54297963448518
 30
0.0
 41
0.9965379318750025
 10
28.99662656618462
 20
25.36537183955344
 30
0.0
 41
0.9965379318750025
 10
29.09780434561923
 20
25.15291895454252
 30
0.0
 41
1.0
  0
ARC
  5
109
330
1F
100
AcDbEntity
  8
Default
100
AcDbCircle
 10
25.44163962506958
 20
24.36855689855086
 30
0.0
 40
3.739353459980936
100
AcDbArc
 50
358.3264434133746
 51
12.10821394940824
  0
SPLINE
  5
10A
330
1F
100
AcDbEntity
  8
Default
100
AcDbSpline
210
0.0
220
0.0
230
1.0
 70
     8
 71
     3
 72
     8
 73
     4
 74
     0
 42
0.0000000001
 43
0.0000000001
 40
-1.0
 40
-1.0
 40
-1.0
 40
-1.0
 40
0.0
 40
0.0
 40
0.0
 40
0.0
 10
29.17939804650241
 20
24.25934938196264
 30
0.0
 10
29.08885855946433
 20
24.00040696085904
 30
0.0
 10
29.04168218865249
 20
23.72606337313648
 30
0.0
 10
29.04442949155223
 20
23.45164057168225
 30
0.0
  0
SPLINE
  5
10B
330
1F
100
AcDbEntity
  8
Default
100
AcDbSpline
210
0.0
220
0.0
230
1.0
 70
     8
 71
     3
 72
    13
 73
     9
 74
     0
 42
0.0000000001
 43
0.0000000001
 40
-9.315329735351103
 40
-9.315329735351103
 40
-9.315329735351103
 40
-9.315329735351103
 40
-7.227931403876212
 40
-2.611698489636925
 40
-1.754933715698675
 40
-0.7731504062637823
 40
-0.369387962288207
 40
0.0
 40
0.0
 40
0.0
 40
0.0
 10
29.04442949155223
 20
23.45164057168225
 30
0.0
 10
29.00151606533428
 20
22.71891720843766
 30
0.0
 10
28.69116896494078
 20
20.50474271994053
 30
0.0
 10
28.19391140520941
 20
18.03331299757111
 30
0.0
 10
27.83587032992629
 20
15.91192343048398
 30
0.0
 10
27.79823935044936
 20
15.16164362167393
 30
0.0
 10
27.88468872767523
 20
14.58099803852259
 30
0.0
 10
27.97021287556031
 20
14.33634938725384
 30
0.0
 10
28.01966561653179
 20
14.22383415126383
 30
0.0
  0
SPLINE
  5
10C
330
1F
100
AcDbEntity
  8
Default
100
AcDbSpline
210
0.0
220
0.0
230
1.0
 70
     8
 71
     3
 72
    34
 73
    30
 74
     0
 42
0.0000000001
 43
0.0000000001
 40
0.0
 40
0.0
 40
0.0
 40
0.0
 40
1.0
 40
2.0
 40
3.0
 40
4.0
 40
5.0
 40
6.0
 40
7.0
 40
8.0
 40
9.0
 40
10.0
 40
11.0
 40
12.0
 40
13.0
 40
14.0
 40
15.0
 40
16.0
 40
17.0
 40
18.0
 40
19.0
 40
20.0
 40
21.0
 40
22.0
 40
23.0
 40
24.0
 40
25.0
 40
26.0
 40
27.0
 40
27.0
 40
27.0
 40
27.0
 10
28.39143903149473
 20
14.73747308463562
 30
0.0
 10
28.20766343473327
 20
14.94398372975805
 30
0.0
 10
28.03655872485514
 20
15.48190131047646
 30
0.0
 10
28.14142457092043
 20
16.30113740012815
 30
0.0
 10
28.25631703529431
 20
17.1077774951484
 30
0.0
 10
28.40412983924819
 20
17.91229273294276
 30
0.0
 10
28.5416464888089
 20
18.71763400219596
 30
0.0
 10
28.68061605132249
 20
19.52298216328537
 30
0.0
 10
28.81725697928501
 20
20.32865268100347
 30
0.0
 10
28.95494446851649
 20
21.13419161549434
 30
0.0
 10
29.07312614278117
 20
21.94286090169198
 30
0.0
 10
29.17386875968576
 20
22.75389342366277
 30
0.0
 10
29.23706843949142
 20
23.5690669971681
 30
0.0
 10
29.23811263003567
 20
24.38697425592288
 30
0.0
 10
29.17393119477367
 20
25.20211629141372
 30
0.0
 10
29.05343539264461
 20
26.01113158956075
 30
0.0
 10
28.86553089242963
 20
26.80686428814699
 30
0.0
 10
28.65500745876799
 20
27.59647718320759
 30
0.0
 10
28.41909790867085
 20
28.37900612122484
 30
0.0
 10
28.16325052769616
 20
29.15516096019638
 30
0.0
 10
27.89299361852976
 20
29.92639926751595
 30
0.0
 10
27.61408887668245
 20
30.69453416921965
 30
0.0
 10
27.33171173110449
 20
31.46138623712198
 30
0.0
 10
27.05273263384078
 20
32.22951556106441
 30
0.0
 10
26.77765483763823
 20
32.99892388703989
 30
0.0
 10
26.53438410816212
 20
33.78001275465711
 30
0.0
 10
26.34811195787881
 20
34.57403651845342
 30
0.0
 10
26.25275412267533
 20
35.39554685857311
 30
0.0
 10
26.44152235164054
 20
35.92482769042126
 30
0.0
 10
26.57982543430773
 20
36.1582334571495
 30
0.0
  0
SPLINE
  5
10D
330
1F
100
AcDbEntity
  8
Default
100
AcDbSpline
210
0.0
220
0.0
230
1.0
 70
     8
 71
     3
 72
     8
 73
     4
 74
     0
 42
0.0000000001
 43
0.0000000001
 40
0.0
 40
0.0
 40
0.0
 40
0.0
 40
1.0
 40
1.0
 40
1.0
 40
1.0
 10
32.48927184182049
 20
23.94496482983232
 30
0.0
 10
32.20852457196043
 20
23.94496673446967
 30
0.0
 10
32.05450651988679
 20
23.73769065450336
 30
0.0
 10
31.98464717450565
 20
23.43905006759243
 30
0.0
  0
SPLINE
  5
10E
330
1F
100
AcDbEntity
  8
Default
100
AcDbSpline
210
0.0
220
0.0
230
1.0
 70
    12
 71
     2
 72
     6
 73
     3
 74
     0
 42
0.0000000001
 43
0.0000000001
 40
-7.651086001007589
 40
-7.651086001007589
 40
-7.651086001007589
 40
0.0
 40
0.0
 40
0.0
 10
31.98464717450565
 20
23.43905006759243
 30
0.0
 41
1.0
 10
31.11328231477513
 20
19.71406650664268
 30
0.0
 41
0.9999999999999981
 10
30.24191699394033
 20
15.98908305168152
 30
0.0
 41
1.0
  0
SPLINE
  5
10F
330
1F
100
AcDbEntity
  8
Default
100
AcDbSpline
210
0.0
220
0.0
230
1.0
 70
     8
 71
     3
 72
     8
 73
     4
 74
     0
 42
0.0000000001
 43
0.0000000001
 40
0.0
 40
0.0
 40
0.0
 40
0.0
 40
1.0
 40
1.0
 40
1.0
 40
1.0
 10
30.24191699394033
 20
15.98908305168152
 30
0.0
 10
30.12599658123832
 20
15.49353702858117
 30
0.0
 10
30.32357613324544
 20
15.15626583391724
 30
0.0
 10
30.74592395484635
 20
15.11020367287932
 30
0.0
  0
SPLINE
  5
110
330
1F
100
AcDbEntity
  8
Default
100
AcDbSpline
210
0.0
220
0.0
230
1.0
 70
     8
 71
     3
 72
    10
 73
     6
 74
     0
 42
0.0000000001
 43
0.0000000001
 40
-3.0
 40
-3.0
 40
-3.0
 40
-3.0
 40
-2.0
 40
-1.0
 40
0.0
 40
0.0
 40
0.0
 40
0.0
 10
30.74592395484635
 20
15.11020367287932
 30
0.0
 10
31.45655075992504
 20
15.03270118639954
 30
0.0
 10
32.88877292755573
 20
14.98268370918674
 30
0.0
 10
35.03436470652946
 20
14.97006566749001
 30
0.0
 10
36.46749112043437
 20
14.99627099605126
 30
0.0
 10
37.1783297490363
 20
15.07194393181388
 30
0.0
  0
SPLINE
  5
111
330
1F
100
AcDbEntity
  8
Default
100
AcDbSpline
210
0.0
220
0.0
230
1.0
 70
     8
 71
     3
 72
     8
 73
     4
 74
     0
 42
0.0000000001
 43
0.0000000001
 40
-1.0
 40
-1.0
 40
-1.0
 40
-1.0
 40
0.0
 40
0.0
 40
0.0
 40
0.0
 10
37.1783297490363
 20
15.07194393181388
 30
0.0
 10
37.61542601060765
 20
15.11847538915607
 30
0.0
 10
37.9370395688302
 20
15.45315225426013
 30
0.0
 10
37.85403989146472
 20
15.98916995336185
 30
0.0
  0
SPLINE
  5
112
330
1F
100
AcDbEntity
  8
Default
100
AcDbSpline
210
0.0
220
0.0
230
1.0
 70
    12
 71
     2
 72
     6
 73
     3
 74
     0
 42
0.0000000001
 43
0.0000000001
 40
0.0
 40
0.0
 40
0.0
 40
7.538743214639539
 40
7.538743214639539
 40
7.538743214639539
 10
37.85403989146472
 20
15.98916995336185
 30
0.0
 41
1.0
 10
37.27724536365412
 20
19.71414919984824
 30
0.0
 41
0.9999999999924898
 10
36.70047970902139
 20
23.43913291712573
 30
0.0
 41
1.0
  0
SPLINE
  5
113
330
1F
100
AcDbEntity
  8
Default
100
AcDbSpline
210
0.0
220
0.0
230
1.0
 70
     8
 71
     3
 72
     8
 73
     4
 74
     0
 42
0.0000000001
 43
0.0000000001
 40
0.0
 40
0.0
 40
0.0
 40
0.0
 40
1.0
 40
1.0
 40
1.0
 40
1.0
 10
36.70047970902139
 20
23.43913291712573
 30
0.0
 10
36.65015186779448
 20
23.76417028297809
 30
0.0
 10
36.45035460928769
 20
23.94493848224927
 30
0.0
 10
36.12427183816296
 20
23.94494061457531
 30
0.0
  0
SPLINE
  5
114
330
1F
100
AcDbEntity
  8
Default
100
AcDbSpline
210
0.0
220
0.0
230
1.0
 70
    12
 71
     2
 72
     6
 73
     3
 74
     0
 42
0.0000000001
 43
0.0000000001
 40
-3.634999996423143
 40
-3.634999996423143
 40
-3.634999996423143
 40
0.0
 40
0.0
 40
0.0
 10
36.12427183816296
 20
23.94494061457531
 30
0.0
 41
1.0
 10
34.30677183999023
 20
23.9449524996024
 30
0.0
 41
0.9999999999999925
 10
32.48927184182049
 20
23.94496482983232
 30
0.0
 41
1.0
  0
ARC
  5
115
330
1F
100
AcDbEntity
  8
Default
100
AcDbCircle
 10
9.186839631630077
 20
64.33300056581126
 30
0.0
 40
0.4207579064059515
100
AcDbArc
 50
10.90362953192448
 51
33.72413192231286
  0
LINE
  5
116
330
1F
100
AcDbEntity
  8
Default
100
AcDbLine
 10
9.600001482806984
 20
64.41259014135471
 30
0.0
 11
9.971886475943442
 21
62.48207736829374
 31
0.0
  0
ARC
  5
117
330
1F
100
AcDbEntity
  8
Default
100
AcDbCircle
 10
-9.186839631630077
 20
64.33300056581126
 30
0.0
 40
0.4207579064059515
100
AcDbArc
 50
146.2758680776871
 51
169.0963704680755
  0
LINE
  5
118
330
1F
100
AcDbEntity
  8
Default
100
AcDbLine
 10
-9.600001482806984
 20
64.41259014135471
 30
0.0
 11
-9.971886475943442
 21
62.48207736829374
 31
0.0
  0
ARC
  5
119
330
1F
100
AcDbEntity
  8
Default
100
AcDbCircle
 10
9.211679376724792
 20
63.15020430957721
 30
0.0
 40
0.8873280545367181
100
AcDbArc
 50
332.9972151863041
 51
359.6494887372664
  0
POLYLINE
  5
11A
330
1F
100
AcDbEntity
  8
Default
100
AcDb2dPolyline
 66
     1
 10
0.0
 20
0.0
 30
0.0
  0
VERTEX
  5
11B
330
11A
100
AcDbEntity
  8
Default
100
AcDbVertex
100
AcDb2dVertex
 10
10.09899082730632
 20
63.14477604698025
 30
0.0
  0
VERTEX
  5
11C
330
11A
100
AcDbEntity
  8
Default
100
AcDbVertex
100
AcDb2dVertex
 10
9.687728133005958
 20
65.09152158170363
 30
0.0
  0
SEQEND
  5
11D
330
11A
100
AcDbEntity
  8
Default
  0
ARC
  5
11E
330
1F
100
AcDbEntity
  8
Default
100
AcDbCircle
 10
9.00278892067536
 20
64.53051278127114
 30
0.0
 40
0.88536579940201
100
AcDbArc
 50
39.31965836201832
 51
82.12803703431442
  0
ARC
  5
11F
330
1F
100
AcDbEntity
  8
Default
100
AcDbCircle
 10
-9.211679376724792
 20
63.15020430957721
 30
0.0
 40
0.8873280545367181
100
AcDbArc
 50
180.3505112627336
 51
207.0027848136959
  0
POLYLINE
  5
120
330
1F
100
AcDbEntity
  8
Default
100
AcDb2dPolyline
 66
     1
 10
0.0
 20
0.0
 30
0.0
  0
VERTEX
  5
121
330
120
100
AcDbEntity
  8
Default
100
AcDbVertex
100
AcDb2dVertex
 10
-10.09899082730632
 20
63.14477604698025
 30
0.0
  0
VERTEX
  5
122
330
120
100
AcDbEntity
  8
Default
100
AcDbVertex
100
AcDb2dVertex
 10
-9.687728133005958
 20
65.09152158170363
 30
0.0
  0
SEQEND
  5
123
330
120
100
AcDbEntity
  8
Default
  0
ARC
  5
124
330
1F
100
AcDbEntity
  8
Default
100
AcDbCircle
 10
-9.00278892067536
 20
64.53051278127114
 30
0.0
 40
0.88536579940201
100
AcDbArc
 50
97.87196296568558
 51
140.6803416379818
  0
SPLINE
  5
125
330
1F
100
AcDbEntity
  8
Default
100
AcDbSpline
210
0.0
220
0.0
230
1.0
 70
    12
 71
     2
 72
     6
 73
     3
 74
     0
 42
0.0000000001
 43
0.0000000001
 40
-0.6326724875889493
 40
-0.6326724875889493
 40
-0.6326724875889493
 40
0.0
 40
0.0
 40
0.0
 10
9.088032510985627
 20
65.43014312000415
 30
0.0
 41
1.0
 10
9.363653757828873
 20
65.26313286658856
 30
0.0
 41
0.9725981329776378
 10
9.533949379896082
 20
64.98952932574502
 30
0.0
 41
1.0
  0
POLYLINE
  5
126
330
1F
100
AcDbEntity
  8
Default
100
AcDb2dPolyline
 66
     1
 10
0.0
 20
0.0
 30
0.0
  0
VERTEX
  5
127
330
126
100
AcDbEntity
  8
Default
100
AcDbVertex
100
AcDb2dVertex
 10
9.533949379896082
 20
64.98952932574502
 30
0.0
  0
VERTEX
  5
128
330
126
100
AcDbEntity
  8
Default
100
AcDbVertex
100
AcDb2dVertex
 10
9.542959160769433
 20
63.64930897112078
 30
0.0
  0
SEQEND
  5
129
330
126
100
AcDbEntity
  8
Default
  0
SPLINE
  5
12A
330
1F
100
AcDbEntity
  8
Default
100
AcDbSpline
210
0.0
220
0.0
230
1.0
 70
    12
 71
     2
 72
     6
 73
     3
 74
     0
 42
0.0000000001
 43
0.0000000001
 40
-0.6326724875889493
 40
-0.6326724875889493
 40
-0.6326724875889493
 40
0.0
 40
0.0
 40
0.0
 10
-9.088032510985627
 20
65.43014312000415
 30
0.0
 41
1.0
 10
-9.363653757828873
 20
65.26313286658856
 30
0.0
 41
0.9725981329776378
 10
-9.533949379896082
 20
64.98952932574502
 30
0.0
 41
1.0
  0
POLYLINE
  5
12B
330
1F
100
AcDbEntity
  8
Default
100
AcDb2dPolyline
 66
     1
 10
0.0
 20
0.0
 30
0.0
  0
VERTEX
  5
12C
330
12B
100
AcDbEntity
  8
Default
100
AcDbVertex
100
AcDb2dVertex
 10
-9.533949379896082
 20
64.98952932574502
 30
0.0
  0
VERTEX
  5
12D
330
12B
100
AcDbEntity
  8
Default
100
AcDbVertex
100
AcDb2dVertex
 10
-9.542959160769433
 20
63.64930897112078
 30
0.0
  0
SEQEND
  5
12E
330
12B
100
AcDbEntity
  8
Default
  0
SPLINE
  5
12F
330
1F
100
AcDbEntity
  8
Default
100
AcDbSpline
210
0.0
220
0.0
230
1.0
 70
    12
 71
     2
 72
     8
 73
     5
 74
     0
 42
0.0000000001
 43
0.0000000001
 40
-0.2073726838776902
 40
-0.2073726838776902
 40
-0.2073726838776902
 40
0.0
 40
0.0
 40
1.684266150509172
 40
1.684266150509172
 40
1.684266150509172
 10
10.80844378238497
 20
62.79871130393884
 30
0.0
 41
1.0
 10
10.79882589276107
 20
62.83905524378972
 30
0.0
 41
0.9999999654578179
 10
10.78922921239047
 20
62.87940423398
 30
0.0
 41
1.0
 10
10.59437033506263
 20
63.698683258202
 30
0.0
 41
1.0
 10
10.36988413386686
 20
64.64958595912907
 30
0.0
 41
1.0
  0
ARC
  5
130
330
1F
100
AcDbEntity
  8
Default
100
AcDbCircle
 10
9.11247765256911
 20
64.34290814670936
 30
0.0
 40
1.294265173695144
100
AcDbArc
 50
13.70667305498344
 51
33.81573237204217
  0
ARC
  5
131
330
1F
100
AcDbEntity
  8
Default
100
AcDbCircle
 10
9.182641829319621
 20
64.38990687400778
 30
0.0
 40
1.209814643402273
100
AcDbArc
 50
33.81573237204064
 51
36.44916985783718
  0
SPLINE
  5
132
330
1F
100
AcDbEntity
  8
Default
100
AcDbSpline
210
0.0
220
0.0
230
1.0
 70
    12
 71
     3
 72
    16
 73
    12
 74
     0
 42
0.0000000001
 43
0.0000000001
 40
-2.627557565517984
 40
-2.627557565517984
 40
-2.627557565517984
 40
-2.627557565517984
 40
-2.496879158897686
 40
-2.496879158897686
 40
-2.496879158897686
 40
-2.153740973284751
 40
-2.153740973284751
 40
-1.653716175146606
 40
-1.653716175146606
 40
-1.653716175146606
 40
0.0
 40
0.0
 40
0.0
 40
0.0
 10
9.066486301530546
 20
65.54883034248147
 30
0.0
 41
1.0
 10
9.109447514465463
 20
65.54162987915817
 30
0.0
 41
0.9999551202950724
 10
9.152297491377908
 20
65.53379675880119
 30
0.0
 41
0.9999551202950724
 10
9.195030462984914
 20
65.52533203605489
 30
0.0
 41
1.0
 10
9.407314311150987
 20
65.48401461746238
 30
0.0
 41
1.0
 10
9.599947519911854
 20
65.43338176424899
 30
0.0
 41
1.0
 10
9.985494119740832
 20
65.29004515694339
 30
0.0
 41
1.0
 10
10.14159780423776
 20
65.18795517962337
 30
0.0
 41
1.0
 10
10.1678732213115
 20
65.0741120021826
 30
0.0
 41
1.0
 10
10.29964605948155
 20
64.45718266519644
 30
0.0
 41
0.9999999993812452
 10
10.42307909106861
 20
63.87917315676527
 30
0.0
 41
0.9999999993812452
 10
10.58288810885053
 20
63.12801575925065
 30
0.0
 41
1.0
  0
ARC
  5
133
330
1F
100
AcDbEntity
  8
Default
100
AcDbCircle
 10
11.52835233372294
 20
63.53135524589303
 30
0.0
 40
1.027903371917098
100
AcDbArc
 50
203.1033233948164
 51
223.3807478437528
  0
SPLINE
  5
134
330
1F
100
AcDbEntity
  8
Default
100
AcDbSpline
210
0.0
220
0.0
230
1.0
 70
    12
 71
     2
 72
     8
 73
     5
 74
     0
 42
0.0000000001
 43
0.0000000001
 40
-0.2073726838776902
 40
-0.2073726838776902
 40
-0.2073726838776902
 40
0.0
 40
0.0
 40
1.684266150509172
 40
1.684266150509172
 40
1.684266150509172
 10
-10.80844378238497
 20
62.79871130393884
 30
0.0
 41
1.0
 10
-10.79882589276107
 20
62.83905524378972
 30
0.0
 41
0.9999999654578179
 10
-10.78922921239047
 20
62.87940423398
 30
0.0
 41
1.0
 10
-10.59437033506263
 20
63.698683258202
 30
0.0
 41
1.0
 10
-10.36988413386686
 20
64.64958595912907
 30
0.0
 41
1.0
  0
ARC
  5
135
330
1F
100
AcDbEntity
  8
Default
100
AcDbCircle
 10
-9.11247765256911
 20
64.34290814670936
 30
0.0
 40
1.294265173695144
100
AcDbArc
 50
146.1842676279578
 51
166.2933269450166
  0
ARC
  5
136
330
1F
100
AcDbEntity
  8
Default
100
AcDbCircle
 10
-9.182641829319621
 20
64.38990687400778
 30
0.0
 40
1.209814643402273
100
AcDbArc
 50
143.5508301421622
 51
146.1842676279593
  0
SPLINE
  5
137
330
1F
100
AcDbEntity
  8
Default
100
AcDbSpline
210
0.0
220
0.0
230
1.0
 70
    12
 71
     3
 72
    16
 73
    12
 74
     0
 42
0.0000000001
 43
0.0000000001
 40
-2.627557565517984
 40
-2.627557565517984
 40
-2.627557565517984
 40
-2.627557565517984
 40
-2.496879158897686
 40
-2.496879158897686
 40
-2.496879158897686
 40
-2.153740973284751
 40
-2.153740973284751
 40
-1.653716175146606
 40
-1.653716175146606
 40
-1.653716175146606
 40
0.0
 40
0.0
 40
0.0
 40
0.0
 10
-9.066486301530546
 20
65.54883034248147
 30
0.0
 41
1.0
 10
-9.109447514465463
 20
65.54162987915817
 30
0.0
 41
0.9999551202950724
 10
-9.152297491377908
 20
65.53379675880119
 30
0.0
 41
0.9999551202950724
 10
-9.195030462984914
 20
65.52533203605489
 30
0.0
 41
1.0
 10
-9.407314311150987
 20
65.48401461746238
 30
0.0
 41
1.0
 10
-9.599947519911854
 20
65.43338176424899
 30
0.0
 41
1.0
 10
-9.985494119740832
 20
65.29004515694339
 30
0.0
 41
1.0
 10
-10.14159780423776
 20
65.18795517962337
 30
0.0
 41
1.0
 10
-10.1678732213115
 20
65.0741120021826
 30
0.0
 41
1.0
 10
-10.29964605948155
 20
64.45718266519644
 30
0.0
 41
0.9999999993812452
 10
-10.42307909106861
 20
63.87917315676527
 30
0.0
 41
0.9999999993812452
 10
-10.58288810885053
 20
63.12801575925065
 30
0.0
 41
1.0
  0
ARC
  5
138
330
1F
100
AcDbEntity
  8
Default
100
AcDbCircle
 10
-11.52835233372294
 20
63.53135524589303
 30
0.0
 40
1.027903371917098
100
AcDbArc
 50
316.6192521562472
 51
336.8966766051835
  0
SPLINE
  5
139
330
1F
100
AcDbEntity
  8
Default
100
AcDbSpline
210
0.0
220
0.0
230
1.0
 70
     8
 71
     3
 72
    29
 73
    25
 74
     0
 42
0.0000000001
 43
0.0000000001
 40
0.0
 40
0.0
 40
0.0
 40
0.0
 40
1.0
 40
2.0
 40
3.0
 40
4.0
 40
5.0
 40
6.0
 40
7.0
 40
8.0
 40
9.0
 40
10.0
 40
11.0
 40
12.0
 40
13.0
 40
14.0
 40
15.0
 40
16.0
 40
17.0
 40
18.0
 40
19.0
 40
20.0
 40
21.0
 40
22.0
 40
22.0
 40
22.0
 40
22.0
 10
12.34281773214387
 20
54.12260485278797
 30
0.0
 10
12.36988484020221
 20
54.11648423217155
 30
0.0
 10
12.42462858599171
 20
54.10693676711482
 30
0.0
 10
12.50698214903794
 20
54.09594162798717
 30
0.0
 10
12.59245716626709
 20
54.10657828950013
 30
0.0
 10
12.65399729706937
 20
54.16626096253409
 30
0.0
 10
12.70980347920165
 20
54.22718467778399
 30
0.0
 10
12.76348687837166
 20
54.29107441271366
 30
0.0
 10
12.81459906960048
 20
54.35674468855966
 30
0.0
 10
12.86219128147807
 20
54.42514701708651
 30
0.0
 10
12.89749593405964
 20
54.501391903189
 30
0.0
 10
12.90796005403857
 20
54.58466870686436
 30
0.0
 10
12.90771033577162
 20
54.66789364908536
 30
0.0
 10
12.90508163267632
 20
54.75108097239995
 30
0.0
 10
12.89886505845553
 20
54.83430773827043
 30
0.0
 10
12.88895997313673
 20
54.91629448567184
 30
0.0
 10
12.8675672782704
 20
54.99996484432214
 30
0.0
 10
12.79472137552596
 20
55.04780123317733
 30
0.0
 10
12.72347974569587
 20
55.08895045224346
 30
0.0
 10
12.64690650893402
 20
55.12255247916438
 30
0.0
 10
12.5701299115879
 20
55.15450640975428
 30
0.0
 10
12.49248772162385
 20
55.18463872529941
 30
0.0
 10
12.41462257125271
 20
55.21408217908775
 30
0.0
 10
12.36261492850209
 20
55.23347299387284
 30
0.0
 10
12.33660342670177
 20
55.24314314678233
 30
0.0
  0
SPLINE
  5
13A
330
1F
100
AcDbEntity
  8
Default
100
AcDbSpline
210
0.0
220
0.0
230
1.0
 70
    24
 71
     2
 72
     6
 73
     3
 74
     0
 42
0.0000000001
 43
0.0000000001
 40
-0.5884955129657286
 40
-0.5884955129657286
 40
-0.5884955129657286
 40
0.0
 40
0.0
 40
0.0
 10
12.30092937094371
 20
56.81390617925049
 30
0.0
 10
12.59517712742657
 20
56.81390617925044
 30
0.0
 10
12.88942488390944
 20
56.81390617925039
 30
0.0
  0
POLYLINE
  5
13B
330
1F
100
AcDbEntity
  8
Default
100
AcDb2dPolyline
 66
     1
 10
0.0
 20
0.0
 30
0.0
  0
VERTEX
  5
13C
330
13B
100
AcDbEntity
  8
Default
100
AcDbVertex
100
AcDb2dVertex
 10
12.88942488390944
 20
56.81390617925039
 30
0.0
  0
VERTEX
  5
13D
330
13B
100
AcDbEntity
  8
Default
100
AcDbVertex
100
AcDb2dVertex
 10
12.88942488390944
 20
54.90271756694305
 30
0.0
  0
SEQEND
  5
13E
330
13B
100
AcDbEntity
  8
Default
  0
POLYLINE
  5
13F
330
1F
100
AcDbEntity
  8
Default
100
AcDb2dPolyline
 66
     1
 10
0.0
 20
0.0
 30
0.0
  0
VERTEX
  5
140
330
13F
100
AcDbEntity
  8
Default
100
AcDbVertex
100
AcDb2dVertex
 10
12.954424883909
 20
54.25390617925037
 30
0.0
  0
VERTEX
  5
141
330
13F
100
AcDbEntity
  8
Default
100
AcDbVertex
100
AcDb2dVertex
 10
12.95442488390944
 20
56.81390617925037
 30
0.0
  0
SEQEND
  5
142
330
13F
100
AcDbEntity
  8
Default
  0
SPLINE
  5
143
330
1F
100
AcDbEntity
  8
Default
100
AcDbSpline
210
0.0
220
0.0
230
1.0
 70
    24
 71
     2
 72
     6
 73
     3
 74
     0
 42
0.0000000001
 43
0.0000000001
 40
-0.3805000000000014
 40
-0.3805000000000014
 40
-0.3805000000000014
 40
0.0
 40
0.0
 40
0.0
 10
12.95442488390944
 20
56.81390617925037
 30
0.0
 10
13.14467488390944
 20
56.81390617925034
 30
0.0
 10
13.33492488390944
 20
56.8139061792503
 30
0.0
  0
SPLINE
  5
144
330
1F
100
AcDbEntity
  8
Default
100
AcDbSpline
210
0.0
220
0.0
230
1.0
 70
    12
 71
     2
 72
     6
 73
     3
 74
     0
 42
0.0000000001
 43
0.0000000001
 40
0.0
 40
0.0
 40
0.0
 40
0.314159265358993
 40
0.314159265358993
 40
0.314159265358993
 10
13.33492488390944
 20
56.8139061792503
 30
0.0
 41
1.0
 10
13.53492488390946
 20
56.81390617925027
 30
0.0
 41
0.7071067811864918
 10
13.53492488390942
 20
56.61390617925027
 30
0.0
 41
1.0
  0
SPLINE
  5
145
330
1F
100
AcDbEntity
  8
Default
100
AcDbSpline
210
0.0
220
0.0
230
1.0
 70
    24
 71
     2
 72
     6
 73
     3
 74
     0
 42
0.0000000001
 43
0.0000000001
 40
-2.141969797889899
 40
-2.141969797889899
 40
-2.141969797889899
 40
0.0
 40
0.0
 40
0.0
 10
13.53492488390942
 20
56.61390617925027
 30
0.0
 10
13.53492488390923
 20
55.53390617925027
 30
0.0
 10
13.53492488390904
 20
54.45390617925027
 30
0.0
  0
SPLINE
  5
146
330
1F
100
AcDbEntity
  8
Default
100
AcDbSpline
210
0.0
220
0.0
230
1.0
 70
    12
 71
     2
 72
     6
 73
     3
 74
     0
 42
0.0000000001
 43
0.0000000001
 40
0.0
 40
0.0
 40
0.0
 40
0.3141592653589692
 40
0.3141592653589692
 40
0.3141592653589692
 10
13.53492488390904
 20
54.45390617925027
 30
0.0
 41
1.0
 10
13.534924883909
 20
54.25390617925028
 30
0.0
 41
0.7071067811865629
 10
13.33492488390901
 20
54.25390617925031
 30
0.0
 41
1.0
  0
SPLINE
  5
147
330
1F
100
AcDbEntity
  8
Default
100
AcDbSpline
210
0.0
220
0.0
230
1.0
 70
    24
 71
     2
 72
     6
 73
     3
 74
     0
 42
0.0000000001
 43
0.0000000001
 40
-0.3805000000000014
 40
-0.3805000000000014
 40
-0.3805000000000014
 40
0.0
 40
0.0
 40
0.0
 10
13.33492488390901
 20
54.25390617925031
 30
0.0
 10
13.144674883909
 20
54.25390617925034
 30
0.0
 10
12.954424883909
 20
54.25390617925037
 30
0.0
  0
SPLINE
  5
148
330
1F
100
AcDbEntity
  8
Default
100
AcDbSpline
210
0.0
220
0.0
230
1.0
 70
     8
 71
     3
 72
    29
 73
    25
 74
     0
 42
0.0000000001
 43
0.0000000001
 40
0.0
 40
0.0
 40
0.0
 40
0.0
 40
1.0
 40
2.0
 40
3.0
 40
4.0
 40
5.0
 40
6.0
 40
7.0
 40
8.0
 40
9.0
 40
10.0
 40
11.0
 40
12.0
 40
13.0
 40
14.0
 40
15.0
 40
16.0
 40
17.0
 40
18.0
 40
19.0
 40
20.0
 40
21.0
 40
22.0
 40
22.0
 40
22.0
 40
22.0
 10
-12.34281773214387
 20
54.12260485278797
 30
0.0
 10
-12.36988484020221
 20
54.11648423217155
 30
0.0
 10
-12.42462858599171
 20
54.10693676711482
 30
0.0
 10
-12.50698214903794
 20
54.09594162798717
 30
0.0
 10
-12.59245716626709
 20
54.10657828950013
 30
0.0
 10
-12.65399729706937
 20
54.16626096253409
 30
0.0
 10
-12.70980347920165
 20
54.22718467778399
 30
0.0
 10
-12.76348687837166
 20
54.29107441271366
 30
0.0
 10
-12.81459906960048
 20
54.35674468855966
 30
0.0
 10
-12.86219128147807
 20
54.42514701708651
 30
0.0
 10
-12.89749593405964
 20
54.501391903189
 30
0.0
 10
-12.90796005403857
 20
54.58466870686436
 30
0.0
 10
-12.90771033577162
 20
54.66789364908536
 30
0.0
 10
-12.90508163267632
 20
54.75108097239995
 30
0.0
 10
-12.89886505845553
 20
54.83430773827043
 30
0.0
 10
-12.88895997313673
 20
54.91629448567184
 30
0.0
 10
-12.8675672782704
 20
54.99996484432214
 30
0.0
 10
-12.79472137552596
 20
55.04780123317733
 30
0.0
 10
-12.72347974569587
 20
55.08895045224346
 30
0.0
 10
-12.64690650893402
 20
55.12255247916438
 30
0.0
 10
-12.5701299115879
 20
55.15450640975428
 30
0.0
 10
-12.49248772162385
 20
55.18463872529941
 30
0.0
 10
-12.41462257125271
 20
55.21408217908775
 30
0.0
 10
-12.36261492850209
 20
55.23347299387284
 30
0.0
 10
-12.33660342670177
 20
55.24314314678233
 30
0.0
  0
SPLINE
  5
149
330
1F
100
AcDbEntity
  8
Default
100
AcDbSpline
210
0.0
220
0.0
230
1.0
 70
    24
 71
     2
 72
     6
 73
     3
 74
     0
 42
0.0000000001
 43
0.0000000001
 40
-0.5884955129657286
 40
-0.5884955129657286
 40
-0.5884955129657286
 40
0.0
 40
0.0
 40
0.0
 10
-12.30092937094371
 20
56.81390617925049
 30
0.0
 10
-12.59517712742657
 20
56.81390617925044
 30
0.0
 10
-12.88942488390944
 20
56.81390617925039
 30
0.0
  0
POLYLINE
  5
14A
330
1F
100
AcDbEntity
  8
Default
100
AcDb2dPolyline
 66
     1
 10
0.0
 20
0.0
 30
0.0
  0
VERTEX
  5
14B
330
14A
100
AcDbEntity
  8
Default
100
AcDbVertex
100
AcDb2dVertex
 10
-12.88942488390944
 20
56.81390617925039
 30
0.0
  0
VERTEX
  5
14C
330
14A
100
AcDbEntity
  8
Default
100
AcDbVertex
100
AcDb2dVertex
 10
-12.88942488390944
 20
54.90271756694305
 30
0.0
  0
SEQEND
  5
14D
330
14A
100
AcDbEntity
  8
Default
  0
POLYLINE
  5
14E
330
1F
100
AcDbEntity
  8
Default
100
AcDb2dPolyline
 66
     1
 10
0.0
 20
0.0
 30
0.0
  0
VERTEX
  5
14F
330
14E
100
AcDbEntity
  8
Default
100
AcDbVertex
100
AcDb2dVertex
 10
-12.954424883909
 20
54.25390617925037
 30
0.0
  0
VERTEX
  5
150
330
14E
100
AcDbEntity
  8
Default
100
AcDbVertex
100
AcDb2dVertex
 10
-12.95442488390944
 20
56.81390617925037
 30
0.0
  0
SEQEND
  5
151
330
14E
100
AcDbEntity
  8
Default
  0
SPLINE
  5
152
330
1F
100
AcDbEntity
  8
Default
100
AcDbSpline
210
0.0
220
0.0
230
1.0
 70
    24
 71
     2
 72
     6
 73
     3
 74
     0
 42
0.0000000001
 43
0.0000000001
 40
-0.3805000000000014
 40
-0.3805000000000014
 40
-0.3805000000000014
 40
0.0
 40
0.0
 40
0.0
 10
-12.95442488390944
 20
56.81390617925037
 30
0.0
 10
-13.14467488390944
 20
56.81390617925034
 30
0.0
 10
-13.33492488390944
 20
56.8139061792503
 30
0.0
  0
SPLINE
  5
153
330
1F
100
AcDbEntity
  8
Default
100
AcDbSpline
210
0.0
220
0.0
230
1.0
 70
    12
 71
     2
 72
     6
 73
     3
 74
     0
 42
0.0000000001
 43
0.0000000001
 40
0.0
 40
0.0
 40
0.0
 40
0.314159265358993
 40
0.314159265358993
 40
0.314159265358993
 10
-13.33492488390944
 20
56.8139061792503
 30
0.0
 41
1.0
 10
-13.53492488390946
 20
56.81390617925027
 30
0.0
 41
0.7071067811864918
 10
-13.53492488390942
 20
56.61390617925027
 30
0.0
 41
1.0
  0
SPLINE
  5
154
330
1F
100
AcDbEntity
  8
Default
100
AcDbSpline
210
0.0
220
0.0
230
1.0
 70
    24
 71
     2
 72
     6
 73
     3
 74
     0
 42
0.0000000001
 43
0.0000000001
 40
-2.141969797889899
 40
-2.141969797889899
 40
-2.141969797889899
 40
0.0
 40
0.0
 40
0.0
 10
-13.53492488390942
 20
56.61390617925027
 30
0.0
 10
-13.53492488390923
 20
55.53390617925027
 30
0.0
 10
-13.53492488390904
 20
54.45390617925027
 30
0.0
  0
SPLINE
  5
155
330
1F
100
AcDbEntity
  8
Default
100
AcDbSpline
210
0.0
220
0.0
230
1.0
 70
    12
 71
     2
 72
     6
 73
     3
 74
     0
 42
0.0000000001
 43
0.0000000001
 40
0.0
 40
0.0
 40
0.0
 40
0.3141592653589692
 40
0.3141592653589692
 40
0.3141592653589692
 10
-13.53492488390904
 20
54.45390617925027
 30
0.0
 41
1.0
 10
-13.534924883909
 20
54.25390617925028
 30
0.0
 41
0.7071067811865629
 10
-13.33492488390901
 20
54.25390617925031
 30
0.0
 41
1.0
  0
SPLINE
  5
156
330
1F
100
AcDbEntity
  8
Default
100
AcDbSpline
210
0.0
220
0.0
230
1.0
 70
    24
 71
     2
 72
     6
 73
     3
 74
     0
 42
0.0000000001
 43
0.0000000001
 40
-0.3805000000000014
 40
-0.3805000000000014
 40
-0.3805000000000014
 40
0.0
 40
0.0
 40
0.0
 10
-13.33492488390901
 20
54.25390617925031
 30
0.0
 10
-13.144674883909
 20
54.25390617925034
 30
0.0
 10
-12.954424883909
 20
54.25390617925037
 30
0.0
  0
SPLINE
  5
157
330
1F
100
AcDbEntity
  8
Default
100
AcDbSpline
210
0.0
220
0.0
230
1.0
 70
     8
 71
     3
 72
    19
 73
    15
 74
     0
 42
0.0000000001
 43
0.0000000001
 40
0.0
 40
0.0
 40
0.0
 40
0.0
 40
1.0
 40
2.0
 40
3.0
 40
4.0
 40
5.0
 40
6.0
 40
7.0
 40
8.0
 40
9.0
 40
10.0
 40
11.0
 40
12.0
 40
12.0
 40
12.0
 40
12.0
 10
11.12476564774535
 20
62.27974428405401
 30
0.0
 10
11.09649205063458
 20
62.32954103110033
 30
0.0
 10
11.04227401935176
 20
62.42405466377237
 30
0.0
 10
10.95896338064865
 20
62.56523955492212
 30
0.0
 10
10.8758482082302
 20
62.70470161808849
 30
0.0
 10
10.78518698073986
 20
62.84643307394277
 30
0.0
 10
10.62278535379107
 20
62.90075852851165
 30
0.0
 10
10.45869442787308
 20
62.88805041627754
 30
0.0
 10
10.29610680694791
 20
62.89114315999006
 30
0.0
 10
10.12903640337488
 20
62.89005303784193
 30
0.0
 10
9.993727707174655
 20
62.7747360720828
 30
0.0
 10
9.968274829257982
 20
62.60956290854472
 30
0.0
 10
9.973000118195312
 20
62.44642491907729
 30
0.0
 10
9.975039376645574
 20
62.3372729103858
 30
0.0
 10
9.978832582874393
 20
62.2825517457753
 30
0.0
  0
SPLINE
  5
158
330
1F
100
AcDbEntity
  8
Default
100
AcDbSpline
210
0.0
220
0.0
230
1.0
 70
    12
 71
     2
 72
     6
 73
     3
 74
     0
 42
0.0000000001
 43
0.0000000001
 40
-8.916753955582376
 40
-8.916753955582376
 40
-8.916753955582376
 40
0.0
 40
0.0
 40
0.0
 10
9.978832582874393
 20
62.2825517457753
 30
0.0
 41
1.0
 10
10.1593995003465
 20
57.82751610117307
 30
0.0
 41
0.999999992133563
 10
10.34030525366302
 20
53.37281009684475
 30
0.0
 41
1.0
  0
SPLINE
  5
159
330
1F
100
AcDbEntity
  8
Default
100
AcDbSpline
210
0.0
220
0.0
230
1.0
 70
     8
 71
     3
 72
    13
 73
     9
 74
     0
 42
0.0000000001
 43
0.0000000001
 40
0.0
 40
0.0
 40
0.0
 40
0.0
 40
0.395527703351349
 40
0.7115296423533725
 40
1.473711888702568
 40
1.918618861522269
 40
2.261375290675533
 40
2.993305820681012
 40
2.993305820681012
 40
2.993305820681012
 40
2.993305820681012
 10
10.34030525366302
 20
53.37281009684475
 30
0.0
 10
10.34810588664418
 20
53.24126264573513
 30
0.0
 10
10.36017839996018
 20
53.00185012202229
 30
0.0
 10
10.65354991776124
 20
52.56929597752285
 30
0.0
 10
11.19831861010367
 20
52.49370557477467
 30
0.0
 10
11.69742096120602
 20
52.52467182699513
 30
0.0
 10
12.19298591906866
 20
52.72720365631818
 30
0.0
 10
12.31613803649902
 20
53.11186193544525
 30
0.0
 10
12.32342566337068
 20
53.35055674396458
 30
0.0
  0
SPLINE
  5
15A
330
1F
100
AcDbEntity
  8
Default
100
AcDbSpline
210
0.0
220
0.0
230
1.0
 70
     8
 71
     3
 72
    13
 73
     9
 74
     0
 42
0.0000000001
 43
0.0000000001
 40
-9.122654605371297
 40
-9.122654605371297
 40
-9.122654605371297
 40
-9.122654605371297
 40
-7.881510781715873
 40
-5.624433338112524
 40
-3.246071165084628
 40
-1.644483531213838
 40
-0.8879805977067776
 40
0.0
 40
0.0
 40
0.0
 40
0.0
 10
12.32342566337068
 20
53.35055674396458
 30
0.0
 10
12.34403482211335
 20
53.76384099289945
 30
0.0
 10
12.34581805726379
 20
54.93049280384461
 30
0.0
 10
12.31066644608845
 20
56.88809730448985
 30
0.0
 10
12.22726480796158
 20
58.96781421979406
 30
0.0
 10
11.92586787416685
 20
60.52459295095469
 30
0.0
 10
11.52279315565631
 20
61.53284387877135
 30
0.0
 10
11.27311262426002
 20
62.01984932389447
 30
0.0
 10
11.12476564774535
 20
62.27974428405401
 30
0.0
  0
SPLINE
  5
15B
330
1F
100
AcDbEntity
  8
Default
100
AcDbSpline
210
0.0
220
0.0
230
1.0
 70
     8
 71
     3
 72
    19
 73
    15
 74
     0
 42
0.0000000001
 43
0.0000000001
 40
0.0
 40
0.0
 40
0.0
 40
0.0
 40
1.0
 40
2.0
 40
3.0
 40
4.0
 40
5.0
 40
6.0
 40
7.0
 40
8.0
 40
9.0
 40
10.0
 40
11.0
 40
12.0
 40
12.0
 40
12.0
 40
12.0
 10
-11.12476564774535
 20
62.27974428405401
 30
0.0
 10
-11.09649205063458
 20
62.32954103110033
 30
0.0
 10
-11.04227401935176
 20
62.42405466377237
 30
0.0
 10
-10.95896338064865
 20
62.56523955492212
 30
0.0
 10
-10.8758482082302
 20
62.70470161808849
 30
0.0
 10
-10.78518698073986
 20
62.84643307394277
 30
0.0
 10
-10.62278535379107
 20
62.90075852851165
 30
0.0
 10
-10.45869442787308
 20
62.88805041627754
 30
0.0
 10
-10.29610680694791
 20
62.89114315999006
 30
0.0
 10
-10.12903640337488
 20
62.89005303784193
 30
0.0
 10
-9.993727707174655
 20
62.7747360720828
 30
0.0
 10
-9.968274829257982
 20
62.60956290854472
 30
0.0
 10
-9.973000118195312
 20
62.44642491907729
 30
0.0
 10
-9.975039376645574
 20
62.3372729103858
 30
0.0
 10
-9.978832582874393
 20
62.2825517457753
 30
0.0
  0
SPLINE
  5
15C
330
1F
100
AcDbEntity
  8
Default
100
AcDbSpline
210
0.0
220
0.0
230
1.0
 70
    12
 71
     2
 72
     6
 73
     3
 74
     0
 42
0.0000000001
 43
0.0000000001
 40
-8.916753955582376
 40
-8.916753955582376
 40
-8.916753955582376
 40
0.0
 40
0.0
 40
0.0
 10
-9.978832582874393
 20
62.2825517457753
 30
0.0
 41
1.0
 10
-10.1593995003465
 20
57.82751610117307
 30
0.0
 41
0.999999992133563
 10
-10.34030525366302
 20
53.37281009684475
 30
0.0
 41
1.0
  0
SPLINE
  5
15D
330
1F
100
AcDbEntity
  8
Default
100
AcDbSpline
210
0.0
220
0.0
230
1.0
 70
     8
 71
     3
 72
    13
 73
     9
 74
     0
 42
0.0000000001
 43
0.0000000001
 40
0.0
 40
0.0
 40
0.0
 40
0.0
 40
0.395527703351349
 40
0.7115296423533725
 40
1.473711888702568
 40
1.918618861522269
 40
2.261375290675533
 40
2.993305820681012
 40
2.993305820681012
 40
2.993305820681012
 40
2.993305820681012
 10
-10.34030525366302
 20
53.37281009684475
 30
0.0
 10
-10.34810588664418
 20
53.24126264573513
 30
0.0
 10
-10.36017839996018
 20
53.00185012202229
 30
0.0
 10
-10.65354991776124
 20
52.56929597752285
 30
0.0
 10
-11.19831861010367
 20
52.49370557477467
 30
0.0
 10
-11.69742096120602
 20
52.52467182699513
 30
0.0
 10
-12.19298591906866
 20
52.72720365631818
 30
0.0
 10
-12.31613803649902
 20
53.11186193544525
 30
0.0
 10
-12.32342566337068
 20
53.35055674396458
 30
0.0
  0
SPLINE
  5
15E
330
1F
100
AcDbEntity
  8
Default
100
AcDbSpline
210
0.0
220
0.0
230
1.0
 70
     8
 71
     3
 72
    13
 73
     9
 74
     0
 42
0.0000000001
 43
0.0000000001
 40
-9.122654605371297
 40
-9.122654605371297
 40
-9.122654605371297
 40
-9.122654605371297
 40
-7.881510781715873
 40
-5.624433338112524
 40
-3.246071165084628
 40
-1.644483531213838
 40
-0.8879805977067776
 40
0.0
 40
0.0
 40
0.0
 40
0.0
 10
-12.32342566337068
 20
53.35055674396458
 30
0.0
 10
-12.34403482211335
 20
53.76384099289945
 30
0.0
 10
-12.34581805726379
 20
54.93049280384461
 30
0.0
 10
-12.31066644608845
 20
56.88809730448985
 30
0.0
 10
-12.22726480796158
 20
58.96781421979406
 30
0.0
 10
-11.92586787416685
 20
60.52459295095469
 30
0.0
 10
-11.52279315565631
 20
61.53284387877135
 30
0.0
 10
-11.27311262426002
 20
62.01984932389447
 30
0.0
 10
-11.12476564774535
 20
62.27974428405401
 30
0.0
  0
POLYLINE
  5
15F
330
1F
100
AcDbEntity
  8
Default
100
AcDb2dPolyline
 66
     1
 10
0.0
 20
0.0
 30
0.0
  0
VERTEX
  5
160
330
15F
100
AcDbEntity
  8
Default
100
AcDbVertex
100
AcDb2dVertex
 10
8.102106268773998
 20
69.48755628249413
 30
0.0
  0
VERTEX
  5
161
330
15F
100
AcDbEntity
  8
Default
100
AcDbVertex
100
AcDb2dVertex
 10
8.102106268773998
 20
71.54377895567472
 30
0.0
  0
SEQEND
  5
162
330
15F
100
AcDbEntity
  8
Default
  0
POLYLINE
  5
163
330
1F
100
AcDbEntity
  8
Default
100
AcDb2dPolyline
 66
     1
 10
0.0
 20
0.0
 30
0.0
  0
VERTEX
  5
164
330
163
100
AcDbEntity
  8
Default
100
AcDbVertex
100
AcDb2dVertex
 10
8.102106268773998
 20
71.54377895567472
 30
0.0
  0
VERTEX
  5
165
330
163
100
AcDbEntity
  8
Default
100
AcDbVertex
100
AcDb2dVertex
 10
7.393106593700665
 20
71.54377895567472
 30
0.0
  0
SEQEND
  5
166
330
163
100
AcDbEntity
  8
Default
  0
POLYLINE
  5
167
330
1F
100
AcDbEntity
  8
Default
100
AcDb2dPolyline
 66
     1
 10
0.0
 20
0.0
 30
0.0
  0
VERTEX
  5
168
330
167
100
AcDbEntity
  8
Default
100
AcDbVertex
100
AcDb2dVertex
 10
7.393106593700665
 20
71.54377895567472
 30
0.0
  0
VERTEX
  5
169
330
167
100
AcDbEntity
  8
Default
100
AcDbVertex
100
AcDb2dVertex
 10
7.393106593700665
 20
69.71117777408065
 30
0.0
  0
SEQEND
  5
16A
330
167
100
AcDbEntity
  8
Default
  0
SPLINE
  5
16B
330
1F
100
AcDbEntity
  8
Default
100
AcDbSpline
210
0.0
220
0.0
230
1.0
 70
    12
 71
     2
 72
     6
 73
     3
 74
     0
 42
0.0000000001
 43
0.0000000001
 40
-0.1871478743859151
 40
-0.1871478743859151
 40
-0.1871478743859151
 40
0.0
 40
0.0
 40
0.0
 10
6.827824270782775
 20
69.02237849716535
 30
0.0
 41
0.8589194519294838
 10
6.745249769178399
 20
69.08234592561566
 30
0.0
 41
0.8255205261562728
 10
6.745347471899024
 20
69.18439802625218
 30
0.0
 41
1.0
  0
SPLINE
  5
16C
330
1F
100
AcDbEntity
  8
Default
100
AcDbSpline
210
0.0
220
0.0
230
1.0
 70
    24
 71
     2
 72
     6
 73
     3
 74
     0
 42
0.0000000001
 43
0.0000000001
 40
0.0
 40
0.0
 40
0.0
 40
2.141969797889912
 40
2.141969797889912
 40
2.141969797889912
 10
6.745347471899024
 20
69.18439802625218
 30
0.0
 10
6.746377127237166
 20
70.25988998283866
 30
0.0
 10
6.747406782575309
 20
71.33538193942513
 30
0.0
  0
SPLINE
  5
16D
330
1F
100
AcDbEntity
  8
Default
100
AcDbSpline
210
0.0
220
0.0
230
1.0
 70
    12
 71
     2
 72
     6
 73
     3
 74
     0
 42
0.0000000001
 43
0.0000000001
 40
-0.3141592653589801
 40
-0.3141592653589801
 40
-0.3141592653589801
 40
0.0
 40
0.0
 40
0.0
 10
6.747406782575309
 20
71.33538193942513
 30
0.0
 41
1.0
 10
6.747606889526002
 20
71.54439694469093
 30
0.0
 41
0.7071067811865412
 10
6.947606797868268
 20
71.54420546862085
 30
0.0
 41
1.0
  0
SPLINE
  5
16E
330
1F
100
AcDbEntity
  8
Default
100
AcDbSpline
210
0.0
220
0.0
230
1.0
 70
    24
 71
     2
 72
     6
 73
     3
 74
     0
 42
0.0000000001
 43
0.0000000001
 40
0.0
 40
0.0
 40
0.0
 40
0.3805000000000011
 40
0.3805000000000011
 40
0.3805000000000011
 10
6.947606797868268
 20
71.54420546862085
 30
0.0
 10
7.137856710678848
 20
71.54402332700917
 30
0.0
 10
7.328106623489429
 20
71.5438411853975
 30
0.0
  0
POLYLINE
  5
16F
330
1F
100
AcDbEntity
  8
Default
100
AcDb2dPolyline
 66
     1
 10
0.0
 20
0.0
 30
0.0
  0
VERTEX
  5
170
330
16F
100
AcDbEntity
  8
Default
100
AcDbVertex
100
AcDb2dVertex
 10
7.328106623489429
 20
71.5438411853975
 30
0.0
  0
VERTEX
  5
171
330
16F
100
AcDbEntity
  8
Default
100
AcDbVertex
100
AcDb2dVertex
 10
7.328106623489429
 20
69.64953326748855
 30
0.0
  0
SEQEND
  5
172
330
16F
100
AcDbEntity
  8
Default
  0
SPLINE
  5
173
330
1F
100
AcDbEntity
  8
Default
100
AcDbSpline
210
0.0
220
0.0
230
1.0
 70
    24
 71
     2
 72
     6
 73
     3
 74
     0
 42
0.0000000001
 43
0.0000000001
 40
0.0
 40
0.0
 40
0.0
 40
2.159688494679794
 40
2.159688494679794
 40
2.159688494679794
 10
8.16917388231306
 20
69.38415368047848
 30
0.0
 10
8.168140060649147
 20
70.46399743293799
 30
0.0
 10
8.167106238985234
 20
71.5438411853975
 30
0.0
  0
SPLINE
  5
174
330
1F
100
AcDbEntity
  8
Default
100
AcDbSpline
210
0.0
220
0.0
230
1.0
 70
    24
 71
     2
 72
     6
 73
     3
 74
     0
 42
0.0000000001
 43
0.0000000001
 40
-0.3805000000000011
 40
-0.3805000000000011
 40
-0.3805000000000011
 40
0.0
 40
0.0
 40
0.0
 10
8.167106238985234
 20
71.5438411853975
 30
0.0
 10
8.357356151795814
 20
71.54402332700917
 30
0.0
 10
8.547606064606395
 20
71.54420546862085
 30
0.0
  0
SPLINE
  5
175
330
1F
100
AcDbEntity
  8
Default
100
AcDbSpline
210
0.0
220
0.0
230
1.0
 70
    12
 71
     2
 72
     6
 73
     3
 74
     0
 42
0.0000000001
 43
0.0000000001
 40
0.0
 40
0.0
 40
0.0
 40
0.3141592653589801
 40
0.3141592653589801
 40
0.3141592653589801
 10
8.547606064606395
 20
71.54420546862085
 30
0.0
 41
1.0
 10
8.747605972948662
 20
71.54439694469093
 30
0.0
 41
0.7071067811865412
 10
8.747806079899354
 20
71.33538193942513
 30
0.0
 41
1.0
  0
SPLINE
  5
176
330
1F
100
AcDbEntity
  8
Default
100
AcDbSpline
210
0.0
220
0.0
230
1.0
 70
    24
 71
     2
 72
     6
 73
     3
 74
     0
 42
0.0000000001
 43
0.0000000001
 40
-2.141969797889912
 40
-2.141969797889912
 40
-2.141969797889912
 40
0.0
 40
0.0
 40
0.0
 10
8.747806079899354
 20
71.33538193942513
 30
0.0
 10
8.748835735237495
 20
70.25988998283866
 30
0.0
 10
8.74986539057564
 20
69.18439802625218
 30
0.0
  0
SPLINE
  5
177
330
1F
100
AcDbEntity
  8
Default
100
AcDbSpline
210
0.0
220
0.0
230
1.0
 70
    12
 71
     2
 72
     6
 73
     3
 74
     0
 42
0.0000000001
 43
0.0000000001
 40
0.0
 40
0.0
 40
0.0
 40
0.3141592653589561
 40
0.3141592653589561
 40
0.3141592653589561
 10
8.74986539057564
 20
69.18439802625218
 30
0.0
 41
1.0
 10
8.750056866645682
 20
68.98439811790996
 30
0.0
 41
0.7071067811866747
 10
8.550056958303458
 20
68.98420664183985
 30
0.0
 41
1.0
  0
SPLINE
  5
178
330
1F
100
AcDbEntity
  8
Default
100
AcDbSpline
210
0.0
220
0.0
230
1.0
 70
    24
 71
     2
 72
     6
 73
     3
 74
     0
 42
0.0000000001
 43
0.0000000001
 40
-0.3805000000000011
 40
-0.3805000000000011
 40
-0.3805000000000011
 40
0.0
 40
0.0
 40
0.0
 10
8.550056958303458
 20
68.98420664183985
 30
0.0
 10
8.359807045492877
 20
68.98402450022817
 30
0.0
 10
8.169557132682296
 20
68.9838423586165
 30
0.0
  0
SPLINE
  5
179
330
1F
100
AcDbEntity
  8
Default
100
AcDbSpline
210
0.0
220
0.0
230
1.0
 70
     8
 71
     3
 72
    13
 73
     9
 74
     0
 42
0.0000000001
 43
0.0000000001
 40
0.0
 40
0.0
 40
0.0
 40
0.0
 40
1.0
 40
2.0
 40
3.0
 40
4.0
 40
5.0
 40
6.0
 40
6.0
 40
6.0
 40
6.0
 10
7.23283789137099
 20
67.64322094815645
 30
0.0
 10
7.290708651188725
 20
67.72871989940822
 30
0.0
 10
7.406439509582876
 20
67.89971791273098
 30
0.0
 10
7.580076937643948
 20
68.15621396663676
 30
0.0
 10
7.753584642808687
 20
68.41271172942822
 30
0.0
 10
7.927572860686658
 20
68.66920166140622
 30
0.0
 10
8.09977159918416
 20
68.92571937490786
 30
0.0
 10
8.210667079972271
 20
69.10218478710453
 30
0.0
 10
8.233867486901005
 20
69.20401928806595
 30
0.0
  0
SPLINE
  5
17A
330
1F
100
AcDbEntity
  8
Default
100
AcDbSpline
210
0.0
220
0.0
230
1.0
 70
     8
 71
     3
 72
     8
 73
     4
 74
     0
 42
0.0000000001
 43
0.0000000001
 40
-1.0
 40
-1.0
 40
-1.0
 40
-1.0
 40
0.0
 40
0.0
 40
0.0
 40
0.0
 10
8.233867486901005
 20
69.20401928806595
 30
0.0
 10
8.238404813048392
 20
69.22393516046154
 30
0.0
 10
8.23466338222509
 20
69.2532072747978
 30
0.0
 10
8.226460125049897
 20
69.27219172607656
 30
0.0
  0
SPLINE
  5
17B
330
1F
100
AcDbEntity
  8
Default
100
AcDbSpline
210
0.0
220
0.0
230
1.0
 70
     8
 71
     3
 72
    13
 73
     9
 74
     0
 42
0.0000000001
 43
0.0000000001
 40
-6.0
 40
-6.0
 40
-6.0
 40
-6.0
 40
-5.0
 40
-4.0
 40
-3.0
 40
-2.0
 40
-1.0
 40
0.0
 40
0.0
 40
0.0
 40
0.0
 10
8.226460125049897
 20
69.27219172607656
 30
0.0
 10
8.206222254521482
 20
69.31902737426208
 30
0.0
 10
8.155092097267286
 20
69.40772556001409
 30
0.0
 10
8.07180530078218
 20
69.53503189940778
 30
0.0
 10
7.975264587119772
 20
69.65787455202988
 30
0.0
 10
7.828656521448403
 20
69.71173748833971
 30
0.0
 10
7.682093434537602
 20
69.75252405668837
 30
0.0
 10
7.58178942528672
 20
69.77311622842842
 30
0.0
 10
7.531002379955813
 20
69.7778887474237
 30
0.0
  0
SPLINE
  5
17C
330
1F
100
AcDbEntity
  8
Default
100
AcDbSpline
210
0.0
220
0.0
230
1.0
 70
     8
 71
     3
 72
     8
 73
     4
 74
     0
 42
0.0000000001
 43
0.0000000001
 40
0.0
 40
0.0
 40
0.0
 40
0.0
 40
1.0
 40
1.0
 40
1.0
 40
1.0
 10
7.531002379955813
 20
69.7778887474237
 30
0.0
 10
7.509838569075682
 20
69.77987753587911
 30
0.0
 10
7.480813229981409
 20
69.77513871820258
 30
0.0
 10
7.4634784551623
 20
69.7639012749525
 30
0.0
  0
SPLINE
  5
17D
330
1F
100
AcDbEntity
  8
Default
100
AcDbSpline
210
0.0
220
0.0
230
1.0
 70
     8
 71
     3
 72
    14
 73
    10
 74
     0
 42
0.0000000001
 43
0.0000000001
 40
0.0
 40
0.0
 40
0.0
 40
0.0
 40
1.0
 40
2.0
 40
3.0
 40
4.0
 40
5.0
 40
6.0
 40
7.0
 40
7.0
 40
7.0
 40
7.0
 10
7.4634784551623
 20
69.7639012749525
 30
0.0
 10
7.356905408877865
 20
69.69481421889864
 30
0.0
 10
7.197048656200758
 20
69.49646919504562
 30
0.0
 10
6.964970884889473
 20
69.19851495908841
 30
0.0
 10
6.732211499798405
 20
68.89958397228989
 30
0.0
 10
6.499633817640935
 20
68.60091541539506
 30
0.0
 10
6.267006492481652
 20
68.30217721592393
 30
0.0
 10
6.034391685390332
 20
68.00345860381913
 30
0.0
 10
5.879311914773949
 20
67.8043092971063
 30
0.0
 10
5.801772433337343
 20
67.70473549694123
 30
0.0
  0
POLYLINE
  5
17E
330
1F
100
AcDbEntity
  8
Default
100
AcDb2dPolyline
 66
     1
 10
0.0
 20
0.0
 30
0.0
  0
VERTEX
  5
17F
330
17E
100
AcDbEntity
  8
Default
100
AcDbVertex
100
AcDb2dVertex
 10
-8.102106268773998
 20
69.48755628249413
 30
0.0
  0
VERTEX
  5
180
330
17E
100
AcDbEntity
  8
Default
100
AcDbVertex
100
AcDb2dVertex
 10
-8.102106268773998
 20
71.54377895567472
 30
0.0
  0
SEQEND
  5
181
330
17E
100
AcDbEntity
  8
Default
  0
POLYLINE
  5
182
330
1F
100
AcDbEntity
  8
Default
100
AcDb2dPolyline
 66
     1
 10
0.0
 20
0.0
 30
0.0
  0
VERTEX
  5
183
330
182
100
AcDbEntity
  8
Default
100
AcDbVertex
100
AcDb2dVertex
 10
-8.102106268773998
 20
71.54377895567472
 30
0.0
  0
VERTEX
  5
184
330
182
100
AcDbEntity
  8
Default
100
AcDbVertex
100
AcDb2dVertex
 10
-7.393106593700665
 20
71.54377895567472
 30
0.0
  0
SEQEND
  5
185
330
182
100
AcDbEntity
  8
Default
  0
POLYLINE
  5
186
330
1F
100
AcDbEntity
  8
Default
100
AcDb2dPolyline
 66
     1
 10
0.0
 20
0.0
 30
0.0
  0
VERTEX
  5
187
330
186
100
AcDbEntity
  8
Default
100
AcDbVertex
100
AcDb2dVertex
 10
-7.393106593700665
 20
71.54377895567472
 30
0.0
  0
VERTEX
  5
188
330
186
100
AcDbEntity
  8
Default
100
AcDbVertex
100
AcDb2dVertex
 10
-7.393106593700665
 20
69.71117777408065
 30
0.0
  0
SEQEND
  5
189
330
186
100
AcDbEntity
  8
Default
  0
SPLINE
  5
18A
330
1F
100
AcDbEntity
  8
Default
100
AcDbSpline
210
0.0
220
0.0
230
1.0
 70
    12
 71
     2
 72
     6
 73
     3
 74
     0
 42
0.0000000001
 43
0.0000000001
 40
-0.1871478743859151
 40
-0.1871478743859151
 40
-0.1871478743859151
 40
0.0
 40
0.0
 40
0.0
 10
-6.827824270782775
 20
69.02237849716535
 30
0.0
 41
0.8589194519294838
 10
-6.745249769178399
 20
69.08234592561566
 30
0.0
 41
0.8255205261562728
 10
-6.745347471899024
 20
69.18439802625218
 30
0.0
 41
1.0
  0
SPLINE
  5
18B
330
1F
100
AcDbEntity
  8
Default
100
AcDbSpline
210
0.0
220
0.0
230
1.0
 70
    24
 71
     2
 72
     6
 73
     3
 74
     0
 42
0.0000000001
 43
0.0000000001
 40
0.0
 40
0.0
 40
0.0
 40
2.141969797889912
 40
2.141969797889912
 40
2.141969797889912
 10
-6.745347471899024
 20
69.18439802625218
 30
0.0
 10
-6.746377127237166
 20
70.25988998283866
 30
0.0
 10
-6.747406782575309
 20
71.33538193942513
 30
0.0
  0
SPLINE
  5
18C
330
1F
100
AcDbEntity
  8
Default
100
AcDbSpline
210
0.0
220
0.0
230
1.0
 70
    12
 71
     2
 72
     6
 73
     3
 74
     0
 42
0.0000000001
 43
0.0000000001
 40
-0.3141592653589801
 40
-0.3141592653589801
 40
-0.3141592653589801
 40
0.0
 40
0.0
 40
0.0
 10
-6.747406782575309
 20
71.33538193942513
 30
0.0
 41
1.0
 10
-6.747606889526002
 20
71.54439694469093
 30
0.0
 41
0.7071067811865412
 10
-6.947606797868268
 20
71.54420546862085
 30
0.0
 41
1.0
  0
SPLINE
  5
18D
330
1F
100
AcDbEntity
  8
Default
100
AcDbSpline
210
0.0
220
0.0
230
1.0
 70
    24
 71
     2
 72
     6
 73
     3
 74
     0
 42
0.0000000001
 43
0.0000000001
 40
0.0
 40
0.0
 40
0.0
 40
0.3805000000000011
 40
0.3805000000000011
 40
0.3805000000000011
 10
-6.947606797868268
 20
71.54420546862085
 30
0.0
 10
-7.137856710678848
 20
71.54402332700917
 30
0.0
 10
-7.328106623489429
 20
71.5438411853975
 30
0.0
  0
POLYLINE
  5
18E
330
1F
100
AcDbEntity
  8
Default
100
AcDb2dPolyline
 66
     1
 10
0.0
 20
0.0
 30
0.0
  0
VERTEX
  5
18F
330
18E
100
AcDbEntity
  8
Default
100
AcDbVertex
100
AcDb2dVertex
 10
-7.328106623489429
 20
71.5438411853975
 30
0.0
  0
VERTEX
  5
190
330
18E
100
AcDbEntity
  8
Default
100
AcDbVertex
100
AcDb2dVertex
 10
-7.328106623489429
 20
69.64953326748855
 30
0.0
  0
SEQEND
  5
191
330
18E
100
AcDbEntity
  8
Default
  0
SPLINE
  5
192
330
1F
100
AcDbEntity
  8
Default
100
AcDbSpline
210
0.0
220
0.0
230
1.0
 70
    24
 71
     2
 72
     6
 73
     3
 74
     0
 42
0.0000000001
 43
0.0000000001
 40
0.0
 40
0.0
 40
0.0
 40
2.159688494679794
 40
2.159688494679794
 40
2.159688494679794
 10
-8.16917388231306
 20
69.38415368047848
 30
0.0
 10
-8.168140060649147
 20
70.46399743293799
 30
0.0
 10
-8.167106238985234
 20
71.5438411853975
 30
0.0
  0
SPLINE
  5
193
330
1F
100
AcDbEntity
  8
Default
100
AcDbSpline
210
0.0
220
0.0
230
1.0
 70
    24
 71
     2
 72
     6
 73
     3
 74
     0
 42
0.0000000001
 43
0.0000000001
 40
-0.3805000000000011
 40
-0.3805000000000011
 40
-0.3805000000000011
 40
0.0
 40
0.0
 40
0.0
 10
-8.167106238985234
 20
71.5438411853975
 30
0.0
 10
-8.357356151795814
 20
71.54402332700917
 30
0.0
 10
-8.547606064606395
 20
71.54420546862085
 30
0.0
  0
SPLINE
  5
194
330
1F
100
AcDbEntity
  8
Default
100
AcDbSpline
210
0.0
220
0.0
230
1.0
 70
    12
 71
     2
 72
     6
 73
     3
 74
     0
 42
0.0000000001
 43
0.0000000001
 40
0.0
 40
0.0
 40
0.0
 40
0.3141592653589801
 40
0.3141592653589801
 40
0.3141592653589801
 10
-8.547606064606395
 20
71.54420546862085
 30
0.0
 41
1.0
 10
-8.747605972948662
 20
71.54439694469093
 30
0.0
 41
0.7071067811865412
 10
-8.747806079899354
 20
71.33538193942513
 30
0.0
 41
1.0
  0
SPLINE
  5
195
330
1F
100
AcDbEntity
  8
Default
100
AcDbSpline
210
0.0
220
0.0
230
1.0
 70
    24
 71
     2
 72
     6
 73
     3
 74
     0
 42
0.0000000001
 43
0.0000000001
 40
-2.141969797889912
 40
-2.141969797889912
 40
-2.141969797889912
 40
0.0
 40
0.0
 40
0.0
 10
-8.747806079899354
 20
71.33538193942513
 30
0.0
 10
-8.748835735237495
 20
70.25988998283866
 30
0.0
 10
-8.74986539057564
 20
69.18439802625218
 30
0.0
  0
SPLINE
  5
196
330
1F
100
AcDbEntity
  8
Default
100
AcDbSpline
210
0.0
220
0.0
230
1.0
 70
    12
 71
     2
 72
     6
 73
     3
 74
     0
 42
0.0000000001
 43
0.0000000001
 40
0.0
 40
0.0
 40
0.0
 40
0.3141592653589561
 40
0.3141592653589561
 40
0.3141592653589561
 10
-8.74986539057564
 20
69.18439802625218
 30
0.0
 41
1.0
 10
-8.750056866645682
 20
68.98439811790996
 30
0.0
 41
0.7071067811866747
 10
-8.550056958303458
 20
68.98420664183985
 30
0.0
 41
1.0
  0
SPLINE
  5
197
330
1F
100
AcDbEntity
  8
Default
100
AcDbSpline
210
0.0
220
0.0
230
1.0
 70
    24
 71
     2
 72
     6
 73
     3
 74
     0
 42
0.0000000001
 43
0.0000000001
 40
-0.3805000000000011
 40
-0.3805000000000011
 40
-0.3805000000000011
 40
0.0
 40
0.0
 40
0.0
 10
-8.550056958303458
 20
68.98420664183985
 30
0.0
 10
-8.359807045492877
 20
68.98402450022817
 30
0.0
 10
-8.169557132682296
 20
68.9838423586165
 30
0.0
  0
SPLINE
  5
198
330
1F
100
AcDbEntity
  8
Default
100
AcDbSpline
210
0.0
220
0.0
230
1.0
 70
     8
 71
     3
 72
    13
 73
     9
 74
     0
 42
0.0000000001
 43
0.0000000001
 40
0.0
 40
0.0
 40
0.0
 40
0.0
 40
1.0
 40
2.0
 40
3.0
 40
4.0
 40
5.0
 40
6.0
 40
6.0
 40
6.0
 40
6.0
 10
-7.23283789137099
 20
67.64322094815645
 30
0.0
 10
-7.290708651188725
 20
67.72871989940822
 30
0.0
 10
-7.406439509582876
 20
67.89971791273098
 30
0.0
 10
-7.580076937643948
 20
68.15621396663676
 30
0.0
 10
-7.753584642808687
 20
68.41271172942822
 30
0.0
 10
-7.927572860686658
 20
68.66920166140622
 30
0.0
 10
-8.09977159918416
 20
68.92571937490786
 30
0.0
 10
-8.210667079972271
 20
69.10218478710453
 30
0.0
 10
-8.233867486901005
 20
69.20401928806595
 30
0.0
  0
SPLINE
  5
199
330
1F
100
AcDbEntity
  8
Default
100
AcDbSpline
210
0.0
220
0.0
230
1.0
 70
     8
 71
     3
 72
     8
 73
     4
 74
     0
 42
0.0000000001
 43
0.0000000001
 40
-1.0
 40
-1.0
 40
-1.0
 40
-1.0
 40
0.0
 40
0.0
 40
0.0
 40
0.0
 10
-8.233867486901005
 20
69.20401928806595
 30
0.0
 10
-8.238404813048392
 20
69.22393516046154
 30
0.0
 10
-8.23466338222509
 20
69.2532072747978
 30
0.0
 10
-8.226460125049897
 20
69.27219172607656
 30
0.0
  0
SPLINE
  5
19A
330
1F
100
AcDbEntity
  8
Default
100
AcDbSpline
210
0.0
220
0.0
230
1.0
 70
     8
 71
     3
 72
    13
 73
     9
 74
     0
 42
0.0000000001
 43
0.0000000001
 40
-6.0
 40
-6.0
 40
-6.0
 40
-6.0
 40
-5.0
 40
-4.0
 40
-3.0
 40
-2.0
 40
-1.0
 40
0.0
 40
0.0
 40
0.0
 40
0.0
 10
-8.226460125049897
 20
69.27219172607656
 30
0.0
 10
-8.206222254521482
 20
69.31902737426208
 30
0.0
 10
-8.155092097267286
 20
69.40772556001409
 30
0.0
 10
-8.07180530078218
 20
69.53503189940778
 30
0.0
 10
-7.975264587119772
 20
69.65787455202988
 30
0.0
 10
-7.828656521448403
 20
69.71173748833971
 30
0.0
 10
-7.682093434537602
 20
69.75252405668837
 30
0.0
 10
-7.58178942528672
 20
69.77311622842842
 30
0.0
 10
-7.531002379955813
 20
69.7778887474237
 30
0.0
  0
SPLINE
  5
19B
330
1F
100
AcDbEntity
  8
Default
100
AcDbSpline
210
0.0
220
0.0
230
1.0
 70
     8
 71
     3
 72
     8
 73
     4
 74
     0
 42
0.0000000001
 43
0.0000000001
 40
0.0
 40
0.0
 40
0.0
 40
0.0
 40
1.0
 40
1.0
 40
1.0
 40
1.0
 10
-7.531002379955813
 20
69.7778887474237
 30
0.0
 10
-7.509838569075682
 20
69.77987753587911
 30
0.0
 10
-7.480813229981409
 20
69.77513871820258
 30
0.0
 10
-7.4634784551623
 20
69.7639012749525
 30
0.0
  0
SPLINE
  5
19C
330
1F
100
AcDbEntity
  8
Default
100
AcDbSpline
210
0.0
220
0.0
230
1.0
 70
     8
 71
     3
 72
    14
 73
    10
 74
     0
 42
0.0000000001
 43
0.0000000001
 40
0.0
 40
0.0
 40
0.0
 40
0.0
 40
1.0
 40
2.0
 40
3.0
 40
4.0
 40
5.0
 40
6.0
 40
7.0
 40
7.0
 40
7.0
 40
7.0
 10
-7.4634784551623
 20
69.7639012749525
 30
0.0
 10
-7.356905408877865
 20
69.69481421889864
 30
0.0
 10
-7.197048656200758
 20
69.49646919504562
 30
0.0
 10
-6.964970884889473
 20
69.19851495908841
 30
0.0
 10
-6.732211499798405
 20
68.89958397228989
 30
0.0
 10
-6.499633817640935
 20
68.60091541539506
 30
0.0
 10
-6.267006492481652
 20
68.30217721592393
 30
0.0
 10
-6.034391685390332
 20
68.00345860381913
 30
0.0
 10
-5.879311914773949
 20
67.8043092971063
 30
0.0
 10
-5.801772433337343
 20
67.70473549694123
 30
0.0
  0
SPLINE
  5
19D
330
1F
100
AcDbEntity
  8
Default
100
AcDbSpline
210
0.0
220
0.0
230
1.0
 70
    12
 71
     3
 72
    15
 73
    11
 74
     0
 42
0.0000000001
 43
0.0000000001
 40
-2.459698854556232
 40
-2.459698854556232
 40
-2.459698854556232
 40
-2.459698854556232
 40
-2.268166335785546
 40
-2.058313909167876
 40
-1.562252329640201
 40
-0.8455266239665629
 40
0.0
 40
0.0
 40
0.0
 40
6.20925689701994
 40
6.20925689701994
 40
6.20925689701994
 40
6.20925689701994
 10
-8.736366572760287
 20
67.07619603611434
 30
0.0
 41
1.0
 10
-8.653009951362167
 20
67.23339741860232
 30
0.0
 41
1.0
 10
-8.463307158793256
 20
67.3518735554199
 30
0.0
 41
1.0
 10
-8.189698935959774
 20
67.47802272984768
 30
0.0
 41
1.0
 10
-7.727267205012157
 20
67.58654620340508
 30
0.0
 41
1.0
 10
-7.045469553838839
 20
67.67352588725288
 30
0.0
 41
1.0
 10
-6.490117705675918
 20
67.68305787519057
 30
0.0
 41
1.0
 10
-6.208429549100515
 20
67.6917817254159
 30
0.0
 41
1.0
 10
-4.139548144117664
 20
67.75585474762073
 30
0.0
 41
0.9998830559991921
 10
-2.06982958629012
 20
67.7811670261145
 30
0.0
 41
0.9998830559991921
 10
0.000000000876021
 20
67.76770968053987
 30
0.0
 41
1.0
  0
SPLINE
  5
19E
330
1F
100
AcDbEntity
  8
Default
100
AcDbSpline
210
0.0
220
0.0
230
1.0
 70
    12
 71
     3
 72
    15
 73
    11
 74
     0
 42
0.0000000001
 43
0.0000000001
 40
-6.20925689701994
 40
-6.20925689701994
 40
-6.20925689701994
 40
-6.20925689701994
 40
0.0
 40
0.0
 40
0.0
 40
0.8455266239665629
 40
1.562252329640201
 40
2.058313909167876
 40
2.268166335785546
 40
2.459698854556232
 40
2.459698854556232
 40
2.459698854556232
 40
2.459698854556232
 10
0.000000000876021
 20
67.76770968053987
 30
0.0
 41
1.0
 10
2.069829588042162
 20
67.7811670261145
 30
0.0
 41
0.9998830559991921
 10
4.139548145869705
 20
67.75585474762073
 30
0.0
 41
0.9998830559991921
 10
6.208429550852557
 20
67.6917817254159
 30
0.0
 41
1.0
 10
6.49011770742796
 20
67.68305787519057
 30
0.0
 41
1.0
 10
7.045469555590881
 20
67.67352588725288
 30
0.0
 41
1.0
 10
7.727267206764199
 20
67.58654620340508
 30
0.0
 41
1.0
 10
8.189698937711816
 20
67.47802272984768
 30
0.0
 41
1.0
 10
8.463307160545298
 20
67.3518735554199
 30
0.0
 41
1.0
 10
8.653009953114209
 20
67.23339741860232
 30
0.0
 41
1.0
 10
8.73636657451233
 20
67.07619603611434
 30
0.0
 41
1.0
  0
SPLINE
  5
19F
330
1F
100
AcDbEntity
  8
Default
100
AcDbSpline
210
0.0
220
0.0
230
1.0
 70
     8
 71
     3
 72
    13
 73
     9
 74
     0
 42
0.0000000001
 43
0.0000000001
 40
0.0
 40
0.0
 40
0.0
 40
0.0
 40
1.674929523489223
 40
2.203368228823596
 40
2.457683809125602
 40
2.788163095648862
 40
2.900762073900839
 40
3.452832494218632
 40
3.452832494218632
 40
3.452832494218632
 40
3.452832494218632
 10
-6.100879774479424
 20
67.38189094992748
 30
0.0
 10
-6.658589024047177
 20
67.36348530822343
 30
0.0
 10
-7.395027901451857
 20
67.36470894530154
 30
0.0
 10
-8.20910994454799
 20
67.27862482649743
 30
0.0
 10
-8.577720293631849
 20
67.22312843067087
 30
0.0
 10
-8.77632066432837
 20
67.07079472113247
 30
0.0
 10
-8.846941603891036
 20
66.7369247408385
 30
0.0
 10
-8.882542385119315
 20
66.52596110706187
 30
0.0
 10
-8.917168859779984
 20
66.34037889171162
 30
0.0
  0
SPLINE
  5
1A0
330
1F
100
AcDbEntity
  8
Default
100
AcDbSpline
210
0.0
220
0.0
230
1.0
 70
     8
 71
     3
 72
    14
 73
    10
 74
     0
 42
0.0000000001
 43
0.0000000001
 40
-7.0
 40
-7.0
 40
-7.0
 40
-7.0
 40
-6.0
 40
-5.0
 40
-4.0
 40
-3.0
 40
-2.0
 40
-1.0
 40
0.0
 40
0.0
 40
0.0
 40
0.0
 10
-8.917168859779984
 20
66.34037889171162
 30
0.0
 10
-8.941306213675094
 20
66.21101361117283
 30
0.0
 10
-8.989547904960448
 20
65.95223822282213
 30
0.0
 10
-9.062850158000291
 20
65.56439620630789
 30
0.0
 10
-9.143506074061435
 20
65.17749579221191
 30
0.0
 10
-9.222477619495288
 20
64.79219112716157
 30
0.0
 10
-9.315146219137278
 20
64.40798106427357
 30
0.0
 10
-9.42158464258628
 20
64.02752981764701
 30
0.0
 10
-9.505569668516364
 20
63.77875553169607
 30
0.0
 10
-9.542959160769433
 20
63.64930897112078
 30
0.0
  0
SPLINE
  5
1A1
330
1F
100
AcDbEntity
  8
Default
100
AcDbSpline
210
0.0
220
0.0
230
1.0
 70
     8
 71
     3
 72
    12
 73
     8
 74
     0
 42
0.0000000001
 43
0.0000000001
 40
-2.841786112680442
 40
-2.841786112680442
 40
-2.841786112680442
 40
-2.841786112680442
 40
-2.33100029786116
 40
-1.730312260355039
 40
-1.006628381189417
 40
-0.5601813325919797
 40
0.0
 40
0.0
 40
0.0
 40
0.0
 10
-9.542959160769433
 20
63.64930897112078
 30
0.0
 10
-9.464691022826145
 20
63.49439224489351
 30
0.0
 10
-9.190938853384008
 20
63.22865755902254
 30
0.0
 10
-8.605142536705927
 20
63.02133566813382
 30
0.0
 10
-8.014622553939585
 20
62.97688328382718
 30
0.0
 10
-7.437670234227297
 20
63.00494779602521
 30
0.0
 10
-7.104275057103315
 20
63.04048434102969
 30
0.0
 10
-6.918726261103044
 20
63.06234337154707
 30
0.0
  0
SPLINE
  5
1A2
330
1F
100
AcDbEntity
  8
Default
100
AcDbSpline
210
0.0
220
0.0
230
1.0
 70
    12
 71
     2
 72
     6
 73
     3
 74
     0
 42
0.0000000001
 43
0.0000000001
 40
-6.88575748835304
 40
-6.88575748835304
 40
-6.88575748835304
 40
0.0
 40
0.0
 40
0.0
 10
-6.918726261103044
 20
63.06234337154707
 30
0.0
 41
1.0
 10
-3.496720773731824
 20
63.46548111208498
 30
0.0
 41
0.9987853380929268
 10
0.0000000008610819
 20
63.49414654920972
 30
0.0
 41
1.0
  0
SPLINE
  5
1A3
330
1F
100
AcDbEntity
  8
Default
100
AcDbSpline
210
0.0
220
0.0
230
1.0
 70
    12
 71
     2
 72
     6
 73
     3
 74
     0
 42
0.0000000001
 43
0.0000000001
 40
0.0
 40
0.0
 40
0.0
 40
6.88575748835304
 40
6.88575748835304
 40
6.88575748835304
 10
0.0000000008610819
 20
63.49414654920972
 30
0.0
 41
1.0
 10
3.496720775453988
 20
63.46548111208498
 30
0.0
 41
0.9987853380929268
 10
6.918726262825207
 20
63.06234337154707
 30
0.0
 41
1.0
  0
SPLINE
  5
1A4
330
1F
100
AcDbEntity
  8
Default
100
AcDbSpline
210
0.0
220
0.0
230
1.0
 70
     8
 71
     3
 72
    12
 73
     8
 74
     0
 42
0.0000000001
 43
0.0000000001
 40
0.0
 40
0.0
 40
0.0
 40
0.0
 40
0.5601813325919797
 40
1.006628381189417
 40
1.730312260355039
 40
2.33100029786116
 40
2.841786112680442
 40
2.841786112680442
 40
2.841786112680442
 40
2.841786112680442
 10
6.918726262825207
 20
63.06234337154707
 30
0.0
 10
7.104275058825479
 20
63.04048434102969
 30
0.0
 10
7.437670235949461
 20
63.00494779602521
 30
0.0
 10
8.014622555661749
 20
62.97688328382718
 30
0.0
 10
8.60514253842809
 20
63.02133566813382
 30
0.0
 10
9.190938855106172
 20
63.22865755902254
 30
0.0
 10
9.464691024548308
 20
63.49439224489351
 30
0.0
 10
9.542959162491597
 20
63.64930897112078
 30
0.0
  0
SPLINE
  5
1A5
330
1F
100
AcDbEntity
  8
Default
100
AcDbSpline
210
0.0
220
0.0
230
1.0
 70
     8
 71
     3
 72
    14
 73
    10
 74
     0
 42
0.0000000001
 43
0.0000000001
 40
0.0
 40
0.0
 40
0.0
 40
0.0
 40
1.0
 40
2.0
 40
3.0
 40
4.0
 40
5.0
 40
6.0
 40
7.0
 40
7.0
 40
7.0
 40
7.0
 10
9.542959162491597
 20
63.64930897112078
 30
0.0
 10
9.505569670238527
 20
63.77875553169607
 30
0.0
 10
9.421584644308444
 20
64.02752981764701
 30
0.0
 10
9.315146220859441
 20
64.40798106427357
 30
0.0
 10
9.222477621217452
 20
64.79219112716157
 30
0.0
 10
9.143506075783598
 20
65.17749579221191
 30
0.0
 10
9.062850159722455
 20
65.56439620630789
 30
0.0
 10
8.989547906682612
 20
65.95223822282213
 30
0.0
 10
8.941306215397258
 20
66.21101361117283
 30
0.0
 10
8.917168861502148
 20
66.34037889171162
 30
0.0
  0
SPLINE
  5
1A6
330
1F
100
AcDbEntity
  8
Default
100
AcDbSpline
210
0.0
220
0.0
230
1.0
 70
     8
 71
     3
 72
    13
 73
     9
 74
     0
 42
0.0000000001
 43
0.0000000001
 40
-3.452832494218632
 40
-3.452832494218632
 40
-3.452832494218632
 40
-3.452832494218632
 40
-2.900762073900839
 40
-2.788163095648862
 40
-2.457683809125602
 40
-2.203368228823596
 40
-1.674929523489223
 40
0.0
 40
0.0
 40
0.0
 40
0.0
 10
8.917168861502148
 20
66.34037889171162
 30
0.0
 10
8.882542386841479
 20
66.52596110706187
 30
0.0
 10
8.8469416056132
 20
66.7369247408385
 30
0.0
 10
8.776320666050534
 20
67.07079472113247
 30
0.0
 10
8.577720295354013
 20
67.22312843067087
 30
0.0
 10
8.209109946270154
 20
67.27862482649743
 30
0.0
 10
7.395027903174021
 20
67.36470894530154
 30
0.0
 10
6.658589025769341
 20
67.36348530822343
 30
0.0
 10
6.100879776201587
 20
67.38189094992748
 30
0.0
  0
SPLINE
  5
1A7
330
1F
100
AcDbEntity
  8
Default
100
AcDbSpline
210
0.0
220
0.0
230
1.0
 70
    12
 71
     2
 72
     6
 73
     3
 74
     0
 42
0.0000000001
 43
0.0000000001
 40
-6.101722152267229
 40
-6.101722152267229
 40
-6.101722152267229
 40
0.0
 40
0.0
 40
0.0
 10
6.100879776201587
 20
67.38189094992748
 30
0.0
 41
1.0
 10
3.051140853104133
 20
67.48253909580801
 30
0.0
 41
0.9997354533728051
 10
0.0000000008610819
 20
67.44282678889832
 30
0.0
 41
1.0
  0
SPLINE
  5
1A8
330
1F
100
AcDbEntity
  8
Default
100
AcDbSpline
210
0.0
220
0.0
230
1.0
 70
    12
 71
     2
 72
     6
 73
     3
 74
     0
 42
0.0000000001
 43
0.0000000001
 40
0.0
 40
0.0
 40
0.0
 40
6.101722152267229
 40
6.101722152267229
 40
6.101722152267229
 10
0.0000000008610819
 20
67.44282678889832
 30
0.0
 41
1.0
 10
-3.051140851381969
 20
67.48253909580801
 30
0.0
 41
0.9997354533728051
 10
-6.100879774479424
 20
67.38189094992748
 30
0.0
 41
1.0
  0
SPLINE
  5
1A9
330
1F
100
AcDbEntity
  8
Default
100
AcDbSpline
210
0.0
220
0.0
230
1.0
 70
     8
 71
     3
 72
    28
 73
    24
 74
     0
 42
0.0000000001
 43
0.0000000001
 40
0.0
 40
0.0
 40
0.0
 40
0.0
 40
1.000000000032454
 40
2.000000000064908
 40
3.000000000097362
 40
4.000000000129816
 40
5.00000000016227
 40
6.000000000194724
 40
7.000000000227178
 40
8.000000000259632
 40
9.000000000292086
 40
10.00000000032454
 40
11.00000000035699
 40
12.00000000038945
 40
13.0000000004219
 40
14.00000000045436
 40
15.00000000048681
 40
16.00000000051926
 40
17.00000000055172
 40
18.00000000058417
 40
19.00000000061663
 40
20.00000000064908
 40
21.0
 40
21.0
 40
21.0
 40
21.0
 10
9.561933681146986
 20
64.24930553544507
 30
0.0
 10
9.609035536712513
 20
63.83083859604644
 30
0.0
 10
9.68822738591701
 20
62.9920451449857
 30
0.0
 10
9.74855351950187
 20
61.72993109315959
 30
0.0
 10
9.781198875970503
 20
60.46694405776926
 30
0.0
 10
9.815864642773747
 20
59.20403009832162
 30
0.0
 10
9.837634805482658
 20
57.94081297055828
 30
0.0
 10
9.852208625765813
 20
56.67750472430394
 30
0.0
 10
9.858058033462362
 20
55.41412022953095
 30
0.0
 10
9.85608834989
 20
54.15073266000461
 30
0.0
 10
9.844182942145554
 20
52.88735943156849
 30
0.0
 10
9.829420247943565
 20
51.62419381228293
 30
0.0
 10
9.76438103443732
 20
50.36117492118191
 30
0.0
 10
9.687453192410764
 20
49.10485302347957
 30
0.0
 10
9.547672998505522
 20
47.83020067650724
 30
0.0
 10
8.749888182089716
 20
46.77046304421851
 30
0.0
 10
7.491861435354149
 20
46.42836688919179
 30
0.0
 10
6.272865362433442
 20
46.14002141258333
 30
0.0
 10
5.030862354552299
 20
45.89148200920167
 30
0.0
 10
3.781708884716576
 20
45.70523034957255
 30
0.0
 10
2.524849766927218
 20
45.57217777662505
 30
0.0
 10
1.263489414242355
 20
45.4959996171773
 30
0.0
 10
0.4211201401491964
 20
45.48249279703109
 30
0.0
 10
0.0
 20
45.48516064608813
 30
0.0
  0
SPLINE
  5
1AA
330
1F
100
AcDbEntity
  8
Default
100
AcDbSpline
210
0.0
220
0.0
230
1.0
 70
     8
 71
     3
 72
    28
 73
    24
 74
     0
 42
0.0000000001
 43
0.0000000001
 40
-21.0
 40
-21.0
 40
-21.0
 40
-21.0
 40
-20.00000000064908
 40
-19.00000000061663
 40
-18.00000000058417
 40
-17.00000000055172
 40
-16.00000000051926
 40
-15.00000000048681
 40
-14.00000000045436
 40
-13.0000000004219
 40
-12.00000000038945
 40
-11.00000000035699
 40
-10.00000000032454
 40
-9.000000000292086
 40
-8.000000000259632
 40
-7.000000000227178
 40
-6.000000000194724
 40
-5.00000000016227
 40
-4.000000000129816
 40
-3.000000000097362
 40
-2.000000000064908
 40
-1.000000000032454
 40
0.0
 40
0.0
 40
0.0
 40
0.0
 10
0.0
 20
45.48516064608813
 30
0.0
 10
-0.4211201401491964
 20
45.48249279703109
 30
0.0
 10
-1.263489414242355
 20
45.4959996171773
 30
0.0
 10
-2.524849766927218
 20
45.57217777662505
 30
0.0
 10
-3.781708884716576
 20
45.70523034957255
 30
0.0
 10
-5.030862354552299
 20
45.89148200920167
 30
0.0
 10
-6.272865362433442
 20
46.14002141258333
 30
0.0
 10
-7.491861435354149
 20
46.42836688919179
 30
0.0
 10
-8.749888182089716
 20
46.77046304421851
 30
0.0
 10
-9.547672998505522
 20
47.83020067650724
 30
0.0
 10
-9.687453192410764
 20
49.10485302347957
 30
0.0
 10
-9.76438103443732
 20
50.36117492118191
 30
0.0
 10
-9.829420247943565
 20
51.62419381228293
 30
0.0
 10
-9.844182942145554
 20
52.88735943156849
 30
0.0
 10
-9.85608834989
 20
54.15073266000461
 30
0.0
 10
-9.858058033462362
 20
55.41412022953095
 30
0.0
 10
-9.852208625765813
 20
56.67750472430394
 30
0.0
 10
-9.837634805482658
 20
57.94081297055828
 30
0.0
 10
-9.815864642773747
 20
59.20403009832162
 30
0.0
 10
-9.781198875970503
 20
60.46694405776926
 30
0.0
 10
-9.74855351950187
 20
61.72993109315959
 30
0.0
 10
-9.68822738591701
 20
62.9920451449857
 30
0.0
 10
-9.609035536712513
 20
63.83083859604644
 30
0.0
 10
-9.561933681146986
 20
64.24930553544507
 30
0.0
  0
SPLINE
  5
1AB
330
1F
100
AcDbEntity
  8
Default
100
AcDbSpline
210
0.0
220
0.0
230
1.0
 70
     8
 71
     3
 72
    24
 73
    20
 74
     0
 42
0.0000000001
 43
0.0000000001
 40
-17.0
 40
-17.0
 40
-17.0
 40
-17.0
 40
-16.0
 40
-15.0
 40
-14.0
 40
-13.0
 40
-12.0
 40
-11.0
 40
-10.0
 40
-9.0
 40
-8.0
 40
-7.0
 40
-6.0
 40
-5.0
 40
-4.0
 40
-3.0
 40
-2.0
 40
-1.0
 40
0.0
 40
0.0
 40
0.0
 40
0.0
 10
-0.5165949037492155
 20
45.4941947473763
 30
0.0
 10
-0.5148017455537252
 20
45.48058911114254
 30
0.0
 10
-0.5108538680563187
 20
45.45341669234367
 30
0.0
 10
-0.5033015335726709
 20
45.41294824648388
 30
0.0
 10
-0.4944405819925811
 20
45.37278254207102
 30
0.0
 10
-0.4805466950202303
 20
45.33380214356605
 30
0.0
 10
-0.4580717973681526
 20
45.29881370437078
 30
0.0
 10
-0.4254004996225236
 20
45.27316273256312
 30
0.0
 10
-0.3885902829828368
 20
45.25454623966129
 30
0.0
 10
-0.3517514038117355
 20
45.23619751509093
 30
0.0
 10
-0.314069066462069
 20
45.21956719798318
 30
0.0
 10
-0.2759571422044836
 20
45.20398504803004
 30
0.0
 10
-0.2374334267320219
 20
45.18944957394994
 30
0.0
 10
-0.1986188392312393
 20
45.17568689034905
 30
0.0
 10
-0.1594541046011494
 20
45.16304590064656
 30
0.0
 10
-0.1217571704362713
 20
45.14629505651926
 30
0.0
 10
-0.0818136564790121
 20
45.13583362576461
 30
0.0
 10
-0.0411788393107509
 20
45.12903265975276
 30
0.0
 10
-0.0137218559495162
 20
45.12750141807633
 30
0.0
 10
-0.0000001223388644
 20
45.1274362635417
 30
0.0
  0
SPLINE
  5
1AC
330
1F
100
AcDbEntity
  8
Default
100
AcDbSpline
210
0.0
220
0.0
230
1.0
 70
     8
 71
     3
 72
    24
 73
    20
 74
     0
 42
0.0000000001
 43
0.0000000001
 40
0.0
 40
0.0
 40
0.0
 40
0.0
 40
1.0
 40
2.0
 40
3.0
 40
4.0
 40
5.0
 40
6.0
 40
7.0
 40
8.0
 40
9.0
 40
10.0
 40
11.0
 40
12.0
 40
13.0
 40
14.0
 40
15.0
 40
16.0
 40
17.0
 40
17.0
 40
17.0
 40
17.0
 10
-0.0000001223388644
 20
45.1274362635417
 30
0.0
 10
0.0137216112717874
 20
45.12750141807633
 30
0.0
 10
0.0411785946330222
 20
45.12903265975276
 30
0.0
 10
0.0818134118012834
 20
45.13583362576461
 30
0.0
 10
0.1217569257585426
 20
45.14629505651926
 30
0.0
 10
0.1594538599234207
 20
45.16304590064656
 30
0.0
 10
0.1986185945535105
 20
45.17568689034905
 30
0.0
 10
0.2374331820542932
 20
45.18944957394994
 30
0.0
 10
0.2759568975267549
 20
45.20398504803004
 30
0.0
 10
0.3140688217843403
 20
45.21956719798318
 30
0.0
 10
0.3517511591340067
 20
45.23619751509093
 30
0.0
 10
0.3885900383051081
 20
45.25454623966129
 30
0.0
 10
0.4254002549447948
 20
45.27316273256312
 30
0.0
 10
0.4580715526904238
 20
45.29881370437078
 30
0.0
 10
0.4805464503425015
 20
45.33380214356605
 30
0.0
 10
0.4944403373148524
 20
45.37278254207102
 30
0.0
 10
0.5033012888949422
 20
45.41294824648388
 30
0.0
 10
0.51085362337859
 20
45.45341669234367
 30
0.0
 10
0.5148015008759964
 20
45.48058911114254
 30
0.0
 10
0.5165946590714867
 20
45.4941947473763
 30
0.0
  0
LINE
  5
1AD
330
1F
100
AcDbEntity
  8
Default
100
AcDbLine
 10
0.41949975446121
 20
45.27111719053681
 30
0.0
 11
0.41949975446121
 21
45.14675016511225
 31
0.0
  0
SPLINE
  5
1AE
330
1F
100
AcDbEntity
  8
Default
100
AcDbSpline
210
0.0
220
0.0
230
1.0
 70
    24
 71
     2
 72
     6
 73
     3
 74
     0
 42
0.0000000001
 43
0.0000000001
 40
-0.3805000000000014
 40
-0.3805000000000014
 40
-0.3805000000000014
 40
0.0
 40
0.0
 40
0.0
 10
0.41949975446121
 20
45.14675016511225
 30
0.0
 10
0.6097497544612107
 20
45.14675016511225
 30
0.0
 10
0.7999997544612114
 20
45.14675016511225
 30
0.0
  0
SPLINE
  5
1AF
330
1F
100
AcDbEntity
  8
Default
100
AcDbSpline
210
0.0
220
0.0
230
1.0
 70
    12
 71
     2
 72
     6
 73
     3
 74
     0
 42
0.0000000001
 43
0.0000000001
 40
0.0
 40
0.0
 40
0.0
 40
0.314159265358985
 40
0.314159265358985
 40
0.314159265358985
 10
0.7999997544612114
 20
45.14675016511225
 30
0.0
 41
1.0
 10
0.99999975446122
 20
45.14675016511224
 30
0.0
 41
0.7071067811865256
 10
0.9999997544612116
 20
45.34675016511225
 30
0.0
 41
1.0
  0
SPLINE
  5
1B0
330
1F
100
AcDbEntity
  8
Default
100
AcDbSpline
210
0.0
220
0.0
230
1.0
 70
    24
 71
     2
 72
     6
 73
     3
 74
     0
 42
0.0000000001
 43
0.0000000001
 40
0.0
 40
0.0
 40
0.0
 40
0.152332669897163
 40
0.152332669897163
 40
0.152332669897163
 10
0.9999997544612116
 20
45.34675016511225
 30
0.0
 10
0.9999997544612103
 20
45.42291650006084
 30
0.0
 10
0.9999997544612089
 20
45.49908283500942
 30
0.0
  0
LINE
  5
1B1
330
1F
100
AcDbEntity
  8
Default
100
AcDbLine
 10
-0.4194999991389388
 20
45.27111719053681
 30
0.0
 11
-0.4194999991389388
 21
45.14675016511225
 31
0.0
  0
SPLINE
  5
1B2
330
1F
100
AcDbEntity
  8
Default
100
AcDbSpline
210
0.0
220
0.0
230
1.0
 70
    24
 71
     2
 72
     6
 73
     3
 74
     0
 42
0.0000000001
 43
0.0000000001
 40
-0.3805000000000014
 40
-0.3805000000000014
 40
-0.3805000000000014
 40
0.0
 40
0.0
 40
0.0
 10
-0.4194999991389388
 20
45.14675016511225
 30
0.0
 10
-0.6097499991389395
 20
45.14675016511225
 30
0.0
 10
-0.7999999991389402
 20
45.14675016511225
 30
0.0
  0
SPLINE
  5
1B3
330
1F
100
AcDbEntity
  8
Default
100
AcDbSpline
210
0.0
220
0.0
230
1.0
 70
    12
 71
     2
 72
     6
 73
     3
 74
     0
 42
0.0000000001
 43
0.0000000001
 40
0.0
 40
0.0
 40
0.0
 40
0.314159265358985
 40
0.314159265358985
 40
0.314159265358985
 10
-0.7999999991389402
 20
45.14675016511225
 30
0.0
 41
1.0
 10
-0.9999999991389488
 20
45.14675016511224
 30
0.0
 41
0.7071067811865256
 10
-0.9999999991389403
 20
45.34675016511225
 30
0.0
 41
1.0
  0
SPLINE
  5
1B4
330
1F
100
AcDbEntity
  8
Default
100
AcDbSpline
210
0.0
220
0.0
230
1.0
 70
    24
 71
     2
 72
     6
 73
     3
 74
     0
 42
0.0000000001
 43
0.0000000001
 40
0.0
 40
0.0
 40
0.0
 40
0.152332669897163
 40
0.152332669897163
 40
0.152332669897163
 10
-0.9999999991389403
 20
45.34675016511225
 30
0.0
 10
-0.999999999138939
 20
45.42291650006084
 30
0.0
 10
-0.9999999991389377
 20
45.49908283500942
 30
0.0
  0
LINE
  5
1B5
330
1F
100
AcDbEntity
  8
Default
100
AcDbLine
 10
10.18824863508571
 20
57.11865491822649
 30
0.0
 11
10.02188210229766
 21
56.10873015164038
 31
0.0
  0
ARC
  5
1B6
330
1F
100
AcDbEntity
  8
Default
100
AcDbCircle
 10
9.826834980717967
 20
56.25952431811381
 30
0.0
 40
0.2465405854599642
100
AcDbArc
 50
276.5442867473606
 51
322.2917953420088
  0
LINE
  5
1B7
330
1F
100
AcDbEntity
  8
Default
100
AcDbLine
 10
-10.18824863508571
 20
57.11865491822649
 30
0.0
 11
-10.02188210229766
 21
56.10873015164038
 31
0.0
  0
ARC
  5
1B8
330
1F
100
AcDbEntity
  8
Default
100
AcDbCircle
 10
-9.826834980717967
 20
56.25952431811381
 30
0.0
 40
0.2465405854599642
100
AcDbArc
 50
217.7082046579912
 51
263.4557132526394
  0
SPLINE
  5
1B9
330
1F
100
AcDbEntity
  8
Default
100
AcDbSpline
210
0.0
220
0.0
230
1.0
 70
     8
 71
     3
 72
    10
 73
     6
 74
     0
 42
0.0000000001
 43
0.0000000001
 40
-0.9734267581108843
 40
-0.9734267581108843
 40
-0.9734267581108843
 40
-0.9734267581108843
 40
-0.499923794646946
 40
-0.499923794646946
 40
-0.0143046903051701
 40
-0.0143046903051701
 40
-0.0143046903051701
 40
-0.0143046903051701
 10
9.85654121411412
 20
54.70120138895629
 30
0.0
 10
10.03129612619429
 20
54.72460387568356
 30
0.0
 10
10.09398109975866
 20
54.73420241633124
 30
0.0
 10
10.18022038076091
 20
54.75683290714543
 30
0.0
 10
10.21864616739517
 20
54.76658090991106
 30
0.0
 10
10.22563188107472
 20
54.79856787745155
 30
0.0
  0
SPLINE
  5
1BA
330
1F
100
AcDbEntity
  8
Default
100
AcDbSpline
210
0.0
220
0.0
230
1.0
 70
    12
 71
     2
 72
     6
 73
     3
 74
     0
 42
0.0000000001
 43
0.0000000001
 40
-0.2401652800100547
 40
-0.2401652800100547
 40
-0.2401652800100547
 40
0.0
 40
0.0
 40
0.0
 10
10.22563188107472
 20
54.79856787745155
 30
0.0
 41
1.0
 10
10.24872342223174
 20
54.91640962006735
 30
0.0
 41
0.9999971318189055
 10
10.27237917498016
 20
55.0341393993827
 30
0.0
 41
1.0
  0
ARC
  5
1BB
330
1F
100
AcDbEntity
  8
Default
100
AcDbCircle
 10
9.620276180192656
 20
58.22341446881402
 30
0.0
 40
3.633574279353966
100
AcDbArc
 50
273.7240338100743
 51
280.5951242002684
  0
SPLINE
  5
1BC
330
1F
100
AcDbEntity
  8
Default
100
AcDbSpline
210
0.0
220
0.0
230
1.0
 70
     8
 71
     3
 72
    10
 73
     6
 74
     0
 42
0.0000000001
 43
0.0000000001
 40
-0.9734267581108843
 40
-0.9734267581108843
 40
-0.9734267581108843
 40
-0.9734267581108843
 40
-0.499923794646946
 40
-0.499923794646946
 40
-0.0143046903051701
 40
-0.0143046903051701
 40
-0.0143046903051701
 40
-0.0143046903051701
 10
-9.85654121411412
 20
54.70120138895629
 30
0.0
 10
-10.03129612619429
 20
54.72460387568356
 30
0.0
 10
-10.09398109975866
 20
54.73420241633124
 30
0.0
 10
-10.18022038076091
 20
54.75683290714543
 30
0.0
 10
-10.21864616739517
 20
54.76658090991106
 30
0.0
 10
-10.22563188107472
 20
54.79856787745155
 30
0.0
  0
SPLINE
  5
1BD
330
1F
100
AcDbEntity
  8
Default
100
AcDbSpline
210
0.0
220
0.0
230
1.0
 70
    12
 71
     2
 72
     6
 73
     3
 74
     0
 42
0.0000000001
 43
0.0000000001
 40
-0.2401652800100547
 40
-0.2401652800100547
 40
-0.2401652800100547
 40
0.0
 40
0.0
 40
0.0
 10
-10.22563188107472
 20
54.79856787745155
 30
0.0
 41
1.0
 10
-10.24872342223174
 20
54.91640962006735
 30
0.0
 41
0.9999971318189055
 10
-10.27237917498016
 20
55.0341393993827
 30
0.0
 41
1.0
  0
ARC
  5
1BE
330
1F
100
AcDbEntity
  8
Default
100
AcDbCircle
 10
-9.620276180192656
 20
58.22341446881402
 30
0.0
 40
3.633574279353966
100
AcDbArc
 50
259.4048757997315
 51
266.2759661899257
  0
SPLINE
  5
1BF
330
1F
100
AcDbEntity
  8
Default
100
AcDbSpline
210
0.0
220
0.0
230
1.0
 70
     8
 71
     3
 72
    29
 73
    25
 74
     0
 42
0.0000000001
 43
0.0000000001
 40
0.0
 40
0.0
 40
0.0
 40
0.0
 40
1.0
 40
2.0
 40
3.0
 40
4.0
 40
5.0
 40
6.0
 40
7.0
 40
8.0
 40
9.0
 40
10.0
 40
11.0
 40
12.0
 40
13.0
 40
14.0
 40
15.0
 40
16.0
 40
17.0
 40
18.0
 40
19.0
 40
20.0
 40
21.0
 40
22.0
 40
22.0
 40
22.0
 40
22.0
 10
9.535453201707332
 20
16.11405447390687
 30
0.0
 10
9.535391017705871
 20
16.38143888712898
 30
0.0
 10
9.53529667427943
 20
16.91620713773413
 30
0.0
 10
9.53568046641604
 20
17.71836277381846
 30
0.0
 10
9.535485924096882
 20
18.52050859704992
 30
0.0
 10
9.53884304848199
 20
19.32268745933295
 30
0.0
 10
9.540263286071228
 20
20.12469259533479
 30
0.0
 10
9.539459154583037
 20
20.92740487765361
 30
0.0
 10
9.542116098814288
 20
21.7274691697841
 30
0.0
 10
9.539022879531819
 20
22.53018744300143
 30
0.0
 10
9.544507408875806
 20
23.33216346718775
 30
0.0
 10
9.541744596458699
 20
24.13438932504032
 30
0.0
 10
9.524104163898674
 20
24.93636002805451
 30
0.0
 10
9.485703240476175
 20
25.7376727521771
 30
0.0
 10
9.432073233838663
 20
26.53803551838377
 30
0.0
 10
9.37528483219235
 20
27.33817626235392
 30
0.0
 10
9.316425875810108
 20
28.13816908951236
 30
0.0
 10
9.26100629417238
 20
28.93840246084162
 30
0.0
 10
9.202651355080278
 20
29.73843436541719
 30
0.0
 10
9.146609208352313
 20
30.53861554189489
 30
0.0
 10
9.089581001451087
 20
31.33874305413134
 30
0.0
 10
9.030879575527978
 20
32.13874477465429
 30
0.0
 10
8.974374734926599
 20
32.93890649902725
 30
0.0
 10
8.93649303004999
 20
33.47233125867778
 30
0.0
 10
8.9171688597801
 20
33.74385886349049
 30
0.0
  0
SPLINE
  5
1C0
330
1F
100
AcDbEntity
  8
Default
100
AcDbSpline
210
0.0
220
0.0
230
1.0
 70
     8
 71
     3
 72
    13
 73
     9
 74
     0
 42
0.0000000001
 43
0.0000000001
 40
-4.812946811709232
 40
-4.812946811709232
 40
-4.812946811709232
 40
-4.812946811709232
 40
-3.367180593128783
 40
-3.025540330333921
 40
-2.48067070841305
 40
-2.233533827462394
 40
-1.941327661363471
 40
0.0
 40
0.0
 40
0.0
 40
0.0
 10
8.9171688597801
 20
33.74385886349049
 30
0.0
 10
8.86977457480947
 20
34.22709082962928
 30
0.0
 10
8.842328890937955
 20
34.82626745173226
 30
0.0
 10
8.782462132589352
 20
35.5961992894407
 30
0.0
 10
8.659530146703844
 20
35.97550580533327
 30
0.0
 10
8.316105771214056
 20
36.14996129439931
 30
0.0
 10
7.495966096841402
 20
36.22040971980292
 30
0.0
 10
6.746122884486415
 20
36.16172265356705
 30
0.0
 10
6.100879774479577
 20
36.18308883356178
 30
0.0
  0
POLYLINE
  5
1C1
330
1F
100
AcDbEntity
  8
Default
100
AcDb2dPolyline
 66
     1
 10
0.0
 20
0.0
 30
0.0
  0
VERTEX
  5
1C2
330
1C1
100
AcDbEntity
  8
Default
100
AcDbVertex
100
AcDb2dVertex
 10
6.100879774479577
 20
36.18308883356178
 30
0.0
  0
VERTEX
  5
1C3
330
1C1
100
AcDbEntity
  8
Default
100
AcDbVertex
100
AcDb2dVertex
 10
0.0000000000000005
 20
36.18308883356178
 30
0.0
  0
SEQEND
  5
1C4
330
1C1
100
AcDbEntity
  8
Default
  0
POLYLINE
  5
1C5
330
1F
100
AcDbEntity
  8
Default
100
AcDb2dPolyline
 66
     1
 10
0.0
 20
0.0
 30
0.0
  0
VERTEX
  5
1C6
330
1C5
100
AcDbEntity
  8
Default
100
AcDbVertex
100
AcDb2dVertex
 10
0.0000000000000005
 20
36.18308883356178
 30
0.0
  0
VERTEX
  5
1C7
330
1C5
100
AcDbEntity
  8
Default
100
AcDbVertex
100
AcDb2dVertex
 10
-6.100879774479576
 20
36.18308883356178
 30
0.0
  0
SEQEND
  5
1C8
330
1C5
100
AcDbEntity
  8
Default
  0
SPLINE
  5
1C9
330
1F
100
AcDbEntity
  8
Default
100
AcDbSpline
210
0.0
220
0.0
230
1.0
 70
     8
 71
     3
 72
    13
 73
     9
 74
     0
 42
0.0000000001
 43
0.0000000001
 40
0.0
 40
0.0
 40
0.0
 40
0.0
 40
1.941327661363471
 40
2.233533827462394
 40
2.48067070841305
 40
3.025540330333921
 40
3.367180593128783
 40
4.812946811709232
 40
4.812946811709232
 40
4.812946811709232
 40
4.812946811709232
 10
-6.100879774479576
 20
36.18308883356178
 30
0.0
 10
-6.746122884486414
 20
36.16172265356706
 30
0.0
 10
-7.495966096841401
 20
36.22040971980292
 30
0.0
 10
-8.316105771214055
 20
36.14996129439932
 30
0.0
 10
-8.659530146703844
 20
35.97550580533328
 30
0.0
 10
-8.782462132589352
 20
35.5961992894407
 30
0.0
 10
-8.842328890937955
 20
34.82626745173227
 30
0.0
 10
-8.869774574809473
 20
34.22709082962928
 30
0.0
 10
-8.917168859780102
 20
33.7438588634905
 30
0.0
  0
SPLINE
  5
1CA
330
1F
100
AcDbEntity
  8
Default
100
AcDbSpline
210
0.0
220
0.0
230
1.0
 70
     8
 71
     3
 72
    29
 73
    25
 74
     0
 42
0.0000000001
 43
0.0000000001
 40
-22.0
 40
-22.0
 40
-22.0
 40
-22.0
 40
-21.0
 40
-20.0
 40
-19.0
 40
-18.0
 40
-17.0
 40
-16.0
 40
-15.0
 40
-14.0
 40
-13.0
 40
-12.0
 40
-11.0
 40
-10.0
 40
-9.0
 40
-8.0
 40
-7.0
 40
-6.0
 40
-5.0
 40
-4.0
 40
-3.0
 40
-2.0
 40
-1.0
 40
0.0
 40
0.0
 40
0.0
 40
0.0
 10
-8.917168859780102
 20
33.7438588634905
 30
0.0
 10
-8.936493030049991
 20
33.47233125867779
 30
0.0
 10
-8.9743747349266
 20
32.93890649902725
 30
0.0
 10
-9.030879575527981
 20
32.1387447746543
 30
0.0
 10
-9.08958100145109
 20
31.33874305413135
 30
0.0
 10
-9.146609208352318
 20
30.5386155418949
 30
0.0
 10
-9.202651355080283
 20
29.7384343654172
 30
0.0
 10
-9.261006294172388
 20
28.93840246084163
 30
0.0
 10
-9.316425875810115
 20
28.13816908951237
 30
0.0
 10
-9.375284832192358
 20
27.33817626235393
 30
0.0
 10
-9.432073233838672
 20
26.53803551838378
 30
0.0
 10
-9.485703240476186
 20
25.73767275217712
 30
0.0
 10
-9.524104163898684
 20
24.93636002805452
 30
0.0
 10
-9.541744596458711
 20
24.13438932504033
 30
0.0
 10
-9.544507408875818
 20
23.33216346718776
 30
0.0
 10
-9.539022879531831
 20
22.53018744300144
 30
0.0
 10
-9.542116098814303
 20
21.72746916978411
 30
0.0
 10
-9.539459154583051
 20
20.92740487765362
 30
0.0
 10
-9.540263286071244
 20
20.1246925953348
 30
0.0
 10
-9.538843048482006
 20
19.32268745933296
 30
0.0
 10
-9.5354859240969
 20
18.52050859704993
 30
0.0
 10
-9.535680466416057
 20
17.71836277381847
 30
0.0
 10
-9.535296674279449
 20
16.91620713773414
 30
0.0
 10
-9.53539101770589
 20
16.38143888712899
 30
0.0
 10
-9.535453201707352
 20
16.11405447390688
 30
0.0
  0
SPLINE
  5
1CB
330
1F
100
AcDbEntity
  8
Default
100
AcDbSpline
210
0.0
220
0.0
230
1.0
 70
    12
 71
     2
 72
     6
 73
     3
 74
     0
 42
0.0000000001
 43
0.0000000001
 40
0.0
 40
0.0
 40
0.0
 40
0.0548860266366301
 40
0.0548860266366301
 40
0.0548860266366301
 10
9.804216856047887
 20
15.28213458076315
 30
0.0
 41
1.0
 10
9.82596831375432
 20
15.30153049347111
 30
0.0
 41
0.9147443831885206
 10
9.826281284209555
 20
15.330672034124
 30
0.0
 41
1.0
  0
SPLINE
  5
1CC
330
1F
100
AcDbEntity
  8
Default
100
AcDbSpline
210
0.0
220
0.0
230
1.0
 70
     8
 71
     3
 72
    19
 73
    15
 74
     0
 42
0.0000000001
 43
0.0000000001
 40
0.0
 40
0.0
 40
0.0
 40
0.0
 40
1.0
 40
2.0
 40
3.0
 40
4.0
 40
5.0
 40
6.0
 40
7.0
 40
8.0
 40
9.0
 40
10.0
 40
11.0
 40
12.0
 40
12.0
 40
12.0
 40
12.0
 10
9.826281284209555
 20
15.330672034124
 30
0.0
 10
9.826482955773448
 20
15.62951392068482
 30
0.0
 10
9.559177463150492
 20
16.1906362350548
 30
0.0
 10
8.803183004451883
 20
16.69059243200351
 30
0.0
 10
7.943943227722844
 20
16.92032068528298
 30
0.0
 10
7.071673042588532
 20
17.07134531770572
 30
0.0
 10
6.194065990044604
 20
17.19088307344128
 30
0.0
 10
5.311977212176758
 20
17.27115812187674
 30
0.0
 10
4.427099154205969
 20
17.30809985203284
 30
0.0
 10
3.541682768189916
 20
17.31944827936372
 30
0.0
 10
2.656307723510971
 20
17.33175355958496
 30
0.0
 10
1.770896309980154
 20
17.34181687611558
 30
0.0
 10
0.8854610227948936
 20
17.34938381025009
 30
0.0
 10
0.2951550215730412
 20
17.35206265068749
 30
0.0
 10
0.0000000008609238
 20
17.3526770476011
 30
0.0
  0
SPLINE
  5
1CD
330
1F
100
AcDbEntity
  8
Default
100
AcDbSpline
210
0.0
220
0.0
230
1.0
 70
     8
 71
     3
 72
    19
 73
    15
 74
     0
 42
0.0000000001
 43
0.0000000001
 40
-12.0
 40
-12.0
 40
-12.0
 40
-12.0
 40
-11.0
 40
-10.0
 40
-9.0
 40
-8.0
 40
-7.0
 40
-6.0
 40
-5.0
 40
-4.0
 40
-3.0
 40
-2.0
 40
-1.0
 40
0.0
 40
0.0
 40
0.0
 40
0.0
 10
0.0000000008609238
 20
17.3526770476011
 30
0.0
 10
-0.2951550198511936
 20
17.35206265068749
 30
0.0
 10
-0.885461021073046
 20
17.34938381025009
 30
0.0
 10
-1.770896308258307
 20
17.34181687611558
 30
0.0
 10
-2.656307721789123
 20
17.33175355958496
 30
0.0
 10
-3.541682766468068
 20
17.31944827936372
 30
0.0
 10
-4.427099152484121
 20
17.30809985203284
 30
0.0
 10
-5.31197721045491
 20
17.27115812187674
 30
0.0
 10
-6.194065988322756
 20
17.19088307344128
 30
0.0
 10
-7.071673040866685
 20
17.07134531770572
 30
0.0
 10
-7.943943226000997
 20
16.92032068528298
 30
0.0
 10
-8.803183002730036
 20
16.69059243200351
 30
0.0
 10
-9.559177461428645
 20
16.1906362350548
 30
0.0
 10
-9.8264829540516
 20
15.62951392068482
 30
0.0
 10
-9.826281282487724
 20
15.330672034124
 30
0.0
  0
SPLINE
  5
1CE
330
1F
100
AcDbEntity
  8
Default
100
AcDbSpline
210
0.0
220
0.0
230
1.0
 70
    12
 71
     2
 72
     6
 73
     3
 74
     0
 42
0.0000000001
 43
0.0000000001
 40
-0.0548860266366301
 40
-0.0548860266366301
 40
-0.0548860266366301
 40
0.0
 40
0.0
 40
0.0
 10
-9.826281282487724
 20
15.330672034124
 30
0.0
 41
1.0
 10
-9.825968312032504
 20
15.30153049347111
 30
0.0
 41
0.9147443831885206
 10
-9.804216854326071
 20
15.28213458076315
 30
0.0
 41
1.0
  0
ARC
  5
1CF
330
1F
100
AcDbEntity
  8
Default
100
AcDbCircle
 10
9.337867597783264
 20
15.01811394142794
 30
0.0
 40
0.5358997375245989
100
AcDbArc
 50
5.413659357927956
 51
29.51609128932832
  0
SPLINE
  5
1D0
330
1F
100
AcDbEntity
  8
Default
100
AcDbSpline
210
0.0
220
0.0
230
1.0
 70
     8
 71
     3
 72
    19
 73
    15
 74
     0
 42
0.0000000001
 43
0.0000000001
 40
0.0
 40
0.0
 40
0.0
 40
0.0
 40
1.0
 40
2.0
 40
3.0
 40
4.0
 40
5.0
 40
6.0
 40
7.0
 40
8.0
 40
9.0
 40
10.0
 40
11.0
 40
12.0
 40
12.0
 40
12.0
 40
12.0
 10
9.804216856047887
 20
15.28213458076315
 30
0.0
 10
9.652080540815266
 20
15.55085848788833
 30
0.0
 10
9.050796715431146
 20
15.52939908964041
 30
0.0
 10
8.24762629068507
 20
15.49105016942476
 30
0.0
 10
7.418803362746401
 20
15.43821441177284
 30
0.0
 10
6.596562491979328
 20
15.39423512381693
 30
0.0
 10
5.772093542093873
 20
15.35705531156464
 30
0.0
 10
4.948089781136905
 20
15.32082238709557
 30
0.0
 10
4.123675276420369
 20
15.2914042566712
 30
0.0
 10
3.299159595947325
 20
15.26628434622414
 30
0.0
 10
2.474495542532891
 20
15.24613810973002
 30
0.0
 10
1.649731672123307
 20
15.23078544271135
 30
0.0
 10
0.8248912257630181
 20
15.2202754768249
 30
0.0
 10
0.2749657344917654
 20
15.21648846068637
 30
0.0
 10
0.0000000008609078
 20
15.21540086872417
 30
0.0
  0
SPLINE
  5
1D1
330
1F
100
AcDbEntity
  8
Default
100
AcDbSpline
210
0.0
220
0.0
230
1.0
 70
     8
 71
     3
 72
    19
 73
    15
 74
     0
 42
0.0000000001
 43
0.0000000001
 40
12.0
 40
12.0
 40
12.0
 40
12.0
 40
13.0
 40
14.0
 40
15.0
 40
16.0
 40
17.0
 40
18.0
 40
19.0
 40
20.0
 40
21.0
 40
22.0
 40
23.0
 40
24.0
 40
24.0
 40
24.0
 40
24.0
 10
0.0000000008609078
 20
15.21540086872417
 30
0.0
 10
-0.2749657327699498
 20
15.21648846068637
 30
0.0
 10
-0.8248912240412025
 20
15.2202754768249
 30
0.0
 10
-1.649731670401491
 20
15.23078544271135
 30
0.0
 10
-2.474495540811076
 20
15.24613810973002
 30
0.0
 10
-3.29915959422551
 20
15.26628434622414
 30
0.0
 10
-4.123675274698553
 20
15.2914042566712
 30
0.0
 10
-4.948089779415089
 20
15.32082238709557
 30
0.0
 10
-5.772093540372057
 20
15.35705531156464
 30
0.0
 10
-6.596562490257512
 20
15.39423512381693
 30
0.0
 10
-7.418803361024585
 20
15.43821441177284
 30
0.0
 10
-8.247626288963254
 20
15.49105016942476
 30
0.0
 10
-9.05079671370933
 20
15.52939908964041
 30
0.0
 10
-9.65208053909345
 20
15.55085848788833
 30
0.0
 10
-9.804216854326071
 20
15.28213458076315
 30
0.0
  0
ARC
  5
1D2
330
1F
100
AcDbEntity
  8
Default
100
AcDbCircle
 10
-9.337867596061464
 20
15.01811394142795
 30
0.0
 40
0.5358997375245812
100
AcDbArc
 50
150.4839087106717
 51
174.6105810170415
  0
SPLINE
  5
1D3
330
1F
100
AcDbEntity
  8
Default
100
AcDbSpline
210
0.0
220
0.0
230
1.0
 70
    12
 71
     2
 72
     6
 73
     3
 74
     0
 42
0.0000000001
 43
0.0000000001
 40
0.0
 40
0.0
 40
0.0
 40
2.089016628501993
 40
2.089016628501993
 40
2.089016628501993
 10
-12.36331475846394
 20
24.62993631459813
 30
0.0
 41
1.0
 10
-11.31880644951548
 20
24.6301272989435
 30
0.0
 41
0.9999999811606456
 10
-10.27429813997656
 20
24.62993957167245
 30
0.0
 41
0.9999999951862771
  0
ARC
  5
1D4
330
1F
100
AcDbEntity
  8
Default
100
AcDbCircle
 10
-10.39493121551981
 20
24.61817444392553
 30
0.0
 40
0.1212054336485175
100
AcDbArc
 50
5.570338083598064
 51
63.21211553963093
  0
ARC
  5
1D5
330
1F
100
AcDbEntity
  8
Default
100
AcDbCircle
 10
-11.33184056343615
 20
22.76243423805265
 30
0.0
 40
2.200044253255792
100
AcDbArc
 50
63.21211553963096
 51
116.7892256661655
  0
ARC
  5
1D6
330
1F
100
AcDbEntity
  8
Default
100
AcDbCircle
 10
-12.28738717031344
 20
24.65497922339229
 30
0.0
 40
0.0799508969507181
100
AcDbArc
 50
116.7892256661649
 51
198.2539100272595
  0
SPLINE
  5
1D7
330
1F
100
AcDbEntity
  8
Default
100
AcDbSpline
210
0.0
220
0.0
230
1.0
 70
    12
 71
     2
 72
     6
 73
     3
 74
     0
 42
0.0000000001
 43
0.0000000001
 40
2.089016628501993
 40
2.089016628501993
 40
2.089016628501993
 40
2.394994155193811
 40
2.394994155193811
 40
2.394994155193811
 10
-10.27429813997656
 20
24.62993957167245
 30
0.0
 41
0.9999999951862771
 10
-10.12130937978088
 20
24.6299120753259
 30
0.0
 41
0.9999999972406064
 10
-9.968320621261155
 20
24.62987645434404
 30
0.0
 41
1.0
  0
ARC
  5
1D8
330
1F
100
AcDbEntity
  8
Default
100
AcDbCircle
 10
-10.10402001662307
 20
24.62413273774981
 30
0.0
 40
0.1358208974418323
100
AcDbArc
 50
2.423698363714957
 51
69.75481324348198
  0
ARC
  5
1D9
330
1F
100
AcDbEntity
  8
Default
100
AcDbCircle
 10
-11.16993408637272
 20
21.73409858818032
 30
0.0
 40
3.216156948876503
100
AcDbArc
 50
69.75481324348199
 51
82.09426788989279
  0
ARC
  5
1DA
330
1F
100
AcDbEntity
  8
Default
100
AcDbCircle
 10
-11.34720043980279
 20
20.45754692711178
 30
0.0
 40
4.504957749402026
100
AcDbArc
 50
82.09426788989269
 51
89.80464682606838
  0
SPLINE
  5
1DB
330
1F
100
AcDbEntity
  8
Default
100
AcDbSpline
210
0.0
220
0.0
230
1.0
 70
    12
 71
     2
 72
     6
 73
     3
 74
     0
 42
0.0000000001
 43
0.0000000001
 40
0.0
 40
0.0
 40
0.0
 40
2.089016628501993
 40
2.089016628501993
 40
2.089016628501993
 10
12.36331475846394
 20
24.62993631459813
 30
0.0
 41
1.0
 10
11.31880644951548
 20
24.6301272989435
 30
0.0
 41
0.9999999811606456
 10
10.27429813997656
 20
24.62993957167245
 30
0.0
 41
0.9999999951862771
  0
ARC
  5
1DC
330
1F
100
AcDbEntity
  8
Default
100
AcDbCircle
 10
10.39493121551981
 20
24.61817444392553
 30
0.0
 40
0.1212054336485175
100
AcDbArc
 50
116.7878844603691
 51
174.429661916402
  0
ARC
  5
1DD
330
1F
100
AcDbEntity
  8
Default
100
AcDbCircle
 10
11.33184056343615
 20
22.76243423805265
 30
0.0
 40
2.200044253255792
100
AcDbArc
 50
63.21077433383452
 51
116.787884460369
  0
ARC
  5
1DE
330
1F
100
AcDbEntity
  8
Default
100
AcDbCircle
 10
12.28738717031344
 20
24.65497922339229
 30
0.0
 40
0.0799508969507181
100
AcDbArc
 50
341.7460899727405
 51
63.2107743338351
  0
SPLINE
  5
1DF
330
1F
100
AcDbEntity
  8
Default
100
AcDbSpline
210
0.0
220
0.0
230
1.0
 70
    12
 71
     2
 72
     6
 73
     3
 74
     0
 42
0.0000000001
 43
0.0000000001
 40
2.089016628501993
 40
2.089016628501993
 40
2.089016628501993
 40
2.394994155193811
 40
2.394994155193811
 40
2.394994155193811
 10
10.27429813997656
 20
24.62993957167245
 30
0.0
 41
0.9999999951862771
 10
10.12130937978088
 20
24.6299120753259
 30
0.0
 41
0.9999999972406064
 10
9.968320621261155
 20
24.62987645434404
 30
0.0
 41
1.0
  0
ARC
  5
1E0
330
1F
100
AcDbEntity
  8
Default
100
AcDbCircle
 10
10.10402001662307
 20
24.62413273774981
 30
0.0
 40
0.1358208974418323
100
AcDbArc
 50
110.245186756518
 51
177.5763016362851
  0
ARC
  5
1E1
330
1F
100
AcDbEntity
  8
Default
100
AcDbCircle
 10
11.16993408637272
 20
21.73409858818032
 30
0.0
 40
3.216156948876503
100
AcDbArc
 50
97.90573211010711
 51
110.2451867565179
  0
ARC
  5
1E2
330
1F
100
AcDbEntity
  8
Default
100
AcDbCircle
 10
11.34720043980279
 20
20.45754692711178
 30
0.0
 40
4.504957749402026
100
AcDbArc
 50
90.19535317393166
 51
97.90573211010735
  0
ARC
  5
1E3
330
1F
100
AcDbEntity
  8
Default
100
AcDbCircle
 10
-10.6653614514319
 20
24.66496625838365
 30
0.0
 40
0.3130767644866421
100
AcDbArc
 50
348.4326684503872
 51
353.5789063915622
  0
SPLINE
  5
1E4
330
1F
100
AcDbEntity
  8
Default
100
AcDbSpline
210
0.0
220
0.0
230
1.0
 70
     8
 71
     3
 72
    12
 73
     8
 74
     0
 42
0.0000000001
 43
0.0000000001
 40
0.0
 40
0.0
 40
0.0
 40
0.0
 40
0.1992112084554058
 40
0.4420876673210324
 40
1.110362005028499
 40
1.822470899976619
 40
2.280507113564661
 40
2.280507113564661
 40
2.280507113564661
 40
2.280507113564661
 10
-10.35864335762927
 20
24.60218830528302
 30
0.0
 10
-10.37208043021926
 20
24.53653797602678
 30
0.0
 10
-10.44761469765718
 20
24.40560436941424
 30
0.0
 10
-10.77183116131984
 20
24.20401659655502
 30
0.0
 10
-11.31795383267321
 20
24.15501766866499
 30
0.0
 10
-11.93288471657553
 20
24.20657622079832
 30
0.0
 10
-12.27718635301531
 20
24.43778153893044
 30
0.0
 10
-12.30563329455118
 20
24.60197617950772
 30
0.0
  0
ARC
  5
1E5
330
1F
100
AcDbEntity
  8
Default
100
AcDbCircle
 10
-11.95587369375873
 20
24.6625724990975
 30
0.0
 40
0.3549699878783003
100
AcDbArc
 50
185.2737045137644
 51
189.8290030692296
  0
ARC
  5
1E6
330
1F
100
AcDbEntity
  8
Default
100
AcDbCircle
 10
10.6653614514319
 20
24.66496625838365
 30
0.0
 40
0.3130767644866421
100
AcDbArc
 50
186.4210936084378
 51
191.5673315496128
  0
SPLINE
  5
1E7
330
1F
100
AcDbEntity
  8
Default
100
AcDbSpline
210
0.0
220
0.0
230
1.0
 70
     8
 71
     3
 72
    12
 73
     8
 74
     0
 42
0.0000000001
 43
0.0000000001
 40
0.0
 40
0.0
 40
0.0
 40
0.0
 40
0.1992112084554058
 40
0.4420876673210324
 40
1.110362005028499
 40
1.822470899976619
 40
2.280507113564661
 40
2.280507113564661
 40
2.280507113564661
 40
2.280507113564661
 10
10.35864335762927
 20
24.60218830528302
 30
0.0
 10
10.37208043021926
 20
24.53653797602678
 30
0.0
 10
10.44761469765718
 20
24.40560436941424
 30
0.0
 10
10.77183116131984
 20
24.20401659655502
 30
0.0
 10
11.31795383267321
 20
24.15501766866499
 30
0.0
 10
11.93288471657553
 20
24.20657622079832
 30
0.0
 10
12.27718635301531
 20
24.43778153893044
 30
0.0
 10
12.30563329455118
 20
24.60197617950772
 30
0.0
  0
ARC
  5
1E8
330
1F
100
AcDbEntity
  8
Default
100
AcDbCircle
 10
11.95587369375873
 20
24.6625724990975
 30
0.0
 40
0.3549699878783003
100
AcDbArc
 50
350.1709969307704
 51
354.7262954862356
  0
SPLINE
  5
1E9
330
1F
100
AcDbEntity
  8
Default
100
AcDbSpline
210
0.0
220
0.0
230
1.0
 70
    12
 71
     2
 72
     6
 73
     3
 74
     0
 42
0.0000000001
 43
0.0000000001
 40
-0.3558017571430819
 40
-0.3558017571430819
 40
-0.3558017571430819
 40
0.0
 40
0.0
 40
0.0
 10
-10.27948368521754
 20
24.60265971984479
 30
0.0
 41
1.0
 10
-10.30289141390451
 20
24.42106073217641
 30
0.0
 41
0.9579360394844925
 10
-10.42229031532201
 20
24.28224424747535
 30
0.0
 41
1.0
  0
SPLINE
  5
1EA
330
1F
100
AcDbEntity
  8
Default
100
AcDbSpline
210
0.0
220
0.0
230
1.0
 70
    12
 71
     2
 72
     6
 73
     3
 74
     0
 42
0.0000000001
 43
0.0000000001
 40
-0.7147930835180935
 40
-0.7147930835180935
 40
-0.7147930835180935
 40
0.0
 40
0.0
 40
0.0
 10
-10.42229031532201
 20
24.28224424747535
 30
0.0
 41
1.0
 10
-10.69279228984713
 20
24.01314624445634
 30
0.0
 41
0.9076731031391808
 10
-11.07302267628751
 20
24.04492527336236
 30
0.0
 41
1.0
  0
SPLINE
  5
1EB
330
1F
100
AcDbEntity
  8
Default
100
AcDbSpline
210
0.0
220
0.0
230
1.0
 70
    12
 71
     2
 72
     6
 73
     3
 74
     0
 42
0.0000000001
 43
0.0000000001
 40
-0.4836458804641015
 40
-0.4836458804641015
 40
-0.4836458804641015
 40
0.0
 40
0.0
 40
0.0
 10
-11.07302267628751
 20
24.04492527336236
 30
0.0
 41
1.0
 10
-11.31558082494645
 20
24.05064344432574
 30
0.0
 41
0.9950454086320307
 10
-11.55554788589899
 20
24.10502007569974
 30
0.0
 41
1.0
  0
SPLINE
  5
1EC
330
1F
100
AcDbEntity
  8
Default
100
AcDbSpline
210
0.0
220
0.0
230
1.0
 70
    12
 71
     2
 72
     6
 73
     3
 74
     0
 42
0.0000000001
 43
0.0000000001
 40
0.0
 40
0.0
 40
0.0
 40
0.4715481464610273
 40
0.4715481464610273
 40
0.4715481464610273
 10
-11.55554788589899
 20
24.10502007569974
 30
0.0
 41
1.0
 10
-11.7908950179485
 20
24.15357847489373
 30
0.0
 41
0.9930104057704547
 10
-12.00524309809005
 20
24.25441064084427
 30
0.0
 41
1.0
  0
ARC
  5
1ED
330
1F
100
AcDbEntity
  8
Default
100
AcDbCircle
 10
-11.66353946376795
 20
24.95513050368728
 30
0.0
 40
0.7795958567691724
100
AcDbArc
 50
219.7153026433924
 51
244.0039817489469
  0
ARC
  5
1EE
330
1F
100
AcDbEntity
  8
Default
100
AcDbCircle
 10
-11.9741017294423
 20
24.66871030369545
 30
0.0
 40
0.3583562096313694
100
AcDbArc
 50
186.2105851703346
 51
216.2145678132808
  0
SPLINE
  5
1EF
330
1F
100
AcDbEntity
  8
Default
100
AcDbSpline
210
0.0
220
0.0
230
1.0
 70
    12
 71
     2
 72
     6
 73
     3
 74
     0
 42
0.0000000001
 43
0.0000000001
 40
-0.3558017571430819
 40
-0.3558017571430819
 40
-0.3558017571430819
 40
0.0
 40
0.0
 40
0.0
 10
10.27948368521754
 20
24.60265971984479
 30
0.0
 41
1.0
 10
10.30289141390451
 20
24.42106073217641
 30
0.0
 41
0.9579360394844925
 10
10.42229031532201
 20
24.28224424747535
 30
0.0
 41
1.0
  0
SPLINE
  5
1F0
330
1F
100
AcDbEntity
  8
Default
100
AcDbSpline
210
0.0
220
0.0
230
1.0
 70
    12
 71
     2
 72
     6
 73
     3
 74
     0
 42
0.0000000001
 43
0.0000000001
 40
-0.7147930835180935
 40
-0.7147930835180935
 40
-0.7147930835180935
 40
0.0
 40
0.0
 40
0.0
 10
10.42229031532201
 20
24.28224424747535
 30
0.0
 41
1.0
 10
10.69279228984713
 20
24.01314624445634
 30
0.0
 41
0.9076731031391808
 10
11.07302267628751
 20
24.04492527336236
 30
0.0
 41
1.0
  0
SPLINE
  5
1F1
330
1F
100
AcDbEntity
  8
Default
100
AcDbSpline
210
0.0
220
0.0
230
1.0
 70
    12
 71
     2
 72
     6
 73
     3
 74
     0
 42
0.0000000001
 43
0.0000000001
 40
-0.4836458804641015
 40
-0.4836458804641015
 40
-0.4836458804641015
 40
0.0
 40
0.0
 40
0.0
 10
11.07302267628751
 20
24.04492527336236
 30
0.0
 41
1.0
 10
11.31558082494645
 20
24.05064344432574
 30
0.0
 41
0.9950454086320307
 10
11.55554788589899
 20
24.10502007569974
 30
0.0
 41
1.0
  0
SPLINE
  5
1F2
330
1F
100
AcDbEntity
  8
Default
100
AcDbSpline
210
0.0
220
0.0
230
1.0
 70
    12
 71
     2
 72
     6
 73
     3
 74
     0
 42
0.0000000001
 43
0.0000000001
 40
0.0
 40
0.0
 40
0.0
 40
0.4715481464610273
 40
0.4715481464610273
 40
0.4715481464610273
 10
11.55554788589899
 20
24.10502007569974
 30
0.0
 41
1.0
 10
11.7908950179485
 20
24.15357847489373
 30
0.0
 41
0.9930104057704547
 10
12.00524309809005
 20
24.25441064084427
 30
0.0
 41
1.0
  0
ARC
  5
1F3
330
1F
100
AcDbEntity
  8
Default
100
AcDbCircle
 10
11.66353946376795
 20
24.95513050368728
 30
0.0
 40
0.7795958567691724
100
AcDbArc
 50
295.9960182510531
 51
320.2846973566075
  0
ARC
  5
1F4
330
1F
100
AcDbEntity
  8
Default
100
AcDbCircle
 10
11.9741017294423
 20
24.66871030369545
 30
0.0
 40
0.3583562096313694
100
AcDbArc
 50
323.7854321867192
 51
353.7894148296655
  0
SPLINE
  5
1F5
330
1F
100
AcDbEntity
  8
Default
100
AcDbSpline
210
0.0
220
0.0
230
1.0
 70
    12
 71
     2
 72
     6
 73
     3
 74
     0
 42
0.0000000001
 43
0.0000000001
 40
-2.279069960999924
 40
-2.279069960999924
 40
-2.279069960999924
 40
0.0
 40
0.0
 40
0.0
 10
-9.274223583769544
 20
14.03554503700305
 30
0.0
 41
1.0
 10
-10.43884023751219
 20
14.47046905861393
 30
0.0
 41
0.8795118997301867
 10
-10.71191579871903
 20
15.68328421049013
 30
0.0
 41
1.0
  0
SPLINE
  5
1F6
330
1F
100
AcDbEntity
  8
Default
100
AcDbSpline
210
0.0
220
0.0
230
1.0
 70
     8
 71
     3
 72
     8
 73
     4
 74
     0
 42
0.0000000001
 43
0.0000000001
 40
0.0
 40
0.0
 40
0.0
 40
0.0
 40
1.0
 40
1.0
 40
1.0
 40
1.0
 10
-10.71191579871903
 20
15.68328421049013
 30
0.0
 10
-10.72838084143865
 20
15.75641068580849
 30
0.0
 10
-10.74340645222173
 20
15.88466969934835
 30
0.0
 10
-10.74668809622173
 20
15.95970151551713
 30
0.0
  0
LINE
  5
1F7
330
1F
100
AcDbEntity
  8
Default
100
AcDbLine
 10
-10.74668809622173
 20
15.95970151551713
 30
0.0
 11
-11.07379955732214
 21
23.438808638638
 31
0.0
  0
ARC
  5
1F8
330
1F
100
AcDbEntity
  8
Default
100
AcDbCircle
 10
-11.83670230402361
 20
23.40544179042432
 30
0.0
 40
0.7636320759923281
100
AcDbArc
 50
2.504332262642229
 51
64.51146051780562
  0
SPLINE
  5
1F9
330
1F
100
AcDbEntity
  8
Default
100
AcDbSpline
210
0.0
220
0.0
230
1.0
 70
    12
 71
     2
 72
     6
 73
     3
 74
     0
 42
0.0000000001
 43
0.0000000001
 40
-2.279069960999924
 40
-2.279069960999924
 40
-2.279069960999924
 40
0.0
 40
0.0
 40
0.0
 10
9.274223583769544
 20
14.03554503700305
 30
0.0
 41
1.0
 10
10.43884023751219
 20
14.47046905861393
 30
0.0
 41
0.8795118997301867
 10
10.71191579871903
 20
15.68328421049013
 30
0.0
 41
1.0
  0
SPLINE
  5
1FA
330
1F
100
AcDbEntity
  8
Default
100
AcDbSpline
210
0.0
220
0.0
230
1.0
 70
     8
 71
     3
 72
     8
 73
     4
 74
     0
 42
0.0000000001
 43
0.0000000001
 40
0.0
 40
0.0
 40
0.0
 40
0.0
 40
1.0
 40
1.0
 40
1.0
 40
1.0
 10
10.71191579871903
 20
15.68328421049013
 30
0.0
 10
10.72838084143865
 20
15.75641068580849
 30
0.0
 10
10.74340645222173
 20
15.88466969934835
 30
0.0
 10
10.74668809622173
 20
15.95970151551713
 30
0.0
  0
LINE
  5
1FB
330
1F
100
AcDbEntity
  8
Default
100
AcDbLine
 10
10.74668809622173
 20
15.95970151551713
 30
0.0
 11
11.07379955732214
 21
23.438808638638
 31
0.0
  0
ARC
  5
1FC
330
1F
100
AcDbEntity
  8
Default
100
AcDbCircle
 10
11.83670230402361
 20
23.40544179042432
 30
0.0
 40
0.7636320759923281
100
AcDbArc
 50
115.4885394821945
 51
177.4956677373578
  0
SPLINE
  5
1FD
330
1F
100
AcDbEntity
  8
Default
100
AcDbSpline
210
0.0
220
0.0
230
1.0
 70
    12
 71
     2
 72
     6
 73
     3
 74
     0
 42
0.0000000001
 43
0.0000000001
 40
0.0144801966593451
 40
0.0144801966593451
 40
0.0144801966593451
 40
7.457273193954278
 40
7.457273193954278
 40
7.457273193954278
 10
-9.600649883290703
 20
16.0037234941214
 30
0.0
 41
1.0
 10
-9.767298231360003
 20
19.72138676990894
 30
0.0
 41
0.9999999999999999
 10
-9.933946487225384
 20
23.43905004977471
 30
0.0
 41
1.0
  0
ARC
  5
1FE
330
1F
100
AcDbEntity
  8
Default
100
AcDbCircle
 10
-19.69214074753372
 20
23.25925987137572
 30
0.0
 40
9.759850394865856
100
AcDbArc
 50
1.055528589997927
 51
8.073053011013752
  0
SPLINE
  5
1FF
330
1F
100
AcDbEntity
  8
Default
100
AcDbSpline
210
0.0
220
0.0
230
1.0
 70
    12
 71
     2
 72
     6
 73
     3
 74
     0
 42
0.0000000001
 43
0.0000000001
 40
0.0144801989998538
 40
0.0144801989998538
 40
0.0144801989998538
 40
7.457273193954278
 40
7.457273193954278
 40
7.457273193954278
 10
9.600649883395514
 20
16.00372349645956
 30
0.0
 41
1.0
 10
9.767298231412408
 20
19.72138677107802
 30
0.0
 41
0.9999999999999999
 10
9.933946487225384
 20
23.43905004977471
 30
0.0
 41
1.0
  0
ARC
  5
200
330
1F
100
AcDbEntity
  8
Default
100
AcDbCircle
 10
19.69214074753372
 20
23.25925987137572
 30
0.0
 40
9.759850394865856
100
AcDbArc
 50
171.9269469889863
 51
178.9444714100021
  0
LINE
  5
201
330
1F
100
AcDbEntity
  8
Default
100
AcDbLine
 10
-9.75267063713765
 20
15.71783472130914
 30
0.0
 11
-10.09694601001772
 21
23.43904983171145
 31
0.0
  0
SPLINE
  5
202
330
1F
100
AcDbEntity
  8
Default
100
AcDbSpline
210
0.0
220
0.0
230
1.0
 70
    12
 71
     2
 72
     6
 73
     3
 74
     0
 42
0.0000000001
 43
0.0000000001
 40
-0.5222505403049349
 40
-0.5222505403049349
 40
-0.5222505403049349
 40
0.0
 40
0.0
 40
0.0
 10
-10.09694601001772
 20
23.43904983171145
 30
0.0
 41
1.0
 10
-10.09785478705475
 20
23.70040220672346
 30
0.0
 41
0.998688015819017
 10
-10.12549028313827
 20
23.96029096976332
 30
0.0
 41
1.0
  0
POLYLINE
  5
203
330
1F
100
AcDbEntity
  8
Default
100
AcDb2dPolyline
 66
     1
 10
0.0
 20
0.0
 30
0.0
  0
VERTEX
  5
204
330
203
100
AcDbEntity
  8
Default
100
AcDbVertex
100
AcDb2dVertex
 10
-10.12549028313827
 20
23.96029096976332
 30
0.0
  0
VERTEX
  5
205
330
203
100
AcDbEntity
  8
Default
100
AcDbVertex
100
AcDb2dVertex
 10
-10.18465521556615
 20
23.96029096976332
 30
0.0
  0
SEQEND
  5
206
330
203
100
AcDbEntity
  8
Default
  0
SPLINE
  5
207
330
1F
100
AcDbEntity
  8
Default
100
AcDbSpline
210
0.0
220
0.0
230
1.0
 70
    12
 71
     2
 72
     6
 73
     3
 74
     0
 42
0.0000000001
 43
0.0000000001
 40
0.6484674280435896
 40
0.6484674280435896
 40
0.6484674280435896
 40
1.1704702566318
 40
1.1704702566318
 40
1.1704702566318
 10
-10.18465521556615
 20
23.96029096976332
 30
0.0
 41
0.9984333540671093
 10
-10.16268809951497
 20
23.70012201372724
 30
0.0
 41
0.9985861182938255
 10
-10.15924203400601
 20
23.43901443900753
 30
0.0
 41
1.0
  0
LINE
  5
208
330
1F
100
AcDbEntity
  8
Default
100
AcDbLine
 10
-10.15924203400601
 20
23.43901443900753
 30
0.0
 11
-9.975004548237472
 21
15.98923399555641
 31
0.0
  0
ARC
  5
209
330
1F
100
AcDbEntity
  8
Default
100
AcDbCircle
 10
-9.384776060236497
 20
16.00383069588653
 30
0.0
 40
0.5904089529372364
100
AcDbArc
 50
181.4166698202184
 51
225.8826536749422
  0
LINE
  5
20A
330
1F
100
AcDbEntity
  8
Default
100
AcDbLine
 10
9.75267063713765
 20
15.71783472130914
 30
0.0
 11
10.09694601001772
 21
23.43904983171145
 31
0.0
  0
SPLINE
  5
20B
330
1F
100
AcDbEntity
  8
Default
100
AcDbSpline
210
0.0
220
0.0
230
1.0
 70
    12
 71
     2
 72
     6
 73
     3
 74
     0
 42
0.0000000001
 43
0.0000000001
 40
-0.5222505403049349
 40
-0.5222505403049349
 40
-0.5222505403049349
 40
0.0
 40
0.0
 40
0.0
 10
10.09694601001772
 20
23.43904983171145
 30
0.0
 41
1.0
 10
10.09785478705475
 20
23.70040220672346
 30
0.0
 41
0.998688015819017
 10
10.12549028313827
 20
23.96029096976332
 30
0.0
 41
1.0
  0
POLYLINE
  5
20C
330
1F
100
AcDbEntity
  8
Default
100
AcDb2dPolyline
 66
     1
 10
0.0
 20
0.0
 30
0.0
  0
VERTEX
  5
20D
330
20C
100
AcDbEntity
  8
Default
100
AcDbVertex
100
AcDb2dVertex
 10
10.12549028313827
 20
23.96029096976332
 30
0.0
  0
VERTEX
  5
20E
330
20C
100
AcDbEntity
  8
Default
100
AcDbVertex
100
AcDb2dVertex
 10
10.18465521556615
 20
23.96029096976332
 30
0.0
  0
SEQEND
  5
20F
330
20C
100
AcDbEntity
  8
Default
  0
SPLINE
  5
210
330
1F
100
AcDbEntity
  8
Default
100
AcDbSpline
210
0.0
220
0.0
230
1.0
 70
    12
 71
     2
 72
     6
 73
     3
 74
     0
 42
0.0000000001
 43
0.0000000001
 40
0.6484674280435896
 40
0.6484674280435896
 40
0.6484674280435896
 40
1.1704702566318
 40
1.1704702566318
 40
1.1704702566318
 10
10.18465521556615
 20
23.96029096976332
 30
0.0
 41
0.9984333540671093
 10
10.16268809951497
 20
23.70012201372724
 30
0.0
 41
0.9985861182938255
 10
10.15924203400601
 20
23.43901443900753
 30
0.0
 41
1.0
  0
LINE
  5
211
330
1F
100
AcDbEntity
  8
Default
100
AcDbLine
 10
10.15924203400601
 20
23.43901443900753
 30
0.0
 11
9.975004548237472
 21
15.98923399555641
 31
0.0
  0
ARC
  5
212
330
1F
100
AcDbEntity
  8
Default
100
AcDbCircle
 10
9.384776060236497
 20
16.00383069588653
 30
0.0
 40
0.5904089529372364
100
AcDbArc
 50
314.1173463250577
 51
358.5833301797816
  0
SPLINE
  5
213
330
1F
100
AcDbEntity
  8
Default
100
AcDbSpline
210
0.0
220
0.0
230
1.0
 70
    12
 71
     3
 72
     8
 73
     4
 74
     0
 42
0.0000000001
 43
0.0000000001
 40
0.6249070998662714
 40
0.6249070998662714
 40
0.6249070998662714
 40
0.6249070998662714
 40
1.0
 40
1.0
 40
1.0
 40
1.0
 10
9.051078792076389
 20
13.53639020833502
 30
0.0
 41
1.0
 10
9.092690594937913
 20
13.55007690800079
 30
0.0
 41
1.0
 10
9.130005259057471
 20
13.6715379293004
 30
0.0
 41
1.0
 10
9.159373207962467
 20
13.98668054246088
 30
0.0
 41
1.0
  0
SPLINE
  5
214
330
1F
100
AcDbEntity
  8
Default
100
AcDbSpline
210
0.0
220
0.0
230
1.0
 70
     8
 71
     3
 72
     8
 73
     4
 74
     0
 42
0.0000000001
 43
0.0000000001
 40
-1.0
 40
-1.0
 40
-1.0
 40
-1.0
 40
0.0
 40
0.0
 40
0.0
 40
0.0
 10
9.159373207962467
 20
13.98668054246088
 30
0.0
 10
9.166233126267656
 20
14.06029319371405
 30
0.0
 10
9.168034859969685
 20
14.18850149792182
 30
0.0
 10
9.164959566799393
 20
14.26244929135985
 30
0.0
  0
SPLINE
  5
215
330
1F
100
AcDbEntity
  8
Default
100
AcDbSpline
210
0.0
220
0.0
230
1.0
 70
    12
 71
     2
 72
     6
 73
     3
 74
     0
 42
0.0000000001
 43
0.0000000001
 40
-0.3618607082243719
 40
-0.3618607082243719
 40
-0.3618607082243719
 40
0.0
 40
0.0
 40
0.0
 10
9.164959566799393
 20
14.26244929135985
 30
0.0
 41
1.0
 10
9.157441649698473
 20
14.4432233997387
 30
0.0
 41
0.9999999015173984
 10
9.149818847727003
 20
14.63054663805458
 30
0.0
 41
1.0
  0
SPLINE
  5
216
330
1F
100
AcDbEntity
  8
Default
100
AcDbSpline
210
0.0
220
0.0
230
1.0
 70
    12
 71
     2
 72
    88
 73
    85
 74
     0
 42
0.0000000001
 43
0.0000000001
 40
0.0
 40
0.0
 40
0.0
 40
0.0238929597375462
 40
0.0238929597375462
 40
0.1852612702393832
 40
0.1852612702393832
 40
0.3532833914703453
 40
0.3532833914703453
 40
0.5382470975727797
 40
0.5382470975727797
 40
0.7411068985224568
 40
0.7411068985224568
 40
0.9646721648975409
 40
0.9646721648975409
 40
1.211526434095797
 40
1.211526434095797
 40
1.485959103516197
 40
1.485959103516197
 40
1.793610028101384
 40
1.793610028101384
 40
2.134368465850639
 40
2.134368465850639
 40
2.486415793477413
 40
2.486415793477413
 40
2.816935076289841
 40
2.816935076289841
 40
3.116800605017265
 40
3.116800605017265
 40
3.390160424360793
 40
3.390160424360793
 40
3.635946888798483
 40
3.635946888798483
 40
3.852852876386769
 40
3.852852876386769
 40
4.045652024706101
 40
4.045652024706101
 40
4.220357141592779
 40
4.220357141592779
 40
4.379653228353186
 40
4.379653228353186
 40
4.523998538216201
 40
4.523998538216201
 40
4.655492424830024
 40
4.655492424830024
 40
4.778796182654599
 40
4.778796182654599
 40
4.899121960478391
 40
4.899121960478391
 40
5.021224418461415
 40
5.021224418461415
 40
5.149411287131666
 40
5.149411287131666
 40
5.287436155064012
 40
5.287436155064012
 40
5.437825103435331
 40
5.437825103435331
 40
5.601281444924428
 40
5.601281444924428
 40
5.777643264252672
 40
5.777643264252672
 40
5.967834719878002
 40
5.967834719878002
 40
6.174426187052411
 40
6.174426187052411
 40
6.400613319898135
 40
6.400613319898135
 40
6.648731507065898
 40
6.648731507065898
 40
6.920361409193681
 40
6.920361409193681
 40
7.217720954937797
 40
7.217720954937797
 40
7.545215372694519
 40
7.545215372694519
 40
7.906526519950256
 40
7.906526519950256
 40
8.290201948731
 40
8.290201948731
 40
8.66249014322856
 40
8.66249014322856
 40
8.996201040330604
 40
8.996201040330604
 40
9.290259161172202
 40
9.290259161172202
 40
9.395713736285732
 40
9.395713736285732
 40
9.395713736285732
 10
9.149818847727001
 20
14.63054663805458
 30
0.0
 41
0.9999999606440125
 10
9.13643183604178
 20
14.63160781969019
 30
0.0
 41
0.9999997738816803
 10
9.125405209614705
 20
14.62701840054295
 30
0.0
 41
1.0
 10
9.050932401722172
 20
14.5960239243694
 30
0.0
 41
0.9999909422002812
 10
8.976198455035963
 20
14.56566451262651
 30
0.0
 41
1.0
 10
8.898382900107414
 20
14.53405338238056
 30
0.0
 41
0.9999908360863913
 10
8.820299539752986
 20
14.50310967575021
 30
0.0
 41
1.0
 10
8.734342850554514
 20
14.46904630426247
 30
0.0
 41
0.9999896979305188
 10
8.648080468018904
 20
14.43576467187531
 30
0.0
 41
1.0
 10
8.553471540693044
 20
14.39926335559782
 30
0.0
 41
0.9999886032320936
 10
8.45851839787705
 20
14.36366706521378
 30
0.0
 41
1.0
 10
8.353873261917693
 20
14.32443815927769
 30
0.0
 41
0.9999873942206753
 10
8.248839463261046
 20
14.28626208456262
 30
0.0
 41
1.0
 10
8.132863749094156
 20
14.24411010780658
 30
0.0
 41
0.9999861770983901
 10
8.016451190936912
 20
14.20318002444179
 30
0.0
 41
1.0
 10
7.887032660016673
 20
14.15767812702198
 30
0.0
 41
0.9999848232468225
 10
7.757120618704862
 20
14.1136050021435
 30
0.0
 41
1.0
 10
7.611482304046953
 20
14.06420047275169
 30
0.0
 41
0.9999834942903293
 10
7.465285903449112
 20
14.01647271695847
 30
0.0
 41
1.0
 10
7.303360048815853
 20
13.96359798239901
 30
0.0
 41
0.999981655326889
 10
7.140805547827293
 20
13.91268870856994
 30
0.0
 41
1.0
 10
6.972867186484588
 20
13.8600880370974
 30
0.0
 41
0.9999804046978459
 10
6.80428341870553
 20
13.80959410586549
 30
0.0
 41
1.0
 10
6.64600872900302
 20
13.76218860729825
 30
0.0
 41
0.999982282638819
 10
6.487180886439555
 20
13.71667075232386
 30
0.0
 41
1.0
 10
6.343083764972842
 20
13.67537417105713
 30
0.0
 41
0.9999850357240728
 10
6.198543434765601
 20
13.63565665624445
 30
0.0
 41
1.0
 10
6.066779487889839
 20
13.59944994776937
 30
0.0
 41
0.9999871852060751
 10
5.934655703156392
 20
13.56457920154006
 30
0.0
 41
1.0
 10
5.815859174986619
 20
13.53322593119018
 30
0.0
 41
0.9999893087630002
 10
5.696777768502959
 20
13.50297264547279
 30
0.0
 41
1.0
 10
5.5916888114302
 20
13.47627437527553
 30
0.0
 41
0.9999914032624853
 10
5.486382061572838
 20
13.45044851682621
 30
0.0
 41
1.0
 10
5.392779098116597
 20
13.4274932067978
 30
0.0
 41
0.9999930063260115
 10
5.299007050494554
 20
13.40523867667337
 30
0.0
 41
1.0
 10
5.214035446604445
 20
13.38507291438163
 30
0.0
 41
0.99999411704122
 10
5.128927500151898
 20
13.36549055274942
 30
0.0
 41
1.0
 10
5.051326112998555
 20
13.34763548681333
 30
0.0
 41
0.9999950118777867
 10
4.973613483743248
 20
13.33027098503724
 30
0.0
 41
1.0
 10
4.903194613751222
 20
13.31453632759793
 30
0.0
 41
0.9999958378525723
 10
4.832686121795826
 20
13.29920827299657
 30
0.0
 41
1.0
 10
4.768455192931662
 20
13.28524497623304
 30
0.0
 41
0.9999965005651175
 10
4.704151282620684
 20
13.27162172412584
 30
0.0
 41
1.0
 10
4.643852565734514
 20
13.2588470356924
 30
0.0
 41
0.9999968895574237
 10
4.583490874822468
 20
13.2463732955585
 30
0.0
 41
1.0
 10
4.52458701418728
 20
13.23420083828316
 30
0.0
 41
0.999997011051943
 10
4.465624335341337
 20
13.22231656223624
 30
0.0
 41
1.0
 10
4.405791033363838
 20
13.21025680851723
 30
0.0
 41
0.9999968969840156
 10
4.345898387976217
 20
13.19849531567976
 30
0.0
 41
1.0
 10
4.283021246914833
 20
13.18614778535684
 30
0.0
 41
0.9999965588388926
 10
4.220080186144509
 20
13.17413032962632
 30
0.0
 41
1.0
 10
4.152308573066722
 20
13.16119039243943
 30
0.0
 41
0.9999959723649138
 10
4.084464600431659
 20
13.14863535796485
 30
0.0
 41
1.0
 10
4.010543298225645
 20
13.1349551943673
 30
0.0
 41
0.9999950933700279
 10
3.93653773806162
 20
13.12173842998648
 30
0.0
 41
1.0
 10
3.856101733402971
 20
13.10737321042784
 30
0.0
 41
0.9999939920901817
 10
3.775568071754375
 20
13.0935659760964
 30
0.0
 41
1.0
 10
3.688675932204601
 20
13.07866846973659
 30
0.0
 41
0.9999927528437007
 10
3.601672878781544
 20
13.06443301026586
 30
0.0
 41
1.0
 10
3.507847295438791
 20
13.04908113025764
 30
0.0
 41
0.9999912588303735
 10
3.413896615850216
 20
13.03451438339228
 30
0.0
 41
1.0
 10
3.311844555806861
 20
13.01869139736514
 30
0.0
 41
0.999989301306588
 10
3.209650479240235
 20
13.00381320659466
 30
0.0
 41
1.0
 10
3.097762901556414
 20
12.98752353892985
 30
0.0
 41
0.9999866902852457
 10
2.985713193506983
 20
12.97238926528951
 30
0.0
 41
1.0
 10
2.862798908040433
 20
12.95578748484124
 30
0.0
 41
0.999983396605084
 10
2.739701453030074
 20
12.940603372889
 30
0.0
 41
1.0
 10
2.604938605308527
 20
12.92398312570575
 30
0.0
 41
0.9999798271667516
 10
2.469975499229532
 20
12.90907615619601
 30
0.0
 41
1.0
 10
2.322227928953253
 20
12.89275662906096
 30
0.0
 41
0.999975920226777
 10
2.17426809073087
 20
12.87848926204171
 30
0.0
 41
1.0
 10
2.011313212572704
 20
12.86277606871934
 30
0.0
 41
0.9999708282410269
 10
1.848137313667001
 20
12.84955401228911
 30
0.0
 41
1.0
 10
1.668111465524594
 20
12.83496384182375
 30
0.0
 41
0.9999641587010971
 10
1.487864380391445
 20
12.82342402490127
 30
0.0
 41
1.0
 10
1.296459133943244
 20
12.81118332885698
 30
0.0
 41
0.9999606693774323
 10
1.104866881584696
 20
12.80233958283374
 30
0.0
 41
1.0
 10
0.918961457264007
 20
12.7937628213889
 30
0.0
 41
0.9999663379877944
 10
0.7329403235015963
 20
12.78823783971603
 30
0.0
 41
1.0
 10
0.5661962449010308
 20
12.78328198431778
 30
0.0
 41
0.9999757538350039
 10
0.399399318194174
 20
12.78064883179159
 30
0.0
 41
1.0
 10
0.2524225587480692
 20
12.77832688998211
 30
0.0
 41
0.9999829625297724
 10
0.105428708155026
 20
12.77772098662816
 30
0.0
 41
1.0
 10
0.0527145833311977
 20
12.777501507495
 30
0.0
 41
0.9999979515223483
 10
0.0000000019513671
 20
12.77749542626966
 30
0.0
 41
1.0
  0
SPLINE
  5
217
330
1F
100
AcDbEntity
  8
Default
100
AcDbSpline
210
0.0
220
0.0
230
1.0
 70
    12
 71
     2
 72
    88
 73
    85
 74
     0
 42
0.0000000001
 43
0.0000000001
 40
-9.395713736285732
 40
-9.395713736285732
 40
-9.395713736285732
 40
-9.290259161172202
 40
-9.290259161172202
 40
-8.996201040330604
 40
-8.996201040330604
 40
-8.66249014322856
 40
-8.66249014322856
 40
-8.290201948731
 40
-8.290201948731
 40
-7.906526519950256
 40
-7.906526519950256
 40
-7.545215372694519
 40
-7.545215372694519
 40
-7.217720954937797
 40
-7.217720954937797
 40
-6.920361409193681
 40
-6.920361409193681
 40
-6.648731507065898
 40
-6.648731507065898
 40
-6.400613319898135
 40
-6.400613319898135
 40
-6.174426187052411
 40
-6.174426187052411
 40
-5.967834719878002
 40
-5.967834719878002
 40
-5.777643264252672
 40
-5.777643264252672
 40
-5.601281444924428
 40
-5.601281444924428
 40
-5.437825103435331
 40
-5.437825103435331
 40
-5.287436155064012
 40
-5.287436155064012
 40
-5.149411287131666
 40
-5.149411287131666
 40
-5.021224418461415
 40
-5.021224418461415
 40
-4.899121960478391
 40
-4.899121960478391
 40
-4.778796182654599
 40
-4.778796182654599
 40
-4.655492424830024
 40
-4.655492424830024
 40
-4.523998538216201
 40
-4.523998538216201
 40
-4.379653228353186
 40
-4.379653228353186
 40
-4.220357141592779
 40
-4.220357141592779
 40
-4.045652024706101
 40
-4.045652024706101
 40
-3.852852876386769
 40
-3.852852876386769
 40
-3.635946888798483
 40
-3.635946888798483
 40
-3.390160424360793
 40
-3.390160424360793
 40
-3.116800605017265
 40
-3.116800605017265
 40
-2.816935076289841
 40
-2.816935076289841
 40
-2.486415793477413
 40
-2.486415793477413
 40
-2.134368465850639
 40
-2.134368465850639
 40
-1.793610028101384
 40
-1.793610028101384
 40
-1.485959103516197
 40
-1.485959103516197
 40
-1.211526434095797
 40
-1.211526434095797
 40
-0.9646721648975409
 40
-0.9646721648975409
 40
-0.7411068985224568
 40
-0.7411068985224568
 40
-0.5382470975727797
 40
-0.5382470975727797
 40
-0.3532833914703453
 40
-0.3532833914703453
 40
-0.1852612702393832
 40
-0.1852612702393832
 40
-0.0238929597375462
 40
-0.0238929597375462
 40
0.0
 40
0.0
 40
0.0
 10
0.0000000019513671
 20
12.77749542626966
 30
0.0
 41
1.0
 10
-0.0527145794284636
 20
12.777501507495
 30
0.0
 41
0.9999979515223483
 10
-0.1054287042522919
 20
12.77772098662816
 30
0.0
 41
1.0
 10
-0.2524225548453352
 20
12.77832688998211
 30
0.0
 41
0.9999829625297724
 10
-0.3993993142914398
 20
12.78064883179159
 30
0.0
 41
1.0
 10
-0.5661962409982966
 20
12.78328198431778
 30
0.0
 41
0.9999757538350039
 10
-0.7329403195988622
 20
12.78823783971603
 30
0.0
 41
1.0
 10
-0.9189614533612729
 20
12.7937628213889
 30
0.0
 41
0.9999663379877944
 10
-1.104866877681962
 20
12.80233958283374
 30
0.0
 41
1.0
 10
-1.296459130040509
 20
12.81118332885698
 30
0.0
 41
0.9999606693774323
 10
-1.487864376488711
 20
12.82342402490127
 30
0.0
 41
1.0
 10
-1.66811146162186
 20
12.83496384182375
 30
0.0
 41
0.9999641587010971
 10
-1.848137309764267
 20
12.84955401228911
 30
0.0
 41
1.0
 10
-2.01131320866997
 20
12.86277606871934
 30
0.0
 41
0.9999708282410269
 10
-2.174268086828135
 20
12.87848926204171
 30
0.0
 41
1.0
 10
-2.322227925050519
 20
12.89275662906096
 30
0.0
 41
0.999975920226777
 10
-2.469975495326798
 20
12.90907615619601
 30
0.0
 41
1.0
 10
-2.604938601405792
 20
12.92398312570575
 30
0.0
 41
0.9999798271667516
 10
-2.73970144912734
 20
12.940603372889
 30
0.0
 41
1.0
 10
-2.862798904137699
 20
12.95578748484124
 30
0.0
 41
0.999983396605084
 10
-2.985713189604249
 20
12.97238926528951
 30
0.0
 41
1.0
 10
-3.09776289765368
 20
12.98752353892985
 30
0.0
 41
0.9999866902852457
 10
-3.209650475337501
 20
13.00381320659466
 30
0.0
 41
1.0
 10
-3.311844551904127
 20
13.01869139736514
 30
0.0
 41
0.999989301306588
 10
-3.413896611947482
 20
13.03451438339228
 30
0.0
 41
1.0
 10
-3.507847291536057
 20
13.04908113025764
 30
0.0
 41
0.9999912588303735
 10
-3.60167287487881
 20
13.06443301026586
 30
0.0
 41
1.0
 10
-3.688675928301866
 20
13.07866846973659
 30
0.0
 41
0.9999927528437007
 10
-3.775568067851641
 20
13.0935659760964
 30
0.0
 41
1.0
 10
-3.856101729500237
 20
13.10737321042784
 30
0.0
 41
0.9999939920901817
 10
-3.936537734158886
 20
13.12173842998648
 30
0.0
 41
1.0
 10
-4.010543294322912
 20
13.1349551943673
 30
0.0
 41
0.9999950933700279
 10
-4.084464596528925
 20
13.14863535796485
 30
0.0
 41
1.0
 10
-4.152308569163988
 20
13.16119039243943
 30
0.0
 41
0.9999959723649138
 10
-4.220080182241775
 20
13.17413032962632
 30
0.0
 41
1.0
 10
-4.283021243012099
 20
13.18614778535684
 30
0.0
 41
0.9999965588388926
 10
-4.345898384073482
 20
13.19849531567976
 30
0.0
 41
1.0
 10
-4.405791029461104
 20
13.21025680851723
 30
0.0
 41
0.9999968969840156
 10
-4.465624331438603
 20
13.22231656223624
 30
0.0
 41
1.0
 10
-4.524587010284546
 20
13.23420083828316
 30
0.0
 41
0.999997011051943
 10
-4.583490870919734
 20
13.2463732955585
 30
0.0
 41
1.0
 10
-4.64385256183178
 20
13.2588470356924
 30
0.0
 41
0.9999968895574237
 10
-4.70415127871795
 20
13.27162172412584
 30
0.0
 41
1.0
 10
-4.768455189028928
 20
13.28524497623304
 30
0.0
 41
0.9999965005651175
 10
-4.832686117893092
 20
13.29920827299657
 30
0.0
 41
1.0
 10
-4.903194609848488
 20
13.31453632759793
 30
0.0
 41
0.9999958378525723
 10
-4.973613479840514
 20
13.33027098503724
 30
0.0
 41
1.0
 10
-5.051326109095821
 20
13.34763548681333
 30
0.0
 41
0.9999950118777867
 10
-5.128927496249164
 20
13.36549055274942
 30
0.0
 41
1.0
 10
-5.214035442701711
 20
13.38507291438163
 30
0.0
 41
0.99999411704122
 10
-5.29900704659182
 20
13.40523867667337
 30
0.0
 41
1.0
 10
-5.392779094213862
 20
13.4274932067978
 30
0.0
 41
0.9999930063260115
 10
-5.486382057670104
 20
13.45044851682621
 30
0.0
 41
1.0
 10
-5.591688807527466
 20
13.47627437527553
 30
0.0
 41
0.9999914032624853
 10
-5.696777764600225
 20
13.50297264547279
 30
0.0
 41
1.0
 10
-5.815859171083885
 20
13.53322593119018
 30
0.0
 41
0.9999893087630002
 10
-5.934655699253658
 20
13.56457920154006
 30
0.0
 41
1.0
 10
-6.066779483987104
 20
13.59944994776937
 30
0.0
 41
0.9999871852060751
 10
-6.198543430862867
 20
13.63565665624445
 30
0.0
 41
1.0
 10
-6.343083761070108
 20
13.67537417105713
 30
0.0
 41
0.9999850357240728
 10
-6.487180882536821
 20
13.71667075232386
 30
0.0
 41
1.0
 10
-6.646008725100286
 20
13.76218860729825
 30
0.0
 41
0.999982282638819
 10
-6.804283414802796
 20
13.80959410586549
 30
0.0
 41
1.0
 10
-6.972867182581854
 20
13.8600880370974
 30
0.0
 41
0.9999804046978459
 10
-7.140805543924559
 20
13.91268870856994
 30
0.0
 41
1.0
 10
-7.303360044913119
 20
13.96359798239901
 30
0.0
 41
0.999981655326889
 10
-7.465285899546378
 20
14.01647271695847
 30
0.0
 41
1.0
 10
-7.611482300144218
 20
14.06420047275169
 30
0.0
 41
0.9999834942903293
 10
-7.757120614802128
 20
14.1136050021435
 30
0.0
 41
1.0
 10
-7.88703265611394
 20
14.15767812702198
 30
0.0
 41
0.9999848232468225
 10
-8.016451187034178
 20
14.20318002444179
 30
0.0
 41
1.0
 10
-8.132863745191422
 20
14.24411010780658
 30
0.0
 41
0.9999861770983901
 10
-8.248839459358312
 20
14.28626208456262
 30
0.0
 41
1.0
 10
-8.35387325801496
 20
14.32443815927769
 30
0.0
 41
0.9999873942206753
 10
-8.458518393974316
 20
14.36366706521378
 30
0.0
 41
1.0
 10
-8.55347153679031
 20
14.39926335559782
 30
0.0
 41
0.9999886032320936
 10
-8.64808046411617
 20
14.43576467187531
 30
0.0
 41
1.0
 10
-8.734342846651781
 20
14.46904630426247
 30
0.0
 41
0.9999896979305188
 10
-8.820299535850252
 20
14.50310967575021
 30
0.0
 41
1.0
 10
-8.89838289620468
 20
14.53405338238056
 30
0.0
 41
0.9999908360863913
 10
-8.976198451133229
 20
14.56566451262651
 30
0.0
 41
1.0
 10
-9.050932397819437
 20
14.5960239243694
 30
0.0
 41
0.9999909422002812
 10
-9.12540520571197
 20
14.62701840054295
 30
0.0
 41
1.0
 10
-9.136431832139044
 20
14.63160781969019
 30
0.0
 41
0.9999997738816803
 10
-9.149818843824267
 20
14.63054663805458
 30
0.0
 41
0.9999999606440125
  0
SPLINE
  5
218
330
1F
100
AcDbEntity
  8
Default
100
AcDbSpline
210
0.0
220
0.0
230
1.0
 70
    12
 71
     2
 72
     6
 73
     3
 74
     0
 42
0.0000000001
 43
0.0000000001
 40
0.0
 40
0.0
 40
0.0
 40
0.3618607082243719
 40
0.3618607082243719
 40
0.3618607082243719
 10
-9.149818843824269
 20
14.63054663805458
 30
0.0
 41
1.0
 10
-9.157441645795737
 20
14.4432233997387
 30
0.0
 41
0.9999999015173984
 10
-9.164959562896659
 20
14.26244929135985
 30
0.0
 41
1.0
  0
SPLINE
  5
219
330
1F
100
AcDbEntity
  8
Default
100
AcDbSpline
210
0.0
220
0.0
230
1.0
 70
     8
 71
     3
 72
     8
 73
     4
 74
     0
 42
0.0000000001
 43
0.0000000001
 40
0.0
 40
0.0
 40
0.0
 40
0.0
 40
1.0
 40
1.0
 40
1.0
 40
1.0
 10
-9.164959562896659
 20
14.26244929135985
 30
0.0
 10
-9.168034856066951
 20
14.18850149792182
 30
0.0
 10
-9.166233122364922
 20
14.06029319371405
 30
0.0
 10
-9.159373204059733
 20
13.98668054246088
 30
0.0
  0
SPLINE
  5
21A
330
1F
100
AcDbEntity
  8
Default
100
AcDbSpline
210
0.0
220
0.0
230
1.0
 70
    12
 71
     3
 72
     8
 73
     4
 74
     0
 42
0.0000000001
 43
0.0000000001
 40
-1.0
 40
-1.0
 40
-1.0
 40
-1.0
 40
-0.6249070998662714
 40
-0.6249070998662714
 40
-0.6249070998662714
 40
-0.6249070998662714
 10
-9.159373204059733
 20
13.98668054246088
 30
0.0
 41
1.0
 10
-9.130005255154737
 20
13.6715379293004
 30
0.0
 41
1.0
 10
-9.09269059103518
 20
13.55007690800079
 30
0.0
 41
1.0
 10
-9.051078788173655
 20
13.53639020833502
 30
0.0
 41
1.0
  0
ARC
  5
21B
330
1F
100
AcDbEntity
  8
Default
100
AcDbCircle
 10
0.2565508005585924
 20
33.18747848834062
 30
0.0
 40
21.74390119434913
100
AcDbArc
 50
244.655683075786
 51
251.4521163974143
  0
ARC
  5
21C
330
1F
100
AcDbEntity
  8
Default
100
AcDbCircle
 10
-0.340388262900245
 20
31.40835831456294
 30
0.0
 40
19.86730724833262
100
AcDbArc
 50
251.4521163974144
 51
261.840506967004
  0
SPLINE
  5
21D
330
1F
100
AcDbEntity
  8
Default
100
AcDbSpline
210
0.0
220
0.0
230
1.0
 70
    12
 71
     2
 72
     6
 73
     3
 74
     0
 42
0.0000000001
 43
0.0000000001
 40
0.0
 40
0.0
 40
0.0
 40
0.3478554322822073
 40
0.3478554322822073
 40
0.3478554322822073
 10
-3.160138217449447
 20
11.74217140673891
 30
0.0
 41
1.0
 10
-3.160878510208934
 20
11.92216251052931
 30
0.0
 41
0.9999676249987817
 10
-3.159670999625896
 20
12.09608978913632
 30
0.0
 41
1.0
  0
SPLINE
  5
21E
330
1F
100
AcDbEntity
  8
Default
100
AcDbSpline
210
0.0
220
0.0
230
1.0
 70
    12
 71
     3
 72
    10
 73
     6
 74
     0
 42
0.0000000001
 43
0.0000000001
 40
-1.0
 40
-1.0
 40
-1.0
 40
-1.0
 40
-0.5000072502192608
 40
-0.5000072502192608
 40
0.0
 40
0.0
 40
0.0
 40
0.0
 10
-3.159670999625896
 20
12.09608978913632
 30
0.0
 41
1.0
 10
-3.159626725220537
 20
12.13074494139109
 30
0.0
 41
1.0
 10
-3.09937827043051
 20
12.15808372947452
 30
0.0
 41
1.0
 10
-2.921108783234768
 20
12.18245603015911
 30
0.0
 41
1.0
 10
-2.805474366741894
 20
12.18039373447657
 30
0.0
 41
1.0
 10
-2.690054318996702
 20
12.16508799419631
 30
0.0
 41
1.0
  0
SPLINE
  5
21F
330
1F
100
AcDbEntity
  8
Default
100
AcDbSpline
210
0.0
220
0.0
230
1.0
 70
    12
 71
     2
 72
     6
 73
     3
 74
     0
 42
0.0000000001
 43
0.0000000001
 40
0.0
 40
0.0
 40
0.0
 40
2.697812645737958
 40
2.697812645737958
 40
2.697812645737958
 10
-2.690054318996702
 20
12.16508799419631
 30
0.0
 41
1.0
 10
-1.350840875555932
 20
11.98265865634808
 30
0.0
 41
0.9978414201874611
 10
0.0000000008609078
 20
11.97731467256469
 30
0.0
 41
0.9999999997344895
  0
SPLINE
  5
220
330
1F
100
AcDbEntity
  8
Default
100
AcDbSpline
210
0.0
220
0.0
230
1.0
 70
    12
 71
     2
 72
     6
 73
     3
 74
     0
 42
0.0000000001
 43
0.0000000001
 40
-2.697812645737958
 40
-2.697812645737958
 40
-2.697812645737958
 40
0.0
 40
0.0
 40
0.0
 10
0.0000000008609078
 20
11.97731467256469
 30
0.0
 41
0.9999999997344895
 10
1.350840877277747
 20
11.98265865634808
 30
0.0
 41
0.9978414201874611
 10
2.690054320718517
 20
12.16508799419631
 30
0.0
 41
1.0
  0
SPLINE
  5
221
330
1F
100
AcDbEntity
  8
Default
100
AcDbSpline
210
0.0
220
0.0
230
1.0
 70
    12
 71
     3
 72
    10
 73
     6
 74
     0
 42
0.0000000001
 43
0.0000000001
 40
0.0
 40
0.0
 40
0.0
 40
0.0
 40
0.5000072502192608
 40
0.5000072502192608
 40
1.0
 40
1.0
 40
1.0
 40
1.0
 10
2.690054320718517
 20
12.16508799419631
 30
0.0
 41
1.0
 10
2.80547436846371
 20
12.18039373447657
 30
0.0
 41
1.0
 10
2.921108784956584
 20
12.18245603015911
 30
0.0
 41
1.0
 10
3.099378272152325
 20
12.15808372947452
 30
0.0
 41
1.0
 10
3.159626726942353
 20
12.13074494139109
 30
0.0
 41
1.0
 10
3.159671001347712
 20
12.09608978913632
 30
0.0
 41
1.0
  0
SPLINE
  5
222
330
1F
100
AcDbEntity
  8
Default
100
AcDbSpline
210
0.0
220
0.0
230
1.0
 70
    12
 71
     2
 72
     6
 73
     3
 74
     0
 42
0.0000000001
 43
0.0000000001
 40
-0.3478554322822073
 40
-0.3478554322822073
 40
-0.3478554322822073
 40
0.0
 40
0.0
 40
0.0
 10
3.159671001347712
 20
12.09608978913632
 30
0.0
 41
1.0
 10
3.160878511930749
 20
11.92216251052931
 30
0.0
 41
0.9999676249987817
 10
3.16013822135217
 20
11.74217140673891
 30
0.0
 41
1.0
  0
ARC
  5
223
330
1F
100
AcDbEntity
  8
Default
100
AcDbCircle
 10
0.3403882668029791
 20
31.40835831456294
 30
0.0
 40
19.86730724833262
100
AcDbArc
 50
278.1594930329959
 51
288.5478836025855
  0
ARC
  5
224
330
1F
100
AcDbEntity
  8
Default
100
AcDbCircle
 10
-0.2565507966559273
 20
33.18747848834078
 30
0.0
 40
21.74390119434931
100
AcDbArc
 50
288.5478836025857
 51
295.344316924214
  0
SPLINE
  5
225
330
1F
100
AcDbEntity
  8
Default
100
AcDbSpline
210
0.0
220
0.0
230
1.0
 70
    12
 71
     2
 72
     6
 73
     3
 74
     0
 42
0.0000000001
 43
0.0000000001
 40
-9.398964518206558
 40
-9.398964518206558
 40
-9.398964518206558
 40
0.0
 40
0.0
 40
0.0
 10
-9.159373204059733
 20
13.98668054246088
 30
0.0
 41
1.0
 10
-4.757355136642905
 20
12.18230235664443
 30
0.0
 41
0.9818159748914095
 10
0.0000000008609078
 20
12.14889877928283
 30
0.0
 41
1.0
  0
SPLINE
  5
226
330
1F
100
AcDbEntity
  8
Default
100
AcDbSpline
210
0.0
220
0.0
230
1.0
 70
    12
 71
     2
 72
     6
 73
     3
 74
     0
 42
0.0000000001
 43
0.0000000001
 40
0.0
 40
0.0
 40
0.0
 40
9.398964518206558
 40
9.398964518206558
 40
9.398964518206558
 10
0.0000000008609078
 20
12.14889877928283
 30
0.0
 41
1.0
 10
4.757355138364722
 20
12.18230235664443
 30
0.0
 41
0.9818159748914095
 10
9.159373205781549
 20
13.98668054246088
 30
0.0
 41
1.0
  0
SPLINE
  5
227
330
1F
100
AcDbEntity
  8
Default
100
AcDbSpline
210
0.0
220
0.0
230
1.0
 70
    12
 71
     2
 72
     6
 73
     3
 74
     0
 42
0.0000000001
 43
0.0000000001
 40
0.0
 40
0.0
 40
0.0
 40
2.39681761224415
 40
2.39681761224415
 40
2.39681761224415
 10
-0.5445223577489813
 20
11.54654929501946
 30
0.0
 41
1.0
 10
-1.751701053758791
 20
11.56373234980693
 30
0.0
 41
0.9984818866571036
 10
-2.942044869630383
 20
11.71265537474489
 30
0.0
 41
1.0
  0
POLYLINE
  5
228
330
1F
100
AcDbEntity
  8
Default
100
AcDb2dPolyline
 66
     1
 10
0.0
 20
0.0
 30
0.0
  0
VERTEX
  5
229
330
228
100
AcDbEntity
  8
Default
100
AcDbVertex
100
AcDb2dVertex
 10
-2.942044869630383
 20
11.71265537474489
 30
0.0
  0
VERTEX
  5
22A
330
228
100
AcDbEntity
  8
Default
100
AcDbVertex
100
AcDb2dVertex
 10
-2.946514241781866
 20
12.06241516582331
 30
0.0
  0
SEQEND
  5
22B
330
228
100
AcDbEntity
  8
Default
  0
ARC
  5
22C
330
1F
100
AcDbEntity
  8
Default
100
AcDbCircle
 10
-2.754225395599245
 20
11.62707379346848
 30
0.0
 40
0.4759171260314424
100
AcDbArc
 50
82.06180096811966
 51
113.8308892145161
  0
ARC
  5
22D
330
1F
100
AcDbEntity
  8
Default
100
AcDbCircle
 10
0.0796043802315071
 20
31.94985144485507
 30
0.0
 40
20.04348546434831
100
AcDbArc
 50
262.0618009681198
 51
269.7724455364877
  0
ARC
  5
22E
330
1F
100
AcDbEntity
  8
Default
100
AcDbCircle
 10
-0.079603597394472
 20
31.94985144485507
 30
0.0
 40
20.04348546434831
100
AcDbArc
 50
270.2275544635123
 51
277.9381990318802
  0
ARC
  5
22F
330
1F
100
AcDbEntity
  8
Default
100
AcDbCircle
 10
2.75422617843628
 20
11.62707379346848
 30
0.0
 40
0.4759171260314424
100
AcDbArc
 50
66.16911078548394
 51
97.93819903188036
  0
POLYLINE
  5
230
330
1F
100
AcDbEntity
  8
Default
100
AcDb2dPolyline
 66
     1
 10
0.0
 20
0.0
 30
0.0
  0
VERTEX
  5
231
330
230
100
AcDbEntity
  8
Default
100
AcDbVertex
100
AcDb2dVertex
 10
2.9465150246189
 20
12.06241516582331
 30
0.0
  0
VERTEX
  5
232
330
230
100
AcDbEntity
  8
Default
100
AcDbVertex
100
AcDb2dVertex
 10
2.942045652467417
 20
11.71265537474489
 30
0.0
  0
SEQEND
  5
233
330
230
100
AcDbEntity
  8
Default
  0
SPLINE
  5
234
330
1F
100
AcDbEntity
  8
Default
100
AcDbSpline
210
0.0
220
0.0
230
1.0
 70
    12
 71
     2
 72
     6
 73
     3
 74
     0
 42
0.0000000001
 43
0.0000000001
 40
-2.39681761224415
 40
-2.39681761224415
 40
-2.39681761224415
 40
0.0
 40
0.0
 40
0.0
 10
2.942045652467417
 20
11.71265537474489
 30
0.0
 41
1.0
 10
1.751701836595826
 20
11.56373234980693
 30
0.0
 41
0.9984818866571036
 10
0.5445231405860156
 20
11.54654929501946
 30
0.0
 41
1.0
  0
SPLINE
  5
235
330
1F
100
AcDbEntity
  8
Default
100
AcDbSpline
210
0.0
220
0.0
230
1.0
 70
    12
 71
     2
 72
     6
 73
     3
 74
     0
 42
0.0000000001
 43
0.0000000001
 40
0.0
 40
0.0
 40
0.0
 40
0.5368463379608942
 40
0.5368463379608942
 40
0.5368463379608942
 10
0.5445231405860156
 20
11.54654929501946
 30
0.0
 41
1.0
 10
0.2684239318866111
 20
11.54548281384168
 30
0.0
 41
0.999995177630969
 10
0.0000003914185172
 20
11.54617893816136
 30
0.0
 41
1.0
  0
SPLINE
  5
236
330
1F
100
AcDbEntity
  8
Default
100
AcDbSpline
210
0.0
220
0.0
230
1.0
 70
    12
 71
     2
 72
     6
 73
     3
 74
     0
 42
0.0000000001
 43
0.0000000001
 40
-0.5368463379608942
 40
-0.5368463379608942
 40
-0.5368463379608942
 40
0.0
 40
0.0
 40
0.0
 10
0.0000003914185172
 20
11.54617893816136
 30
0.0
 41
1.0
 10
-0.2684231490495768
 20
11.54548281384168
 30
0.0
 41
0.999995177630969
 10
-0.5445223577489813
 20
11.54654929501946
 30
0.0
 41
1.0
  0
POLYLINE
  5
237
330
1F
100
AcDbEntity
  8
Default
100
AcDb2dPolyline
 66
     1
 10
0.0
 20
0.0
 30
0.0
  0
VERTEX
  5
238
330
237
100
AcDbEntity
  8
Default
100
AcDbVertex
100
AcDb2dVertex
 10
-2.946514241781866
 20
12.06241516582331
 30
0.0
  0
VERTEX
  5
239
330
237
100
AcDbEntity
  8
Default
100
AcDbVertex
100
AcDb2dVertex
 10
-2.946514241781866
 20
12.1763345120511
 30
0.0
  0
SEQEND
  5
23A
330
237
100
AcDbEntity
  8
Default
  0
POLYLINE
  5
23B
330
1F
100
AcDbEntity
  8
Default
100
AcDb2dPolyline
 66
     1
 10
0.0
 20
0.0
 30
0.0
  0
VERTEX
  5
23C
330
23B
100
AcDbEntity
  8
Default
100
AcDbVertex
100
AcDb2dVertex
 10
2.946514241781866
 20
12.06241516582331
 30
0.0
  0
VERTEX
  5
23D
330
23B
100
AcDbEntity
  8
Default
100
AcDbVertex
100
AcDb2dVertex
 10
2.946514241781866
 20
12.1763345120511
 30
0.0
  0
SEQEND
  5
23E
330
23B
100
AcDbEntity
  8
Default
  0
ARC
  5
23F
330
1F
100
AcDbEntity
  8
Default
100
AcDbCircle
 10
-8.004358659976845
 20
15.8744439266996
 30
0.0
 40
2.552649905098557
100
AcDbArc
 50
203.2924672787238
 51
242.3015300872315
  0
ARC
  5
240
330
1F
100
AcDbEntity
  8
Default
100
AcDbCircle
 10
-9.132744476070147
 20
13.72504619701368
 30
0.0
 40
0.1250656840385476
100
AcDbArc
 50
242.3015300872315
 51
286.5720555502674
  0
ARC
  5
241
330
1F
100
AcDbEntity
  8
Default
100
AcDbCircle
 10
8.004358659976845
 20
15.8744439266996
 30
0.0
 40
2.552649905098557
100
AcDbArc
 50
297.6984699127685
 51
336.7075327212762
  0
ARC
  5
242
330
1F
100
AcDbEntity
  8
Default
100
AcDbCircle
 10
9.132744476070147
 20
13.72504619701368
 30
0.0
 40
0.1250656840385476
100
AcDbArc
 50
253.4279444497326
 51
297.6984699127685
  0
SPLINE
  5
243
330
1F
100
AcDbEntity
  8
Default
100
AcDbSpline
210
0.0
220
0.0
230
1.0
 70
     8
 71
     3
 72
     9
 73
     5
 74
     0
 42
0.0000000001
 43
0.0000000001
 40
0.0
 40
0.0
 40
0.0
 40
0.0
 40
1.0
 40
2.0
 40
2.0
 40
2.0
 40
2.0
 10
9.190877307353537
 20
13.6143122850851
 30
0.0
 10
9.25561735583611
 20
13.78283730190323
 30
0.0
 10
9.299651387408407
 20
14.14807948172079
 30
0.0
 10
9.269144778005625
 20
14.50843362417344
 30
0.0
 10
9.258144327918227
 20
14.6893944672597
 30
0.0
  0
SPLINE
  5
244
330
1F
100
AcDbEntity
  8
Default
100
AcDbSpline
210
0.0
220
0.0
230
1.0
 70
     8
 71
     3
 72
    12
 73
     8
 74
     0
 42
0.0000000001
 43
0.0000000001
 40
0.0
 40
0.0
 40
0.0
 40
0.0
 40
1.0
 40
2.0
 40
3.0
 40
4.0
 40
5.0
 40
5.0
 40
5.0
 40
5.0
 10
9.258144327918227
 20
14.6893944672597
 30
0.0
 10
9.364062588372146
 20
14.73665119469713
 30
0.0
 10
9.577169064864654
 20
14.83100829883407
 30
0.0
 10
9.861518186131072
 20
15.03656064623827
 30
0.0
 10
10.08059955585845
 20
15.31195992269642
 30
0.0
 10
10.20986084694801
 20
15.63950641278362
 30
0.0
 10
10.23162923260843
 20
15.87297822441331
 30
0.0
 10
10.22563188107469
 20
15.98896000265017
 30
0.0
  0
LINE
  5
245
330
1F
100
AcDbEntity
  8
Default
100
AcDbLine
 10
10.22563188107469
 20
15.98896000265017
 30
0.0
 11
10.44902981550115
 21
23.43910309271659
 31
0.0
  0
ARC
  5
246
330
1F
100
AcDbEntity
  8
Default
100
AcDbCircle
 10
3.954721203835492
 20
23.62694473437224
 30
0.0
 40
6.497024613305276
100
AcDbArc
 50
358.3432364982012
 51
5.832274613188463
  0
SPLINE
  5
247
330
1F
100
AcDbEntity
  8
Default
100
AcDbSpline
210
0.0
220
0.0
230
1.0
 70
     8
 71
     3
 72
     9
 73
     5
 74
     0
 42
0.0000000001
 43
0.0000000001
 40
0.0
 40
0.0
 40
0.0
 40
0.0
 40
1.0
 40
2.0
 40
2.0
 40
2.0
 40
2.0
 10
-9.190877307353539
 20
13.6143122850851
 30
0.0
 10
-9.25561735583611
 20
13.78283730190323
 30
0.0
 10
-9.299651387408407
 20
14.14807948172079
 30
0.0
 10
-9.269144778005625
 20
14.50843362417344
 30
0.0
 10
-9.258144327918227
 20
14.6893944672597
 30
0.0
  0
SPLINE
  5
248
330
1F
100
AcDbEntity
  8
Default
100
AcDbSpline
210
0.0
220
0.0
230
1.0
 70
     8
 71
     3
 72
    12
 73
     8
 74
     0
 42
0.0000000001
 43
0.0000000001
 40
0.0
 40
0.0
 40
0.0
 40
0.0
 40
1.0
 40
2.0
 40
3.0
 40
4.0
 40
5.0
 40
5.0
 40
5.0
 40
5.0
 10
-9.258144327918227
 20
14.6893944672597
 30
0.0
 10
-9.364062588372146
 20
14.73665119469713
 30
0.0
 10
-9.577169064864654
 20
14.83100829883407
 30
0.0
 10
-9.861518186131072
 20
15.03656064623827
 30
0.0
 10
-10.08059955585845
 20
15.31195992269642
 30
0.0
 10
-10.20986084694801
 20
15.63950641278362
 30
0.0
 10
-10.23162923260843
 20
15.87297822441331
 30
0.0
 10
-10.22563188107469
 20
15.98896000265017
 30
0.0
  0
LINE
  5
249
330
1F
100
AcDbEntity
  8
Default
100
AcDbLine
 10
-10.22563188107469
 20
15.98896000265017
 30
0.0
 11
-10.44902981550115
 21
23.43910309271658
 31
0.0
  0
ARC
  5
24A
330
1F
100
AcDbEntity
  8
Default
100
AcDbCircle
 10
-3.954721203835492
 20
23.62694473437224
 30
0.0
 40
6.497024613305276
100
AcDbArc
 50
174.1677253868116
 51
181.6567635017989
  0
POLYLINE
  5
24B
330
1F
100
AcDbEntity
  8
Default
100
AcDb2dPolyline
 66
     1
 10
0.0
 20
0.0
 30
0.0
  0
VERTEX
  5
24C
330
24B
100
AcDbEntity
  8
Default
100
AcDbVertex
100
AcDb2dVertex
 10
-9.258144327918227
 20
14.6893944672597
 30
0.0
  0
VERTEX
  5
24D
330
24B
100
AcDbEntity
  8
Default
100
AcDbVertex
100
AcDb2dVertex
 10
-9.149818843824269
 20
14.63054663805458
 30
0.0
  0
SEQEND
  5
24E
330
24B
100
AcDbEntity
  8
Default
  0
POLYLINE
  5
24F
330
1F
100
AcDbEntity
  8
Default
100
AcDb2dPolyline
 66
     1
 10
0.0
 20
0.0
 30
0.0
  0
VERTEX
  5
250
330
24F
100
AcDbEntity
  8
Default
100
AcDbVertex
100
AcDb2dVertex
 10
9.258144327918227
 20
14.6893944672597
 30
0.0
  0
VERTEX
  5
251
330
24F
100
AcDbEntity
  8
Default
100
AcDbVertex
100
AcDb2dVertex
 10
9.149818847727003
 20
14.63054663805458
 30
0.0
  0
SEQEND
  5
252
330
24F
100
AcDbEntity
  8
Default
  0
SPLINE
  5
253
330
1F
100
AcDbEntity
  8
Default
100
AcDbSpline
210
0.0
220
0.0
230
1.0
 70
    24
 71
     2
 72
     6
 73
     3
 74
     0
 42
0.0000000001
 43
0.0000000001
 40
0.0
 40
0.0
 40
0.0
 40
1.280000000000001
 40
1.280000000000001
 40
1.280000000000001
 10
-12.18059251861216
 20
2.560000000000001
 30
0.0
 10
-12.18059251861216
 20
1.92
 30
0.0
 10
-12.18059251861216
 20
1.28
 30
0.0
  0
SPLINE
  5
254
330
1F
100
AcDbEntity
  8
Default
100
AcDbSpline
210
0.0
220
0.0
230
1.0
 70
    24
 71
     2
 72
     6
 73
     3
 74
     0
 42
0.0000000001
 43
0.0000000001
 40
0.0
 40
0.0
 40
0.0
 40
0.7030817531036625
 40
0.7030817531036625
 40
0.7030817531036625
 10
-12.18059251861216
 20
1.28
 30
0.0
 10
-12.53361295688807
 20
1.28
 30
0.0
 10
-12.88663339516399
 20
1.28
 30
0.0
  0
SPLINE
  5
255
330
1F
100
AcDbEntity
  8
Default
100
AcDbSpline
210
0.0
220
0.0
230
1.0
 70
    24
 71
     2
 72
     6
 73
     3
 74
     0
 42
0.0000000001
 43
0.0000000001
 40
0.0
 40
0.0
 40
0.0
 40
1.280000000000001
 40
1.280000000000001
 40
1.280000000000001
 10
-12.88663339516399
 20
1.28
 30
0.0
 10
-12.88663339516399
 20
1.92
 30
0.0
 10
-12.88663339516399
 20
2.560000000000001
 30
0.0
  0
SPLINE
  5
256
330
1F
100
AcDbEntity
  8
Default
100
AcDbSpline
210
0.0
220
0.0
230
1.0
 70
    24
 71
     2
 72
     6
 73
     3
 74
     0
 42
0.0000000001
 43
0.0000000001
 40
-0.7030817531036629
 40
-0.7030817531036629
 40
-0.7030817531036629
 40
0.0
 40
0.0
 40
0.0
 10
-12.88663339516399
 20
2.560000000000001
 30
0.0
 10
-12.53361295688807
 20
2.560000000000001
 30
0.0
 10
-12.18059251861216
 20
2.560000000000001
 30
0.0
  0
SPLINE
  5
257
330
1F
100
AcDbEntity
  8
Default
100
AcDbSpline
210
0.0
220
0.0
230
1.0
 70
    24
 71
     2
 72
     6
 73
     3
 74
     0
 42
0.0000000001
 43
0.0000000001
 40
0.0
 40
0.0
 40
0.0
 40
0.0719999999999992
 40
0.0719999999999992
 40
0.0719999999999992
 10
-12.8162260545852
 20
2.715
 30
0.0
 10
-12.81622605458521
 20
2.751
 30
0.0
 10
-12.81622605458521
 20
2.786999999999999
 30
0.0
  0
SPLINE
  5
258
330
1F
100
AcDbEntity
  8
Default
100
AcDbSpline
210
0.0
220
0.0
230
1.0
 70
    28
 71
     2
 72
    10
 73
     7
 74
     0
 42
0.0000000001
 43
0.0000000001
 40
2.945243112740431
 40
2.945243112740431
 40
2.945243112740431
 40
3.087703909043192
 40
3.087703909043192
 40
4.685444608111389
 40
4.685444608111389
 40
6.283185307179586
 40
6.283185307179586
 40
6.283185307179586
 10
-12.81622605458521
 20
2.787
 30
0.0
 41
0.9524261152922843
 10
-12.81859251861216
 20
2.786999999999999
 30
0.0
 41
0.9738844975231726
 10
-12.81859251861216
 20
2.786999999999999
 30
0.0
 41
1.0
 10
-12.81859251861211
 20
2.787000000000001
 30
0.0
 41
0.7071067811865476
 10
-12.53509251861211
 20
2.786999999999999
 30
0.0
 41
1.0
 10
-12.25159251861211
 20
2.787000000000001
 30
0.0
 41
0.7071067811865476
 10
-12.25159251861216
 20
2.786999999999999
 30
0.0
 41
1.0
  0
SPLINE
  5
259
330
1F
100
AcDbEntity
  8
Default
100
AcDbSpline
210
0.0
220
0.0
230
1.0
 70
    24
 71
     2
 72
     6
 73
     3
 74
     0
 42
0.0000000001
 43
0.0000000001
 40
0.0
 40
0.0
 40
0.0
 40
0.0719999999999992
 40
0.0719999999999992
 40
0.0719999999999992
 10
-12.25159251861216
 20
2.786999999999999
 30
0.0
 10
-12.25159251861216
 20
2.751
 30
0.0
 10
-12.25159251861216
 20
2.715
 30
0.0
  0
SPLINE
  5
25A
330
1F
100
AcDbEntity
  8
Default
100
AcDbSpline
210
0.0
220
0.0
230
1.0
 70
    24
 71
     2
 72
     6
 73
     3
 74
     0
 42
0.0000000001
 43
0.0000000001
 40
0.0
 40
0.0
 40
0.0
 40
0.56226707194609
 40
0.56226707194609
 40
0.56226707194609
 10
-12.25159251861216
 20
2.715
 30
0.0
 10
-12.53390928659868
 20
2.715
 30
0.0
 10
-12.8162260545852
 20
2.715
 30
0.0
  0
SPLINE
  5
25B
330
1F
100
AcDbEntity
  8
Default
100
AcDbSpline
210
0.0
220
0.0
230
1.0
 70
    24
 71
     2
 72
     6
 73
     3
 74
     0
 42
0.0000000001
 43
0.0000000001
 40
0.0
 40
0.0
 40
0.0
 40
0.0299999999999994
 40
0.0299999999999994
 40
0.0299999999999994
 10
-12.65109251861216
 20
2.685000000000001
 30
0.0
 10
-12.65109251861216
 20
2.700000000000001
 30
0.0
 10
-12.65109251861216
 20
2.715
 30
0.0
  0
SPLINE
  5
25C
330
1F
100
AcDbEntity
  8
Default
100
AcDbSpline
210
0.0
220
0.0
230
1.0
 70
    24
 71
     2
 72
     6
 73
     3
 74
     0
 42
0.0000000001
 43
0.0000000001
 40
0.0
 40
0.0
 40
0.0
 40
0.0299999999999994
 40
0.0299999999999994
 40
0.0299999999999994
 10
-12.41909251861216
 20
2.715
 30
0.0
 10
-12.41909251861216
 20
2.700000000000001
 30
0.0
 10
-12.41909251861216
 20
2.685000000000001
 30
0.0
  0
POLYLINE
  5
25D
330
1F
100
AcDbEntity
  8
Default
100
AcDb2dPolyline
 66
     1
 10
0.0
 20
0.0
 30
0.0
  0
VERTEX
  5
25E
330
25D
100
AcDbEntity
  8
Default
100
AcDbVertex
100
AcDb2dVertex
 10
-12.95459251861232
 20
2.560000000000001
 30
0.0
  0
VERTEX
  5
25F
330
25D
100
AcDbEntity
  8
Default
100
AcDbVertex
100
AcDb2dVertex
 10
-12.95459251861232
 20
0.0000000000000004
 30
0.0
  0
SEQEND
  5
260
330
25D
100
AcDbEntity
  8
Default
  0
SPLINE
  5
261
330
1F
100
AcDbEntity
  8
Default
100
AcDbSpline
210
0.0
220
0.0
230
1.0
 70
    24
 71
     2
 72
     6
 73
     3
 74
     0
 42
0.0000000001
 43
0.0000000001
 40
0.0
 40
0.0
 40
0.0
 40
0.3804999999999978
 40
0.3804999999999978
 40
0.3804999999999978
 10
-12.95459251861232
 20
0.0000000000000004
 30
0.0
 10
-13.14484251861231
 20
0.0000000000000004
 30
0.0
 10
-13.33509251861231
 20
0.0000000000000004
 30
0.0
  0
SPLINE
  5
262
330
1F
100
AcDbEntity
  8
Default
100
AcDbSpline
210
0.0
220
0.0
230
1.0
 70
    12
 71
     2
 72
     6
 73
     3
 74
     0
 42
0.0000000001
 43
0.0000000001
 40
0.0
 40
0.0
 40
0.0
 40
0.3141578630330839
 40
0.3141578630330839
 40
0.3141578630330839
 10
-13.33509251861231
 20
0.0000000000000004
 30
0.0
 41
1.0
 10
-13.53508966228385
 20
0.0000025473334161
 30
0.0
 41
0.7071163336729269
 10
-13.53509251861207
 20
0.1999996910007753
 30
0.0
 41
1.0
  0
POLYLINE
  5
263
330
1F
100
AcDbEntity
  8
Default
100
AcDb2dPolyline
 66
     1
 10
0.0
 20
0.0
 30
0.0
  0
VERTEX
  5
264
330
263
100
AcDbEntity
  8
Default
100
AcDbVertex
100
AcDb2dVertex
 10
-13.53509251861207
 20
0.1999996910007753
 30
0.0
  0
VERTEX
  5
265
330
263
100
AcDbEntity
  8
Default
100
AcDbVertex
100
AcDb2dVertex
 10
-13.53509251861207
 20
2.360000308999224
 30
0.0
  0
SEQEND
  5
266
330
263
100
AcDbEntity
  8
Default
  0
SPLINE
  5
267
330
1F
100
AcDbEntity
  8
Default
100
AcDbSpline
210
0.0
220
0.0
230
1.0
 70
    12
 71
     2
 72
     8
 73
     5
 74
     0
 42
0.0000000001
 43
0.0000000001
 40
0.0
 40
0.0
 40
0.0
 40
0.1570843383287497
 40
0.1570843383287497
 40
0.3141686766574995
 40
0.3141686766574995
 40
0.3141686766574995
 10
-13.53509251861207
 20
2.360000308999224
 30
0.0
 41
1.0
 10
-13.53510177099452
 20
2.442846816149753
 30
0.0
 41
0.9238580140017981
 10
-13.47652039837148
 20
2.501428098264866
 30
0.0
 41
1.0
 10
-13.41793902574845
 20
2.560009380379979
 30
0.0
 41
0.9238580140017981
 10
-13.33509251861231
 20
2.560000000000001
 30
0.0
 41
1.0
  0
SPLINE
  5
268
330
1F
100
AcDbEntity
  8
Default
100
AcDbSpline
210
0.0
220
0.0
230
1.0
 70
    24
 71
     2
 72
     6
 73
     3
 74
     0
 42
0.0000000001
 43
0.0000000001
 40
0.0
 40
0.0
 40
0.0
 40
0.3804999999999978
 40
0.3804999999999978
 40
0.3804999999999978
 10
-13.33509251861231
 20
2.560000000000001
 30
0.0
 10
-13.14484251861231
 20
2.560000000000001
 30
0.0
 10
-12.95459251861232
 20
2.560000000000001
 30
0.0
  0
POLYLINE
  5
269
330
1F
100
AcDbEntity
  8
Default
100
AcDb2dPolyline
 66
     1
 10
0.0
 20
0.0
 30
0.0
  0
VERTEX
  5
26A
330
269
100
AcDbEntity
  8
Default
100
AcDbVertex
100
AcDb2dVertex
 10
-12.11559251861232
 20
0.0000000000000004
 30
0.0
  0
VERTEX
  5
26B
330
269
100
AcDbEntity
  8
Default
100
AcDbVertex
100
AcDb2dVertex
 10
-12.11559251861232
 20
2.560000000000001
 30
0.0
  0
SEQEND
  5
26C
330
269
100
AcDbEntity
  8
Default
  0
SPLINE
  5
26D
330
1F
100
AcDbEntity
  8
Default
100
AcDbSpline
210
0.0
220
0.0
230
1.0
 70
    24
 71
     2
 72
     6
 73
     3
 74
     0
 42
0.0000000001
 43
0.0000000001
 40
0.0
 40
0.0
 40
0.0
 40
0.3804999999999996
 40
0.3804999999999996
 40
0.3804999999999996
 10
-12.11559251861232
 20
2.560000000000001
 30
0.0
 10
-11.92534251861232
 20
2.560000000000001
 30
0.0
 10
-11.73509251861232
 20
2.560000000000001
 30
0.0
  0
SPLINE
  5
26E
330
1F
100
AcDbEntity
  8
Default
100
AcDbSpline
210
0.0
220
0.0
230
1.0
 70
    12
 71
     2
 72
     6
 73
     3
 74
     0
 42
0.0000000001
 43
0.0000000001
 40
0.0
 40
0.0
 40
0.0
 40
0.3141578630330935
 40
0.3141578630330935
 40
0.3141578630330935
 10
-11.73509251861232
 20
2.560000000000001
 30
0.0
 41
1.0
 10
-11.53509537494076
 20
2.559997452666603
 30
0.0
 41
0.7071163336728625
 10
-11.53509251861256
 20
2.360000308999224
 30
0.0
 41
1.0
  0
POLYLINE
  5
26F
330
1F
100
AcDbEntity
  8
Default
100
AcDb2dPolyline
 66
     1
 10
0.0
 20
0.0
 30
0.0
  0
VERTEX
  5
270
330
26F
100
AcDbEntity
  8
Default
100
AcDbVertex
100
AcDb2dVertex
 10
-11.53509251861256
 20
2.360000308999224
 30
0.0
  0
VERTEX
  5
271
330
26F
100
AcDbEntity
  8
Default
100
AcDbVertex
100
AcDb2dVertex
 10
-11.53509251861256
 20
0.1999996910007762
 30
0.0
  0
SEQEND
  5
272
330
26F
100
AcDbEntity
  8
Default
  0
SPLINE
  5
273
330
1F
100
AcDbEntity
  8
Default
100
AcDbSpline
210
0.0
220
0.0
230
1.0
 70
    12
 71
     2
 72
     8
 73
     5
 74
     0
 42
0.0000000001
 43
0.0000000001
 40
0.0
 40
0.0
 40
0.0
 40
0.1570843383287469
 40
0.1570843383287469
 40
0.3141686766574937
 40
0.3141686766574937
 40
0.3141686766574937
 10
-11.53509251861256
 20
0.1999996910007762
 30
0.0
 41
1.0
 10
-11.53508326623011
 20
0.117153183850249
 30
0.0
 41
0.9238580140018094
 10
-11.59366463885314
 20
0.0585719017351384
 30
0.0
 41
1.0
 10
-11.65224601147618
 20
-0.0000093803799722
 30
0.0
 41
0.9238580140018094
 10
-11.73509251861232
 20
0.0000000000000003
 30
0.0
 41
1.0
  0
SPLINE
  5
274
330
1F
100
AcDbEntity
  8
Default
100
AcDbSpline
210
0.0
220
0.0
230
1.0
 70
    24
 71
     2
 72
     6
 73
     3
 74
     0
 42
0.0000000001
 43
0.0000000001
 40
0.0
 40
0.0
 40
0.0
 40
0.3804999999999996
 40
0.3804999999999996
 40
0.3804999999999996
 10
-11.73509251861232
 20
0.0000000000000004
 30
0.0
 10
-11.92534251861232
 20
0.0000000000000004
 30
0.0
 10
-12.11559251861232
 20
0.0000000000000004
 30
0.0
  0
SPLINE
  5
275
330
1F
100
AcDbEntity
  8
Default
100
AcDbSpline
210
0.0
220
0.0
230
1.0
 70
    24
 71
     2
 72
     6
 73
     3
 74
     0
 42
0.0000000001
 43
0.0000000001
 40
0.0
 40
0.0
 40
0.0
 40
0.125
 40
0.125
 40
0.125
 10
-12.86509251861216
 20
2.560000000000001
 30
0.0
 10
-12.86509251861216
 20
2.622500000000001
 30
0.0
 10
-12.86509251861216
 20
2.685000000000001
 30
0.0
  0
POLYLINE
  5
276
330
1F
100
AcDbEntity
  8
Default
100
AcDb2dPolyline
 66
     1
 10
0.0
 20
0.0
 30
0.0
  0
VERTEX
  5
277
330
276
100
AcDbEntity
  8
Default
100
AcDbVertex
100
AcDb2dVertex
 10
-12.86509251861216
 20
2.685000000000001
 30
0.0
  0
VERTEX
  5
278
330
276
100
AcDbEntity
  8
Default
100
AcDbVertex
100
AcDb2dVertex
 10
-12.20509251861216
 20
2.685000000000001
 30
0.0
  0
SEQEND
  5
279
330
276
100
AcDbEntity
  8
Default
  0
SPLINE
  5
27A
330
1F
100
AcDbEntity
  8
Default
100
AcDbSpline
210
0.0
220
0.0
230
1.0
 70
    24
 71
     2
 72
     6
 73
     3
 74
     0
 42
0.0000000001
 43
0.0000000001
 40
0.0
 40
0.0
 40
0.0
 40
0.125
 40
0.125
 40
0.125
 10
-12.20509251861216
 20
2.685000000000001
 30
0.0
 10
-12.20509251861216
 20
2.622500000000001
 30
0.0
 10
-12.20509251861216
 20
2.560000000000001
 30
0.0
  0
SPLINE
  5
27B
330
1F
100
AcDbEntity
  8
Default
100
AcDbSpline
210
0.0
220
0.0
230
1.0
 70
    24
 71
     2
 72
     6
 73
     3
 74
     0
 42
0.0000000001
 43
0.0000000001
 40
0.0
 40
0.0
 40
0.0
 40
1.280000000000001
 40
1.280000000000001
 40
1.280000000000001
 10
-7.396593630430753
 20
2.56
 30
0.0
 10
-7.396593630430753
 20
1.92
 30
0.0
 10
-7.396593630430753
 20
1.279999999999999
 30
0.0
  0
SPLINE
  5
27C
330
1F
100
AcDbEntity
  8
Default
100
AcDbSpline
210
0.0
220
0.0
230
1.0
 70
    24
 71
     2
 72
     6
 73
     3
 74
     0
 42
0.0000000001
 43
0.0000000001
 40
0.0
 40
0.0
 40
0.0
 40
0.7030817531036625
 40
0.7030817531036625
 40
0.7030817531036625
 10
-7.396593630430753
 20
1.279999999999999
 30
0.0
 10
-7.749614068706668
 20
1.279999999999999
 30
0.0
 10
-8.102634506982582
 20
1.279999999999999
 30
0.0
  0
SPLINE
  5
27D
330
1F
100
AcDbEntity
  8
Default
100
AcDbSpline
210
0.0
220
0.0
230
1.0
 70
    24
 71
     2
 72
     6
 73
     3
 74
     0
 42
0.0000000001
 43
0.0000000001
 40
0.0
 40
0.0
 40
0.0
 40
1.280000000000001
 40
1.280000000000001
 40
1.280000000000001
 10
-8.102634506982582
 20
1.279999999999999
 30
0.0
 10
-8.102634506982582
 20
1.92
 30
0.0
 10
-8.102634506982582
 20
2.56
 30
0.0
  0
SPLINE
  5
27E
330
1F
100
AcDbEntity
  8
Default
100
AcDbSpline
210
0.0
220
0.0
230
1.0
 70
    24
 71
     2
 72
     6
 73
     3
 74
     0
 42
0.0000000001
 43
0.0000000001
 40
-0.7030817531036629
 40
-0.7030817531036629
 40
-0.7030817531036629
 40
0.0
 40
0.0
 40
0.0
 10
-8.102634506982582
 20
2.56
 30
0.0
 10
-7.749614068706668
 20
2.56
 30
0.0
 10
-7.396593630430753
 20
2.56
 30
0.0
  0
SPLINE
  5
27F
330
1F
100
AcDbEntity
  8
Default
100
AcDbSpline
210
0.0
220
0.0
230
1.0
 70
    24
 71
     2
 72
     6
 73
     3
 74
     0
 42
0.0000000001
 43
0.0000000001
 40
0.0
 40
0.0
 40
0.0
 40
0.0719999999999992
 40
0.0719999999999992
 40
0.0719999999999992
 10
-8.032227166403796
 20
2.715
 30
0.0
 10
-8.032227166403802
 20
2.750999999999999
 30
0.0
 10
-8.032227166403807
 20
2.786999999999999
 30
0.0
  0
SPLINE
  5
280
330
1F
100
AcDbEntity
  8
Default
100
AcDbSpline
210
0.0
220
0.0
230
1.0
 70
    28
 71
     2
 72
    10
 73
     7
 74
     0
 42
0.0000000001
 43
0.0000000001
 40
2.945243112740431
 40
2.945243112740431
 40
2.945243112740431
 40
3.087703909043192
 40
3.087703909043192
 40
4.685444608111389
 40
4.685444608111389
 40
6.283185307179586
 40
6.283185307179586
 40
6.283185307179586
 10
-8.032227166403807
 20
2.786999999999999
 30
0.0
 41
0.9524261152922843
 10
-8.034593630430756
 20
2.786999999999999
 30
0.0
 41
0.9738844975231726
 10
-8.034593630430752
 20
2.786999999999999
 30
0.0
 41
1.0
 10
-8.034593630430702
 20
2.787
 30
0.0
 41
0.7071067811865476
 10
-7.751093630430705
 20
2.786999999999999
 30
0.0
 41
1.0
 10
-7.467593630430702
 20
2.787
 30
0.0
 41
0.7071067811865476
 10
-7.467593630430751
 20
2.786999999999999
 30
0.0
 41
1.0
  0
SPLINE
  5
281
330
1F
100
AcDbEntity
  8
Default
100
AcDbSpline
210
0.0
220
0.0
230
1.0
 70
    24
 71
     2
 72
     6
 73
     3
 74
     0
 42
0.0000000001
 43
0.0000000001
 40
0.0
 40
0.0
 40
0.0
 40
0.0719999999999992
 40
0.0719999999999992
 40
0.0719999999999992
 10
-7.467593630430751
 20
2.786999999999999
 30
0.0
 10
-7.467593630430751
 20
2.750999999999999
 30
0.0
 10
-7.467593630430751
 20
2.715
 30
0.0
  0
SPLINE
  5
282
330
1F
100
AcDbEntity
  8
Default
100
AcDbSpline
210
0.0
220
0.0
230
1.0
 70
    24
 71
     2
 72
     6
 73
     3
 74
     0
 42
0.0000000001
 43
0.0000000001
 40
0.0
 40
0.0
 40
0.0
 40
0.56226707194609
 40
0.56226707194609
 40
0.56226707194609
 10
-7.467593630430751
 20
2.715
 30
0.0
 10
-7.749910398417274
 20
2.715
 30
0.0
 10
-8.032227166403796
 20
2.715
 30
0.0
  0
SPLINE
  5
283
330
1F
100
AcDbEntity
  8
Default
100
AcDbSpline
210
0.0
220
0.0
230
1.0
 70
    24
 71
     2
 72
     6
 73
     3
 74
     0
 42
0.0000000001
 43
0.0000000001
 40
0.0
 40
0.0
 40
0.0
 40
0.0299999999999994
 40
0.0299999999999994
 40
0.0299999999999994
 10
-7.867093630430754
 20
2.685
 30
0.0
 10
-7.867093630430754
 20
2.7
 30
0.0
 10
-7.867093630430754
 20
2.715
 30
0.0
  0
SPLINE
  5
284
330
1F
100
AcDbEntity
  8
Default
100
AcDbSpline
210
0.0
220
0.0
230
1.0
 70
    24
 71
     2
 72
     6
 73
     3
 74
     0
 42
0.0000000001
 43
0.0000000001
 40
0.0
 40
0.0
 40
0.0
 40
0.0299999999999994
 40
0.0299999999999994
 40
0.0299999999999994
 10
-7.635093630430755
 20
2.715
 30
0.0
 10
-7.635093630430755
 20
2.7
 30
0.0
 10
-7.635093630430755
 20
2.685
 30
0.0
  0
POLYLINE
  5
285
330
1F
100
AcDbEntity
  8
Default
100
AcDb2dPolyline
 66
     1
 10
0.0
 20
0.0
 30
0.0
  0
VERTEX
  5
286
330
285
100
AcDbEntity
  8
Default
100
AcDbVertex
100
AcDb2dVertex
 10
-8.170593630430911
 20
2.56
 30
0.0
  0
VERTEX
  5
287
330
285
100
AcDbEntity
  8
Default
100
AcDbVertex
100
AcDb2dVertex
 10
-8.170593630430911
 20
0.0
 30
0.0
  0
SEQEND
  5
288
330
285
100
AcDbEntity
  8
Default
  0
SPLINE
  5
289
330
1F
100
AcDbEntity
  8
Default
100
AcDbSpline
210
0.0
220
0.0
230
1.0
 70
    24
 71
     2
 72
     6
 73
     3
 74
     0
 42
0.0000000001
 43
0.0000000001
 40
0.0
 40
0.0
 40
0.0
 40
0.3804999999999978
 40
0.3804999999999978
 40
0.3804999999999978
 10
-8.170593630430911
 20
0.0
 30
0.0
 10
-8.36084363043091
 20
0.0
 30
0.0
 10
-8.551093630430909
 20
0.0
 30
0.0
  0
SPLINE
  5
28A
330
1F
100
AcDbEntity
  8
Default
100
AcDbSpline
210
0.0
220
0.0
230
1.0
 70
    12
 71
     2
 72
     6
 73
     3
 74
     0
 42
0.0000000001
 43
0.0000000001
 40
0.0
 40
0.0
 40
0.0
 40
0.3141578630330839
 40
0.3141578630330839
 40
0.3141578630330839
 10
-8.551093630430909
 20
0.0
 30
0.0
 41
1.0
 10
-8.751090774102442
 20
0.0000025473334157
 30
0.0
 41
0.7071163336729269
 10
-8.75109363043067
 20
0.1999996910007748
 30
0.0
 41
1.0
  0
POLYLINE
  5
28B
330
1F
100
AcDbEntity
  8
Default
100
AcDb2dPolyline
 66
     1
 10
0.0
 20
0.0
 30
0.0
  0
VERTEX
  5
28C
330
28B
100
AcDbEntity
  8
Default
100
AcDbVertex
100
AcDb2dVertex
 10
-8.75109363043067
 20
0.1999996910007748
 30
0.0
  0
VERTEX
  5
28D
330
28B
100
AcDbEntity
  8
Default
100
AcDbVertex
100
AcDb2dVertex
 10
-8.75109363043067
 20
2.360000308999224
 30
0.0
  0
SEQEND
  5
28E
330
28B
100
AcDbEntity
  8
Default
  0
SPLINE
  5
28F
330
1F
100
AcDbEntity
  8
Default
100
AcDbSpline
210
0.0
220
0.0
230
1.0
 70
    12
 71
     2
 72
     8
 73
     5
 74
     0
 42
0.0000000001
 43
0.0000000001
 40
0.0
 40
0.0
 40
0.0
 40
0.1570843383287497
 40
0.1570843383287497
 40
0.3141686766574995
 40
0.3141686766574995
 40
0.3141686766574995
 10
-8.75109363043067
 20
2.360000308999224
 30
0.0
 41
1.0
 10
-8.751102882813118
 20
2.442846816149753
 30
0.0
 41
0.9238580140017981
 10
-8.69252151019008
 20
2.501428098264866
 30
0.0
 41
1.0
 10
-8.633940137567043
 20
2.560009380379979
 30
0.0
 41
0.9238580140017981
 10
-8.551093630430909
 20
2.56
 30
0.0
 41
1.0
  0
SPLINE
  5
290
330
1F
100
AcDbEntity
  8
Default
100
AcDbSpline
210
0.0
220
0.0
230
1.0
 70
    24
 71
     2
 72
     6
 73
     3
 74
     0
 42
0.0000000001
 43
0.0000000001
 40
0.0
 40
0.0
 40
0.0
 40
0.3804999999999978
 40
0.3804999999999978
 40
0.3804999999999978
 10
-8.551093630430909
 20
2.56
 30
0.0
 10
-8.36084363043091
 20
2.56
 30
0.0
 10
-8.170593630430911
 20
2.56
 30
0.0
  0
POLYLINE
  5
291
330
1F
100
AcDbEntity
  8
Default
100
AcDb2dPolyline
 66
     1
 10
0.0
 20
0.0
 30
0.0
  0
VERTEX
  5
292
330
291
100
AcDbEntity
  8
Default
100
AcDbVertex
100
AcDb2dVertex
 10
-7.331593630430912
 20
0.0
 30
0.0
  0
VERTEX
  5
293
330
291
100
AcDbEntity
  8
Default
100
AcDbVertex
100
AcDb2dVertex
 10
-7.331593630430912
 20
2.56
 30
0.0
  0
SEQEND
  5
294
330
291
100
AcDbEntity
  8
Default
  0
SPLINE
  5
295
330
1F
100
AcDbEntity
  8
Default
100
AcDbSpline
210
0.0
220
0.0
230
1.0
 70
    24
 71
     2
 72
     6
 73
     3
 74
     0
 42
0.0000000001
 43
0.0000000001
 40
0.0
 40
0.0
 40
0.0
 40
0.3804999999999996
 40
0.3804999999999996
 40
0.3804999999999996
 10
-7.331593630430912
 20
2.56
 30
0.0
 10
-7.141343630430913
 20
2.56
 30
0.0
 10
-6.951093630430914
 20
2.56
 30
0.0
  0
SPLINE
  5
296
330
1F
100
AcDbEntity
  8
Default
100
AcDbSpline
210
0.0
220
0.0
230
1.0
 70
    12
 71
     2
 72
     6
 73
     3
 74
     0
 42
0.0000000001
 43
0.0000000001
 40
0.0
 40
0.0
 40
0.0
 40
0.3141578630330935
 40
0.3141578630330935
 40
0.3141578630330935
 10
-6.951093630430914
 20
2.56
 30
0.0
 41
1.0
 10
-6.751096486759352
 20
2.559997452666602
 30
0.0
 41
0.7071163336728625
 10
-6.751093630431153
 20
2.360000308999224
 30
0.0
 41
1.0
  0
POLYLINE
  5
297
330
1F
100
AcDbEntity
  8
Default
100
AcDb2dPolyline
 66
     1
 10
0.0
 20
0.0
 30
0.0
  0
VERTEX
  5
298
330
297
100
AcDbEntity
  8
Default
100
AcDbVertex
100
AcDb2dVertex
 10
-6.751093630431153
 20
2.360000308999224
 30
0.0
  0
VERTEX
  5
299
330
297
100
AcDbEntity
  8
Default
100
AcDbVertex
100
AcDb2dVertex
 10
-6.751093630431153
 20
0.1999996910007757
 30
0.0
  0
SEQEND
  5
29A
330
297
100
AcDbEntity
  8
Default
  0
SPLINE
  5
29B
330
1F
100
AcDbEntity
  8
Default
100
AcDbSpline
210
0.0
220
0.0
230
1.0
 70
    12
 71
     2
 72
     8
 73
     5
 74
     0
 42
0.0000000001
 43
0.0000000001
 40
0.0
 40
0.0
 40
0.0
 40
0.1570843383287469
 40
0.1570843383287469
 40
0.3141686766574937
 40
0.3141686766574937
 40
0.3141686766574937
 10
-6.751093630431153
 20
0.1999996910007757
 30
0.0
 41
1.0
 10
-6.751084378048704
 20
0.1171531838502485
 30
0.0
 41
0.9238580140018094
 10
-6.809665750671736
 20
0.0585719017351379
 30
0.0
 41
1.0
 10
-6.868247123294778
 20
-0.0000093803799726
 30
0.0
 41
0.9238580140018094
 10
-6.951093630430914
 20
-0.0000000000000001
 30
0.0
 41
1.0
  0
SPLINE
  5
29C
330
1F
100
AcDbEntity
  8
Default
100
AcDbSpline
210
0.0
220
0.0
230
1.0
 70
    24
 71
     2
 72
     6
 73
     3
 74
     0
 42
0.0000000001
 43
0.0000000001
 40
0.0
 40
0.0
 40
0.0
 40
0.3804999999999996
 40
0.3804999999999996
 40
0.3804999999999996
 10
-6.951093630430914
 20
0.0
 30
0.0
 10
-7.141343630430913
 20
0.0
 30
0.0
 10
-7.331593630430912
 20
0.0
 30
0.0
  0
SPLINE
  5
29D
330
1F
100
AcDbEntity
  8
Default
100
AcDbSpline
210
0.0
220
0.0
230
1.0
 70
    24
 71
     2
 72
     6
 73
     3
 74
     0
 42
0.0000000001
 43
0.0000000001
 40
0.0
 40
0.0
 40
0.0
 40
0.125
 40
0.125
 40
0.125
 10
-8.081093630430754
 20
2.56
 30
0.0
 10
-8.081093630430754
 20
2.6225
 30
0.0
 10
-8.081093630430754
 20
2.685
 30
0.0
  0
POLYLINE
  5
29E
330
1F
100
AcDbEntity
  8
Default
100
AcDb2dPolyline
 66
     1
 10
0.0
 20
0.0
 30
0.0
  0
VERTEX
  5
29F
330
29E
100
AcDbEntity
  8
Default
100
AcDbVertex
100
AcDb2dVertex
 10
-8.081093630430754
 20
2.685
 30
0.0
  0
VERTEX
  5
2A0
330
29E
100
AcDbEntity
  8
Default
100
AcDbVertex
100
AcDb2dVertex
 10
-7.421093630430756
 20
2.685
 30
0.0
  0
SEQEND
  5
2A1
330
29E
100
AcDbEntity
  8
Default
  0
SPLINE
  5
2A2
330
1F
100
AcDbEntity
  8
Default
100
AcDbSpline
210
0.0
220
0.0
230
1.0
 70
    24
 71
     2
 72
     6
 73
     3
 74
     0
 42
0.0000000001
 43
0.0000000001
 40
0.0
 40
0.0
 40
0.0
 40
0.125
 40
0.125
 40
0.125
 10
-7.421093630430756
 20
2.685
 30
0.0
 10
-7.421093630430756
 20
2.6225
 30
0.0
 10
-7.421093630430756
 20
2.56
 30
0.0
  0
SPLINE
  5
2A3
330
1F
100
AcDbEntity
  8
Default
100
AcDbSpline
210
0.0
220
0.0
230
1.0
 70
    24
 71
     2
 72
     6
 73
     3
 74
     0
 42
0.0000000001
 43
0.0000000001
 40
0.0
 40
0.0
 40
0.0
 40
0.125
 40
0.125
 40
0.125
 10
-0.332425706743473
 20
2.56
 30
0.0
 10
-0.332425706743473
 20
2.6225
 30
0.0
 10
-0.332425706743473
 20
2.685
 30
0.0
  0
POLYLINE
  5
2A4
330
1F
100
AcDbEntity
  8
Default
100
AcDb2dPolyline
 66
     1
 10
0.0
 20
0.0
 30
0.0
  0
VERTEX
  5
2A5
330
2A4
100
AcDbEntity
  8
Default
100
AcDbVertex
100
AcDb2dVertex
 10
-0.332425706743473
 20
2.685
 30
0.0
  0
VERTEX
  5
2A6
330
2A4
100
AcDbEntity
  8
Default
100
AcDbVertex
100
AcDb2dVertex
 10
0.3275742932565236
 20
2.685
 30
0.0
  0
SEQEND
  5
2A7
330
2A4
100
AcDbEntity
  8
Default
  0
SPLINE
  5
2A8
330
1F
100
AcDbEntity
  8
Default
100
AcDbSpline
210
0.0
220
0.0
230
1.0
 70
    24
 71
     2
 72
     6
 73
     3
 74
     0
 42
0.0000000001
 43
0.0000000001
 40
0.0
 40
0.0
 40
0.0
 40
0.125
 40
0.125
 40
0.125
 10
0.3275742932565236
 20
2.685
 30
0.0
 10
0.3275742932565236
 20
2.6225
 30
0.0
 10
0.3275742932565236
 20
2.56
 30
0.0
  0
POLYLINE
  5
2A9
330
1F
100
AcDbEntity
  8
Default
100
AcDb2dPolyline
 66
     1
 10
0.0
 20
0.0
 30
0.0
  0
VERTEX
  5
2AA
330
2A9
100
AcDbEntity
  8
Default
100
AcDbVertex
100
AcDb2dVertex
 10
0.4170742932563683
 20
0.0
 30
0.0
  0
VERTEX
  5
2AB
330
2A9
100
AcDbEntity
  8
Default
100
AcDbVertex
100
AcDb2dVertex
 10
0.4170742932563683
 20
2.56
 30
0.0
  0
SEQEND
  5
2AC
330
2A9
100
AcDbEntity
  8
Default
  0
SPLINE
  5
2AD
330
1F
100
AcDbEntity
  8
Default
100
AcDbSpline
210
0.0
220
0.0
230
1.0
 70
    24
 71
     2
 72
     6
 73
     3
 74
     0
 42
0.0000000001
 43
0.0000000001
 40
0.0
 40
0.0
 40
0.0
 40
0.3804999999999996
 40
0.3804999999999996
 40
0.3804999999999996
 10
0.4170742932563683
 20
2.56
 30
0.0
 10
0.6073242932563672
 20
2.56
 30
0.0
 10
0.7975742932563661
 20
2.56
 30
0.0
  0
SPLINE
  5
2AE
330
1F
100
AcDbEntity
  8
Default
100
AcDbSpline
210
0.0
220
0.0
230
1.0
 70
    12
 71
     2
 72
     6
 73
     3
 74
     0
 42
0.0000000001
 43
0.0000000001
 40
0.0
 40
0.0
 40
0.0
 40
0.3141578630330935
 40
0.3141578630330935
 40
0.3141578630330935
 10
0.7975742932563661
 20
2.56
 30
0.0
 41
1.0
 10
0.9975714369279277
 20
2.559997452666602
 30
0.0
 41
0.7071163336728625
 10
0.9975742932561273
 20
2.360000308999224
 30
0.0
 41
1.0
  0
POLYLINE
  5
2AF
330
1F
100
AcDbEntity
  8
Default
100
AcDb2dPolyline
 66
     1
 10
0.0
 20
0.0
 30
0.0
  0
VERTEX
  5
2B0
330
2AF
100
AcDbEntity
  8
Default
100
AcDbVertex
100
AcDb2dVertex
 10
0.9975742932561273
 20
2.360000308999224
 30
0.0
  0
VERTEX
  5
2B1
330
2AF
100
AcDbEntity
  8
Default
100
AcDbVertex
100
AcDb2dVertex
 10
0.9975742932561273
 20
0.1999996910007757
 30
0.0
  0
SEQEND
  5
2B2
330
2AF
100
AcDbEntity
  8
Default
  0
SPLINE
  5
2B3
330
1F
100
AcDbEntity
  8
Default
100
AcDbSpline
210
0.0
220
0.0
230
1.0
 70
    12
 71
     2
 72
     8
 73
     5
 74
     0
 42
0.0000000001
 43
0.0000000001
 40
0.0
 40
0.0
 40
0.0
 40
0.1570843383287469
 40
0.1570843383287469
 40
0.3141686766574937
 40
0.3141686766574937
 40
0.3141686766574937
 10
0.9975742932561273
 20
0.1999996910007757
 30
0.0
 41
1.0
 10
0.9975835456385761
 20
0.1171531838502485
 30
0.0
 41
0.9238580140018094
 10
0.9390021730155438
 20
0.0585719017351379
 30
0.0
 41
1.0
 10
0.8804208003925024
 20
-0.0000093803799726
 30
0.0
 41
0.9238580140018094
 10
0.7975742932563661
 20
-0.0000000000000001
 30
0.0
 41
1.0
  0
SPLINE
  5
2B4
330
1F
100
AcDbEntity
  8
Default
100
AcDbSpline
210
0.0
220
0.0
230
1.0
 70
    24
 71
     2
 72
     6
 73
     3
 74
     0
 42
0.0000000001
 43
0.0000000001
 40
0.0
 40
0.0
 40
0.0
 40
0.3804999999999996
 40
0.3804999999999996
 40
0.3804999999999996
 10
0.7975742932563661
 20
0.0
 30
0.0
 10
0.6073242932563672
 20
0.0
 30
0.0
 10
0.4170742932563683
 20
0.0
 30
0.0
  0
POLYLINE
  5
2B5
330
1F
100
AcDbEntity
  8
Default
100
AcDb2dPolyline
 66
     1
 10
0.0
 20
0.0
 30
0.0
  0
VERTEX
  5
2B6
330
2B5
100
AcDbEntity
  8
Default
100
AcDbVertex
100
AcDb2dVertex
 10
-0.4219257067436303
 20
2.56
 30
0.0
  0
VERTEX
  5
2B7
330
2B5
100
AcDbEntity
  8
Default
100
AcDbVertex
100
AcDb2dVertex
 10
-0.4219257067436303
 20
0.0
 30
0.0
  0
SEQEND
  5
2B8
330
2B5
100
AcDbEntity
  8
Default
  0
SPLINE
  5
2B9
330
1F
100
AcDbEntity
  8
Default
100
AcDbSpline
210
0.0
220
0.0
230
1.0
 70
    24
 71
     2
 72
     6
 73
     3
 74
     0
 42
0.0000000001
 43
0.0000000001
 40
0.0
 40
0.0
 40
0.0
 40
0.3804999999999978
 40
0.3804999999999978
 40
0.3804999999999978
 10
-0.4219257067436303
 20
0.0
 30
0.0
 10
-0.6121757067436293
 20
0.0
 30
0.0
 10
-0.8024257067436282
 20
0.0
 30
0.0
  0
SPLINE
  5
2BA
330
1F
100
AcDbEntity
  8
Default
100
AcDbSpline
210
0.0
220
0.0
230
1.0
 70
    12
 71
     2
 72
     6
 73
     3
 74
     0
 42
0.0000000001
 43
0.0000000001
 40
0.0
 40
0.0
 40
0.0
 40
0.3141578630330839
 40
0.3141578630330839
 40
0.3141578630330839
 10
-0.8024257067436282
 20
0.0
 30
0.0
 41
1.0
 10
-1.002422850415163
 20
0.0000025473334157
 30
0.0
 41
0.7071163336729269
 10
-1.002425706743389
 20
0.1999996910007748
 30
0.0
 41
1.0
  0
POLYLINE
  5
2BB
330
1F
100
AcDbEntity
  8
Default
100
AcDb2dPolyline
 66
     1
 10
0.0
 20
0.0
 30
0.0
  0
VERTEX
  5
2BC
330
2BB
100
AcDbEntity
  8
Default
100
AcDbVertex
100
AcDb2dVertex
 10
-1.002425706743389
 20
0.1999996910007748
 30
0.0
  0
VERTEX
  5
2BD
330
2BB
100
AcDbEntity
  8
Default
100
AcDbVertex
100
AcDb2dVertex
 10
-1.002425706743389
 20
2.360000308999224
 30
0.0
  0
SEQEND
  5
2BE
330
2BB
100
AcDbEntity
  8
Default
  0
SPLINE
  5
2BF
330
1F
100
AcDbEntity
  8
Default
100
AcDbSpline
210
0.0
220
0.0
230
1.0
 70
    12
 71
     2
 72
     8
 73
     5
 74
     0
 42
0.0000000001
 43
0.0000000001
 40
0.0
 40
0.0
 40
0.0
 40
0.1570843383287497
 40
0.1570843383287497
 40
0.3141686766574995
 40
0.3141686766574995
 40
0.3141686766574995
 10
-1.002425706743389
 20
2.360000308999224
 30
0.0
 41
1.0
 10
-1.002434959125838
 20
2.442846816149753
 30
0.0
 41
0.9238580140017981
 10
-0.9438535865027988
 20
2.501428098264866
 30
0.0
 41
1.0
 10
-0.8852722138797634
 20
2.560009380379979
 30
0.0
 41
0.9238580140017981
 10
-0.8024257067436282
 20
2.56
 30
0.0
 41
1.0
  0
SPLINE
  5
2C0
330
1F
100
AcDbEntity
  8
Default
100
AcDbSpline
210
0.0
220
0.0
230
1.0
 70
    24
 71
     2
 72
     6
 73
     3
 74
     0
 42
0.0000000001
 43
0.0000000001
 40
0.0
 40
0.0
 40
0.0
 40
0.3804999999999978
 40
0.3804999999999978
 40
0.3804999999999978
 10
-0.8024257067436282
 20
2.56
 30
0.0
 10
-0.6121757067436293
 20
2.56
 30
0.0
 10
-0.4219257067436303
 20
2.56
 30
0.0
  0
SPLINE
  5
2C1
330
1F
100
AcDbEntity
  8
Default
100
AcDbSpline
210
0.0
220
0.0
230
1.0
 70
    24
 71
     2
 72
     6
 73
     3
 74
     0
 42
0.0000000001
 43
0.0000000001
 40
0.0
 40
0.0
 40
0.0
 40
0.0299999999999994
 40
0.0299999999999994
 40
0.0299999999999994
 10
0.113574293256525
 20
2.715
 30
0.0
 10
0.113574293256525
 20
2.7
 30
0.0
 10
0.113574293256525
 20
2.685
 30
0.0
  0
SPLINE
  5
2C2
330
1F
100
AcDbEntity
  8
Default
100
AcDbSpline
210
0.0
220
0.0
230
1.0
 70
    24
 71
     2
 72
     6
 73
     3
 74
     0
 42
0.0000000001
 43
0.0000000001
 40
0.0
 40
0.0
 40
0.0
 40
0.0299999999999994
 40
0.0299999999999994
 40
0.0299999999999994
 10
-0.1184257067434744
 20
2.685
 30
0.0
 10
-0.1184257067434744
 20
2.7
 30
0.0
 10
-0.1184257067434744
 20
2.715
 30
0.0
  0
SPLINE
  5
2C3
330
1F
100
AcDbEntity
  8
Default
100
AcDbSpline
210
0.0
220
0.0
230
1.0
 70
    24
 71
     2
 72
     6
 73
     3
 74
     0
 42
0.0000000001
 43
0.0000000001
 40
0.0
 40
0.0
 40
0.0
 40
0.0719999999999992
 40
0.0719999999999992
 40
0.0719999999999992
 10
-0.2835592427165154
 20
2.715
 30
0.0
 10
-0.2835592427165207
 20
2.750999999999999
 30
0.0
 10
-0.283559242716526
 20
2.786999999999999
 30
0.0
  0
SPLINE
  5
2C4
330
1F
100
AcDbEntity
  8
Default
100
AcDbSpline
210
0.0
220
0.0
230
1.0
 70
    28
 71
     2
 72
    10
 73
     7
 74
     0
 42
0.0000000001
 43
0.0000000001
 40
2.945243112740431
 40
2.945243112740431
 40
2.945243112740431
 40
3.087703909043192
 40
3.087703909043192
 40
4.685444608111389
 40
4.685444608111389
 40
6.283185307179586
 40
6.283185307179586
 40
6.283185307179586
 10
-0.2835592427165255
 20
2.786999999999999
 30
0.0
 41
0.9524261152922843
 10
-0.2859257067434763
 20
2.786999999999999
 30
0.0
 41
0.9738844975231726
 10
-0.2859257067434712
 20
2.786999999999999
 30
0.0
 41
1.0
 10
-0.2859257067434215
 20
2.787
 30
0.0
 41
0.7071067811865476
 10
-0.002425706743425
 20
2.786999999999999
 30
0.0
 41
1.0
 10
0.2810742932565783
 20
2.787
 30
0.0
 41
0.7071067811865476
 10
0.2810742932565289
 20
2.786999999999999
 30
0.0
 41
1.0
  0
SPLINE
  5
2C5
330
1F
100
AcDbEntity
  8
Default
100
AcDbSpline
210
0.0
220
0.0
230
1.0
 70
    24
 71
     2
 72
     6
 73
     3
 74
     0
 42
0.0000000001
 43
0.0000000001
 40
0.0
 40
0.0
 40
0.0
 40
0.0719999999999992
 40
0.0719999999999992
 40
0.0719999999999992
 10
0.2810742932565289
 20
2.786999999999999
 30
0.0
 10
0.2810742932565289
 20
2.750999999999999
 30
0.0
 10
0.2810742932565289
 20
2.715
 30
0.0
  0
SPLINE
  5
2C6
330
1F
100
AcDbEntity
  8
Default
100
AcDbSpline
210
0.0
220
0.0
230
1.0
 70
    24
 71
     2
 72
     6
 73
     3
 74
     0
 42
0.0000000001
 43
0.0000000001
 40
0.0
 40
0.0
 40
0.0
 40
0.56226707194609
 40
0.56226707194609
 40
0.56226707194609
 10
0.2810742932565289
 20
2.715
 30
0.0
 10
-0.0012424747299932
 20
2.715
 30
0.0
 10
-0.2835592427165154
 20
2.715
 30
0.0
  0
SPLINE
  5
2C7
330
1F
100
AcDbEntity
  8
Default
100
AcDbSpline
210
0.0
220
0.0
230
1.0
 70
    24
 71
     2
 72
     6
 73
     3
 74
     0
 42
0.0000000001
 43
0.0000000001
 40
0.0
 40
0.0
 40
0.0
 40
1.280000000000001
 40
1.280000000000001
 40
1.280000000000001
 10
0.3520742932565269
 20
2.56
 30
0.0
 10
0.3520742932565269
 20
1.92
 30
0.0
 10
0.3520742932565269
 20
1.279999999999999
 30
0.0
  0
SPLINE
  5
2C8
330
1F
100
AcDbEntity
  8
Default
100
AcDbSpline
210
0.0
220
0.0
230
1.0
 70
    24
 71
     2
 72
     6
 73
     3
 74
     0
 42
0.0000000001
 43
0.0000000001
 40
0.0
 40
0.0
 40
0.0
 40
0.7030817531036625
 40
0.7030817531036625
 40
0.7030817531036625
 10
0.3520742932565269
 20
1.279999999999999
 30
0.0
 10
-0.0009461450193872
 20
1.279999999999999
 30
0.0
 10
-0.3539665832953013
 20
1.279999999999999
 30
0.0
  0
SPLINE
  5
2C9
330
1F
100
AcDbEntity
  8
Default
100
AcDbSpline
210
0.0
220
0.0
230
1.0
 70
    24
 71
     2
 72
     6
 73
     3
 74
     0
 42
0.0000000001
 43
0.0000000001
 40
0.0
 40
0.0
 40
0.0
 40
1.280000000000001
 40
1.280000000000001
 40
1.280000000000001
 10
-0.3539665832953013
 20
1.279999999999999
 30
0.0
 10
-0.3539665832953013
 20
1.92
 30
0.0
 10
-0.3539665832953013
 20
2.56
 30
0.0
  0
SPLINE
  5
2CA
330
1F
100
AcDbEntity
  8
Default
100
AcDbSpline
210
0.0
220
0.0
230
1.0
 70
    24
 71
     2
 72
     6
 73
     3
 74
     0
 42
0.0000000001
 43
0.0000000001
 40
-0.7030817531036629
 40
-0.7030817531036629
 40
-0.7030817531036629
 40
0.0
 40
0.0
 40
0.0
 10
-0.3539665832953013
 20
2.56
 30
0.0
 10
-0.0009461450193872
 20
2.56
 30
0.0
 10
0.3520742932565269
 20
2.56
 30
0.0
  0
SPLINE
  5
2CB
330
1F
100
AcDbEntity
  8
Default
100
AcDbSpline
210
0.0
220
0.0
230
1.0
 70
     8
 71
     3
 72
    10
 73
     6
 74
     0
 42
0.0000000001
 43
0.0000000001
 40
0.0
 40
0.0
 40
0.0
 40
0.0
 40
1.0
 40
2.0
 40
3.0
 40
3.0
 40
3.0
 40
3.0
 10
1.123167098685954
 20
6.820991580863405
 30
0.0
 10
1.11301882144754
 20
6.927429545476254
 30
0.0
 10
1.213421423500066
 20
7.135034330743999
 30
0.0
 10
1.532846344338671
 20
7.225837600764943
 30
0.0
 10
1.740747082860502
 20
7.23195123731887
 30
0.0
 10
1.843686257721487
 20
7.205426897544742
 30
0.0
  0
SPLINE
  5
2CC
330
1F
100
AcDbEntity
  8
Default
100
AcDbSpline
210
0.0
220
0.0
230
1.0
 70
    12
 71
     2
 72
     6
 73
     3
 74
     0
 42
0.0000000001
 43
0.0000000001
 40
0.0
 40
0.0
 40
0.0
 40
9.8198364664615
 40
9.8198364664615
 40
9.8198364664615
 10
1.843686257721487
 20
7.205426897544742
 30
0.0
 41
1.0
 10
6.930947030633826
 20
5.74893875186052
 30
0.0
 41
0.9999999973184901
 10
11.65650399109516
 20
4.394528660038226
 30
0.0
 41
1.0
  0
SPLINE
  5
2CD
330
1F
100
AcDbEntity
  8
Default
100
AcDbSpline
210
0.0
220
0.0
230
1.0
 70
     8
 71
     3
 72
    14
 73
    10
 74
     0
 42
0.0000000001
 43
0.0000000001
 40
0.0
 40
0.0
 40
0.0
 40
0.0
 40
0.1495423926586003
 40
0.2824441093195178
 40
0.517929600126794
 40
0.6402047794866174
 40
0.7745766749246361
 40
0.8925897555759876
 40
1.749906342848027
 40
1.749906342848027
 40
1.749906342848027
 40
1.749906342848027
 10
11.65650399109516
 20
4.394528660038226
 30
0.0
 10
11.71013705094092
 20
4.379531808963067
 30
0.0
 10
11.79883475911723
 20
4.346347377931259
 30
0.0
 10
11.94713349665847
 20
4.256593798736069
 30
0.0
 10
12.04558645312346
 20
4.116277409867635
 30
0.0
 10
12.06650360975095
 20
3.951741965294382
 30
0.0
 10
12.07401732807357
 20
3.827765413168769
 30
0.0
 10
12.10660524084896
 20
3.458746205390125
 30
0.0
 10
12.13143758846971
 20
3.135135728615697
 30
0.0
 10
12.15566483073695
 20
2.849215053830647
 30
0.0
  0
SPLINE
  5
2CE
330
1F
100
AcDbEntity
  8
Default
100
AcDbSpline
210
0.0
220
0.0
230
1.0
 70
    12
 71
     2
 72
     6
 73
     3
 74
     0
 42
0.0000000001
 43
0.0000000001
 40
0.0
 40
0.0
 40
0.0
 40
0.0874132072404953
 40
0.0874132072404953
 40
0.0874132072404953
 10
12.15566483073695
 20
2.849215053830647
 30
0.0
 41
1.0
 10
12.16193309181229
 20
2.795173129596897
 30
0.0
 41
0.7479102377008046
 10
12.21537264646008
 20
2.795000000122733
 30
0.0
 41
1.0
  0
POLYLINE
  5
2CF
330
1F
100
AcDbEntity
  8
Default
100
AcDb2dPolyline
 66
     1
 10
0.0
 20
0.0
 30
0.0
  0
VERTEX
  5
2D0
330
2CF
100
AcDbEntity
  8
Default
100
AcDbVertex
100
AcDb2dVertex
 10
12.21537264646008
 20
2.795000000122733
 30
0.0
  0
VERTEX
  5
2D1
330
2CF
100
AcDbEntity
  8
Default
100
AcDbVertex
100
AcDb2dVertex
 10
12.85521484105543
 20
2.795325440141495
 30
0.0
  0
SEQEND
  5
2D2
330
2CF
100
AcDbEntity
  8
Default
  0
SPLINE
  5
2D3
330
1F
100
AcDbEntity
  8
Default
100
AcDbSpline
210
0.0
220
0.0
230
1.0
 70
    12
 71
     2
 72
     6
 73
     3
 74
     0
 42
0.0000000001
 43
0.0000000001
 40
0.0
 40
0.0
 40
0.0
 40
0.0884765880976516
 40
0.0884765880976516
 40
0.0884765880976516
 10
12.85521484105543
 20
2.795325440141495
 30
0.0
 41
1.0
 10
12.90929798830221
 20
2.801021360434
 30
0.0
 41
0.74231620903111
 10
12.90914886344639
 20
2.855592827801905
 30
0.0
 41
1.0
  0
SPLINE
  5
2D4
330
1F
100
AcDbEntity
  8
Default
100
AcDbSpline
210
0.0
220
0.0
230
1.0
 70
     8
 71
     3
 72
    12
 73
     8
 74
     0
 42
0.0000000001
 43
0.0000000001
 40
0.0
 40
0.0
 40
0.0
 40
0.0
 40
1.383009981161996
 40
1.516945382447238
 40
1.639489039263217
 40
2.026309280518669
 40
2.408724995212097
 40
2.408724995212097
 40
2.408724995212097
 40
2.408724995212097
 10
12.90914886344639
 20
2.855592827801905
 30
0.0
 10
12.90307691162263
 20
3.316898422147037
 30
0.0
 10
12.90845117515449
 20
3.822236851062466
 30
0.0
 10
12.90070799251997
 20
4.369029655565518
 30
0.0
 10
12.86148807369977
 20
4.579916580041903
 30
0.0
 10
12.72980109566965
 20
4.857292179969575
 30
0.0
 10
12.50406809030775
 20
5.000723906892497
 30
0.0
 10
12.38518007191139
 20
5.043589958893421
 30
0.0
  0
ARC
  5
2D5
330
1F
100
AcDbEntity
  8
Default
100
AcDbCircle
 10
777.9672591412735
 20
2382.237908440522
 30
0.0
 40
2497.432431040629
100
AcDbArc
 50
251.9160824157563
 51
252.1487006352704
  0
ARC
  5
2D6
330
1F
100
AcDbEntity
  8
Default
100
AcDbCircle
 10
-7.188476874018547
 20
-22.23437462157419
 30
0.0
 40
31.9857806854523
100
AcDbArc
 50
71.91608241574858
 51
75.08908199151963
  0
POLYLINE
  5
2D7
330
1F
100
AcDbEntity
  8
Default
100
AcDb2dPolyline
 66
     1
 10
0.0
 20
0.0
 30
0.0
  0
VERTEX
  5
2D8
330
2D7
100
AcDbEntity
  8
Default
100
AcDbVertex
100
AcDb2dVertex
 10
1.042006222503417
 20
8.674350911124826
 30
0.0
  0
VERTEX
  5
2D9
330
2D7
100
AcDbEntity
  8
Default
100
AcDbVertex
100
AcDb2dVertex
 10
0.9779805279445668
 20
8.672136313351256
 30
0.0
  0
SEQEND
  5
2DA
330
2D7
100
AcDbEntity
  8
Default
  0
SPLINE
  5
2DB
330
1F
100
AcDbEntity
  8
Default
100
AcDbSpline
210
0.0
220
0.0
230
1.0
 70
    24
 71
     2
 72
     6
 73
     3
 74
     0
 42
0.0000000001
 43
0.0000000001
 40
-0.1676741322928761
 40
-0.1676741322928761
 40
-0.1676741322928761
 40
0.0
 40
0.0
 40
0.0
 10
0.9779805279445668
 20
8.672136313351256
 30
0.0
 10
0.9186147221740377
 20
8.731417840474705
 30
0.0
 10
0.8592489164035086
 20
8.790699367598153
 30
0.0
  0
SPLINE
  5
2DC
330
1F
100
AcDbEntity
  8
Default
100
AcDbSpline
210
0.0
220
0.0
230
1.0
 70
    24
 71
     2
 72
     6
 73
     3
 74
     0
 42
0.0000000001
 43
0.0000000001
 40
0.0
 40
0.0
 40
0.0
 40
1.715022092415875
 40
1.715022092415875
 40
1.715022092415875
 10
0.8592489164035086
 20
8.790699367598153
 30
0.0
 10
0.0007851181767684
 20
8.790699367598153
 30
0.0
 10
-0.8576786800499718
 20
8.790699367598153
 30
0.0
  0
SPLINE
  5
2DD
330
1F
100
AcDbEntity
  8
Default
100
AcDbSpline
210
0.0
220
0.0
230
1.0
 70
    24
 71
     2
 72
     6
 73
     3
 74
     0
 42
0.0000000001
 43
0.0000000001
 40
0.0
 40
0.0
 40
0.0
 40
0.1676741322928761
 40
0.1676741322928761
 40
0.1676741322928761
 10
-0.8576786800499718
 20
8.790699367598153
 30
0.0
 10
-0.9178296039972693
 20
8.731417840474705
 30
0.0
 10
-0.9779805279445668
 20
8.672136313351256
 30
0.0
  0
POLYLINE
  5
2DE
330
1F
100
AcDbEntity
  8
Default
100
AcDb2dPolyline
 66
     1
 10
0.0
 20
0.0
 30
0.0
  0
VERTEX
  5
2DF
330
2DE
100
AcDbEntity
  8
Default
100
AcDbVertex
100
AcDb2dVertex
 10
-0.9779805279445668
 20
8.672136313351256
 30
0.0
  0
VERTEX
  5
2E0
330
2DE
100
AcDbEntity
  8
Default
100
AcDbVertex
100
AcDb2dVertex
 10
-1.042006222503417
 20
8.674350911124826
 30
0.0
  0
SEQEND
  5
2E1
330
2DE
100
AcDbEntity
  8
Default
  0
ARC
  5
2E2
330
1F
100
AcDbEntity
  8
Default
100
AcDbCircle
 10
7.188476874018547
 20
-22.23437462157419
 30
0.0
 40
31.9857806854523
100
AcDbArc
 50
104.9109180084804
 51
108.0839175842514
  0
ARC
  5
2E3
330
1F
100
AcDbEntity
  8
Default
100
AcDbCircle
 10
-777.9672591412735
 20
2382.237908440522
 30
0.0
 40
2497.432431040629
100
AcDbArc
 50
287.8512993647296
 51
288.0839175842437
  0
SPLINE
  5
2E4
330
1F
100
AcDbEntity
  8
Default
100
AcDbSpline
210
0.0
220
0.0
230
1.0
 70
     8
 71
     3
 72
    12
 73
     8
 74
     0
 42
0.0000000001
 43
0.0000000001
 40
-2.408724995212097
 40
-2.408724995212097
 40
-2.408724995212097
 40
-2.408724995212097
 40
-2.026309280518669
 40
-1.639489039263217
 40
-1.516945382447238
 40
-1.383009981161996
 40
0.0
 40
0.0
 40
0.0
 40
0.0
 10
-12.38518007191139
 20
5.043589958893421
 30
0.0
 10
-12.50406809030775
 20
5.000723906892497
 30
0.0
 10
-12.72980109566965
 20
4.857292179969575
 30
0.0
 10
-12.86148807369977
 20
4.579916580041903
 30
0.0
 10
-12.90070799251997
 20
4.369029655565518
 30
0.0
 10
-12.90845117515449
 20
3.822236851062466
 30
0.0
 10
-12.90307691162263
 20
3.316898422147037
 30
0.0
 10
-12.90914886344639
 20
2.855592827801905
 30
0.0
  0
SPLINE
  5
2E5
330
1F
100
AcDbEntity
  8
Default
100
AcDbSpline
210
0.0
220
0.0
230
1.0
 70
    12
 71
     2
 72
     6
 73
     3
 74
     0
 42
0.0000000001
 43
0.0000000001
 40
-0.0884765880976516
 40
-0.0884765880976516
 40
-0.0884765880976516
 40
0.0
 40
0.0
 40
0.0
 10
-12.90914886344639
 20
2.855592827801905
 30
0.0
 41
1.0
 10
-12.90929798830221
 20
2.801021360434
 30
0.0
 41
0.74231620903111
 10
-12.85521484105543
 20
2.795325440141495
 30
0.0
 41
1.0
  0
POLYLINE
  5
2E6
330
1F
100
AcDbEntity
  8
Default
100
AcDb2dPolyline
 66
     1
 10
0.0
 20
0.0
 30
0.0
  0
VERTEX
  5
2E7
330
2E6
100
AcDbEntity
  8
Default
100
AcDbVertex
100
AcDb2dVertex
 10
-12.85521484105543
 20
2.795325440141495
 30
0.0
  0
VERTEX
  5
2E8
330
2E6
100
AcDbEntity
  8
Default
100
AcDbVertex
100
AcDb2dVertex
 10
-12.21537264646008
 20
2.795000000122733
 30
0.0
  0
SEQEND
  5
2E9
330
2E6
100
AcDbEntity
  8
Default
  0
SPLINE
  5
2EA
330
1F
100
AcDbEntity
  8
Default
100
AcDbSpline
210
0.0
220
0.0
230
1.0
 70
    12
 71
     2
 72
     6
 73
     3
 74
     0
 42
0.0000000001
 43
0.0000000001
 40
-0.0874132072404953
 40
-0.0874132072404953
 40
-0.0874132072404953
 40
0.0
 40
0.0
 40
0.0
 10
-12.21537264646008
 20
2.795000000122733
 30
0.0
 41
1.0
 10
-12.16193309181229
 20
2.795173129596897
 30
0.0
 41
0.7479102377008046
 10
-12.15566483073695
 20
2.849215053830647
 30
0.0
 41
1.0
  0
SPLINE
  5
2EB
330
1F
100
AcDbEntity
  8
Default
100
AcDbSpline
210
0.0
220
0.0
230
1.0
 70
     8
 71
     3
 72
    14
 73
    10
 74
     0
 42
0.0000000001
 43
0.0000000001
 40
-1.749906342848027
 40
-1.749906342848027
 40
-1.749906342848027
 40
-1.749906342848027
 40
-0.8925897555759876
 40
-0.7745766749246361
 40
-0.6402047794866174
 40
-0.517929600126794
 40
-0.2824441093195178
 40
-0.1495423926586003
 40
0.0
 40
0.0
 40
0.0
 40
0.0
 10
-12.15566483073695
 20
2.849215053830647
 30
0.0
 10
-12.13143758846971
 20
3.135135728615697
 30
0.0
 10
-12.10660524084896
 20
3.458746205390125
 30
0.0
 10
-12.07401732807357
 20
3.827765413168769
 30
0.0
 10
-12.06650360975095
 20
3.951741965294382
 30
0.0
 10
-12.04558645312346
 20
4.116277409867635
 30
0.0
 10
-11.94713349665847
 20
4.256593798736069
 30
0.0
 10
-11.79883475911723
 20
4.346347377931259
 30
0.0
 10
-11.71013705094092
 20
4.379531808963067
 30
0.0
 10
-11.65650399109516
 20
4.394528660038226
 30
0.0
  0
SPLINE
  5
2EC
330
1F
100
AcDbEntity
  8
Default
100
AcDbSpline
210
0.0
220
0.0
230
1.0
 70
    12
 71
     2
 72
     6
 73
     3
 74
     0
 42
0.0000000001
 43
0.0000000001
 40
-9.8198364664615
 40
-9.8198364664615
 40
-9.8198364664615
 40
0.0
 40
0.0
 40
0.0
 10
-11.65650399109516
 20
4.394528660038226
 30
0.0
 41
1.0
 10
-6.930947030633826
 20
5.74893875186052
 30
0.0
 41
0.9999999973184901
 10
-1.843686257721487
 20
7.205426897544742
 30
0.0
 41
1.0
  0
SPLINE
  5
2ED
330
1F
100
AcDbEntity
  8
Default
100
AcDbSpline
210
0.0
220
0.0
230
1.0
 70
     8
 71
     3
 72
    10
 73
     6
 74
     0
 42
0.0000000001
 43
0.0000000001
 40
-3.0
 40
-3.0
 40
-3.0
 40
-3.0
 40
-2.0
 40
-1.0
 40
0.0
 40
0.0
 40
0.0
 40
0.0
 10
-1.843686257721487
 20
7.205426897544742
 30
0.0
 10
-1.740747082860502
 20
7.23195123731887
 30
0.0
 10
-1.532846344338671
 20
7.225837600764943
 30
0.0
 10
-1.213421423500066
 20
7.135034330743999
 30
0.0
 10
-1.11301882144754
 20
6.927429545476254
 30
0.0
 10
-1.123167098685954
 20
6.820991580863405
 30
0.0
  0
SPLINE
  5
2EE
330
1F
100
AcDbEntity
  8
Default
100
AcDbSpline
210
0.0
220
0.0
230
1.0
 70
     8
 71
     3
 72
    10
 73
     6
 74
     0
 42
0.0000000001
 43
0.0000000001
 40
0.0
 40
0.0
 40
0.0
 40
0.0
 40
1.0
 40
2.0
 40
3.0
 40
3.0
 40
3.0
 40
3.0
 10
-0.8538462388622179
 20
7.74691756798325
 30
0.0
 10
-0.8806311168545605
 20
7.930193887903961
 30
0.0
 10
-1.24399703301048
 20
7.978069154498497
 30
0.0
 10
-1.692123850632058
 20
7.885205052962386
 30
0.0
 10
-1.99825557066172
 20
7.792912253534586
 30
0.0
 10
-2.147999338526994
 20
7.746451762520707
 30
0.0
  0
SPLINE
  5
2EF
330
1F
100
AcDbEntity
  8
Default
100
AcDbSpline
210
0.0
220
0.0
230
1.0
 70
    12
 71
     2
 72
     6
 73
     3
 74
     0
 42
0.0000000001
 43
0.0000000001
 40
-9.91671138027688
 40
-9.91671138027688
 40
-9.91671138027688
 40
0.0
 40
0.0
 40
0.0
 10
-2.147999338526994
 20
7.746451762520707
 30
0.0
 41
1.0
 10
-6.884192517177698
 20
6.278880529300013
 30
0.0
 41
0.9999999999989713
 10
-11.96841132943834
 20
4.698415029092784
 30
0.0
 41
1.0
  0
SPLINE
  5
2F0
330
1F
100
AcDbEntity
  8
Default
100
AcDbSpline
210
0.0
220
0.0
230
1.0
 70
     8
 71
     3
 72
    12
 73
     8
 74
     0
 42
0.0000000001
 43
0.0000000001
 40
0.0
 40
0.0
 40
0.0
 40
0.0
 40
0.1316698363855691
 40
0.2543531704723769
 40
0.515903239989096
 40
0.6787544155817709
 40
1.991867106151753
 40
1.991867106151753
 40
1.991867106151753
 40
1.991867106151753
 10
-11.96841132943834
 20
4.698415029092784
 30
0.0
 10
-12.00887703205571
 20
4.682897461911794
 30
0.0
 10
-12.08685199446722
 20
4.644799608389971
 30
0.0
 10
-12.21460236276431
 20
4.529951905104478
 30
0.0
 10
-12.29793087091019
 20
4.358595388506404
 30
0.0
 10
-12.32047826182578
 20
3.779258831226814
 30
0.0
 10
-12.33839173082746
 20
3.288060451352145
 30
0.0
 10
-12.34392567581784
 20
2.850194400531338
 30
0.0
  0
SPLINE
  5
2F1
330
1F
100
AcDbEntity
  8
Default
100
AcDbSpline
210
0.0
220
0.0
230
1.0
 70
     8
 71
     3
 72
    13
 73
     9
 74
     0
 42
0.0000000001
 43
0.0000000001
 40
0.0
 40
0.0
 40
0.0
 40
0.0
 40
0.2488503046384883
 40
0.6138857958375329
 40
1.388445673596322
 40
1.600422197546088
 40
1.938757630733461
 40
2.243711625900827
 40
2.243711625900827
 40
2.243711625900827
 40
2.243711625900827
 10
-12.66300675712586
 20
2.85030653382645
 30
0.0
 10
-12.65384349948417
 20
2.932743561313901
 30
0.0
 10
-12.63763142667152
 20
3.136798823044161
 30
0.0
 10
-12.59274587857367
 20
3.597315223365765
 30
0.0
 10
-12.5726222504322
 20
4.047970996677836
 30
0.0
 10
-12.52234136128595
 20
4.486536226331372
 30
0.0
 10
-12.38443766206392
 20
4.749480478268304
 30
0.0
 10
-12.19877992312344
 20
4.866936768488785
 30
0.0
 10
-12.1007454361111
 20
4.897017292360074
 30
0.0
  0
SPLINE
  5
2F2
330
1F
100
AcDbEntity
  8
Default
100
AcDbSpline
210
0.0
220
0.0
230
1.0
 70
    12
 71
     3
 72
    13
 73
     9
 74
     0
 42
0.0000000001
 43
0.0000000001
 40
0.0
 40
0.0
 40
0.0
 40
0.0
 40
10.34970352971916
 40
10.34970352971916
 40
10.34970352971916
 40
11.34970352964797
 40
12.34970352968357
 40
13.34970352971916
 40
13.34970352971916
 40
13.34970352971916
 40
13.34970352971916
 10
-12.1007454361111
 20
4.897017292360074
 30
0.0
 41
1.0
 10
-8.803020357713997
 20
5.959277790985475
 30
0.0
 41
0.999999999997585
 10
-5.519268615714754
 20
7.017007730576911
 30
0.0
 41
0.999999999997585
 10
-2.23551402663977
 20
8.074728831323538
 30
0.0
 41
1.0
 10
-2.080225046149593
 20
8.125447182170149
 30
0.0
 41
1.0
 10
-1.760093868931073
 20
8.217888795184557
 30
0.0
 41
1.0
 10
-1.291658207018939
 20
8.306597233638161
 30
0.0
 41
1.0
 10
-0.9151112591077478
 20
8.261583156476249
 30
0.0
 41
1.0
 10
-0.8794833891648253
 20
8.074728831546025
 30
0.0
 41
1.0
  0
SPLINE
  5
2F3
330
1F
100
AcDbEntity
  8
Default
100
AcDbSpline
210
0.0
220
0.0
230
1.0
 70
    12
 71
     2
 72
     6
 73
     3
 74
     0
 42
0.0000000001
 43
0.0000000001
 40
0.0
 40
0.0
 40
0.0
 40
3.169669862722087
 40
3.169669862722087
 40
3.169669862722087
 10
-0.8794833891648253
 20
8.074728831546025
 30
0.0
 41
1.0
 10
-0.7097716845545855
 20
6.499006868731017
 30
0.0
 41
0.9999999978748348
 10
-0.5402654383784977
 20
4.923262790751752
 30
0.0
 41
1.0
  0
SPLINE
  5
2F4
330
1F
100
AcDbEntity
  8
Default
100
AcDbSpline
210
0.0
220
0.0
230
1.0
 70
     8
 71
     3
 72
    13
 73
     9
 74
     0
 42
0.0000000001
 43
0.0000000001
 40
0.0
 40
0.0
 40
0.0
 40
0.0
 40
0.2488503046384883
 40
0.6138857958375329
 40
1.388445673596322
 40
1.600422197546088
 40
1.938757630733461
 40
2.243711625900827
 40
2.243711625900827
 40
2.243711625900827
 40
2.243711625900827
 10
12.66300675712586
 20
2.85030653382645
 30
0.0
 10
12.65384349948417
 20
2.932743561313901
 30
0.0
 10
12.63763142667152
 20
3.136798823044161
 30
0.0
 10
12.59274587857367
 20
3.597315223365765
 30
0.0
 10
12.5726222504322
 20
4.047970996677836
 30
0.0
 10
12.52234136128595
 20
4.486536226331372
 30
0.0
 10
12.38443766206392
 20
4.749480478268304
 30
0.0
 10
12.19877992312344
 20
4.866936768488785
 30
0.0
 10
12.1007454361111
 20
4.897017292360074
 30
0.0
  0
SPLINE
  5
2F5
330
1F
100
AcDbEntity
  8
Default
100
AcDbSpline
210
0.0
220
0.0
230
1.0
 70
    12
 71
     3
 72
    13
 73
     9
 74
     0
 42
0.0000000001
 43
0.0000000001
 40
0.0
 40
0.0
 40
0.0
 40
0.0
 40
10.34970352971916
 40
10.34970352971916
 40
10.34970352971916
 40
11.34970352964797
 40
12.34970352968357
 40
13.34970352971916
 40
13.34970352971916
 40
13.34970352971916
 40
13.34970352971916
 10
12.1007454361111
 20
4.897017292360074
 30
0.0
 41
1.0
 10
8.803020357713997
 20
5.959277790985475
 30
0.0
 41
0.999999999997585
 10
5.519268615714754
 20
7.017007730576911
 30
0.0
 41
0.999999999997585
 10
2.23551402663977
 20
8.074728831323538
 30
0.0
 41
1.0
 10
2.080225046149593
 20
8.125447182170149
 30
0.0
 41
1.0
 10
1.760093868931073
 20
8.217888795184557
 30
0.0
 41
1.0
 10
1.291658207018939
 20
8.306597233638161
 30
0.0
 41
1.0
 10
0.9151112591077478
 20
8.261583156476249
 30
0.0
 41
1.0
 10
0.8794833891648253
 20
8.074728831546025
 30
0.0
 41
1.0
  0
SPLINE
  5
2F6
330
1F
100
AcDbEntity
  8
Default
100
AcDbSpline
210
0.0
220
0.0
230
1.0
 70
    12
 71
     2
 72
     6
 73
     3
 74
     0
 42
0.0000000001
 43
0.0000000001
 40
0.0
 40
0.0
 40
0.0
 40
3.169669862722087
 40
3.169669862722087
 40
3.169669862722087
 10
0.8794833891648253
 20
8.074728831546025
 30
0.0
 41
1.0
 10
0.7097716845545855
 20
6.499006868731017
 30
0.0
 41
0.9999999978748348
 10
0.5402654383784977
 20
4.923262790751752
 30
0.0
 41
1.0
  0
SPLINE
  5
2F7
330
1F
100
AcDbEntity
  8
Default
100
AcDbSpline
210
0.0
220
0.0
230
1.0
 70
    12
 71
     2
 72
     6
 73
     3
 74
     0
 42
0.0000000001
 43
0.0000000001
 40
0.0
 40
0.0
 40
0.0
 40
0.0884841897164106
 40
0.0884841897164106
 40
0.0884841897164106
 10
-0.4873879654978737
 20
4.969397810140627
 30
0.0
 41
1.0
 10
-0.5343232507369812
 20
4.951162210727063
 30
0.0
 41
0.8420269851936159
 10
-0.5373428916113456
 20
4.901508622033615
 30
0.0
 41
1.0
  0
ARC
  5
2F8
330
1F
100
AcDbEntity
  8
Default
100
AcDbCircle
 10
0.5631280369192226
 20
4.802420954634079
 30
0.0
 40
1.104922906981121
100
AcDbArc
 50
174.8548967017242
 51
185.4045722419895
  0
LINE
  5
2F9
330
1F
100
AcDbEntity
  8
Default
100
AcDbLine
 10
-0.536882881718924
 20
4.698350741563901
 30
0.0
 11
-0.4417714237860366
 21
3.693032897703806
 31
0.0
  0
SPLINE
  5
2FA
330
1F
100
AcDbEntity
  8
Default
100
AcDbSpline
210
0.0
220
0.0
230
1.0
 70
    12
 71
     2
 72
     6
 73
     3
 74
     0
 42
0.0000000001
 43
0.0000000001
 40
-0.8445862899268577
 40
-0.8445862899268577
 40
-0.8445862899268577
 40
0.0
 40
0.0
 40
0.0
 10
-0.4417714237860366
 20
3.693032897703806
 30
0.0
 41
1.0
 10
-0.4054886717111357
 20
3.272284377157393
 30
0.0
 41
0.9999400800174819
 10
-0.3784235992829963
 20
2.850842480882431
 30
0.0
 41
1.0
  0
SPLINE
  5
2FB
330
1F
100
AcDbEntity
  8
Default
100
AcDbSpline
210
0.0
220
0.0
230
1.0
 70
    12
 71
     2
 72
     6
 73
     3
 74
     0
 42
0.0000000001
 43
0.0000000001
 40
-0.0899671132145656
 40
-0.0899671132145656
 40
-0.0899671132145656
 40
0.0
 40
0.0
 40
0.0
 10
-0.3784235992829963
 20
2.850842480882431
 30
0.0
 41
1.0
 10
-0.3742778667918404
 20
2.795286038806362
 30
0.0
 41
0.7346885527034499
 10
-0.3185677409475431
 20
2.795
 30
0.0
 41
1.0
  0
POLYLINE
  5
2FC
330
1F
100
AcDbEntity
  8
Default
100
AcDb2dPolyline
 66
     1
 10
0.0
 20
0.0
 30
0.0
  0
VERTEX
  5
2FD
330
2FC
100
AcDbEntity
  8
Default
100
AcDbVertex
100
AcDb2dVertex
 10
-0.3185677409475431
 20
2.795
 30
0.0
  0
VERTEX
  5
2FE
330
2FC
100
AcDbEntity
  8
Default
100
AcDbVertex
100
AcDb2dVertex
 10
0.3185677409475431
 20
2.795
 30
0.0
  0
SEQEND
  5
2FF
330
2FC
100
AcDbEntity
  8
Default
  0
SPLINE
  5
300
330
1F
100
AcDbEntity
  8
Default
100
AcDbSpline
210
0.0
220
0.0
230
1.0
 70
    12
 71
     2
 72
     6
 73
     3
 74
     0
 42
0.0000000001
 43
0.0000000001
 40
0.0
 40
0.0
 40
0.0
 40
0.0899671132145656
 40
0.0899671132145656
 40
0.0899671132145656
 10
0.3185677409475431
 20
2.795
 30
0.0
 41
1.0
 10
0.3742778667918404
 20
2.795286038806362
 30
0.0
 41
0.7346885527034499
 10
0.3784235992829963
 20
2.850842480882431
 30
0.0
 41
1.0
  0
SPLINE
  5
301
330
1F
100
AcDbEntity
  8
Default
100
AcDbSpline
210
0.0
220
0.0
230
1.0
 70
    12
 71
     2
 72
     6
 73
     3
 74
     0
 42
0.0000000001
 43
0.0000000001
 40
0.0
 40
0.0
 40
0.0
 40
0.8445862899268577
 40
0.8445862899268577
 40
0.8445862899268577
 10
0.3784235992829963
 20
2.850842480882431
 30
0.0
 41
1.0
 10
0.4054886717111357
 20
3.272284377157393
 30
0.0
 41
0.9999400800174819
 10
0.4417714237860366
 20
3.693032897703806
 30
0.0
 41
1.0
  0
LINE
  5
302
330
1F
100
AcDbEntity
  8
Default
100
AcDbLine
 10
0.4417714237860366
 20
3.693032897703806
 30
0.0
 11
0.536882881718924
 21
4.698350741563901
 31
0.0
  0
ARC
  5
303
330
1F
100
AcDbEntity
  8
Default
100
AcDbCircle
 10
-0.4800088692492422
 20
4.802232748105789
 30
0.0
 40
1.022184085412345
100
AcDbArc
 50
354.1671034962549
 51
5.573427560031306
  0
SPLINE
  5
304
330
1F
100
AcDbEntity
  8
Default
100
AcDbSpline
210
0.0
220
0.0
230
1.0
 70
    12
 71
     2
 72
     6
 73
     3
 74
     0
 42
0.0000000001
 43
0.0000000001
 40
-0.0884841897164106
 40
-0.0884841897164106
 40
-0.0884841897164106
 40
0.0
 40
0.0
 40
0.0
 10
0.5373428916113455
 20
4.901508622033615
 30
0.0
 41
1.0
 10
0.5343232507369812
 20
4.951162210727063
 30
0.0
 41
0.8420269851936159
 10
0.4873879654978737
 20
4.969397810140627
 30
0.0
 41
1.0
  0
SPLINE
  5
305
330
1F
100
AcDbEntity
  8
Default
100
AcDbSpline
210
0.0
220
0.0
230
1.0
 70
    12
 71
     2
 72
     6
 73
     3
 74
     0
 42
0.0000000001
 43
0.0000000001
 40
-0.4981588146947227
 40
-0.4981588146947227
 40
-0.4981588146947227
 40
0.0
 40
0.0
 40
0.0
 10
0.4873879654978737
 20
4.969397810140627
 30
0.0
 41
1.0
 10
0.2521744598675104
 20
5.061532902316373
 30
0.0
 41
0.9826659779594464
 10
0.0
 20
5.061635519572786
 30
0.0
 41
1.0
  0
SPLINE
  5
306
330
1F
100
AcDbEntity
  8
Default
100
AcDbSpline
210
0.0
220
0.0
230
1.0
 70
    12
 71
     2
 72
     6
 73
     3
 74
     0
 42
0.0000000001
 43
0.0000000001
 40
0.0
 40
0.0
 40
0.0
 40
0.4981588146947227
 40
0.4981588146947227
 40
0.4981588146947227
 10
0.0
 20
5.061635519572786
 30
0.0
 41
1.0
 10
-0.2521744598675104
 20
5.061532902316373
 30
0.0
 41
0.9826659779594464
 10
-0.4873879654978737
 20
4.969397810140627
 30
0.0
 41
1.0
  0
SPLINE
  5
307
330
1F
100
AcDbEntity
  8
Default
100
AcDbSpline
210
0.0
220
0.0
230
1.0
 70
    24
 71
     2
 72
     6
 73
     3
 74
     0
 42
0.0000000001
 43
0.0000000001
 40
0.0
 40
0.0
 40
0.0
 40
1.751978434039827
 40
1.751978434039827
 40
1.751978434039827
 10
-0.876151885810529
 20
2.545021565960174
 30
0.0
 10
-0.8761518858105362
 20
3.421010782980087
 30
0.0
 10
-0.8761518858105433
 20
4.297000000000001
 30
0.0
  0
SPLINE
  5
308
330
1F
100
AcDbEntity
  8
Default
100
AcDbSpline
210
0.0
220
0.0
230
1.0
 70
    12
 71
     2
 72
     6
 73
     3
 74
     0
 42
0.0000000001
 43
0.0000000001
 40
-0.380723883748629
 40
-0.380723883748629
 40
-0.380723883748629
 40
0.0
 40
0.0
 40
0.0
 10
-0.8761518858105433
 20
4.297000000000001
 30
0.0
 41
1.0
 10
-0.8893563949585911
 20
4.486913466345783
 30
0.0
 41
0.9999210533731709
 10
-0.9073301629744961
 20
4.676481355346709
 30
0.0
 41
1.0
  0
SPLINE
  5
309
330
1F
100
AcDbEntity
  8
Default
100
AcDbSpline
210
0.0
220
0.0
230
1.0
 70
    24
 71
     2
 72
     6
 73
     3
 74
     0
 42
0.0000000001
 43
0.0000000001
 40
0.0
 40
0.0
 40
0.0
 40
1.849054771382058
 40
1.849054771382058
 40
1.849054771382058
 10
-0.9073301629744961
 20
4.676481355346709
 30
0.0
 10
-0.9305319435265638
 20
5.600740677673322
 30
0.0
 10
-0.9537337240786314
 20
6.524999999999936
 30
0.0
  0
SPLINE
  5
30A
330
1F
100
AcDbEntity
  8
Default
100
AcDbSpline
210
0.0
220
0.0
230
1.0
 70
    24
 71
     2
 72
     6
 73
     3
 74
     0
 42
0.0000000001
 43
0.0000000001
 40
0.0
 40
0.0
 40
0.0
 40
1.751978434039827
 40
1.751978434039827
 40
1.751978434039827
 10
0.876151885810529
 20
2.545021565960174
 30
0.0
 10
0.8761518858105362
 20
3.421010782980087
 30
0.0
 10
0.8761518858105433
 20
4.297000000000001
 30
0.0
  0
SPLINE
  5
30B
330
1F
100
AcDbEntity
  8
Default
100
AcDbSpline
210
0.0
220
0.0
230
1.0
 70
    12
 71
     2
 72
     6
 73
     3
 74
     0
 42
0.0000000001
 43
0.0000000001
 40
-0.380723883748629
 40
-0.380723883748629
 40
-0.380723883748629
 40
0.0
 40
0.0
 40
0.0
 10
0.8761518858105433
 20
4.297000000000001
 30
0.0
 41
1.0
 10
0.8893563949585911
 20
4.486913466345783
 30
0.0
 41
0.9999210533731709
 10
0.9073301629744961
 20
4.676481355346709
 30
0.0
 41
1.0
  0
SPLINE
  5
30C
330
1F
100
AcDbEntity
  8
Default
100
AcDbSpline
210
0.0
220
0.0
230
1.0
 70
    24
 71
     2
 72
     6
 73
     3
 74
     0
 42
0.0000000001
 43
0.0000000001
 40
0.0
 40
0.0
 40
0.0
 40
1.849054771382058
 40
1.849054771382058
 40
1.849054771382058
 10
0.9073301629744961
 20
4.676481355346709
 30
0.0
 10
0.9305319435265638
 20
5.600740677673322
 30
0.0
 10
0.9537337240786314
 20
6.524999999999936
 30
0.0
  0
SPLINE
  5
30D
330
1F
100
AcDbEntity
  8
Default
100
AcDbSpline
210
0.0
220
0.0
230
1.0
 70
    28
 71
     2
 72
     6
 73
     3
 74
     0
 42
0.0000000001
 43
0.0000000001
 40
0.0998560329993547
 40
0.0998560329993547
 40
0.0998560329993547
 40
1.045966352010588
 40
1.045966352010588
 40
1.045966352010588
 10
-0.7266057035902549
 20
6.524999999999993
 30
0.0
 41
0.9746091443392777
 10
-1.112798959490235
 20
6.52499999999999
 30
0.0
 41
0.8639074330753395
 10
-1.109955205330714
 20
6.525000000001475
 30
0.0
 41
0.9280239207108301
  0
SPLINE
  5
30E
330
1F
100
AcDbEntity
  8
Default
100
AcDbSpline
210
0.0
220
0.0
230
1.0
 70
    12
 71
     2
 72
     6
 73
     3
 74
     0
 42
0.0000000001
 43
0.0000000001
 40
0.0
 40
0.0
 40
0.0
 40
0.1095337253115752
 40
0.1095337253115752
 40
0.1095337253115752
 10
-1.109955205330714
 20
6.525000000001475
 30
0.0
 41
1.0
 10
-1.179428030522922
 20
6.525219144187854
 30
0.0
 41
0.7109785131048223
 10
-1.17997165646495
 20
6.594683457415524
 30
0.0
 41
1.0
  0
SPLINE
  5
30F
330
1F
100
AcDbEntity
  8
Default
100
AcDbSpline
210
0.0
220
0.0
230
1.0
 70
    24
 71
     2
 72
     6
 73
     3
 74
     0
 42
0.0000000001
 43
0.0000000001
 40
0.0
 40
0.0
 40
0.0
 40
0.2262823789174386
 40
0.2262823789174386
 40
0.2262823789174386
 10
-1.17997165646495
 20
6.594683457415524
 30
0.0
 10
-1.180465386799145
 20
6.707833872353905
 30
0.0
 10
-1.180959117133341
 20
6.820984287292285
 30
0.0
  0
SPLINE
  5
310
330
1F
100
AcDbEntity
  8
Default
100
AcDbSpline
210
0.0
220
0.0
230
1.0
 70
     8
 71
     3
 72
    11
 73
     7
 74
     0
 42
0.0000000001
 43
0.0000000001
 40
0.0
 40
0.0
 40
0.0
 40
0.0
 40
0.10880746496845
 40
0.1967341917319617
 40
0.2647277799035517
 40
0.3337170333293298
 40
0.3337170333293298
 40
0.3337170333293298
 40
0.3337170333293298
 10
-1.180959117133341
 20
6.820984287292285
 30
0.0
 10
-1.180930199036084
 20
6.85733886317373
 30
0.0
 10
-1.184938691600564
 20
6.922706707546314
 30
0.0
 10
-1.202395598361704
 20
7.00980703169643
 30
0.0
 10
-1.236645510859759
 20
7.077426045259222
 30
0.0
 10
-1.271374590288318
 20
7.108593419636152
 30
0.0
 10
-1.28997691066688
 20
7.121796542860635
 30
0.0
  0
SPLINE
  5
311
330
1F
100
AcDbEntity
  8
Default
100
AcDbSpline
210
0.0
220
0.0
230
1.0
 70
    28
 71
     2
 72
     6
 73
     3
 74
     0
 42
0.0000000001
 43
0.0000000001
 40
0.0998560329993547
 40
0.0998560329993547
 40
0.0998560329993547
 40
1.045966352010588
 40
1.045966352010588
 40
1.045966352010588
 10
0.7266057035902549
 20
6.524999999999993
 30
0.0
 41
0.9746091443392777
 10
1.112798959490235
 20
6.52499999999999
 30
0.0
 41
0.8639074330753395
 10
1.109955205330714
 20
6.525000000001475
 30
0.0
 41
0.9280239207108301
  0
SPLINE
  5
312
330
1F
100
AcDbEntity
  8
Default
100
AcDbSpline
210
0.0
220
0.0
230
1.0
 70
    12
 71
     2
 72
     6
 73
     3
 74
     0
 42
0.0000000001
 43
0.0000000001
 40
0.0
 40
0.0
 40
0.0
 40
0.1095337253115752
 40
0.1095337253115752
 40
0.1095337253115752
 10
1.109955205330714
 20
6.525000000001475
 30
0.0
 41
1.0
 10
1.179428030522922
 20
6.525219144187854
 30
0.0
 41
0.7109785131048223
 10
1.17997165646495
 20
6.594683457415524
 30
0.0
 41
1.0
  0
SPLINE
  5
313
330
1F
100
AcDbEntity
  8
Default
100
AcDbSpline
210
0.0
220
0.0
230
1.0
 70
    24
 71
     2
 72
     6
 73
     3
 74
     0
 42
0.0000000001
 43
0.0000000001
 40
0.0
 40
0.0
 40
0.0
 40
0.2262823789174386
 40
0.2262823789174386
 40
0.2262823789174386
 10
1.17997165646495
 20
6.594683457415524
 30
0.0
 10
1.180465386799145
 20
6.707833872353905
 30
0.0
 10
1.180959117133341
 20
6.820984287292285
 30
0.0
  0
SPLINE
  5
314
330
1F
100
AcDbEntity
  8
Default
100
AcDbSpline
210
0.0
220
0.0
230
1.0
 70
     8
 71
     3
 72
    11
 73
     7
 74
     0
 42
0.0000000001
 43
0.0000000001
 40
0.0
 40
0.0
 40
0.0
 40
0.0
 40
0.10880746496845
 40
0.1967341917319617
 40
0.2647277799035517
 40
0.3337170333293298
 40
0.3337170333293298
 40
0.3337170333293298
 40
0.3337170333293298
 10
1.180959117133341
 20
6.820984287292285
 30
0.0
 10
1.180930199036084
 20
6.85733886317373
 30
0.0
 10
1.184938691600564
 20
6.922706707546314
 30
0.0
 10
1.202395598361704
 20
7.00980703169643
 30
0.0
 10
1.236645510859759
 20
7.077426045259222
 30
0.0
 10
1.271374590288318
 20
7.108593419636152
 30
0.0
 10
1.28997691066688
 20
7.121796542860635
 30
0.0
  0
SPLINE
  5
315
330
1F
100
AcDbEntity
  8
Default
100
AcDbSpline
210
0.0
220
0.0
230
1.0
 70
    12
 71
     2
 72
     6
 73
     3
 74
     0
 42
0.0000000001
 43
0.0000000001
 40
-2.316382742007477
 40
-2.316382742007477
 40
-2.316382742007477
 40
0.0
 40
0.0
 40
0.0
 10
-5.980052235863724
 20
6.021193777795074
 30
0.0
 41
1.0
 10
-6.993952324863094
 20
5.461359997619767
 30
0.0
 41
0.9999999999800928
 10
-8.011928936101711
 20
4.899278152502516
 30
0.0
 41
1.0
  0
SPLINE
  5
316
330
1F
100
AcDbEntity
  8
Default
100
AcDbSpline
210
0.0
220
0.0
230
1.0
 70
     8
 71
     3
 72
    12
 73
     8
 74
     0
 42
0.0000000001
 43
0.0000000001
 40
-2.074835555048535
 40
-2.074835555048535
 40
-2.074835555048535
 40
-2.074835555048535
 40
-1.847387703843368
 40
-1.541080351580727
 40
-1.430421193586948
 40
-1.289510071944038
 40
0.0
 40
0.0
 40
0.0
 40
0.0
 10
-8.011928936101711
 20
4.899278152502516
 30
0.0
 10
-8.083844321780845
 20
4.860278576937484
 30
0.0
 10
-8.192763524192799
 20
4.710462125337089
 30
0.0
 10
-8.223196571441761
 20
4.493924985997547
 30
0.0
 10
-8.228015015612002
 20
4.308585139657601
 30
0.0
 10
-8.194145435035253
 20
3.795655628018579
 30
0.0
 10
-8.163966033724265
 20
3.320077275644767
 30
0.0
 10
-8.126474866393693
 20
2.850301192916349
 30
0.0
  0
SPLINE
  5
317
330
1F
100
AcDbEntity
  8
Default
100
AcDbSpline
210
0.0
220
0.0
230
1.0
 70
    12
 71
     2
 72
     6
 73
     3
 74
     0
 42
0.0000000001
 43
0.0000000001
 40
-0.0894739505236135
 40
-0.0894739505236135
 40
-0.0894739505236135
 40
0.0
 40
0.0
 40
0.0
 10
-8.126474866393693
 20
2.850301192916349
 30
0.0
 41
1.0
 10
-8.12198343534037
 20
2.79516289863847
 30
0.0
 41
0.7362483220011421
 10
-8.066662752834347
 20
2.79500000036181
 30
0.0
 41
1.0
  0
POLYLINE
  5
318
330
1F
100
AcDbEntity
  8
Default
100
AcDb2dPolyline
 66
     1
 10
0.0
 20
0.0
 30
0.0
  0
VERTEX
  5
319
330
318
100
AcDbEntity
  8
Default
100
AcDbVertex
100
AcDb2dVertex
 10
-8.066662752834347
 20
2.79500000036181
 30
0.0
  0
VERTEX
  5
31A
330
318
100
AcDbEntity
  8
Default
100
AcDbVertex
100
AcDb2dVertex
 10
-7.427127737063117
 20
2.795000000002502
 30
0.0
  0
SEQEND
  5
31B
330
318
100
AcDbEntity
  8
Default
  0
SPLINE
  5
31C
330
1F
100
AcDbEntity
  8
Default
100
AcDbSpline
210
0.0
220
0.0
230
1.0
 70
    12
 71
     2
 72
     6
 73
     3
 74
     0
 42
0.0000000001
 43
0.0000000001
 40
-0.0886676206593559
 40
-0.0886676206593559
 40
-0.0886676206593559
 40
0.0
 40
0.0
 40
0.0
 10
-7.427127737063117
 20
2.795000000002502
 30
0.0
 41
1.0
 10
-7.372547068392908
 20
2.795157121165732
 30
0.0
 41
0.7407798758250705
 10
-7.36735818431378
 20
2.849740547931142
 30
0.0
 41
1.0
  0
SPLINE
  5
31D
330
1F
100
AcDbEntity
  8
Default
100
AcDbSpline
210
0.0
220
0.0
230
1.0
 70
     8
 71
     3
 72
    12
 73
     8
 74
     0
 42
0.0000000001
 43
0.0000000001
 40
-1.616837590726808
 40
-1.616837590726808
 40
-1.616837590726808
 40
-1.616837590726808
 40
-0.4008103368921767
 40
-0.3036734105048165
 40
-0.1373876869759101
 40
-0.0711069409334947
 40
0.0
 40
0.0
 40
0.0
 40
0.0
 10
-7.36735818431378
 20
2.849740547931142
 30
0.0
 10
-7.329819987047969
 20
3.253554153615335
 30
0.0
 10
-7.287944526416013
 20
3.689364186091674
 30
0.0
 10
-7.240702338792815
 20
4.180160240662569
 30
0.0
 10
-7.204917473793927
 20
4.286240492705239
 30
0.0
 10
-7.144308038914446
 20
4.367997610386766
 30
0.0
 10
-7.106894151103901
 20
4.395747558557636
 30
0.0
 10
-7.087389985837035
 20
4.408784436217024
 30
0.0
  0
SPLINE
  5
31E
330
1F
100
AcDbEntity
  8
Default
100
AcDbSpline
210
0.0
220
0.0
230
1.0
 70
    12
 71
     2
 72
     6
 73
     3
 74
     0
 42
0.0000000001
 43
0.0000000001
 40
-6.376857589103129
 40
-6.376857589103129
 40
-6.376857589103129
 40
0.0
 40
0.0
 40
0.0
 10
-7.087389985837035
 20
4.408784436217024
 30
0.0
 41
1.0
 10
-4.16949634108357
 20
5.768895448770012
 30
0.0
 41
0.9999996583531289
 10
-1.27655610070606
 20
7.109410116529034
 30
0.0
 41
1.0
  0
SPLINE
  5
31F
330
1F
100
AcDbEntity
  8
Default
100
AcDbSpline
210
0.0
220
0.0
230
1.0
 70
     8
 71
     3
 72
    12
 73
     8
 74
     0
 42
0.0000000001
 43
0.0000000001
 40
0.0
 40
0.0
 40
0.0
 40
0.0
 40
0.8431174930735964
 40
0.9795501028379618
 40
1.102190625616526
 40
1.384708845196554
 40
1.614468644976528
 40
1.614468644976528
 40
1.614468644976528
 40
1.614468644976528
 10
-8.171226960654366
 20
3.420525470955589
 30
0.0
 10
-8.190015143419501
 20
3.701082657350912
 30
0.0
 10
-8.2213893011549
 20
4.025813241533298
 30
0.0
 10
-8.238915864917729
 20
4.393268805930302
 30
0.0
 10
-8.22557993984249
 20
4.573024198100538
 30
0.0
 10
-8.180209373961645
 20
4.783445761186996
 30
0.0
 10
-8.069185680309502
 20
4.921016673302425
 30
0.0
 10
-8.002854631758666
 20
4.960565183523461
 30
0.0
  0
SPLINE
  5
320
330
1F
100
AcDbEntity
  8
Default
100
AcDbSpline
210
0.0
220
0.0
230
1.0
 70
    12
 71
     2
 72
     6
 73
     3
 74
     0
 42
0.0000000001
 43
0.0000000001
 40
0.0
 40
0.0
 40
0.0
 40
2.039438901862607
 40
2.039438901862607
 40
2.039438901862607
 10
-8.002854631758666
 20
4.960565183523461
 30
0.0
 41
1.0
 10
-7.087177761618496
 20
5.466391902261364
 30
0.0
 41
0.9999999515407708
 10
-6.194718173599853
 20
5.959690705773643
 30
0.0
 41
1.0
  0
SPLINE
  5
321
330
1F
100
AcDbEntity
  8
Default
100
AcDbSpline
210
0.0
220
0.0
230
1.0
 70
     8
 71
     3
 72
    14
 73
    10
 74
     0
 42
0.0000000001
 43
0.0000000001
 40
-1.901256362180679
 40
-1.901256362180679
 40
-1.901256362180679
 40
-1.901256362180679
 40
-1.879028288897267
 40
-1.635580964939116
 40
-0.5626676357385408
 40
-0.4254444153002734
 40
-0.1855209054592391
 40
-0.0903135883340807
 40
0.0
 40
0.0
 40
0.0
 40
0.0
 10
-7.998456558199194
 20
2.850171095769395
 30
0.0
 10
-7.999858930443324
 20
2.8574517380503
 30
0.0
 10
-8.007642809021192
 20
2.945685301030114
 30
0.0
 10
-8.03815399527781
 20
3.390759810159881
 30
0.0
 10
-8.069531719662095
 20
3.874449615548984
 30
0.0
 10
-8.102218074566466
 20
4.356464158073292
 30
0.0
 10
-8.07414194685002
 20
4.51492995689869
 30
0.0
 10
-8.006539648038725
 20
4.640168385955928
 30
0.0
 10
-7.958252778452774
 20
4.681957481481321
 30
0.0
 10
-7.933670072367264
 20
4.698415030350613
 30
0.0
  0
SPLINE
  5
322
330
1F
100
AcDbEntity
  8
Default
100
AcDbSpline
210
0.0
220
0.0
230
1.0
 70
     8
 71
     3
 72
     8
 73
     4
 74
     0
 42
0.0000000001
 43
0.0000000001
 40
0.0
 40
0.0
 40
0.0
 40
0.0
 40
1.0
 40
1.0
 40
1.0
 40
1.0
 10
-7.933670072367264
 20
4.698415030350613
 30
0.0
 10
-6.894941775000446
 20
5.257210207415497
 30
0.0
 10
-5.849718796987964
 20
5.804171548951892
 30
0.0
 10
-4.807746936606748
 20
6.357057039758651
 30
0.0
  0
SPLINE
  5
323
330
1F
100
AcDbEntity
  8
Default
100
AcDbSpline
210
0.0
220
0.0
230
1.0
 70
    24
 71
     2
 72
     6
 73
     3
 74
     0
 42
0.0000000001
 43
0.0000000001
 40
0.0
 40
0.0
 40
0.0
 40
1.280000000000001
 40
1.280000000000001
 40
1.280000000000001
 10
7.396593630430753
 20
2.56
 30
0.0
 10
7.396593630430753
 20
1.92
 30
0.0
 10
7.396593630430753
 20
1.279999999999999
 30
0.0
  0
SPLINE
  5
324
330
1F
100
AcDbEntity
  8
Default
100
AcDbSpline
210
0.0
220
0.0
230
1.0
 70
    24
 71
     2
 72
     6
 73
     3
 74
     0
 42
0.0000000001
 43
0.0000000001
 40
0.0
 40
0.0
 40
0.0
 40
0.7030817531036625
 40
0.7030817531036625
 40
0.7030817531036625
 10
7.396593630430753
 20
1.279999999999999
 30
0.0
 10
7.749614068706668
 20
1.279999999999999
 30
0.0
 10
8.102634506982582
 20
1.279999999999999
 30
0.0
  0
SPLINE
  5
325
330
1F
100
AcDbEntity
  8
Default
100
AcDbSpline
210
0.0
220
0.0
230
1.0
 70
    24
 71
     2
 72
     6
 73
     3
 74
     0
 42
0.0000000001
 43
0.0000000001
 40
0.0
 40
0.0
 40
0.0
 40
1.280000000000001
 40
1.280000000000001
 40
1.280000000000001
 10
8.102634506982582
 20
1.279999999999999
 30
0.0
 10
8.102634506982582
 20
1.92
 30
0.0
 10
8.102634506982582
 20
2.56
 30
0.0
  0
SPLINE
  5
326
330
1F
100
AcDbEntity
  8
Default
100
AcDbSpline
210
0.0
220
0.0
230
1.0
 70
    24
 71
     2
 72
     6
 73
     3
 74
     0
 42
0.0000000001
 43
0.0000000001
 40
-0.7030817531036629
 40
-0.7030817531036629
 40
-0.7030817531036629
 40
0.0
 40
0.0
 40
0.0
 10
8.102634506982582
 20
2.56
 30
0.0
 10
7.749614068706668
 20
2.56
 30
0.0
 10
7.396593630430753
 20
2.56
 30
0.0
  0
SPLINE
  5
327
330
1F
100
AcDbEntity
  8
Default
100
AcDbSpline
210
0.0
220
0.0
230
1.0
 70
    24
 71
     2
 72
     6
 73
     3
 74
     0
 42
0.0000000001
 43
0.0000000001
 40
0.0
 40
0.0
 40
0.0
 40
0.0719999999999992
 40
0.0719999999999992
 40
0.0719999999999992
 10
8.032227166403796
 20
2.715
 30
0.0
 10
8.032227166403802
 20
2.750999999999999
 30
0.0
 10
8.032227166403807
 20
2.786999999999999
 30
0.0
  0
SPLINE
  5
328
330
1F
100
AcDbEntity
  8
Default
100
AcDbSpline
210
0.0
220
0.0
230
1.0
 70
    28
 71
     2
 72
    10
 73
     7
 74
     0
 42
0.0000000001
 43
0.0000000001
 40
2.945243112740431
 40
2.945243112740431
 40
2.945243112740431
 40
3.087703909043192
 40
3.087703909043192
 40
4.685444608111389
 40
4.685444608111389
 40
6.283185307179586
 40
6.283185307179586
 40
6.283185307179586
 10
8.032227166403807
 20
2.786999999999999
 30
0.0
 41
0.9524261152922843
 10
8.034593630430756
 20
2.786999999999999
 30
0.0
 41
0.9738844975231726
 10
8.034593630430752
 20
2.786999999999999
 30
0.0
 41
1.0
 10
8.034593630430702
 20
2.787
 30
0.0
 41
0.7071067811865476
 10
7.751093630430705
 20
2.786999999999999
 30
0.0
 41
1.0
 10
7.467593630430702
 20
2.787
 30
0.0
 41
0.7071067811865476
 10
7.467593630430751
 20
2.786999999999999
 30
0.0
 41
1.0
  0
SPLINE
  5
329
330
1F
100
AcDbEntity
  8
Default
100
AcDbSpline
210
0.0
220
0.0
230
1.0
 70
    24
 71
     2
 72
     6
 73
     3
 74
     0
 42
0.0000000001
 43
0.0000000001
 40
0.0
 40
0.0
 40
0.0
 40
0.0719999999999992
 40
0.0719999999999992
 40
0.0719999999999992
 10
7.467593630430751
 20
2.786999999999999
 30
0.0
 10
7.467593630430751
 20
2.750999999999999
 30
0.0
 10
7.467593630430751
 20
2.715
 30
0.0
  0
SPLINE
  5
32A
330
1F
100
AcDbEntity
  8
Default
100
AcDbSpline
210
0.0
220
0.0
230
1.0
 70
    24
 71
     2
 72
     6
 73
     3
 74
     0
 42
0.0000000001
 43
0.0000000001
 40
0.0
 40
0.0
 40
0.0
 40
0.56226707194609
 40
0.56226707194609
 40
0.56226707194609
 10
7.467593630430751
 20
2.715
 30
0.0
 10
7.749910398417274
 20
2.715
 30
0.0
 10
8.032227166403796
 20
2.715
 30
0.0
  0
SPLINE
  5
32B
330
1F
100
AcDbEntity
  8
Default
100
AcDbSpline
210
0.0
220
0.0
230
1.0
 70
    24
 71
     2
 72
     6
 73
     3
 74
     0
 42
0.0000000001
 43
0.0000000001
 40
0.0
 40
0.0
 40
0.0
 40
0.0299999999999994
 40
0.0299999999999994
 40
0.0299999999999994
 10
7.867093630430754
 20
2.685
 30
0.0
 10
7.867093630430754
 20
2.7
 30
0.0
 10
7.867093630430754
 20
2.715
 30
0.0
  0
SPLINE
  5
32C
330
1F
100
AcDbEntity
  8
Default
100
AcDbSpline
210
0.0
220
0.0
230
1.0
 70
    24
 71
     2
 72
     6
 73
     3
 74
     0
 42
0.0000000001
 43
0.0000000001
 40
0.0
 40
0.0
 40
0.0
 40
0.0299999999999994
 40
0.0299999999999994
 40
0.0299999999999994
 10
7.635093630430755
 20
2.715
 30
0.0
 10
7.635093630430755
 20
2.7
 30
0.0
 10
7.635093630430755
 20
2.685
 30
0.0
  0
POLYLINE
  5
32D
330
1F
100
AcDbEntity
  8
Default
100
AcDb2dPolyline
 66
     1
 10
0.0
 20
0.0
 30
0.0
  0
VERTEX
  5
32E
330
32D
100
AcDbEntity
  8
Default
100
AcDbVertex
100
AcDb2dVertex
 10
8.170593630430911
 20
2.56
 30
0.0
  0
VERTEX
  5
32F
330
32D
100
AcDbEntity
  8
Default
100
AcDbVertex
100
AcDb2dVertex
 10
8.170593630430911
 20
0.0
 30
0.0
  0
SEQEND
  5
330
330
32D
100
AcDbEntity
  8
Default
  0
SPLINE
  5
331
330
1F
100
AcDbEntity
  8
Default
100
AcDbSpline
210
0.0
220
0.0
230
1.0
 70
    24
 71
     2
 72
     6
 73
     3
 74
     0
 42
0.0000000001
 43
0.0000000001
 40
0.0
 40
0.0
 40
0.0
 40
0.3804999999999978
 40
0.3804999999999978
 40
0.3804999999999978
 10
8.170593630430911
 20
0.0
 30
0.0
 10
8.36084363043091
 20
0.0
 30
0.0
 10
8.551093630430909
 20
0.0
 30
0.0
  0
SPLINE
  5
332
330
1F
100
AcDbEntity
  8
Default
100
AcDbSpline
210
0.0
220
0.0
230
1.0
 70
    12
 71
     2
 72
     6
 73
     3
 74
     0
 42
0.0000000001
 43
0.0000000001
 40
0.0
 40
0.0
 40
0.0
 40
0.3141578630330839
 40
0.3141578630330839
 40
0.3141578630330839
 10
8.551093630430909
 20
0.0
 30
0.0
 41
1.0
 10
8.751090774102442
 20
0.0000025473334157
 30
0.0
 41
0.7071163336729269
 10
8.75109363043067
 20
0.1999996910007748
 30
0.0
 41
1.0
  0
POLYLINE
  5
333
330
1F
100
AcDbEntity
  8
Default
100
AcDb2dPolyline
 66
     1
 10
0.0
 20
0.0
 30
0.0
  0
VERTEX
  5
334
330
333
100
AcDbEntity
  8
Default
100
AcDbVertex
100
AcDb2dVertex
 10
8.75109363043067
 20
0.1999996910007748
 30
0.0
  0
VERTEX
  5
335
330
333
100
AcDbEntity
  8
Default
100
AcDbVertex
100
AcDb2dVertex
 10
8.75109363043067
 20
2.360000308999224
 30
0.0
  0
SEQEND
  5
336
330
333
100
AcDbEntity
  8
Default
  0
SPLINE
  5
337
330
1F
100
AcDbEntity
  8
Default
100
AcDbSpline
210
0.0
220
0.0
230
1.0
 70
    12
 71
     2
 72
     8
 73
     5
 74
     0
 42
0.0000000001
 43
0.0000000001
 40
0.0
 40
0.0
 40
0.0
 40
0.1570843383287497
 40
0.1570843383287497
 40
0.3141686766574995
 40
0.3141686766574995
 40
0.3141686766574995
 10
8.75109363043067
 20
2.360000308999224
 30
0.0
 41
1.0
 10
8.751102882813118
 20
2.442846816149753
 30
0.0
 41
0.9238580140017981
 10
8.69252151019008
 20
2.501428098264866
 30
0.0
 41
1.0
 10
8.633940137567043
 20
2.560009380379979
 30
0.0
 41
0.9238580140017981
 10
8.551093630430909
 20
2.56
 30
0.0
 41
1.0
  0
SPLINE
  5
338
330
1F
100
AcDbEntity
  8
Default
100
AcDbSpline
210
0.0
220
0.0
230
1.0
 70
    24
 71
     2
 72
     6
 73
     3
 74
     0
 42
0.0000000001
 43
0.0000000001
 40
0.0
 40
0.0
 40
0.0
 40
0.3804999999999978
 40
0.3804999999999978
 40
0.3804999999999978
 10
8.551093630430909
 20
2.56
 30
0.0
 10
8.36084363043091
 20
2.56
 30
0.0
 10
8.170593630430911
 20
2.56
 30
0.0
  0
POLYLINE
  5
339
330
1F
100
AcDbEntity
  8
Default
100
AcDb2dPolyline
 66
     1
 10
0.0
 20
0.0
 30
0.0
  0
VERTEX
  5
33A
330
339
100
AcDbEntity
  8
Default
100
AcDbVertex
100
AcDb2dVertex
 10
7.331593630430912
 20
0.0
 30
0.0
  0
VERTEX
  5
33B
330
339
100
AcDbEntity
  8
Default
100
AcDbVertex
100
AcDb2dVertex
 10
7.331593630430912
 20
2.56
 30
0.0
  0
SEQEND
  5
33C
330
339
100
AcDbEntity
  8
Default
  0
SPLINE
  5
33D
330
1F
100
AcDbEntity
  8
Default
100
AcDbSpline
210
0.0
220
0.0
230
1.0
 70
    24
 71
     2
 72
     6
 73
     3
 74
     0
 42
0.0000000001
 43
0.0000000001
 40
0.0
 40
0.0
 40
0.0
 40
0.3804999999999996
 40
0.3804999999999996
 40
0.3804999999999996
 10
7.331593630430912
 20
2.56
 30
0.0
 10
7.141343630430913
 20
2.56
 30
0.0
 10
6.951093630430914
 20
2.56
 30
0.0
  0
SPLINE
  5
33E
330
1F
100
AcDbEntity
  8
Default
100
AcDbSpline
210
0.0
220
0.0
230
1.0
 70
    12
 71
     2
 72
     6
 73
     3
 74
     0
 42
0.0000000001
 43
0.0000000001
 40
0.0
 40
0.0
 40
0.0
 40
0.3141578630330935
 40
0.3141578630330935
 40
0.3141578630330935
 10
6.951093630430914
 20
2.56
 30
0.0
 41
1.0
 10
6.751096486759352
 20
2.559997452666602
 30
0.0
 41
0.7071163336728625
 10
6.751093630431153
 20
2.360000308999224
 30
0.0
 41
1.0
  0
POLYLINE
  5
33F
330
1F
100
AcDbEntity
  8
Default
100
AcDb2dPolyline
 66
     1
 10
0.0
 20
0.0
 30
0.0
  0
VERTEX
  5
340
330
33F
100
AcDbEntity
  8
Default
100
AcDbVertex
100
AcDb2dVertex
 10
6.751093630431153
 20
2.360000308999224
 30
0.0
  0
VERTEX
  5
341
330
33F
100
AcDbEntity
  8
Default
100
AcDbVertex
100
AcDb2dVertex
 10
6.751093630431153
 20
0.1999996910007757
 30
0.0
  0
SEQEND
  5
342
330
33F
100
AcDbEntity
  8
Default
  0
SPLINE
  5
343
330
1F
100
AcDbEntity
  8
Default
100
AcDbSpline
210
0.0
220
0.0
230
1.0
 70
    12
 71
     2
 72
     8
 73
     5
 74
     0
 42
0.0000000001
 43
0.0000000001
 40
0.0
 40
0.0
 40
0.0
 40
0.1570843383287469
 40
0.1570843383287469
 40
0.3141686766574937
 40
0.3141686766574937
 40
0.3141686766574937
 10
6.751093630431153
 20
0.1999996910007757
 30
0.0
 41
1.0
 10
6.751084378048704
 20
0.1171531838502485
 30
0.0
 41
0.9238580140018094
 10
6.809665750671736
 20
0.0585719017351379
 30
0.0
 41
1.0
 10
6.868247123294778
 20
-0.0000093803799726
 30
0.0
 41
0.9238580140018094
 10
6.951093630430914
 20
-0.0000000000000001
 30
0.0
 41
1.0
  0
SPLINE
  5
344
330
1F
100
AcDbEntity
  8
Default
100
AcDbSpline
210
0.0
220
0.0
230
1.0
 70
    24
 71
     2
 72
     6
 73
     3
 74
     0
 42
0.0000000001
 43
0.0000000001
 40
0.0
 40
0.0
 40
0.0
 40
0.3804999999999996
 40
0.3804999999999996
 40
0.3804999999999996
 10
6.951093630430914
 20
0.0
 30
0.0
 10
7.141343630430913
 20
0.0
 30
0.0
 10
7.331593630430912
 20
0.0
 30
0.0
  0
SPLINE
  5
345
330
1F
100
AcDbEntity
  8
Default
100
AcDbSpline
210
0.0
220
0.0
230
1.0
 70
    24
 71
     2
 72
     6
 73
     3
 74
     0
 42
0.0000000001
 43
0.0000000001
 40
0.0
 40
0.0
 40
0.0
 40
0.125
 40
0.125
 40
0.125
 10
8.081093630430754
 20
2.56
 30
0.0
 10
8.081093630430754
 20
2.6225
 30
0.0
 10
8.081093630430754
 20
2.685
 30
0.0
  0
POLYLINE
  5
346
330
1F
100
AcDbEntity
  8
Default
100
AcDb2dPolyline
 66
     1
 10
0.0
 20
0.0
 30
0.0
  0
VERTEX
  5
347
330
346
100
AcDbEntity
  8
Default
100
AcDbVertex
100
AcDb2dVertex
 10
8.081093630430754
 20
2.685
 30
0.0
  0
VERTEX
  5
348
330
346
100
AcDbEntity
  8
Default
100
AcDbVertex
100
AcDb2dVertex
 10
7.421093630430756
 20
2.685
 30
0.0
  0
SEQEND
  5
349
330
346
100
AcDbEntity
  8
Default
  0
SPLINE
  5
34A
330
1F
100
AcDbEntity
  8
Default
100
AcDbSpline
210
0.0
220
0.0
230
1.0
 70
    24
 71
     2
 72
     6
 73
     3
 74
     0
 42
0.0000000001
 43
0.0000000001
 40
0.0
 40
0.0
 40
0.0
 40
0.125
 40
0.125
 40
0.125
 10
7.421093630430756
 20
2.685
 30
0.0
 10
7.421093630430756
 20
2.6225
 30
0.0
 10
7.421093630430756
 20
2.56
 30
0.0
  0
SPLINE
  5
34B
330
1F
100
AcDbEntity
  8
Default
100
AcDbSpline
210
0.0
220
0.0
230
1.0
 70
    12
 71
     2
 72
     6
 73
     3
 74
     0
 42
0.0000000001
 43
0.0000000001
 40
-2.316382742007477
 40
-2.316382742007477
 40
-2.316382742007477
 40
0.0
 40
0.0
 40
0.0
 10
5.980052235863724
 20
6.021193777795074
 30
0.0
 41
1.0
 10
6.993952324863094
 20
5.461359997619767
 30
0.0
 41
0.9999999999800928
 10
8.011928936101711
 20
4.899278152502516
 30
0.0
 41
1.0
  0
SPLINE
  5
34C
330
1F
100
AcDbEntity
  8
Default
100
AcDbSpline
210
0.0
220
0.0
230
1.0
 70
     8
 71
     3
 72
    12
 73
     8
 74
     0
 42
0.0000000001
 43
0.0000000001
 40
-2.074835555048535
 40
-2.074835555048535
 40
-2.074835555048535
 40
-2.074835555048535
 40
-1.847387703843368
 40
-1.541080351580727
 40
-1.430421193586948
 40
-1.289510071944038
 40
0.0
 40
0.0
 40
0.0
 40
0.0
 10
8.011928936101711
 20
4.899278152502516
 30
0.0
 10
8.083844321780845
 20
4.860278576937484
 30
0.0
 10
8.192763524192799
 20
4.710462125337089
 30
0.0
 10
8.223196571441761
 20
4.493924985997547
 30
0.0
 10
8.228015015612002
 20
4.308585139657601
 30
0.0
 10
8.194145435035253
 20
3.795655628018579
 30
0.0
 10
8.163966033724265
 20
3.320077275644767
 30
0.0
 10
8.126474866393693
 20
2.850301192916349
 30
0.0
  0
SPLINE
  5
34D
330
1F
100
AcDbEntity
  8
Default
100
AcDbSpline
210
0.0
220
0.0
230
1.0
 70
    12
 71
     2
 72
     6
 73
     3
 74
     0
 42
0.0000000001
 43
0.0000000001
 40
-0.0894739505236135
 40
-0.0894739505236135
 40
-0.0894739505236135
 40
0.0
 40
0.0
 40
0.0
 10
8.126474866393693
 20
2.850301192916349
 30
0.0
 41
1.0
 10
8.12198343534037
 20
2.79516289863847
 30
0.0
 41
0.7362483220011421
 10
8.066662752834347
 20
2.79500000036181
 30
0.0
 41
1.0
  0
POLYLINE
  5
34E
330
1F
100
AcDbEntity
  8
Default
100
AcDb2dPolyline
 66
     1
 10
0.0
 20
0.0
 30
0.0
  0
VERTEX
  5
34F
330
34E
100
AcDbEntity
  8
Default
100
AcDbVertex
100
AcDb2dVertex
 10
8.066662752834347
 20
2.79500000036181
 30
0.0
  0
VERTEX
  5
350
330
34E
100
AcDbEntity
  8
Default
100
AcDbVertex
100
AcDb2dVertex
 10
7.427127737063117
 20
2.795000000002502
 30
0.0
  0
SEQEND
  5
351
330
34E
100
AcDbEntity
  8
Default
  0
SPLINE
  5
352
330
1F
100
AcDbEntity
  8
Default
100
AcDbSpline
210
0.0
220
0.0
230
1.0
 70
    12
 71
     2
 72
     6
 73
     3
 74
     0
 42
0.0000000001
 43
0.0000000001
 40
-0.0886676206593559
 40
-0.0886676206593559
 40
-0.0886676206593559
 40
0.0
 40
0.0
 40
0.0
 10
7.427127737063117
 20
2.795000000002502
 30
0.0
 41
1.0
 10
7.372547068392908
 20
2.795157121165732
 30
0.0
 41
0.7407798758250705
 10
7.36735818431378
 20
2.849740547931142
 30
0.0
 41
1.0
  0
SPLINE
  5
353
330
1F
100
AcDbEntity
  8
Default
100
AcDbSpline
210
0.0
220
0.0
230
1.0
 70
     8
 71
     3
 72
    12
 73
     8
 74
     0
 42
0.0000000001
 43
0.0000000001
 40
-1.616837590726808
 40
-1.616837590726808
 40
-1.616837590726808
 40
-1.616837590726808
 40
-0.4008103368921767
 40
-0.3036734105048165
 40
-0.1373876869759101
 40
-0.0711069409334947
 40
0.0
 40
0.0
 40
0.0
 40
0.0
 10
7.36735818431378
 20
2.849740547931142
 30
0.0
 10
7.329819987047969
 20
3.253554153615335
 30
0.0
 10
7.287944526416013
 20
3.689364186091674
 30
0.0
 10
7.240702338792815
 20
4.180160240662569
 30
0.0
 10
7.204917473793927
 20
4.286240492705239
 30
0.0
 10
7.144308038914446
 20
4.367997610386766
 30
0.0
 10
7.106894151103901
 20
4.395747558557636
 30
0.0
 10
7.087389985837035
 20
4.408784436217024
 30
0.0
  0
SPLINE
  5
354
330
1F
100
AcDbEntity
  8
Default
100
AcDbSpline
210
0.0
220
0.0
230
1.0
 70
    12
 71
     2
 72
     6
 73
     3
 74
     0
 42
0.0000000001
 43
0.0000000001
 40
-6.376857589103129
 40
-6.376857589103129
 40
-6.376857589103129
 40
0.0
 40
0.0
 40
0.0
 10
7.087389985837035
 20
4.408784436217024
 30
0.0
 41
1.0
 10
4.16949634108357
 20
5.768895448770012
 30
0.0
 41
0.9999996583531289
 10
1.27655610070606
 20
7.109410116529034
 30
0.0
 41
1.0
  0
SPLINE
  5
355
330
1F
100
AcDbEntity
  8
Default
100
AcDbSpline
210
0.0
220
0.0
230
1.0
 70
     8
 71
     3
 72
    12
 73
     8
 74
     0
 42
0.0000000001
 43
0.0000000001
 40
0.0
 40
0.0
 40
0.0
 40
0.0
 40
0.8431174930735964
 40
0.9795501028379618
 40
1.102190625616526
 40
1.384708845196554
 40
1.614468644976528
 40
1.614468644976528
 40
1.614468644976528
 40
1.614468644976528
 10
8.171226960654366
 20
3.420525470955589
 30
0.0
 10
8.190015143419501
 20
3.701082657350912
 30
0.0
 10
8.2213893011549
 20
4.025813241533298
 30
0.0
 10
8.238915864917729
 20
4.393268805930302
 30
0.0
 10
8.22557993984249
 20
4.573024198100538
 30
0.0
 10
8.180209373961645
 20
4.783445761186996
 30
0.0
 10
8.069185680309502
 20
4.921016673302425
 30
0.0
 10
8.002854631758666
 20
4.960565183523461
 30
0.0
  0
SPLINE
  5
356
330
1F
100
AcDbEntity
  8
Default
100
AcDbSpline
210
0.0
220
0.0
230
1.0
 70
    12
 71
     2
 72
     6
 73
     3
 74
     0
 42
0.0000000001
 43
0.0000000001
 40
0.0
 40
0.0
 40
0.0
 40
2.039438901862607
 40
2.039438901862607
 40
2.039438901862607
 10
8.002854631758666
 20
4.960565183523461
 30
0.0
 41
1.0
 10
7.087177761618496
 20
5.466391902261364
 30
0.0
 41
0.9999999515407708
 10
6.194718173599853
 20
5.959690705773643
 30
0.0
 41
1.0
  0
SPLINE
  5
357
330
1F
100
AcDbEntity
  8
Default
100
AcDbSpline
210
0.0
220
0.0
230
1.0
 70
     8
 71
     3
 72
    14
 73
    10
 74
     0
 42
0.0000000001
 43
0.0000000001
 40
-1.901256362180679
 40
-1.901256362180679
 40
-1.901256362180679
 40
-1.901256362180679
 40
-1.879028288897267
 40
-1.635580964939116
 40
-0.5626676357385408
 40
-0.4254444153002734
 40
-0.1855209054592391
 40
-0.0903135883340807
 40
0.0
 40
0.0
 40
0.0
 40
0.0
 10
7.998456558199194
 20
2.850171095769395
 30
0.0
 10
7.999858930443324
 20
2.8574517380503
 30
0.0
 10
8.007642809021192
 20
2.945685301030114
 30
0.0
 10
8.03815399527781
 20
3.390759810159881
 30
0.0
 10
8.069531719662095
 20
3.874449615548984
 30
0.0
 10
8.102218074566466
 20
4.356464158073292
 30
0.0
 10
8.07414194685002
 20
4.51492995689869
 30
0.0
 10
8.006539648038725
 20
4.640168385955928
 30
0.0
 10
7.958252778452774
 20
4.681957481481321
 30
0.0
 10
7.933670072367264
 20
4.698415030350613
 30
0.0
  0
SPLINE
  5
358
330
1F
100
AcDbEntity
  8
Default
100
AcDbSpline
210
0.0
220
0.0
230
1.0
 70
     8
 71
     3
 72
     8
 73
     4
 74
     0
 42
0.0000000001
 43
0.0000000001
 40
0.0
 40
0.0
 40
0.0
 40
0.0
 40
1.0
 40
1.0
 40
1.0
 40
1.0
 10
7.933670072367264
 20
4.698415030350613
 30
0.0
 10
6.894941775000446
 20
5.257210207415497
 30
0.0
 10
5.849718796987964
 20
5.804171548951892
 30
0.0
 10
4.807746936606748
 20
6.357057039758651
 30
0.0
  0
SPLINE
  5
359
330
1F
100
AcDbEntity
  8
Default
100
AcDbSpline
210
0.0
220
0.0
230
1.0
 70
    24
 71
     2
 72
     6
 73
     3
 74
     0
 42
0.0000000001
 43
0.0000000001
 40
0.0
 40
0.0
 40
0.0
 40
1.280000000000001
 40
1.280000000000001
 40
1.280000000000001
 10
12.18059251861216
 20
2.560000000000001
 30
0.0
 10
12.18059251861216
 20
1.92
 30
0.0
 10
12.18059251861216
 20
1.28
 30
0.0
  0
SPLINE
  5
35A
330
1F
100
AcDbEntity
  8
Default
100
AcDbSpline
210
0.0
220
0.0
230
1.0
 70
    24
 71
     2
 72
     6
 73
     3
 74
     0
 42
0.0000000001
 43
0.0000000001
 40
0.0
 40
0.0
 40
0.0
 40
0.7030817531036625
 40
0.7030817531036625
 40
0.7030817531036625
 10
12.18059251861216
 20
1.28
 30
0.0
 10
12.53361295688807
 20
1.28
 30
0.0
 10
12.88663339516399
 20
1.28
 30
0.0
  0
SPLINE
  5
35B
330
1F
100
AcDbEntity
  8
Default
100
AcDbSpline
210
0.0
220
0.0
230
1.0
 70
    24
 71
     2
 72
     6
 73
     3
 74
     0
 42
0.0000000001
 43
0.0000000001
 40
0.0
 40
0.0
 40
0.0
 40
1.280000000000001
 40
1.280000000000001
 40
1.280000000000001
 10
12.88663339516399
 20
1.28
 30
0.0
 10
12.88663339516399
 20
1.92
 30
0.0
 10
12.88663339516399
 20
2.560000000000001
 30
0.0
  0
SPLINE
  5
35C
330
1F
100
AcDbEntity
  8
Default
100
AcDbSpline
210
0.0
220
0.0
230
1.0
 70
    24
 71
     2
 72
     6
 73
     3
 74
     0
 42
0.0000000001
 43
0.0000000001
 40
-0.7030817531036629
 40
-0.7030817531036629
 40
-0.7030817531036629
 40
0.0
 40
0.0
 40
0.0
 10
12.88663339516399
 20
2.560000000000001
 30
0.0
 10
12.53361295688807
 20
2.560000000000001
 30
0.0
 10
12.18059251861216
 20
2.560000000000001
 30
0.0
  0
SPLINE
  5
35D
330
1F
100
AcDbEntity
  8
Default
100
AcDbSpline
210
0.0
220
0.0
230
1.0
 70
    24
 71
     2
 72
     6
 73
     3
 74
     0
 42
0.0000000001
 43
0.0000000001
 40
0.0
 40
0.0
 40
0.0
 40
0.0719999999999992
 40
0.0719999999999992
 40
0.0719999999999992
 10
12.8162260545852
 20
2.715
 30
0.0
 10
12.81622605458521
 20
2.751
 30
0.0
 10
12.81622605458521
 20
2.786999999999999
 30
0.0
  0
SPLINE
  5
35E
330
1F
100
AcDbEntity
  8
Default
100
AcDbSpline
210
0.0
220
0.0
230
1.0
 70
    28
 71
     2
 72
    10
 73
     7
 74
     0
 42
0.0000000001
 43
0.0000000001
 40
2.945243112740431
 40
2.945243112740431
 40
2.945243112740431
 40
3.087703909043192
 40
3.087703909043192
 40
4.685444608111389
 40
4.685444608111389
 40
6.283185307179586
 40
6.283185307179586
 40
6.283185307179586
 10
12.81622605458521
 20
2.787
 30
0.0
 41
0.9524261152922843
 10
12.81859251861216
 20
2.786999999999999
 30
0.0
 41
0.9738844975231726
 10
12.81859251861216
 20
2.786999999999999
 30
0.0
 41
1.0
 10
12.81859251861211
 20
2.787000000000001
 30
0.0
 41
0.7071067811865476
 10
12.53509251861211
 20
2.786999999999999
 30
0.0
 41
1.0
 10
12.25159251861211
 20
2.787000000000001
 30
0.0
 41
0.7071067811865476
 10
12.25159251861216
 20
2.786999999999999
 30
0.0
 41
1.0
  0
SPLINE
  5
35F
330
1F
100
AcDbEntity
  8
Default
100
AcDbSpline
210
0.0
220
0.0
230
1.0
 70
    24
 71
     2
 72
     6
 73
     3
 74
     0
 42
0.0000000001
 43
0.0000000001
 40
0.0
 40
0.0
 40
0.0
 40
0.0719999999999992
 40
0.0719999999999992
 40
0.0719999999999992
 10
12.25159251861216
 20
2.786999999999999
 30
0.0
 10
12.25159251861216
 20
2.751
 30
0.0
 10
12.25159251861216
 20
2.715
 30
0.0
  0
SPLINE
  5
360
330
1F
100
AcDbEntity
  8
Default
100
AcDbSpline
210
0.0
220
0.0
230
1.0
 70
    24
 71
     2
 72
     6
 73
     3
 74
     0
 42
0.0000000001
 43
0.0000000001
 40
0.0
 40
0.0
 40
0.0
 40
0.56226707194609
 40
0.56226707194609
 40
0.56226707194609
 10
12.25159251861216
 20
2.715
 30
0.0
 10
12.53390928659868
 20
2.715
 30
0.0
 10
12.8162260545852
 20
2.715
 30
0.0
  0
SPLINE
  5
361
330
1F
100
AcDbEntity
  8
Default
100
AcDbSpline
210
0.0
220
0.0
230
1.0
 70
    24
 71
     2
 72
     6
 73
     3
 74
     0
 42
0.0000000001
 43
0.0000000001
 40
0.0
 40
0.0
 40
0.0
 40
0.0299999999999994
 40
0.0299999999999994
 40
0.0299999999999994
 10
12.65109251861216
 20
2.685000000000001
 30
0.0
 10
12.65109251861216
 20
2.700000000000001
 30
0.0
 10
12.65109251861216
 20
2.715
 30
0.0
  0
SPLINE
  5
362
330
1F
100
AcDbEntity
  8
Default
100
AcDbSpline
210
0.0
220
0.0
230
1.0
 70
    24
 71
     2
 72
     6
 73
     3
 74
     0
 42
0.0000000001
 43
0.0000000001
 40
0.0
 40
0.0
 40
0.0
 40
0.0299999999999994
 40
0.0299999999999994
 40
0.0299999999999994
 10
12.41909251861216
 20
2.715
 30
0.0
 10
12.41909251861216
 20
2.700000000000001
 30
0.0
 10
12.41909251861216
 20
2.685000000000001
 30
0.0
  0
POLYLINE
  5
363
330
1F
100
AcDbEntity
  8
Default
100
AcDb2dPolyline
 66
     1
 10
0.0
 20
0.0
 30
0.0
  0
VERTEX
  5
364
330
363
100
AcDbEntity
  8
Default
100
AcDbVertex
100
AcDb2dVertex
 10
12.95459251861232
 20
2.560000000000001
 30
0.0
  0
VERTEX
  5
365
330
363
100
AcDbEntity
  8
Default
100
AcDbVertex
100
AcDb2dVertex
 10
12.95459251861232
 20
0.0000000000000004
 30
0.0
  0
SEQEND
  5
366
330
363
100
AcDbEntity
  8
Default
  0
SPLINE
  5
367
330
1F
100
AcDbEntity
  8
Default
100
AcDbSpline
210
0.0
220
0.0
230
1.0
 70
    24
 71
     2
 72
     6
 73
     3
 74
     0
 42
0.0000000001
 43
0.0000000001
 40
0.0
 40
0.0
 40
0.0
 40
0.3804999999999978
 40
0.3804999999999978
 40
0.3804999999999978
 10
12.95459251861232
 20
0.0000000000000004
 30
0.0
 10
13.14484251861231
 20
0.0000000000000004
 30
0.0
 10
13.33509251861231
 20
0.0000000000000004
 30
0.0
  0
SPLINE
  5
368
330
1F
100
AcDbEntity
  8
Default
100
AcDbSpline
210
0.0
220
0.0
230
1.0
 70
    12
 71
     2
 72
     6
 73
     3
 74
     0
 42
0.0000000001
 43
0.0000000001
 40
0.0
 40
0.0
 40
0.0
 40
0.3141578630330839
 40
0.3141578630330839
 40
0.3141578630330839
 10
13.33509251861231
 20
0.0000000000000004
 30
0.0
 41
1.0
 10
13.53508966228385
 20
0.0000025473334161
 30
0.0
 41
0.7071163336729269
 10
13.53509251861207
 20
0.1999996910007753
 30
0.0
 41
1.0
  0
POLYLINE
  5
369
330
1F
100
AcDbEntity
  8
Default
100
AcDb2dPolyline
 66
     1
 10
0.0
 20
0.0
 30
0.0
  0
VERTEX
  5
36A
330
369
100
AcDbEntity
  8
Default
100
AcDbVertex
100
AcDb2dVertex
 10
13.53509251861207
 20
0.1999996910007753
 30
0.0
  0
VERTEX
  5
36B
330
369
100
AcDbEntity
  8
Default
100
AcDbVertex
100
AcDb2dVertex
 10
13.53509251861207
 20
2.360000308999224
 30
0.0
  0
SEQEND
  5
36C
330
369
100
AcDbEntity
  8
Default
  0
SPLINE
  5
36D
330
1F
100
AcDbEntity
  8
Default
100
AcDbSpline
210
0.0
220
0.0
230
1.0
 70
    12
 71
     2
 72
     8
 73
     5
 74
     0
 42
0.0000000001
 43
0.0000000001
 40
0.0
 40
0.0
 40
0.0
 40
0.1570843383287497
 40
0.1570843383287497
 40
0.3141686766574995
 40
0.3141686766574995
 40
0.3141686766574995
 10
13.53509251861207
 20
2.360000308999224
 30
0.0
 41
1.0
 10
13.53510177099452
 20
2.442846816149753
 30
0.0
 41
0.9238580140017981
 10
13.47652039837148
 20
2.501428098264866
 30
0.0
 41
1.0
 10
13.41793902574845
 20
2.560009380379979
 30
0.0
 41
0.9238580140017981
 10
13.33509251861231
 20
2.560000000000001
 30
0.0
 41
1.0
  0
SPLINE
  5
36E
330
1F
100
AcDbEntity
  8
Default
100
AcDbSpline
210
0.0
220
0.0
230
1.0
 70
    24
 71
     2
 72
     6
 73
     3
 74
     0
 42
0.0000000001
 43
0.0000000001
 40
0.0
 40
0.0
 40
0.0
 40
0.3804999999999978
 40
0.3804999999999978
 40
0.3804999999999978
 10
13.33509251861231
 20
2.560000000000001
 30
0.0
 10
13.14484251861231
 20
2.560000000000001
 30
0.0
 10
12.95459251861232
 20
2.560000000000001
 30
0.0
  0
POLYLINE
  5
36F
330
1F
100
AcDbEntity
  8
Default
100
AcDb2dPolyline
 66
     1
 10
0.0
 20
0.0
 30
0.0
  0
VERTEX
  5
370
330
36F
100
AcDbEntity
  8
Default
100
AcDbVertex
100
AcDb2dVertex
 10
12.11559251861232
 20
0.0000000000000004
 30
0.0
  0
VERTEX
  5
371
330
36F
100
AcDbEntity
  8
Default
100
AcDbVertex
100
AcDb2dVertex
 10
12.11559251861232
 20
2.560000000000001
 30
0.0
  0
SEQEND
  5
372
330
36F
100
AcDbEntity
  8
Default
  0
SPLINE
  5
373
330
1F
100
AcDbEntity
  8
Default
100
AcDbSpline
210
0.0
220
0.0
230
1.0
 70
    24
 71
     2
 72
     6
 73
     3
 74
     0
 42
0.0000000001
 43
0.0000000001
 40
0.0
 40
0.0
 40
0.0
 40
0.3804999999999996
 40
0.3804999999999996
 40
0.3804999999999996
 10
12.11559251861232
 20
2.560000000000001
 30
0.0
 10
11.92534251861232
 20
2.560000000000001
 30
0.0
 10
11.73509251861232
 20
2.560000000000001
 30
0.0
  0
SPLINE
  5
374
330
1F
100
AcDbEntity
  8
Default
100
AcDbSpline
210
0.0
220
0.0
230
1.0
 70
    12
 71
     2
 72
     6
 73
     3
 74
     0
 42
0.0000000001
 43
0.0000000001
 40
0.0
 40
0.0
 40
0.0
 40
0.3141578630330935
 40
0.3141578630330935
 40
0.3141578630330935
 10
11.73509251861232
 20
2.560000000000001
 30
0.0
 41
1.0
 10
11.53509537494076
 20
2.559997452666603
 30
0.0
 41
0.7071163336728625
 10
11.53509251861256
 20
2.360000308999224
 30
0.0
 41
1.0
  0
POLYLINE
  5
375
330
1F
100
AcDbEntity
  8
Default
100
AcDb2dPolyline
 66
     1
 10
0.0
 20
0.0
 30
0.0
  0
VERTEX
  5
376
330
375
100
AcDbEntity
  8
Default
100
AcDbVertex
100
AcDb2dVertex
 10
11.53509251861256
 20
2.360000308999224
 30
0.0
  0
VERTEX
  5
377
330
375
100
AcDbEntity
  8
Default
100
AcDbVertex
100
AcDb2dVertex
 10
11.53509251861256
 20
0.1999996910007762
 30
0.0
  0
SEQEND
  5
378
330
375
100
AcDbEntity
  8
Default
  0
SPLINE
  5
379
330
1F
100
AcDbEntity
  8
Default
100
AcDbSpline
210
0.0
220
0.0
230
1.0
 70
    12
 71
     2
 72
     8
 73
     5
 74
     0
 42
0.0000000001
 43
0.0000000001
 40
0.0
 40
0.0
 40
0.0
 40
0.1570843383287469
 40
0.1570843383287469
 40
0.3141686766574937
 40
0.3141686766574937
 40
0.3141686766574937
 10
11.53509251861256
 20
0.1999996910007762
 30
0.0
 41
1.0
 10
11.53508326623011
 20
0.117153183850249
 30
0.0
 41
0.9238580140018094
 10
11.59366463885314
 20
0.0585719017351384
 30
0.0
 41
1.0
 10
11.65224601147618
 20
-0.0000093803799722
 30
0.0
 41
0.9238580140018094
 10
11.73509251861232
 20
0.0000000000000003
 30
0.0
 41
1.0
  0
SPLINE
  5
37A
330
1F
100
AcDbEntity
  8
Default
100
AcDbSpline
210
0.0
220
0.0
230
1.0
 70
    24
 71
     2
 72
     6
 73
     3
 74
     0
 42
0.0000000001
 43
0.0000000001
 40
0.0
 40
0.0
 40
0.0
 40
0.3804999999999996
 40
0.3804999999999996
 40
0.3804999999999996
 10
11.73509251861232
 20
0.0000000000000004
 30
0.0
 10
11.92534251861232
 20
0.0000000000000004
 30
0.0
 10
12.11559251861232
 20
0.0000000000000004
 30
0.0
  0
SPLINE
  5
37B
330
1F
100
AcDbEntity
  8
Default
100
AcDbSpline
210
0.0
220
0.0
230
1.0
 70
    24
 71
     2
 72
     6
 73
     3
 74
     0
 42
0.0000000001
 43
0.0000000001
 40
0.0
 40
0.0
 40
0.0
 40
0.125
 40
0.125
 40
0.125
 10
12.86509251861216
 20
2.560000000000001
 30
0.0
 10
12.86509251861216
 20
2.622500000000001
 30
0.0
 10
12.86509251861216
 20
2.685000000000001
 30
0.0
  0
POLYLINE
  5
37C
330
1F
100
AcDbEntity
  8
Default
100
AcDb2dPolyline
 66
     1
 10
0.0
 20
0.0
 30
0.0
  0
VERTEX
  5
37D
330
37C
100
AcDbEntity
  8
Default
100
AcDbVertex
100
AcDb2dVertex
 10
12.86509251861216
 20
2.685000000000001
 30
0.0
  0
VERTEX
  5
37E
330
37C
100
AcDbEntity
  8
Default
100
AcDbVertex
100
AcDb2dVertex
 10
12.20509251861216
 20
2.685000000000001
 30
0.0
  0
SEQEND
  5
37F
330
37C
100
AcDbEntity
  8
Default
  0
SPLINE
  5
380
330
1F
100
AcDbEntity
  8
Default
100
AcDbSpline
210
0.0
220
0.0
230
1.0
 70
    24
 71
     2
 72
     6
 73
     3
 74
     0
 42
0.0000000001
 43
0.0000000001
 40
0.0
 40
0.0
 40
0.0
 40
0.125
 40
0.125
 40
0.125
 10
12.20509251861216
 20
2.685000000000001
 30
0.0
 10
12.20509251861216
 20
2.622500000000001
 30
0.0
 10
12.20509251861216
 20
2.560000000000001
 30
0.0
  0
SPLINE
  5
381
330
1F
100
AcDbEntity
  8
Default
100
AcDbSpline
210
0.0
220
0.0
230
1.0
 70
     8
 71
     2
 72
    10
 73
     7
 74
     0
 42
0.0000000001
 43
0.0000000001
 40
-1.277918455464622
 40
-1.277918455464622
 40
-1.277918455464622
 40
-1.166654818729117
 40
-1.166654818729117
 40
-1.055391181993613
 40
-1.055391181993613
 40
0.9510655109193873
 40
0.9510655109193873
 40
0.9510655109193873
 10
-0.5513487362042326
 20
11.43532070329846
 30
0.0
 10
-0.5499525589792622
 20
11.49093499915896
 30
0.0
 10
-0.5485563817542921
 20
11.54654929501946
 30
0.0
 10
-0.5499525589792624
 20
11.49093499915896
 30
0.0
 10
-0.5513487362042326
 20
11.43532070329846
 30
0.0
 10
-0.5513487362042326
 20
9.793929133858502
 30
0.0
 10
-0.5513487362042326
 20
8.790700787402
 30
0.0
  0
SPLINE
  5
382
330
1F
100
AcDbEntity
  8
Default
100
AcDbSpline
210
0.0
220
0.0
230
1.0
 70
     8
 71
     2
 72
     8
 73
     5
 74
     0
 42
0.0000000001
 43
0.0000000001
 40
0.0
 40
0.0
 40
0.0
 40
2.006456692913
 40
2.006456692913
 40
2.117720329648505
 40
2.117720329648505
 40
2.117720329648505
 10
0.5510134685201677
 20
8.790700787402
 30
0.0
 10
0.5510134685201677
 20
9.793929133858502
 30
0.0
 10
0.5510134685201677
 20
11.43532070329846
 30
0.0
 10
0.5496172912951973
 20
11.49093499915896
 30
0.0
 10
0.548221114070227
 20
11.54654929501946
 30
0.0
  0
ENDSEC
  0
SECTION
  2
OBJECTS
  0
DICTIONARY
  5
C
330
0
100
AcDbDictionary
281
     1
  3
ACAD_GROUP
350
D
  3
ACAD_LAYOUT
350
1A
  3
ACAD_MLEADERSTYLE
350
384
  3
ACAD_MLINESTYLE
350
17
  3
ACAD_PLOTSETTINGS
350
19
  3
ACAD_PLOTSTYLENAME
350
E
  3
ACAD_TABLESTYLE
350
383
  3
ACAD_VISUALSTYLE
350
2A
  0
DICTIONARY
  5
D
102
{ACAD_REACTORS
330
C
102
}
330
C
100
AcDbDictionary
281
     1
  0
DICTIONARY
  5
1A
102
{ACAD_REACTORS
330
C
102
}
330
C
100
AcDbDictionary
281
     1
  3
Layout1
350
1E
  3
Layout2
350
26
  3
Model
350
22
  0
DICTIONARY
  5
384
102
{ACAD_REACTORS
330
C
102
}
330
C
100
AcDbDictionary
281
     1
  0
DICTIONARY
  5
17
102
{ACAD_REACTORS
330
C
102
}
330
C
100
AcDbDictionary
281
     1
  3
Standard
350
18
  0
DICTIONARY
  5
19
102
{ACAD_REACTORS
330
C
102
}
330
C
100
AcDbDictionary
281
     1
  0
ACDBDICTIONARYWDFLT
  5
E
102
{ACAD_REACTORS
330
C
102
}
330
C
100
AcDbDictionary
281
     1
  3
Normal
350
F
100
AcDbDictionaryWithDefault
340
F
  0
DICTIONARY
  5
383
102
{ACAD_REACTORS
330
C
102
}
330
C
100
AcDbDictionary
281
     1
  0
DICTIONARY
  5
2A
102
{ACAD_REACTORS
330
C
102
}
330
C
100
AcDbDictionary
281
     1
  3
2dWireframe
350
2F
  3
3D Hidden
350
31
  3
3dWireframe
350
30
  3
Basic
350
32
  3
Brighten
350
36
  3
ColorChange
350
3A
  3
Conceptual
350
34
  3
Dim
350
35
  3
Facepattern
350
39
  3
Flat
350
2B
  3
FlatWithEdges
350
2C
  3
Gouraud
350
2D
  3
GouraudWithEdges
350
2E
  3
Linepattern
350
38
  3
Realistic
350
33
  3
Thicken
350
37
  0
LAYOUT
  5
1E
102
{ACAD_REACTORS
330
1A
102
}
330
1A
100
AcDbPlotSettings
  1

  2
none_device
  4

  6

 40
0.0
 41
0.0
 42
0.0
 43
0.0
 44
0.0
 45
0.0
 46
0.0
 47
0.0
 48
0.0
 49
0.0
140
0.0
141
0.0
142
1.0
143
1.0
 70
   688
 72
     0
 73
     0
 74
     5
  7

 75
    16
 76
     0
 77
     2
 78
   300
147
1.0
148
0.0
149
0.0
100
AcDbLayout
  1
Layout1
 70
     1
 71
     1
 10
0.0
 20
0.0
 11
12.0
 21
9.0
 12
0.0
 22
0.0
 32
0.0
 14
1.000000000000000E+20
 24
1.000000000000000E+20
 34
1.000000000000000E+20
 15
-1.000000000000000E+20
 25
-1.000000000000000E+20
 35
-1.000000000000000E+20
146
0.0
 13
0.0
 23
0.0
 33
0.0
 16
1.0
 26
0.0
 36
0.0
 17
0.0
 27
1.0
 37
0.0
 76
     0
330
1B
  0
LAYOUT
  5
26
102
{ACAD_REACTORS
330
1A
102
}
330
1A
100
AcDbPlotSettings
  1

  2
none_device
  4

  6

 40
0.0
 41
0.0
 42
0.0
 43
0.0
 44
0.0
 45
0.0
 46
0.0
 47
0.0
 48
0.0
 49
0.0
140
0.0
141
0.0
142
1.0
143
1.0
 70
   688
 72
     0
 73
     0
 74
     5
  7

 75
    16
 76
     0
 77
     2
 78
   300
147
1.0
148
0.0
149
0.0
100
AcDbLayout
  1
Layout2
 70
     1
 71
     2
 10
0.0
 20
0.0
 11
0.0
 21
0.0
 12
0.0
 22
0.0
 32
0.0
 14
0.0
 24
0.0
 34
0.0
 15
0.0
 25
0.0
 35
0.0
146
0.0
 13
0.0
 23
0.0
 33
0.0
 16
1.0
 26
0.0
 36
0.0
 17
0.0
 27
1.0
 37
0.0
 76
     0
330
23
  0
LAYOUT
  5
22
102
{ACAD_REACTORS
330
1A
102
}
330
1A
100
AcDbPlotSettings
  1

  2
none_device
  4

  6

 40
0.0
 41
0.0
 42
0.0
 43
0.0
 44
0.0
 45
0.0
 46
0.0
 47
0.0
 48
0.0
 49
0.0
140
0.0
141
0.0
142
1.0
143
1.0
 70
  1712
 72
     0
 73
     0
 74
     0
  7

 75
     0
 76
     0
 77
     2
 78
   300
147
1.0
148
0.0
149
0.0
100
AcDbLayout
  1
Model
 70
     1
 71
     0
 10
0.0
 20
0.0
 11
12.0
 21
9.0
 12
0.0
 22
0.0
 32
0.0
 14
-13.53509251861207
 24
-0.0000000000000111
 34
0.0
 15
48.87550618956396
 25
71.54420546862093
 35
0.0
146
0.0
 13
0.0
 23
0.0
 33
0.0
 16
1.0
 26
0.0
 36
0.0
 17
0.0
 27
1.0
 37
0.0
 76
     0
330
1F
331
29
  0
MLINESTYLE
  5
18
102
{ACAD_REACTORS
330
17
102
}
330
17
100
AcDbMlineStyle
  2
Standard
 70
     0
  3

 62
   256
 51
90.0
 52
90.0
 71
     2
 49
0.5
 62
   256
  6
BYLAYER
 49
-0.5
 62
   256
  6
BYLAYER
  0
ACDBPLACEHOLDER
  5
F
102
{ACAD_REACTORS
330
E
102
}
330
E
  0
VISUALSTYLE
  5
2F
102
{ACAD_REACTORS
330
2A
102
}
330
2A
100
AcDbVisualStyle
  2
2dWireframe
 70
     4
 71
     0
 72
     2
 73
     0
 90
        0
 40
-0.6
 41
-30.0
 62
     5
 63
     7
421
 16777215
 74
     1
 91
        4
 64
     7
 65
   257
 75
     1
175
     1
 42
1.0
 92
        0
 66
   257
 43
1.0
 76
     1
 77
     6
 78
     2
 67
     7
 79
     5
170
     0
171
     0
290
     0
174
     0
 93
        1
 44
0.0
173
     0
291
     0
 45
0.0
1001
ACAD
1000
AcDbSavedByObjectVersion
1070
     0
  0
VISUALSTYLE
  5
31
102
{ACAD_REACTORS
330
2A
102
}
330
2A
100
AcDbVisualStyle
  2
3D Hidden
 70
     6
 71
     1
 72
     2
 73
     2
 90
        0
 40
-0.6
 41
-30.0
 62
     5
 63
     7
421
 16777215
 74
     2
 91
        2
 64
     7
 65
   257
 75
     2
175
     1
 42
40.0
 92
        0
 66
   257
 43
1.0
 76
     1
 77
     6
 78
     2
 67
     7
 79
     3
170
     0
171
     0
290
     0
174
     0
 93
        1
 44
0.0
173
     0
291
     0
 45
0.0
1001
ACAD
1000
AcDbSavedByObjectVersion
1070
     0
  0
VISUALSTYLE
  5
30
102
{ACAD_REACTORS
330
2A
102
}
330
2A
100
AcDbVisualStyle
  2
3dWireframe
 70
     5
 71
     0
 72
     2
 73
     0
 90
        0
 40
-0.6
 41
-30.0
 62
     5
 63
     7
421
 16777215
 74
     1
 91
        4
 64
     7
 65
   257
 75
     1
175
     1
 42
1.0
 92
        0
 66
   257
 43
1.0
 76
     1
 77
     6
 78
     2
 67
     7
 79
     5
170
     0
171
     0
290
     0
174
     0
 93
        1
 44
0.0
173
     0
291
     0
 45
0.0
1001
ACAD
1000
AcDbSavedByObjectVersion
1070
     0
  0
VISUALSTYLE
  5
32
102
{ACAD_REACTORS
330
2A
102
}
330
2A
100
AcDbVisualStyle
  2
Basic
 70
     7
 71
     1
 72
     0
 73
     1
 90
        0
 40
-0.6
 41
-30.0
 62
     5
 63
     7
421
 16777215
 74
     0
 91
        4
 64
     7
 65
   257
 75
     1
175
     1
 42
1.0
 92
        8
 66
     7
 43
1.0
 76
     1
 77
     6
 78
     2
 67
     7
 79
     5
170
     0
171
     0
290
     0
174
     0
 93
        1
 44
0.0
173
     0
291
     1
 45
0.0
1001
ACAD
1000
AcDbSavedByObjectVersion
1070
     0
  0
VISUALSTYLE
  5
36
102
{ACAD_REACTORS
330
2A
102
}
330
2A
100
AcDbVisualStyle
  2
Brighten
 70
    12
 71
     2
 72
     2
 73
     0
 90
        0
 40
-0.6
 41
-30.0
 62
     5
 63
     7
421
 16777215
 74
     1
 91
        4
 64
     7
 65
   257
 75
     1
175
     1
 42
1.0
 92
        8
 66
     7
 43
1.0
 76
     1
 77
     6
 78
     2
 67
     7
 79
     5
170
     0
171
     0
290
     0
174
     0
 93
        1
 44
50.0
173
     0
291
     1
 45
0.0
1001
ACAD
1000
AcDbSavedByObjectVersion
1070
     0
  0
VISUALSTYLE
  5
3A
102
{ACAD_REACTORS
330
2A
102
}
330
2A
100
AcDbVisualStyle
  2
ColorChange
 70
    16
 71
     2
 72
     2
 73
     3
 90
        0
 40
-0.6
 41
-30.0
 62
     5
 63
     8
421
  8421504
 74
     1
 91
        4
 64
     7
 65
   257
 75
     1
175
     1
 42
1.0
 92
        8
 66
     8
424
  8421504
 43
1.0
 76
     1
 77
     6
 78
     2
 67
     7
 79
     5
170
     0
171
     0
290
     0
174
     0
 93
        1
 44
0.0
173
     0
291
     1
 45
0.0
1001
ACAD
1000
AcDbSavedByObjectVersion
1070
     0
  0
VISUALSTYLE
  5
34
102
{ACAD_REACTORS
330
2A
102
}
330
2A
100
AcDbVisualStyle
  2
Conceptual
 70
     9
 71
     3
 72
     2
 73
     0
 90
        0
 40
-0.6
 41
-30.0
 62
     5
 63
     7
421
 16777215
 74
     2
 91
        2
 64
     7
 65
   257
 75
     1
175
     1
 42
40.0
 92
        8
 66
     7
 43
1.0
 76
     1
 77
     6
 78
     2
 67
     7
 79
     3
170
     0
171
     0
290
     0
174
     0
 93
        1
 44
0.0
173
     0
291
     0
 45
0.0
1001
ACAD
1000
AcDbSavedByObjectVersion
1070
     0
  0
VISUALSTYLE
  5
35
102
{ACAD_REACTORS
330
2A
102
}
330
2A
100
AcDbVisualStyle
  2
Dim
 70
    11
 71
     2
 72
     2
 73
     0
 90
        0
 40
-0.6
 41
-30.0
 62
     5
 63
     7
421
 16777215
 74
     1
 91
        4
 64
     7
 65
   257
 75
     1
175
     1
 42
1.0
 92
        8
 66
     7
 43
1.0
 76
     1
 77
     6
 78
     2
 67
     7
 79
     5
170
     0
171
     0
290
     0
174
     0
 93
        1
 44
-50.0
173
     0
291
     1
 45
0.0
1001
ACAD
1000
AcDbSavedByObjectVersion
1070
     0
  0
VISUALSTYLE
  5
39
102
{ACAD_REACTORS
330
2A
102
}
330
2A
100
AcDbVisualStyle
  2
Facepattern
 70
    15
 71
     2
 72
     2
 73
     0
 90
        0
 40
-0.6
 41
-30.0
 62
     5
 63
     7
421
 16777215
 74
     1
 91
        4
 64
     7
 65
   257
 75
     1
175
     1
 42
1.0
 92
        8
 66
     7
 43
1.0
 76
     1
 77
     6
 78
     2
 67
     7
 79
     5
170
     0
171
     0
290
     0
174
     0
 93
        1
 44
0.0
173
     0
291
     1
 45
0.0
1001
ACAD
1000
AcDbSavedByObjectVersion
1070
     0
  0
VISUALSTYLE
  5
2B
102
{ACAD_REACTORS
330
2A
102
}
330
2A
100
AcDbVisualStyle
  2
Flat
 70
     0
 71
     2
 72
     1
 73
     1
 90
        2
 40
-0.6
 41
30.0
 62
     5
 63
     7
421
 16777215
 74
     0
 91
        4
 64
     7
 65
   257
 75
     1
175
     1
 42
1.0
 92
        8
 66
     7
 43
1.0
 76
     1
 77
     6
 78
     2
 67
     7
 79
     5
170
     0
171
     0
290
     0
174
     0
 93
       13
 44
0.0
173
     0
291
     1
 45
0.0
1001
ACAD
1000
AcDbSavedByObjectVersion
1070
     0
  0
VISUALSTYLE
  5
2C
102
{ACAD_REACTORS
330
2A
102
}
330
2A
100
AcDbVisualStyle
  2
FlatWithEdges
 70
     1
 71
     2
 72
     1
 73
     1
 90
        2
 40
-0.6
 41
30.0
 62
     5
 63
     7
421
 16777215
 74
     1
 91
        4
 64
     7
 65
   257
 75
     1
175
     1
 42
1.0
 92
        0
 66
   257
 43
1.0
 76
     1
 77
     6
 78
     2
 67
     7
 79
     5
170
     0
171
     0
290
     0
174
     0
 93
       13
 44
0.0
173
     0
291
     1
 45
0.0
1001
ACAD
1000
AcDbSavedByObjectVersion
1070
     0
  0
VISUALSTYLE
  5
2D
102
{ACAD_REACTORS
330
2A
102
}
330
2A
100
AcDbVisualStyle
  2
Gouraud
 70
     2
 71
     2
 72
     2
 73
     1
 90
        2
 40
-0.6
 41
30.0
 62
     5
 63
     7
421
 16777215
 74
     0
 91
        4
 64
     7
 65
   257
 75
     1
175
     1
 42
1.0
 92
        0
 66
     7
 43
1.0
 76
     1
 77
     6
 78
     2
 67
     7
 79
     5
170
     0
171
     0
290
     0
174
     0
 93
       13
 44
0.0
173
     0
291
     1
 45
0.0
1001
ACAD
1000
AcDbSavedByObjectVersion
1070
     0
  0
VISUALSTYLE
  5
2E
102
{ACAD_REACTORS
330
2A
102
}
330
2A
100
AcDbVisualStyle
  2
GouraudWithEdges
 70
     3
 71
     2
 72
     2
 73
     1
 90
        2
 40
-0.6
 41
30.0
 62
     5
 63
     7
421
 16777215
 74
     1
 91
        4
 64
     7
 65
   257
 75
     1
175
     1
 42
1.0
 92
        0
 66
   257
 43
1.0
 76
     1
 77
     6
 78
     2
 67
     7
 79
     5
170
     0
171
     0
290
     0
174
     0
 93
       13
 44
0.0
173
     0
291
     1
 45
0.0
1001
ACAD
1000
AcDbSavedByObjectVersion
1070
     0
  0
VISUALSTYLE
  5
38
102
{ACAD_REACTORS
330
2A
102
}
330
2A
100
AcDbVisualStyle
  2
Linepattern
 70
    14
 71
     2
 72
     2
 73
     0
 90
        0
 40
-0.6
 41
-30.0
 62
     5
 63
     7
421
 16777215
 74
     1
 91
        4
 64
     7
 65
   257
 75
     7
175
     7
 42
1.0
 92
        8
 66
     7
 43
1.0
 76
     1
 77
     6
 78
     2
 67
     7
 79
     5
170
     0
171
     0
290
     0
174
     0
 93
        1
 44
0.0
173
     0
291
     1
 45
0.0
1001
ACAD
1000
AcDbSavedByObjectVersion
1070
     0
  0
VISUALSTYLE
  5
33
102
{ACAD_REACTORS
330
2A
102
}
330
2A
100
AcDbVisualStyle
  2
Realistic
 70
     8
 71
     2
 72
     2
 73
     0
 90
        0
 40
-0.6
 41
-30.0
 62
     5
 63
     7
421
 16777215
 74
     1
 91
        0
 64
     7
 65
   257
 75
     1
175
     1
 42
1.0
 92
        8
 66
     8
424
  7895160
 43
1.0
 76
     1
 77
     6
 78
     2
 67
     7
 79
     5
170
     0
171
     0
290
     0
174
     0
 93
       13
 44
0.0
173
     0
291
     0
 45
0.0
1001
ACAD
1000
AcDbSavedByObjectVersion
1070
     0
  0
VISUALSTYLE
  5
37
102
{ACAD_REACTORS
330
2A
102
}
330
2A
100
AcDbVisualStyle
  2
Thicken
 70
    13
 71
     2
 72
     2
 73
     0
 90
        0
 40
-0.6
 41
-30.0
 62
     5
 63
     7
421
 16777215
 74
     1
 91
        4
 64
     7
 65
   257
 75
     1
175
     1
 42
1.0
 92
       12
 66
     7
 43
1.0
 76
     1
 77
     6
 78
     2
 67
     7
 79
     5
170
     0
171
     0
290
     0
174
     0
 93
        1
 44
0.0
173
     0
291
     1
 45
0.0
1001
ACAD
1000
AcDbSavedByObjectVersion
1070
     0
  0
ENDSEC
  0
EOF
