  0
SECTION
  2
HEADER
  9
$ACADVER
  1
AC1018
  9
$ACADMAINTVER
 70
     0
  9
$DWGCODEPAGE
  3
ANSI_1252
  9
$INSBASE
 10
0.0
 20
0.0
 30
0.0
  9
$EXTMIN
 10
-17.85687123730261
 20
0.000000116452398
 30
0.0
  9
$EXTMAX
 10
62.40698029791875
 20
76.83287033764896
 30
0.0
  9
$LIMMIN
 10
0.0
 20
0.0
  9
$LIMMAX
 10
12.0
 20
9.0
  9
$ORTHOMODE
 70
     0
  9
$REGENMODE
 70
     1
  9
$FILLMODE
 70
     1
  9
$QTEXTMODE
 70
     0
  9
$MIRRTEXT
 70
     1
  9
$LTSCALE
 40
0.0393700787401575
  9
$ATTMODE
 70
     1
  9
$TEXTSIZE
 40
0.2
  9
$TRACEWID
 40
0.05
  9
$TEXTSTYLE
  7
Standard
  9
$CLAYER
  8
Default
  9
$CELTYPE
  6
ByLayer
  9
$CECOLOR
 62
   256
  9
$CELTSCALE
 40
1.0
  9
$DISPSILH
 70
     0
  9
$DIMSCALE
 40
1.0
  9
$DIMASZ
 40
0.18
  9
$DIMEXO
 40
0.0625
  9
$DIMDLI
 40
0.38
  9
$DIMRND
 40
0.0
  9
$DIMDLE
 40
0.0
  9
$DIMEXE
 40
0.18
  9
$DIMTP
 40
0.0
  9
$DIMTM
 40
0.0
  9
$DIMTXT
 40
0.18
  9
$DIMCEN
 40
0.09
  9
$DIMTSZ
 40
0.0
  9
$DIMTOL
 70
     0
  9
$DIMLIM
 70
     0
  9
$DIMTIH
 70
     1
  9
$DIMTOH
 70
     1
  9
$DIMSE1
 70
     0
  9
$DIMSE2
 70
     0
  9
$DIMTAD
 70
     0
  9
$DIMZIN
 70
     0
  9
$DIMBLK
  1

  9
$DIMASO
 70
     1
  9
$DIMSHO
 70
     1
  9
$DIMPOST
  1

  9
$DIMAPOST
  1

  9
$DIMALT
 70
     0
  9
$DIMALTD
 70
     2
  9
$DIMALTF
 40
25.4
  9
$DIMLFAC
 40
1.0
  9
$DIMTOFL
 70
     0
  9
$DIMTVP
 40
0.0
  9
$DIMTIX
 70
     0
  9
$DIMSOXD
 70
     0
  9
$DIMSAH
 70
     0
  9
$DIMBLK1
  1

  9
$DIMBLK2
  1

  9
$DIMSTYLE
  2
Standard
  9
$DIMCLRD
 70
     0
  9
$DIMCLRE
 70
     0
  9
$DIMCLRT
 70
     0
  9
$DIMTFAC
 40
1.0
  9
$DIMGAP
 40
0.09
  9
$DIMJUST
 70
     0
  9
$DIMSD1
 70
     0
  9
$DIMSD2
 70
     0
  9
$DIMTOLJ
 70
     1
  9
$DIMTZIN
 70
     0
  9
$DIMALTZ
 70
     0
  9
$DIMALTTZ
 70
     0
  9
$DIMUPT
 70
     0
  9
$DIMDEC
 70
     4
  9
$DIMTDEC
 70
     4
  9
$DIMALTU
 70
     2
  9
$DIMALTTD
 70
     2
  9
$DIMTXSTY
  7
Standard
  9
$DIMAUNIT
 70
     0
  9
$DIMADEC
 70
     0
  9
$DIMALTRND
 40
0.0
  9
$DIMAZIN
 70
     0
  9
$DIMDSEP
 70
    46
  9
$DIMATFIT
 70
     3
  9
$DIMFRAC
 70
     0
  9
$DIMLDRBLK
  1

  9
$DIMLUNIT
 70
     2
  9
$DIMLWD
 70
    -2
  9
$DIMLWE
 70
    -2
  9
$DIMTMOVE
 70
     2
  9
$LUNITS
 70
     2
  9
$LUPREC
 70
     3
  9
$SKETCHINC
 40
0.1
  9
$FILLETRAD
 40
0.5
  9
$AUNITS
 70
     0
  9
$AUPREC
 70
     0
  9
$MENU
  1
.
  9
$ELEVATION
 40
0.0
  9
$PELEVATION
 40
0.0
  9
$THICKNESS
 40
0.0
  9
$LIMCHECK
 70
     0
  9
$CHAMFERA
 40
0.5
  9
$CHAMFERB
 40
0.5
  9
$CHAMFERC
 40
1.0
  9
$CHAMFERD
 40
0.0
  9
$SKPOLY
 70
     0
  9
$TDCREATE
 40
2458096.454255752
  9
$TDUCREATE
 40
2458096.662589086
  9
$TDUPDATE
 40
2458096.454255764
  9
$TDUUPDATE
 40
2458096.662589097
  9
$TDINDWG
 40
0.0000000116
  9
$TDUSRTIMER
 40
0.0000000116
  9
$USRTIMER
 70
     1
  9
$ANGBASE
 50
0.0
  9
$ANGDIR
 70
     0
  9
$PDMODE
 70
     0
  9
$PDSIZE
 40
0.0
  9
$PLINEWID
 40
0.0
  9
$SPLFRAME
 70
     0
  9
$SPLINETYPE
 70
     6
  9
$SPLINESEGS
 70
     8
  9
$HANDSEED
  5
103
  9
$SURFTAB1
 70
     6
  9
$SURFTAB2
 70
     6
  9
$SURFTYPE
 70
     6
  9
$SURFU
 70
     6
  9
$SURFV
 70
     6
  9
$UCSBASE
  2

  9
$UCSNAME
  2

  9
$UCSORG
 10
0.0
 20
0.0
 30
0.0
  9
$UCSXDIR
 10
1.0
 20
0.0
 30
0.0
  9
$UCSYDIR
 10
0.0
 20
1.0
 30
0.0
  9
$UCSORTHOREF
  2

  9
$UCSORTHOVIEW
 70
     0
  9
$UCSORGTOP
 10
0.0
 20
0.0
 30
0.0
  9
$UCSORGBOTTOM
 10
0.0
 20
0.0
 30
0.0
  9
$UCSORGLEFT
 10
0.0
 20
0.0
 30
0.0
  9
$UCSORGRIGHT
 10
0.0
 20
0.0
 30
0.0
  9
$UCSORGFRONT
 10
0.0
 20
0.0
 30
0.0
  9
$UCSORGBACK
 10
0.0
 20
0.0
 30
0.0
  9
$PUCSBASE
  2

  9
$PUCSNAME
  2

  9
$PUCSORG
 10
0.0
 20
0.0
 30
0.0
  9
$PUCSXDIR
 10
1.0
 20
0.0
 30
0.0
  9
$PUCSYDIR
 10
0.0
 20
1.0
 30
0.0
  9
$PUCSORTHOREF
  2

  9
$PUCSORTHOVIEW
 70
     0
  9
$PUCSORGTOP
 10
0.0
 20
0.0
 30
0.0
  9
$PUCSORGBOTTOM
 10
0.0
 20
0.0
 30
0.0
  9
$PUCSORGLEFT
 10
0.0
 20
0.0
 30
0.0
  9
$PUCSORGRIGHT
 10
0.0
 20
0.0
 30
0.0
  9
$PUCSORGFRONT
 10
0.0
 20
0.0
 30
0.0
  9
$PUCSORGBACK
 10
0.0
 20
0.0
 30
0.0
  9
$USERI1
 70
     0
  9
$USERI2
 70
     0
  9
$USERI3
 70
     0
  9
$USERI4
 70
     0
  9
$USERI5
 70
     0
  9
$USERR1
 40
0.0
  9
$USERR2
 40
0.0
  9
$USERR3
 40
0.0
  9
$USERR4
 40
0.0
  9
$USERR5
 40
0.0
  9
$WORLDVIEW
 70
     1
  9
$SHADEDGE
 70
     3
  9
$SHADEDIF
 70
    70
  9
$TILEMODE
 70
     1
  9
$MAXACTVP
 70
    64
  9
$PINSBASE
 10
0.0
 20
0.0
 30
0.0
  9
$PLIMCHECK
 70
     0
  9
$PEXTMIN
 10
1.000000000000000E+20
 20
1.000000000000000E+20
 30
1.000000000000000E+20
  9
$PEXTMAX
 10
-1.000000000000000E+20
 20
-1.000000000000000E+20
 30
-1.000000000000000E+20
  9
$PLIMMIN
 10
0.0
 20
0.0
  9
$PLIMMAX
 10
12.0
 20
9.0
  9
$UNITMODE
 70
     0
  9
$VISRETAIN
 70
     1
  9
$PLINEGEN
 70
     0
  9
$PSLTSCALE
 70
     1
  9
$TREEDEPTH
 70
  3020
  9
$CMLSTYLE
  2
Standard
  9
$CMLJUST
 70
     0
  9
$CMLSCALE
 40
1.0
  9
$PROXYGRAPHICS
 70
     1
  9
$MEASUREMENT
 70
     0
  9
$CELWEIGHT
370
    -1
  9
$ENDCAPS
280
     0
  9
$JOINSTYLE
280
     0
  9
$LWDISPLAY
290
     0
  9
$INSUNITS
 70
     1
  9
$HYPERLINKBASE
  1

  9
$STYLESHEET
  1

  9
$XEDIT
290
     1
  9
$CEPSNTYPE
380
     0
  9
$PSTYLEMODE
290
     1
  9
$FINGERPRINTGUID
  2
{55316113-92AD-4640-8FA5-68E207CB3DF6}
  9
$VERSIONGUID
  2
{FAEB1C32-E019-11D5-929B-00C0DF256EC4}
  9
$EXTNAMES
290
     1
  9
$PSVPSCALE
 40
0.0
  9
$OLESTARTUP
290
     0
  9
$SORTENTS
280
   127
  9
$INDEXCTL
280
     0
  9
$HIDETEXT
280
     1
  9
$XCLIPFRAME
290
     0
  9
$HALOGAP
280
     0
  9
$OBSCOLOR
 70
   257
  9
$OBSLTYPE
280
     0
  9
$INTERSECTIONDISPLAY
280
     0
  9
$INTERSECTIONCOLOR
 70
   257
  9
$DIMASSOC
280
     2
  9
$PROJECTNAME
  1

  0
ENDSEC
  0
SECTION
  2
CLASSES
  0
CLASS
  1
ACDBDICTIONARYWDFLT
  2
AcDbDictionaryWithDefault
  3
ObjectDBX Classes
 90
        0
 91
        4
280
     0
281
     0
  0
CLASS
  1
VISUALSTYLE
  2
AcDbVisualStyle
  3
ObjectDBX Classes
 90
     4095
 91
        4
280
     0
281
     0
  0
ENDSEC
  0
SECTION
  2
TABLES
  0
TABLE
  2
VPORT
  5
8
330
0
100
AcDbSymbolTable
 70
     1
  0
VPORT
  5
29
330
8
100
AcDbSymbolTableRecord
100
AcDbViewportTableRecord
  2
*Active
 70
     0
 10
0.0
 20
0.0
 11
1.0
 21
1.0
 12
22.27505453030807
 22
38.41643522705068
 13
0.0
 23
0.0
 14
0.5
 24
0.5
 15
0.5
 25
0.5
 16
0.0
 26
0.0
 36
1.0
 17
0.0
 27
0.0
 37
0.0
 40
78.36952762562049
 41
1.044655123570774
 42
50.0
 43
0.0
 44
0.0
 50
0.0
 51
0.0
 71
     0
 72
   100
 73
     1
 74
     3
 75
     0
 76
     0
 77
     0
 78
     0
281
     0
 65
     1
110
0.0
120
0.0
130
0.0
111
1.0
121
0.0
131
0.0
112
0.0
122
1.0
132
0.0
 79
     0
146
0.0
  0
ENDTAB
  0
TABLE
  2
LTYPE
  5
5
330
0
100
AcDbSymbolTable
 70
     1
  0
LTYPE
  5
14
330
5
100
AcDbSymbolTableRecord
100
AcDbLinetypeTableRecord
  2
ByBlock
 70
     0
  3

 72
    65
 73
     0
 40
0.0
  0
LTYPE
  5
15
330
5
100
AcDbSymbolTableRecord
100
AcDbLinetypeTableRecord
  2
ByLayer
 70
     0
  3

 72
    65
 73
     0
 40
0.0
  0
LTYPE
  5
16
330
5
100
AcDbSymbolTableRecord
100
AcDbLinetypeTableRecord
  2
Continuous
 70
     0
  3
Solid line
 72
    65
 73
     0
 40
0.0
  0
ENDTAB
  0
TABLE
  2
LAYER
  5
2
330
0
100
AcDbSymbolTable
 70
     2
  0
LAYER
  5
10
330
2
100
AcDbSymbolTableRecord
100
AcDbLayerTableRecord
  2
0
 70
     0
 62
     7
  6
Continuous
370
    -3
390
F
  0
LAYER
  5
3B
330
2
100
AcDbSymbolTableRecord
100
AcDbLayerTableRecord
  2
Default
 70
     0
 62
     7
  6
Continuous
370
    -3
390
F
  0
ENDTAB
  0
TABLE
  2
STYLE
  5
3
330
0
100
AcDbSymbolTable
 70
     1
  0
STYLE
  5
11
330
3
100
AcDbSymbolTableRecord
100
AcDbTextStyleTableRecord
  2
Standard
 70
     0
 40
0.0
 41
1.0
 50
0.0
 71
     0
 42
0.2
  3
txt
  4

  0
ENDTAB
  0
TABLE
  2
VIEW
  5
6
330
0
100
AcDbSymbolTable
 70
     0
  0
ENDTAB
  0
TABLE
  2
UCS
  5
7
330
0
100
AcDbSymbolTable
 70
     0
  0
ENDTAB
  0
TABLE
  2
APPID
  5
9
330
0
100
AcDbSymbolTable
 70
     1
  0
APPID
  5
12
330
9
100
AcDbSymbolTableRecord
100
AcDbRegAppTableRecord
  2
ACAD
 70
     0
  0
ENDTAB
  0
TABLE
  2
DIMSTYLE
  5
A
330
0
100
AcDbSymbolTable
 70
     1
100
AcDbDimStyleTable
  0
DIMSTYLE
105
27
330
A
100
AcDbSymbolTableRecord
100
AcDbDimStyleTableRecord
  2
Standard
 70
     0
340
11
  0
ENDTAB
  0
TABLE
  2
BLOCK_RECORD
  5
1
330
0
100
AcDbSymbolTable
 70
     1
  0
BLOCK_RECORD
  5
1F
330
1
100
AcDbSymbolTableRecord
100
AcDbBlockTableRecord
  2
*Model_Space
340
22
  0
BLOCK_RECORD
  5
1B
330
1
100
AcDbSymbolTableRecord
100
AcDbBlockTableRecord
  2
*Paper_Space
340
1E
  0
BLOCK_RECORD
  5
23
330
1
100
AcDbSymbolTableRecord
100
AcDbBlockTableRecord
  2
*Paper_Space0
340
26
  0
ENDTAB
  0
ENDSEC
  0
SECTION
  2
BLOCKS
  0
BLOCK
  5
20
330
1F
100
AcDbEntity
  8
0
100
AcDbBlockBegin
  2
*Model_Space
 70
     0
 10
0.0
 20
0.0
 30
0.0
  3
*Model_Space
  1

  0
ENDBLK
  5
21
330
1F
100
AcDbEntity
  8
0
100
AcDbBlockEnd
  0
BLOCK
  5
1C
330
1B
100
AcDbEntity
 67
     1
  8
0
100
AcDbBlockBegin
  2
*Paper_Space
 70
     0
 10
0.0
 20
0.0
 30
0.0
  3
*Paper_Space
  1

  0
ENDBLK
  5
1D
330
1B
100
AcDbEntity
 67
     1
  8
0
100
AcDbBlockEnd
  0
BLOCK
  5
24
330
23
100
AcDbEntity
  8
0
100
AcDbBlockBegin
  2
*Paper_Space0
 70
     0
 10
0.0
 20
0.0
 30
0.0
  3
*Paper_Space0
  1

  0
ENDBLK
  5
25
330
23
100
AcDbEntity
  8
0
100
AcDbBlockEnd
  0
ENDSEC
  0
SECTION
  2
ENTITIES
  0
LINE
  5
3C
330
1F
100
AcDbEntity
  8
Default
100
AcDbLine
 10
-12.81375915382323
 20
16.0424205010906
 30
0.0
 11
-12.43521349332616
 21
20.21174598073855
 31
0.0
  0
SPLINE
  5
3D
330
1F
100
AcDbEntity
  8
Default
100
AcDbSpline
210
0.0
220
0.0
230
1.0
 70
     8
 71
     2
 72
     6
 73
     3
 74
     0
 42
0.0000000001
 43
0.0000000001
 40
23.13925018348558
 40
23.13925018348558
 40
23.13925018348558
 40
23.99586628615774
 40
23.99586628615774
 40
23.99586628615774
 10
-12.43521349332616
 20
20.21174598073855
 30
0.0
 10
-12.39648540835642
 20
20.63829952048929
 30
0.0
 10
-11.92159658643186
 20
20.78139770768651
 30
0.0
  0
SPLINE
  5
3E
330
1F
100
AcDbEntity
  8
Default
100
AcDbSpline
210
0.0
220
0.0
230
1.0
 70
    12
 71
     2
 72
     6
 73
     3
 74
     0
 42
0.0000000001
 43
0.0000000001
 40
42.78467060280285
 40
42.78467060280285
 40
42.78467060280285
 40
43.48285215750775
 40
43.48285215750775
 40
43.48285215750775
 10
-11.92159658643186
 20
20.78139770768651
 30
0.0
 41
1.0
 10
-11.92159658643186
 20
20.83325801318232
 30
0.0
 41
0.8698159402429002
 10
-12.22638406020088
 20
20.87314034173397
 30
0.0
 41
0.8553593082732935
  0
ARC
  5
3F
330
1F
100
AcDbEntity
  8
Default
100
AcDbCircle
 10
-12.64813099976417
 20
17.65007917786893
 30
0.0
 40
3.250537455105858
100
AcDbArc
 50
82.54503699985533
 51
97.77639532880622
  0
LINE
  5
40
330
1F
100
AcDbEntity
  8
Default
100
AcDbLine
 10
12.81375915382323
 20
16.0424205010906
 30
0.0
 11
12.43521349332616
 21
20.21174598073855
 31
0.0
  0
SPLINE
  5
41
330
1F
100
AcDbEntity
  8
Default
100
AcDbSpline
210
0.0
220
0.0
230
1.0
 70
     8
 71
     2
 72
     6
 73
     3
 74
     0
 42
0.0000000001
 43
0.0000000001
 40
23.13925018348558
 40
23.13925018348558
 40
23.13925018348558
 40
23.99586628615774
 40
23.99586628615774
 40
23.99586628615774
 10
12.43521349332616
 20
20.21174598073855
 30
0.0
 10
12.39648540835642
 20
20.63829952048929
 30
0.0
 10
11.92159658643186
 20
20.78139770768651
 30
0.0
  0
SPLINE
  5
42
330
1F
100
AcDbEntity
  8
Default
100
AcDbSpline
210
0.0
220
0.0
230
1.0
 70
    12
 71
     2
 72
     6
 73
     3
 74
     0
 42
0.0000000001
 43
0.0000000001
 40
42.78467060280285
 40
42.78467060280285
 40
42.78467060280285
 40
43.48285215750775
 40
43.48285215750775
 40
43.48285215750775
 10
11.92159658643186
 20
20.78139770768651
 30
0.0
 41
1.0
 10
11.92159658643186
 20
20.83325801318232
 30
0.0
 41
0.8698159402429002
 10
12.22638406020088
 20
20.87314034173397
 30
0.0
 41
0.8553593082732935
  0
ARC
  5
43
330
1F
100
AcDbEntity
  8
Default
100
AcDbCircle
 10
12.64813099976417
 20
17.65007917786893
 30
0.0
 40
3.250537455105858
100
AcDbArc
 50
82.01497922930696
 51
97.45496300014467
  0
ARC
  5
44
330
1F
100
AcDbEntity
  8
Default
100
AcDbCircle
 10
57.1520811566611
 20
21.40089875055995
 30
0.0
 40
0.6556860253859091
100
AcDbArc
 50
101.6603876271522
 51
193.0112021516684
  0
LINE
  5
45
330
1F
100
AcDbEntity
  8
Default
100
AcDbLine
 10
56.51322917168101
 20
21.2532765802285
 30
0.0
 11
58.61684116995184
 21
11.80729312620048
 31
0.0
  0
ARC
  5
46
330
1F
100
AcDbEntity
  8
Default
100
AcDbCircle
 10
-470.7295361416035
 20
-106.0776678175887
 30
0.0
 40
542.313978419869
100
AcDbArc
 50
11.29554617007172
 51
12.55484228014878
  0
ARC
  5
47
330
1F
100
AcDbEntity
  8
Default
100
AcDbCircle
 10
60.96234049837845
 20
0.1208868183976986
 30
0.0
 40
0.1199352353765749
100
AcDbArc
 50
270.0762616786265
 51
11.75743732990213
  0
LINE
  5
48
330
1F
100
AcDbEntity
  8
Default
100
AcDbLine
 10
60.96250013421469
 20
0.000951689260176
 30
0.0
 11
59.76809493188875
 21
0.0009074307240643
 31
0.0
  0
ARC
  5
49
330
1F
100
AcDbEntity
  8
Default
100
AcDbCircle
 10
59.76808668510066
 20
0.1228582654533742
 30
0.0
 40
0.1219508350081497
100
AcDbArc
 50
194.5314911277449
 51
270.0038745626704
  0
ARC
  5
4A
330
1F
100
AcDbEntity
  8
Default
100
AcDbCircle
 10
468.0712974969168
 20
101.6589460010586
 30
0.0
 40
420.8606869368163
100
AcDbArc
 50
192.3776156656172
 51
193.9651042330874
  0
LINE
  5
4B
330
1F
100
AcDbEntity
  8
Default
100
AcDbLine
 10
56.99305568414024
 20
11.44588199675152
 30
0.0
 11
54.83633188221837
 21
21.13035677682335
 31
0.0
  0
ARC
  5
4C
330
1F
100
AcDbEntity
  8
Default
100
AcDbCircle
 10
54.05546117134415
 20
20.95645757355094
 30
0.0
 40
0.8
100
AcDbArc
 50
12.55484228226977
 51
95.4530434312275
  0
ARC
  5
4D
330
1F
100
AcDbEntity
  8
Default
100
AcDbCircle
 10
45.1437572846406
 20
20.10572878179732
 30
0.0
 40
0.8
100
AcDbArc
 50
95.4530434311999
 51
159.4481586312584
  0
LINE
  5
4E
330
1F
100
AcDbEntity
  8
Default
100
AcDbLine
 10
44.39467333476838
 20
20.38657257475673
 30
0.0
 11
40.84328325885275
 21
10.91408511982331
 31
0.0
  0
ARC
  5
4F
330
1F
100
AcDbEntity
  8
Default
100
AcDbCircle
 10
-474.4279454883632
 20
204.0976746345867
 30
0.0
 40
550.294774127898
100
AcDbArc
 50
338.2379304039271
 51
339.4481586312595
  0
SPLINE
  5
50
330
1F
100
AcDbEntity
  8
Default
100
AcDbSpline
210
0.0
220
0.0
230
1.0
 70
    12
 71
     2
 72
    20
 73
    17
 74
     0
 42
0.0000000001
 43
0.0000000001
 40
-23.6536300322551
 40
-23.6536300322551
 40
-23.6536300322551
 40
-23.51614083512854
 40
-23.51614083512854
 40
-22.27874388614927
 40
-22.27874388614927
 40
-22.16441683916819
 40
-22.16441683916819
 40
-22.05008979218712
 40
-22.05008979218712
 40
-10.00070568840496
 40
-10.00070568840496
 40
-1.237404178594121
 40
-1.237404178594121
 40
-0.6187020892970607
 40
-0.6187020892970607
 40
0.0
 40
0.0
 40
0.0
 10
36.64813055458722
 20
0.074188415439421
 30
0.0
 41
1.0
 10
36.61588507254613
 20
0.0002120954937964
 30
0.0
 41
0.8373614552723482
 10
36.53774395026777
 20
0.0000458075528469
 30
0.0
 41
1.0
 10
35.91849993987231
 20
0.0000263524333119
 30
0.0
 41
0.9999999999854615
 10
35.2974138350048
 20
0.000000116452398
 30
0.0
 41
1.0
 10
35.2331077509942
 20
0.0001127118592286
 30
0.0
 41
0.8886898622345174
 10
35.19731542528771
 20
0.0506381208849883
 30
0.0
 41
1.0
 10
35.16152309958123
 20
0.101163529910748
 30
0.0
 41
0.8886898622345174
 10
35.18198975663139
 20
0.1597542358330339
 30
0.0
 41
1.0
 10
37.17211738082157
 20
5.846667861986035
 30
0.0
 41
0.9999391384281505
 10
39.28792463025181
 20
11.49008279465594
 30
0.0
 41
1.0
 10
40.82685254512296
 20
15.59480352335161
 30
0.0
 41
1.0
 10
42.36578045999411
 20
19.69952425204728
 30
0.0
 41
1.0
 10
42.48216557756754
 20
20.01536039382558
 30
0.0
 41
0.8908724391355177
 10
42.29603779371174
 20
20.29331658270078
 30
0.0
 41
1.0
 10
42.10991000985597
 20
20.57127277157597
 30
0.0
 41
0.8908724391355177
 10
41.77562806372108
 20
20.58783746561306
 30
0.0
 41
1.0
  0
SPLINE
  5
51
330
1F
100
AcDbEntity
  8
Default
100
AcDbSpline
210
0.0
220
0.0
230
1.0
 70
     8
 71
     3
 72
    29
 73
    25
 74
     0
 42
0.0000000001
 43
0.0000000001
 40
-22.0
 40
-22.0
 40
-22.0
 40
-22.0
 40
-21.0
 40
-20.0
 40
-19.0
 40
-18.0
 40
-17.0
 40
-16.0
 40
-15.0
 40
-14.0
 40
-13.0
 40
-12.0
 40
-11.0
 40
-10.0
 40
-9.0
 40
-8.0
 40
-7.0
 40
-6.0
 40
-5.0
 40
-4.0
 40
-3.0
 40
-2.0
 40
-1.0
 40
0.0
 40
0.0
 40
0.0
 40
0.0
 10
58.24160747161566
 20
22.16293041204458
 30
0.0
 10
58.29454073113177
 20
22.16845893143245
 30
0.0
 10
58.40033007021219
 20
22.18026931657339
 30
0.0
 10
58.55864299439633
 20
22.20107373837436
 30
0.0
 10
58.71638421862227
 20
22.22587413367145
 30
0.0
 10
58.87335551663455
 20
22.25516505072293
 30
0.0
 10
59.02938943989533
 20
22.28910947367591
 30
0.0
 10
59.18421028682822
 20
22.32824107087227
 30
0.0
 10
59.33737257179143
 20
22.37347391423638
 30
0.0
 10
59.48830641794298
 20
22.42567726974856
 30
0.0
 10
59.63643914814789
 20
22.48543446277677
 30
0.0
 10
59.78052627219905
 20
22.55440646637663
 30
0.0
 10
59.91847097380636
 20
22.63533963214774
 30
0.0
 10
60.04702439889935
 20
22.72986390685865
 30
0.0
 10
60.16409434977125
 20
22.8409323958041
 30
0.0
 10
60.25330279425581
 20
22.96939729742349
 30
0.0
 10
60.33551021586095
 20
23.1225107247223
 30
0.0
 10
60.23942830735677
 20
23.27233379191122
 30
0.0
 10
60.08036718644687
 20
23.3151225839459
 30
0.0
 10
59.92804169949848
 20
23.35861502807873
 30
0.0
 10
59.76883434728702
 20
23.37878973421432
 30
0.0
 10
59.60929828343691
 20
23.38451064111056
 30
0.0
 10
59.44966759467314
 20
23.37747894671035
 30
0.0
 10
59.34354129853586
 20
23.36943671211928
 30
0.0
 10
59.29055622213254
 20
23.36437956055667
 30
0.0
  0
LINE
  5
52
330
1F
100
AcDbEntity
  8
Default
100
AcDbLine
 10
59.29055622213254
 20
23.36437956055667
 30
0.0
 11
40.17181314305166
 21
21.53959439460563
 31
0.0
  0
SPLINE
  5
53
330
1F
100
AcDbEntity
  8
Default
100
AcDbSpline
210
0.0
220
0.0
230
1.0
 70
     8
 71
     3
 72
    29
 73
    25
 74
     0
 42
0.0000000001
 43
0.0000000001
 40
0.0
 40
0.0
 40
0.0
 40
0.0
 40
1.0
 40
2.0
 40
3.0
 40
4.0
 40
5.0
 40
6.0
 40
7.0
 40
8.0
 40
9.0
 40
10.0
 40
11.0
 40
12.0
 40
13.0
 40
14.0
 40
15.0
 40
16.0
 40
17.0
 40
18.0
 40
19.0
 40
20.0
 40
21.0
 40
22.0
 40
22.0
 40
22.0
 40
22.0
 10
40.17181314305166
 20
21.53959439460563
 30
0.0
 10
40.12394430389028
 20
21.53463537956298
 30
0.0
 10
40.02820304265727
 20
21.52346749142637
 30
0.0
 10
39.88685446099181
 20
21.49334257881797
 30
0.0
 10
39.74770264231596
 20
21.45427569970137
 30
0.0
 10
39.61151941976218
 20
21.40648896168626
 30
0.0
 10
39.47816323588133
 20
21.34904167844295
 30
0.0
 10
39.35069008180017
 20
21.28706390113516
 30
0.0
 10
39.22012345197734
 20
21.20274458089941
 30
0.0
 10
39.23796025618896
 20
21.03882663646683
 30
0.0
 10
39.35642149659431
 20
20.94758593829479
 30
0.0
 10
39.46894658875506
 20
20.85907033626507
 30
0.0
 10
39.59549488818509
 20
20.78791296526168
 30
0.0
 10
39.72658797535234
 20
20.72745732861226
 30
0.0
 10
39.86210787209751
 20
20.67712946758348
 30
0.0
 10
40.00050993465876
 20
20.63569423172953
 30
0.0
 10
40.14095156789445
 20
20.60179762486513
 30
0.0
 10
40.28281848489243
 20
20.57458140322966
 30
0.0
 10
40.42572597692703
 20
20.55349137080956
 30
0.0
 10
40.56934916109788
 20
20.53803132478881
 30
0.0
 10
40.71347041183232
 20
20.52838512154538
 30
0.0
 10
40.85777201212847
 20
20.52220787279807
 30
0.0
 10
41.00219752967863
 20
20.5202487785497
 30
0.0
 10
41.09848742892048
 20
20.5233452842692
 30
0.0
 10
41.14643785312859
 20
20.52777372982858
 30
0.0
  0
LINE
  5
54
330
1F
100
AcDbEntity
  8
Default
100
AcDbLine
 10
41.14643785312859
 20
20.52777372982858
 30
0.0
 11
58.24191190786089
 21
22.15974132793669
 31
0.0
  0
SPLINE
  5
55
330
1F
100
AcDbEntity
  8
Default
100
AcDbSpline
210
0.0
220
0.0
230
1.0
 70
    12
 71
     2
 72
     6
 73
     3
 74
     0
 42
0.0000000001
 43
0.0000000001
 40
0.0
 40
0.0
 40
0.0
 40
0.000583833213262
 40
0.000583833213262
 40
0.000583833213262
 10
12.98434329759221
 20
12.93192045695206
 30
0.0
 41
1.0
 10
12.98408578282365
 20
12.93178297440723
 30
0.0
 41
0.99999999180116
 10
12.98382823285332
 20
12.9316455578182
 30
0.0
 41
1.0
  0
ARC
  5
56
330
1F
100
AcDbEntity
  8
Default
100
AcDbCircle
 10
48.76542995941845
 20
7.016128678712493
 30
0.0
 40
0.2187500000855426
100
AcDbArc
 50
94.54041246434014
 51
275.4965342202556
  0
LINE
  5
57
330
1F
100
AcDbEntity
  8
Default
100
AcDbLine
 10
48.74811322107067
 20
7.234192185770458
 30
0.0
 11
57.74919504333048
 21
8.100348274337568
 31
0.0
  0
POLYLINE
  5
58
330
1F
100
AcDbEntity
  8
Default
100
AcDb2dPolyline
 66
     1
 10
0.0
 20
0.0
 30
0.0
  0
VERTEX
  5
59
330
58
100
AcDbEntity
  8
Default
100
AcDbVertex
100
AcDb2dVertex
 10
57.74919504333048
 20
8.100348274337568
 30
0.0
  0
VERTEX
  5
5A
330
58
100
AcDbEntity
  8
Default
100
AcDbVertex
100
AcDb2dVertex
 10
57.84800181128704
 20
7.670335332112798
 30
0.0
  0
SEQEND
  5
5B
330
58
100
AcDbEntity
  8
Default
  0
LINE
  5
5C
330
1F
100
AcDbEntity
  8
Default
100
AcDbLine
 10
57.84800181128704
 20
7.670335332112798
 30
0.0
 11
48.78638304664241
 21
6.798384492399264
 31
0.0
  0
POLYLINE
  5
5D
330
1F
100
AcDbEntity
  8
Default
100
AcDb2dPolyline
 66
     1
 10
0.0
 20
0.0
 30
0.0
  0
VERTEX
  5
5E
330
5D
100
AcDbEntity
  8
Default
100
AcDbVertex
100
AcDb2dVertex
 10
39.09262768759334
 20
6.307477882198623
 30
0.0
  0
VERTEX
  5
5F
330
5D
100
AcDbEntity
  8
Default
100
AcDbVertex
100
AcDb2dVertex
 10
38.91680852625102
 20
5.851601929688191
 30
0.0
  0
SEQEND
  5
60
330
5D
100
AcDbEntity
  8
Default
  0
LINE
  5
61
330
1F
100
AcDbEntity
  8
Default
100
AcDbLine
 10
38.91680852625102
 20
5.851601929688191
 30
0.0
 11
48.35105263853362
 21
6.756809247130208
 31
0.0
  0
ARC
  5
62
330
1F
100
AcDbEntity
  8
Default
100
AcDbCircle
 10
48.33018428604719
 20
6.974310423884943
 30
0.0
 40
0.2185000000576483
100
AcDbArc
 50
275.4805206856856
 51
94.53280180255696
  0
LINE
  5
63
330
1F
100
AcDbEntity
  8
Default
100
AcDbLine
 10
48.31291627092557
 20
7.192127011129697
 30
0.0
 11
39.09262768759334
 21
6.307477882198623
 31
0.0
  0
SPLINE
  5
64
330
1F
100
AcDbEntity
  8
Default
100
AcDbSpline
210
0.0
220
0.0
230
1.0
 70
     8
 71
     3
 72
    37
 73
    33
 74
     0
 42
0.0000000001
 43
0.0000000001
 40
0.0
 40
0.0
 40
0.0
 40
0.0
 40
1.0
 40
2.0
 40
3.0
 40
4.0
 40
5.0
 40
6.0
 40
7.0
 40
8.0
 40
9.0
 40
10.0
 40
11.0
 40
12.0
 40
13.0
 40
14.0
 40
15.0
 40
16.0
 40
17.0
 40
18.0
 40
19.0
 40
20.0
 40
21.0
 40
22.0
 40
23.0
 40
24.0
 40
25.0
 40
26.0
 40
27.0
 40
28.0
 40
29.0
 40
30.0
 40
30.0
 40
30.0
 40
30.0
 10
0.0
 20
9.651450617348031
 30
0.0
 10
-0.3372191590890043
 20
9.651514205109496
 30
0.0
 10
-1.011655142159251
 20
9.66401832980801
 30
0.0
 10
-2.021941407616193
 20
9.719860036136756
 30
0.0
 10
-3.029497377932855
 20
9.812746927814453
 30
0.0
 10
-4.032954317894323
 20
9.942642844906842
 30
0.0
 10
-5.030930495179564
 20
10.10951483111732
 30
0.0
 10
-6.022024412923272
 20
10.3133238753444
 30
0.0
 10
-7.00481065418995
 20
10.55404031910253
 30
0.0
 10
-7.977846845466813
 20
10.83155249986591
 30
0.0
 10
-8.939818582119106
 20
11.14526470866051
 30
0.0
 10
-9.889166414965665
 20
11.49541927393489
 30
0.0
 10
-10.82519078760177
 20
11.87930036993833
 30
0.0
 10
-11.74452501458794
 20
12.303756420745
 30
0.0
 10
-12.65621536777787
 20
12.73484041431653
 30
0.0
 10
-13.52379898041598
 20
13.29082927603076
 30
0.0
 10
-13.84317012041136
 20
14.27615608680982
 30
0.0
 10
-14.00840411919328
 20
15.36996114857563
 30
0.0
 10
-13.07820958942767
 20
15.9853584705432
 30
0.0
 10
-12.12452595309427
 20
16.27036111045825
 30
0.0
 10
-11.11445817132087
 20
16.40472961520877
 30
0.0
 10
-10.10311241720635
 20
16.42390268844611
 30
0.0
 10
-9.092561669089857
 20
16.36451499821813
 30
0.0
 10
-8.084162343066579
 20
16.28500255835388
 30
0.0
 10
-7.075904354283339
 20
16.20171654093657
 30
0.0
 10
-6.066957926848592
 20
16.12739300522558
 30
0.0
 10
-5.05672441428141
 20
16.07291458933247
 30
0.0
 10
-4.045937245146801
 20
16.03073299633942
 30
0.0
 10
-3.034751049868222
 20
15.9992911820567
 30
0.0
 10
-2.023276606608535
 20
15.97928633898483
 30
0.0
 10
-1.011658337617448
 20
15.96939899019796
 30
0.0
 10
-0.3372185177184336
 20
15.96753265856083
 30
0.0
 10
0.0
 20
15.96734333007881
 30
0.0
  0
SPLINE
  5
65
330
1F
100
AcDbEntity
  8
Default
100
AcDbSpline
210
0.0
220
0.0
230
1.0
 70
     8
 71
     3
 72
    37
 73
    33
 74
     0
 42
0.0000000001
 43
0.0000000001
 40
-30.0
 40
-30.0
 40
-30.0
 40
-30.0
 40
-29.0
 40
-28.0
 40
-27.0
 40
-26.0
 40
-25.0
 40
-24.0
 40
-23.0
 40
-22.0
 40
-21.0
 40
-20.0
 40
-19.0
 40
-18.0
 40
-17.0
 40
-16.0
 40
-15.0
 40
-14.0
 40
-13.0
 40
-12.0
 40
-11.0
 40
-10.0
 40
-9.0
 40
-8.0
 40
-7.0
 40
-6.0
 40
-5.0
 40
-4.0
 40
-3.0
 40
-2.0
 40
-1.0
 40
0.0
 40
0.0
 40
0.0
 40
0.0
 10
0.0
 20
15.96734333007881
 30
0.0
 10
0.3372185177184336
 20
15.96753265856083
 30
0.0
 10
1.011658337617448
 20
15.96939899019796
 30
0.0
 10
2.023276606608535
 20
15.97928633898483
 30
0.0
 10
3.034751049868222
 20
15.9992911820567
 30
0.0
 10
4.045937245146801
 20
16.03073299633942
 30
0.0
 10
5.05672441428141
 20
16.07291458933247
 30
0.0
 10
6.066957926848592
 20
16.12739300522558
 30
0.0
 10
7.075904354283339
 20
16.20171654093657
 30
0.0
 10
8.084162343066579
 20
16.28500255835388
 30
0.0
 10
9.092561669089857
 20
16.36451499821813
 30
0.0
 10
10.10311241720635
 20
16.42390268844611
 30
0.0
 10
11.11445817132087
 20
16.40472961520877
 30
0.0
 10
12.12452595309427
 20
16.27036111045825
 30
0.0
 10
13.07820958942767
 20
15.9853584705432
 30
0.0
 10
14.00840411919328
 20
15.36996114857563
 30
0.0
 10
13.84317012041136
 20
14.27615608680982
 30
0.0
 10
13.52379898041598
 20
13.29082927603076
 30
0.0
 10
12.65621536777787
 20
12.73484041431653
 30
0.0
 10
11.74452501458794
 20
12.303756420745
 30
0.0
 10
10.82519078760177
 20
11.87930036993833
 30
0.0
 10
9.889166414965665
 20
11.49541927393489
 30
0.0
 10
8.939818582119106
 20
11.14526470866051
 30
0.0
 10
7.977846845466813
 20
10.83155249986591
 30
0.0
 10
7.00481065418995
 20
10.55404031910253
 30
0.0
 10
6.022024412923272
 20
10.3133238753444
 30
0.0
 10
5.030930495179564
 20
10.10951483111732
 30
0.0
 10
4.032954317894323
 20
9.942642844906842
 30
0.0
 10
3.029497377932855
 20
9.812746927814453
 30
0.0
 10
2.021941407616193
 20
9.719860036136756
 30
0.0
 10
1.011655142159251
 20
9.66401832980801
 30
0.0
 10
0.3372191590890043
 20
9.651514205109496
 30
0.0
 10
0.0
 20
9.651450617348031
 30
0.0
  0
SPLINE
  5
66
330
1F
100
AcDbEntity
  8
Default
100
AcDbSpline
210
0.0
220
0.0
230
1.0
 70
     8
 71
     3
 72
    17
 73
    13
 74
     0
 42
0.0000000001
 43
0.0000000001
 40
0.0
 40
0.0
 40
0.0
 40
0.0
 40
1.0
 40
2.0
 40
3.0
 40
4.0
 40
5.0
 40
6.0
 40
7.0
 40
8.0
 40
9.0
 40
10.0
 40
10.0
 40
10.0
 40
10.0
 10
-13.90003005053003
 20
14.95263969069279
 30
0.0
 10
-12.95938147419237
 20
14.95648469864898
 30
0.0
 10
-11.13832748127986
 20
14.50271379651848
 30
0.0
 10
-8.387969949482995
 20
13.96674981184515
 30
0.0
 10
-5.599228122511117
 20
13.65162963590771
 30
0.0
 10
-2.804344490559972
 20
13.4254177286727
 30
0.0
 10
0.0000001926269634
 20
13.36184477348764
 30
0.0
 10
2.80434372005214
 20
13.42541769798493
 30
0.0
 10
5.599228249413278
 20
13.65162962979309
 30
0.0
 10
8.387970196555042
 20
13.96674986539605
 30
0.0
 10
11.13832707364517
 20
14.50271369152951
 30
0.0
 10
12.95938133543298
 20
14.95648469300181
 30
0.0
 10
13.90003005053006
 20
14.95263969069262
 30
0.0
  0
SPLINE
  5
67
330
1F
100
AcDbEntity
  8
Default
100
AcDbSpline
210
0.0
220
0.0
230
1.0
 70
     8
 71
     3
 72
     8
 73
     4
 74
     0
 42
0.0000000001
 43
0.0000000001
 40
0.0
 40
0.0
 40
0.0
 40
0.0
 40
1.0
 40
1.0
 40
1.0
 40
1.0
 10
-1.618220791785841
 20
6.797158682138067
 30
0.0
 10
-1.793271698402858
 20
6.797327346902353
 30
0.0
 10
-2.098430260528196
 20
6.805674910956208
 30
0.0
 10
-2.272864174894636
 20
6.817806747933784
 30
0.0
  0
SPLINE
  5
68
330
1F
100
AcDbEntity
  8
Default
100
AcDbSpline
210
0.0
220
0.0
230
1.0
 70
    24
 71
     2
 72
     6
 73
     3
 74
     0
 42
0.0000000001
 43
0.0000000001
 40
-12.57567390628348
 40
-12.57567390628348
 40
-12.57567390628348
 40
0.0
 40
0.0
 40
0.0
 10
-2.272864174894636
 20
6.817806747933784
 30
0.0
 10
-8.545548412514421
 20
7.254070434723225
 30
0.0
 10
-14.81823265013421
 20
7.690334121512666
 30
0.0
  0
POLYLINE
  5
69
330
1F
100
AcDbEntity
  8
Default
100
AcDb2dPolyline
 66
     1
 10
0.0
 20
0.0
 30
0.0
  0
VERTEX
  5
6A
330
69
100
AcDbEntity
  8
Default
100
AcDbVertex
100
AcDb2dVertex
 10
-14.81823265013421
 20
7.690334121512666
 30
0.0
  0
VERTEX
  5
6B
330
69
100
AcDbEntity
  8
Default
100
AcDbVertex
100
AcDb2dVertex
 10
-14.75860905730816
 20
8.124744169165183
 30
0.0
  0
SEQEND
  5
6C
330
69
100
AcDbEntity
  8
Default
  0
SPLINE
  5
6D
330
1F
100
AcDbEntity
  8
Default
100
AcDbSpline
210
0.0
220
0.0
230
1.0
 70
    24
 71
     2
 72
     6
 73
     3
 74
     0
 42
0.0000000001
 43
0.0000000001
 40
-12.54754523317538
 40
-12.54754523317538
 40
-12.54754523317538
 40
0.0
 40
0.0
 40
0.0
 10
-14.75860905730816
 20
8.124744169165183
 30
0.0
 10
-8.49995526336442
 20
7.689456296373947
 30
0.0
 10
-2.241301469420677
 20
7.254168423582712
 30
0.0
  0
SPLINE
  5
6E
330
1F
100
AcDbEntity
  8
Default
100
AcDbSpline
210
0.0
220
0.0
230
1.0
 70
     8
 71
     3
 72
     8
 73
     4
 74
     0
 42
0.0000000001
 43
0.0000000001
 40
-1.0
 40
-1.0
 40
-1.0
 40
-1.0
 40
0.0
 40
0.0
 40
0.0
 40
0.0
 10
-2.241301469420677
 20
7.254168423582712
 30
0.0
 10
-2.075269519378123
 20
7.242620941212088
 30
0.0
 10
-1.784802515568635
 20
7.234826552216385
 30
0.0
 10
-1.618215256020061
 20
7.234658680070596
 30
0.0
  0
SPLINE
  5
6F
330
1F
100
AcDbEntity
  8
Default
100
AcDbSpline
210
0.0
220
0.0
230
1.0
 70
    24
 71
     2
 72
     6
 73
     3
 74
     0
 42
0.0000000001
 43
0.0000000001
 40
0.0
 40
0.0
 40
0.0
 40
3.236430526357292
 40
3.236430526357292
 40
3.236430526357292
 10
-1.618215256020061
 20
7.234658680070596
 30
0.0
 10
0.0000451336800218
 20
7.234734785691446
 30
0.0
 10
1.618305523380105
 20
7.234810891312296
 30
0.0
  0
SPLINE
  5
70
330
1F
100
AcDbEntity
  8
Default
100
AcDbSpline
210
0.0
220
0.0
230
1.0
 70
     8
 71
     3
 72
     8
 73
     4
 74
     0
 42
0.0000000001
 43
0.0000000001
 40
0.0
 40
0.0
 40
0.0
 40
0.0
 40
1.0
 40
1.0
 40
1.0
 40
1.0
 10
1.618305523380105
 20
7.234810891312296
 30
0.0
 10
1.784802515568635
 20
7.234826552216385
 30
0.0
 10
2.075269519378123
 20
7.242620941212088
 30
0.0
 10
2.241301469420677
 20
7.254168423582712
 30
0.0
  0
SPLINE
  5
71
330
1F
100
AcDbEntity
  8
Default
100
AcDbSpline
210
0.0
220
0.0
230
1.0
 70
    24
 71
     2
 72
     6
 73
     3
 74
     0
 42
0.0000000001
 43
0.0000000001
 40
0.0
 40
0.0
 40
0.0
 40
12.54754523317538
 40
12.54754523317538
 40
12.54754523317538
 10
2.241301469420677
 20
7.254168423582712
 30
0.0
 10
8.49995526336442
 20
7.689456296373947
 30
0.0
 10
14.75860905730816
 20
8.124744169165183
 30
0.0
  0
POLYLINE
  5
72
330
1F
100
AcDbEntity
  8
Default
100
AcDb2dPolyline
 66
     1
 10
0.0
 20
0.0
 30
0.0
  0
VERTEX
  5
73
330
72
100
AcDbEntity
  8
Default
100
AcDbVertex
100
AcDb2dVertex
 10
14.75860905730816
 20
8.124744169165183
 30
0.0
  0
VERTEX
  5
74
330
72
100
AcDbEntity
  8
Default
100
AcDbVertex
100
AcDb2dVertex
 10
14.81823265013421
 20
7.690334121512666
 30
0.0
  0
SEQEND
  5
75
330
72
100
AcDbEntity
  8
Default
  0
SPLINE
  5
76
330
1F
100
AcDbEntity
  8
Default
100
AcDbSpline
210
0.0
220
0.0
230
1.0
 70
    24
 71
     2
 72
     6
 73
     3
 74
     0
 42
0.0000000001
 43
0.0000000001
 40
0.0
 40
0.0
 40
0.0
 40
12.57567390628348
 40
12.57567390628348
 40
12.57567390628348
 10
14.81823265013421
 20
7.690334121512666
 30
0.0
 10
8.545548412514421
 20
7.254070434723225
 30
0.0
 10
2.272864174894636
 20
6.817806747933784
 30
0.0
  0
SPLINE
  5
77
330
1F
100
AcDbEntity
  8
Default
100
AcDbSpline
210
0.0
220
0.0
230
1.0
 70
     8
 71
     3
 72
     8
 73
     4
 74
     0
 42
0.0000000001
 43
0.0000000001
 40
-1.0
 40
-1.0
 40
-1.0
 40
-1.0
 40
0.0
 40
0.0
 40
0.0
 40
0.0
 10
2.272864174894636
 20
6.817806747933784
 30
0.0
 10
2.098430260528196
 20
6.805674910956208
 30
0.0
 10
1.793271698402858
 20
6.797327346902353
 30
0.0
 10
1.618353615078057
 20
6.797310893900468
 30
0.0
  0
SPLINE
  5
78
330
1F
100
AcDbEntity
  8
Default
100
AcDbSpline
210
0.0
220
0.0
230
1.0
 70
    24
 71
     2
 72
     6
 73
     3
 74
     0
 42
0.0000000001
 43
0.0000000001
 40
0.0
 40
0.0
 40
0.0
 40
3.236441597888901
 40
3.236441597888901
 40
3.236441597888901
 10
1.618353615078057
 20
6.797310893900468
 30
0.0
 10
0.0000664116461078
 20
6.797234788019267
 30
0.0
 10
-1.618220791785841
 20
6.797158682138067
 30
0.0
  0
LINE
  5
79
330
1F
100
AcDbEntity
  8
Default
100
AcDbLine
 10
13.02613882277108
 20
21.34551498324424
 30
0.0
 11
14.30629500056344
 21
11.51266445860926
 31
0.0
  0
SPLINE
  5
7A
330
1F
100
AcDbEntity
  8
Default
100
AcDbSpline
210
0.0
220
0.0
230
1.0
 70
    12
 71
     2
 72
     6
 73
     3
 74
     0
 42
0.0000000001
 43
0.0000000001
 40
-11.52371543283091
 40
-11.52371543283091
 40
-11.52371543283091
 40
0.0
 40
0.0
 40
0.0
 10
14.30629500056344
 20
11.51266445860926
 30
0.0
 41
1.0
 10
15.05019891600419
 20
5.79879687336867
 30
0.0
 41
0.9999396533872842
 10
15.91968906914032
 20
0.1013420863857031
 30
0.0
 41
1.0
  0
SPLINE
  5
7B
330
1F
100
AcDbEntity
  8
Default
100
AcDbSpline
210
0.0
220
0.0
230
1.0
 70
    12
 71
     2
 72
     6
 73
     3
 74
     0
 42
0.0000000001
 43
0.0000000001
 40
-0.1697595380277757
 40
-0.1697595380277757
 40
-0.1697595380277757
 40
0.0
 40
0.0
 40
0.0
 10
15.91968906914032
 20
0.1013420863857031
 30
0.0
 41
1.0
 10
15.93829731244829
 20
-0.0005890980737019
 30
0.0
 41
0.7632463840146333
 10
16.04057164847367
 20
0.0009258164485084
 30
0.0
 41
1.0
  0
POLYLINE
  5
7C
330
1F
100
AcDbEntity
  8
Default
100
AcDb2dPolyline
 66
     1
 10
0.0
 20
0.0
 30
0.0
  0
VERTEX
  5
7D
330
7C
100
AcDbEntity
  8
Default
100
AcDbVertex
100
AcDb2dVertex
 10
16.04057164847367
 20
0.0009258164485084
 30
0.0
  0
VERTEX
  5
7E
330
7C
100
AcDbEntity
  8
Default
100
AcDbVertex
100
AcDb2dVertex
 10
17.21386955171752
 20
0.0009300606352911
 30
0.0
  0
SEQEND
  5
7F
330
7C
100
AcDbEntity
  8
Default
  0
SPLINE
  5
80
330
1F
100
AcDbEntity
  8
Default
100
AcDbSpline
210
0.0
220
0.0
230
1.0
 70
     8
 71
     3
 72
    11
 73
     7
 74
     0
 42
0.0000000001
 43
0.0000000001
 40
-0.2041453175102159
 40
-0.2041453175102159
 40
-0.2041453175102159
 40
-0.2041453175102159
 40
-0.1536925962836674
 40
-0.1026664798601434
 40
-0.0508165748803152
 40
0.0
 40
0.0
 40
0.0
 40
0.0
 10
17.21386955171752
 20
0.0009300606352911
 30
0.0
 10
17.23045555410494
 20
0.0006540752102316
 30
0.0
 10
17.26466343530523
 20
0.0070548595646342
 30
0.0
 10
17.30734278894488
 20
0.0370887561286722
 30
0.0
 10
17.33396178891652
 20
0.0823093207982481
 30
0.0
 10
17.33751582353027
 20
0.11712567337436
 30
0.0
 10
17.33554868147688
 20
0.1352851000833913
 30
0.0
  0
SPLINE
  5
81
330
1F
100
AcDbEntity
  8
Default
100
AcDbSpline
210
0.0
220
0.0
230
1.0
 70
    12
 71
     2
 72
     6
 73
     3
 74
     0
 42
0.0000000001
 43
0.0000000001
 40
-11.6732900668437
 40
-11.6732900668437
 40
-11.6732900668437
 40
0.0
 40
0.0
 40
0.0
 10
17.33554868147688
 20
0.1352851000833913
 30
0.0
 41
1.0
 10
16.71086275408607
 20
5.939983458495186
 30
0.0
 41
0.9999380766542607
 10
15.95730866987717
 20
11.72802236565682
 30
0.0
 41
1.0
  0
LINE
  5
82
330
1F
100
AcDbEntity
  8
Default
100
AcDbLine
 10
15.95730866987717
 20
11.72802236565682
 30
0.0
 11
14.72740493823006
 21
21.17486848076439
 31
0.0
  0
SPLINE
  5
83
330
1F
100
AcDbEntity
  8
Default
100
AcDbSpline
210
0.0
220
0.0
230
1.0
 70
    12
 71
     2
 72
     7
 73
     4
 74
     0
 42
0.0000000001
 43
0.0000000001
 40
-0.838643514602455
 40
-0.838643514602455
 40
-0.838643514602455
 40
0.0
 40
0.282367887154475
 40
0.282367887154475
 40
0.282367887154475
 10
14.72740493823006
 20
21.17486848076439
 30
0.0
 41
1.0
 10
14.66307007592742
 20
21.66902223310382
 30
0.0
 41
0.779576936524992
 10
15.23550009372949
 20
21.88682098521162
 30
0.0
 41
1.074215555989912
 10
15.37047864477034
 20
21.89796317389526
 30
0.0
 41
1.0
  0
SPLINE
  5
84
330
1F
100
AcDbEntity
  8
Default
100
AcDbSpline
210
0.0
220
0.0
230
1.0
 70
    12
 71
     2
 72
     8
 73
     5
 74
     0
 42
0.0000000001
 43
0.0000000001
 40
0.0
 40
0.0
 40
0.0
 40
1.570796326794897
 40
1.570796326794897
 40
3.141592653589793
 40
3.141592653589793
 40
3.141592653589793
 10
15.37047864477034
 20
21.89796317389526
 30
0.0
 41
1.0
 10
15.37047063035417
 20
22.05425646876459
 30
0.0
 41
0.7071067811865475
 10
13.89515187399156
 20
22.05418081728824
 30
0.0
 41
1.0
 10
12.41983311762896
 20
22.05410516581189
 30
0.0
 41
0.7071067811865475
 10
12.41984113204513
 20
21.89781187094255
 30
0.0
 41
1.0
  0
SPLINE
  5
85
330
1F
100
AcDbEntity
  8
Default
100
AcDbSpline
210
0.0
220
0.0
230
1.0
 70
    12
 71
     2
 72
     7
 73
     4
 74
     0
 42
0.0000000001
 43
0.0000000001
 40
-45.86358442543156
 40
-45.86358442543156
 40
-45.86358442543156
 40
-45.62454472796695
 40
-44.95833119244521
 40
-44.95833119244521
 40
-44.95833119244521
 10
12.41984113204513
 20
21.89781187094255
 30
0.0
 41
1.0
 10
12.53516737320899
 20
21.87942272555358
 30
0.0
 41
1.054807484948398
 10
12.98711261720655
 20
21.71650910983143
 30
0.0
 41
0.8472492698584843
 10
13.02613882277108
 20
21.34551498324424
 30
0.0
 41
1.0
  0
SPLINE
  5
86
330
1F
100
AcDbEntity
  8
Default
100
AcDbSpline
210
0.0
220
0.0
230
1.0
 70
     8
 71
     3
 72
    10
 73
     6
 74
     0
 42
0.0000000001
 43
0.0000000001
 40
0.0
 40
0.0
 40
0.0
 40
0.0
 40
1.0
 40
2.0
 40
3.0
 40
3.0
 40
3.0
 40
3.0
 10
-10.96613190201805
 20
65.81273518153809
 30
0.0
 10
-9.73927396406552
 20
65.80617240928613
 30
0.0
 10
-7.338511545139472
 20
66.35489981824247
 30
0.0
 10
-3.663812025994284
 20
66.43405975995634
 30
0.0
 10
-1.221837741344731
 20
66.50420582718851
 30
0.0
 10
0.0012214685491969
 20
66.50561592724692
 30
0.0
  0
SPLINE
  5
87
330
1F
100
AcDbEntity
  8
Default
100
AcDbSpline
210
0.0
220
0.0
230
1.0
 70
     8
 71
     3
 72
    10
 73
     6
 74
     0
 42
0.0000000001
 43
0.0000000001
 40
-3.0
 40
-3.0
 40
-3.0
 40
-3.0
 40
-2.0
 40
-1.0
 40
0.0
 40
0.0
 40
0.0
 40
0.0
 10
0.0012214685491969
 20
66.50561592724692
 30
0.0
 10
1.224280678443125
 20
66.50420582718851
 30
0.0
 10
3.666254963092678
 20
66.43405975995634
 30
0.0
 10
7.340954482237866
 20
66.35489981824247
 30
0.0
 10
9.741716901163914
 20
65.80617240928613
 30
0.0
 10
10.96857483911644
 20
65.81273518153809
 30
0.0
  0
SPLINE
  5
88
330
1F
100
AcDbEntity
  8
Default
100
AcDbSpline
210
0.0
220
0.0
230
1.0
 70
     8
 71
     3
 72
    77
 73
    73
 74
     0
 42
0.0000000001
 43
0.0000000001
 40
-3.0
 40
-2.0
 40
-1.0
 40
0.0
 40
1.0
 40
2.0
 40
3.0
 40
4.0
 40
5.0
 40
6.0
 40
7.0
 40
8.0
 40
9.0
 40
10.0
 40
11.0
 40
12.0
 40
13.0
 40
14.0
 40
15.0
 40
16.0
 40
17.0
 40
18.0
 40
19.0
 40
20.0
 40
21.0
 40
22.0
 40
23.0
 40
24.0
 40
25.0
 40
26.0
 40
27.0
 40
28.0
 40
29.0
 40
30.0
 40
31.0
 40
32.0
 40
33.0
 40
34.0
 40
35.0
 40
36.0
 40
37.0
 40
38.0
 40
39.0
 40
40.0
 40
41.0
 40
42.0
 40
43.0
 40
44.0
 40
45.0
 40
46.0
 40
47.0
 40
48.0
 40
49.0
 40
50.0
 40
51.0
 40
52.0
 40
53.0
 40
54.0
 40
55.0
 40
56.0
 40
57.0
 40
58.0
 40
59.0
 40
60.0
 40
61.0
 40
62.0
 40
63.0
 40
64.0
 40
65.0
 40
66.0
 40
67.0
 40
68.0
 40
69.0
 40
70.0
 40
71.0
 40
72.0
 40
73.0
 10
-15.37263475607307
 20
68.32570260488242
 30
0.0
 10
-15.59021036160196
 20
67.62082464620697
 30
0.0
 10
-15.81327885525182
 20
66.94236347115294
 30
0.0
 10
-16.01474545437055
 20
66.25055694388391
 30
0.0
 10
-16.20901261580732
 20
65.55854841980862
 30
0.0
 10
-16.39184541848236
 20
64.86292158112676
 30
0.0
 10
-16.56432413634289
 20
64.16479675122595
 30
0.0
 10
-16.72610853273527
 20
63.46407717425502
 30
0.0
 10
-16.87724178049142
 20
62.76099428840595
 30
0.0
 10
-17.01766767482947
 20
62.05569118777245
 30
0.0
 10
-17.1473594851449
 20
61.34833666219052
 30
0.0
 10
-17.26628577835595
 20
60.63909325033951
 30
0.0
 10
-17.37441991425536
 20
59.92812329744098
 30
0.0
 10
-17.47173661898298
 20
59.21559283519144
 30
0.0
 10
-17.55821363764774
 20
58.50166635055147
 30
0.0
 10
-17.6338313790875
 20
57.78650622172473
 30
0.0
 10
-17.69857206356716
 20
57.07028129925673
 30
0.0
 10
-17.75242127687336
 20
56.35315494636868
 30
0.0
 10
-17.79536601465223
 20
55.63529273796699
 30
0.0
 10
-17.82739894997941
 20
54.91686053489796
 30
0.0
 10
-17.84850340420316
 20
54.19802741134159
 30
0.0
 10
-17.85870988818044
 20
53.47894391840713
 30
0.0
 10
-17.85788446689074
 20
52.75983212707598
 30
0.0
 10
-17.84651889199507
 20
52.04066066474441
 30
0.0
 10
-17.82278188491507
 20
51.3223176431884
 30
0.0
 10
-17.79352381277744
 20
50.60228667450146
 30
0.0
 10
-17.73087808571595
 20
49.89085651448866
 30
0.0
 10
-17.70466435161463
 20
49.15288610755811
 30
0.0
 10
-17.24186064661427
 20
48.56092169464911
 30
0.0
 10
-16.58349258917277
 20
48.24857993474906
 30
0.0
 10
-15.88534387191173
 20
48.07515828894326
 30
0.0
 10
-15.17827820106487
 20
47.94169326374684
 30
0.0
 10
-14.46465019519994
 20
47.85308732494218
 30
0.0
 10
-13.74587572608102
 20
47.8024736773719
 30
0.0
 10
-13.02954851266477
 20
47.81438573417119
 30
0.0
 10
-12.30016634873624
 20
47.8293695237472
 30
0.0
 10
-11.65817747111138
 20
48.25521232610762
 30
0.0
 10
-11.49131042994469
 20
48.98005112015738
 30
0.0
 10
-11.42384241292623
 20
49.6907140610988
 30
0.0
 10
-11.34016935605981
 20
50.40642475629264
 30
0.0
 10
-11.27880787407909
 20
51.12260960193176
 30
0.0
 10
-11.21711468305001
 20
51.83916972802465
 30
0.0
 10
-11.16139759335582
 20
52.55611573029789
 30
0.0
 10
-11.10996937317904
 20
53.27340863049123
 30
0.0
 10
-11.06328511225429
 20
53.99101854799339
 30
0.0
 10
-11.02122538578222
 20
54.70891640277808
 30
0.0
 10
-10.98382455405343
 20
55.4270715832541
 30
0.0
 10
-10.95107549945108
 20
56.14545428001328
 30
0.0
 10
-10.9229819780789
 20
56.86403452922161
 30
0.0
 10
-10.89954464139122
 20
57.5827805344717
 30
0.0
 10
-10.88076462113712
 20
58.30166378946608
 30
0.0
 10
-10.86664270551992
 20
59.02065460028918
 30
0.0
 10
-10.85717961744006
 20
59.73972037378545
 30
0.0
 10
-10.85237563045473
 20
60.45883236569067
 30
0.0
 10
-10.8522314678821
 20
61.17796077898328
 30
0.0
 10
-10.85674542732138
 20
61.8970762922448
 30
0.0
 10
-10.86592395487363
 20
62.61614542656426
 30
0.0
 10
-10.87974201171339
 20
63.33514099099115
 30
0.0
 10
-10.89829133639721
 20
64.05403263460074
 30
0.0
 10
-10.92122674376949
 20
64.77278440241719
 30
0.0
 10
-10.94983296380987
 20
65.49139328277006
 30
0.0
 10
-10.97931041329158
 20
66.20971809961064
 30
0.0
 10
-11.02756634159892
 20
66.92815557632728
 30
0.0
 10
-11.05012716403052
 20
67.64379107598776
 30
0.0
 10
-11.23364053322343
 20
68.36541871260877
 30
0.0
 10
-11.87746799037457
 20
68.77376907223146
 30
0.0
 10
-12.59829156125199
 20
68.84516974312493
 30
0.0
 10
-13.31574017942578
 20
68.89996996010854
 30
0.0
 10
-14.03153758389086
 20
68.84356590280805
 30
0.0
 10
-14.75618277357298
 20
68.76718679517423
 30
0.0
 10
-15.37263475607307
 20
68.32570260488242
 30
0.0
 10
-15.59021036160196
 20
67.62082464620697
 30
0.0
 10
-15.81327885525182
 20
66.94236347115294
 30
0.0
  0
SPLINE
  5
89
330
1F
100
AcDbEntity
  8
Default
100
AcDbSpline
210
0.0
220
0.0
230
1.0
 70
     8
 71
     3
 72
    77
 73
    73
 74
     0
 42
0.0000000001
 43
0.0000000001
 40
-3.0
 40
-2.0
 40
-1.0
 40
0.0
 40
1.0
 40
2.0
 40
3.0
 40
4.0
 40
5.0
 40
6.0
 40
7.0
 40
8.0
 40
9.0
 40
10.0
 40
11.0
 40
12.0
 40
13.0
 40
14.0
 40
15.0
 40
16.0
 40
17.0
 40
18.0
 40
19.0
 40
20.0
 40
21.0
 40
22.0
 40
23.0
 40
24.0
 40
25.0
 40
26.0
 40
27.0
 40
28.0
 40
29.0
 40
30.0
 40
31.0
 40
32.0
 40
33.0
 40
34.0
 40
35.0
 40
36.0
 40
37.0
 40
38.0
 40
39.0
 40
40.0
 40
41.0
 40
42.0
 40
43.0
 40
44.0
 40
45.0
 40
46.0
 40
47.0
 40
48.0
 40
49.0
 40
50.0
 40
51.0
 40
52.0
 40
53.0
 40
54.0
 40
55.0
 40
56.0
 40
57.0
 40
58.0
 40
59.0
 40
60.0
 40
61.0
 40
62.0
 40
63.0
 40
64.0
 40
65.0
 40
66.0
 40
67.0
 40
68.0
 40
69.0
 40
70.0
 40
71.0
 40
72.0
 40
73.0
 10
15.37263475607307
 20
68.32570260488242
 30
0.0
 10
15.59021036160196
 20
67.62082464620697
 30
0.0
 10
15.81327885525182
 20
66.94236347115294
 30
0.0
 10
16.01474545437055
 20
66.25055694388391
 30
0.0
 10
16.20901261580732
 20
65.55854841980862
 30
0.0
 10
16.39184541848236
 20
64.86292158112676
 30
0.0
 10
16.56432413634289
 20
64.16479675122595
 30
0.0
 10
16.72610853273527
 20
63.46407717425502
 30
0.0
 10
16.87724178049142
 20
62.76099428840595
 30
0.0
 10
17.01766767482947
 20
62.05569118777245
 30
0.0
 10
17.1473594851449
 20
61.34833666219052
 30
0.0
 10
17.26628577835595
 20
60.63909325033951
 30
0.0
 10
17.37441991425536
 20
59.92812329744098
 30
0.0
 10
17.47173661898298
 20
59.21559283519144
 30
0.0
 10
17.55821363764774
 20
58.50166635055147
 30
0.0
 10
17.6338313790875
 20
57.78650622172473
 30
0.0
 10
17.69857206356716
 20
57.07028129925673
 30
0.0
 10
17.75242127687336
 20
56.35315494636868
 30
0.0
 10
17.79536601465223
 20
55.63529273796699
 30
0.0
 10
17.82739894997941
 20
54.91686053489796
 30
0.0
 10
17.84850340420316
 20
54.19802741134159
 30
0.0
 10
17.85870988818044
 20
53.47894391840713
 30
0.0
 10
17.85788446689074
 20
52.75983212707598
 30
0.0
 10
17.84651889199507
 20
52.04066066474441
 30
0.0
 10
17.82278188491507
 20
51.3223176431884
 30
0.0
 10
17.79352381277744
 20
50.60228667450146
 30
0.0
 10
17.73087808571595
 20
49.89085651448866
 30
0.0
 10
17.70466435161463
 20
49.15288610755811
 30
0.0
 10
17.24186064661427
 20
48.56092169464911
 30
0.0
 10
16.58349258917277
 20
48.24857993474906
 30
0.0
 10
15.88534387191173
 20
48.07515828894326
 30
0.0
 10
15.17827820106487
 20
47.94169326374684
 30
0.0
 10
14.46465019519994
 20
47.85308732494218
 30
0.0
 10
13.74587572608102
 20
47.8024736773719
 30
0.0
 10
13.02954851266477
 20
47.81438573417119
 30
0.0
 10
12.30016634873624
 20
47.8293695237472
 30
0.0
 10
11.65817747111138
 20
48.25521232610762
 30
0.0
 10
11.49131042994469
 20
48.98005112015738
 30
0.0
 10
11.42384241292623
 20
49.6907140610988
 30
0.0
 10
11.34016935605981
 20
50.40642475629264
 30
0.0
 10
11.27880787407909
 20
51.12260960193176
 30
0.0
 10
11.21711468305001
 20
51.83916972802465
 30
0.0
 10
11.16139759335582
 20
52.55611573029789
 30
0.0
 10
11.10996937317904
 20
53.27340863049123
 30
0.0
 10
11.06328511225429
 20
53.99101854799339
 30
0.0
 10
11.02122538578222
 20
54.70891640277808
 30
0.0
 10
10.98382455405343
 20
55.4270715832541
 30
0.0
 10
10.95107549945108
 20
56.14545428001328
 30
0.0
 10
10.9229819780789
 20
56.86403452922161
 30
0.0
 10
10.89954464139122
 20
57.5827805344717
 30
0.0
 10
10.88076462113712
 20
58.30166378946608
 30
0.0
 10
10.86664270551992
 20
59.02065460028918
 30
0.0
 10
10.85717961744006
 20
59.73972037378545
 30
0.0
 10
10.85237563045473
 20
60.45883236569067
 30
0.0
 10
10.8522314678821
 20
61.17796077898328
 30
0.0
 10
10.85674542732138
 20
61.8970762922448
 30
0.0
 10
10.86592395487363
 20
62.61614542656426
 30
0.0
 10
10.87974201171339
 20
63.33514099099115
 30
0.0
 10
10.89829133639721
 20
64.05403263460074
 30
0.0
 10
10.92122674376949
 20
64.77278440241719
 30
0.0
 10
10.94983296380987
 20
65.49139328277006
 30
0.0
 10
10.97931041329158
 20
66.20971809961064
 30
0.0
 10
11.02756634159892
 20
66.92815557632728
 30
0.0
 10
11.05012716403052
 20
67.64379107598776
 30
0.0
 10
11.23364053322343
 20
68.36541871260877
 30
0.0
 10
11.87746799037457
 20
68.77376907223146
 30
0.0
 10
12.59829156125199
 20
68.84516974312493
 30
0.0
 10
13.31574017942578
 20
68.89996996010854
 30
0.0
 10
14.03153758389086
 20
68.84356590280805
 30
0.0
 10
14.75618277357298
 20
68.76718679517423
 30
0.0
 10
15.37263475607307
 20
68.32570260488242
 30
0.0
 10
15.59021036160196
 20
67.62082464620697
 30
0.0
 10
15.81327885525182
 20
66.94236347115294
 30
0.0
  0
SPLINE
  5
8A
330
1F
100
AcDbEntity
  8
Default
100
AcDbSpline
210
0.0
220
0.0
230
1.0
 70
     8
 71
     3
 72
    43
 73
    39
 74
     0
 42
0.0000000001
 43
0.0000000001
 40
-0.3583215976491595
 40
-0.3583215976491595
 40
-0.3583215976491595
 40
-0.3583215976491595
 40
1.0
 40
2.0
 40
3.0
 40
4.0
 40
5.0
 40
6.0
 40
7.0
 40
8.0
 40
9.0
 40
10.0
 40
11.0
 40
12.0
 40
13.0
 40
14.0
 40
15.0
 40
16.0
 40
17.0
 40
18.0
 40
19.0
 40
20.0
 40
21.0
 40
22.0
 40
23.0
 40
24.0
 40
25.0
 40
26.0
 40
27.0
 40
28.0
 40
29.0
 40
30.0
 40
31.0
 40
32.0
 40
33.0
 40
34.0
 40
35.0
 40
35.00338672240781
 40
35.00338672240781
 40
35.00338672240781
 40
35.00338672240781
 10
31.28437485279696
 20
30.70909981898395
 30
0.0
 10
31.52214549716887
 20
30.66604675370631
 30
0.0
 10
31.94764568655014
 20
30.61317558082566
 30
0.0
 10
32.5315225482587
 20
30.49811549437258
 30
0.0
 10
33.10262184089004
 20
30.4670081462373
 30
0.0
 10
33.43974567270326
 20
30.00050106314825
 30
0.0
 10
33.6872040470893
 20
29.53093255492351
 30
0.0
 10
33.88709745230538
 20
29.02662908697635
 30
0.0
 10
34.08788604904332
 20
28.52675554275354
 30
0.0
 10
34.29000680920681
 20
28.02632541522199
 30
0.0
 10
34.49389964965285
 20
27.52690784347976
 30
0.0
 10
34.69950358441192
 20
27.02811291668959
 30
0.0
 10
34.90682453282661
 20
26.53005136444737
 30
0.0
 10
35.11585689201868
 20
26.03269866442044
 30
0.0
 10
35.3266034870042
 20
25.53607252976527
 30
0.0
 10
35.53953974544537
 20
25.04038106843182
 30
0.0
 10
35.75300928056399
 20
24.54491946173488
 30
0.0
 10
35.96755971421743
 20
24.04992433785117
 30
0.0
 10
36.18302536556933
 20
23.55532806817187
 30
0.0
 10
36.39940139493336
 20
23.06112865264854
 30
0.0
 10
36.616607031854
 20
22.56729308992183
 30
0.0
 10
36.8345660424039
 20
22.07379027830455
 30
0.0
 10
37.05318892077601
 20
21.58058097901483
 30
0.0
 10
37.27238215361422
 20
21.08762441437821
 30
0.0
 10
37.49204903258417
 20
20.59487921648119
 30
0.0
 10
37.71210064639343
 20
20.10230580510929
 30
0.0
 10
37.93243650864208
 20
19.60985928121251
 30
0.0
 10
38.15302923426754
 20
19.11752811970237
 30
0.0
 10
38.37363285961247
 20
18.62520172450293
 30
0.0
 10
38.59489316740345
 20
18.13316778839684
 30
0.0
 10
38.81351284263407
 20
17.63996117383806
 30
0.0
 10
39.03834668424293
 20
17.14949766094689
 30
0.0
 10
39.28342431864883
 20
16.66869636053071
 30
0.0
 10
39.55497865368825
 20
16.20223919711246
 30
0.0
 10
39.85954713773855
 20
15.75633419191155
 30
0.0
 10
40.20232689397859
 20
15.33923030280225
 30
0.0
 10
40.45449321028352
 20
15.08104898935846
 30
0.0
 10
40.5882757484652
 20
14.96007008461446
 30
0.0
 10
40.5887273886348
 20
14.9596618403556
 30
0.0
  0
SPLINE
  5
8B
330
1F
100
AcDbEntity
  8
Default
100
AcDbSpline
210
0.0
220
0.0
230
1.0
 70
     8
 71
     3
 72
    35
 73
    31
 74
     0
 42
0.0000000001
 43
0.0000000001
 40
38.17764054824146
 40
38.17764054824146
 40
38.17764054824146
 40
38.17764054824146
 40
39.0
 40
40.0
 40
41.0
 40
42.0
 40
43.0
 40
44.0
 40
45.0
 40
46.0
 40
47.0
 40
48.0
 40
49.0
 40
50.0
 40
51.0
 40
52.0
 40
53.0
 40
54.0
 40
55.0
 40
56.0
 40
57.0
 40
58.0
 40
59.0
 40
60.0
 40
61.0
 40
62.0
 40
63.0
 40
64.0
 40
65.0
 40
65.02744480573367
 40
65.02744480573367
 40
65.02744480573367
 40
65.02744480573367
 10
41.99812659750209
 20
13.99435476183058
 30
0.0
 10
42.13026448457123
 20
13.9280447685148
 30
0.0
 10
42.43010985696788
 20
13.79479026131811
 30
0.0
 10
42.90811532425232
 20
13.62314461845216
 30
0.0
 10
43.43063764688711
 20
13.48671961701169
 30
0.0
 10
43.96210784598352
 20
13.3920087253106
 30
0.0
 10
44.49883273005998
 20
13.33467290549741
 30
0.0
 10
45.03788159292775
 20
13.30873481645877
 30
0.0
 10
45.57748652164302
 20
13.30788276746432
 30
0.0
 10
46.1167202166133
 20
13.32673412338039
 30
0.0
 10
46.6551533616224
 20
13.36111205526231
 30
0.0
 10
47.19283907276266
 20
13.40536573098822
 30
0.0
 10
47.73004354299501
 20
13.45502138428302
 30
0.0
 10
48.26698923669662
 20
13.50738979915138
 30
0.0
 10
48.80370730015893
 20
13.56203128617788
 30
0.0
 10
49.34016069397798
 20
13.61922568851229
 30
0.0
 10
49.87638853807969
 20
13.67848268562939
 30
0.0
 10
50.41240223375616
 20
13.73965594537181
 30
0.0
 10
50.94819687391529
 20
13.80270980789856
 30
0.0
 10
51.48378617485402
 20
13.86749417578214
 30
0.0
 10
52.01917471873845
 20
13.93390336269432
 30
0.0
 10
52.55435660483803
 20
14.00196616182801
 30
0.0
 10
53.08940904007115
 20
14.07103334645143
 30
0.0
 10
53.62439293690643
 20
14.14062966031716
 30
0.0
 10
54.15927674973268
 20
14.21099045108372
 30
0.0
 10
54.69406297476989
 20
14.28209702518456
 30
0.0
 10
55.2287510234066
 20
14.35392186516252
 30
0.0
 10
55.76334679129452
 20
14.42644887125343
 30
0.0
 10
56.12455782898191
 20
14.47601937389075
 30
0.0
 10
56.30759881135821
 20
14.50120514301566
 30
0.0
 10
56.31248814221899
 20
14.50187794301013
 30
0.0
  0
SPLINE
  5
8C
330
1F
100
AcDbEntity
  8
Default
100
AcDbSpline
210
0.0
220
0.0
230
1.0
 70
     8
 71
     3
 72
    16
 73
    12
 74
     0
 42
0.0000000001
 43
0.0000000001
 40
68.1213053578034
 40
68.1213053578034
 40
68.1213053578034
 40
68.1213053578034
 40
69.0
 40
70.0
 40
71.0
 40
72.0
 40
73.0
 40
74.0
 40
75.0
 40
76.0
 40
77.37719564010679
 40
77.37719564010679
 40
77.37719564010679
 40
77.37719564010679
 10
57.96592533231522
 20
14.73014212940747
 30
0.0
 10
58.12245592828473
 20
14.75190480032356
 30
0.0
 10
58.45712626541823
 20
14.7985908112827
 30
0.0
 10
58.96955873812892
 20
14.86839135150075
 30
0.0
 10
59.50515689192972
 20
14.94825991609695
 30
0.0
 10
60.04058055392798
 20
14.95443242628061
 30
0.0
 10
60.59721787399971
 20
14.92103062697837
 30
0.0
 10
61.01924802990985
 20
14.5582227618785
 30
0.0
 10
61.38245772754497
 20
14.16448087200781
 30
0.0
 10
61.80648332224428
 20
13.72794730181967
 30
0.0
 10
62.09714368652957
 20
13.41525122352309
 30
0.0
 10
62.26690913619639
 20
13.2344321247168
 30
0.0
  0
SPLINE
  5
8D
330
1F
100
AcDbEntity
  8
Default
100
AcDbSpline
210
0.0
220
0.0
230
1.0
 70
     8
 71
     3
 72
    39
 73
    35
 74
     0
 42
0.0000000001
 43
0.0000000001
 40
14.993430805344
 40
14.993430805344
 40
14.993430805344
 40
14.993430805344
 40
15.0
 40
16.0
 40
17.0
 40
18.0
 40
19.0
 40
20.0
 40
21.0
 40
22.0
 40
23.0
 40
24.0
 40
25.0
 40
26.0
 40
27.0
 40
28.0
 40
29.0
 40
30.0
 40
31.0
 40
32.0
 40
33.0
 40
34.0
 40
35.0
 40
36.0
 40
37.0
 40
38.0
 40
39.0
 40
40.0
 40
41.0
 40
42.0
 40
43.0
 40
44.0
 40
45.0
 40
45.80796515371548
 40
45.80796515371548
 40
45.80796515371548
 40
45.80796515371548
 10
55.90050270923361
 20
16.35184247344664
 30
0.0
 10
55.89955246778082
 20
16.35176864549886
 30
0.0
 10
55.7539518298241
 20
16.34044688507541
 30
0.0
 10
55.46392582819477
 20
16.31500771189271
 30
0.0
 10
55.03062886488315
 20
16.27355077260179
 30
0.0
 10
54.59842714845001
 20
16.22181435948816
 30
0.0
 10
54.16646638660362
 20
16.16830799682915
 30
0.0
 10
53.7347055646532
 20
16.11319416472848
 30
0.0
 10
53.30306668971492
 20
16.05712008102017
 30
0.0
 10
52.87148778462136
 20
16.00060102877534
 30
0.0
 10
52.43989054905686
 20
15.94419144426047
 30
0.0
 10
52.00821625063832
 20
15.8884171263081
 30
0.0
 10
51.57637739535906
 20
15.83388354535611
 30
0.0
 10
51.14436807608757
 20
15.78076506076208
 30
0.0
 10
50.71219268004867
 20
15.72897504277474
 30
0.0
 10
50.27986694379188
 20
15.67848965161715
 30
0.0
 10
49.84739219499583
 20
15.62926690380034
 30
0.0
 10
49.4147826157859
 20
15.58127067018764
 30
0.0
 10
48.98203818045669
 20
15.53446226389856
 30
0.0
 10
48.54917692978822
 20
15.488804558689
 30
0.0
 10
48.11612761400286
 20
15.44490335308326
 30
0.0
 10
47.68284873092809
 20
15.40336580787631
 30
0.0
 10
47.24929217701199
 20
15.36480723903107
 30
0.0
 10
46.81543123445045
 20
15.32981073510446
 30
0.0
 10
46.38124183224022
 20
15.29914260194493
 30
0.0
 10
45.94670546991865
 20
15.27377204966819
 30
0.0
 10
45.51186387078967
 20
15.25438967257651
 30
0.0
 10
45.0768066443415
 20
15.24062690882714
 30
0.0
 10
44.64157139131206
 20
15.23366474002239
 30
0.0
 10
44.20628127731502
 20
15.24164982337726
 30
0.0
 10
43.77184728476479
 20
15.2714714901987
 30
0.0
 10
43.34094537743313
 20
15.3375698021222
 30
0.0
 10
42.94742864034705
 20
15.44407982384792
 30
0.0
 10
42.701271940809
 20
15.53754295507263
 30
0.0
 10
42.59560147672111
 20
15.5879767456339
 30
0.0
  0
SPLINE
  5
8E
330
1F
100
AcDbEntity
  8
Default
100
AcDbSpline
210
0.0
220
0.0
230
1.0
 70
     8
 71
     3
 72
    99
 73
    95
 74
     0
 42
0.0000000001
 43
0.0000000001
 40
50.02709101026548
 40
50.02709101026548
 40
50.02709101026548
 40
50.02709101026548
 40
51.0
 40
52.0
 40
53.0
 40
54.0
 40
55.0
 40
56.0
 40
57.0
 40
58.0
 40
59.0
 40
60.0
 40
61.0
 40
62.0
 40
63.0
 40
64.0
 40
65.0
 40
66.0
 40
67.0
 40
68.0
 40
69.0
 40
70.0
 40
71.0
 40
72.0
 40
73.0
 40
74.0
 40
75.0
 40
76.0
 40
77.0
 40
78.0
 40
79.0
 40
80.0
 40
81.0
 40
82.0
 40
83.0
 40
84.0
 40
85.0
 40
86.0
 40
87.0
 40
88.0
 40
89.0
 40
90.0
 40
91.0
 40
92.0
 40
93.0
 40
94.0
 40
95.0
 40
96.0
 40
97.0
 40
98.0
 40
99.0
 40
100.0
 40
101.0
 40
102.0
 40
103.0
 40
104.0
 40
105.0
 40
106.0
 40
107.0
 40
108.0
 40
109.0
 40
110.0
 40
111.0
 40
112.0
 40
113.0
 40
114.0
 40
115.0
 40
116.0
 40
117.0
 40
118.0
 40
119.0
 40
120.0
 40
121.0
 40
122.0
 40
123.0
 40
124.0
 40
125.0
 40
126.0
 40
127.0
 40
128.0
 40
129.0
 40
130.0
 40
131.0
 40
132.0
 40
133.0
 40
134.0
 40
135.0
 40
136.0
 40
137.0
 40
138.0
 40
139.0
 40
140.0
 40
141.0
 40
141.706730710852
 40
141.706730710852
 40
141.706730710852
 40
141.706730710852
 10
41.29981306995553
 20
16.85631216932191
 30
0.0
 10
41.22786418924022
 20
16.97761871699304
 30
0.0
 10
41.09895884000882
 20
17.23356807741724
 30
0.0
 10
40.9090077741732
 20
17.62068547030693
 30
0.0
 10
40.72309736813538
 20
18.01430060749824
 30
0.0
 10
40.54202426341179
 20
18.41011961782727
 30
0.0
 10
40.36835919036001
 20
18.80925224310208
 30
0.0
 10
40.19178895186527
 20
19.20709397158367
 30
0.0
 10
40.01263620495792
 20
19.60378270782802
 30
0.0
 10
39.83255470158335
 20
20.00004755317515
 30
0.0
 10
39.65200945341678
 20
20.3961007881003
 30
0.0
 10
39.47153312503703
 20
20.79219020401692
 30
0.0
 10
39.29204801747518
 20
21.18872383999911
 30
0.0
 10
39.1146056329927
 20
21.58617987862419
 30
0.0
 10
38.9370707129222
 20
21.98359326679133
 30
0.0
 10
38.75998785252202
 20
22.3812071212692
 30
0.0
 10
38.58321033603714
 20
22.7789581460299
 30
0.0
 10
38.40677809512725
 20
23.17686164880253
 30
0.0
 10
38.23068051886762
 20
23.57491430158258
 30
0.0
 10
38.0549197497815
 20
23.9731149451744
 30
0.0
 10
37.87949996673125
 20
24.37146671273925
 30
0.0
 10
37.70440255760503
 20
24.76995766824125
 30
0.0
 10
37.52970118918509
 20
25.16862468597784
 30
0.0
 10
37.35511471263372
 20
25.56734380117371
 30
0.0
 10
37.18169602021127
 20
25.96656955823372
 30
0.0
 10
37.00552246834454
 20
26.36458993713339
 30
0.0
 10
36.82725796677668
 20
26.76167760827355
 30
0.0
 10
36.64552671611659
 20
27.15719843627126
 30
0.0
 10
36.45869835483118
 20
27.55033207190407
 30
0.0
 10
36.26589187050946
 20
27.94060834206093
 30
0.0
 10
36.0644146183199
 20
28.32639886033759
 30
0.0
 10
35.85748798606769
 20
28.70954486043762
 30
0.0
 10
35.62527339409235
 20
29.07784310902411
 30
0.0
 10
35.38385944431748
 20
29.43997084160881
 30
0.0
 10
35.14101799588403
 20
29.80133199946107
 30
0.0
 10
34.87737885605333
 20
30.14788525489168
 30
0.0
 10
34.57492952640551
 20
30.46336596735749
 30
0.0
 10
34.21664236312219
 20
30.71299683281173
 30
0.0
 10
33.81678228197817
 20
30.89413395897587
 30
0.0
 10
33.38494171082645
 20
30.96448818736114
 30
0.0
 10
32.97815835675786
 20
31.1218425815829
 30
0.0
 10
32.54216658893911
 20
31.17423175754693
 30
0.0
 10
32.10699594563934
 20
31.14581366406474
 30
0.0
 10
31.67652210317455
 20
31.10266038543524
 30
0.0
 10
31.25523595970404
 20
30.89404058284685
 30
0.0
 10
31.27785685014635
 20
30.40341480206603
 30
0.0
 10
31.44774419119891
 20
30.01221522307887
 30
0.0
 10
31.58944191957158
 20
29.59786940245144
 30
0.0
 10
31.73869286506405
 20
29.18972606121485
 30
0.0
 10
31.88592116327216
 20
28.77991735661262
 30
0.0
 10
32.03369071311794
 20
28.37055686770082
 30
0.0
 10
32.18131487482025
 20
27.96107727862128
 30
0.0
 10
32.32897825367657
 20
27.55162887990498
 30
0.0
 10
32.47663176159079
 20
27.1421703565947
 30
0.0
 10
32.62428754962887
 20
26.73271555773406
 30
0.0
 10
32.77194234675873
 20
26.32326081453314
 30
0.0
 10
32.9195972433179
 20
25.91380651697678
 30
0.0
 10
33.06725265587219
 20
25.50435059525027
 30
0.0
 10
33.21490775112318
 20
25.09489560521362
 30
0.0
 10
33.36256302819131
 20
24.68544009711136
 30
0.0
 10
33.5102182836773
 20
24.27598465257584
 30
0.0
 10
33.65787339703981
 20
23.8665296011596
 30
0.0
 10
33.80552843005874
 20
23.45707477280701
 30
0.0
 10
33.95318364295416
 20
23.04761944557682
 30
0.0
 10
34.10083948675916
 20
22.63816236881972
 30
0.0
 10
34.24849368648684
 20
22.22870985117477
 30
0.0
 10
34.39614983359966
 20
21.81925193330339
 30
0.0
 10
34.54380416533463
 20
21.40979904968085
 30
0.0
 10
34.69146010300533
 20
21.00034171228826
 30
0.0
 10
34.83911486152993
 20
20.59088764633044
 30
0.0
 10
34.9867699592645
 20
20.18143263374257
 30
0.0
 10
35.13442550269222
 20
19.77197640755701
 30
0.0
 10
35.28208025639053
 20
19.36252228798701
 30
0.0
 10
35.42973570069464
 20
18.9530665643754
 30
0.0
 10
35.57739070601892
 20
18.54361089724915
 30
0.0
 10
35.72504675161201
 20
18.13415667767324
 30
0.0
 10
35.87269834765387
 20
17.72469862868266
 30
0.0
 10
36.02036830548785
 20
17.3152500022267
 30
0.0
 10
36.1679676769978
 20
16.90577192061045
 30
0.0
 10
36.31583297034158
 20
16.49639686201499
 30
0.0
 10
36.46270077204839
 20
16.08665134192197
 30
0.0
 10
36.61349332570919
 20
15.67834152224752
 30
0.0
 10
36.76890183442045
 20
15.27174166004232
 30
0.0
 10
36.93355785377657
 20
14.86879962171685
 30
0.0
 10
37.10579364024988
 20
14.46902331704924
 30
0.0
 10
37.29013925915982
 20
14.07465486220167
 30
0.0
 10
37.48895617913293
 20
13.68735583479403
 30
0.0
 10
37.70170135300369
 20
13.30757248196594
 30
0.0
 10
37.92666309846454
 20
12.93482372109608
 30
0.0
 10
38.17067790745505
 20
12.57419520919091
 30
0.0
 10
38.43439251516412
 20
12.22769647025513
 30
0.0
 10
38.71682950389727
 20
11.89630385500306
 30
0.0
 10
38.98717697320462
 20
11.61127117323548
 30
0.0
 10
39.16744298956645
 20
11.44128091284888
 30
0.0
 10
39.24412690067063
 20
11.37322211972864
 30
0.0
  0
SPLINE
  5
8F
330
1F
100
AcDbEntity
  8
Default
100
AcDbSpline
210
0.0
220
0.0
230
1.0
 70
     8
 71
     3
 72
    46
 73
    42
 74
     0
 42
0.0000000001
 43
0.0000000001
 40
145.6362444260104
 40
145.6362444260104
 40
145.6362444260104
 40
145.6362444260104
 40
146.0
 40
147.0
 40
148.0
 40
149.0
 40
150.0
 40
151.0
 40
152.0
 40
153.0
 40
154.0
 40
155.0
 40
156.0
 40
157.0
 40
158.0
 40
159.0
 40
160.0
 40
161.0
 40
162.0
 40
163.0
 40
164.0
 40
165.0
 40
166.0
 40
167.0
 40
168.0
 40
169.0
 40
170.0
 40
171.0
 40
172.0
 40
173.0
 40
174.0
 40
175.0
 40
176.0
 40
177.0
 40
178.0
 40
179.0
 40
180.0
 40
181.0
 40
182.0
 40
183.0
 40
183.6797492799072
 40
183.6797492799072
 40
183.6797492799072
 40
183.6797492799072
 10
40.65546058041531
 20
10.41385387920689
 30
0.0
 10
40.70254537064384
 20
10.39002127482823
 30
0.0
 10
40.8803557087722
 20
10.30319254330023
 30
0.0
 10
41.19602690911577
 20
10.16860830851129
 30
0.0
 10
41.60644270938372
 20
10.02297538492822
 30
0.0
 10
42.02573492740185
 20
9.905364610969267
 30
0.0
 10
42.45052508190711
 20
9.809856312036342
 30
0.0
 10
42.87988217608157
 20
9.737281914409856
 30
0.0
 10
43.31256709436212
 20
9.68875123458249
 30
0.0
 10
43.74700311712098
 20
9.660252400917036
 30
0.0
 10
44.18217922045206
 20
9.648567500323123
 30
0.0
 10
44.61751711718985
 20
9.654222054023615
 30
0.0
 10
45.05217266897613
 20
9.678443608881862
 30
0.0
 10
45.48588185439755
 20
9.715741054653277
 30
0.0
 10
45.91828185258189
 20
9.766072724103415
 30
0.0
 10
46.34891620814194
 20
9.829641681341696
 30
0.0
 10
46.77795786194634
 20
9.903262072539869
 30
0.0
 10
47.20459210652142
 20
9.989608733031801
 30
0.0
 10
47.63040761232707
 20
10.07980364396966
 30
0.0
 10
48.05644468657377
 20
10.16896787840864
 30
0.0
 10
48.48241956744418
 20
10.25840768918525
 30
0.0
 10
48.90841284533903
 20
10.3477740229915
 30
0.0
 10
49.33439897392944
 20
10.43715957912252
 30
0.0
 10
49.76038964073792
 20
10.52654053491903
 30
0.0
 10
50.18637975577883
 20
10.61592286274439
 30
0.0
 10
50.61236704092538
 20
10.70530419814094
 30
0.0
 10
51.03835510129044
 20
10.7946858030146
 30
0.0
 10
51.46434550734638
 20
10.88406787144319
 30
0.0
 10
51.89033373528866
 20
10.97344949052531
 30
0.0
 10
52.31632196667586
 20
11.0628311082753
 30
0.0
 10
52.74231266138088
 20
11.15221324343369
 30
0.0
 10
53.16830201540544
 20
11.24159509714057
 30
0.0
 10
53.59428961496005
 20
11.33097658276081
 30
0.0
 10
54.02027772970705
 20
11.42035817646956
 30
0.0
 10
54.44626752990767
 20
11.5097401238242
 30
0.0
 10
54.87225615280776
 20
11.59912182416165
 30
0.0
 10
55.29824487376302
 20
11.68850354504776
 30
0.0
 10
55.72423372748334
 20
11.77788529388654
 30
0.0
 10
56.15022302032245
 20
11.86726713450479
 30
0.0
 10
56.53073749919628
 20
11.94710736894895
 30
0.0
 10
56.76925588413355
 20
11.99715372444791
 30
0.0
 10
56.86577777673994
 20
12.01740612199237
 30
0.0
  0
SPLINE
  5
90
330
1F
100
AcDbEntity
  8
Default
100
AcDbSpline
210
0.0
220
0.0
230
1.0
 70
     8
 71
     3
 72
    34
 73
    30
 74
     0
 42
0.0000000001
 43
0.0000000001
 40
187.501892105383
 40
187.501892105383
 40
187.501892105383
 40
187.501892105383
 40
188.0
 40
189.0
 40
190.0
 40
191.0
 40
192.0
 40
193.0
 40
194.0
 40
195.0
 40
196.0
 40
197.0
 40
198.0
 40
199.0
 40
200.0
 40
200.0
 40
200.0
 40
201.0
 40
202.0
 40
203.0
 40
204.0
 40
205.0
 40
206.0
 40
207.0
 40
208.0
 40
209.0
 40
210.0
 40
211.0
 40
211.1034157552926
 40
211.1034157552926
 40
211.1034157552926
 40
211.1034157552926
 10
58.49396855606479
 20
12.35903588041746
 30
0.0
 10
58.56469804951053
 20
12.37387643897473
 30
0.0
 10
58.77742379705128
 20
12.41851100985751
 30
0.0
 10
59.13214424657387
 20
12.49294145960704
 30
0.0
 10
59.55813712361985
 20
12.58231344869129
 30
0.0
 10
59.98411827388079
 20
12.671733155247
 30
0.0
 10
60.41012947810184
 20
12.7609719009086
 30
0.0
 10
60.83604334552662
 20
12.85088911266229
 30
0.0
 10
61.2623036335113
 20
12.93827071997592
 30
0.0
 10
61.6872818276528
 20
13.03511759067973
 30
0.0
 10
62.11704572177289
 20
13.09663979808025
 30
0.0
 10
62.49770354047222
 20
13.40444975459975
 30
0.0
 10
62.33402190385074
 20
13.86525720092808
 30
0.0
 10
62.15408995734656
 20
14.24775324295657
 30
0.0
 10
61.97466587425514
 20
14.4803133219462
 30
0.0
 10
61.88046429499067
 20
14.59140606989831
 30
0.0
 10
61.7862627157262
 20
14.70249881785042
 30
0.0
 10
61.58888048175975
 20
14.91430973066925
 30
0.0
 10
61.27934415981639
 20
15.2209630603183
 30
0.0
 10
60.94560707945475
 20
15.50116353956047
 30
0.0
 10
60.58180754439068
 20
15.74148739392253
 30
0.0
 10
60.19348540153258
 20
15.93970685804005
 30
0.0
 10
59.78473376531876
 20
16.09117490469412
 30
0.0
 10
59.36389424010446
 20
16.20364562037718
 30
0.0
 10
58.93653212550137
 20
16.287098910991
 30
0.0
 10
58.50568777318704
 20
16.34981408182816
 30
0.0
 10
58.07223385585979
 20
16.39094737142755
 30
0.0
 10
57.76727640236825
 20
16.40493113941549
 30
0.0
 10
57.60722003827797
 20
16.40797256349328
 30
0.0
 10
57.59221842961947
 20
16.40822212820084
 30
0.0
  0
SPLINE
  5
91
330
1F
100
AcDbEntity
  8
Default
100
AcDbSpline
210
0.0
220
0.0
230
1.0
 70
     8
 71
     3
 72
    44
 73
    40
 74
     0
 42
0.0000000001
 43
0.0000000001
 40
6.005493246827117
 40
6.005493246827117
 40
6.005493246827117
 40
6.005493246827117
 40
7.0
 40
8.0
 40
9.0
 40
10.0
 40
11.0
 40
12.0
 40
13.0
 40
14.0
 40
15.0
 40
16.0
 40
17.0
 40
18.0
 40
19.0
 40
20.0
 40
21.0
 40
22.0
 40
23.0
 40
24.0
 40
25.0
 40
26.0
 40
27.0
 40
28.0
 40
29.0
 40
30.0
 40
31.0
 40
32.0
 40
33.0
 40
34.0
 40
35.0
 40
36.0
 40
37.0
 40
38.0
 40
39.0
 40
40.0
 40
40.0
 40
40.0
 40
40.00000481018398
 40
40.00000481018398
 40
40.00000481018398
 40
40.00000481018398
 10
12.29780364902775
 20
20.55562395466001
 30
0.0
 10
12.16038217038751
 20
20.5718604513927
 30
0.0
 10
11.8867882689394
 20
20.62048925373545
 30
0.0
 10
11.48860888595861
 20
20.75685098550539
 30
0.0
 10
11.15128022120936
 20
21.01280499941029
 30
0.0
 10
10.93688264008708
 20
21.37915431263938
 30
0.0
 10
10.82929007846482
 20
21.7877578589179
 30
0.0
 10
10.87686641528049
 20
22.21008914799843
 30
0.0
 10
11.0591963828166
 20
22.59128830365865
 30
0.0
 10
11.32100426165326
 20
22.91648559499841
 30
0.0
 10
11.63639056332494
 20
23.20278219280564
 30
0.0
 10
12.0555026496324
 20
23.29145255073302
 30
0.0
 10
12.46514183734038
 20
23.35882933908642
 30
0.0
 10
12.88351873094594
 20
23.3815927362718
 30
0.0
 10
13.30097334220289
 20
23.38686912014541
 30
0.0
 10
13.71877957995945
 20
23.38347145504934
 30
0.0
 10
14.13647847142849
 20
23.37960169220058
 30
0.0
 10
14.5541943384176
 20
23.3746472121063
 30
0.0
 10
14.97189124463678
 20
23.36887738166075
 30
0.0
 10
15.38957331382705
 20
23.36184286235933
 30
0.0
 10
15.80725099058701
 20
23.35511386578696
 30
0.0
 10
16.22486465487536
 20
23.34292671294991
 30
0.0
 10
16.64170023372389
 20
23.31569772925063
 30
0.0
 10
17.05659171476415
 20
23.25860093592009
 30
0.0
 10
17.46289296038185
 20
23.17476300622058
 30
0.0
 10
17.84939610007498
 20
22.94972660495011
 30
0.0
 10
17.87784693199861
 20
22.49654635894146
 30
0.0
 10
17.73428710177166
 20
22.10249818437394
 30
0.0
 10
17.45536715777247
 20
21.78266834504617
 30
0.0
 10
17.1187669429248
 20
21.53444754302154
 30
0.0
 10
16.75860582100863
 20
21.32183535202676
 30
0.0
 10
16.38223587845767
 20
21.14005959458185
 30
0.0
 10
15.99637899518507
 20
20.97959527296696
 30
0.0
 10
15.6034916776679
 20
20.83762155033527
 30
0.0
 10
15.20806021754628
 20
20.70249896803154
 30
0.0
 10
14.938079168161
 20
20.6327931376097
 30
0.0
 10
14.80106989406659
 20
20.60906614574975
 30
0.0
 10
14.80106923502677
 20
20.60906603161855
 30
0.0
 10
14.80106857598691
 20
20.60906591748762
 30
0.0
 10
14.801067916947
 20
20.60906580335693
 30
0.0
  0
SPLINE
  5
92
330
1F
100
AcDbEntity
  8
Default
100
AcDbSpline
210
0.0
220
0.0
230
1.0
 70
     8
 71
     3
 72
    13
 73
     9
 74
     0
 42
0.0000000001
 43
0.0000000001
 40
-32.0
 40
-32.0
 40
-32.0
 40
-32.0
 40
-31.0
 40
-30.0
 40
-29.0
 40
-28.0
 40
-27.0
 40
-26.12541720450333
 40
-26.12541720450333
 40
-26.12541720450333
 40
-26.12541720450333
 10
12.62930527357794
 20
16.10523378626921
 30
0.0
 10
12.58234043889624
 20
16.35958040077349
 30
0.0
 10
12.49432232253845
 20
16.86939822908786
 30
0.0
 10
12.38364464257797
 20
17.63744693562132
 30
0.0
 10
12.27582919332429
 20
18.40586237599009
 30
0.0
 10
12.16668831151373
 20
19.17410076834063
 30
0.0
 10
12.06117763352667
 20
19.91008626861242
 30
0.0
 10
11.99178444525115
 20
20.38995599316118
 30
0.0
 10
11.95923785098459
 20
20.6138131717599
 30
0.0
  0
POLYLINE
  5
93
330
1F
100
AcDbEntity
  8
Default
100
AcDb2dPolyline
 66
     1
 10
0.0
 20
0.0
 30
0.0
  0
VERTEX
  5
94
330
93
100
AcDbEntity
  8
Default
100
AcDbVertex
100
AcDb2dVertex
 10
15.70415709549494
 20
1.526604250980327
 30
0.0
  0
VERTEX
  5
95
330
93
100
AcDbEntity
  8
Default
100
AcDbVertex
100
AcDb2dVertex
 10
15.80057968108069
 20
0.1260071746331026
 30
0.0
  0
SEQEND
  5
96
330
93
100
AcDbEntity
  8
Default
  0
SPLINE
  5
97
330
1F
100
AcDbEntity
  8
Default
100
AcDbSpline
210
0.0
220
0.0
230
1.0
 70
    12
 71
     2
 72
     8
 73
     5
 74
     0
 42
0.0000000001
 43
0.0000000001
 40
0.0
 40
0.0
 40
0.0
 40
0.0970130819380326
 40
0.0970130819380326
 40
0.1940261638760653
 40
0.1940261638760653
 40
0.1940261638760653
 10
15.80057968108069
 20
0.1260071746331026
 30
0.0
 41
1.0
 10
15.80193796406948
 20
0.0715290408531689
 30
0.0
 41
0.9191994686856683
 10
15.7656744301894
 20
0.0351850295541699
 30
0.0
 41
1.0
 10
15.72941089630932
 20
-0.0011589817448292
 30
0.0
 41
0.9191994686856683
 10
15.67808315707689
 20
0.0000217942977791
 30
0.0
 41
1.0
  0
POLYLINE
  5
98
330
1F
100
AcDbEntity
  8
Default
100
AcDb2dPolyline
 66
     1
 10
0.0
 20
0.0
 30
0.0
  0
VERTEX
  5
99
330
98
100
AcDbEntity
  8
Default
100
AcDbVertex
100
AcDb2dVertex
 10
15.67808315707689
 20
0.0000217942977791
 30
0.0
  0
VERTEX
  5
9A
330
98
100
AcDbEntity
  8
Default
100
AcDbVertex
100
AcDb2dVertex
 10
14.5102055684121
 20
0.0000201729054299
 30
0.0
  0
SEQEND
  5
9B
330
98
100
AcDbEntity
  8
Default
  0
SPLINE
  5
9C
330
1F
100
AcDbEntity
  8
Default
100
AcDbSpline
210
0.0
220
0.0
230
1.0
 70
    12
 71
     2
 72
     6
 73
     3
 74
     0
 42
0.0000000001
 43
0.0000000001
 40
0.0
 40
0.0
 40
0.0
 40
0.1755784026767147
 40
0.1755784026767147
 40
0.1755784026767147
 10
14.5102055684121
 20
0.0000201729054299
 30
0.0
 41
1.0
 10
14.40261371007551
 20
-0.0023365810228025
 30
0.0
 41
0.745216658233264
 10
14.38816138816082
 20
0.1059709807171245
 30
0.0
 41
1.0
  0
ARC
  5
9D
330
1F
100
AcDbEntity
  8
Default
100
AcDbCircle
 10
494.0696524678877
 20
54.77448358423349
 30
0.0
 40
482.7866807967583
100
AcDbArc
 50
185.8177556762249
 51
186.5018524492125
  0
ARC
  5
9E
330
1F
100
AcDbEntity
  8
Default
100
AcDbCircle
 10
494.0696524678877
 20
54.77448358423349
 30
0.0
 40
482.7866807967583
100
AcDbArc
 50
185.723932610738
 51
185.7650540049217
  0
LINE
  5
9F
330
1F
100
AcDbEntity
  8
Default
100
AcDbLine
 10
13.69014750375543
 20
6.623571182014566
 30
0.0
 11
13.59177043282721
 21
7.605033967964149
 31
0.0
  0
LINE
  5
A0
330
1F
100
AcDbEntity
  8
Default
100
AcDbLine
 10
13.54811594998971
 20
8.040554663392713
 30
0.0
 11
13.46485445914439
 21
8.871216259599354
 31
0.0
  0
LINE
  5
A1
330
1F
100
AcDbEntity
  8
Default
100
AcDbLine
 10
13.46485445914439
 20
8.871216259599354
 30
0.0
 11
13.08713799767397
 21
13.03140888952727
 31
0.0
  0
LINE
  5
A2
330
1F
100
AcDbEntity
  8
Default
100
AcDbLine
 10
13.74437179978842
 20
6.277292480509733
 30
0.0
 11
13.64889182636083
 21
7.232189362927684
 31
0.0
  0
SPLINE
  5
A3
330
1F
100
AcDbEntity
  8
Default
100
AcDbSpline
210
0.0
220
0.0
230
1.0
 70
     8
 71
     3
 72
     8
 73
     4
 74
     0
 42
0.0000000001
 43
0.0000000001
 40
0.0
 40
0.0
 40
0.0
 40
0.0
 40
1.0
 40
1.0
 40
1.0
 40
1.0
 10
13.64889182636083
 20
7.232189362927684
 30
0.0
 10
13.61485642746541
 20
7.572577981926866
 30
0.0
 10
13.96221230376937
 20
7.513520914518698
 30
0.0
 10
14.00401000394884
 20
7.095501384752945
 30
0.0
  0
SPLINE
  5
A4
330
1F
100
AcDbEntity
  8
Default
100
AcDbSpline
210
0.0
220
0.0
230
1.0
 70
    24
 71
     2
 72
     6
 73
     3
 74
     0
 42
0.0000000001
 43
0.0000000001
 40
-2.25282646590669
 40
-2.25282646590669
 40
-2.25282646590669
 40
0.0
 40
0.0
 40
0.0
 10
14.00401000394884
 20
7.095501384752945
 30
0.0
 10
14.11608101976944
 20
5.974677197475857
 30
0.0
 10
14.22815203559005
 20
4.853853010198769
 30
0.0
  0
SPLINE
  5
A5
330
1F
100
AcDbEntity
  8
Default
100
AcDbSpline
210
0.0
220
0.0
230
1.0
 70
    12
 71
     2
 72
     8
 73
     5
 74
     0
 42
0.0000000001
 43
0.0000000001
 40
-0.926769832808989
 40
-0.926769832808989
 40
-0.926769832808989
 40
-0.4633849164044945
 40
-0.4633849164044945
 40
0.0
 40
0.0
 40
0.0
 10
14.22815203559005
 20
4.853853010198769
 30
0.0
 41
1.0
 10
14.25558850834289
 20
4.579460366840775
 30
0.0
 41
0.7071067811865476
 10
14.07802941955091
 20
4.647804355928384
 30
0.0
 41
1.0
 10
13.90047033075894
 20
4.716148345015993
 30
0.0
 41
0.7071067811865476
 10
13.87303385800552
 20
4.990540988374452
 30
0.0
 41
1.0
  0
LINE
  5
A6
330
1F
100
AcDbEntity
  8
Default
100
AcDbLine
 10
13.87303385800552
 20
4.990540988374452
 30
0.0
 11
13.78854324134477
 21
5.83553312176778
 31
0.0
  0
SPLINE
  5
A7
330
1F
100
AcDbEntity
  8
Default
100
AcDbSpline
210
0.0
220
0.0
230
1.0
 70
    24
 71
     2
 72
     6
 73
     3
 74
     0
 42
0.0000000001
 43
0.0000000001
 40
0.0
 40
0.0
 40
0.0
 40
9.251813498816436
 40
9.251813498816436
 40
9.251813498816436
 10
-4.663319996023837
 20
6.98406237792048
 30
0.0
 10
-9.275279671408626
 20
6.625117804420421
 30
0.0
 10
-13.88723934679341
 20
6.266173230920364
 30
0.0
  0
SPLINE
  5
A8
330
1F
100
AcDbEntity
  8
Default
100
AcDbSpline
210
0.0
220
0.0
230
1.0
 70
     8
 71
     3
 72
     8
 73
     4
 74
     0
 42
0.0000000001
 43
0.0000000001
 40
0.0
 40
0.0
 40
0.0
 40
0.0
 40
1.0
 40
1.0
 40
1.0
 40
1.0
 10
-13.88723934679341
 20
6.266173230920364
 30
0.0
 10
-14.08417547298477
 20
6.25084587361501
 30
0.0
 10
-14.07771755316946
 20
5.813026951434359
 30
0.0
 10
-13.91732042680959
 20
5.825510512038577
 30
0.0
  0
SPLINE
  5
A9
330
1F
100
AcDbEntity
  8
Default
100
AcDbSpline
210
0.0
220
0.0
230
1.0
 70
    24
 71
     2
 72
     6
 73
     3
 74
     0
 42
0.0000000001
 43
0.0000000001
 40
0.0
 40
0.0
 40
0.0
 40
11.68623744202987
 40
11.68623744202987
 40
11.68623744202987
 10
-13.91732042680959
 20
5.825510512038577
 30
0.0
 10
-8.091818664748718
 20
6.278903948361785
 30
0.0
 10
-2.266316902687851
 20
6.732297384684993
 30
0.0
  0
LINE
  5
AA
330
1F
100
AcDbEntity
  8
Default
100
AcDbLine
 10
-2.266316902687851
 20
6.732297384684993
 30
0.0
 11
2.266316902687851
 21
6.732297384684993
 31
0.0
  0
SPLINE
  5
AB
330
1F
100
AcDbEntity
  8
Default
100
AcDbSpline
210
0.0
220
0.0
230
1.0
 70
    24
 71
     2
 72
     6
 73
     3
 74
     0
 42
0.0000000001
 43
0.0000000001
 40
-11.68623744202987
 40
-11.68623744202987
 40
-11.68623744202987
 40
0.0
 40
0.0
 40
0.0
 10
2.266316902687851
 20
6.732297384684993
 30
0.0
 10
8.091818664748718
 20
6.278903948361785
 30
0.0
 10
13.91732042680959
 20
5.825510512038577
 30
0.0
  0
SPLINE
  5
AC
330
1F
100
AcDbEntity
  8
Default
100
AcDbSpline
210
0.0
220
0.0
230
1.0
 70
     8
 71
     3
 72
     8
 73
     4
 74
     0
 42
0.0000000001
 43
0.0000000001
 40
-1.0
 40
-1.0
 40
-1.0
 40
-1.0
 40
0.0
 40
0.0
 40
0.0
 40
0.0
 10
13.91732042680959
 20
5.825510512038577
 30
0.0
 10
14.07771755316946
 20
5.813026951434359
 30
0.0
 10
14.08417547298477
 20
6.25084587361501
 30
0.0
 10
13.88723934679341
 20
6.266173230920364
 30
0.0
  0
SPLINE
  5
AD
330
1F
100
AcDbEntity
  8
Default
100
AcDbSpline
210
0.0
220
0.0
230
1.0
 70
    24
 71
     2
 72
     6
 73
     3
 74
     0
 42
0.0000000001
 43
0.0000000001
 40
-9.251813498816436
 40
-9.251813498816436
 40
-9.251813498816436
 40
0.0
 40
0.0
 40
0.0
 10
13.88723934679341
 20
6.266173230920364
 30
0.0
 10
9.275279671408626
 20
6.625117804420421
 30
0.0
 10
4.663319996023837
 20
6.98406237792048
 30
0.0
  0
SPLINE
  5
AE
330
1F
100
AcDbEntity
  8
Default
100
AcDbSpline
210
0.0
220
0.0
230
1.0
 70
    12
 71
     2
 72
     6
 73
     3
 74
     0
 42
0.0000000001
 43
0.0000000001
 40
0.0
 40
0.0
 40
0.0
 40
0.000583833213262
 40
0.000583833213262
 40
0.000583833213262
 10
-12.98434329759221
 20
12.93192045695206
 30
0.0
 41
1.0
 10
-12.98408578282365
 20
12.93178297440723
 30
0.0
 41
0.99999999180116
 10
-12.98382823285332
 20
12.9316455578182
 30
0.0
 41
1.0
  0
LINE
  5
AF
330
1F
100
AcDbEntity
  8
Default
100
AcDbLine
 10
-13.02613882277108
 20
21.34551498324424
 30
0.0
 11
-14.30629500056344
 21
11.51266445860926
 31
0.0
  0
SPLINE
  5
B0
330
1F
100
AcDbEntity
  8
Default
100
AcDbSpline
210
0.0
220
0.0
230
1.0
 70
    12
 71
     2
 72
     6
 73
     3
 74
     0
 42
0.0000000001
 43
0.0000000001
 40
-11.52371543283091
 40
-11.52371543283091
 40
-11.52371543283091
 40
0.0
 40
0.0
 40
0.0
 10
-14.30629500056344
 20
11.51266445860926
 30
0.0
 41
1.0
 10
-15.05019891600419
 20
5.79879687336867
 30
0.0
 41
0.9999396533872842
 10
-15.91968906914032
 20
0.1013420863857031
 30
0.0
 41
1.0
  0
SPLINE
  5
B1
330
1F
100
AcDbEntity
  8
Default
100
AcDbSpline
210
0.0
220
0.0
230
1.0
 70
    12
 71
     2
 72
     6
 73
     3
 74
     0
 42
0.0000000001
 43
0.0000000001
 40
-0.1697595380277757
 40
-0.1697595380277757
 40
-0.1697595380277757
 40
0.0
 40
0.0
 40
0.0
 10
-15.91968906914032
 20
0.1013420863857031
 30
0.0
 41
1.0
 10
-15.93829731244829
 20
-0.0005890980737019
 30
0.0
 41
0.7632463840146333
 10
-16.04057164847367
 20
0.0009258164485084
 30
0.0
 41
1.0
  0
POLYLINE
  5
B2
330
1F
100
AcDbEntity
  8
Default
100
AcDb2dPolyline
 66
     1
 10
0.0
 20
0.0
 30
0.0
  0
VERTEX
  5
B3
330
B2
100
AcDbEntity
  8
Default
100
AcDbVertex
100
AcDb2dVertex
 10
-16.04057164847367
 20
0.0009258164485084
 30
0.0
  0
VERTEX
  5
B4
330
B2
100
AcDbEntity
  8
Default
100
AcDbVertex
100
AcDb2dVertex
 10
-17.21386955171752
 20
0.0009300606352911
 30
0.0
  0
SEQEND
  5
B5
330
B2
100
AcDbEntity
  8
Default
  0
SPLINE
  5
B6
330
1F
100
AcDbEntity
  8
Default
100
AcDbSpline
210
0.0
220
0.0
230
1.0
 70
     8
 71
     3
 72
    11
 73
     7
 74
     0
 42
0.0000000001
 43
0.0000000001
 40
-0.2041453175102159
 40
-0.2041453175102159
 40
-0.2041453175102159
 40
-0.2041453175102159
 40
-0.1536925962836674
 40
-0.1026664798601434
 40
-0.0508165748803152
 40
0.0
 40
0.0
 40
0.0
 40
0.0
 10
-17.21386955171752
 20
0.0009300606352911
 30
0.0
 10
-17.23045555410494
 20
0.0006540752102316
 30
0.0
 10
-17.26466343530523
 20
0.0070548595646342
 30
0.0
 10
-17.30734278894488
 20
0.0370887561286722
 30
0.0
 10
-17.33396178891652
 20
0.0823093207982481
 30
0.0
 10
-17.33751582353027
 20
0.11712567337436
 30
0.0
 10
-17.33554868147688
 20
0.1352851000833913
 30
0.0
  0
SPLINE
  5
B7
330
1F
100
AcDbEntity
  8
Default
100
AcDbSpline
210
0.0
220
0.0
230
1.0
 70
    12
 71
     2
 72
     6
 73
     3
 74
     0
 42
0.0000000001
 43
0.0000000001
 40
-11.6732900668437
 40
-11.6732900668437
 40
-11.6732900668437
 40
0.0
 40
0.0
 40
0.0
 10
-17.33554868147688
 20
0.1352851000833913
 30
0.0
 41
1.0
 10
-16.71086275408607
 20
5.939983458495186
 30
0.0
 41
0.9999380766542607
 10
-15.95730866987717
 20
11.72802236565682
 30
0.0
 41
1.0
  0
LINE
  5
B8
330
1F
100
AcDbEntity
  8
Default
100
AcDbLine
 10
-15.95730866987717
 20
11.72802236565682
 30
0.0
 11
-14.72740493823006
 21
21.17486848076439
 31
0.0
  0
SPLINE
  5
B9
330
1F
100
AcDbEntity
  8
Default
100
AcDbSpline
210
0.0
220
0.0
230
1.0
 70
    12
 71
     2
 72
     7
 73
     4
 74
     0
 42
0.0000000001
 43
0.0000000001
 40
-0.838643514602455
 40
-0.838643514602455
 40
-0.838643514602455
 40
0.0
 40
0.282367887154475
 40
0.282367887154475
 40
0.282367887154475
 10
-14.72740493823006
 20
21.17486848076439
 30
0.0
 41
1.0
 10
-14.66307007592742
 20
21.66902223310382
 30
0.0
 41
0.779576936524992
 10
-15.23550009372949
 20
21.88682098521162
 30
0.0
 41
1.074215555989912
 10
-15.37047864477034
 20
21.89796317389526
 30
0.0
 41
1.0
  0
SPLINE
  5
BA
330
1F
100
AcDbEntity
  8
Default
100
AcDbSpline
210
0.0
220
0.0
230
1.0
 70
    12
 71
     2
 72
     8
 73
     5
 74
     0
 42
0.0000000001
 43
0.0000000001
 40
0.0
 40
0.0
 40
0.0
 40
1.570796326794897
 40
1.570796326794897
 40
3.141592653589793
 40
3.141592653589793
 40
3.141592653589793
 10
-15.37047864477034
 20
21.89796317389526
 30
0.0
 41
1.0
 10
-15.37047063035417
 20
22.05425646876459
 30
0.0
 41
0.7071067811865475
 10
-13.89515187399156
 20
22.05418081728824
 30
0.0
 41
1.0
 10
-12.41983311762896
 20
22.05410516581189
 30
0.0
 41
0.7071067811865475
 10
-12.41984113204513
 20
21.89781187094255
 30
0.0
 41
1.0
  0
SPLINE
  5
BB
330
1F
100
AcDbEntity
  8
Default
100
AcDbSpline
210
0.0
220
0.0
230
1.0
 70
    12
 71
     2
 72
     7
 73
     4
 74
     0
 42
0.0000000001
 43
0.0000000001
 40
-45.86358442543156
 40
-45.86358442543156
 40
-45.86358442543156
 40
-45.62454472796695
 40
-44.95833119244521
 40
-44.95833119244521
 40
-44.95833119244521
 10
-12.41984113204513
 20
21.89781187094255
 30
0.0
 41
1.0
 10
-12.53516737320899
 20
21.87942272555358
 30
0.0
 41
1.054807484948398
 10
-12.98711261720655
 20
21.71650910983143
 30
0.0
 41
0.8472492698584843
 10
-13.02613882277108
 20
21.34551498324424
 30
0.0
 41
1.0
  0
SPLINE
  5
BC
330
1F
100
AcDbEntity
  8
Default
100
AcDbSpline
210
0.0
220
0.0
230
1.0
 70
     8
 71
     3
 72
    44
 73
    40
 74
     0
 42
0.0000000001
 43
0.0000000001
 40
6.005493246827117
 40
6.005493246827117
 40
6.005493246827117
 40
6.005493246827117
 40
7.0
 40
8.0
 40
9.0
 40
10.0
 40
11.0
 40
12.0
 40
13.0
 40
14.0
 40
15.0
 40
16.0
 40
17.0
 40
18.0
 40
19.0
 40
20.0
 40
21.0
 40
22.0
 40
23.0
 40
24.0
 40
25.0
 40
26.0
 40
27.0
 40
28.0
 40
29.0
 40
30.0
 40
31.0
 40
32.0
 40
33.0
 40
34.0
 40
35.0
 40
36.0
 40
37.0
 40
38.0
 40
39.0
 40
40.0
 40
40.0
 40
40.0
 40
40.00000481018398
 40
40.00000481018398
 40
40.00000481018398
 40
40.00000481018398
 10
-12.29780364902775
 20
20.55562395466001
 30
0.0
 10
-12.16038217038751
 20
20.5718604513927
 30
0.0
 10
-11.8867882689394
 20
20.62048925373545
 30
0.0
 10
-11.48860888595861
 20
20.75685098550539
 30
0.0
 10
-11.15128022120936
 20
21.01280499941029
 30
0.0
 10
-10.93688264008708
 20
21.37915431263938
 30
0.0
 10
-10.82929007846482
 20
21.7877578589179
 30
0.0
 10
-10.87686641528049
 20
22.21008914799843
 30
0.0
 10
-11.0591963828166
 20
22.59128830365865
 30
0.0
 10
-11.32100426165326
 20
22.91648559499841
 30
0.0
 10
-11.63639056332494
 20
23.20278219280564
 30
0.0
 10
-12.0555026496324
 20
23.29145255073302
 30
0.0
 10
-12.46514183734038
 20
23.35882933908642
 30
0.0
 10
-12.88351873094594
 20
23.3815927362718
 30
0.0
 10
-13.30097334220289
 20
23.38686912014541
 30
0.0
 10
-13.71877957995945
 20
23.38347145504934
 30
0.0
 10
-14.13647847142849
 20
23.37960169220058
 30
0.0
 10
-14.5541943384176
 20
23.3746472121063
 30
0.0
 10
-14.97189124463678
 20
23.36887738166075
 30
0.0
 10
-15.38957331382705
 20
23.36184286235933
 30
0.0
 10
-15.80725099058701
 20
23.35511386578696
 30
0.0
 10
-16.22486465487536
 20
23.34292671294991
 30
0.0
 10
-16.64170023372389
 20
23.31569772925063
 30
0.0
 10
-17.05659171476415
 20
23.25860093592009
 30
0.0
 10
-17.46289296038185
 20
23.17476300622058
 30
0.0
 10
-17.84939610007498
 20
22.94972660495011
 30
0.0
 10
-17.87784693199861
 20
22.49654635894146
 30
0.0
 10
-17.73428710177166
 20
22.10249818437394
 30
0.0
 10
-17.45536715777247
 20
21.78266834504617
 30
0.0
 10
-17.1187669429248
 20
21.53444754302154
 30
0.0
 10
-16.75860582100863
 20
21.32183535202676
 30
0.0
 10
-16.38223587845767
 20
21.14005959458185
 30
0.0
 10
-15.99637899518507
 20
20.97959527296696
 30
0.0
 10
-15.6034916776679
 20
20.83762155033527
 30
0.0
 10
-15.20806021754628
 20
20.70249896803154
 30
0.0
 10
-14.938079168161
 20
20.6327931376097
 30
0.0
 10
-14.80106989406659
 20
20.60906614574975
 30
0.0
 10
-14.80106923502677
 20
20.60906603161855
 30
0.0
 10
-14.80106857598691
 20
20.60906591748762
 30
0.0
 10
-14.801067916947
 20
20.60906580335693
 30
0.0
  0
SPLINE
  5
BD
330
1F
100
AcDbEntity
  8
Default
100
AcDbSpline
210
0.0
220
0.0
230
1.0
 70
     8
 71
     3
 72
    13
 73
     9
 74
     0
 42
0.0000000001
 43
0.0000000001
 40
-32.0
 40
-32.0
 40
-32.0
 40
-32.0
 40
-31.0
 40
-30.0
 40
-29.0
 40
-28.0
 40
-27.0
 40
-26.12541720450333
 40
-26.12541720450333
 40
-26.12541720450333
 40
-26.12541720450333
 10
-12.62930527357794
 20
16.10523378626921
 30
0.0
 10
-12.58234043889624
 20
16.35958040077349
 30
0.0
 10
-12.49432232253845
 20
16.86939822908786
 30
0.0
 10
-12.38364464257797
 20
17.63744693562132
 30
0.0
 10
-12.27582919332429
 20
18.40586237599009
 30
0.0
 10
-12.16668831151373
 20
19.17410076834063
 30
0.0
 10
-12.06117763352667
 20
19.91008626861242
 30
0.0
 10
-11.99178444525115
 20
20.38995599316118
 30
0.0
 10
-11.95923785098459
 20
20.6138131717599
 30
0.0
  0
POLYLINE
  5
BE
330
1F
100
AcDbEntity
  8
Default
100
AcDb2dPolyline
 66
     1
 10
0.0
 20
0.0
 30
0.0
  0
VERTEX
  5
BF
330
BE
100
AcDbEntity
  8
Default
100
AcDbVertex
100
AcDb2dVertex
 10
-15.70415709549494
 20
1.526604250980327
 30
0.0
  0
VERTEX
  5
C0
330
BE
100
AcDbEntity
  8
Default
100
AcDbVertex
100
AcDb2dVertex
 10
-15.80057968108069
 20
0.1260071746331026
 30
0.0
  0
SEQEND
  5
C1
330
BE
100
AcDbEntity
  8
Default
  0
SPLINE
  5
C2
330
1F
100
AcDbEntity
  8
Default
100
AcDbSpline
210
0.0
220
0.0
230
1.0
 70
    12
 71
     2
 72
     8
 73
     5
 74
     0
 42
0.0000000001
 43
0.0000000001
 40
0.0
 40
0.0
 40
0.0
 40
0.0970130819380326
 40
0.0970130819380326
 40
0.1940261638760653
 40
0.1940261638760653
 40
0.1940261638760653
 10
-15.80057968108069
 20
0.1260071746331026
 30
0.0
 41
1.0
 10
-15.80193796406948
 20
0.0715290408531689
 30
0.0
 41
0.9191994686856683
 10
-15.7656744301894
 20
0.0351850295541699
 30
0.0
 41
1.0
 10
-15.72941089630932
 20
-0.0011589817448292
 30
0.0
 41
0.9191994686856683
 10
-15.67808315707689
 20
0.0000217942977791
 30
0.0
 41
1.0
  0
POLYLINE
  5
C3
330
1F
100
AcDbEntity
  8
Default
100
AcDb2dPolyline
 66
     1
 10
0.0
 20
0.0
 30
0.0
  0
VERTEX
  5
C4
330
C3
100
AcDbEntity
  8
Default
100
AcDbVertex
100
AcDb2dVertex
 10
-15.67808315707689
 20
0.0000217942977791
 30
0.0
  0
VERTEX
  5
C5
330
C3
100
AcDbEntity
  8
Default
100
AcDbVertex
100
AcDb2dVertex
 10
-14.5102055684121
 20
0.0000201729054299
 30
0.0
  0
SEQEND
  5
C6
330
C3
100
AcDbEntity
  8
Default
  0
SPLINE
  5
C7
330
1F
100
AcDbEntity
  8
Default
100
AcDbSpline
210
0.0
220
0.0
230
1.0
 70
    12
 71
     2
 72
     6
 73
     3
 74
     0
 42
0.0000000001
 43
0.0000000001
 40
0.0
 40
0.0
 40
0.0
 40
0.1755784026767147
 40
0.1755784026767147
 40
0.1755784026767147
 10
-14.5102055684121
 20
0.0000201729054299
 30
0.0
 41
1.0
 10
-14.40261371007551
 20
-0.0023365810228025
 30
0.0
 41
0.745216658233264
 10
-14.38816138816082
 20
0.1059709807171245
 30
0.0
 41
1.0
  0
ARC
  5
C8
330
1F
100
AcDbEntity
  8
Default
100
AcDbCircle
 10
-494.0696524678877
 20
54.77448358423349
 30
0.0
 40
482.7866807967583
100
AcDbArc
 50
353.4981475507872
 51
354.1822443237748
  0
ARC
  5
C9
330
1F
100
AcDbEntity
  8
Default
100
AcDbCircle
 10
-494.0696524678877
 20
54.77448358423349
 30
0.0
 40
482.7866807967583
100
AcDbArc
 50
354.234945995078
 51
354.2760673892617
  0
LINE
  5
CA
330
1F
100
AcDbEntity
  8
Default
100
AcDbLine
 10
-13.69014750375543
 20
6.623571182014566
 30
0.0
 11
-13.59177043282721
 21
7.605033967964149
 31
0.0
  0
LINE
  5
CB
330
1F
100
AcDbEntity
  8
Default
100
AcDbLine
 10
-13.54811594998971
 20
8.040554663392713
 30
0.0
 11
-13.46485445914439
 21
8.871216259599354
 31
0.0
  0
LINE
  5
CC
330
1F
100
AcDbEntity
  8
Default
100
AcDbLine
 10
-13.46485445914439
 20
8.871216259599354
 30
0.0
 11
-13.08713799767397
 21
13.03140888952727
 31
0.0
  0
LINE
  5
CD
330
1F
100
AcDbEntity
  8
Default
100
AcDbLine
 10
-13.74437179978842
 20
6.277292480509733
 30
0.0
 11
-13.64889182636083
 21
7.232189362927684
 31
0.0
  0
SPLINE
  5
CE
330
1F
100
AcDbEntity
  8
Default
100
AcDbSpline
210
0.0
220
0.0
230
1.0
 70
     8
 71
     3
 72
     8
 73
     4
 74
     0
 42
0.0000000001
 43
0.0000000001
 40
0.0
 40
0.0
 40
0.0
 40
0.0
 40
1.0
 40
1.0
 40
1.0
 40
1.0
 10
-13.64889182636083
 20
7.232189362927684
 30
0.0
 10
-13.61485642746541
 20
7.572577981926866
 30
0.0
 10
-13.96221230376937
 20
7.513520914518698
 30
0.0
 10
-14.00401000394884
 20
7.095501384752945
 30
0.0
  0
SPLINE
  5
CF
330
1F
100
AcDbEntity
  8
Default
100
AcDbSpline
210
0.0
220
0.0
230
1.0
 70
    24
 71
     2
 72
     6
 73
     3
 74
     0
 42
0.0000000001
 43
0.0000000001
 40
-2.25282646590669
 40
-2.25282646590669
 40
-2.25282646590669
 40
0.0
 40
0.0
 40
0.0
 10
-14.00401000394884
 20
7.095501384752945
 30
0.0
 10
-14.11608101976944
 20
5.974677197475857
 30
0.0
 10
-14.22815203559005
 20
4.853853010198769
 30
0.0
  0
SPLINE
  5
D0
330
1F
100
AcDbEntity
  8
Default
100
AcDbSpline
210
0.0
220
0.0
230
1.0
 70
    12
 71
     2
 72
     8
 73
     5
 74
     0
 42
0.0000000001
 43
0.0000000001
 40
-0.926769832808989
 40
-0.926769832808989
 40
-0.926769832808989
 40
-0.4633849164044945
 40
-0.4633849164044945
 40
0.0
 40
0.0
 40
0.0
 10
-14.22815203559005
 20
4.853853010198769
 30
0.0
 41
1.0
 10
-14.25558850834289
 20
4.579460366840775
 30
0.0
 41
0.7071067811865476
 10
-14.07802941955091
 20
4.647804355928384
 30
0.0
 41
1.0
 10
-13.90047033075894
 20
4.716148345015993
 30
0.0
 41
0.7071067811865476
 10
-13.87303385800552
 20
4.990540988374452
 30
0.0
 41
1.0
  0
LINE
  5
D1
330
1F
100
AcDbEntity
  8
Default
100
AcDbLine
 10
-13.87303385800552
 20
4.990540988374452
 30
0.0
 11
-13.78854324134477
 21
5.83553312176778
 31
0.0
  0
SPLINE
  5
D2
330
1F
100
AcDbEntity
  8
Default
100
AcDbSpline
210
0.0
220
0.0
230
1.0
 70
     8
 71
     3
 72
    30
 73
    26
 74
     0
 42
0.0000000001
 43
0.0000000001
 40
-22.84465022145207
 40
-22.84465022145207
 40
-22.84465022145207
 40
-22.84465022145207
 40
-22.0
 40
-21.0
 40
-20.0
 40
-19.0
 40
-18.0
 40
-17.0
 40
-16.0
 40
-15.0
 40
-14.0
 40
-13.0
 40
-12.0
 40
-11.0
 40
-10.0
 40
-9.0
 40
-8.0
 40
-7.0
 40
-6.0
 40
-5.0
 40
-4.0
 40
-3.0
 40
-2.0
 40
-1.0
 40
0.0
 40
0.0
 40
0.0
 40
0.0
 10
11.58804145470852
 20
23.13231469594411
 30
0.0
 10
11.55574690328603
 20
23.34838348215437
 30
0.0
 10
11.48489115193073
 20
23.82021217255623
 30
0.0
 10
11.37617464938622
 20
24.54789700904919
 30
0.0
 10
11.25590819644207
 20
25.31451684772408
 30
0.0
 10
11.15284273471207
 20
26.08357449249819
 30
0.0
 10
11.04258726962956
 20
26.85174401396152
 30
0.0
 10
10.92551962276641
 20
27.61851246484139
 30
0.0
 10
10.80428659646908
 20
28.38606293510563
 30
0.0
 10
10.66314222971202
 20
29.14507876477129
 30
0.0
 10
10.5570237194215
 20
29.92929328648064
 30
0.0
 10
10.04251477437695
 20
30.55036011641424
 30
0.0
 10
9.301690320672982
 20
30.83507439602696
 30
0.0
 10
8.530406165480516
 20
30.91568411674025
 30
0.0
 10
7.754947204561747
 20
30.95257620259266
 30
0.0
 10
6.980336170024962
 20
30.99646012054711
 30
0.0
 10
6.205377720107898
 20
31.0362480137585
 30
0.0
 10
5.430302104462273
 20
31.07294626703796
 30
0.0
 10
4.655038275248503
 20
31.10570568162852
 30
0.0
 10
3.87951035266251
 20
31.13166217416257
 30
0.0
 10
3.103720823274005
 20
31.14799210058982
 30
0.0
 10
2.327833576737769
 20
31.15814736799502
 30
0.0
 10
1.551898070383834
 20
31.1633805037958
 30
0.0
 10
0.7759497982343192
 20
31.16527749110222
 30
0.0
 10
0.2586498450128151
 20
31.16536169013903
 30
0.0
 10
-0.0000000000000036
 20
31.16537063650135
 30
0.0
  0
SPLINE
  5
D3
330
1F
100
AcDbEntity
  8
Default
100
AcDbSpline
210
0.0
220
0.0
230
1.0
 70
     8
 71
     3
 72
    30
 73
    26
 74
     0
 42
0.0000000001
 43
0.0000000001
 40
0.0
 40
0.0
 40
0.0
 40
0.0
 40
1.0
 40
2.0
 40
3.0
 40
4.0
 40
5.0
 40
6.0
 40
7.0
 40
8.0
 40
9.0
 40
10.0
 40
11.0
 40
12.0
 40
13.0
 40
14.0
 40
15.0
 40
16.0
 40
17.0
 40
18.0
 40
19.0
 40
20.0
 40
21.0
 40
22.0
 40
22.84465022145202
 40
22.84465022145202
 40
22.84465022145202
 40
22.84465022145202
 10
-0.0000000000000036
 20
31.16537063650135
 30
0.0
 10
-0.2586498450128222
 20
31.16536169013903
 30
0.0
 10
-0.7759497982343263
 20
31.16527749110221
 30
0.0
 10
-1.551898070383841
 20
31.16338050379579
 30
0.0
 10
-2.327833576737776
 20
31.15814736799501
 30
0.0
 10
-3.103720823274013
 20
31.14799210058981
 30
0.0
 10
-3.879510352662517
 20
31.13166217416256
 30
0.0
 10
-4.65503827524851
 20
31.1057056816285
 30
0.0
 10
-5.43030210446228
 20
31.07294626703794
 30
0.0
 10
-6.205377720107904
 20
31.03624801375847
 30
0.0
 10
-6.980336170024968
 20
30.99646012054708
 30
0.0
 10
-7.754947204561753
 20
30.95257620259263
 30
0.0
 10
-8.530406165480521
 20
30.91568411674022
 30
0.0
 10
-9.301690320672988
 20
30.83507439602692
 30
0.0
 10
-10.04251477437696
 20
30.5503601164142
 30
0.0
 10
-10.5570237194215
 20
29.9292932864806
 30
0.0
 10
-10.66314222971202
 20
29.14507876477125
 30
0.0
 10
-10.80428659646908
 20
28.38606293510559
 30
0.0
 10
-10.92551962276641
 20
27.61851246484135
 30
0.0
 10
-11.04258726962955
 20
26.85174401396148
 30
0.0
 10
-11.15284273471205
 20
26.08357449249815
 30
0.0
 10
-11.25590819644205
 20
25.31451684772404
 30
0.0
 10
-11.3761746493862
 20
24.54789700904915
 30
0.0
 10
-11.48489115193071
 20
23.8202121725562
 30
0.0
 10
-11.55574690328601
 20
23.34838348215435
 30
0.0
 10
-11.58804145470849
 20
23.1323146959441
 30
0.0
  0
SPLINE
  5
D4
330
1F
100
AcDbEntity
  8
Default
100
AcDbSpline
210
0.0
220
0.0
230
1.0
 70
     8
 71
     3
 72
    13
 73
     9
 74
     0
 42
0.0000000001
 43
0.0000000001
 40
26.12541720450326
 40
26.12541720450326
 40
26.12541720450326
 40
26.12541720450326
 40
27.0
 40
28.0
 40
29.0
 40
30.0
 40
31.0
 40
32.0
 40
32.0
 40
32.0
 40
32.0
 10
-11.95923785098455
 20
20.61381317175991
 30
0.0
 10
-11.99178444525112
 20
20.38995599316117
 30
0.0
 10
-12.06117763352663
 20
19.91008626861239
 30
0.0
 10
-12.16668831151369
 20
19.17410076834059
 30
0.0
 10
-12.27582919332425
 20
18.40586237599004
 30
0.0
 10
-12.38364464257793
 20
17.63744693562127
 30
0.0
 10
-12.49432232253841
 20
16.86939822908781
 30
0.0
 10
-12.58234043889619
 20
16.35958040077344
 30
0.0
 10
-12.62930527357789
 20
16.10523378626917
 30
0.0
  0
ARC
  5
D5
330
1F
100
AcDbEntity
  8
Default
100
AcDbCircle
 10
-6.651661217316873
 20
63.11071088907171
 30
0.0
 40
19.96777482803357
100
AcDbArc
 50
16.6486644295549
 51
18.52128965790414
  0
ARC
  5
D6
330
1F
100
AcDbEntity
  8
Default
100
AcDbCircle
 10
-287.7917898881194
 20
-31.07363450164809
 30
0.0
 40
316.4647610955398
100
AcDbArc
 50
18.52128965790441
 51
19.11994643633014
  0
ARC
  5
D7
330
1F
100
AcDbEntity
  8
Default
100
AcDbCircle
 10
-56.20034201644675
 20
49.21239735870048
 30
0.0
 40
71.35163284823727
100
AcDbArc
 50
19.11994643632935
 51
20.64008599003462
  0
SPLINE
  5
D8
330
1F
100
AcDbEntity
  8
Default
100
AcDbSpline
210
0.0
220
0.0
230
1.0
 70
     8
 71
     3
 72
    16
 73
    12
 74
     0
 42
0.0000000001
 43
0.0000000001
 40
-9.0
 40
-9.0
 40
-9.0
 40
-9.0
 40
-8.0
 40
-7.0
 40
-6.0
 40
-5.0
 40
-4.0
 40
-3.0
 40
-2.0
 40
-1.0
 40
0.0
 40
0.0
 40
0.0
 40
0.0
 10
10.57145404926575
 20
74.3635953474356
 30
0.0
 10
10.38617403941333
 20
74.73924072478515
 30
0.0
 10
9.658449021214354
 20
75.18933660398514
 30
0.0
 10
8.489311475348106
 20
75.55001636573638
 30
0.0
 10
7.306051825412403
 20
75.89567129806375
 30
0.0
 10
6.109092345752887
 20
76.1811907280434
 30
0.0
 10
4.90104540485229
 20
76.41786812211707
 30
0.0
 10
3.683995755584083
 20
76.60209866339493
 30
0.0
 10
2.460191882189714
 20
76.73438922302297
 30
0.0
 10
1.231855592917845
 20
76.8142637634954
 30
0.0
 10
0.4114380031084375
 20
76.83251163405238
 30
0.0
 10
0.0
 20
76.83287033764896
 30
0.0
  0
SPLINE
  5
D9
330
1F
100
AcDbEntity
  8
Default
100
AcDbSpline
210
0.0
220
0.0
230
1.0
 70
     8
 71
     3
 72
    16
 73
    12
 74
     0
 42
0.0000000001
 43
0.0000000001
 40
0.0
 40
0.0
 40
0.0
 40
0.0
 40
1.0
 40
2.0
 40
3.0
 40
4.0
 40
5.0
 40
6.0
 40
7.0
 40
8.0
 40
9.0
 40
9.0
 40
9.0
 40
9.0
 10
0.0
 20
76.83287033764896
 30
0.0
 10
-0.4114380031084375
 20
76.83251163405238
 30
0.0
 10
-1.231855592917845
 20
76.8142637634954
 30
0.0
 10
-2.460191882189714
 20
76.73438922302297
 30
0.0
 10
-3.683995755584083
 20
76.60209866339493
 30
0.0
 10
-4.90104540485229
 20
76.41786812211707
 30
0.0
 10
-6.109092345752887
 20
76.1811907280434
 30
0.0
 10
-7.306051825412403
 20
75.89567129806375
 30
0.0
 10
-8.489311475348106
 20
75.55001636573638
 30
0.0
 10
-9.658449021214354
 20
75.18933660398514
 30
0.0
 10
-10.38617403941333
 20
74.73924072478515
 30
0.0
 10
-10.57145404926575
 20
74.3635953474356
 30
0.0
  0
ARC
  5
DA
330
1F
100
AcDbEntity
  8
Default
100
AcDbCircle
 10
56.20034201644675
 20
49.21239735870048
 30
0.0
 40
71.35163284823727
100
AcDbArc
 50
159.3599140099654
 51
160.8800535636707
  0
ARC
  5
DB
330
1F
100
AcDbEntity
  8
Default
100
AcDbCircle
 10
287.7917898881194
 20
-31.07363450164809
 30
0.0
 40
316.4647610955398
100
AcDbArc
 50
160.8800535636697
 51
161.4787103420954
  0
ARC
  5
DC
330
1F
100
AcDbEntity
  8
Default
100
AcDbCircle
 10
6.651661217316873
 20
63.11071088907171
 30
0.0
 40
19.96777482803357
100
AcDbArc
 50
161.4787103420959
 51
163.3513355704496
  0
POLYLINE
  5
DD
330
1F
100
AcDbEntity
  8
Default
100
AcDb2dPolyline
 66
     1
 10
0.0
 20
0.0
 30
0.0
  0
VERTEX
  5
DE
330
DD
100
AcDbEntity
  8
Default
100
AcDbVertex
100
AcDb2dVertex
 10
-13.52769113420244
 20
47.80962065415907
 30
0.0
  0
VERTEX
  5
DF
330
DD
100
AcDbEntity
  8
Default
100
AcDbVertex
100
AcDb2dVertex
 10
-13.52775589023154
 20
47.80712908718829
 30
0.0
  0
SEQEND
  5
E0
330
DD
100
AcDbEntity
  8
Default
  0
SPLINE
  5
E1
330
1F
100
AcDbEntity
  8
Default
100
AcDbSpline
210
0.0
220
0.0
230
1.0
 70
     8
 71
     3
 72
    10
 73
     6
 74
     0
 42
0.0000000001
 43
0.0000000001
 40
0.0
 40
0.0
 40
0.0
 40
0.0
 40
1.0
 40
2.0
 40
3.0
 40
3.0
 40
3.0
 40
3.0
 10
-13.52775589023154
 20
47.80712908718829
 30
0.0
 10
-13.41618202847785
 20
47.65911213843231
 30
0.0
 10
-13.15386091797383
 20
47.39335364311047
 30
0.0
 10
-12.67089111175618
 20
47.1071677609454
 30
0.0
 10
-12.30984298121366
 20
47.01244890979944
 30
0.0
 10
-12.12975890318876
 20
46.97045066985187
 30
0.0
  0
SPLINE
  5
E2
330
1F
100
AcDbEntity
  8
Default
100
AcDbSpline
210
0.0
220
0.0
230
1.0
 70
    12
 71
     2
 72
     6
 73
     3
 74
     0
 42
0.0000000001
 43
0.0000000001
 40
0.0
 40
0.0
 40
0.0
 40
12.21793161620893
 40
12.21793161620893
 40
12.21793161620893
 10
-12.12975890318876
 20
46.97045066985187
 30
0.0
 41
1.0
 10
-6.133062864852424
 20
45.69015070823954
 30
0.0
 41
0.99441240943004
 10
0.0
 20
45.69739353126417
 30
0.0
 41
1.0
  0
SPLINE
  5
E3
330
1F
100
AcDbEntity
  8
Default
100
AcDbSpline
210
0.0
220
0.0
230
1.0
 70
    12
 71
     2
 72
     6
 73
     3
 74
     0
 42
0.0000000001
 43
0.0000000001
 40
-12.21793161620893
 40
-12.21793161620893
 40
-12.21793161620893
 40
0.0
 40
0.0
 40
0.0
 10
0.0
 20
45.69739353126417
 30
0.0
 41
1.0
 10
6.133062864852424
 20
45.69015070823954
 30
0.0
 41
0.99441240943004
 10
12.12975890318876
 20
46.97045066985187
 30
0.0
 41
1.0
  0
SPLINE
  5
E4
330
1F
100
AcDbEntity
  8
Default
100
AcDbSpline
210
0.0
220
0.0
230
1.0
 70
     8
 71
     3
 72
    10
 73
     6
 74
     0
 42
0.0000000001
 43
0.0000000001
 40
-3.0
 40
-3.0
 40
-3.0
 40
-3.0
 40
-2.0
 40
-1.0
 40
0.0
 40
0.0
 40
0.0
 40
0.0
 10
12.12975890318876
 20
46.97045066985187
 30
0.0
 10
12.30984298121366
 20
47.01244890979944
 30
0.0
 10
12.67089111175618
 20
47.1071677609454
 30
0.0
 10
13.15386091797383
 20
47.39335364311047
 30
0.0
 10
13.41618202847785
 20
47.65911213843231
 30
0.0
 10
13.52775589023154
 20
47.80712908718829
 30
0.0
  0
POLYLINE
  5
E5
330
1F
100
AcDbEntity
  8
Default
100
AcDb2dPolyline
 66
     1
 10
0.0
 20
0.0
 30
0.0
  0
VERTEX
  5
E6
330
E5
100
AcDbEntity
  8
Default
100
AcDbVertex
100
AcDb2dVertex
 10
13.52775589023154
 20
47.80712908718829
 30
0.0
  0
VERTEX
  5
E7
330
E5
100
AcDbEntity
  8
Default
100
AcDbVertex
100
AcDb2dVertex
 10
13.52769113420244
 20
47.80962065415908
 30
0.0
  0
SEQEND
  5
E8
330
E5
100
AcDbEntity
  8
Default
  0
LINE
  5
E9
330
1F
100
AcDbEntity
  8
Default
100
AcDbLine
 10
17.04897723263138
 20
48.49372358811589
 30
0.0
 11
17.26641111017026
 21
48.04704756139683
 31
0.0
  0
SPLINE
  5
EA
330
1F
100
AcDbEntity
  8
Default
100
AcDbSpline
210
0.0
220
0.0
230
1.0
 70
     8
 71
     3
 72
    10
 73
     6
 74
     0
 42
0.0000000001
 43
0.0000000001
 40
-3.0
 40
-3.0
 40
-3.0
 40
-3.0
 40
-2.0
 40
-1.0
 40
0.0
 40
0.0
 40
0.0
 40
0.0
 10
17.26641111017026
 20
48.04704756139683
 30
0.0
 10
17.37339817133399
 20
47.8376360100677
 30
0.0
 10
17.34635304280217
 20
47.30807154049394
 30
0.0
 10
16.66203125389248
 20
46.90511061391626
 30
0.0
 10
16.18766359753813
 20
47.14563706453114
 30
0.0
 10
16.05532980742683
 20
47.33871839686311
 30
0.0
  0
POLYLINE
  5
EB
330
1F
100
AcDbEntity
  8
Default
100
AcDb2dPolyline
 66
     1
 10
0.0
 20
0.0
 30
0.0
  0
VERTEX
  5
EC
330
EB
100
AcDbEntity
  8
Default
100
AcDbVertex
100
AcDb2dVertex
 10
16.05532980742683
 20
47.33871839686311
 30
0.0
  0
VERTEX
  5
ED
330
EB
100
AcDbEntity
  8
Default
100
AcDbVertex
100
AcDb2dVertex
 10
15.58557848366695
 20
48.01988352078971
 30
0.0
  0
SEQEND
  5
EE
330
EB
100
AcDbEntity
  8
Default
  0
LINE
  5
EF
330
1F
100
AcDbEntity
  8
Default
100
AcDbLine
 10
15.58557848366695
 20
48.01988352078971
 30
0.0
 11
15.58521851891807
 21
48.02041895049424
 31
0.0
  0
LINE
  5
F0
330
1F
100
AcDbEntity
  8
Default
100
AcDbLine
 10
15.06065481922798
 20
68.5282828540753
 30
0.0
 11
15.0610021269815
 21
68.52978031919777
 31
0.0
  0
ARC
  5
F1
330
1F
100
AcDbEntity
  8
Default
100
AcDbCircle
 10
-54.91728627425129
 20
84.75987594889912
 30
0.0
 40
71.83576304122732
100
AcDbArc
 50
346.9422305912732
 51
349.8291989128251
  0
SPLINE
  5
F2
330
1F
100
AcDbEntity
  8
Default
100
AcDbSpline
210
0.0
220
0.0
230
1.0
 70
     8
 71
     3
 72
    10
 73
     6
 74
     0
 42
0.0000000001
 43
0.0000000001
 40
-3.0
 40
-3.0
 40
-3.0
 40
-3.0
 40
-2.0
 40
-1.0
 40
0.0
 40
0.0
 40
0.0
 40
0.0
 10
15.78962987383807
 20
72.07489031459815
 30
0.0
 10
15.83486093656626
 20
72.30968576534003
 30
0.0
 10
15.67743272708244
 20
72.8380554470899
 30
0.0
 10
14.87829199158102
 20
73.03144531220225
 30
0.0
 10
14.49185950770079
 20
72.64066139564795
 30
0.0
 10
14.42408713219226
 20
72.40803461169872
 30
0.0
  0
ARC
  5
F3
330
1F
100
AcDbEntity
  8
Default
100
AcDbCircle
 10
83.13592936897135
 20
51.32607004867193
 30
0.0
 40
71.87326688977436
100
AcDbArc
 50
162.9430938235596
 51
165.8632233401539
  0
LINE
  5
F4
330
1F
100
AcDbEntity
  8
Default
100
AcDbLine
 10
13.43931235409692
 20
68.88021685478735
 30
0.0
 11
13.43918671895555
 21
68.87971800058456
 31
0.0
  0
LINE
  5
F5
330
1F
100
AcDbEntity
  8
Default
100
AcDbLine
 10
-15.06065481922798
 20
68.5282828540753
 30
0.0
 11
-15.0610021269815
 21
68.52978031919777
 31
0.0
  0
ARC
  5
F6
330
1F
100
AcDbEntity
  8
Default
100
AcDbCircle
 10
54.91728627425129
 20
84.75987594889912
 30
0.0
 40
71.83576304122732
100
AcDbArc
 50
190.1708010871749
 51
193.0577694087267
  0
SPLINE
  5
F7
330
1F
100
AcDbEntity
  8
Default
100
AcDbSpline
210
0.0
220
0.0
230
1.0
 70
     8
 71
     3
 72
    10
 73
     6
 74
     0
 42
0.0000000001
 43
0.0000000001
 40
-3.0
 40
-3.0
 40
-3.0
 40
-3.0
 40
-2.0
 40
-1.0
 40
0.0
 40
0.0
 40
0.0
 40
0.0
 10
-15.78962987383807
 20
72.07489031459815
 30
0.0
 10
-15.83486093656626
 20
72.30968576534003
 30
0.0
 10
-15.67743272708244
 20
72.8380554470899
 30
0.0
 10
-14.87829199158102
 20
73.03144531220225
 30
0.0
 10
-14.49185950770079
 20
72.64066139564795
 30
0.0
 10
-14.42408713219226
 20
72.40803461169872
 30
0.0
  0
ARC
  5
F8
330
1F
100
AcDbEntity
  8
Default
100
AcDbCircle
 10
-83.13592936897135
 20
51.32607004867193
 30
0.0
 40
71.87326688977436
100
AcDbArc
 50
14.13677665984608
 51
17.05690617644038
  0
LINE
  5
F9
330
1F
100
AcDbEntity
  8
Default
100
AcDbLine
 10
-13.43931235409692
 20
68.88021685478735
 30
0.0
 11
-13.43918671895555
 21
68.87971800058456
 31
0.0
  0
LINE
  5
FA
330
1F
100
AcDbEntity
  8
Default
100
AcDbLine
 10
-17.04897723263138
 20
48.49372358811589
 30
0.0
 11
-17.26641111017026
 21
48.04704756139683
 31
0.0
  0
SPLINE
  5
FB
330
1F
100
AcDbEntity
  8
Default
100
AcDbSpline
210
0.0
220
0.0
230
1.0
 70
     8
 71
     3
 72
    10
 73
     6
 74
     0
 42
0.0000000001
 43
0.0000000001
 40
-3.0
 40
-3.0
 40
-3.0
 40
-3.0
 40
-2.0
 40
-1.0
 40
0.0
 40
0.0
 40
0.0
 40
0.0
 10
-17.26641111017026
 20
48.04704756139683
 30
0.0
 10
-17.37339817133399
 20
47.8376360100677
 30
0.0
 10
-17.34635304280217
 20
47.30807154049394
 30
0.0
 10
-16.66203125389248
 20
46.90511061391626
 30
0.0
 10
-16.18766359753813
 20
47.14563706453114
 30
0.0
 10
-16.05532980742683
 20
47.33871839686311
 30
0.0
  0
POLYLINE
  5
FC
330
1F
100
AcDbEntity
  8
Default
100
AcDb2dPolyline
 66
     1
 10
0.0
 20
0.0
 30
0.0
  0
VERTEX
  5
FD
330
FC
100
AcDbEntity
  8
Default
100
AcDbVertex
100
AcDb2dVertex
 10
-16.05532980742683
 20
47.33871839686311
 30
0.0
  0
VERTEX
  5
FE
330
FC
100
AcDbEntity
  8
Default
100
AcDbVertex
100
AcDb2dVertex
 10
-15.58557848366695
 20
48.01988352078971
 30
0.0
  0
SEQEND
  5
FF
330
FC
100
AcDbEntity
  8
Default
  0
LINE
  5
100
330
1F
100
AcDbEntity
  8
Default
100
AcDbLine
 10
-15.58557848366695
 20
48.01988352078971
 30
0.0
 11
-15.58521851891807
 21
48.02041895049424
 31
0.0
  0
ENDSEC
  0
SECTION
  2
OBJECTS
  0
DICTIONARY
  5
C
330
0
100
AcDbDictionary
281
     1
  3
ACAD_GROUP
350
D
  3
ACAD_LAYOUT
350
1A
  3
ACAD_MLEADERSTYLE
350
102
  3
ACAD_MLINESTYLE
350
17
  3
ACAD_PLOTSETTINGS
350
19
  3
ACAD_PLOTSTYLENAME
350
E
  3
ACAD_TABLESTYLE
350
101
  3
ACAD_VISUALSTYLE
350
2A
  0
DICTIONARY
  5
D
102
{ACAD_REACTORS
330
C
102
}
330
C
100
AcDbDictionary
281
     1
  0
DICTIONARY
  5
1A
102
{ACAD_REACTORS
330
C
102
}
330
C
100
AcDbDictionary
281
     1
  3
Layout1
350
1E
  3
Layout2
350
26
  3
Model
350
22
  0
DICTIONARY
  5
102
102
{ACAD_REACTORS
330
C
102
}
330
C
100
AcDbDictionary
281
     1
  0
DICTIONARY
  5
17
102
{ACAD_REACTORS
330
C
102
}
330
C
100
AcDbDictionary
281
     1
  3
Standard
350
18
  0
DICTIONARY
  5
19
102
{ACAD_REACTORS
330
C
102
}
330
C
100
AcDbDictionary
281
     1
  0
ACDBDICTIONARYWDFLT
  5
E
102
{ACAD_REACTORS
330
C
102
}
330
C
100
AcDbDictionary
281
     1
  3
Normal
350
F
100
AcDbDictionaryWithDefault
340
F
  0
DICTIONARY
  5
101
102
{ACAD_REACTORS
330
C
102
}
330
C
100
AcDbDictionary
281
     1
  0
DICTIONARY
  5
2A
102
{ACAD_REACTORS
330
C
102
}
330
C
100
AcDbDictionary
281
     1
  3
2dWireframe
350
2F
  3
3D Hidden
350
31
  3
3dWireframe
350
30
  3
Basic
350
32
  3
Brighten
350
36
  3
ColorChange
350
3A
  3
Conceptual
350
34
  3
Dim
350
35
  3
Facepattern
350
39
  3
Flat
350
2B
  3
FlatWithEdges
350
2C
  3
Gouraud
350
2D
  3
GouraudWithEdges
350
2E
  3
Linepattern
350
38
  3
Realistic
350
33
  3
Thicken
350
37
  0
LAYOUT
  5
1E
102
{ACAD_REACTORS
330
1A
102
}
330
1A
100
AcDbPlotSettings
  1

  2
none_device
  4

  6

 40
0.0
 41
0.0
 42
0.0
 43
0.0
 44
0.0
 45
0.0
 46
0.0
 47
0.0
 48
0.0
 49
0.0
140
0.0
141
0.0
142
1.0
143
1.0
 70
   688
 72
     0
 73
     0
 74
     5
  7

 75
    16
 76
     0
 77
     2
 78
   300
147
1.0
148
0.0
149
0.0
100
AcDbLayout
  1
Layout1
 70
     1
 71
     1
 10
0.0
 20
0.0
 11
12.0
 21
9.0
 12
0.0
 22
0.0
 32
0.0
 14
1.000000000000000E+20
 24
1.000000000000000E+20
 34
1.000000000000000E+20
 15
-1.000000000000000E+20
 25
-1.000000000000000E+20
 35
-1.000000000000000E+20
146
0.0
 13
0.0
 23
0.0
 33
0.0
 16
1.0
 26
0.0
 36
0.0
 17
0.0
 27
1.0
 37
0.0
 76
     0
330
1B
  0
LAYOUT
  5
26
102
{ACAD_REACTORS
330
1A
102
}
330
1A
100
AcDbPlotSettings
  1

  2
none_device
  4

  6

 40
0.0
 41
0.0
 42
0.0
 43
0.0
 44
0.0
 45
0.0
 46
0.0
 47
0.0
 48
0.0
 49
0.0
140
0.0
141
0.0
142
1.0
143
1.0
 70
   688
 72
     0
 73
     0
 74
     5
  7

 75
    16
 76
     0
 77
     2
 78
   300
147
1.0
148
0.0
149
0.0
100
AcDbLayout
  1
Layout2
 70
     1
 71
     2
 10
0.0
 20
0.0
 11
0.0
 21
0.0
 12
0.0
 22
0.0
 32
0.0
 14
0.0
 24
0.0
 34
0.0
 15
0.0
 25
0.0
 35
0.0
146
0.0
 13
0.0
 23
0.0
 33
0.0
 16
1.0
 26
0.0
 36
0.0
 17
0.0
 27
1.0
 37
0.0
 76
     0
330
23
  0
LAYOUT
  5
22
102
{ACAD_REACTORS
330
1A
102
}
330
1A
100
AcDbPlotSettings
  1

  2
none_device
  4

  6

 40
0.0
 41
0.0
 42
0.0
 43
0.0
 44
0.0
 45
0.0
 46
0.0
 47
0.0
 48
0.0
 49
0.0
140
0.0
141
0.0
142
1.0
143
1.0
 70
  1712
 72
     0
 73
     0
 74
     0
  7

 75
     0
 76
     0
 77
     2
 78
   300
147
1.0
148
0.0
149
0.0
100
AcDbLayout
  1
Model
 70
     1
 71
     0
 10
0.0
 20
0.0
 11
12.0
 21
9.0
 12
0.0
 22
0.0
 32
0.0
 14
-17.85687123730261
 24
0.000000116452398
 34
0.0
 15
62.40698029791875
 25
76.83287033764896
 35
0.0
146
0.0
 13
0.0
 23
0.0
 33
0.0
 16
1.0
 26
0.0
 36
0.0
 17
0.0
 27
1.0
 37
0.0
 76
     0
330
1F
331
29
  0
MLINESTYLE
  5
18
102
{ACAD_REACTORS
330
17
102
}
330
17
100
AcDbMlineStyle
  2
Standard
 70
     0
  3

 62
   256
 51
90.0
 52
90.0
 71
     2
 49
0.5
 62
   256
  6
BYLAYER
 49
-0.5
 62
   256
  6
BYLAYER
  0
ACDBPLACEHOLDER
  5
F
102
{ACAD_REACTORS
330
E
102
}
330
E
  0
VISUALSTYLE
  5
2F
102
{ACAD_REACTORS
330
2A
102
}
330
2A
100
AcDbVisualStyle
  2
2dWireframe
 70
     4
 71
     0
 72
     2
 73
     0
 90
        0
 40
-0.6
 41
-30.0
 62
     5
 63
     7
421
 16777215
 74
     1
 91
        4
 64
     7
 65
   257
 75
     1
175
     1
 42
1.0
 92
        0
 66
   257
 43
1.0
 76
     1
 77
     6
 78
     2
 67
     7
 79
     5
170
     0
171
     0
290
     0
174
     0
 93
        1
 44
0.0
173
     0
291
     0
 45
0.0
1001
ACAD
1000
AcDbSavedByObjectVersion
1070
     0
  0
VISUALSTYLE
  5
31
102
{ACAD_REACTORS
330
2A
102
}
330
2A
100
AcDbVisualStyle
  2
3D Hidden
 70
     6
 71
     1
 72
     2
 73
     2
 90
        0
 40
-0.6
 41
-30.0
 62
     5
 63
     7
421
 16777215
 74
     2
 91
        2
 64
     7
 65
   257
 75
     2
175
     1
 42
40.0
 92
        0
 66
   257
 43
1.0
 76
     1
 77
     6
 78
     2
 67
     7
 79
     3
170
     0
171
     0
290
     0
174
     0
 93
        1
 44
0.0
173
     0
291
     0
 45
0.0
1001
ACAD
1000
AcDbSavedByObjectVersion
1070
     0
  0
VISUALSTYLE
  5
30
102
{ACAD_REACTORS
330
2A
102
}
330
2A
100
AcDbVisualStyle
  2
3dWireframe
 70
     5
 71
     0
 72
     2
 73
     0
 90
        0
 40
-0.6
 41
-30.0
 62
     5
 63
     7
421
 16777215
 74
     1
 91
        4
 64
     7
 65
   257
 75
     1
175
     1
 42
1.0
 92
        0
 66
   257
 43
1.0
 76
     1
 77
     6
 78
     2
 67
     7
 79
     5
170
     0
171
     0
290
     0
174
     0
 93
        1
 44
0.0
173
     0
291
     0
 45
0.0
1001
ACAD
1000
AcDbSavedByObjectVersion
1070
     0
  0
VISUALSTYLE
  5
32
102
{ACAD_REACTORS
330
2A
102
}
330
2A
100
AcDbVisualStyle
  2
Basic
 70
     7
 71
     1
 72
     0
 73
     1
 90
        0
 40
-0.6
 41
-30.0
 62
     5
 63
     7
421
 16777215
 74
     0
 91
        4
 64
     7
 65
   257
 75
     1
175
     1
 42
1.0
 92
        8
 66
     7
 43
1.0
 76
     1
 77
     6
 78
     2
 67
     7
 79
     5
170
     0
171
     0
290
     0
174
     0
 93
        1
 44
0.0
173
     0
291
     1
 45
0.0
1001
ACAD
1000
AcDbSavedByObjectVersion
1070
     0
  0
VISUALSTYLE
  5
36
102
{ACAD_REACTORS
330
2A
102
}
330
2A
100
AcDbVisualStyle
  2
Brighten
 70
    12
 71
     2
 72
     2
 73
     0
 90
        0
 40
-0.6
 41
-30.0
 62
     5
 63
     7
421
 16777215
 74
     1
 91
        4
 64
     7
 65
   257
 75
     1
175
     1
 42
1.0
 92
        8
 66
     7
 43
1.0
 76
     1
 77
     6
 78
     2
 67
     7
 79
     5
170
     0
171
     0
290
     0
174
     0
 93
        1
 44
50.0
173
     0
291
     1
 45
0.0
1001
ACAD
1000
AcDbSavedByObjectVersion
1070
     0
  0
VISUALSTYLE
  5
3A
102
{ACAD_REACTORS
330
2A
102
}
330
2A
100
AcDbVisualStyle
  2
ColorChange
 70
    16
 71
     2
 72
     2
 73
     3
 90
        0
 40
-0.6
 41
-30.0
 62
     5
 63
     8
421
  8421504
 74
     1
 91
        4
 64
     7
 65
   257
 75
     1
175
     1
 42
1.0
 92
        8
 66
     8
424
  8421504
 43
1.0
 76
     1
 77
     6
 78
     2
 67
     7
 79
     5
170
     0
171
     0
290
     0
174
     0
 93
        1
 44
0.0
173
     0
291
     1
 45
0.0
1001
ACAD
1000
AcDbSavedByObjectVersion
1070
     0
  0
VISUALSTYLE
  5
34
102
{ACAD_REACTORS
330
2A
102
}
330
2A
100
AcDbVisualStyle
  2
Conceptual
 70
     9
 71
     3
 72
     2
 73
     0
 90
        0
 40
-0.6
 41
-30.0
 62
     5
 63
     7
421
 16777215
 74
     2
 91
        2
 64
     7
 65
   257
 75
     1
175
     1
 42
40.0
 92
        8
 66
     7
 43
1.0
 76
     1
 77
     6
 78
     2
 67
     7
 79
     3
170
     0
171
     0
290
     0
174
     0
 93
        1
 44
0.0
173
     0
291
     0
 45
0.0
1001
ACAD
1000
AcDbSavedByObjectVersion
1070
     0
  0
VISUALSTYLE
  5
35
102
{ACAD_REACTORS
330
2A
102
}
330
2A
100
AcDbVisualStyle
  2
Dim
 70
    11
 71
     2
 72
     2
 73
     0
 90
        0
 40
-0.6
 41
-30.0
 62
     5
 63
     7
421
 16777215
 74
     1
 91
        4
 64
     7
 65
   257
 75
     1
175
     1
 42
1.0
 92
        8
 66
     7
 43
1.0
 76
     1
 77
     6
 78
     2
 67
     7
 79
     5
170
     0
171
     0
290
     0
174
     0
 93
        1
 44
-50.0
173
     0
291
     1
 45
0.0
1001
ACAD
1000
AcDbSavedByObjectVersion
1070
     0
  0
VISUALSTYLE
  5
39
102
{ACAD_REACTORS
330
2A
102
}
330
2A
100
AcDbVisualStyle
  2
Facepattern
 70
    15
 71
     2
 72
     2
 73
     0
 90
        0
 40
-0.6
 41
-30.0
 62
     5
 63
     7
421
 16777215
 74
     1
 91
        4
 64
     7
 65
   257
 75
     1
175
     1
 42
1.0
 92
        8
 66
     7
 43
1.0
 76
     1
 77
     6
 78
     2
 67
     7
 79
     5
170
     0
171
     0
290
     0
174
     0
 93
        1
 44
0.0
173
     0
291
     1
 45
0.0
1001
ACAD
1000
AcDbSavedByObjectVersion
1070
     0
  0
VISUALSTYLE
  5
2B
102
{ACAD_REACTORS
330
2A
102
}
330
2A
100
AcDbVisualStyle
  2
Flat
 70
     0
 71
     2
 72
     1
 73
     1
 90
        2
 40
-0.6
 41
30.0
 62
     5
 63
     7
421
 16777215
 74
     0
 91
        4
 64
     7
 65
   257
 75
     1
175
     1
 42
1.0
 92
        8
 66
     7
 43
1.0
 76
     1
 77
     6
 78
     2
 67
     7
 79
     5
170
     0
171
     0
290
     0
174
     0
 93
       13
 44
0.0
173
     0
291
     1
 45
0.0
1001
ACAD
1000
AcDbSavedByObjectVersion
1070
     0
  0
VISUALSTYLE
  5
2C
102
{ACAD_REACTORS
330
2A
102
}
330
2A
100
AcDbVisualStyle
  2
FlatWithEdges
 70
     1
 71
     2
 72
     1
 73
     1
 90
        2
 40
-0.6
 41
30.0
 62
     5
 63
     7
421
 16777215
 74
     1
 91
        4
 64
     7
 65
   257
 75
     1
175
     1
 42
1.0
 92
        0
 66
   257
 43
1.0
 76
     1
 77
     6
 78
     2
 67
     7
 79
     5
170
     0
171
     0
290
     0
174
     0
 93
       13
 44
0.0
173
     0
291
     1
 45
0.0
1001
ACAD
1000
AcDbSavedByObjectVersion
1070
     0
  0
VISUALSTYLE
  5
2D
102
{ACAD_REACTORS
330
2A
102
}
330
2A
100
AcDbVisualStyle
  2
Gouraud
 70
     2
 71
     2
 72
     2
 73
     1
 90
        2
 40
-0.6
 41
30.0
 62
     5
 63
     7
421
 16777215
 74
     0
 91
        4
 64
     7
 65
   257
 75
     1
175
     1
 42
1.0
 92
        0
 66
     7
 43
1.0
 76
     1
 77
     6
 78
     2
 67
     7
 79
     5
170
     0
171
     0
290
     0
174
     0
 93
       13
 44
0.0
173
     0
291
     1
 45
0.0
1001
ACAD
1000
AcDbSavedByObjectVersion
1070
     0
  0
VISUALSTYLE
  5
2E
102
{ACAD_REACTORS
330
2A
102
}
330
2A
100
AcDbVisualStyle
  2
GouraudWithEdges
 70
     3
 71
     2
 72
     2
 73
     1
 90
        2
 40
-0.6
 41
30.0
 62
     5
 63
     7
421
 16777215
 74
     1
 91
        4
 64
     7
 65
   257
 75
     1
175
     1
 42
1.0
 92
        0
 66
   257
 43
1.0
 76
     1
 77
     6
 78
     2
 67
     7
 79
     5
170
     0
171
     0
290
     0
174
     0
 93
       13
 44
0.0
173
     0
291
     1
 45
0.0
1001
ACAD
1000
AcDbSavedByObjectVersion
1070
     0
  0
VISUALSTYLE
  5
38
102
{ACAD_REACTORS
330
2A
102
}
330
2A
100
AcDbVisualStyle
  2
Linepattern
 70
    14
 71
     2
 72
     2
 73
     0
 90
        0
 40
-0.6
 41
-30.0
 62
     5
 63
     7
421
 16777215
 74
     1
 91
        4
 64
     7
 65
   257
 75
     7
175
     7
 42
1.0
 92
        8
 66
     7
 43
1.0
 76
     1
 77
     6
 78
     2
 67
     7
 79
     5
170
     0
171
     0
290
     0
174
     0
 93
        1
 44
0.0
173
     0
291
     1
 45
0.0
1001
ACAD
1000
AcDbSavedByObjectVersion
1070
     0
  0
VISUALSTYLE
  5
33
102
{ACAD_REACTORS
330
2A
102
}
330
2A
100
AcDbVisualStyle
  2
Realistic
 70
     8
 71
     2
 72
     2
 73
     0
 90
        0
 40
-0.6
 41
-30.0
 62
     5
 63
     7
421
 16777215
 74
     1
 91
        0
 64
     7
 65
   257
 75
     1
175
     1
 42
1.0
 92
        8
 66
     8
424
  7895160
 43
1.0
 76
     1
 77
     6
 78
     2
 67
     7
 79
     5
170
     0
171
     0
290
     0
174
     0
 93
       13
 44
0.0
173
     0
291
     0
 45
0.0
1001
ACAD
1000
AcDbSavedByObjectVersion
1070
     0
  0
VISUALSTYLE
  5
37
102
{ACAD_REACTORS
330
2A
102
}
330
2A
100
AcDbVisualStyle
  2
Thicken
 70
    13
 71
     2
 72
     2
 73
     0
 90
        0
 40
-0.6
 41
-30.0
 62
     5
 63
     7
421
 16777215
 74
     1
 91
        4
 64
     7
 65
   257
 75
     1
175
     1
 42
1.0
 92
       12
 66
     7
 43
1.0
 76
     1
 77
     6
 78
     2
 67
     7
 79
     5
170
     0
171
     0
290
     0
174
     0
 93
        1
 44
0.0
173
     0
291
     1
 45
0.0
1001
ACAD
1000
AcDbSavedByObjectVersion
1070
     0
  0
ENDSEC
  0
EOF
