  0
SECTION
  2
HEADER
  9
$ACADVER
  1
AC1018
  9
$ACADMAINTVER
 70
     0
  9
$DWGCODEPAGE
  3
ANSI_1252
  9
$INSBASE
 10
0.0
 20
0.0
 30
0.0
  9
$EXTMIN
 10
-31.75000861649789
 20
-0.0000000002171134
 30
0.0
  9
$EXTMAX
 10
72.20086322058455
 20
65.13795852298665
 30
0.0
  9
$LIMMIN
 10
0.0
 20
0.0
  9
$LIMMAX
 10
12.0
 20
9.0
  9
$ORTHOMODE
 70
     0
  9
$REGENMODE
 70
     1
  9
$FILLMODE
 70
     1
  9
$QTEXTMODE
 70
     0
  9
$MIRRTEXT
 70
     1
  9
$LTSCALE
 40
0.0393700787401575
  9
$ATTMODE
 70
     1
  9
$TEXTSIZE
 40
0.2
  9
$TRACEWID
 40
0.05
  9
$TEXTSTYLE
  7
Standard
  9
$CLAYER
  8
Default
  9
$CELTYPE
  6
ByLayer
  9
$CECOLOR
 62
   256
  9
$CELTSCALE
 40
1.0
  9
$DISPSILH
 70
     0
  9
$DIMSCALE
 40
1.0
  9
$DIMASZ
 40
0.18
  9
$DIMEXO
 40
0.0625
  9
$DIMDLI
 40
0.38
  9
$DIMRND
 40
0.0
  9
$DIMDLE
 40
0.0
  9
$DIMEXE
 40
0.18
  9
$DIMTP
 40
0.0
  9
$DIMTM
 40
0.0
  9
$DIMTXT
 40
0.18
  9
$DIMCEN
 40
0.09
  9
$DIMTSZ
 40
0.0
  9
$DIMTOL
 70
     0
  9
$DIMLIM
 70
     0
  9
$DIMTIH
 70
     1
  9
$DIMTOH
 70
     1
  9
$DIMSE1
 70
     0
  9
$DIMSE2
 70
     0
  9
$DIMTAD
 70
     0
  9
$DIMZIN
 70
     0
  9
$DIMBLK
  1

  9
$DIMASO
 70
     1
  9
$DIMSHO
 70
     1
  9
$DIMPOST
  1

  9
$DIMAPOST
  1

  9
$DIMALT
 70
     0
  9
$DIMALTD
 70
     2
  9
$DIMALTF
 40
25.4
  9
$DIMLFAC
 40
1.0
  9
$DIMTOFL
 70
     0
  9
$DIMTVP
 40
0.0
  9
$DIMTIX
 70
     0
  9
$DIMSOXD
 70
     0
  9
$DIMSAH
 70
     0
  9
$DIMBLK1
  1

  9
$DIMBLK2
  1

  9
$DIMSTYLE
  2
Standard
  9
$DIMCLRD
 70
     0
  9
$DIMCLRE
 70
     0
  9
$DIMCLRT
 70
     0
  9
$DIMTFAC
 40
1.0
  9
$DIMGAP
 40
0.09
  9
$DIMJUST
 70
     0
  9
$DIMSD1
 70
     0
  9
$DIMSD2
 70
     0
  9
$DIMTOLJ
 70
     1
  9
$DIMTZIN
 70
     0
  9
$DIMALTZ
 70
     0
  9
$DIMALTTZ
 70
     0
  9
$DIMUPT
 70
     0
  9
$DIMDEC
 70
     4
  9
$DIMTDEC
 70
     4
  9
$DIMALTU
 70
     2
  9
$DIMALTTD
 70
     2
  9
$DIMTXSTY
  7
Standard
  9
$DIMAUNIT
 70
     0
  9
$DIMADEC
 70
     0
  9
$DIMALTRND
 40
0.0
  9
$DIMAZIN
 70
     0
  9
$DIMDSEP
 70
    46
  9
$DIMATFIT
 70
     3
  9
$DIMFRAC
 70
     0
  9
$DIMLDRBLK
  1

  9
$DIMLUNIT
 70
     2
  9
$DIMLWD
 70
    -2
  9
$DIMLWE
 70
    -2
  9
$DIMTMOVE
 70
     2
  9
$LUNITS
 70
     2
  9
$LUPREC
 70
     3
  9
$SKETCHINC
 40
0.1
  9
$FILLETRAD
 40
0.5
  9
$AUNITS
 70
     0
  9
$AUPREC
 70
     0
  9
$MENU
  1
.
  9
$ELEVATION
 40
0.0
  9
$PELEVATION
 40
0.0
  9
$THICKNESS
 40
0.0
  9
$LIMCHECK
 70
     0
  9
$CHAMFERA
 40
0.5
  9
$CHAMFERB
 40
0.5
  9
$CHAMFERC
 40
1.0
  9
$CHAMFERD
 40
0.0
  9
$SKPOLY
 70
     0
  9
$TDCREATE
 40
2458148.918758797
  9
$TDUCREATE
 40
2458149.12709213
  9
$TDUPDATE
 40
2458148.918758808
  9
$TDUUPDATE
 40
2458149.127092141
  9
$TDINDWG
 40
0.0000000116
  9
$TDUSRTIMER
 40
0.0000000116
  9
$USRTIMER
 70
     1
  9
$ANGBASE
 50
0.0
  9
$ANGDIR
 70
     0
  9
$PDMODE
 70
     0
  9
$PDSIZE
 40
0.0
  9
$PLINEWID
 40
0.0
  9
$SPLFRAME
 70
     0
  9
$SPLINETYPE
 70
     6
  9
$SPLINESEGS
 70
     8
  9
$HANDSEED
  5
F8
  9
$SURFTAB1
 70
     6
  9
$SURFTAB2
 70
     6
  9
$SURFTYPE
 70
     6
  9
$SURFU
 70
     6
  9
$SURFV
 70
     6
  9
$UCSBASE
  2

  9
$UCSNAME
  2

  9
$UCSORG
 10
0.0
 20
0.0
 30
0.0
  9
$UCSXDIR
 10
1.0
 20
0.0
 30
0.0
  9
$UCSYDIR
 10
0.0
 20
1.0
 30
0.0
  9
$UCSORTHOREF
  2

  9
$UCSORTHOVIEW
 70
     0
  9
$UCSORGTOP
 10
0.0
 20
0.0
 30
0.0
  9
$UCSORGBOTTOM
 10
0.0
 20
0.0
 30
0.0
  9
$UCSORGLEFT
 10
0.0
 20
0.0
 30
0.0
  9
$UCSORGRIGHT
 10
0.0
 20
0.0
 30
0.0
  9
$UCSORGFRONT
 10
0.0
 20
0.0
 30
0.0
  9
$UCSORGBACK
 10
0.0
 20
0.0
 30
0.0
  9
$PUCSBASE
  2

  9
$PUCSNAME
  2

  9
$PUCSORG
 10
0.0
 20
0.0
 30
0.0
  9
$PUCSXDIR
 10
1.0
 20
0.0
 30
0.0
  9
$PUCSYDIR
 10
0.0
 20
1.0
 30
0.0
  9
$PUCSORTHOREF
  2

  9
$PUCSORTHOVIEW
 70
     0
  9
$PUCSORGTOP
 10
0.0
 20
0.0
 30
0.0
  9
$PUCSORGBOTTOM
 10
0.0
 20
0.0
 30
0.0
  9
$PUCSORGLEFT
 10
0.0
 20
0.0
 30
0.0
  9
$PUCSORGRIGHT
 10
0.0
 20
0.0
 30
0.0
  9
$PUCSORGFRONT
 10
0.0
 20
0.0
 30
0.0
  9
$PUCSORGBACK
 10
0.0
 20
0.0
 30
0.0
  9
$USERI1
 70
     0
  9
$USERI2
 70
     0
  9
$USERI3
 70
     0
  9
$USERI4
 70
     0
  9
$USERI5
 70
     0
  9
$USERR1
 40
0.0
  9
$USERR2
 40
0.0
  9
$USERR3
 40
0.0
  9
$USERR4
 40
0.0
  9
$USERR5
 40
0.0
  9
$WORLDVIEW
 70
     1
  9
$SHADEDGE
 70
     3
  9
$SHADEDIF
 70
    70
  9
$TILEMODE
 70
     1
  9
$MAXACTVP
 70
    64
  9
$PINSBASE
 10
0.0
 20
0.0
 30
0.0
  9
$PLIMCHECK
 70
     0
  9
$PEXTMIN
 10
1.000000000000000E+20
 20
1.000000000000000E+20
 30
1.000000000000000E+20
  9
$PEXTMAX
 10
-1.000000000000000E+20
 20
-1.000000000000000E+20
 30
-1.000000000000000E+20
  9
$PLIMMIN
 10
0.0
 20
0.0
  9
$PLIMMAX
 10
12.0
 20
9.0
  9
$UNITMODE
 70
     0
  9
$VISRETAIN
 70
     1
  9
$PLINEGEN
 70
     0
  9
$PSLTSCALE
 70
     1
  9
$TREEDEPTH
 70
  3020
  9
$CMLSTYLE
  2
Standard
  9
$CMLJUST
 70
     0
  9
$CMLSCALE
 40
1.0
  9
$PROXYGRAPHICS
 70
     1
  9
$MEASUREMENT
 70
     0
  9
$CELWEIGHT
370
    -1
  9
$ENDCAPS
280
     0
  9
$JOINSTYLE
280
     0
  9
$LWDISPLAY
290
     0
  9
$INSUNITS
 70
     1
  9
$HYPERLINKBASE
  1

  9
$STYLESHEET
  1

  9
$XEDIT
290
     1
  9
$CEPSNTYPE
380
     0
  9
$PSTYLEMODE
290
     1
  9
$FINGERPRINTGUID
  2
{2A25629B-FC28-4229-9355-10609CC1ADD9}
  9
$VERSIONGUID
  2
{FAEB1C32-E019-11D5-929B-00C0DF256EC4}
  9
$EXTNAMES
290
     1
  9
$PSVPSCALE
 40
0.0
  9
$OLESTARTUP
290
     0
  9
$SORTENTS
280
   127
  9
$INDEXCTL
280
     0
  9
$HIDETEXT
280
     1
  9
$XCLIPFRAME
290
     0
  9
$HALOGAP
280
     0
  9
$OBSCOLOR
 70
   257
  9
$OBSLTYPE
280
     0
  9
$INTERSECTIONDISPLAY
280
     0
  9
$INTERSECTIONCOLOR
 70
   257
  9
$DIMASSOC
280
     2
  9
$PROJECTNAME
  1

  0
ENDSEC
  0
SECTION
  2
CLASSES
  0
CLASS
  1
ACDBDICTIONARYWDFLT
  2
AcDbDictionaryWithDefault
  3
ObjectDBX Classes
 90
        0
 91
        4
280
     0
281
     0
  0
CLASS
  1
VISUALSTYLE
  2
AcDbVisualStyle
  3
ObjectDBX Classes
 90
     4095
 91
        4
280
     0
281
     0
  0
ENDSEC
  0
SECTION
  2
TABLES
  0
TABLE
  2
VPORT
  5
8
330
0
100
AcDbSymbolTable
 70
     1
  0
VPORT
  5
29
330
8
100
AcDbSymbolTableRecord
100
AcDbViewportTableRecord
  2
*Active
 70
     0
 10
0.0
 20
0.0
 11
1.0
 21
1.0
 12
20.22542730204333
 22
32.56897926138477
 13
0.0
 23
0.0
 14
0.5
 24
0.5
 15
0.5
 25
0.5
 16
0.0
 26
0.0
 36
1.0
 17
0.0
 27
0.0
 37
0.0
 40
66.44071769366784
 41
1.595857073108187
 42
50.0
 43
0.0
 44
0.0
 50
0.0
 51
0.0
 71
     0
 72
   100
 73
     1
 74
     3
 75
     0
 76
     0
 77
     0
 78
     0
281
     0
 65
     1
110
0.0
120
0.0
130
0.0
111
1.0
121
0.0
131
0.0
112
0.0
122
1.0
132
0.0
 79
     0
146
0.0
  0
ENDTAB
  0
TABLE
  2
LTYPE
  5
5
330
0
100
AcDbSymbolTable
 70
     1
  0
LTYPE
  5
14
330
5
100
AcDbSymbolTableRecord
100
AcDbLinetypeTableRecord
  2
ByBlock
 70
     0
  3

 72
    65
 73
     0
 40
0.0
  0
LTYPE
  5
15
330
5
100
AcDbSymbolTableRecord
100
AcDbLinetypeTableRecord
  2
ByLayer
 70
     0
  3

 72
    65
 73
     0
 40
0.0
  0
LTYPE
  5
16
330
5
100
AcDbSymbolTableRecord
100
AcDbLinetypeTableRecord
  2
Continuous
 70
     0
  3
Solid line
 72
    65
 73
     0
 40
0.0
  0
ENDTAB
  0
TABLE
  2
LAYER
  5
2
330
0
100
AcDbSymbolTable
 70
     2
  0
LAYER
  5
10
330
2
100
AcDbSymbolTableRecord
100
AcDbLayerTableRecord
  2
0
 70
     0
 62
     7
  6
Continuous
370
    -3
390
F
  0
LAYER
  5
3B
330
2
100
AcDbSymbolTableRecord
100
AcDbLayerTableRecord
  2
Default
 70
     0
 62
     7
  6
Continuous
370
    -3
390
F
  0
ENDTAB
  0
TABLE
  2
STYLE
  5
3
330
0
100
AcDbSymbolTable
 70
     1
  0
STYLE
  5
11
330
3
100
AcDbSymbolTableRecord
100
AcDbTextStyleTableRecord
  2
Standard
 70
     0
 40
0.0
 41
1.0
 50
0.0
 71
     0
 42
0.2
  3
txt
  4

  0
ENDTAB
  0
TABLE
  2
VIEW
  5
6
330
0
100
AcDbSymbolTable
 70
     0
  0
ENDTAB
  0
TABLE
  2
UCS
  5
7
330
0
100
AcDbSymbolTable
 70
     0
  0
ENDTAB
  0
TABLE
  2
APPID
  5
9
330
0
100
AcDbSymbolTable
 70
     1
  0
APPID
  5
12
330
9
100
AcDbSymbolTableRecord
100
AcDbRegAppTableRecord
  2
ACAD
 70
     0
  0
ENDTAB
  0
TABLE
  2
DIMSTYLE
  5
A
330
0
100
AcDbSymbolTable
 70
     1
100
AcDbDimStyleTable
  0
DIMSTYLE
105
27
330
A
100
AcDbSymbolTableRecord
100
AcDbDimStyleTableRecord
  2
Standard
 70
     0
340
11
  0
ENDTAB
  0
TABLE
  2
BLOCK_RECORD
  5
1
330
0
100
AcDbSymbolTable
 70
     1
  0
BLOCK_RECORD
  5
1F
330
1
100
AcDbSymbolTableRecord
100
AcDbBlockTableRecord
  2
*Model_Space
340
22
  0
BLOCK_RECORD
  5
1B
330
1
100
AcDbSymbolTableRecord
100
AcDbBlockTableRecord
  2
*Paper_Space
340
1E
  0
BLOCK_RECORD
  5
23
330
1
100
AcDbSymbolTableRecord
100
AcDbBlockTableRecord
  2
*Paper_Space0
340
26
  0
ENDTAB
  0
ENDSEC
  0
SECTION
  2
BLOCKS
  0
BLOCK
  5
20
330
1F
100
AcDbEntity
  8
0
100
AcDbBlockBegin
  2
*Model_Space
 70
     0
 10
0.0
 20
0.0
 30
0.0
  3
*Model_Space
  1

  0
ENDBLK
  5
21
330
1F
100
AcDbEntity
  8
0
100
AcDbBlockEnd
  0
BLOCK
  5
1C
330
1B
100
AcDbEntity
 67
     1
  8
0
100
AcDbBlockBegin
  2
*Paper_Space
 70
     0
 10
0.0
 20
0.0
 30
0.0
  3
*Paper_Space
  1

  0
ENDBLK
  5
1D
330
1B
100
AcDbEntity
 67
     1
  8
0
100
AcDbBlockEnd
  0
BLOCK
  5
24
330
23
100
AcDbEntity
  8
0
100
AcDbBlockBegin
  2
*Paper_Space0
 70
     0
 10
0.0
 20
0.0
 30
0.0
  3
*Paper_Space0
  1

  0
ENDBLK
  5
25
330
23
100
AcDbEntity
  8
0
100
AcDbBlockEnd
  0
ENDSEC
  0
SECTION
  2
ENTITIES
  0
POLYLINE
  5
3C
330
1F
100
AcDbEntity
  8
Default
100
AcDb2dPolyline
 66
     1
 10
0.0
 20
0.0
 30
0.0
  0
VERTEX
  5
3D
330
3C
100
AcDbEntity
  8
Default
100
AcDbVertex
100
AcDb2dVertex
 10
7.552117958901476
 20
40.1879585229858
 30
0.0
  0
VERTEX
  5
3E
330
3C
100
AcDbEntity
  8
Default
100
AcDbVertex
100
AcDb2dVertex
 10
30.95211795890145
 20
40.1879585229858
 30
0.0
  0
SEQEND
  5
3F
330
3C
100
AcDbEntity
  8
Default
  0
ARC
  5
40
330
1F
100
AcDbEntity
  8
Default
100
AcDbCircle
 10
30.95211795890145
 20
40.9379585229858
 30
0.0
 40
0.75
100
AcDbArc
 50
270.0
 51
0.0000000000005428
  0
POLYLINE
  5
41
330
1F
100
AcDbEntity
  8
Default
100
AcDb2dPolyline
 66
     1
 10
0.0
 20
0.0
 30
0.0
  0
VERTEX
  5
42
330
41
100
AcDbEntity
  8
Default
100
AcDbVertex
100
AcDb2dVertex
 10
31.70211795890145
 20
40.9379585229858
 30
0.0
  0
VERTEX
  5
43
330
41
100
AcDbEntity
  8
Default
100
AcDbVertex
100
AcDb2dVertex
 10
31.70211795890145
 20
64.33795852298579
 30
0.0
  0
SEQEND
  5
44
330
41
100
AcDbEntity
  8
Default
  0
ARC
  5
45
330
1F
100
AcDbEntity
  8
Default
100
AcDbCircle
 10
30.95211795890145
 20
64.33795852298579
 30
0.0
 40
0.75
100
AcDbArc
 50
0.0
 51
90.00000000000028
  0
POLYLINE
  5
46
330
1F
100
AcDbEntity
  8
Default
100
AcDb2dPolyline
 66
     1
 10
0.0
 20
0.0
 30
0.0
  0
VERTEX
  5
47
330
46
100
AcDbEntity
  8
Default
100
AcDbVertex
100
AcDb2dVertex
 10
30.95211795890145
 20
65.08795852298579
 30
0.0
  0
VERTEX
  5
48
330
46
100
AcDbEntity
  8
Default
100
AcDbVertex
100
AcDb2dVertex
 10
7.552117958901476
 20
65.08795852298579
 30
0.0
  0
SEQEND
  5
49
330
46
100
AcDbEntity
  8
Default
  0
ARC
  5
4A
330
1F
100
AcDbEntity
  8
Default
100
AcDbCircle
 10
7.552117958901476
 20
64.33795852298579
 30
0.0
 40
0.75
100
AcDbArc
 50
90.0
 51
180.0
  0
POLYLINE
  5
4B
330
1F
100
AcDbEntity
  8
Default
100
AcDb2dPolyline
 66
     1
 10
0.0
 20
0.0
 30
0.0
  0
VERTEX
  5
4C
330
4B
100
AcDbEntity
  8
Default
100
AcDbVertex
100
AcDb2dVertex
 10
6.802117958901476
 20
64.33795852298579
 30
0.0
  0
VERTEX
  5
4D
330
4B
100
AcDbEntity
  8
Default
100
AcDbVertex
100
AcDb2dVertex
 10
6.802117958901476
 20
40.9379585229858
 30
0.0
  0
SEQEND
  5
4E
330
4B
100
AcDbEntity
  8
Default
  0
ARC
  5
4F
330
1F
100
AcDbEntity
  8
Default
100
AcDbCircle
 10
7.552117958901476
 20
40.9379585229858
 30
0.0
 40
0.75
100
AcDbArc
 50
180.0
 51
270.0
  0
POLYLINE
  5
50
330
1F
100
AcDbEntity
  8
Default
100
AcDb2dPolyline
 66
     1
 10
0.0
 20
0.0
 30
0.0
  0
VERTEX
  5
51
330
50
100
AcDbEntity
  8
Default
100
AcDbVertex
100
AcDb2dVertex
 10
8.30212657539903
 20
14.37500000239919
 30
0.0
  0
VERTEX
  5
52
330
50
100
AcDbEntity
  8
Default
100
AcDbVertex
100
AcDb2dVertex
 10
30.20212657539901
 20
14.37500000239919
 30
0.0
  0
VERTEX
  5
53
330
50
100
AcDbEntity
  8
Default
100
AcDbVertex
100
AcDb2dVertex
 10
30.20212657539901
 20
14.62500000239919
 30
0.0
  0
VERTEX
  5
54
330
50
100
AcDbEntity
  8
Default
100
AcDbVertex
100
AcDb2dVertex
 10
8.30212657539903
 20
14.62500000239919
 30
0.0
  0
VERTEX
  5
55
330
50
100
AcDbEntity
  8
Default
100
AcDbVertex
100
AcDb2dVertex
 10
8.30212657539903
 20
14.37500000239919
 30
0.0
  0
SEQEND
  5
56
330
50
100
AcDbEntity
  8
Default
  0
POLYLINE
  5
57
330
1F
100
AcDbEntity
  8
Default
100
AcDb2dPolyline
 66
     1
 10
0.0
 20
0.0
 30
0.0
  0
VERTEX
  5
58
330
57
100
AcDbEntity
  8
Default
100
AcDbVertex
100
AcDb2dVertex
 10
6.802126575399029
 20
14.62500000239919
 30
0.0
  0
VERTEX
  5
59
330
57
100
AcDbEntity
  8
Default
100
AcDbVertex
100
AcDb2dVertex
 10
31.70212657539901
 20
14.62500000239919
 30
0.0
  0
VERTEX
  5
5A
330
57
100
AcDbEntity
  8
Default
100
AcDbVertex
100
AcDb2dVertex
 10
31.70212657539901
 20
15.37500000239919
 30
0.0
  0
VERTEX
  5
5B
330
57
100
AcDbEntity
  8
Default
100
AcDbVertex
100
AcDb2dVertex
 10
6.802126575399029
 20
15.37500000239919
 30
0.0
  0
VERTEX
  5
5C
330
57
100
AcDbEntity
  8
Default
100
AcDbVertex
100
AcDb2dVertex
 10
6.802126575399029
 20
14.62500000239919
 30
0.0
  0
SEQEND
  5
5D
330
57
100
AcDbEntity
  8
Default
  0
POLYLINE
  5
5E
330
1F
100
AcDbEntity
  8
Default
100
AcDb2dPolyline
 66
     1
 10
0.0
 20
0.0
 30
0.0
  0
VERTEX
  5
5F
330
5E
100
AcDbEntity
  8
Default
100
AcDbVertex
100
AcDb2dVertex
 10
-21.41391123852486
 20
-0.0000000002171134
 30
0.0
  0
VERTEX
  5
60
330
5E
100
AcDbEntity
  8
Default
100
AcDbVertex
100
AcDb2dVertex
 10
-21.89808876593224
 20
0.0000000002171703
 30
0.0
  0
SEQEND
  5
61
330
5E
100
AcDbEntity
  8
Default
  0
SPLINE
  5
62
330
1F
100
AcDbEntity
  8
Default
100
AcDbSpline
210
0.0
220
0.0
230
1.0
 70
    12
 71
     2
 72
     6
 73
     3
 74
     0
 42
0.0000000001
 43
0.0000000001
 40
0.0
 40
0.0
 40
0.0
 40
0.241924443334512
 40
0.241924443334512
 40
0.241924443334512
 10
-21.89808876593224
 20
0.0000000002171703
 30
0.0
 41
1.0
 10
-22.05099978009953
 20
0.0000000303540884
 30
0.0
 41
0.7141418074729331
 10
-22.05397110426998
 20
0.1529065059711456
 30
0.0
 41
1.0
  0
LINE
  5
63
330
1F
100
AcDbEntity
  8
Default
100
AcDbLine
 10
-22.05397110426998
 20
0.1529065059711456
 30
0.0
 11
-22.0586697013606
 21
0.3750000023996165
 31
0.0
  0
LINE
  5
64
330
1F
100
AcDbEntity
  8
Default
100
AcDbLine
 10
-22.0586697013606
 20
0.3750000023996165
 30
0.0
 11
-21.2538605853855
 21
0.3750000023996165
 31
0.0
  0
LINE
  5
65
330
1F
100
AcDbEntity
  8
Default
100
AcDbLine
 10
-21.2538605853855
 20
0.3750000023996165
 30
0.0
 11
-21.25829404392812
 21
0.1529065037773307
 31
0.0
  0
SPLINE
  5
66
330
1F
100
AcDbEntity
  8
Default
100
AcDbSpline
210
0.0
220
0.0
230
1.0
 70
    12
 71
     2
 72
     6
 73
     3
 74
     0
 42
0.0000000001
 43
0.0000000001
 40
0.0
 40
0.0
 40
0.0
 40
0.2419244355107725
 40
0.2419244355107725
 40
0.2419244355107725
 10
-21.25829404392812
 20
0.1529065037773307
 30
0.0
 41
1.0
 10
-21.26100023052727
 20
0.0000000321588069
 30
0.0
 41
0.7141418153608741
 10
-21.41391123852486
 20
-0.0000000002171134
 30
0.0
 41
1.0
  0
SPLINE
  5
67
330
1F
100
AcDbEntity
  8
Default
100
AcDbSpline
210
0.0
220
0.0
230
1.0
 70
    12
 71
     2
 72
     6
 73
     3
 74
     0
 42
0.0000000001
 43
0.0000000001
 40
0.0
 40
0.0
 40
0.0
 40
0.0051272633192371
 40
0.0051272633192371
 40
0.0051272633192371
 10
49.400842565164
 20
12.61991732659044
 30
0.0
 41
1.0
 10
49.40086360829905
 20
12.62248088681026
 30
0.0
 41
0.9999912669693292
 10
49.40086322345735
 20
12.62504453336663
 30
0.0
 41
1.0
  0
SPLINE
  5
68
330
1F
100
AcDbEntity
  8
Default
100
AcDbSpline
210
0.0
220
0.0
230
1.0
 70
    24
 71
     2
 72
     6
 73
     3
 74
     0
 42
0.0000000001
 43
0.0000000001
 40
0.0
 40
0.0
 40
0.0
 40
0.003885868834095
 40
0.003885868834095
 40
0.003885868834095
 10
49.40086322578338
 20
12.62106376877136
 30
0.0
 10
49.40086322956085
 20
12.61912083435432
 30
0.0
 10
49.40086323333833
 20
12.61717789993727
 30
0.0
  0
SPLINE
  5
69
330
1F
100
AcDbEntity
  8
Default
100
AcDbSpline
210
0.0
220
0.0
230
1.0
 70
    15
 71
     2
 72
    20
 73
    17
 74
     0
 42
0.0000000001
 43
0.0000000001
 40
201.8561944901975
 40
201.8561944901975
 40
201.8561944901975
 40
264.3561944901974
 40
264.3561944901974
 40
265.1415926535949
 40
265.1415926535949
 40
289.1415926535967
 40
289.1415926535967
 40
289.9269908169941
 40
289.9269908169941
 40
352.4269908169941
 40
352.4269908169941
 40
353.2123889803915
 40
353.2123889803915
 40
377.2123889803932
 40
377.2123889803932
 40
377.9977871437907
 40
377.9977871437907
 40
377.9977871437907
 10
-31.25000861649789
 20
65.13795852298665
 30
0.0
 41
1.0
 10
-10.06724587897247
 20
65.13795852298665
 30
0.0
 41
1.0
 10
6.302117958901476
 20
65.13795852298665
 30
0.0
 41
1.0
 10
6.802117958901462
 20
65.13795852298664
 30
0.0
 41
0.7071067811865375
 10
6.802117958901476
 20
64.63795852298665
 30
0.0
 41
1.0
 10
6.802117958901476
 20
52.63795852298577
 30
0.0
 41
1.0
 10
6.802117958901476
 20
40.63795852298492
 30
0.0
 41
1.0
 10
6.802117958901455
 20
40.13795852298492
 30
0.0
 41
0.7071067811865551
 10
6.302117958901476
 20
40.13795852298492
 30
0.0
 41
1.0
 10
-10.06724587897247
 20
40.13795852298492
 30
0.0
 41
1.0
 10
-31.25000861649789
 20
40.13795852298492
 30
0.0
 41
1.0
 10
-31.75000861649771
 20
40.13795852298492
 30
0.0
 41
0.7071067811865476
 10
-31.75000861649789
 20
40.63795852298492
 30
0.0
 41
1.0
 10
-31.75000861649789
 20
52.63795852298578
 30
0.0
 41
1.0
 10
-31.75000861649789
 20
64.63795852298665
 30
0.0
 41
1.0
 10
-31.75000861649783
 20
65.13795852298664
 30
0.0
 41
0.707106781186545
 10
-31.25000861649789
 20
65.13795852298665
 30
0.0
 41
1.0
  0
SPLINE
  5
6A
330
1F
100
AcDbEntity
  8
Default
100
AcDbSpline
210
0.0
220
0.0
230
1.0
 70
    15
 71
     2
 72
    22
 73
    19
 74
     0
 42
0.0000000001
 43
0.0000000001
 40
0.0
 40
0.0
 40
0.0
 40
38.0521372463281
 40
38.0521372463281
 40
38.4448383576504
 40
38.4448383576504
 40
41.31688814993201
 40
41.31688814993201
 40
41.70965007631988
 40
41.70965007631988
 40
42.10241200270775
 40
42.10241200270775
 40
79.6545385781071
 40
79.6545385781071
 40
80.43993674150454
 40
80.43993674150454
 40
83.31198653378614
 40
83.31198653378614
 40
83.7046867353958
 40
83.7046867353958
 40
83.7046867353958
 10
-31.50000533546461
 20
14.37500000240129
 30
0.0
 41
1.0
 10
-12.47393671230054
 20
14.37500000240129
 30
0.0
 41
1.0
 10
6.552130939650738
 20
14.37500000240129
 30
0.0
 41
1.0
 10
6.802131304971873
 20
14.37499963704457
 30
0.0
 41
0.707110387889693
 10
6.80212991243509
 20
14.62500000239918
 30
0.0
 41
0.9999999999167506
 10
6.802127758310645
 20
16.06102489853998
 30
0.0
 41
0.9999999999167506
 10
6.802125604186314
 20
17.49704979468078
 30
0.0
 41
0.9999999999167506
 10
6.802246874306833
 20
17.70420678680296
 30
0.0
 41
0.9237674810464906
 10
6.65576473530762
 20
17.85068892580213
 30
0.0
 41
0.9999999999167506
 10
6.509282596308545
 20
17.99717106480131
 30
0.0
 41
0.9237674810464906
 10
6.302125604186298
 20
17.9970497946808
 30
0.0
 41
0.9999999999167506
 10
-12.47393671230062
 20
17.9970497946808
 30
0.0
 41
0.9999999999167506
 10
-31.25000000000032
 20
17.9970497946808
 30
0.0
 41
0.9999999999167506
 10
-31.75000000000032
 20
17.99704979468079
 30
0.0
 41
0.7071067811276798
 10
-31.75000000000022
 20
17.49704979468078
 30
0.0
 41
0.9999999999167506
 10
-31.75000215412467
 20
16.06102489853998
 30
0.0
 41
0.9999999999167506
 10
-31.750004308249
 20
14.62500000239918
 30
0.0
 41
0.9999999999167506
 10
-31.75000358123372
 20
14.37500175658787
 30
0.0
 41
0.7071163829140098
 10
-31.50000533546461
 20
14.37500000240129
 30
0.0
 41
1.0
  0
ARC
  5
6B
330
1F
100
AcDbEntity
  8
Default
100
AcDbCircle
 10
10309.62792939757
 20
-414.3754196209939
 30
0.0
 40
10246.45187490584
100
AcDbArc
 50
177.680177975183
 51
177.6814389168693
  0
LINE
  5
6C
330
1F
100
AcDbEntity
  8
Default
100
AcDbLine
 10
71.57352039424677
 20
0.3750391479403845
 30
0.0
 11
70.44851512007187
 21
0.3750391479403845
 31
0.0
  0
LINE
  5
6D
330
1F
100
AcDbEntity
  8
Default
100
AcDbLine
 10
70.44851512007187
 20
0.3750391479403845
 30
0.0
 11
70.45987104210928
 21
0.1496421885582038
 31
0.0
  0
SPLINE
  5
6E
330
1F
100
AcDbEntity
  8
Default
100
AcDbSpline
210
0.0
220
0.0
230
1.0
 70
    12
 71
     2
 72
     6
 73
     3
 74
     0
 42
0.0000000001
 43
0.0000000001
 40
-0.2387149143318927
 40
-0.2387149143318927
 40
-0.2387149143318927
 40
0.0
 40
0.0
 40
0.0
 10
70.45987104210928
 20
0.1496421885582038
 30
0.0
 41
1.0
 10
70.46596298434308
 20
-0.0000384788826898
 30
0.0
 41
0.7212476062221478
 10
70.61624304423844
 20
0.0000003945672802
 30
0.0
 41
1.0
  0
SPLINE
  5
6F
330
1F
100
AcDbEntity
  8
Default
100
AcDbSpline
210
0.0
220
0.0
230
1.0
 70
    12
 71
     2
 72
     6
 73
     3
 74
     0
 42
0.0000000001
 43
0.0000000001
 40
0.0
 40
0.0
 40
0.0
 40
0.3954244124017839
 40
0.3954244124017839
 40
0.3954244124017839
 10
70.61624304423844
 20
0.0000003945672802
 30
0.0
 41
1.0
 10
70.81443101388895
 20
0.0000274211329071
 30
0.0
 41
0.999999999289049
 10
71.01214321983593
 20
0.0000391457582793
 30
0.0
 41
1.0
  0
SPLINE
  5
70
330
1F
100
AcDbEntity
  8
Default
100
AcDbSpline
210
0.0
220
0.0
230
1.0
 70
    24
 71
     2
 72
     6
 73
     3
 74
     0
 42
0.0000000001
 43
0.0000000001
 40
0.0
 40
0.0
 40
0.0
 40
0.3954243890795226
 40
0.3954243890795226
 40
0.3954243890795226
 10
71.01214321983593
 20
0.0000391457582793
 30
0.0
 10
71.21009330337978
 20
0.0000391464777749
 30
0.0
 10
71.40804338692362
 20
0.0000391471972705
 30
0.0
  0
SPLINE
  5
71
330
1F
100
AcDbEntity
  8
Default
100
AcDbSpline
210
0.0
220
0.0
230
1.0
 70
    12
 71
     2
 72
     6
 73
     3
 74
     0
 42
0.0000000001
 43
0.0000000001
 40
-0.2387271341672585
 40
-0.2387271341672585
 40
-0.2387271341672585
 40
0.0
 40
0.0
 40
0.0
 10
71.40804338692362
 20
0.0000391471972705
 30
0.0
 41
1.0
 10
71.55832661419662
 20
0.0000391477218271
 30
0.0
 41
0.7212776802320741
 10
71.56439521796312
 20
0.1497242040884146
 30
0.0
 41
1.0
  0
SPLINE
  5
72
330
1F
100
AcDbEntity
  8
Default
100
AcDbSpline
210
0.0
220
0.0
230
1.0
 70
     8
 71
     3
 72
    12
 73
     8
 74
     0
 42
0.0000000001
 43
0.0000000001
 40
0.0
 40
0.0
 40
0.0
 40
0.0
 40
1.0
 40
2.0
 40
3.0
 40
4.0
 40
5.0
 40
5.0
 40
5.0
 40
5.0
 10
49.40084763141078
 20
12.62503918825035
 30
0.0
 10
49.38445073664627
 20
12.49412383179848
 30
0.0
 10
49.16239881682975
 20
12.34303393060617
 30
0.0
 10
48.80138170948214
 20
12.2627180002051
 30
0.0
 10
48.42564817194648
 20
12.26322850250835
 30
0.0
 10
48.06435388444243
 20
12.34265459674313
 30
0.0
 10
47.84267591336572
 20
12.49439055061359
 30
0.0
 10
47.82584777309125
 20
12.62498982757822
 30
0.0
  0
SPLINE
  5
73
330
1F
100
AcDbEntity
  8
Default
100
AcDbSpline
210
0.0
220
0.0
230
1.0
 70
    12
 71
     2
 72
     6
 73
     3
 74
     0
 42
0.0000000001
 43
0.0000000001
 40
-0.7825548902353026
 40
-0.7825548902353026
 40
-0.7825548902353026
 40
0.0
 40
0.0
 40
0.0
 10
69.49908059239272
 20
10.30071586202212
 30
0.0
 41
1.0
 10
69.99698868670993
 20
10.30219105879808
 30
0.0
 41
0.7091100515193309
 10
69.99833654862368
 20
10.79994551539292
 30
0.0
 41
1.0
  0
LINE
  5
74
330
1F
100
AcDbEntity
  8
Default
100
AcDbLine
 10
69.99833654862368
 20
10.79994551539292
 30
0.0
 11
69.99836261426424
 21
12.62503914793996
 31
0.0
  0
POLYLINE
  5
75
330
1F
100
AcDbEntity
  8
Default
100
AcDb2dPolyline
 66
     1
 10
0.0
 20
0.0
 30
0.0
  0
VERTEX
  5
76
330
75
100
AcDbEntity
  8
Default
100
AcDbVertex
100
AcDb2dVertex
 10
69.99836261426424
 20
12.62503914793996
 30
0.0
  0
VERTEX
  5
77
330
75
100
AcDbEntity
  8
Default
100
AcDbVertex
100
AcDb2dVertex
 10
71.57336312434097
 20
12.62503914793996
 30
0.0
  0
SEQEND
  5
78
330
75
100
AcDbEntity
  8
Default
  0
LINE
  5
79
330
1F
100
AcDbEntity
  8
Default
100
AcDbLine
 10
71.57336312434097
 20
12.62503914793996
 30
0.0
 11
71.57336316674696
 21
8.523832748022102
 31
0.0
  0
SPLINE
  5
7A
330
1F
100
AcDbEntity
  8
Default
100
AcDbSpline
210
0.0
220
0.0
230
1.0
 70
    12
 71
     5
 72
    12
 73
     6
 74
     0
 42
0.0000000001
 43
0.0000000001
 40
-0.0000000000115655
 40
-0.0000000000115655
 40
-0.0000000000115655
 40
-0.0000000000115655
 40
-0.0000000000115655
 40
-0.0000000000115655
 40
0.9922383364707964
 40
0.9922383364707964
 40
0.9922383364707964
 40
0.9922383364707964
 40
0.9922383364707964
 40
0.9922383364707964
 10
71.57336316674696
 20
8.523832748022102
 30
0.0
 41
1.0
 10
71.57336306370837
 20
6.906723733638387
 30
0.0
 41
1.0
 10
71.5749031145632
 20
5.28999874261649
 30
0.0
 41
1.0
 10
71.5779281105738
 20
3.673665990484096
 30
0.0
 41
1.0
 10
71.57751093044646
 20
2.056446236198724
 30
0.0
 41
1.0
 10
71.57352068449734
 20
0.438327709682369
 30
0.0
 41
1.0
  0
SPLINE
  5
7B
330
1F
100
AcDbEntity
  8
Default
100
AcDbSpline
210
0.0
220
0.0
230
1.0
 70
    12
 71
     2
 72
     6
 73
     3
 74
     0
 42
0.0000000001
 43
0.0000000001
 40
0.0
 40
0.0
 40
0.0
 40
0.0876876088231114
 40
0.0876876088231114
 40
0.0876876088231114
 10
71.57352068449734
 20
0.438327709682369
 30
0.0
 41
1.0
 10
71.5737614783781
 20
0.3857006415266954
 30
0.0
 41
0.7674574304402552
 10
71.52201752268115
 20
0.376097031102347
 30
0.0
 41
1.0
  0
POLYLINE
  5
7C
330
1F
100
AcDbEntity
  8
Default
100
AcDb2dPolyline
 66
     1
 10
0.0
 20
0.0
 30
0.0
  0
VERTEX
  5
7D
330
7C
100
AcDbEntity
  8
Default
100
AcDbVertex
100
AcDb2dVertex
 10
71.52201752268115
 20
0.376097031102347
 30
0.0
  0
VERTEX
  5
7E
330
7C
100
AcDbEntity
  8
Default
100
AcDbVertex
100
AcDb2dVertex
 10
70.4971933464468
 20
0.3760291938065166
 30
0.0
  0
SEQEND
  5
7F
330
7C
100
AcDbEntity
  8
Default
  0
SPLINE
  5
80
330
1F
100
AcDbEntity
  8
Default
100
AcDbSpline
210
0.0
220
0.0
230
1.0
 70
    12
 71
     2
 72
     6
 73
     3
 74
     0
 42
0.0000000001
 43
0.0000000001
 40
0.0
 40
0.0
 40
0.0
 40
0.0846250291315599
 40
0.0846250291315599
 40
0.0846250291315599
 10
70.4971933464468
 20
0.3760291938065166
 30
0.0
 41
1.0
 10
70.44790125191449
 20
0.3848725235289587
 30
0.0
 41
0.7828101505964009
 10
70.44539640406424
 20
0.4349040010501994
 30
0.0
 41
1.0
  0
SPLINE
  5
81
330
1F
100
AcDbEntity
  8
Default
100
AcDbSpline
210
0.0
220
0.0
230
1.0
 70
    12
 71
     5
 72
    12
 73
     6
 74
     0
 42
0.0000000001
 43
0.0000000001
 40
-0.9926563385080105
 40
-0.9926563385080105
 40
-0.9926563385080105
 40
-0.9926563385080105
 40
-0.9926563385080105
 40
-0.9926563385080105
 40
0.0000000000115655
 40
0.0000000000115655
 40
0.0000000000115655
 40
0.0000000000115655
 40
0.0000000000115655
 40
0.0000000000115655
 10
70.44539640406424
 20
0.4349040010501994
 30
0.0
 41
1.0
 10
70.36512503712697
 20
2.053720817427831
 30
0.0
 41
1.0
 10
70.28185778858892
 20
3.671623239166394
 30
0.0
 41
1.0
 10
70.19569925603071
 20
5.288636897332367
 30
0.0
 41
1.0
 10
70.11078110234632
 20
6.906042847420849
 30
0.0
 41
1.0
 10
70.02714865693656
 20
8.523832748022102
 30
0.0
 41
1.0
  0
SPLINE
  5
82
330
1F
100
AcDbEntity
  8
Default
100
AcDbSpline
210
0.0
220
0.0
230
1.0
 70
    12
 71
     2
 72
     6
 73
     3
 74
     0
 42
0.0000000001
 43
0.0000000001
 40
-0.082649365308941
 40
-0.082649365308941
 40
-0.082649365308941
 40
0.0
 40
0.0
 40
0.0
 10
70.02714865693656
 20
8.523832748022102
 30
0.0
 41
1.0
 10
70.02502822703843
 20
8.565102993962563
 30
0.0
 41
0.9999999883852876
 10
70.02289730685516
 20
8.606814936584982
 30
0.0
 41
1.0
  0
SPLINE
  5
83
330
1F
100
AcDbEntity
  8
Default
100
AcDbSpline
210
0.0
220
0.0
230
1.0
 70
    12
 71
     2
 72
     6
 73
     3
 74
     0
 42
0.0000000001
 43
0.0000000001
 40
0.0
 40
0.0
 40
0.0
 40
0.7576113662501209
 40
0.7576113662501209
 40
0.7576113662501209
 10
70.02289730685516
 20
8.606814936584982
 30
0.0
 41
1.0
 10
69.99775782115073
 20
9.079543739913545
 30
0.0
 41
0.72648491075732
 10
69.5241910315433
 20
9.080707515794899
 30
0.0
 41
1.0
  0
SPLINE
  5
84
330
1F
100
AcDbEntity
  8
Default
100
AcDbSpline
210
0.0
220
0.0
230
1.0
 70
    24
 71
     2
 72
     6
 73
     3
 74
     0
 42
0.0000000001
 43
0.0000000001
 40
0.0
 40
0.0
 40
0.0
 40
19.64792944108129
 40
19.64792944108129
 40
19.64792944108129
 10
69.5241910315433
 20
9.080707515794899
 30
0.0
 10
59.69961322058356
 20
9.080707515794899
 30
0.0
 10
49.87503540962382
 20
9.080707515794899
 30
0.0
  0
SPLINE
  5
85
330
1F
100
AcDbEntity
  8
Default
100
AcDbSpline
210
0.0
220
0.0
230
1.0
 70
    12
 71
     2
 72
     6
 73
     3
 74
     0
 42
0.0000000001
 43
0.0000000001
 40
-0.7576113662501209
 40
-0.7576113662501209
 40
-0.7576113662501209
 40
0.0
 40
0.0
 40
0.0
 10
49.87503540962382
 20
9.080707515794899
 30
0.0
 41
1.0
 10
49.40146862001651
 20
9.079543739913545
 30
0.0
 41
0.72648491075732
 10
49.37632913431185
 20
8.606814936584982
 30
0.0
 41
1.0
  0
SPLINE
  5
86
330
1F
100
AcDbEntity
  8
Default
100
AcDbSpline
210
0.0
220
0.0
230
1.0
 70
    12
 71
     2
 72
     6
 73
     3
 74
     0
 42
0.0000000001
 43
0.0000000001
 40
0.0
 40
0.0
 40
0.0
 40
0.082649365308941
 40
0.082649365308941
 40
0.082649365308941
 10
49.37632913431185
 20
8.606814936584982
 30
0.0
 41
1.0
 10
49.37419821412853
 20
8.565102993962563
 30
0.0
 41
0.9999999883852876
 10
49.37207778423044
 20
8.523832748022102
 30
0.0
 41
1.0
  0
SPLINE
  5
87
330
1F
100
AcDbEntity
  8
Default
100
AcDbSpline
210
0.0
220
0.0
230
1.0
 70
    12
 71
     5
 72
    12
 73
     6
 74
     0
 42
0.0000000001
 43
0.0000000001
 40
-0.0000000000115655
 40
-0.0000000000115655
 40
-0.0000000000115655
 40
-0.0000000000115655
 40
-0.0000000000115655
 40
-0.0000000000115655
 40
0.9926563385080105
 40
0.9926563385080105
 40
0.9926563385080105
 40
0.9926563385080105
 40
0.9926563385080105
 40
0.9926563385080105
 10
49.37207778423044
 20
8.523832748022102
 30
0.0
 41
1.0
 10
49.28844533882068
 20
6.906042847420849
 30
0.0
 41
1.0
 10
49.20352718513629
 20
5.288636897332367
 30
0.0
 41
1.0
 10
49.11736865257808
 20
3.671623239166394
 30
0.0
 41
1.0
 10
49.03410140404003
 20
2.053720817427831
 30
0.0
 41
1.0
 10
48.95383003710276
 20
0.4349040010501994
 30
0.0
 41
1.0
  0
SPLINE
  5
88
330
1F
100
AcDbEntity
  8
Default
100
AcDbSpline
210
0.0
220
0.0
230
1.0
 70
    12
 71
     2
 72
     6
 73
     3
 74
     0
 42
0.0000000001
 43
0.0000000001
 40
-0.0846250291315599
 40
-0.0846250291315599
 40
-0.0846250291315599
 40
0.0
 40
0.0
 40
0.0
 10
48.95383003710276
 20
0.4349040010501994
 30
0.0
 41
1.0
 10
48.95132518925257
 20
0.3848725235289587
 30
0.0
 41
0.7828101505964009
 10
48.9020330947202
 20
0.3760291938065166
 30
0.0
 41
1.0
  0
POLYLINE
  5
89
330
1F
100
AcDbEntity
  8
Default
100
AcDb2dPolyline
 66
     1
 10
0.0
 20
0.0
 30
0.0
  0
VERTEX
  5
8A
330
89
100
AcDbEntity
  8
Default
100
AcDbVertex
100
AcDb2dVertex
 10
48.9020330947202
 20
0.3760291938065166
 30
0.0
  0
VERTEX
  5
8B
330
89
100
AcDbEntity
  8
Default
100
AcDbVertex
100
AcDb2dVertex
 10
47.87720891848585
 20
0.376097031102347
 30
0.0
  0
SEQEND
  5
8C
330
89
100
AcDbEntity
  8
Default
  0
SPLINE
  5
8D
330
1F
100
AcDbEntity
  8
Default
100
AcDbSpline
210
0.0
220
0.0
230
1.0
 70
    12
 71
     2
 72
     6
 73
     3
 74
     0
 42
0.0000000001
 43
0.0000000001
 40
-0.0876876088231114
 40
-0.0876876088231114
 40
-0.0876876088231114
 40
0.0
 40
0.0
 40
0.0
 10
47.87720891848585
 20
0.376097031102347
 30
0.0
 41
1.0
 10
47.82546496278896
 20
0.3857006415266954
 30
0.0
 41
0.7674574304402552
 10
47.82570575666966
 20
0.438327709682369
 30
0.0
 41
1.0
  0
SPLINE
  5
8E
330
1F
100
AcDbEntity
  8
Default
100
AcDbSpline
210
0.0
220
0.0
230
1.0
 70
    12
 71
     5
 72
    12
 73
     6
 74
     0
 42
0.0000000001
 43
0.0000000001
 40
-0.9922383364707964
 40
-0.9922383364707964
 40
-0.9922383364707964
 40
-0.9922383364707964
 40
-0.9922383364707964
 40
-0.9922383364707964
 40
0.0000000000115655
 40
0.0000000000115655
 40
0.0000000000115655
 40
0.0000000000115655
 40
0.0000000000115655
 40
0.0000000000115655
 10
47.82570575666966
 20
0.438327709682369
 30
0.0
 41
1.0
 10
47.82171551072054
 20
2.056446236198724
 30
0.0
 41
1.0
 10
47.82129833059321
 20
3.673665990484096
 30
0.0
 41
1.0
 10
47.8243233266038
 20
5.28999874261649
 30
0.0
 41
1.0
 10
47.82586337745863
 20
6.906723733638387
 30
0.0
 41
1.0
 10
47.82586327442004
 20
8.523832748022102
 30
0.0
 41
1.0
  0
LINE
  5
8F
330
1F
100
AcDbEntity
  8
Default
100
AcDbLine
 10
47.82586327442004
 20
8.523832748022102
 30
0.0
 11
47.82586331682603
 21
12.62503914793996
 31
0.0
  0
POLYLINE
  5
90
330
1F
100
AcDbEntity
  8
Default
100
AcDb2dPolyline
 66
     1
 10
0.0
 20
0.0
 30
0.0
  0
VERTEX
  5
91
330
90
100
AcDbEntity
  8
Default
100
AcDbVertex
100
AcDb2dVertex
 10
47.82586331682603
 20
12.62503914793996
 30
0.0
  0
VERTEX
  5
92
330
90
100
AcDbEntity
  8
Default
100
AcDbVertex
100
AcDb2dVertex
 10
49.40086382690288
 20
12.62503914793996
 30
0.0
  0
SEQEND
  5
93
330
90
100
AcDbEntity
  8
Default
  0
LINE
  5
94
330
1F
100
AcDbEntity
  8
Default
100
AcDbLine
 10
49.40086382690288
 20
12.62503914793996
 30
0.0
 11
49.40088989254332
 21
10.79994551539292
 31
0.0
  0
SPLINE
  5
95
330
1F
100
AcDbEntity
  8
Default
100
AcDbSpline
210
0.0
220
0.0
230
1.0
 70
    12
 71
     2
 72
     6
 73
     3
 74
     0
 42
0.0000000001
 43
0.0000000001
 40
0.0
 40
0.0
 40
0.0
 40
0.7825548902353026
 40
0.7825548902353026
 40
0.7825548902353026
 10
49.40088989254332
 20
10.79994551539292
 30
0.0
 41
1.0
 10
49.4022377544571
 20
10.30219105879808
 30
0.0
 41
0.7091100515193309
 10
49.90014584877429
 20
10.30071586202212
 30
0.0
 41
1.0
  0
SPLINE
  5
96
330
1F
100
AcDbEntity
  8
Default
100
AcDbSpline
210
0.0
220
0.0
230
1.0
 70
    24
 71
     2
 72
     6
 73
     3
 74
     0
 42
0.0000000001
 43
0.0000000001
 40
0.0
 40
0.0
 40
0.0
 40
19.59744819239467
 40
19.59744819239467
 40
19.59744819239467
 10
49.90014584877429
 20
10.30071586202212
 30
0.0
 10
59.6996132205835
 20
10.30071586202212
 30
0.0
 10
69.49908059239272
 20
10.30071586202212
 30
0.0
  0
SPLINE
  5
97
330
1F
100
AcDbEntity
  8
Default
100
AcDbSpline
210
0.0
220
0.0
230
1.0
 70
     8
 71
     3
 72
    12
 73
     8
 74
     0
 42
0.0000000001
 43
0.0000000001
 40
0.0
 40
0.0
 40
0.0
 40
0.0
 40
1.0
 40
2.0
 40
3.0
 40
4.0
 40
5.0
 40
5.0
 40
5.0
 40
5.0
 10
69.99837880975622
 20
12.62503918825035
 30
0.0
 10
70.01477570452073
 20
12.49412383179848
 30
0.0
 10
70.23682762433725
 20
12.34303393060617
 30
0.0
 10
70.59784473168497
 20
12.2627180002051
 30
0.0
 10
70.97357826922064
 20
12.26322850250835
 30
0.0
 10
71.33487255672458
 20
12.34265459674313
 30
0.0
 10
71.55655052780128
 20
12.49439055061359
 30
0.0
 10
71.57337866807575
 20
12.62498982757822
 30
0.0
  0
SPLINE
  5
98
330
1F
100
AcDbEntity
  8
Default
100
AcDbSpline
210
0.0
220
0.0
230
1.0
 70
    24
 71
     2
 72
     6
 73
     3
 74
     0
 42
0.0000000001
 43
0.0000000001
 40
0.0
 40
0.0
 40
0.0
 40
1.250000000000004
 40
1.250000000000004
 40
1.250000000000004
 10
47.20086322058307
 20
14.12503914793996
 30
0.0
 10
47.2008632205829
 20
13.50003914793996
 30
0.0
 10
47.20086322058273
 20
12.87503914793996
 30
0.0
  0
ARC
  5
99
330
1F
100
AcDbEntity
  8
Default
100
AcDbCircle
 10
47.45086322058273
 20
12.87503914793996
 30
0.0
 40
0.25
100
AcDbArc
 50
180.0
 51
270.0
  0
LINE
  5
9A
330
1F
100
AcDbEntity
  8
Default
100
AcDbLine
 10
47.45086322058273
 20
12.62503914793996
 30
0.0
 11
71.95086322058444
 21
12.62503914793996
 31
0.0
  0
ARC
  5
9B
330
1F
100
AcDbEntity
  8
Default
100
AcDbCircle
 10
71.95086322058444
 20
12.87503914793996
 30
0.0
 40
0.25
100
AcDbArc
 50
270.000000000013
 51
359.9999999999935
  0
SPLINE
  5
9C
330
1F
100
AcDbEntity
  8
Default
100
AcDbSpline
210
0.0
220
0.0
230
1.0
 70
    24
 71
     2
 72
     6
 73
     3
 74
     0
 42
0.0000000001
 43
0.0000000001
 40
0.0
 40
0.0
 40
0.0
 40
1.250000000000004
 40
1.250000000000004
 40
1.250000000000004
 10
72.20086322058444
 20
12.87503914793996
 30
0.0
 10
72.2008632205845
 20
13.50003914793996
 30
0.0
 10
72.20086322058455
 20
14.12503914793996
 30
0.0
  0
ARC
  5
9D
330
1F
100
AcDbEntity
  8
Default
100
AcDbCircle
 10
71.95086322058455
 20
14.12503914793996
 30
0.0
 40
0.25
100
AcDbArc
 50
359.9999999999992
 51
90.0
  0
LINE
  5
9E
330
1F
100
AcDbEntity
  8
Default
100
AcDbLine
 10
71.95086322058455
 20
14.37503914793996
 30
0.0
 11
47.70086322058307
 21
14.37503914793996
 31
0.0
  0
LINE
  5
9F
330
1F
100
AcDbEntity
  8
Default
100
AcDbLine
 10
47.70086322058307
 20
14.37503914793996
 30
0.0
 11
47.45086322058273
 21
14.37503914793996
 31
0.0
  0
ARC
  5
A0
330
1F
100
AcDbEntity
  8
Default
100
AcDbCircle
 10
47.45086322058307
 20
14.12503914793996
 30
0.0
 40
0.25
100
AcDbArc
 50
90.00000000006514
 51
179.9999999999992
  0
POLYLINE
  5
A1
330
1F
100
AcDbEntity
  8
Default
100
AcDb2dPolyline
 66
     1
 10
0.0
 20
0.0
 30
0.0
  0
VERTEX
  5
A2
330
A1
100
AcDbEntity
  8
Default
100
AcDbVertex
100
AcDb2dVertex
 10
-24.76599967940297
 20
12.62500000235795
 30
0.0
  0
VERTEX
  5
A3
330
A1
100
AcDbEntity
  8
Default
100
AcDbVertex
100
AcDb2dVertex
 10
-18.5460000000013
 20
12.62500000235795
 30
0.0
  0
SEQEND
  5
A4
330
A1
100
AcDbEntity
  8
Default
  0
SPLINE
  5
A5
330
1F
100
AcDbEntity
  8
Default
100
AcDbSpline
210
0.0
220
0.0
230
1.0
 70
    12
 71
     5
 72
    13
 73
     7
 74
     0
 42
0.0000000001
 43
0.0000000001
 40
-0.9999999998854913
 40
-0.9999999998854913
 40
-0.9999999998854913
 40
-0.9999999998854913
 40
-0.9999999998854913
 40
-0.9999999998854913
 40
-0.4999999999118557
 40
0.0000214316302039
 40
0.0000214316302039
 40
0.0000214316302039
 40
0.0000214316302039
 40
0.0000214316302039
 40
0.0000214316302039
 10
-18.5460000000013
 20
12.62500000235795
 30
0.0
 41
1.0
 10
-18.54600064604108
 20
12.56009560996313
 30
0.0
 41
1.0
 10
-18.56529969754536
 20
12.44654867131678
 30
0.0
 41
1.0
 10
-18.62319587020932
 20
12.3655361986593
 30
0.0
 41
1.0
 10
-18.7113649376314
 20
12.31002542084664
 30
0.0
 41
1.0
 10
-18.82604892673305
 20
12.27687454006866
 30
0.0
 41
1.0
 10
-18.89002056383254
 20
12.26588517969745
 30
0.0
 41
1.0
  0
SPLINE
  5
A6
330
1F
100
AcDbEntity
  8
Default
100
AcDbSpline
210
0.0
220
0.0
230
1.0
 70
    12
 71
     2
 72
     6
 73
     3
 74
     0
 42
0.0000000001
 43
0.0000000001
 40
0.0
 40
0.0
 40
0.0
 40
1.843263450064862
 40
1.843263450064862
 40
1.843263450064862
 10
-18.89002056383254
 20
12.26588517969745
 30
0.0
 41
1.0
 10
-19.79833992392917
 20
12.10980514713988
 30
0.0
 41
0.9999999999936852
 10
-20.70666032724716
 20
11.9537310177214
 30
0.0
 41
1.0
  0
SPLINE
  5
A7
330
1F
100
AcDbEntity
  8
Default
100
AcDbSpline
210
0.0
220
0.0
230
1.0
 70
    12
 71
     2
 72
     6
 73
     3
 74
     0
 42
0.0000000001
 43
0.0000000001
 40
0.0
 40
0.0
 40
0.0
 40
0.6997662170032295
 40
0.6997662170032295
 40
0.6997662170032295
 10
-20.70666032724716
 20
11.9537310177214
 30
0.0
 41
1.0
 10
-21.1215273599754
 20
11.88244667937159
 30
0.0
 41
0.7649870492777086
 10
-21.12198393924223
 20
11.46120110138611
 30
0.0
 41
1.0
  0
SPLINE
  5
A8
330
1F
100
AcDbEntity
  8
Default
100
AcDbSpline
210
0.0
220
0.0
230
1.0
 70
    12
 71
     3
 72
    13
 73
     9
 74
     0
 42
0.0000000001
 43
0.0000000001
 40
1.164116092654201
 40
1.164116092654201
 40
1.164116092654201
 40
1.164116092654201
 40
1.192754371812117
 40
1.192754371812117
 40
1.839154429652598
 40
2.485554487552516
 40
2.485554487552516
 40
2.941799361814759
 40
2.941799361814759
 40
2.941799361814759
 40
2.941799361814759
 10
-21.12198393924223
 20
11.46120110138611
 30
0.0
 41
1.0
 10
-21.12198309399105
 20
11.45135583614481
 30
0.0
 41
1.0
 10
-21.12198365286463
 20
11.44180974146306
 30
0.0
 41
1.0
 10
-21.12203319741059
 20
11.2167969686364
 30
0.0
 41
1.0
 10
-21.12411685786492
 20
10.78587479042528
 30
0.0
 41
1.0
 10
-21.13130459935348
 20
10.35502399011492
 30
0.0
 41
1.0
 10
-21.13710279954819
 20
9.987521416801457
 30
0.0
 41
1.0
 10
-21.13930360480992
 20
9.83544406875302
 30
0.0
 41
1.0
 10
-21.14107030487071
 20
9.682909845823701
 30
0.0
 41
1.0
  0
SPLINE
  5
A9
330
1F
100
AcDbEntity
  8
Default
100
AcDbSpline
210
0.0
220
0.0
230
1.0
 70
    12
 71
     2
 72
     6
 73
     3
 74
     0
 42
0.0000000001
 43
0.0000000001
 40
0.0
 40
0.0
 40
0.0
 40
0.0011199978112541
 40
0.0011199978112541
 40
0.0011199978112541
 10
-21.14107030487071
 20
9.682909845823701
 30
0.0
 41
1.0
 10
-21.14108801297148
 20
9.68189344886065
 30
0.0
 41
0.9999999565253123
 10
-21.14108801222653
 20
9.681333409514025
 30
0.0
 41
1.0
  0
SPLINE
  5
AA
330
1F
100
AcDbEntity
  8
Default
100
AcDbSpline
210
0.0
220
0.0
230
1.0
 70
    12
 71
     2
 72
     6
 73
     3
 74
     0
 42
0.0000000001
 43
0.0000000001
 40
0.0
 40
0.0
 40
0.0
 40
1.157563000328597
 40
1.157563000328597
 40
1.157563000328597
 10
-21.14108801222653
 20
9.681333409514025
 30
0.0
 41
1.0
 10
-21.14666373052574
 20
9.102576156243051
 30
0.0
 41
0.9999932729902123
 10
-21.14799976565098
 20
8.523792488378888
 30
0.0
 41
1.0
  0
SPLINE
  5
AB
330
1F
100
AcDbEntity
  8
Default
100
AcDbSpline
210
0.0
220
0.0
230
1.0
 70
    12
 71
     3
 72
    12
 73
     8
 74
     0
 42
0.0000000001
 43
0.0000000001
 40
0.0000022290245399
 40
0.0000022290245399
 40
0.0000022290245399
 40
0.0000022290245399
 40
2.973330383277389
 40
2.973330383277389
 40
5.533332299297856
 40
5.533332299297856
 40
8.0907540207247
 40
8.0907540207247
 40
8.0907540207247
 40
8.0907540207247
 10
-21.14799976565098
 20
8.523792488378888
 30
0.0
 41
1.0
 10
-21.15174297552676
 20
7.533012356544702
 30
0.0
 41
1.0
 10
-21.16187955274575
 20
6.542166505228664
 30
0.0
 41
1.0
 10
-21.18682358964202
 20
4.698546802840923
 30
0.0
 41
1.0
 10
-21.20068286571097
 20
3.846004306662138
 30
0.0
 41
1.0
 10
-21.22803332707008
 20
2.140986238235911
 30
0.0
 41
1.0
 10
-21.24144224044005
 20
1.289616091246216
 30
0.0
 41
1.0
 10
-21.25267981983347
 20
0.4374291487058031
 30
0.0
 41
1.0
  0
SPLINE
  5
AC
330
1F
100
AcDbEntity
  8
Default
100
AcDbSpline
210
0.0
220
0.0
230
1.0
 70
    12
 71
     2
 72
     6
 73
     3
 74
     0
 42
0.0000000001
 43
0.0000000001
 40
0.0
 40
0.0
 40
0.0
 40
0.0970316672143772
 40
0.0970316672143772
 40
0.0970316672143772
 10
-21.25267981983347
 20
0.4374291487058031
 30
0.0
 41
1.0
 10
-21.2532584165683
 20
0.3763075181236976
 30
0.0
 41
0.717857630247824
 10
-21.31434444391562
 20
0.3750140462356626
 30
0.0
 41
1.0
  0
POLYLINE
  5
AD
330
1F
100
AcDbEntity
  8
Default
100
AcDb2dPolyline
 66
     1
 10
0.0
 20
0.0
 30
0.0
  0
VERTEX
  5
AE
330
AD
100
AcDbEntity
  8
Default
100
AcDbVertex
100
AcDb2dVertex
 10
-21.31434444391562
 20
0.3750140462356626
 30
0.0
  0
VERTEX
  5
AF
330
AD
100
AcDbEntity
  8
Default
100
AcDbVertex
100
AcDb2dVertex
 10
-21.99632447248803
 20
0.3750000024411975
 30
0.0
  0
SEQEND
  5
B0
330
AD
100
AcDbEntity
  8
Default
  0
SPLINE
  5
B1
330
1F
100
AcDbEntity
  8
Default
100
AcDbSpline
210
0.0
220
0.0
230
1.0
 70
    12
 71
     2
 72
     6
 73
     3
 74
     0
 42
0.0000000001
 43
0.0000000001
 40
0.0
 40
0.0
 40
0.0
 40
0.0983105351425802
 40
0.0983105351425802
 40
0.0983105351425802
 10
-21.99632447248803
 20
0.3750000024411975
 30
0.0
 41
1.0
 10
-22.05868030891416
 20
0.374998070860006
 30
0.0
 41
0.7107094273922171
 10
-22.05931922252535
 20
0.4373708929651912
 30
0.0
 41
1.0
  0
SPLINE
  5
B2
330
1F
100
AcDbEntity
  8
Default
100
AcDbSpline
210
0.0
220
0.0
230
1.0
 70
    12
 71
     3
 72
    12
 73
     8
 74
     0
 42
0.0000000001
 43
0.0000000001
 40
0.0025122088885125
 40
0.0025122088885125
 40
0.0025122088885125
 40
0.0025122088885125
 40
2.559996601448771
 40
2.559996601448771
 40
5.119998517672128
 40
5.119998517672128
 40
8.093326489272172
 40
8.093326489272172
 40
8.093326489272172
 40
8.093326489272172
 10
-22.05931922252535
 20
0.4373708929651912
 30
0.0
 41
1.0
 10
-22.07055710237694
 20
1.289574364790269
 30
0.0
 41
1.0
 10
-22.08396633798304
 20
2.140965357733307
 30
0.0
 41
1.0
 10
-22.11131713429393
 20
3.8460043069324
 30
0.0
 41
1.0
 10
-22.12517641036379
 20
4.6985468031788
 30
0.0
 41
1.0
 10
-22.15012044643606
 20
6.542166444777081
 30
0.0
 41
1.0
 10
-22.16025702323157
 20
7.53301223521413
 30
0.0
 41
1.0
 10
-22.16400023400536
 20
8.523792397285746
 30
0.0
 41
1.0
  0
SPLINE
  5
B3
330
1F
100
AcDbEntity
  8
Default
100
AcDbSpline
210
0.0
220
0.0
230
1.0
 70
    12
 71
     2
 72
     6
 73
     3
 74
     0
 42
0.0000000001
 43
0.0000000001
 40
0.0
 40
0.0
 40
0.0
 40
1.157566753814006
 40
1.157566753814006
 40
1.157566753814006
 10
-22.16400023400536
 20
8.523792397285746
 30
0.0
 41
1.0
 10
-22.165348097461
 20
9.102577944119421
 30
0.0
 41
0.9999934222404667
 10
-22.1709001604988
 20
9.681337225291125
 30
0.0
 41
0.9999999999999121
  0
SPLINE
  5
B4
330
1F
100
AcDbEntity
  8
Default
100
AcDbSpline
210
0.0
220
0.0
230
1.0
 70
    12
 71
     2
 72
     6
 73
     3
 74
     0
 42
0.0000000001
 43
0.0000000001
 40
0.0
 40
0.0
 40
0.0
 40
0.0011163185374098
 40
0.0011163185374098
 40
0.0011163185374098
 10
-22.17090016049883
 20
9.681337225291117
 30
0.0
 41
1.0
 10
-22.17091200616889
 20
9.681895288399144
 30
0.0
 41
0.9999999568108967
 10
-22.17091765424243
 20
9.682909979841583
 30
0.0
 41
1.0
  0
SPLINE
  5
B5
330
1F
100
AcDbEntity
  8
Default
100
AcDbSpline
210
0.0
220
0.0
230
1.0
 70
    12
 71
     3
 72
    13
 73
     9
 74
     0
 42
0.0000000001
 43
0.0000000001
 40
1.159780968969077
 40
1.159780968969077
 40
1.159780968969077
 40
1.159780968969077
 40
1.219999999483621
 40
1.219999999483621
 40
1.859999999216523
 40
1.859999999216523
 40
2.49999999917158
 40
2.937447200127758
 40
2.937447200127758
 40
2.937447200127758
 40
2.937447200127758
 10
-22.17091765424243
 20
9.682909979841583
 30
0.0
 41
1.0
 10
-22.17114571959371
 20
9.703438966347733
 30
0.0
 41
1.0
 10
-22.17138219678839
 20
9.723511031694557
 30
0.0
 41
1.0
 10
-22.1742294055598
 20
9.95689999374116
 30
0.0
 41
1.0
 10
-22.17784442512288
 20
10.17023320478074
 30
0.0
 41
1.0
 10
-22.18447669868328
 20
10.59684831315658
 30
0.0
 41
1.0
 10
-22.18916143223112
 20
10.95596334870555
 30
0.0
 41
1.0
 10
-22.19001161161407
 20
11.31509077060545
 30
0.0
 41
1.0
 10
-22.19001097616808
 20
11.46118232485981
 30
0.0
 41
1.0
  0
SPLINE
  5
B6
330
1F
100
AcDbEntity
  8
Default
100
AcDbSpline
210
0.0
220
0.0
230
1.0
 70
    12
 71
     2
 72
     6
 73
     3
 74
     0
 42
0.0000000001
 43
0.0000000001
 40
0.0
 40
0.0
 40
0.0
 40
0.6998000892342029
 40
0.6998000892342029
 40
0.6998000892342029
 10
-22.19001097616808
 20
11.46118232485981
 30
0.0
 41
1.0
 10
-22.19045007646474
 20
11.88243362283056
 30
0.0
 41
0.764976675619346
 10
-22.60533966774938
 20
11.9537310466041
 30
0.0
 41
1.0
  0
SPLINE
  5
B7
330
1F
100
AcDbEntity
  8
Default
100
AcDbSpline
210
0.0
220
0.0
230
1.0
 70
    12
 71
     2
 72
     6
 73
     3
 74
     0
 42
0.0000000001
 43
0.0000000001
 40
0.0
 40
0.0
 40
0.0
 40
1.843263134159366
 40
1.843263134159366
 40
1.843263134159366
 10
-22.60533966774938
 20
11.9537310466041
 30
0.0
 41
1.0
 10
-23.51365992033549
 20
12.10980512042263
 30
0.0
 41
0.999999999993685
 10
-24.42197912016536
 20
12.26588515296334
 30
0.0
 41
1.0
  0
SPLINE
  5
B8
330
1F
100
AcDbEntity
  8
Default
100
AcDbSpline
210
0.0
220
0.0
230
1.0
 70
    12
 71
     5
 72
    13
 73
     7
 74
     0
 42
0.0000000001
 43
0.0000000001
 40
-0.0000214316302125
 40
-0.0000214316302125
 40
-0.0000214316302125
 40
-0.0000214316302125
 40
-0.0000214316302125
 40
-0.0000214316302125
 40
0.4999999999109885
 40
0.9999999998854894
 40
0.9999999998854894
 40
0.9999999998854894
 40
0.9999999998854894
 40
0.9999999998854894
 40
0.9999999998854894
 10
-24.42197912016536
 20
12.26588515296334
 30
0.0
 41
1.0
 10
-24.48595075267201
 20
12.27687454006889
 30
0.0
 41
1.0
 10
-24.60063474177321
 20
12.31002542084693
 30
0.0
 41
1.0
 10
-24.68880380919506
 20
12.36553619865956
 30
0.0
 41
1.0
 10
-24.74669998185891
 20
12.44654867131698
 30
0.0
 41
1.0
 10
-24.76599903336307
 20
12.56009560996313
 30
0.0
 41
1.0
 10
-24.76599967940297
 20
12.62500000235795
 30
0.0
 41
1.0
  0
SPLINE
  5
B9
330
1F
100
AcDbEntity
  8
Default
100
AcDbSpline
210
0.0
220
0.0
230
1.0
 70
    12
 71
     2
 72
     6
 73
     3
 74
     0
 42
0.0000000001
 43
0.0000000001
 40
0.0
 40
0.0
 40
0.0
 40
0.0026344063336084
 40
0.0026344063336084
 40
0.0026344063336084
 10
49.40085951894878
 20
12.62369822161139
 30
0.0
 41
1.0
 10
49.40084542168815
 20
12.62238109374753
 30
0.0
 41
0.9999998444549029
 10
49.40082985516835
 20
12.62106398242881
 30
0.0
 41
1.0
  0
SPLINE
  5
BA
330
1F
100
AcDbEntity
  8
Default
100
AcDbSpline
210
0.0
220
0.0
230
1.0
 70
    24
 71
     2
 72
     6
 73
     3
 74
     0
 42
0.0000000001
 43
0.0000000001
 40
0.0
 40
0.0
 40
0.0
 40
2.872049792281604
 40
2.872049792281604
 40
2.872049792281604
 10
47.20086322058262
 20
14.62503914793996
 30
0.0
 10
47.20086322058268
 20
16.06106404408075
 30
0.0
 10
47.20086322058273
 20
17.49708894022154
 30
0.0
  0
SPLINE
  5
BB
330
1F
100
AcDbEntity
  8
Default
100
AcDbSpline
210
0.0
220
0.0
230
1.0
 70
    12
 71
     2
 72
     6
 73
     3
 74
     0
 42
0.0000000001
 43
0.0000000001
 40
0.0
 40
0.0
 40
0.0
 40
0.7853981633974554
 40
0.7853981633974554
 40
0.7853981633974554
 10
47.20086322058273
 20
17.49708894022154
 30
0.0
 41
1.0
 10
47.20086322058275
 20
17.99708894022156
 30
0.0
 41
0.7071067811865426
 10
47.70086322058273
 20
17.99708894022154
 30
0.0
 41
1.0
  0
SPLINE
  5
BC
330
1F
100
AcDbEntity
  8
Default
100
AcDbSpline
210
0.0
220
0.0
230
1.0
 70
    24
 71
     2
 72
     6
 73
     3
 74
     0
 42
0.0000000001
 43
0.0000000001
 40
0.0
 40
0.0
 40
0.0
 40
23.99999995722946
 40
23.99999995722946
 40
23.99999995722946
 10
47.70086322058273
 20
17.99708894022154
 30
0.0
 10
59.70086319919744
 20
17.99708894022154
 30
0.0
 10
71.70086317781215
 20
17.99708894022154
 30
0.0
  0
SPLINE
  5
BD
330
1F
100
AcDbEntity
  8
Default
100
AcDbSpline
210
0.0
220
0.0
230
1.0
 70
    12
 71
     2
 72
     6
 73
     3
 74
     0
 42
0.0000000001
 43
0.0000000001
 40
0.0
 40
0.0
 40
0.0
 40
0.7853981633974382
 40
0.7853981633974382
 40
0.7853981633974382
 10
71.70086317781215
 20
17.99708894022154
 30
0.0
 41
1.0
 10
72.20086317781232
 20
17.99708894022154
 30
0.0
 41
0.7071067811865627
 10
72.20086317781215
 20
17.49708894022154
 30
0.0
 41
1.0
  0
SPLINE
  5
BE
330
1F
100
AcDbEntity
  8
Default
100
AcDbSpline
210
0.0
220
0.0
230
1.0
 70
    24
 71
     2
 72
     6
 73
     3
 74
     0
 42
0.0000000001
 43
0.0000000001
 40
0.0
 40
0.0
 40
0.0
 40
2.872049792281601
 40
2.872049792281601
 40
2.872049792281601
 10
72.20086317781215
 20
17.49708894022154
 30
0.0
 10
72.20086317781227
 20
16.06106404408075
 30
0.0
 10
72.20086317781238
 20
14.62503914793996
 30
0.0
  0
ARC
  5
BF
330
1F
100
AcDbEntity
  8
Default
100
AcDbCircle
 10
71.95086317781238
 20
14.62503914793996
 30
0.0
 40
0.25
100
AcDbArc
 50
270.0
 51
0.0000000000008142
  0
POLYLINE
  5
C0
330
1F
100
AcDbEntity
  8
Default
100
AcDb2dPolyline
 66
     1
 10
0.0
 20
0.0
 30
0.0
  0
VERTEX
  5
C1
330
C0
100
AcDbEntity
  8
Default
100
AcDbVertex
100
AcDb2dVertex
 10
71.95086317781238
 20
14.37503914793996
 30
0.0
  0
VERTEX
  5
C2
330
C0
100
AcDbEntity
  8
Default
100
AcDbVertex
100
AcDb2dVertex
 10
48.74961322058357
 20
14.37503914793996
 30
0.0
  0
SEQEND
  5
C3
330
C0
100
AcDbEntity
  8
Default
  0
LINE
  5
C4
330
1F
100
AcDbEntity
  8
Default
100
AcDbLine
 10
48.74961322058357
 20
14.37503914793996
 30
0.0
 11
47.45086322058273
 21
14.37503914793996
 31
0.0
  0
ARC
  5
C5
330
1F
100
AcDbEntity
  8
Default
100
AcDbCircle
 10
47.45086322058262
 20
14.62503914793996
 30
0.0
 40
0.25
100
AcDbArc
 50
180.0
 51
270.0000000000196
  0
ARC
  5
C6
330
1F
100
AcDbEntity
  8
Default
100
AcDbCircle
 10
-10190.22870295641
 20
-414.3754196209939
 30
0.0
 40
10246.45187490584
100
AcDbArc
 50
2.318561083117719
 51
2.319822024803955
  0
LINE
  5
C7
330
1F
100
AcDbEntity
  8
Default
100
AcDbLine
 10
47.82570604692023
 20
0.3750391479403845
 30
0.0
 11
48.95071132109513
 21
0.3750391479403845
 31
0.0
  0
LINE
  5
C8
330
1F
100
AcDbEntity
  8
Default
100
AcDbLine
 10
48.95071132109513
 20
0.3750391479403845
 30
0.0
 11
48.93935539905772
 21
0.1496421885582038
 31
0.0
  0
SPLINE
  5
C9
330
1F
100
AcDbEntity
  8
Default
100
AcDbSpline
210
0.0
220
0.0
230
1.0
 70
    12
 71
     2
 72
     6
 73
     3
 74
     0
 42
0.0000000001
 43
0.0000000001
 40
-0.2387149143318927
 40
-0.2387149143318927
 40
-0.2387149143318927
 40
0.0
 40
0.0
 40
0.0
 10
48.93935539905772
 20
0.1496421885582038
 30
0.0
 41
1.0
 10
48.93326345682397
 20
-0.0000384788826898
 30
0.0
 41
0.7212476062221478
 10
48.78298339692856
 20
0.0000003945672802
 30
0.0
 41
1.0
  0
SPLINE
  5
CA
330
1F
100
AcDbEntity
  8
Default
100
AcDbSpline
210
0.0
220
0.0
230
1.0
 70
    12
 71
     2
 72
     6
 73
     3
 74
     0
 42
0.0000000001
 43
0.0000000001
 40
0.0
 40
0.0
 40
0.0
 40
0.3954244124017839
 40
0.3954244124017839
 40
0.3954244124017839
 10
48.78298339692856
 20
0.0000003945672802
 30
0.0
 41
1.0
 10
48.58479542727825
 20
0.0000274211329071
 30
0.0
 41
0.999999999289049
 10
48.38708322133107
 20
0.0000391457582793
 30
0.0
 41
1.0
  0
SPLINE
  5
CB
330
1F
100
AcDbEntity
  8
Default
100
AcDbSpline
210
0.0
220
0.0
230
1.0
 70
    24
 71
     2
 72
     6
 73
     3
 74
     0
 42
0.0000000001
 43
0.0000000001
 40
0.0
 40
0.0
 40
0.0
 40
0.3954243890795226
 40
0.3954243890795226
 40
0.3954243890795226
 10
48.38708322133107
 20
0.0000391457582793
 30
0.0
 10
48.18913313778722
 20
0.0000391464777749
 30
0.0
 10
47.99118305424338
 20
0.0000391471972705
 30
0.0
  0
SPLINE
  5
CC
330
1F
100
AcDbEntity
  8
Default
100
AcDbSpline
210
0.0
220
0.0
230
1.0
 70
    12
 71
     2
 72
     6
 73
     3
 74
     0
 42
0.0000000001
 43
0.0000000001
 40
-0.2387271341672585
 40
-0.2387271341672585
 40
-0.2387271341672585
 40
0.0
 40
0.0
 40
0.0
 10
47.99118305424338
 20
0.0000391471972705
 30
0.0
 41
1.0
 10
47.8408998269704
 20
0.0000391477218271
 30
0.0
 41
0.7212776802320741
 10
47.83483122320388
 20
0.1497242040884146
 30
0.0
 41
1.0
  0
SPLINE
  5
CD
330
1F
100
AcDbEntity
  8
Default
100
AcDbSpline
210
0.0
220
0.0
230
1.0
 70
    24
 71
     2
 72
     6
 73
     3
 74
     0
 42
0.0000000001
 43
0.0000000001
 40
0.2500000000000011
 40
0.2500000000000011
 40
0.2500000000000011
 40
1.500000000000007
 40
1.500000000000007
 40
1.500000000000007
 10
31.75000000000023
 20
12.87500000239919
 30
0.0
 10
31.75000000000006
 20
13.50000000239919
 30
0.0
 10
31.74999999999989
 20
14.12500000239919
 30
0.0
  0
ARC
  5
CE
330
1F
100
AcDbEntity
  8
Default
100
AcDbCircle
 10
31.49999999999989
 20
14.12500000239919
 30
0.0
 40
0.25
100
AcDbArc
 50
0.0
 51
90.0
  0
LINE
  5
CF
330
1F
100
AcDbEntity
  8
Default
100
AcDbLine
 10
31.49999999999989
 20
14.37500000239919
 30
0.0
 11
-31.50000000000011
 21
14.37500000239919
 31
0.0
  0
ARC
  5
D0
330
1F
100
AcDbEntity
  8
Default
100
AcDbCircle
 10
-31.50000000000011
 20
14.12500000239919
 30
0.0
 40
0.25
100
AcDbArc
 50
90.0
 51
180.0000000000008
  0
SPLINE
  5
D1
330
1F
100
AcDbEntity
  8
Default
100
AcDbSpline
210
0.0
220
0.0
230
1.0
 70
    24
 71
     2
 72
     6
 73
     3
 74
     0
 42
0.0000000001
 43
0.0000000001
 40
0.0
 40
0.0
 40
0.0
 40
1.250000000000003
 40
1.250000000000003
 40
1.250000000000003
 10
-31.75000000000011
 20
14.12500000239919
 30
0.0
 10
-31.75000000000017
 20
13.50000000239919
 30
0.0
 10
-31.75000000000023
 20
12.87500000239919
 30
0.0
  0
ARC
  5
D2
330
1F
100
AcDbEntity
  8
Default
100
AcDbCircle
 10
-31.50000000000023
 20
12.87500000239913
 30
0.0
 40
0.25
100
AcDbArc
 50
179.9999999999919
 51
270.0000000000505
  0
SPLINE
  5
D3
330
1F
100
AcDbEntity
  8
Default
100
AcDbSpline
210
0.0
220
0.0
230
1.0
 70
    24
 71
     2
 72
     6
 73
     3
 74
     0
 42
0.0000000001
 43
0.0000000001
 40
-63.15270330308456
 40
-63.15270330308456
 40
-63.15270330308456
 40
-0.1527033030843092
 40
-0.1527033030843092
 40
-0.1527033030843092
 10
-31.5
 20
12.62500000239913
 30
0.0
 10
0.0000000000001137
 20
12.62500000239916
 30
0.0
 10
31.50000000000023
 20
12.62500000239919
 30
0.0
  0
ARC
  5
D4
330
1F
100
AcDbEntity
  8
Default
100
AcDbCircle
 10
31.50000000000023
 20
12.87500000239919
 30
0.0
 40
0.25
100
AcDbArc
 50
270.0
 51
0.0000000000004071
  0
POLYLINE
  5
D5
330
1F
100
AcDbEntity
  8
Default
100
AcDb2dPolyline
 66
     1
 10
0.0
 20
0.0
 30
0.0
  0
VERTEX
  5
D6
330
D5
100
AcDbEntity
  8
Default
100
AcDbVertex
100
AcDb2dVertex
 10
24.76599508272773
 20
12.62500000235795
 30
0.0
  0
VERTEX
  5
D7
330
D5
100
AcDbEntity
  8
Default
100
AcDbVertex
100
AcDb2dVertex
 10
18.54599540332606
 20
12.62500000235795
 30
0.0
  0
SEQEND
  5
D8
330
D5
100
AcDbEntity
  8
Default
  0
SPLINE
  5
D9
330
1F
100
AcDbEntity
  8
Default
100
AcDbSpline
210
0.0
220
0.0
230
1.0
 70
    12
 71
     5
 72
    13
 73
     7
 74
     0
 42
0.0000000001
 43
0.0000000001
 40
-0.9999999998854913
 40
-0.9999999998854913
 40
-0.9999999998854913
 40
-0.9999999998854913
 40
-0.9999999998854913
 40
-0.9999999998854913
 40
-0.4999999999118557
 40
0.0000214316302039
 40
0.0000214316302039
 40
0.0000214316302039
 40
0.0000214316302039
 40
0.0000214316302039
 40
0.0000214316302039
 10
18.54599540332606
 20
12.62500000235795
 30
0.0
 41
1.0
 10
18.54599604936595
 20
12.56009560996313
 30
0.0
 41
1.0
 10
18.56529510087023
 20
12.44654867131678
 30
0.0
 41
1.0
 10
18.62319127353419
 20
12.3655361986593
 30
0.0
 41
1.0
 10
18.71136034095628
 20
12.31002542084664
 30
0.0
 41
1.0
 10
18.82604433005793
 20
12.27687454006866
 30
0.0
 41
1.0
 10
18.89001596715741
 20
12.26588517969745
 30
0.0
 41
1.0
  0
SPLINE
  5
DA
330
1F
100
AcDbEntity
  8
Default
100
AcDbSpline
210
0.0
220
0.0
230
1.0
 70
    12
 71
     2
 72
     6
 73
     3
 74
     0
 42
0.0000000001
 43
0.0000000001
 40
0.0
 40
0.0
 40
0.0
 40
1.843263450064862
 40
1.843263450064862
 40
1.843263450064862
 10
18.89001596715741
 20
12.26588517969745
 30
0.0
 41
1.0
 10
19.79833532725401
 20
12.10980514713988
 30
0.0
 41
0.9999999999936852
 10
20.70665573057204
 20
11.9537310177214
 30
0.0
 41
1.0
  0
SPLINE
  5
DB
330
1F
100
AcDbEntity
  8
Default
100
AcDbSpline
210
0.0
220
0.0
230
1.0
 70
    12
 71
     2
 72
     6
 73
     3
 74
     0
 42
0.0000000001
 43
0.0000000001
 40
0.0
 40
0.0
 40
0.0
 40
0.6997662170032295
 40
0.6997662170032295
 40
0.6997662170032295
 10
20.70665573057204
 20
11.9537310177214
 30
0.0
 41
1.0
 10
21.12152276330017
 20
11.88244667937159
 30
0.0
 41
0.7649870492777086
 10
21.1219793425671
 20
11.46120110138611
 30
0.0
 41
1.0
  0
SPLINE
  5
DC
330
1F
100
AcDbEntity
  8
Default
100
AcDbSpline
210
0.0
220
0.0
230
1.0
 70
    12
 71
     3
 72
    13
 73
     9
 74
     0
 42
0.0000000001
 43
0.0000000001
 40
1.164116092654201
 40
1.164116092654201
 40
1.164116092654201
 40
1.164116092654201
 40
1.192754371812117
 40
1.192754371812117
 40
1.839154429652598
 40
2.485554487552516
 40
2.485554487552516
 40
2.941799361814759
 40
2.941799361814759
 40
2.941799361814759
 40
2.941799361814759
 10
21.1219793425671
 20
11.46120110138611
 30
0.0
 41
1.0
 10
21.12197849731592
 20
11.45135583614481
 30
0.0
 41
1.0
 10
21.12197905618939
 20
11.44180974146306
 30
0.0
 41
1.0
 10
21.12202860073535
 20
11.2167969686364
 30
0.0
 41
1.0
 10
21.12411226118979
 20
10.78587479042528
 30
0.0
 41
1.0
 10
21.13130000267836
 20
10.35502399011492
 30
0.0
 41
1.0
 10
21.13709820287306
 20
9.987521416801457
 30
0.0
 41
1.0
 10
21.1392990081348
 20
9.83544406875302
 30
0.0
 41
1.0
 10
21.14106570819558
 20
9.682909845823701
 30
0.0
 41
1.0
  0
SPLINE
  5
DD
330
1F
100
AcDbEntity
  8
Default
100
AcDbSpline
210
0.0
220
0.0
230
1.0
 70
    12
 71
     2
 72
     6
 73
     3
 74
     0
 42
0.0000000001
 43
0.0000000001
 40
0.0
 40
0.0
 40
0.0
 40
0.0011199978112541
 40
0.0011199978112541
 40
0.0011199978112541
 10
21.14106570819558
 20
9.682909845823701
 30
0.0
 41
1.0
 10
21.14108341629645
 20
9.68189344886065
 30
0.0
 41
0.9999999565253123
 10
21.14108341555141
 20
9.681333409514025
 30
0.0
 41
1.0
  0
SPLINE
  5
DE
330
1F
100
AcDbEntity
  8
Default
100
AcDbSpline
210
0.0
220
0.0
230
1.0
 70
    12
 71
     2
 72
     6
 73
     3
 74
     0
 42
0.0000000001
 43
0.0000000001
 40
0.0
 40
0.0
 40
0.0
 40
1.157563000328597
 40
1.157563000328597
 40
1.157563000328597
 10
21.14108341555141
 20
9.681333409514025
 30
0.0
 41
1.0
 10
21.14665913385056
 20
9.102576156243051
 30
0.0
 41
0.9999932729902123
 10
21.14799516897585
 20
8.523792488378888
 30
0.0
 41
1.0
  0
SPLINE
  5
DF
330
1F
100
AcDbEntity
  8
Default
100
AcDbSpline
210
0.0
220
0.0
230
1.0
 70
    12
 71
     3
 72
    12
 73
     8
 74
     0
 42
0.0000000001
 43
0.0000000001
 40
0.0000022290245399
 40
0.0000022290245399
 40
0.0000022290245399
 40
0.0000022290245399
 40
2.973330383277389
 40
2.973330383277389
 40
5.533332299297856
 40
5.533332299297856
 40
8.0907540207247
 40
8.0907540207247
 40
8.0907540207247
 40
8.0907540207247
 10
21.14799516897585
 20
8.523792488378888
 30
0.0
 41
1.0
 10
21.15173837885163
 20
7.533012356544702
 30
0.0
 41
1.0
 10
21.16187495607051
 20
6.542166505228664
 30
0.0
 41
1.0
 10
21.18681899296689
 20
4.698546802840923
 30
0.0
 41
1.0
 10
21.20067826903573
 20
3.846004306662138
 30
0.0
 41
1.0
 10
21.22802873039484
 20
2.140986238235911
 30
0.0
 41
1.0
 10
21.24143764376493
 20
1.289616091246216
 30
0.0
 41
1.0
 10
21.25267522315835
 20
0.4374291487058031
 30
0.0
 41
1.0
  0
SPLINE
  5
E0
330
1F
100
AcDbEntity
  8
Default
100
AcDbSpline
210
0.0
220
0.0
230
1.0
 70
    12
 71
     2
 72
     6
 73
     3
 74
     0
 42
0.0000000001
 43
0.0000000001
 40
0.0
 40
0.0
 40
0.0
 40
0.0970316672143772
 40
0.0970316672143772
 40
0.0970316672143772
 10
21.25267522315835
 20
0.4374291487058031
 30
0.0
 41
1.0
 10
21.25325381989312
 20
0.3763075181236976
 30
0.0
 41
0.717857630247824
 10
21.31433984724049
 20
0.3750140462356626
 30
0.0
 41
1.0
  0
POLYLINE
  5
E1
330
1F
100
AcDbEntity
  8
Default
100
AcDb2dPolyline
 66
     1
 10
0.0
 20
0.0
 30
0.0
  0
VERTEX
  5
E2
330
E1
100
AcDbEntity
  8
Default
100
AcDbVertex
100
AcDb2dVertex
 10
21.31433984724049
 20
0.3750140462356626
 30
0.0
  0
VERTEX
  5
E3
330
E1
100
AcDbEntity
  8
Default
100
AcDbVertex
100
AcDb2dVertex
 10
21.9963198758129
 20
0.3750000024411975
 30
0.0
  0
SEQEND
  5
E4
330
E1
100
AcDbEntity
  8
Default
  0
SPLINE
  5
E5
330
1F
100
AcDbEntity
  8
Default
100
AcDbSpline
210
0.0
220
0.0
230
1.0
 70
    12
 71
     2
 72
     6
 73
     3
 74
     0
 42
0.0000000001
 43
0.0000000001
 40
0.0
 40
0.0
 40
0.0
 40
0.0983105351425802
 40
0.0983105351425802
 40
0.0983105351425802
 10
21.9963198758129
 20
0.3750000024411975
 30
0.0
 41
1.0
 10
22.05867571223894
 20
0.374998070860006
 30
0.0
 41
0.7107094273922171
 10
22.05931462585022
 20
0.4373708929651912
 30
0.0
 41
1.0
  0
SPLINE
  5
E6
330
1F
100
AcDbEntity
  8
Default
100
AcDbSpline
210
0.0
220
0.0
230
1.0
 70
    12
 71
     3
 72
    12
 73
     8
 74
     0
 42
0.0000000001
 43
0.0000000001
 40
0.0025122088885125
 40
0.0025122088885125
 40
0.0025122088885125
 40
0.0025122088885125
 40
2.559996601448771
 40
2.559996601448771
 40
5.119998517672128
 40
5.119998517672128
 40
8.093326489272172
 40
8.093326489272172
 40
8.093326489272172
 40
8.093326489272172
 10
22.05931462585022
 20
0.4373708929651912
 30
0.0
 41
1.0
 10
22.07055250570181
 20
1.289574364790269
 30
0.0
 41
1.0
 10
22.08396174130792
 20
2.140965357733307
 30
0.0
 41
1.0
 10
22.1113125376188
 20
3.8460043069324
 30
0.0
 41
1.0
 10
22.12517181368867
 20
4.6985468031788
 30
0.0
 41
1.0
 10
22.15011584976094
 20
6.542166444777081
 30
0.0
 41
1.0
 10
22.16025242655644
 20
7.53301223521413
 30
0.0
 41
1.0
 10
22.16399563733023
 20
8.523792397285746
 30
0.0
 41
1.0
  0
SPLINE
  5
E7
330
1F
100
AcDbEntity
  8
Default
100
AcDbSpline
210
0.0
220
0.0
230
1.0
 70
    12
 71
     2
 72
     6
 73
     3
 74
     0
 42
0.0000000001
 43
0.0000000001
 40
0.0
 40
0.0
 40
0.0
 40
1.157566753814006
 40
1.157566753814006
 40
1.157566753814006
 10
22.16399563733023
 20
8.523792397285746
 30
0.0
 41
1.0
 10
22.16534350078586
 20
9.102577944119421
 30
0.0
 41
0.9999934222404667
 10
22.17089556382366
 20
9.681337225291125
 30
0.0
 41
0.9999999999999121
  0
SPLINE
  5
E8
330
1F
100
AcDbEntity
  8
Default
100
AcDbSpline
210
0.0
220
0.0
230
1.0
 70
    12
 71
     2
 72
     6
 73
     3
 74
     0
 42
0.0000000001
 43
0.0000000001
 40
0.0
 40
0.0
 40
0.0
 40
0.0011163185374098
 40
0.0011163185374098
 40
0.0011163185374098
 10
22.17089556382371
 20
9.681337225291117
 30
0.0
 41
1.0
 10
22.17090740949381
 20
9.681895288399144
 30
0.0
 41
0.9999999568108967
 10
22.1709130575673
 20
9.682909979841583
 30
0.0
 41
1.0
  0
SPLINE
  5
E9
330
1F
100
AcDbEntity
  8
Default
100
AcDbSpline
210
0.0
220
0.0
230
1.0
 70
    12
 71
     3
 72
    13
 73
     9
 74
     0
 42
0.0000000001
 43
0.0000000001
 40
1.159780968969077
 40
1.159780968969077
 40
1.159780968969077
 40
1.159780968969077
 40
1.219999999483621
 40
1.219999999483621
 40
1.859999999216523
 40
1.859999999216523
 40
2.49999999917158
 40
2.937447200127758
 40
2.937447200127758
 40
2.937447200127758
 40
2.937447200127758
 10
22.1709130575673
 20
9.682909979841583
 30
0.0
 41
1.0
 10
22.17114112291858
 20
9.703438966347733
 30
0.0
 41
1.0
 10
22.17137760011315
 20
9.723511031694557
 30
0.0
 41
1.0
 10
22.17422480888467
 20
9.95689999374116
 30
0.0
 41
1.0
 10
22.17783982844765
 20
10.17023320478074
 30
0.0
 41
1.0
 10
22.18447210200816
 20
10.59684831315658
 30
0.0
 41
1.0
 10
22.18915683555588
 20
10.95596334870555
 30
0.0
 41
1.0
 10
22.19000701493894
 20
11.31509077060545
 30
0.0
 41
1.0
 10
22.19000637949296
 20
11.46118232485981
 30
0.0
 41
1.0
  0
SPLINE
  5
EA
330
1F
100
AcDbEntity
  8
Default
100
AcDbSpline
210
0.0
220
0.0
230
1.0
 70
    12
 71
     2
 72
     6
 73
     3
 74
     0
 42
0.0000000001
 43
0.0000000001
 40
0.0
 40
0.0
 40
0.0
 40
0.6998000892342029
 40
0.6998000892342029
 40
0.6998000892342029
 10
22.19000637949296
 20
11.46118232485981
 30
0.0
 41
1.0
 10
22.19044547978949
 20
11.88243362283056
 30
0.0
 41
0.764976675619346
 10
22.60533507107425
 20
11.9537310466041
 30
0.0
 41
1.0
  0
SPLINE
  5
EB
330
1F
100
AcDbEntity
  8
Default
100
AcDbSpline
210
0.0
220
0.0
230
1.0
 70
    12
 71
     2
 72
     6
 73
     3
 74
     0
 42
0.0000000001
 43
0.0000000001
 40
0.0
 40
0.0
 40
0.0
 40
1.843263134159366
 40
1.843263134159366
 40
1.843263134159366
 10
22.60533507107425
 20
11.9537310466041
 30
0.0
 41
1.0
 10
23.51365532366041
 20
12.10980512042263
 30
0.0
 41
0.999999999993685
 10
24.42197452349012
 20
12.26588515296334
 30
0.0
 41
1.0
  0
SPLINE
  5
EC
330
1F
100
AcDbEntity
  8
Default
100
AcDbSpline
210
0.0
220
0.0
230
1.0
 70
    12
 71
     5
 72
    13
 73
     7
 74
     0
 42
0.0000000001
 43
0.0000000001
 40
-0.0000214316302125
 40
-0.0000214316302125
 40
-0.0000214316302125
 40
-0.0000214316302125
 40
-0.0000214316302125
 40
-0.0000214316302125
 40
0.4999999999109885
 40
0.9999999998854894
 40
0.9999999998854894
 40
0.9999999998854894
 40
0.9999999998854894
 40
0.9999999998854894
 40
0.9999999998854894
 10
24.42197452349012
 20
12.26588515296334
 30
0.0
 41
1.0
 10
24.48594615599677
 20
12.27687454006889
 30
0.0
 41
1.0
 10
24.60063014509808
 20
12.31002542084693
 30
0.0
 41
1.0
 10
24.68879921251994
 20
12.36553619865956
 30
0.0
 41
1.0
 10
24.74669538518367
 20
12.44654867131698
 30
0.0
 41
1.0
 10
24.76599443668795
 20
12.56009560996313
 30
0.0
 41
1.0
 10
24.76599508272773
 20
12.62500000235795
 30
0.0
 41
1.0
  0
POLYLINE
  5
ED
330
1F
100
AcDbEntity
  8
Default
100
AcDb2dPolyline
 66
     1
 10
0.0
 20
0.0
 30
0.0
  0
VERTEX
  5
EE
330
ED
100
AcDbEntity
  8
Default
100
AcDbVertex
100
AcDb2dVertex
 10
21.41390664184962
 20
-0.0000000002171134
 30
0.0
  0
VERTEX
  5
EF
330
ED
100
AcDbEntity
  8
Default
100
AcDbVertex
100
AcDb2dVertex
 10
21.898084169257
 20
0.0000000002171703
 30
0.0
  0
SEQEND
  5
F0
330
ED
100
AcDbEntity
  8
Default
  0
SPLINE
  5
F1
330
1F
100
AcDbEntity
  8
Default
100
AcDbSpline
210
0.0
220
0.0
230
1.0
 70
    12
 71
     2
 72
     6
 73
     3
 74
     0
 42
0.0000000001
 43
0.0000000001
 40
0.0
 40
0.0
 40
0.0
 40
0.241924443334512
 40
0.241924443334512
 40
0.241924443334512
 10
21.898084169257
 20
0.0000000002171703
 30
0.0
 41
1.0
 10
22.05099518342443
 20
0.0000000303540884
 30
0.0
 41
0.7141418074729331
 10
22.05396650759474
 20
0.1529065059711456
 30
0.0
 41
1.0
  0
LINE
  5
F2
330
1F
100
AcDbEntity
  8
Default
100
AcDbLine
 10
22.05396650759474
 20
0.1529065059711456
 30
0.0
 11
22.05866510468547
 21
0.3750000023996165
 31
0.0
  0
LINE
  5
F3
330
1F
100
AcDbEntity
  8
Default
100
AcDbLine
 10
22.05866510468547
 20
0.3750000023996165
 30
0.0
 11
21.25385598871037
 21
0.3750000023996165
 31
0.0
  0
LINE
  5
F4
330
1F
100
AcDbEntity
  8
Default
100
AcDbLine
 10
21.25385598871037
 20
0.3750000023996165
 30
0.0
 11
21.25828944725299
 21
0.1529065037773307
 31
0.0
  0
SPLINE
  5
F5
330
1F
100
AcDbEntity
  8
Default
100
AcDbSpline
210
0.0
220
0.0
230
1.0
 70
    12
 71
     2
 72
     6
 73
     3
 74
     0
 42
0.0000000001
 43
0.0000000001
 40
0.0
 40
0.0
 40
0.0
 40
0.2419244355107725
 40
0.2419244355107725
 40
0.2419244355107725
 10
21.25828944725299
 20
0.1529065037773307
 30
0.0
 41
1.0
 10
21.26099563385197
 20
0.0000000321588069
 30
0.0
 41
0.7141418153608741
 10
21.41390664184962
 20
-0.0000000002171134
 30
0.0
 41
1.0
  0
ENDSEC
  0
SECTION
  2
OBJECTS
  0
DICTIONARY
  5
C
330
0
100
AcDbDictionary
281
     1
  3
ACAD_GROUP
350
D
  3
ACAD_LAYOUT
350
1A
  3
ACAD_MLEADERSTYLE
350
F7
  3
ACAD_MLINESTYLE
350
17
  3
ACAD_PLOTSETTINGS
350
19
  3
ACAD_PLOTSTYLENAME
350
E
  3
ACAD_TABLESTYLE
350
F6
  3
ACAD_VISUALSTYLE
350
2A
  0
DICTIONARY
  5
D
102
{ACAD_REACTORS
330
C
102
}
330
C
100
AcDbDictionary
281
     1
  0
DICTIONARY
  5
1A
102
{ACAD_REACTORS
330
C
102
}
330
C
100
AcDbDictionary
281
     1
  3
Layout1
350
1E
  3
Layout2
350
26
  3
Model
350
22
  0
DICTIONARY
  5
F7
102
{ACAD_REACTORS
330
C
102
}
330
C
100
AcDbDictionary
281
     1
  0
DICTIONARY
  5
17
102
{ACAD_REACTORS
330
C
102
}
330
C
100
AcDbDictionary
281
     1
  3
Standard
350
18
  0
DICTIONARY
  5
19
102
{ACAD_REACTORS
330
C
102
}
330
C
100
AcDbDictionary
281
     1
  0
ACDBDICTIONARYWDFLT
  5
E
102
{ACAD_REACTORS
330
C
102
}
330
C
100
AcDbDictionary
281
     1
  3
Normal
350
F
100
AcDbDictionaryWithDefault
340
F
  0
DICTIONARY
  5
F6
102
{ACAD_REACTORS
330
C
102
}
330
C
100
AcDbDictionary
281
     1
  0
DICTIONARY
  5
2A
102
{ACAD_REACTORS
330
C
102
}
330
C
100
AcDbDictionary
281
     1
  3
2dWireframe
350
2F
  3
3D Hidden
350
31
  3
3dWireframe
350
30
  3
Basic
350
32
  3
Brighten
350
36
  3
ColorChange
350
3A
  3
Conceptual
350
34
  3
Dim
350
35
  3
Facepattern
350
39
  3
Flat
350
2B
  3
FlatWithEdges
350
2C
  3
Gouraud
350
2D
  3
GouraudWithEdges
350
2E
  3
Linepattern
350
38
  3
Realistic
350
33
  3
Thicken
350
37
  0
LAYOUT
  5
1E
102
{ACAD_REACTORS
330
1A
102
}
330
1A
100
AcDbPlotSettings
  1

  2
none_device
  4

  6

 40
0.0
 41
0.0
 42
0.0
 43
0.0
 44
0.0
 45
0.0
 46
0.0
 47
0.0
 48
0.0
 49
0.0
140
0.0
141
0.0
142
1.0
143
1.0
 70
   688
 72
     0
 73
     0
 74
     5
  7

 75
    16
 76
     0
 77
     2
 78
   300
147
1.0
148
0.0
149
0.0
100
AcDbLayout
  1
Layout1
 70
     1
 71
     1
 10
0.0
 20
0.0
 11
12.0
 21
9.0
 12
0.0
 22
0.0
 32
0.0
 14
1.000000000000000E+20
 24
1.000000000000000E+20
 34
1.000000000000000E+20
 15
-1.000000000000000E+20
 25
-1.000000000000000E+20
 35
-1.000000000000000E+20
146
0.0
 13
0.0
 23
0.0
 33
0.0
 16
1.0
 26
0.0
 36
0.0
 17
0.0
 27
1.0
 37
0.0
 76
     0
330
1B
  0
LAYOUT
  5
26
102
{ACAD_REACTORS
330
1A
102
}
330
1A
100
AcDbPlotSettings
  1

  2
none_device
  4

  6

 40
0.0
 41
0.0
 42
0.0
 43
0.0
 44
0.0
 45
0.0
 46
0.0
 47
0.0
 48
0.0
 49
0.0
140
0.0
141
0.0
142
1.0
143
1.0
 70
   688
 72
     0
 73
     0
 74
     5
  7

 75
    16
 76
     0
 77
     2
 78
   300
147
1.0
148
0.0
149
0.0
100
AcDbLayout
  1
Layout2
 70
     1
 71
     2
 10
0.0
 20
0.0
 11
0.0
 21
0.0
 12
0.0
 22
0.0
 32
0.0
 14
0.0
 24
0.0
 34
0.0
 15
0.0
 25
0.0
 35
0.0
146
0.0
 13
0.0
 23
0.0
 33
0.0
 16
1.0
 26
0.0
 36
0.0
 17
0.0
 27
1.0
 37
0.0
 76
     0
330
23
  0
LAYOUT
  5
22
102
{ACAD_REACTORS
330
1A
102
}
330
1A
100
AcDbPlotSettings
  1

  2
none_device
  4

  6

 40
0.0
 41
0.0
 42
0.0
 43
0.0
 44
0.0
 45
0.0
 46
0.0
 47
0.0
 48
0.0
 49
0.0
140
0.0
141
0.0
142
1.0
143
1.0
 70
  1712
 72
     0
 73
     0
 74
     0
  7

 75
     0
 76
     0
 77
     2
 78
   300
147
1.0
148
0.0
149
0.0
100
AcDbLayout
  1
Model
 70
     1
 71
     0
 10
0.0
 20
0.0
 11
12.0
 21
9.0
 12
0.0
 22
0.0
 32
0.0
 14
-31.75000861649789
 24
-0.0000000002171134
 34
0.0
 15
72.20086322058455
 25
65.13795852298665
 35
0.0
146
0.0
 13
0.0
 23
0.0
 33
0.0
 16
1.0
 26
0.0
 36
0.0
 17
0.0
 27
1.0
 37
0.0
 76
     0
330
1F
331
29
  0
MLINESTYLE
  5
18
102
{ACAD_REACTORS
330
17
102
}
330
17
100
AcDbMlineStyle
  2
Standard
 70
     0
  3

 62
   256
 51
90.0
 52
90.0
 71
     2
 49
0.5
 62
   256
  6
BYLAYER
 49
-0.5
 62
   256
  6
BYLAYER
  0
ACDBPLACEHOLDER
  5
F
102
{ACAD_REACTORS
330
E
102
}
330
E
  0
VISUALSTYLE
  5
2F
102
{ACAD_REACTORS
330
2A
102
}
330
2A
100
AcDbVisualStyle
  2
2dWireframe
 70
     4
 71
     0
 72
     2
 73
     0
 90
        0
 40
-0.6
 41
-30.0
 62
     5
 63
     7
421
 16777215
 74
     1
 91
        4
 64
     7
 65
   257
 75
     1
175
     1
 42
1.0
 92
        0
 66
   257
 43
1.0
 76
     1
 77
     6
 78
     2
 67
     7
 79
     5
170
     0
171
     0
290
     0
174
     0
 93
        1
 44
0.0
173
     0
291
     0
 45
0.0
1001
ACAD
1000
AcDbSavedByObjectVersion
1070
     0
  0
VISUALSTYLE
  5
31
102
{ACAD_REACTORS
330
2A
102
}
330
2A
100
AcDbVisualStyle
  2
3D Hidden
 70
     6
 71
     1
 72
     2
 73
     2
 90
        0
 40
-0.6
 41
-30.0
 62
     5
 63
     7
421
 16777215
 74
     2
 91
        2
 64
     7
 65
   257
 75
     2
175
     1
 42
40.0
 92
        0
 66
   257
 43
1.0
 76
     1
 77
     6
 78
     2
 67
     7
 79
     3
170
     0
171
     0
290
     0
174
     0
 93
        1
 44
0.0
173
     0
291
     0
 45
0.0
1001
ACAD
1000
AcDbSavedByObjectVersion
1070
     0
  0
VISUALSTYLE
  5
30
102
{ACAD_REACTORS
330
2A
102
}
330
2A
100
AcDbVisualStyle
  2
3dWireframe
 70
     5
 71
     0
 72
     2
 73
     0
 90
        0
 40
-0.6
 41
-30.0
 62
     5
 63
     7
421
 16777215
 74
     1
 91
        4
 64
     7
 65
   257
 75
     1
175
     1
 42
1.0
 92
        0
 66
   257
 43
1.0
 76
     1
 77
     6
 78
     2
 67
     7
 79
     5
170
     0
171
     0
290
     0
174
     0
 93
        1
 44
0.0
173
     0
291
     0
 45
0.0
1001
ACAD
1000
AcDbSavedByObjectVersion
1070
     0
  0
VISUALSTYLE
  5
32
102
{ACAD_REACTORS
330
2A
102
}
330
2A
100
AcDbVisualStyle
  2
Basic
 70
     7
 71
     1
 72
     0
 73
     1
 90
        0
 40
-0.6
 41
-30.0
 62
     5
 63
     7
421
 16777215
 74
     0
 91
        4
 64
     7
 65
   257
 75
     1
175
     1
 42
1.0
 92
        8
 66
     7
 43
1.0
 76
     1
 77
     6
 78
     2
 67
     7
 79
     5
170
     0
171
     0
290
     0
174
     0
 93
        1
 44
0.0
173
     0
291
     1
 45
0.0
1001
ACAD
1000
AcDbSavedByObjectVersion
1070
     0
  0
VISUALSTYLE
  5
36
102
{ACAD_REACTORS
330
2A
102
}
330
2A
100
AcDbVisualStyle
  2
Brighten
 70
    12
 71
     2
 72
     2
 73
     0
 90
        0
 40
-0.6
 41
-30.0
 62
     5
 63
     7
421
 16777215
 74
     1
 91
        4
 64
     7
 65
   257
 75
     1
175
     1
 42
1.0
 92
        8
 66
     7
 43
1.0
 76
     1
 77
     6
 78
     2
 67
     7
 79
     5
170
     0
171
     0
290
     0
174
     0
 93
        1
 44
50.0
173
     0
291
     1
 45
0.0
1001
ACAD
1000
AcDbSavedByObjectVersion
1070
     0
  0
VISUALSTYLE
  5
3A
102
{ACAD_REACTORS
330
2A
102
}
330
2A
100
AcDbVisualStyle
  2
ColorChange
 70
    16
 71
     2
 72
     2
 73
     3
 90
        0
 40
-0.6
 41
-30.0
 62
     5
 63
     8
421
  8421504
 74
     1
 91
        4
 64
     7
 65
   257
 75
     1
175
     1
 42
1.0
 92
        8
 66
     8
424
  8421504
 43
1.0
 76
     1
 77
     6
 78
     2
 67
     7
 79
     5
170
     0
171
     0
290
     0
174
     0
 93
        1
 44
0.0
173
     0
291
     1
 45
0.0
1001
ACAD
1000
AcDbSavedByObjectVersion
1070
     0
  0
VISUALSTYLE
  5
34
102
{ACAD_REACTORS
330
2A
102
}
330
2A
100
AcDbVisualStyle
  2
Conceptual
 70
     9
 71
     3
 72
     2
 73
     0
 90
        0
 40
-0.6
 41
-30.0
 62
     5
 63
     7
421
 16777215
 74
     2
 91
        2
 64
     7
 65
   257
 75
     1
175
     1
 42
40.0
 92
        8
 66
     7
 43
1.0
 76
     1
 77
     6
 78
     2
 67
     7
 79
     3
170
     0
171
     0
290
     0
174
     0
 93
        1
 44
0.0
173
     0
291
     0
 45
0.0
1001
ACAD
1000
AcDbSavedByObjectVersion
1070
     0
  0
VISUALSTYLE
  5
35
102
{ACAD_REACTORS
330
2A
102
}
330
2A
100
AcDbVisualStyle
  2
Dim
 70
    11
 71
     2
 72
     2
 73
     0
 90
        0
 40
-0.6
 41
-30.0
 62
     5
 63
     7
421
 16777215
 74
     1
 91
        4
 64
     7
 65
   257
 75
     1
175
     1
 42
1.0
 92
        8
 66
     7
 43
1.0
 76
     1
 77
     6
 78
     2
 67
     7
 79
     5
170
     0
171
     0
290
     0
174
     0
 93
        1
 44
-50.0
173
     0
291
     1
 45
0.0
1001
ACAD
1000
AcDbSavedByObjectVersion
1070
     0
  0
VISUALSTYLE
  5
39
102
{ACAD_REACTORS
330
2A
102
}
330
2A
100
AcDbVisualStyle
  2
Facepattern
 70
    15
 71
     2
 72
     2
 73
     0
 90
        0
 40
-0.6
 41
-30.0
 62
     5
 63
     7
421
 16777215
 74
     1
 91
        4
 64
     7
 65
   257
 75
     1
175
     1
 42
1.0
 92
        8
 66
     7
 43
1.0
 76
     1
 77
     6
 78
     2
 67
     7
 79
     5
170
     0
171
     0
290
     0
174
     0
 93
        1
 44
0.0
173
     0
291
     1
 45
0.0
1001
ACAD
1000
AcDbSavedByObjectVersion
1070
     0
  0
VISUALSTYLE
  5
2B
102
{ACAD_REACTORS
330
2A
102
}
330
2A
100
AcDbVisualStyle
  2
Flat
 70
     0
 71
     2
 72
     1
 73
     1
 90
        2
 40
-0.6
 41
30.0
 62
     5
 63
     7
421
 16777215
 74
     0
 91
        4
 64
     7
 65
   257
 75
     1
175
     1
 42
1.0
 92
        8
 66
     7
 43
1.0
 76
     1
 77
     6
 78
     2
 67
     7
 79
     5
170
     0
171
     0
290
     0
174
     0
 93
       13
 44
0.0
173
     0
291
     1
 45
0.0
1001
ACAD
1000
AcDbSavedByObjectVersion
1070
     0
  0
VISUALSTYLE
  5
2C
102
{ACAD_REACTORS
330
2A
102
}
330
2A
100
AcDbVisualStyle
  2
FlatWithEdges
 70
     1
 71
     2
 72
     1
 73
     1
 90
        2
 40
-0.6
 41
30.0
 62
     5
 63
     7
421
 16777215
 74
     1
 91
        4
 64
     7
 65
   257
 75
     1
175
     1
 42
1.0
 92
        0
 66
   257
 43
1.0
 76
     1
 77
     6
 78
     2
 67
     7
 79
     5
170
     0
171
     0
290
     0
174
     0
 93
       13
 44
0.0
173
     0
291
     1
 45
0.0
1001
ACAD
1000
AcDbSavedByObjectVersion
1070
     0
  0
VISUALSTYLE
  5
2D
102
{ACAD_REACTORS
330
2A
102
}
330
2A
100
AcDbVisualStyle
  2
Gouraud
 70
     2
 71
     2
 72
     2
 73
     1
 90
        2
 40
-0.6
 41
30.0
 62
     5
 63
     7
421
 16777215
 74
     0
 91
        4
 64
     7
 65
   257
 75
     1
175
     1
 42
1.0
 92
        0
 66
     7
 43
1.0
 76
     1
 77
     6
 78
     2
 67
     7
 79
     5
170
     0
171
     0
290
     0
174
     0
 93
       13
 44
0.0
173
     0
291
     1
 45
0.0
1001
ACAD
1000
AcDbSavedByObjectVersion
1070
     0
  0
VISUALSTYLE
  5
2E
102
{ACAD_REACTORS
330
2A
102
}
330
2A
100
AcDbVisualStyle
  2
GouraudWithEdges
 70
     3
 71
     2
 72
     2
 73
     1
 90
        2
 40
-0.6
 41
30.0
 62
     5
 63
     7
421
 16777215
 74
     1
 91
        4
 64
     7
 65
   257
 75
     1
175
     1
 42
1.0
 92
        0
 66
   257
 43
1.0
 76
     1
 77
     6
 78
     2
 67
     7
 79
     5
170
     0
171
     0
290
     0
174
     0
 93
       13
 44
0.0
173
     0
291
     1
 45
0.0
1001
ACAD
1000
AcDbSavedByObjectVersion
1070
     0
  0
VISUALSTYLE
  5
38
102
{ACAD_REACTORS
330
2A
102
}
330
2A
100
AcDbVisualStyle
  2
Linepattern
 70
    14
 71
     2
 72
     2
 73
     0
 90
        0
 40
-0.6
 41
-30.0
 62
     5
 63
     7
421
 16777215
 74
     1
 91
        4
 64
     7
 65
   257
 75
     7
175
     7
 42
1.0
 92
        8
 66
     7
 43
1.0
 76
     1
 77
     6
 78
     2
 67
     7
 79
     5
170
     0
171
     0
290
     0
174
     0
 93
        1
 44
0.0
173
     0
291
     1
 45
0.0
1001
ACAD
1000
AcDbSavedByObjectVersion
1070
     0
  0
VISUALSTYLE
  5
33
102
{ACAD_REACTORS
330
2A
102
}
330
2A
100
AcDbVisualStyle
  2
Realistic
 70
     8
 71
     2
 72
     2
 73
     0
 90
        0
 40
-0.6
 41
-30.0
 62
     5
 63
     7
421
 16777215
 74
     1
 91
        0
 64
     7
 65
   257
 75
     1
175
     1
 42
1.0
 92
        8
 66
     8
424
  7895160
 43
1.0
 76
     1
 77
     6
 78
     2
 67
     7
 79
     5
170
     0
171
     0
290
     0
174
     0
 93
       13
 44
0.0
173
     0
291
     0
 45
0.0
1001
ACAD
1000
AcDbSavedByObjectVersion
1070
     0
  0
VISUALSTYLE
  5
37
102
{ACAD_REACTORS
330
2A
102
}
330
2A
100
AcDbVisualStyle
  2
Thicken
 70
    13
 71
     2
 72
     2
 73
     0
 90
        0
 40
-0.6
 41
-30.0
 62
     5
 63
     7
421
 16777215
 74
     1
 91
        4
 64
     7
 65
   257
 75
     1
175
     1
 42
1.0
 92
       12
 66
     7
 43
1.0
 76
     1
 77
     6
 78
     2
 67
     7
 79
     5
170
     0
171
     0
290
     0
174
     0
 93
        1
 44
0.0
173
     0
291
     1
 45
0.0
1001
ACAD
1000
AcDbSavedByObjectVersion
1070
     0
  0
ENDSEC
  0
EOF
