  0
SECTION
  2
HEADER
  9
$ACADVER
  1
AC1018
  9
$ACADMAINTVER
 70
     0
  9
$DWGCODEPAGE
  3
ANSI_1252
  9
$INSBASE
 10
0.0
 20
0.0
 30
0.0
  9
$EXTMIN
 10
-31.75000000000011
 20
-0.0000000002171134
 30
0.0
  9
$EXTMAX
 10
72.20086322058455
 20
65.13795852298665
 30
0.0
  9
$LIMMIN
 10
0.0
 20
0.0
  9
$LIMMAX
 10
12.0
 20
9.0
  9
$ORTHOMODE
 70
     0
  9
$REGENMODE
 70
     1
  9
$FILLMODE
 70
     1
  9
$QTEXTMODE
 70
     0
  9
$MIRRTEXT
 70
     1
  9
$LTSCALE
 40
0.0393700787401575
  9
$ATTMODE
 70
     1
  9
$TEXTSIZE
 40
0.2
  9
$TRACEWID
 40
0.05
  9
$TEXTSTYLE
  7
Standard
  9
$CLAYER
  8
Default
  9
$CELTYPE
  6
ByLayer
  9
$CECOLOR
 62
   256
  9
$CELTSCALE
 40
1.0
  9
$DISPSILH
 70
     0
  9
$DIMSCALE
 40
1.0
  9
$DIMASZ
 40
0.18
  9
$DIMEXO
 40
0.0625
  9
$DIMDLI
 40
0.38
  9
$DIMRND
 40
0.0
  9
$DIMDLE
 40
0.0
  9
$DIMEXE
 40
0.18
  9
$DIMTP
 40
0.0
  9
$DIMTM
 40
0.0
  9
$DIMTXT
 40
0.18
  9
$DIMCEN
 40
0.09
  9
$DIMTSZ
 40
0.0
  9
$DIMTOL
 70
     0
  9
$DIMLIM
 70
     0
  9
$DIMTIH
 70
     1
  9
$DIMTOH
 70
     1
  9
$DIMSE1
 70
     0
  9
$DIMSE2
 70
     0
  9
$DIMTAD
 70
     0
  9
$DIMZIN
 70
     0
  9
$DIMBLK
  1

  9
$DIMASO
 70
     1
  9
$DIMSHO
 70
     1
  9
$DIMPOST
  1

  9
$DIMAPOST
  1

  9
$DIMALT
 70
     0
  9
$DIMALTD
 70
     2
  9
$DIMALTF
 40
25.4
  9
$DIMLFAC
 40
1.0
  9
$DIMTOFL
 70
     0
  9
$DIMTVP
 40
0.0
  9
$DIMTIX
 70
     0
  9
$DIMSOXD
 70
     0
  9
$DIMSAH
 70
     0
  9
$DIMBLK1
  1

  9
$DIMBLK2
  1

  9
$DIMSTYLE
  2
Standard
  9
$DIMCLRD
 70
     0
  9
$DIMCLRE
 70
     0
  9
$DIMCLRT
 70
     0
  9
$DIMTFAC
 40
1.0
  9
$DIMGAP
 40
0.09
  9
$DIMJUST
 70
     0
  9
$DIMSD1
 70
     0
  9
$DIMSD2
 70
     0
  9
$DIMTOLJ
 70
     1
  9
$DIMTZIN
 70
     0
  9
$DIMALTZ
 70
     0
  9
$DIMALTTZ
 70
     0
  9
$DIMUPT
 70
     0
  9
$DIMDEC
 70
     4
  9
$DIMTDEC
 70
     4
  9
$DIMALTU
 70
     2
  9
$DIMALTTD
 70
     2
  9
$DIMTXSTY
  7
Standard
  9
$DIMAUNIT
 70
     0
  9
$DIMADEC
 70
     0
  9
$DIMALTRND
 40
0.0
  9
$DIMAZIN
 70
     0
  9
$DIMDSEP
 70
    46
  9
$DIMATFIT
 70
     3
  9
$DIMFRAC
 70
     0
  9
$DIMLDRBLK
  1

  9
$DIMLUNIT
 70
     2
  9
$DIMLWD
 70
    -2
  9
$DIMLWE
 70
    -2
  9
$DIMTMOVE
 70
     2
  9
$LUNITS
 70
     2
  9
$LUPREC
 70
     3
  9
$SKETCHINC
 40
0.1
  9
$FILLETRAD
 40
0.5
  9
$AUNITS
 70
     0
  9
$AUPREC
 70
     0
  9
$MENU
  1
.
  9
$ELEVATION
 40
0.0
  9
$PELEVATION
 40
0.0
  9
$THICKNESS
 40
0.0
  9
$LIMCHECK
 70
     0
  9
$CHAMFERA
 40
0.5
  9
$CHAMFERB
 40
0.5
  9
$CHAMFERC
 40
1.0
  9
$CHAMFERD
 40
0.0
  9
$SKPOLY
 70
     0
  9
$TDCREATE
 40
2458148.923474468
  9
$TDUCREATE
 40
2458149.131807801
  9
$TDUPDATE
 40
2458148.923474479
  9
$TDUUPDATE
 40
2458149.131807812
  9
$TDINDWG
 40
0.0000000116
  9
$TDUSRTIMER
 40
0.0000000116
  9
$USRTIMER
 70
     1
  9
$ANGBASE
 50
0.0
  9
$ANGDIR
 70
     0
  9
$PDMODE
 70
     0
  9
$PDSIZE
 40
0.0
  9
$PLINEWID
 40
0.0
  9
$SPLFRAME
 70
     0
  9
$SPLINETYPE
 70
     6
  9
$SPLINESEGS
 70
     8
  9
$HANDSEED
  5
113
  9
$SURFTAB1
 70
     6
  9
$SURFTAB2
 70
     6
  9
$SURFTYPE
 70
     6
  9
$SURFU
 70
     6
  9
$SURFV
 70
     6
  9
$UCSBASE
  2

  9
$UCSNAME
  2

  9
$UCSORG
 10
0.0
 20
0.0
 30
0.0
  9
$UCSXDIR
 10
1.0
 20
0.0
 30
0.0
  9
$UCSYDIR
 10
0.0
 20
1.0
 30
0.0
  9
$UCSORTHOREF
  2

  9
$UCSORTHOVIEW
 70
     0
  9
$UCSORGTOP
 10
0.0
 20
0.0
 30
0.0
  9
$UCSORGBOTTOM
 10
0.0
 20
0.0
 30
0.0
  9
$UCSORGLEFT
 10
0.0
 20
0.0
 30
0.0
  9
$UCSORGRIGHT
 10
0.0
 20
0.0
 30
0.0
  9
$UCSORGFRONT
 10
0.0
 20
0.0
 30
0.0
  9
$UCSORGBACK
 10
0.0
 20
0.0
 30
0.0
  9
$PUCSBASE
  2

  9
$PUCSNAME
  2

  9
$PUCSORG
 10
0.0
 20
0.0
 30
0.0
  9
$PUCSXDIR
 10
1.0
 20
0.0
 30
0.0
  9
$PUCSYDIR
 10
0.0
 20
1.0
 30
0.0
  9
$PUCSORTHOREF
  2

  9
$PUCSORTHOVIEW
 70
     0
  9
$PUCSORGTOP
 10
0.0
 20
0.0
 30
0.0
  9
$PUCSORGBOTTOM
 10
0.0
 20
0.0
 30
0.0
  9
$PUCSORGLEFT
 10
0.0
 20
0.0
 30
0.0
  9
$PUCSORGRIGHT
 10
0.0
 20
0.0
 30
0.0
  9
$PUCSORGFRONT
 10
0.0
 20
0.0
 30
0.0
  9
$PUCSORGBACK
 10
0.0
 20
0.0
 30
0.0
  9
$USERI1
 70
     0
  9
$USERI2
 70
     0
  9
$USERI3
 70
     0
  9
$USERI4
 70
     0
  9
$USERI5
 70
     0
  9
$USERR1
 40
0.0
  9
$USERR2
 40
0.0
  9
$USERR3
 40
0.0
  9
$USERR4
 40
0.0
  9
$USERR5
 40
0.0
  9
$WORLDVIEW
 70
     1
  9
$SHADEDGE
 70
     3
  9
$SHADEDIF
 70
    70
  9
$TILEMODE
 70
     1
  9
$MAXACTVP
 70
    64
  9
$PINSBASE
 10
0.0
 20
0.0
 30
0.0
  9
$PLIMCHECK
 70
     0
  9
$PEXTMIN
 10
1.000000000000000E+20
 20
1.000000000000000E+20
 30
1.000000000000000E+20
  9
$PEXTMAX
 10
-1.000000000000000E+20
 20
-1.000000000000000E+20
 30
-1.000000000000000E+20
  9
$PLIMMIN
 10
0.0
 20
0.0
  9
$PLIMMAX
 10
12.0
 20
9.0
  9
$UNITMODE
 70
     0
  9
$VISRETAIN
 70
     1
  9
$PLINEGEN
 70
     0
  9
$PSLTSCALE
 70
     1
  9
$TREEDEPTH
 70
  3020
  9
$CMLSTYLE
  2
Standard
  9
$CMLJUST
 70
     0
  9
$CMLSCALE
 40
1.0
  9
$PROXYGRAPHICS
 70
     1
  9
$MEASUREMENT
 70
     0
  9
$CELWEIGHT
370
    -1
  9
$ENDCAPS
280
     0
  9
$JOINSTYLE
280
     0
  9
$LWDISPLAY
290
     0
  9
$INSUNITS
 70
     1
  9
$HYPERLINKBASE
  1

  9
$STYLESHEET
  1

  9
$XEDIT
290
     1
  9
$CEPSNTYPE
380
     0
  9
$PSTYLEMODE
290
     1
  9
$FINGERPRINTGUID
  2
{8337E057-0B8A-4C75-96E8-F946DAAAB163}
  9
$VERSIONGUID
  2
{FAEB1C32-E019-11D5-929B-00C0DF256EC4}
  9
$EXTNAMES
290
     1
  9
$PSVPSCALE
 40
0.0
  9
$OLESTARTUP
290
     0
  9
$SORTENTS
280
   127
  9
$INDEXCTL
280
     0
  9
$HIDETEXT
280
     1
  9
$XCLIPFRAME
290
     0
  9
$HALOGAP
280
     0
  9
$OBSCOLOR
 70
   257
  9
$OBSLTYPE
280
     0
  9
$INTERSECTIONDISPLAY
280
     0
  9
$INTERSECTIONCOLOR
 70
   257
  9
$DIMASSOC
280
     2
  9
$PROJECTNAME
  1

  0
ENDSEC
  0
SECTION
  2
CLASSES
  0
CLASS
  1
ACDBDICTIONARYWDFLT
  2
AcDbDictionaryWithDefault
  3
ObjectDBX Classes
 90
        0
 91
        4
280
     0
281
     0
  0
CLASS
  1
VISUALSTYLE
  2
AcDbVisualStyle
  3
ObjectDBX Classes
 90
     4095
 91
        4
280
     0
281
     0
  0
ENDSEC
  0
SECTION
  2
TABLES
  0
TABLE
  2
VPORT
  5
8
330
0
100
AcDbSymbolTable
 70
     1
  0
VPORT
  5
29
330
8
100
AcDbSymbolTableRecord
100
AcDbViewportTableRecord
  2
*Active
 70
     0
 10
0.0
 20
0.0
 11
1.0
 21
1.0
 12
20.22543161029222
 22
32.56897926138477
 13
0.0
 23
0.0
 14
0.5
 24
0.5
 15
0.5
 25
0.5
 16
0.0
 26
0.0
 36
1.0
 17
0.0
 27
0.0
 37
0.0
 40
66.44071769366784
 41
1.595856940827441
 42
50.0
 43
0.0
 44
0.0
 50
0.0
 51
0.0
 71
     0
 72
   100
 73
     1
 74
     3
 75
     0
 76
     0
 77
     0
 78
     0
281
     0
 65
     1
110
0.0
120
0.0
130
0.0
111
1.0
121
0.0
131
0.0
112
0.0
122
1.0
132
0.0
 79
     0
146
0.0
  0
ENDTAB
  0
TABLE
  2
LTYPE
  5
5
330
0
100
AcDbSymbolTable
 70
     1
  0
LTYPE
  5
14
330
5
100
AcDbSymbolTableRecord
100
AcDbLinetypeTableRecord
  2
ByBlock
 70
     0
  3

 72
    65
 73
     0
 40
0.0
  0
LTYPE
  5
15
330
5
100
AcDbSymbolTableRecord
100
AcDbLinetypeTableRecord
  2
ByLayer
 70
     0
  3

 72
    65
 73
     0
 40
0.0
  0
LTYPE
  5
16
330
5
100
AcDbSymbolTableRecord
100
AcDbLinetypeTableRecord
  2
Continuous
 70
     0
  3
Solid line
 72
    65
 73
     0
 40
0.0
  0
ENDTAB
  0
TABLE
  2
LAYER
  5
2
330
0
100
AcDbSymbolTable
 70
     2
  0
LAYER
  5
10
330
2
100
AcDbSymbolTableRecord
100
AcDbLayerTableRecord
  2
0
 70
     0
 62
     7
  6
Continuous
370
    -3
390
F
  0
LAYER
  5
3B
330
2
100
AcDbSymbolTableRecord
100
AcDbLayerTableRecord
  2
Default
 70
     0
 62
     7
  6
Continuous
370
    -3
390
F
  0
ENDTAB
  0
TABLE
  2
STYLE
  5
3
330
0
100
AcDbSymbolTable
 70
     1
  0
STYLE
  5
11
330
3
100
AcDbSymbolTableRecord
100
AcDbTextStyleTableRecord
  2
Standard
 70
     0
 40
0.0
 41
1.0
 50
0.0
 71
     0
 42
0.2
  3
txt
  4

  0
ENDTAB
  0
TABLE
  2
VIEW
  5
6
330
0
100
AcDbSymbolTable
 70
     0
  0
ENDTAB
  0
TABLE
  2
UCS
  5
7
330
0
100
AcDbSymbolTable
 70
     0
  0
ENDTAB
  0
TABLE
  2
APPID
  5
9
330
0
100
AcDbSymbolTable
 70
     1
  0
APPID
  5
12
330
9
100
AcDbSymbolTableRecord
100
AcDbRegAppTableRecord
  2
ACAD
 70
     0
  0
ENDTAB
  0
TABLE
  2
DIMSTYLE
  5
A
330
0
100
AcDbSymbolTable
 70
     1
100
AcDbDimStyleTable
  0
DIMSTYLE
105
27
330
A
100
AcDbSymbolTableRecord
100
AcDbDimStyleTableRecord
  2
Standard
 70
     0
340
11
  0
ENDTAB
  0
TABLE
  2
BLOCK_RECORD
  5
1
330
0
100
AcDbSymbolTable
 70
     1
  0
BLOCK_RECORD
  5
1F
330
1
100
AcDbSymbolTableRecord
100
AcDbBlockTableRecord
  2
*Model_Space
340
22
  0
BLOCK_RECORD
  5
1B
330
1
100
AcDbSymbolTableRecord
100
AcDbBlockTableRecord
  2
*Paper_Space
340
1E
  0
BLOCK_RECORD
  5
23
330
1
100
AcDbSymbolTableRecord
100
AcDbBlockTableRecord
  2
*Paper_Space0
340
26
  0
ENDTAB
  0
ENDSEC
  0
SECTION
  2
BLOCKS
  0
BLOCK
  5
20
330
1F
100
AcDbEntity
  8
0
100
AcDbBlockBegin
  2
*Model_Space
 70
     0
 10
0.0
 20
0.0
 30
0.0
  3
*Model_Space
  1

  0
ENDBLK
  5
21
330
1F
100
AcDbEntity
  8
0
100
AcDbBlockEnd
  0
BLOCK
  5
1C
330
1B
100
AcDbEntity
 67
     1
  8
0
100
AcDbBlockBegin
  2
*Paper_Space
 70
     0
 10
0.0
 20
0.0
 30
0.0
  3
*Paper_Space
  1

  0
ENDBLK
  5
1D
330
1B
100
AcDbEntity
 67
     1
  8
0
100
AcDbBlockEnd
  0
BLOCK
  5
24
330
23
100
AcDbEntity
  8
0
100
AcDbBlockBegin
  2
*Paper_Space0
 70
     0
 10
0.0
 20
0.0
 30
0.0
  3
*Paper_Space0
  1

  0
ENDBLK
  5
25
330
23
100
AcDbEntity
  8
0
100
AcDbBlockEnd
  0
ENDSEC
  0
SECTION
  2
ENTITIES
  0
SPLINE
  5
3C
330
1F
100
AcDbEntity
  8
Default
100
AcDbSpline
210
0.0
220
0.0
230
1.0
 70
    12
 71
     2
 72
     6
 73
     3
 74
     0
 42
0.0000000001
 43
0.0000000001
 40
-2524.803469941329
 40
-2524.803469941329
 40
-2524.803469941329
 40
-2524.41077085963
 40
-2524.41077085963
 40
-2524.41077085963
 10
53.75065522804891
 20
14.37503914793996
 30
0.0
 41
1.0
 10
53.50065522804894
 20
14.37503914793988
 30
0.0
 41
0.707106781186427
 10
53.5006552280488
 20
14.62503914793996
 30
0.0
 41
1.0
  0
SPLINE
  5
3D
330
1F
100
AcDbEntity
  8
Default
100
AcDbSpline
210
0.0
220
0.0
230
1.0
 70
    12
 71
     2
 72
     6
 73
     3
 74
     0
 42
0.0000000001
 43
0.0000000001
 40
0.0
 40
0.0
 40
0.0
 40
0.3775088600025234
 40
0.3775088600025234
 40
0.3775088600025234
 10
53.26399534811242
 20
14.37545611180573
 30
0.0
 41
1.0
 10
53.49891813440167
 20
14.38967891775986
 30
0.0
 41
0.7275286780405241
 10
53.49888162558292
 20
14.62503914793995
 30
0.0
 41
0.9984292564963844
  0
SPLINE
  5
3E
330
1F
100
AcDbEntity
  8
Default
100
AcDbSpline
210
0.0
220
0.0
230
1.0
 70
    24
 71
     2
 72
     6
 73
     3
 74
     0
 42
0.0000000001
 43
0.0000000001
 40
0.0
 40
0.0
 40
0.0
 40
1.250000000000004
 40
1.250000000000004
 40
1.250000000000004
 10
47.20086322058296
 20
14.12503914793996
 30
0.0
 10
47.20086322058279
 20
13.50003914793996
 30
0.0
 10
47.20086322058262
 20
12.87503914793996
 30
0.0
  0
ARC
  5
3F
330
1F
100
AcDbEntity
  8
Default
100
AcDbCircle
 10
47.45086322058262
 20
12.87503914793996
 30
0.0
 40
0.25
100
AcDbArc
 50
180.0
 51
270.0
  0
LINE
  5
40
330
1F
100
AcDbEntity
  8
Default
100
AcDbLine
 10
47.45086322058262
 20
12.62503914793996
 30
0.0
 11
71.95086322058444
 21
12.62503914793996
 31
0.0
  0
ARC
  5
41
330
1F
100
AcDbEntity
  8
Default
100
AcDbCircle
 10
71.95086322058432
 20
12.87503914793996
 30
0.0
 40
0.25
100
AcDbArc
 50
270.000000000013
 51
359.9999999999935
  0
SPLINE
  5
42
330
1F
100
AcDbEntity
  8
Default
100
AcDbSpline
210
0.0
220
0.0
230
1.0
 70
    24
 71
     2
 72
     6
 73
     3
 74
     0
 42
0.0000000001
 43
0.0000000001
 40
0.0
 40
0.0
 40
0.0
 40
1.250000000000004
 40
1.250000000000004
 40
1.250000000000004
 10
72.20086322058432
 20
12.87503914793996
 30
0.0
 10
72.20086322058444
 20
13.50003914793996
 30
0.0
 10
72.20086322058455
 20
14.12503914793996
 30
0.0
  0
ARC
  5
43
330
1F
100
AcDbEntity
  8
Default
100
AcDbCircle
 10
71.95086322058455
 20
14.12503914793996
 30
0.0
 40
0.25
100
AcDbArc
 50
359.9999999999992
 51
90.0
  0
LINE
  5
44
330
1F
100
AcDbEntity
  8
Default
100
AcDbLine
 10
71.95086322058455
 20
14.37503914793996
 30
0.0
 11
47.70086322058307
 21
14.37503914793996
 31
0.0
  0
LINE
  5
45
330
1F
100
AcDbEntity
  8
Default
100
AcDbLine
 10
47.70086322058307
 20
14.37503914793996
 30
0.0
 11
47.45086322058273
 21
14.37503914793996
 31
0.0
  0
ARC
  5
46
330
1F
100
AcDbEntity
  8
Default
100
AcDbCircle
 10
47.45086322058296
 20
14.12503914793996
 30
0.0
 40
0.25
100
AcDbArc
 50
90.00000000006514
 51
179.9999999999992
  0
SPLINE
  5
47
330
1F
100
AcDbEntity
  8
Default
100
AcDbSpline
210
0.0
220
0.0
230
1.0
 70
    28
 71
     2
 72
     8
 73
     5
 74
     0
 42
0.0000000001
 43
0.0000000001
 40
-2547.981775971362
 40
-2547.981775971362
 40
-2547.981775971362
 40
-2526.10221994133
 40
-2526.10221994133
 40
-2524.803469941329
 40
-2524.803469941329
 40
-2524.803469941329
 10
70.6496132205836
 20
14.37503914793996
 30
0.0
 41
1.0
 10
60.04826831568005
 20
14.37503914793996
 30
0.0
 41
1.0
 10
55.04940522804975
 20
14.37503914793996
 30
0.0
 41
1.0
 10
54.40003022804933
 20
14.37503914793996
 30
0.0
 41
1.0
 10
53.75065522804891
 20
14.37503914793996
 30
0.0
 41
1.0
  0
SPLINE
  5
48
330
1F
100
AcDbEntity
  8
Default
100
AcDbSpline
210
0.0
220
0.0
230
1.0
 70
    12
 71
     2
 72
    18
 73
    15
 74
     0
 42
0.0000000001
 43
0.0000000001
 40
-2580.261064848845
 40
-2580.261064848845
 40
-2580.261064848845
 40
-2578.139015056563
 40
-2578.139015056563
 40
-2577.353616893166
 40
-2577.353616893166
 40
-2553.353616935937
 40
-2553.353616935937
 40
-2552.568218772539
 40
-2552.568218772539
 40
-2549.696168980258
 40
-2549.696168980258
 40
-2549.303469898559
 40
-2549.303469898559
 40
-2547.981775971362
 40
-2547.981775971362
 40
-2547.981775971362
 10
53.50065522804885
 20
15.3750391479399
 30
0.0
 41
1.0
 10
53.50065522804891
 20
16.43606404408072
 30
0.0
 41
1.0
 10
53.50065522804891
 20
17.49708894022154
 30
0.0
 41
1.0
 10
53.50065522804888
 20
17.99708894022156
 30
0.0
 41
0.7071067811865426
 10
54.00065522804891
 20
17.99708894022154
 30
0.0
 41
1.0
 10
59.70086319919733
 20
17.99708894022154
 30
0.0
 41
1.0
 10
71.70086317781215
 20
17.99708894022154
 30
0.0
 41
1.0
 10
72.20086317781217
 20
17.99708894022154
 30
0.0
 41
0.7071067811865627
 10
72.20086317781215
 20
17.49708894022154
 30
0.0
 41
1.0
 10
72.20086317781227
 20
16.06106404408075
 30
0.0
 41
1.0
 10
72.20086317781227
 20
14.62503914793996
 30
0.0
 41
1.0
 10
72.20086317781237
 20
14.37503914793996
 30
0.0
 41
0.7071067811865426
 10
71.95086317781227
 20
14.37503914793996
 30
0.0
 41
1.0
 10
71.29001621421378
 20
14.37503914793996
 30
0.0
 41
1.0
 10
70.6496132205836
 20
14.37503914793996
 30
0.0
 41
1.0
  0
LINE
  5
49
330
1F
100
AcDbEntity
  8
Default
100
AcDbLine
 10
53.50062414698155
 20
15.37503914794008
 30
0.0
 11
53.50062414539718
 21
17.31204279830689
 31
0.0
  0
SPLINE
  5
4A
330
1F
100
AcDbEntity
  8
Default
100
AcDbSpline
210
0.0
220
0.0
230
1.0
 70
     8
 71
     3
 72
    14
 73
    10
 74
     0
 42
0.0000000001
 43
0.0000000001
 40
-12.26203533468478
 40
-12.26203533468478
 40
-12.26203533468478
 40
-12.26203533468478
 40
-10.74358193232705
 40
-8.947613819412345
 40
-7.141201977474322
 40
-5.367291970666196
 40
-2.433620593354017
 40
-1.183560743342271
 40
0.0
 40
0.0
 40
0.0
 40
0.0
 10
53.50062414539718
 20
17.31204279830689
 30
0.0
 10
53.4915314894796
 20
17.81810309943509
 30
0.0
 10
53.44156903733051
 20
18.92216990809669
 30
0.0
 10
53.28767930081244
 20
20.62237700348935
 30
0.0
 10
53.06832604405122
 20
22.40137396918736
 30
0.0
 10
52.7214507539278
 20
24.54498231632816
 30
0.0
 10
52.28426614097089
 20
26.48463194237473
 30
0.0
 10
51.73497562914486
 20
28.18873419803595
 30
0.0
 10
51.42935777892183
 20
28.94065262518302
 30
0.0
 10
51.26548029839137
 20
29.29960367785272
 30
0.0
  0
LINE
  5
4B
330
1F
100
AcDbEntity
  8
Default
100
AcDbLine
 10
51.26548029839137
 20
29.29960367785272
 30
0.0
 11
51.25463112641523
 21
29.32336729496976
 31
0.0
  0
ARC
  5
4C
330
1F
100
AcDbEntity
  8
Default
100
AcDbCircle
 10
50.79979120397013
 20
29.11571218438954
 30
0.0
 40
0.5
100
AcDbArc
 50
24.53885410445004
 51
80.99917740315979
  0
SPLINE
  5
4D
330
1F
100
AcDbEntity
  8
Default
100
AcDbSpline
210
0.0
220
0.0
230
1.0
 70
    12
 71
     2
 72
     6
 73
     3
 74
     0
 42
0.0000000001
 43
0.0000000001
 40
-1.629194543905347
 40
-1.629194543905347
 40
-1.629194543905347
 40
0.0
 40
0.0
 40
0.0
 10
50.87801552661439
 20
29.60955523166959
 30
0.0
 41
0.9999618433163424
 10
50.07155170412927
 20
29.7372984217347
 30
0.0
 41
0.9964642919834154
 10
49.25507996927672
 20
29.72857341259279
 30
0.0
 41
0.999999996566831
  0
SPLINE
  5
4E
330
1F
100
AcDbEntity
  8
Default
100
AcDbSpline
210
0.0
220
0.0
230
1.0
 70
    12
 71
     2
 72
     6
 73
     3
 74
     0
 42
0.0000000001
 43
0.0000000001
 40
0.0
 40
0.0
 40
0.0
 40
1.638033214271802
 40
1.638033214271802
 40
1.638033214271802
 10
49.25507996927672
 20
29.72857341259279
 30
0.0
 41
0.999999996566831
 10
48.43416292738434
 20
29.73734592533206
 30
0.0
 41
0.9964451101567618
 10
47.62342519499475
 20
29.60817005188505
 30
0.0
 41
1.0
  0
SPLINE
  5
4F
330
1F
100
AcDbEntity
  8
Default
100
AcDbSpline
210
0.0
220
0.0
230
1.0
 70
    12
 71
     2
 72
     6
 73
     3
 74
     0
 42
0.0000000001
 43
0.0000000001
 40
0.0
 40
0.0
 40
0.0
 40
0.7070700636718217
 40
0.7070700636718217
 40
0.7070700636718217
 10
47.62342519499475
 20
29.60817005188505
 30
0.0
 41
1.0
 10
47.20142896512353
 20
29.54153760515117
 30
0.0
 41
0.760266553890503
 10
47.20140969591046
 20
29.11431336970455
 30
0.0
 41
1.0
  0
SPLINE
  5
50
330
1F
100
AcDbEntity
  8
Default
100
AcDbSpline
210
0.0
220
0.0
230
1.0
 70
    24
 71
     2
 72
     6
 73
     3
 74
     0
 42
0.0000000001
 43
0.0000000001
 40
-14.4893020002786
 40
-14.4893020002786
 40
-14.4893020002786
 40
0.0
 40
0.0
 40
0.0
 10
47.20140969591046
 20
29.11431336970455
 30
0.0
 10
47.20107083064676
 20
21.86966207037342
 30
0.0
 10
47.20073196538306
 20
14.6250107710423
 30
0.0
  0
SPLINE
  5
51
330
1F
100
AcDbEntity
  8
Default
100
AcDbSpline
210
0.0
220
0.0
230
1.0
 70
    12
 71
     2
 72
     6
 73
     3
 74
     0
 42
0.0000000001
 43
0.0000000001
 40
0.0
 40
0.0
 40
0.0
 40
0.3761352932874497
 40
0.3761352932874497
 40
0.3761352932874497
 10
47.20073196538306
 20
14.6250107710423
 30
0.0
 41
1.0
 10
47.20071944451671
 20
14.38966848008359
 30
0.0
 41
0.7194662149251728
 10
47.43563122297743
 20
14.37545611180574
 30
0.0
 41
0.9763257704015883
  0
LINE
  5
52
330
1F
100
AcDbEntity
  8
Default
100
AcDbLine
 10
47.43563122297746
 20
14.37545611180573
 30
0.0
 11
48.46859669457729
 21
14.37545611180573
 31
0.0
  0
POLYLINE
  5
53
330
1F
100
AcDbEntity
  8
Default
100
AcDb2dPolyline
 66
     1
 10
0.0
 20
0.0
 30
0.0
  0
VERTEX
  5
54
330
53
100
AcDbEntity
  8
Default
100
AcDbVertex
100
AcDb2dVertex
 10
48.46859669457729
 20
14.37545611180573
 30
0.0
  0
VERTEX
  5
55
330
53
100
AcDbEntity
  8
Default
100
AcDbVertex
100
AcDb2dVertex
 10
48.74961322058346
 20
14.37545611180573
 30
0.0
  0
SEQEND
  5
56
330
53
100
AcDbEntity
  8
Default
  0
POLYLINE
  5
57
330
1F
100
AcDbEntity
  8
Default
100
AcDb2dPolyline
 66
     1
 10
0.0
 20
0.0
 30
0.0
  0
VERTEX
  5
58
330
57
100
AcDbEntity
  8
Default
100
AcDbVertex
100
AcDb2dVertex
 10
48.74961322058346
 20
14.37545611180573
 30
0.0
  0
VERTEX
  5
59
330
57
100
AcDbEntity
  8
Default
100
AcDbVertex
100
AcDb2dVertex
 10
53.26399534811242
 20
14.37545611180573
 30
0.0
  0
SEQEND
  5
5A
330
57
100
AcDbEntity
  8
Default
  0
SPLINE
  5
5B
330
1F
100
AcDbEntity
  8
Default
100
AcDbSpline
210
0.0
220
0.0
230
1.0
 70
    15
 71
     2
 72
    20
 73
    17
 74
     0
 42
0.0000000001
 43
0.0000000001
 40
-6733.358085338376
 40
-6733.358085338376
 40
-6733.358085338376
 40
-6719.00382466361
 40
-6719.00382466361
 40
-6718.218426500182
 40
-6718.218426500182
 40
-6679.489858540186
 40
-6679.489858540186
 40
-6678.704460377189
 40
-6678.704460377189
 40
-6664.350199704786
 40
-6664.350199704786
 40
-6663.564801541019
 40
-6663.564801541019
 40
-6624.836233570425
 40
-6624.836233570425
 40
-6624.050835407028
 40
-6624.050835407028
 40
-6624.050835407028
 10
-6.802126575398916
 20
14.87500000239919
 30
0.0
 41
1.0
 10
-6.802126575398916
 20
22.05213033978217
 30
0.0
 41
1.0
 10
-6.802126575399029
 20
29.22926067716517
 30
0.0
 41
1.0
 10
-6.802126575398965
 20
29.72926067719568
 30
0.0
 41
0.7071067811649757
 10
-6.302126575368447
 20
29.72926067716517
 30
0.0
 41
1.0
 10
11.8857160147337
 20
29.72926067598371
 30
0.0
 41
1.0
 10
31.2499999947313
 20
29.72926067480225
 30
0.0
 41
1.0
 10
31.74999999433152
 20
29.72926067477175
 30
0.0
 41
0.7071067814692698
 10
31.74999999470083
 20
29.22926067517159
 30
0.0
 41
1.0
 10
31.75000000000023
 20
22.05213033897002
 30
0.0
 41
1.0
 10
31.75000000529963
 20
14.87500000276847
 30
0.0
 41
1.0
 10
31.75000000566895
 20
14.37500000239917
 30
0.0
 41
0.7071067809254249
 10
31.25000000529963
 20
14.37500000239919
 30
0.0
 41
1.0
 10
11.88571602000263
 20
14.37500000239919
 30
0.0
 41
1.0
 10
-6.302126575398916
 20
14.37500000239919
 30
0.0
 41
1.0
 10
-6.802126575398905
 20
14.37500000239918
 30
0.0
 41
0.70710678118655
 10
-6.802126575398916
 20
14.87500000239919
 30
0.0
 41
1.0
  0
SPLINE
  5
5C
330
1F
100
AcDbEntity
  8
Default
100
AcDbSpline
210
0.0
220
0.0
230
1.0
 70
    15
 71
     2
 72
    20
 73
    17
 74
     0
 42
0.0000000001
 43
0.0000000001
 40
201.8561944901975
 40
201.8561944901975
 40
201.8561944901975
 40
264.3561944901974
 40
264.3561944901974
 40
265.1415926535949
 40
265.1415926535949
 40
289.1415926535967
 40
289.1415926535967
 40
289.9269908169941
 40
289.9269908169941
 40
352.4269908169941
 40
352.4269908169941
 40
353.2123889803915
 40
353.2123889803915
 40
377.2123889803932
 40
377.2123889803932
 40
377.9977871437907
 40
377.9977871437907
 40
377.9977871437907
 10
31.25000861649789
 20
58.84086407428856
 30
0.0
 41
1.0
 10
10.06724587897259
 20
58.84086407428856
 30
0.0
 41
1.0
 10
-6.302117958901363
 20
58.84086407428856
 30
0.0
 41
1.0
 10
-6.80211795890146
 20
58.84086407428855
 30
0.0
 41
0.7071067811865375
 10
-6.802117958901363
 20
58.34086407428856
 30
0.0
 41
1.0
 10
-6.802117958901363
 20
52.63795852298577
 30
0.0
 41
1.0
 10
-6.802117958901363
 20
40.63795852298492
 30
0.0
 41
1.0
 10
-6.802117958901403
 20
40.13795852298492
 30
0.0
 41
0.7071067811865551
 10
-6.302117958901363
 20
40.13795852298492
 30
0.0
 41
1.0
 10
10.06724587897259
 20
40.13795852298492
 30
0.0
 41
1.0
 10
31.25000861649789
 20
40.13795852298492
 30
0.0
 41
1.0
 10
31.7500086164979
 20
40.13795852298492
 30
0.0
 41
0.7071067811865476
 10
31.75000861649789
 20
40.63795852298492
 30
0.0
 41
1.0
 10
31.75000861649789
 20
52.63795852298578
 30
0.0
 41
1.0
 10
31.75000861649789
 20
58.34086407428856
 30
0.0
 41
1.0
 10
31.75000861649793
 20
58.84086407428856
 30
0.0
 41
0.707106781186545
 10
31.25000861649789
 20
58.84086407428856
 30
0.0
 41
1.0
  0
POLYLINE
  5
5D
330
1F
100
AcDbEntity
  8
Default
100
AcDb2dPolyline
 66
     1
 10
0.0
 20
0.0
 30
0.0
  0
VERTEX
  5
5E
330
5D
100
AcDbEntity
  8
Default
100
AcDbVertex
100
AcDb2dVertex
 10
-6.802126575398916
 20
14.62500000239919
 30
0.0
  0
VERTEX
  5
5F
330
5D
100
AcDbEntity
  8
Default
100
AcDbVertex
100
AcDb2dVertex
 10
-31.70212657539901
 20
14.62500000239919
 30
0.0
  0
VERTEX
  5
60
330
5D
100
AcDbEntity
  8
Default
100
AcDbVertex
100
AcDb2dVertex
 10
-31.70212657539901
 20
15.37500000239919
 30
0.0
  0
VERTEX
  5
61
330
5D
100
AcDbEntity
  8
Default
100
AcDbVertex
100
AcDb2dVertex
 10
-6.802126575398916
 20
15.37500000239919
 30
0.0
  0
VERTEX
  5
62
330
5D
100
AcDbEntity
  8
Default
100
AcDbVertex
100
AcDb2dVertex
 10
-6.802126575398916
 20
14.62500000239919
 30
0.0
  0
SEQEND
  5
63
330
5D
100
AcDbEntity
  8
Default
  0
SPLINE
  5
64
330
1F
100
AcDbEntity
  8
Default
100
AcDbSpline
210
0.0
220
0.0
230
1.0
 70
    15
 71
     2
 72
    22
 73
    19
 74
     0
 42
0.0000000001
 43
0.0000000001
 40
0.0
 40
0.0
 40
0.0
 40
38.0521372463281
 40
38.0521372463281
 40
38.4448383576504
 40
38.4448383576504
 40
41.31688814993201
 40
41.31688814993201
 40
41.70965007631988
 40
41.70965007631988
 40
42.10241200270775
 40
42.10241200270775
 40
79.6545385781071
 40
79.6545385781071
 40
80.43993674150454
 40
80.43993674150454
 40
83.31198653378614
 40
83.31198653378614
 40
83.7046867353958
 40
83.7046867353958
 40
83.7046867353958
 10
31.50000533546472
 20
14.37500000240129
 30
0.0
 41
1.0
 10
12.47393671230066
 20
14.37500000240129
 30
0.0
 41
1.0
 10
-6.552130939650624
 20
14.37500000240129
 30
0.0
 41
1.0
 10
-6.802131304971775
 20
14.37499963704457
 30
0.0
 41
0.707110387889693
 10
-6.802129912435019
 20
14.62500000239918
 30
0.0
 41
0.9999999999167506
 10
-6.802127758310574
 20
16.06102489853998
 30
0.0
 41
0.9999999999167506
 10
-6.802125604186243
 20
17.49704979468078
 30
0.0
 41
0.9999999999167506
 10
-6.80224687430675
 20
17.70420678680296
 30
0.0
 41
0.9237674810464906
 10
-6.655764735307549
 20
17.85068892580213
 30
0.0
 41
0.9999999999167506
 10
-6.509282596308462
 20
17.99717106480131
 30
0.0
 41
0.9237674810464906
 10
-6.302125604186227
 20
17.9970497946808
 30
0.0
 41
0.9999999999167506
 10
12.4739367123007
 20
17.9970497946808
 30
0.0
 41
0.9999999999167506
 10
31.25000000000041
 20
17.9970497946808
 30
0.0
 41
0.9999999999167506
 10
31.75000000000036
 20
17.99704979468079
 30
0.0
 41
0.7071067811276798
 10
31.75000000000042
 20
17.49704979468078
 30
0.0
 41
0.9999999999167506
 10
31.75000215412475
 20
16.06102489853998
 30
0.0
 41
0.9999999999167506
 10
31.7500043082492
 20
14.62500000239918
 30
0.0
 41
0.9999999999167506
 10
31.75000358123379
 20
14.37500175658787
 30
0.0
 41
0.7071163829140098
 10
31.50000533546472
 20
14.37500000240129
 30
0.0
 41
1.0
  0
POLYLINE
  5
65
330
1F
100
AcDbEntity
  8
Default
100
AcDb2dPolyline
 66
     1
 10
0.0
 20
0.0
 30
0.0
  0
VERTEX
  5
66
330
65
100
AcDbEntity
  8
Default
100
AcDbVertex
100
AcDb2dVertex
 10
-7.552117958901363
 20
40.1879585229858
 30
0.0
  0
VERTEX
  5
67
330
65
100
AcDbEntity
  8
Default
100
AcDbVertex
100
AcDb2dVertex
 10
-30.95211795890145
 20
40.1879585229858
 30
0.0
  0
SEQEND
  5
68
330
65
100
AcDbEntity
  8
Default
  0
ARC
  5
69
330
1F
100
AcDbEntity
  8
Default
100
AcDbCircle
 10
-30.95211795890145
 20
40.9379585229858
 30
0.0
 40
0.75
100
AcDbArc
 50
179.9999999999995
 51
270.0
  0
POLYLINE
  5
6A
330
1F
100
AcDbEntity
  8
Default
100
AcDb2dPolyline
 66
     1
 10
0.0
 20
0.0
 30
0.0
  0
VERTEX
  5
6B
330
6A
100
AcDbEntity
  8
Default
100
AcDbVertex
100
AcDb2dVertex
 10
-31.70211795890145
 20
40.9379585229858
 30
0.0
  0
VERTEX
  5
6C
330
6A
100
AcDbEntity
  8
Default
100
AcDbVertex
100
AcDb2dVertex
 10
-31.70211795890145
 20
64.33795852298579
 30
0.0
  0
SEQEND
  5
6D
330
6A
100
AcDbEntity
  8
Default
  0
ARC
  5
6E
330
1F
100
AcDbEntity
  8
Default
100
AcDbCircle
 10
-30.95211795890145
 20
64.33795852298579
 30
0.0
 40
0.75
100
AcDbArc
 50
89.99999999999973
 51
180.0
  0
POLYLINE
  5
6F
330
1F
100
AcDbEntity
  8
Default
100
AcDb2dPolyline
 66
     1
 10
0.0
 20
0.0
 30
0.0
  0
VERTEX
  5
70
330
6F
100
AcDbEntity
  8
Default
100
AcDbVertex
100
AcDb2dVertex
 10
-30.95211795890145
 20
65.08795852298579
 30
0.0
  0
VERTEX
  5
71
330
6F
100
AcDbEntity
  8
Default
100
AcDbVertex
100
AcDb2dVertex
 10
-7.552117958901363
 20
65.08795852298579
 30
0.0
  0
SEQEND
  5
72
330
6F
100
AcDbEntity
  8
Default
  0
ARC
  5
73
330
1F
100
AcDbEntity
  8
Default
100
AcDbCircle
 10
-7.552117958901363
 20
64.33795852298579
 30
0.0
 40
0.75
100
AcDbArc
 50
0.0
 51
90.0
  0
POLYLINE
  5
74
330
1F
100
AcDbEntity
  8
Default
100
AcDb2dPolyline
 66
     1
 10
0.0
 20
0.0
 30
0.0
  0
VERTEX
  5
75
330
74
100
AcDbEntity
  8
Default
100
AcDbVertex
100
AcDb2dVertex
 10
-6.802117958901363
 20
64.33795852298579
 30
0.0
  0
VERTEX
  5
76
330
74
100
AcDbEntity
  8
Default
100
AcDbVertex
100
AcDb2dVertex
 10
-6.802117958901363
 20
40.9379585229858
 30
0.0
  0
SEQEND
  5
77
330
74
100
AcDbEntity
  8
Default
  0
ARC
  5
78
330
1F
100
AcDbEntity
  8
Default
100
AcDbCircle
 10
-7.552117958901363
 20
40.9379585229858
 30
0.0
 40
0.75
100
AcDbArc
 50
270.0
 51
0.0
  0
POLYLINE
  5
79
330
1F
100
AcDbEntity
  8
Default
100
AcDb2dPolyline
 66
     1
 10
0.0
 20
0.0
 30
0.0
  0
VERTEX
  5
7A
330
79
100
AcDbEntity
  8
Default
100
AcDbVertex
100
AcDb2dVertex
 10
-8.30212657539903
 20
14.37500000239919
 30
0.0
  0
VERTEX
  5
7B
330
79
100
AcDbEntity
  8
Default
100
AcDbVertex
100
AcDb2dVertex
 10
-30.20212657539901
 20
14.37500000239919
 30
0.0
  0
VERTEX
  5
7C
330
79
100
AcDbEntity
  8
Default
100
AcDbVertex
100
AcDb2dVertex
 10
-30.20212657539901
 20
14.62500000239919
 30
0.0
  0
VERTEX
  5
7D
330
79
100
AcDbEntity
  8
Default
100
AcDbVertex
100
AcDb2dVertex
 10
-8.30212657539903
 20
14.62500000239919
 30
0.0
  0
VERTEX
  5
7E
330
79
100
AcDbEntity
  8
Default
100
AcDbVertex
100
AcDb2dVertex
 10
-8.30212657539903
 20
14.37500000239919
 30
0.0
  0
SEQEND
  5
7F
330
79
100
AcDbEntity
  8
Default
  0
SPLINE
  5
80
330
1F
100
AcDbEntity
  8
Default
100
AcDbSpline
210
0.0
220
0.0
230
1.0
 70
    15
 71
     2
 72
    20
 73
    17
 74
     0
 42
0.0000000001
 43
0.0000000001
 40
198.7137567059726
 40
198.7137567059726
 40
198.7137567059726
 40
204.0108511546707
 40
204.0108511546707
 40
204.7962493180681
 40
204.7962493180681
 40
238.4871658349452
 40
238.4871658349452
 40
239.2725639983426
 40
239.2725639983426
 40
244.5696584470407
 40
244.5696584470407
 40
245.3550566104381
 40
245.3550566104381
 40
279.0459731273152
 40
279.0459731273152
 40
279.8313712907126
 40
279.8313712907126
 40
279.8313712907126
 10
-6.802117958901476
 20
59.34086407428856
 30
0.0
 41
1.0
 10
-6.802117958901476
 20
61.98941129863761
 30
0.0
 41
1.0
 10
-6.802117958901476
 20
64.63795852298665
 30
0.0
 41
1.0
 10
-6.802117958901418
 20
65.13795852298666
 30
0.0
 41
0.7071067811865476
 10
-6.302117958901476
 20
65.13795852298665
 30
0.0
 41
1.0
 10
10.4132463132778
 20
65.13795852298665
 30
0.0
 41
1.0
 10
31.25000861649789
 20
65.13795852298665
 30
0.0
 41
1.0
 10
31.75000861649792
 20
65.13795852298665
 30
0.0
 41
0.7071067811865576
 10
31.75000861649789
 20
64.63795852298665
 30
0.0
 41
1.0
 10
31.75000861649789
 20
61.98941129863761
 30
0.0
 41
1.0
 10
31.75000861649789
 20
59.34086407428856
 30
0.0
 41
1.0
 10
31.7500086164979
 20
58.84086407428857
 30
0.0
 41
0.7071067811865476
 10
31.25000861649789
 20
58.84086407428856
 30
0.0
 41
1.0
 10
10.4132463132778
 20
58.84086407428856
 30
0.0
 41
1.0
 10
-6.302117958901476
 20
58.84086407428856
 30
0.0
 41
1.0
 10
-6.802117958901417
 20
58.84086407428856
 30
0.0
 41
0.7071067811865576
 10
-6.802117958901476
 20
59.34086407428856
 30
0.0
 41
1.0
  0
SPLINE
  5
81
330
1F
100
AcDbEntity
  8
Default
100
AcDbSpline
210
0.0
220
0.0
230
1.0
 70
    24
 71
     2
 72
     6
 73
     3
 74
     0
 42
0.0000000001
 43
0.0000000001
 40
-4.31576817762928
 40
-4.31576817762928
 40
-4.31576817762928
 40
30.3751483392478
 40
30.3751483392478
 40
30.3751483392478
 10
31.75000861649789
 20
61.07389069670472
 30
0.0
 10
12.47394532879821
 20
61.07389069670472
 30
0.0
 10
-6.802117958901476
 20
61.07389069670472
 30
0.0
  0
SPLINE
  5
82
330
1F
100
AcDbEntity
  8
Default
100
AcDbSpline
210
0.0
220
0.0
230
1.0
 70
    24
 71
     2
 72
     6
 73
     3
 74
     0
 42
0.0000000001
 43
0.0000000001
 40
0.2500000000000011
 40
0.2500000000000011
 40
0.2500000000000011
 40
1.500000000000007
 40
1.500000000000007
 40
1.500000000000007
 10
-31.75000000000011
 20
12.87500000239919
 30
0.0
 10
-31.74999999999994
 20
13.50000000239919
 30
0.0
 10
-31.74999999999977
 20
14.12500000239919
 30
0.0
  0
ARC
  5
83
330
1F
100
AcDbEntity
  8
Default
100
AcDbCircle
 10
-31.49999999999977
 20
14.12500000239919
 30
0.0
 40
0.25
100
AcDbArc
 50
90.0
 51
180.0
  0
LINE
  5
84
330
1F
100
AcDbEntity
  8
Default
100
AcDbLine
 10
-31.49999999999977
 20
14.37500000239919
 30
0.0
 11
31.50000000000011
 21
14.37500000239919
 31
0.0
  0
ARC
  5
85
330
1F
100
AcDbEntity
  8
Default
100
AcDbCircle
 10
31.50000000000011
 20
14.12500000239919
 30
0.0
 40
0.25
100
AcDbArc
 50
359.9999999999992
 51
90.0
  0
SPLINE
  5
86
330
1F
100
AcDbEntity
  8
Default
100
AcDbSpline
210
0.0
220
0.0
230
1.0
 70
    24
 71
     2
 72
     6
 73
     3
 74
     0
 42
0.0000000001
 43
0.0000000001
 40
0.0
 40
0.0
 40
0.0
 40
1.250000000000003
 40
1.250000000000003
 40
1.250000000000003
 10
31.75000000000011
 20
14.12500000239919
 30
0.0
 10
31.75000000000023
 20
13.50000000239919
 30
0.0
 10
31.75000000000034
 20
12.87500000239919
 30
0.0
  0
ARC
  5
87
330
1F
100
AcDbEntity
  8
Default
100
AcDbCircle
 10
31.50000000000034
 20
12.87500000239913
 30
0.0
 40
0.25
100
AcDbArc
 50
269.9999999999495
 51
0.0000000000081422
  0
SPLINE
  5
88
330
1F
100
AcDbEntity
  8
Default
100
AcDbSpline
210
0.0
220
0.0
230
1.0
 70
    24
 71
     2
 72
     6
 73
     3
 74
     0
 42
0.0000000001
 43
0.0000000001
 40
-63.15270330308456
 40
-63.15270330308456
 40
-63.15270330308456
 40
-0.1527033030843092
 40
-0.1527033030843092
 40
-0.1527033030843092
 10
31.50000000000011
 20
12.62500000239913
 30
0.0
 10
0.0
 20
12.62500000239916
 30
0.0
 10
-31.50000000000011
 20
12.62500000239919
 30
0.0
  0
ARC
  5
89
330
1F
100
AcDbEntity
  8
Default
100
AcDbCircle
 10
-31.50000000000011
 20
12.87500000239919
 30
0.0
 40
0.25
100
AcDbArc
 50
179.9999999999996
 51
270.0
  0
POLYLINE
  5
8A
330
1F
100
AcDbEntity
  8
Default
100
AcDb2dPolyline
 66
     1
 10
0.0
 20
0.0
 30
0.0
  0
VERTEX
  5
8B
330
8A
100
AcDbEntity
  8
Default
100
AcDbVertex
100
AcDb2dVertex
 10
-21.41390664184962
 20
-0.0000000002171134
 30
0.0
  0
VERTEX
  5
8C
330
8A
100
AcDbEntity
  8
Default
100
AcDbVertex
100
AcDb2dVertex
 10
-21.898084169257
 20
0.0000000002171703
 30
0.0
  0
SEQEND
  5
8D
330
8A
100
AcDbEntity
  8
Default
  0
SPLINE
  5
8E
330
1F
100
AcDbEntity
  8
Default
100
AcDbSpline
210
0.0
220
0.0
230
1.0
 70
    12
 71
     2
 72
     6
 73
     3
 74
     0
 42
0.0000000001
 43
0.0000000001
 40
0.0
 40
0.0
 40
0.0
 40
0.241924443334512
 40
0.241924443334512
 40
0.241924443334512
 10
-21.898084169257
 20
0.0000000002171703
 30
0.0
 41
1.0
 10
-22.0509951834243
 20
0.0000000303540884
 30
0.0
 41
0.7141418074729331
 10
-22.05396650759474
 20
0.1529065059711456
 30
0.0
 41
1.0
  0
LINE
  5
8F
330
1F
100
AcDbEntity
  8
Default
100
AcDbLine
 10
-22.05396650759474
 20
0.1529065059711456
 30
0.0
 11
-22.05866510468536
 21
0.3750000023996165
 31
0.0
  0
LINE
  5
90
330
1F
100
AcDbEntity
  8
Default
100
AcDbLine
 10
-22.05866510468536
 20
0.3750000023996165
 30
0.0
 11
-21.25385598871026
 21
0.3750000023996165
 31
0.0
  0
LINE
  5
91
330
1F
100
AcDbEntity
  8
Default
100
AcDbLine
 10
-21.25385598871026
 20
0.3750000023996165
 30
0.0
 11
-21.25828944725288
 21
0.1529065037773307
 31
0.0
  0
SPLINE
  5
92
330
1F
100
AcDbEntity
  8
Default
100
AcDbSpline
210
0.0
220
0.0
230
1.0
 70
    12
 71
     2
 72
     6
 73
     3
 74
     0
 42
0.0000000001
 43
0.0000000001
 40
0.0
 40
0.0
 40
0.0
 40
0.2419244355107725
 40
0.2419244355107725
 40
0.2419244355107725
 10
-21.25828944725288
 20
0.1529065037773307
 30
0.0
 41
1.0
 10
-21.26099563385188
 20
0.0000000321588069
 30
0.0
 41
0.7141418153608741
 10
-21.41390664184962
 20
-0.0000000002171134
 30
0.0
 41
1.0
  0
POLYLINE
  5
93
330
1F
100
AcDbEntity
  8
Default
100
AcDb2dPolyline
 66
     1
 10
0.0
 20
0.0
 30
0.0
  0
VERTEX
  5
94
330
93
100
AcDbEntity
  8
Default
100
AcDbVertex
100
AcDb2dVertex
 10
-24.76599508272773
 20
12.62500000235795
 30
0.0
  0
VERTEX
  5
95
330
93
100
AcDbEntity
  8
Default
100
AcDbVertex
100
AcDb2dVertex
 10
-18.54599540332606
 20
12.62500000235795
 30
0.0
  0
SEQEND
  5
96
330
93
100
AcDbEntity
  8
Default
  0
SPLINE
  5
97
330
1F
100
AcDbEntity
  8
Default
100
AcDbSpline
210
0.0
220
0.0
230
1.0
 70
    12
 71
     5
 72
    13
 73
     7
 74
     0
 42
0.0000000001
 43
0.0000000001
 40
-0.9999999998854913
 40
-0.9999999998854913
 40
-0.9999999998854913
 40
-0.9999999998854913
 40
-0.9999999998854913
 40
-0.9999999998854913
 40
-0.4999999999118557
 40
0.0000214316302039
 40
0.0000214316302039
 40
0.0000214316302039
 40
0.0000214316302039
 40
0.0000214316302039
 40
0.0000214316302039
 10
-18.54599540332606
 20
12.62500000235795
 30
0.0
 41
1.0
 10
-18.54599604936584
 20
12.56009560996313
 30
0.0
 41
1.0
 10
-18.56529510087012
 20
12.44654867131678
 30
0.0
 41
1.0
 10
-18.62319127353408
 20
12.3655361986593
 30
0.0
 41
1.0
 10
-18.71136034095616
 20
12.31002542084664
 30
0.0
 41
1.0
 10
-18.82604433005781
 20
12.27687454006866
 30
0.0
 41
1.0
 10
-18.8900159671573
 20
12.26588517969745
 30
0.0
 41
1.0
  0
SPLINE
  5
98
330
1F
100
AcDbEntity
  8
Default
100
AcDbSpline
210
0.0
220
0.0
230
1.0
 70
    12
 71
     2
 72
     6
 73
     3
 74
     0
 42
0.0000000001
 43
0.0000000001
 40
0.0
 40
0.0
 40
0.0
 40
1.843263450064862
 40
1.843263450064862
 40
1.843263450064862
 10
-18.8900159671573
 20
12.26588517969745
 30
0.0
 41
1.0
 10
-19.79833532725394
 20
12.10980514713988
 30
0.0
 41
0.9999999999936852
 10
-20.70665573057192
 20
11.9537310177214
 30
0.0
 41
1.0
  0
SPLINE
  5
99
330
1F
100
AcDbEntity
  8
Default
100
AcDbSpline
210
0.0
220
0.0
230
1.0
 70
    12
 71
     2
 72
     6
 73
     3
 74
     0
 42
0.0000000001
 43
0.0000000001
 40
0.0
 40
0.0
 40
0.0
 40
0.6997662170032295
 40
0.6997662170032295
 40
0.6997662170032295
 10
-20.70665573057192
 20
11.9537310177214
 30
0.0
 41
1.0
 10
-21.12152276330016
 20
11.88244667937159
 30
0.0
 41
0.7649870492777086
 10
-21.12197934256699
 20
11.46120110138611
 30
0.0
 41
1.0
  0
SPLINE
  5
9A
330
1F
100
AcDbEntity
  8
Default
100
AcDbSpline
210
0.0
220
0.0
230
1.0
 70
    12
 71
     3
 72
    13
 73
     9
 74
     0
 42
0.0000000001
 43
0.0000000001
 40
1.164116092654201
 40
1.164116092654201
 40
1.164116092654201
 40
1.164116092654201
 40
1.192754371812117
 40
1.192754371812117
 40
1.839154429652598
 40
2.485554487552516
 40
2.485554487552516
 40
2.941799361814759
 40
2.941799361814759
 40
2.941799361814759
 40
2.941799361814759
 10
-21.12197934256699
 20
11.46120110138611
 30
0.0
 41
1.0
 10
-21.12197849731581
 20
11.45135583614481
 30
0.0
 41
1.0
 10
-21.12197905618939
 20
11.44180974146306
 30
0.0
 41
1.0
 10
-21.12202860073535
 20
11.2167969686364
 30
0.0
 41
1.0
 10
-21.12411226118968
 20
10.78587479042528
 30
0.0
 41
1.0
 10
-21.13130000267824
 20
10.35502399011492
 30
0.0
 41
1.0
 10
-21.13709820287295
 20
9.987521416801457
 30
0.0
 41
1.0
 10
-21.13929900813469
 20
9.83544406875302
 30
0.0
 41
1.0
 10
-21.14106570819547
 20
9.682909845823701
 30
0.0
 41
1.0
  0
SPLINE
  5
9B
330
1F
100
AcDbEntity
  8
Default
100
AcDbSpline
210
0.0
220
0.0
230
1.0
 70
    12
 71
     2
 72
     6
 73
     3
 74
     0
 42
0.0000000001
 43
0.0000000001
 40
0.0
 40
0.0
 40
0.0
 40
0.0011199978112541
 40
0.0011199978112541
 40
0.0011199978112541
 10
-21.14106570819547
 20
9.682909845823701
 30
0.0
 41
1.0
 10
-21.14108341629631
 20
9.68189344886065
 30
0.0
 41
0.9999999565253123
 10
-21.14108341555129
 20
9.681333409514025
 30
0.0
 41
1.0
  0
SPLINE
  5
9C
330
1F
100
AcDbEntity
  8
Default
100
AcDbSpline
210
0.0
220
0.0
230
1.0
 70
    12
 71
     2
 72
     6
 73
     3
 74
     0
 42
0.0000000001
 43
0.0000000001
 40
0.0
 40
0.0
 40
0.0
 40
1.157563000328597
 40
1.157563000328597
 40
1.157563000328597
 10
-21.14108341555129
 20
9.681333409514025
 30
0.0
 41
1.0
 10
-21.14665913385049
 20
9.102576156243051
 30
0.0
 41
0.9999932729902123
 10
-21.14799516897574
 20
8.523792488378888
 30
0.0
 41
1.0
  0
SPLINE
  5
9D
330
1F
100
AcDbEntity
  8
Default
100
AcDbSpline
210
0.0
220
0.0
230
1.0
 70
    12
 71
     3
 72
    12
 73
     8
 74
     0
 42
0.0000000001
 43
0.0000000001
 40
0.0000022290245399
 40
0.0000022290245399
 40
0.0000022290245399
 40
0.0000022290245399
 40
2.973330383277389
 40
2.973330383277389
 40
5.533332299297856
 40
5.533332299297856
 40
8.0907540207247
 40
8.0907540207247
 40
8.0907540207247
 40
8.0907540207247
 10
-21.14799516897574
 20
8.523792488378888
 30
0.0
 41
1.0
 10
-21.15173837885152
 20
7.533012356544702
 30
0.0
 41
1.0
 10
-21.16187495607051
 20
6.542166505228664
 30
0.0
 41
1.0
 10
-21.18681899296678
 20
4.698546802840923
 30
0.0
 41
1.0
 10
-21.20067826903573
 20
3.846004306662138
 30
0.0
 41
1.0
 10
-21.22802873039484
 20
2.140986238235911
 30
0.0
 41
1.0
 10
-21.24143764376481
 20
1.289616091246216
 30
0.0
 41
1.0
 10
-21.25267522315823
 20
0.4374291487058031
 30
0.0
 41
1.0
  0
SPLINE
  5
9E
330
1F
100
AcDbEntity
  8
Default
100
AcDbSpline
210
0.0
220
0.0
230
1.0
 70
    12
 71
     2
 72
     6
 73
     3
 74
     0
 42
0.0000000001
 43
0.0000000001
 40
0.0
 40
0.0
 40
0.0
 40
0.0970316672143772
 40
0.0970316672143772
 40
0.0970316672143772
 10
-21.25267522315823
 20
0.4374291487058031
 30
0.0
 41
1.0
 10
-21.25325381989314
 20
0.3763075181236976
 30
0.0
 41
0.717857630247824
 10
-21.31433984724038
 20
0.3750140462356626
 30
0.0
 41
1.0
  0
POLYLINE
  5
9F
330
1F
100
AcDbEntity
  8
Default
100
AcDb2dPolyline
 66
     1
 10
0.0
 20
0.0
 30
0.0
  0
VERTEX
  5
A0
330
9F
100
AcDbEntity
  8
Default
100
AcDbVertex
100
AcDb2dVertex
 10
-21.31433984724038
 20
0.3750140462356626
 30
0.0
  0
VERTEX
  5
A1
330
9F
100
AcDbEntity
  8
Default
100
AcDbVertex
100
AcDb2dVertex
 10
-21.99631987581279
 20
0.3750000024411975
 30
0.0
  0
SEQEND
  5
A2
330
9F
100
AcDbEntity
  8
Default
  0
SPLINE
  5
A3
330
1F
100
AcDbEntity
  8
Default
100
AcDbSpline
210
0.0
220
0.0
230
1.0
 70
    12
 71
     2
 72
     6
 73
     3
 74
     0
 42
0.0000000001
 43
0.0000000001
 40
0.0
 40
0.0
 40
0.0
 40
0.0983105351425802
 40
0.0983105351425802
 40
0.0983105351425802
 10
-21.99631987581279
 20
0.3750000024411975
 30
0.0
 41
1.0
 10
-22.05867571223893
 20
0.374998070860006
 30
0.0
 41
0.7107094273922171
 10
-22.05931462585011
 20
0.4373708929651912
 30
0.0
 41
1.0
  0
SPLINE
  5
A4
330
1F
100
AcDbEntity
  8
Default
100
AcDbSpline
210
0.0
220
0.0
230
1.0
 70
    12
 71
     3
 72
    12
 73
     8
 74
     0
 42
0.0000000001
 43
0.0000000001
 40
0.0025122088885125
 40
0.0025122088885125
 40
0.0025122088885125
 40
0.0025122088885125
 40
2.559996601448771
 40
2.559996601448771
 40
5.119998517672128
 40
5.119998517672128
 40
8.093326489272172
 40
8.093326489272172
 40
8.093326489272172
 40
8.093326489272172
 10
-22.05931462585011
 20
0.4373708929651912
 30
0.0
 41
1.0
 10
-22.0705525057017
 20
1.289574364790269
 30
0.0
 41
1.0
 10
-22.0839617413078
 20
2.140965357733307
 30
0.0
 41
1.0
 10
-22.11131253761869
 20
3.8460043069324
 30
0.0
 41
1.0
 10
-22.12517181368855
 20
4.6985468031788
 30
0.0
 41
1.0
 10
-22.15011584976082
 20
6.542166444777081
 30
0.0
 41
1.0
 10
-22.16025242655633
 20
7.53301223521413
 30
0.0
 41
1.0
 10
-22.16399563733012
 20
8.523792397285746
 30
0.0
 41
1.0
  0
SPLINE
  5
A5
330
1F
100
AcDbEntity
  8
Default
100
AcDbSpline
210
0.0
220
0.0
230
1.0
 70
    12
 71
     2
 72
     6
 73
     3
 74
     0
 42
0.0000000001
 43
0.0000000001
 40
0.0
 40
0.0
 40
0.0
 40
1.157566753814006
 40
1.157566753814006
 40
1.157566753814006
 10
-22.16399563733012
 20
8.523792397285746
 30
0.0
 41
1.0
 10
-22.1653435007858
 20
9.102577944119421
 30
0.0
 41
0.9999934222404667
 10
-22.17089556382364
 20
9.681337225291125
 30
0.0
 41
0.9999999999999121
  0
SPLINE
  5
A6
330
1F
100
AcDbEntity
  8
Default
100
AcDbSpline
210
0.0
220
0.0
230
1.0
 70
    12
 71
     2
 72
     6
 73
     3
 74
     0
 42
0.0000000001
 43
0.0000000001
 40
0.0
 40
0.0
 40
0.0
 40
0.0011163185374098
 40
0.0011163185374098
 40
0.0011163185374098
 10
-22.17089556382359
 20
9.681337225291117
 30
0.0
 41
1.0
 10
-22.17090740949377
 20
9.681895288399144
 30
0.0
 41
0.9999999568108967
 10
-22.17091305756719
 20
9.682909979841583
 30
0.0
 41
1.0
  0
SPLINE
  5
A7
330
1F
100
AcDbEntity
  8
Default
100
AcDbSpline
210
0.0
220
0.0
230
1.0
 70
    12
 71
     3
 72
    13
 73
     9
 74
     0
 42
0.0000000001
 43
0.0000000001
 40
1.159780968969077
 40
1.159780968969077
 40
1.159780968969077
 40
1.159780968969077
 40
1.219999999483621
 40
1.219999999483621
 40
1.859999999216523
 40
1.859999999216523
 40
2.49999999917158
 40
2.937447200127758
 40
2.937447200127758
 40
2.937447200127758
 40
2.937447200127758
 10
-22.17091305756719
 20
9.682909979841583
 30
0.0
 41
1.0
 10
-22.17114112291847
 20
9.703438966347733
 30
0.0
 41
1.0
 10
-22.17137760011315
 20
9.723511031694557
 30
0.0
 41
1.0
 10
-22.17422480888456
 20
9.95689999374116
 30
0.0
 41
1.0
 10
-22.17783982844765
 20
10.17023320478074
 30
0.0
 41
1.0
 10
-22.18447210200804
 20
10.59684831315658
 30
0.0
 41
1.0
 10
-22.18915683555588
 20
10.95596334870555
 30
0.0
 41
1.0
 10
-22.19000701493883
 20
11.31509077060545
 30
0.0
 41
1.0
 10
-22.19000637949284
 20
11.46118232485981
 30
0.0
 41
1.0
  0
SPLINE
  5
A8
330
1F
100
AcDbEntity
  8
Default
100
AcDbSpline
210
0.0
220
0.0
230
1.0
 70
    12
 71
     2
 72
     6
 73
     3
 74
     0
 42
0.0000000001
 43
0.0000000001
 40
0.0
 40
0.0
 40
0.0
 40
0.6998000892342029
 40
0.6998000892342029
 40
0.6998000892342029
 10
-22.19000637949284
 20
11.46118232485981
 30
0.0
 41
1.0
 10
-22.19044547978952
 20
11.88243362283056
 30
0.0
 41
0.764976675619346
 10
-22.60533507107414
 20
11.9537310466041
 30
0.0
 41
1.0
  0
SPLINE
  5
A9
330
1F
100
AcDbEntity
  8
Default
100
AcDbSpline
210
0.0
220
0.0
230
1.0
 70
    12
 71
     2
 72
     6
 73
     3
 74
     0
 42
0.0000000001
 43
0.0000000001
 40
0.0
 40
0.0
 40
0.0
 40
1.843263134159366
 40
1.843263134159366
 40
1.843263134159366
 10
-22.60533507107414
 20
11.9537310466041
 30
0.0
 41
1.0
 10
-23.51365532366032
 20
12.10980512042263
 30
0.0
 41
0.999999999993685
 10
-24.42197452349012
 20
12.26588515296334
 30
0.0
 41
1.0
  0
SPLINE
  5
AA
330
1F
100
AcDbEntity
  8
Default
100
AcDbSpline
210
0.0
220
0.0
230
1.0
 70
    12
 71
     5
 72
    13
 73
     7
 74
     0
 42
0.0000000001
 43
0.0000000001
 40
-0.0000214316302125
 40
-0.0000214316302125
 40
-0.0000214316302125
 40
-0.0000214316302125
 40
-0.0000214316302125
 40
-0.0000214316302125
 40
0.4999999999109885
 40
0.9999999998854894
 40
0.9999999998854894
 40
0.9999999998854894
 40
0.9999999998854894
 40
0.9999999998854894
 40
0.9999999998854894
 10
-24.42197452349012
 20
12.26588515296334
 30
0.0
 41
1.0
 10
-24.48594615599677
 20
12.27687454006889
 30
0.0
 41
1.0
 10
-24.60063014509797
 20
12.31002542084693
 30
0.0
 41
1.0
 10
-24.68879921251983
 20
12.36553619865956
 30
0.0
 41
1.0
 10
-24.74669538518367
 20
12.44654867131698
 30
0.0
 41
1.0
 10
-24.76599443668783
 20
12.56009560996313
 30
0.0
 41
1.0
 10
-24.76599508272773
 20
12.62500000235795
 30
0.0
 41
1.0
  0
POLYLINE
  5
AB
330
1F
100
AcDbEntity
  8
Default
100
AcDb2dPolyline
 66
     1
 10
0.0
 20
0.0
 30
0.0
  0
VERTEX
  5
AC
330
AB
100
AcDbEntity
  8
Default
100
AcDbVertex
100
AcDb2dVertex
 10
21.41391123852486
 20
-0.0000000002171134
 30
0.0
  0
VERTEX
  5
AD
330
AB
100
AcDbEntity
  8
Default
100
AcDbVertex
100
AcDb2dVertex
 10
21.89808876593224
 20
0.0000000002171703
 30
0.0
  0
SEQEND
  5
AE
330
AB
100
AcDbEntity
  8
Default
  0
SPLINE
  5
AF
330
1F
100
AcDbEntity
  8
Default
100
AcDbSpline
210
0.0
220
0.0
230
1.0
 70
    12
 71
     2
 72
     6
 73
     3
 74
     0
 42
0.0000000001
 43
0.0000000001
 40
0.0
 40
0.0
 40
0.0
 40
0.241924443334512
 40
0.241924443334512
 40
0.241924443334512
 10
21.89808876593224
 20
0.0000000002171703
 30
0.0
 41
1.0
 10
22.05099978009958
 20
0.0000000303540884
 30
0.0
 41
0.7141418074729331
 10
22.05397110426998
 20
0.1529065059711456
 30
0.0
 41
1.0
  0
LINE
  5
B0
330
1F
100
AcDbEntity
  8
Default
100
AcDbLine
 10
22.05397110426998
 20
0.1529065059711456
 30
0.0
 11
22.05866970136071
 21
0.3750000023996165
 31
0.0
  0
LINE
  5
B1
330
1F
100
AcDbEntity
  8
Default
100
AcDbLine
 10
22.05866970136071
 20
0.3750000023996165
 30
0.0
 11
21.25386058538561
 21
0.3750000023996165
 31
0.0
  0
LINE
  5
B2
330
1F
100
AcDbEntity
  8
Default
100
AcDbLine
 10
21.25386058538561
 20
0.3750000023996165
 30
0.0
 11
21.25829404392823
 21
0.1529065037773307
 31
0.0
  0
SPLINE
  5
B3
330
1F
100
AcDbEntity
  8
Default
100
AcDbSpline
210
0.0
220
0.0
230
1.0
 70
    12
 71
     2
 72
     6
 73
     3
 74
     0
 42
0.0000000001
 43
0.0000000001
 40
0.0
 40
0.0
 40
0.0
 40
0.2419244355107725
 40
0.2419244355107725
 40
0.2419244355107725
 10
21.25829404392823
 20
0.1529065037773307
 30
0.0
 41
1.0
 10
21.26100023052728
 20
0.0000000321588069
 30
0.0
 41
0.7141418153608741
 10
21.41391123852486
 20
-0.0000000002171134
 30
0.0
 41
1.0
  0
POLYLINE
  5
B4
330
1F
100
AcDbEntity
  8
Default
100
AcDb2dPolyline
 66
     1
 10
0.0
 20
0.0
 30
0.0
  0
VERTEX
  5
B5
330
B4
100
AcDbEntity
  8
Default
100
AcDbVertex
100
AcDb2dVertex
 10
24.76599967940297
 20
12.62500000235795
 30
0.0
  0
VERTEX
  5
B6
330
B4
100
AcDbEntity
  8
Default
100
AcDbVertex
100
AcDb2dVertex
 10
18.5460000000013
 20
12.62500000235795
 30
0.0
  0
SEQEND
  5
B7
330
B4
100
AcDbEntity
  8
Default
  0
SPLINE
  5
B8
330
1F
100
AcDbEntity
  8
Default
100
AcDbSpline
210
0.0
220
0.0
230
1.0
 70
    12
 71
     5
 72
    13
 73
     7
 74
     0
 42
0.0000000001
 43
0.0000000001
 40
-0.9999999998854913
 40
-0.9999999998854913
 40
-0.9999999998854913
 40
-0.9999999998854913
 40
-0.9999999998854913
 40
-0.9999999998854913
 40
-0.4999999999118557
 40
0.0000214316302039
 40
0.0000214316302039
 40
0.0000214316302039
 40
0.0000214316302039
 40
0.0000214316302039
 40
0.0000214316302039
 10
18.5460000000013
 20
12.62500000235795
 30
0.0
 41
1.0
 10
18.54600064604119
 20
12.56009560996313
 30
0.0
 41
1.0
 10
18.56529969754547
 20
12.44654867131678
 30
0.0
 41
1.0
 10
18.62319587020943
 20
12.3655361986593
 30
0.0
 41
1.0
 10
18.71136493763152
 20
12.31002542084664
 30
0.0
 41
1.0
 10
18.82604892673316
 20
12.27687454006866
 30
0.0
 41
1.0
 10
18.89002056383265
 20
12.26588517969745
 30
0.0
 41
1.0
  0
SPLINE
  5
B9
330
1F
100
AcDbEntity
  8
Default
100
AcDbSpline
210
0.0
220
0.0
230
1.0
 70
    12
 71
     2
 72
     6
 73
     3
 74
     0
 42
0.0000000001
 43
0.0000000001
 40
0.0
 40
0.0
 40
0.0
 40
1.843263450064862
 40
1.843263450064862
 40
1.843263450064862
 10
18.89002056383265
 20
12.26588517969745
 30
0.0
 41
1.0
 10
19.79833992392925
 20
12.10980514713988
 30
0.0
 41
0.9999999999936852
 10
20.70666032724716
 20
11.9537310177214
 30
0.0
 41
1.0
  0
SPLINE
  5
BA
330
1F
100
AcDbEntity
  8
Default
100
AcDbSpline
210
0.0
220
0.0
230
1.0
 70
    12
 71
     2
 72
     6
 73
     3
 74
     0
 42
0.0000000001
 43
0.0000000001
 40
0.0
 40
0.0
 40
0.0
 40
0.6997662170032295
 40
0.6997662170032295
 40
0.6997662170032295
 10
20.70666032724716
 20
11.9537310177214
 30
0.0
 41
1.0
 10
21.12152735997541
 20
11.88244667937159
 30
0.0
 41
0.7649870492777086
 10
21.12198393924223
 20
11.46120110138611
 30
0.0
 41
1.0
  0
SPLINE
  5
BB
330
1F
100
AcDbEntity
  8
Default
100
AcDbSpline
210
0.0
220
0.0
230
1.0
 70
    12
 71
     3
 72
    13
 73
     9
 74
     0
 42
0.0000000001
 43
0.0000000001
 40
1.164116092654201
 40
1.164116092654201
 40
1.164116092654201
 40
1.164116092654201
 40
1.192754371812117
 40
1.192754371812117
 40
1.839154429652598
 40
2.485554487552516
 40
2.485554487552516
 40
2.941799361814759
 40
2.941799361814759
 40
2.941799361814759
 40
2.941799361814759
 10
21.12198393924223
 20
11.46120110138611
 30
0.0
 41
1.0
 10
21.12198309399105
 20
11.45135583614481
 30
0.0
 41
1.0
 10
21.12198365286463
 20
11.44180974146306
 30
0.0
 41
1.0
 10
21.12203319741059
 20
11.2167969686364
 30
0.0
 41
1.0
 10
21.12411685786492
 20
10.78587479042528
 30
0.0
 41
1.0
 10
21.1313045993536
 20
10.35502399011492
 30
0.0
 41
1.0
 10
21.1371027995483
 20
9.987521416801457
 30
0.0
 41
1.0
 10
21.13930360481004
 20
9.83544406875302
 30
0.0
 41
1.0
 10
21.14107030487082
 20
9.682909845823701
 30
0.0
 41
1.0
  0
SPLINE
  5
BC
330
1F
100
AcDbEntity
  8
Default
100
AcDbSpline
210
0.0
220
0.0
230
1.0
 70
    12
 71
     2
 72
     6
 73
     3
 74
     0
 42
0.0000000001
 43
0.0000000001
 40
0.0
 40
0.0
 40
0.0
 40
0.0011199978112541
 40
0.0011199978112541
 40
0.0011199978112541
 10
21.14107030487082
 20
9.682909845823701
 30
0.0
 41
1.0
 10
21.14108801297163
 20
9.68189344886065
 30
0.0
 41
0.9999999565253123
 10
21.14108801222665
 20
9.681333409514025
 30
0.0
 41
1.0
  0
SPLINE
  5
BD
330
1F
100
AcDbEntity
  8
Default
100
AcDbSpline
210
0.0
220
0.0
230
1.0
 70
    12
 71
     2
 72
     6
 73
     3
 74
     0
 42
0.0000000001
 43
0.0000000001
 40
0.0
 40
0.0
 40
0.0
 40
1.157563000328597
 40
1.157563000328597
 40
1.157563000328597
 10
21.14108801222665
 20
9.681333409514025
 30
0.0
 41
1.0
 10
21.14666373052582
 20
9.102576156243051
 30
0.0
 41
0.9999932729902123
 10
21.14799976565109
 20
8.523792488378888
 30
0.0
 41
1.0
  0
SPLINE
  5
BE
330
1F
100
AcDbEntity
  8
Default
100
AcDbSpline
210
0.0
220
0.0
230
1.0
 70
    12
 71
     3
 72
    12
 73
     8
 74
     0
 42
0.0000000001
 43
0.0000000001
 40
0.0000022290245399
 40
0.0000022290245399
 40
0.0000022290245399
 40
0.0000022290245399
 40
2.973330383277389
 40
2.973330383277389
 40
5.533332299297856
 40
5.533332299297856
 40
8.0907540207247
 40
8.0907540207247
 40
8.0907540207247
 40
8.0907540207247
 10
21.14799976565109
 20
8.523792488378888
 30
0.0
 41
1.0
 10
21.15174297552687
 20
7.533012356544702
 30
0.0
 41
1.0
 10
21.16187955274575
 20
6.542166505228664
 30
0.0
 41
1.0
 10
21.18682358964202
 20
4.698546802840923
 30
0.0
 41
1.0
 10
21.20068286571097
 20
3.846004306662138
 30
0.0
 41
1.0
 10
21.22803332707008
 20
2.140986238235911
 30
0.0
 41
1.0
 10
21.24144224044016
 20
1.289616091246216
 30
0.0
 41
1.0
 10
21.25267981983359
 20
0.4374291487058031
 30
0.0
 41
1.0
  0
SPLINE
  5
BF
330
1F
100
AcDbEntity
  8
Default
100
AcDbSpline
210
0.0
220
0.0
230
1.0
 70
    12
 71
     2
 72
     6
 73
     3
 74
     0
 42
0.0000000001
 43
0.0000000001
 40
0.0
 40
0.0
 40
0.0
 40
0.0970316672143772
 40
0.0970316672143772
 40
0.0970316672143772
 10
21.25267981983359
 20
0.4374291487058031
 30
0.0
 41
1.0
 10
21.25325841656836
 20
0.3763075181236976
 30
0.0
 41
0.717857630247824
 10
21.31434444391573
 20
0.3750140462356626
 30
0.0
 41
1.0
  0
POLYLINE
  5
C0
330
1F
100
AcDbEntity
  8
Default
100
AcDb2dPolyline
 66
     1
 10
0.0
 20
0.0
 30
0.0
  0
VERTEX
  5
C1
330
C0
100
AcDbEntity
  8
Default
100
AcDbVertex
100
AcDb2dVertex
 10
21.31434444391573
 20
0.3750140462356626
 30
0.0
  0
VERTEX
  5
C2
330
C0
100
AcDbEntity
  8
Default
100
AcDbVertex
100
AcDb2dVertex
 10
21.99632447248814
 20
0.3750000024411975
 30
0.0
  0
SEQEND
  5
C3
330
C0
100
AcDbEntity
  8
Default
  0
SPLINE
  5
C4
330
1F
100
AcDbEntity
  8
Default
100
AcDbSpline
210
0.0
220
0.0
230
1.0
 70
    12
 71
     2
 72
     6
 73
     3
 74
     0
 42
0.0000000001
 43
0.0000000001
 40
0.0
 40
0.0
 40
0.0
 40
0.0983105351425802
 40
0.0983105351425802
 40
0.0983105351425802
 10
21.99632447248814
 20
0.3750000024411975
 30
0.0
 41
1.0
 10
22.05868030891425
 20
0.374998070860006
 30
0.0
 41
0.7107094273922171
 10
22.05931922252535
 20
0.4373708929651912
 30
0.0
 41
1.0
  0
SPLINE
  5
C5
330
1F
100
AcDbEntity
  8
Default
100
AcDbSpline
210
0.0
220
0.0
230
1.0
 70
    12
 71
     3
 72
    12
 73
     8
 74
     0
 42
0.0000000001
 43
0.0000000001
 40
0.0025122088885125
 40
0.0025122088885125
 40
0.0025122088885125
 40
0.0025122088885125
 40
2.559996601448771
 40
2.559996601448771
 40
5.119998517672128
 40
5.119998517672128
 40
8.093326489272172
 40
8.093326489272172
 40
8.093326489272172
 40
8.093326489272172
 10
22.05931922252535
 20
0.4373708929651912
 30
0.0
 41
1.0
 10
22.07055710237705
 20
1.289574364790269
 30
0.0
 41
1.0
 10
22.08396633798316
 20
2.140965357733307
 30
0.0
 41
1.0
 10
22.11131713429404
 20
3.8460043069324
 30
0.0
 41
1.0
 10
22.12517641036391
 20
4.6985468031788
 30
0.0
 41
1.0
 10
22.15012044643618
 20
6.542166444777081
 30
0.0
 41
1.0
 10
22.16025702323168
 20
7.53301223521413
 30
0.0
 41
1.0
 10
22.16400023400547
 20
8.523792397285746
 30
0.0
 41
1.0
  0
SPLINE
  5
C6
330
1F
100
AcDbEntity
  8
Default
100
AcDbSpline
210
0.0
220
0.0
230
1.0
 70
    12
 71
     2
 72
     6
 73
     3
 74
     0
 42
0.0000000001
 43
0.0000000001
 40
0.0
 40
0.0
 40
0.0
 40
1.157566753814006
 40
1.157566753814006
 40
1.157566753814006
 10
22.16400023400547
 20
8.523792397285746
 30
0.0
 41
1.0
 10
22.16534809746105
 20
9.102577944119421
 30
0.0
 41
0.9999934222404667
 10
22.17090016049892
 20
9.681337225291125
 30
0.0
 41
0.9999999999999121
  0
SPLINE
  5
C7
330
1F
100
AcDbEntity
  8
Default
100
AcDbSpline
210
0.0
220
0.0
230
1.0
 70
    12
 71
     2
 72
     6
 73
     3
 74
     0
 42
0.0000000001
 43
0.0000000001
 40
0.0
 40
0.0
 40
0.0
 40
0.0011163185374098
 40
0.0011163185374098
 40
0.0011163185374098
 10
22.17090016049883
 20
9.681337225291117
 30
0.0
 41
1.0
 10
22.17091200616904
 20
9.681895288399144
 30
0.0
 41
0.9999999568108967
 10
22.17091765424254
 20
9.682909979841583
 30
0.0
 41
1.0
  0
SPLINE
  5
C8
330
1F
100
AcDbEntity
  8
Default
100
AcDbSpline
210
0.0
220
0.0
230
1.0
 70
    12
 71
     3
 72
    13
 73
     9
 74
     0
 42
0.0000000001
 43
0.0000000001
 40
1.159780968969077
 40
1.159780968969077
 40
1.159780968969077
 40
1.159780968969077
 40
1.219999999483621
 40
1.219999999483621
 40
1.859999999216523
 40
1.859999999216523
 40
2.49999999917158
 40
2.937447200127758
 40
2.937447200127758
 40
2.937447200127758
 40
2.937447200127758
 10
22.17091765424254
 20
9.682909979841583
 30
0.0
 41
1.0
 10
22.17114571959382
 20
9.703438966347733
 30
0.0
 41
1.0
 10
22.17138219678839
 20
9.723511031694557
 30
0.0
 41
1.0
 10
22.17422940555991
 20
9.95689999374116
 30
0.0
 41
1.0
 10
22.17784442512288
 20
10.17023320478074
 30
0.0
 41
1.0
 10
22.18447669868328
 20
10.59684831315658
 30
0.0
 41
1.0
 10
22.18916143223112
 20
10.95596334870555
 30
0.0
 41
1.0
 10
22.19001161161418
 20
11.31509077060545
 30
0.0
 41
1.0
 10
22.1900109761682
 20
11.46118232485981
 30
0.0
 41
1.0
  0
SPLINE
  5
C9
330
1F
100
AcDbEntity
  8
Default
100
AcDbSpline
210
0.0
220
0.0
230
1.0
 70
    12
 71
     2
 72
     6
 73
     3
 74
     0
 42
0.0000000001
 43
0.0000000001
 40
0.0
 40
0.0
 40
0.0
 40
0.6998000892342029
 40
0.6998000892342029
 40
0.6998000892342029
 10
22.1900109761682
 20
11.46118232485981
 30
0.0
 41
1.0
 10
22.19045007646471
 20
11.88243362283056
 30
0.0
 41
0.764976675619346
 10
22.60533966774949
 20
11.9537310466041
 30
0.0
 41
1.0
  0
SPLINE
  5
CA
330
1F
100
AcDbEntity
  8
Default
100
AcDbSpline
210
0.0
220
0.0
230
1.0
 70
    12
 71
     2
 72
     6
 73
     3
 74
     0
 42
0.0000000001
 43
0.0000000001
 40
0.0
 40
0.0
 40
0.0
 40
1.843263134159366
 40
1.843263134159366
 40
1.843263134159366
 10
22.60533966774949
 20
11.9537310466041
 30
0.0
 41
1.0
 10
23.51365992033557
 20
12.10980512042263
 30
0.0
 41
0.999999999993685
 10
24.42197912016536
 20
12.26588515296334
 30
0.0
 41
1.0
  0
SPLINE
  5
CB
330
1F
100
AcDbEntity
  8
Default
100
AcDbSpline
210
0.0
220
0.0
230
1.0
 70
    12
 71
     5
 72
    13
 73
     7
 74
     0
 42
0.0000000001
 43
0.0000000001
 40
-0.0000214316302125
 40
-0.0000214316302125
 40
-0.0000214316302125
 40
-0.0000214316302125
 40
-0.0000214316302125
 40
-0.0000214316302125
 40
0.4999999999109885
 40
0.9999999998854894
 40
0.9999999998854894
 40
0.9999999998854894
 40
0.9999999998854894
 40
0.9999999998854894
 40
0.9999999998854894
 10
24.42197912016536
 20
12.26588515296334
 30
0.0
 41
1.0
 10
24.48595075267201
 20
12.27687454006889
 30
0.0
 41
1.0
 10
24.60063474177332
 20
12.31002542084693
 30
0.0
 41
1.0
 10
24.68880380919518
 20
12.36553619865956
 30
0.0
 41
1.0
 10
24.74669998185891
 20
12.44654867131698
 30
0.0
 41
1.0
 10
24.76599903336319
 20
12.56009560996313
 30
0.0
 41
1.0
 10
24.76599967940297
 20
12.62500000235795
 30
0.0
 41
1.0
  0
ARC
  5
CC
330
1F
100
AcDbEntity
  8
Default
100
AcDbCircle
 10
10309.62792939757
 20
-414.3754196209939
 30
0.0
 40
10246.45187490584
100
AcDbArc
 50
177.680177975196
 51
177.6814389168823
  0
LINE
  5
CD
330
1F
100
AcDbEntity
  8
Default
100
AcDbLine
 10
71.57352039424677
 20
0.3750391479403845
 30
0.0
 11
70.44851512007187
 21
0.3750391479403845
 31
0.0
  0
LINE
  5
CE
330
1F
100
AcDbEntity
  8
Default
100
AcDbLine
 10
70.44851512007187
 20
0.3750391479403845
 30
0.0
 11
70.45987104210928
 21
0.1496421885582038
 31
0.0
  0
SPLINE
  5
CF
330
1F
100
AcDbEntity
  8
Default
100
AcDbSpline
210
0.0
220
0.0
230
1.0
 70
    12
 71
     2
 72
     6
 73
     3
 74
     0
 42
0.0000000001
 43
0.0000000001
 40
-0.2387149143318927
 40
-0.2387149143318927
 40
-0.2387149143318927
 40
0.0
 40
0.0
 40
0.0
 10
70.45987104210928
 20
0.1496421885582038
 30
0.0
 41
1.0
 10
70.465962984343
 20
-0.0000384788826898
 30
0.0
 41
0.7212476062221478
 10
70.61624304423833
 20
0.0000003945672802
 30
0.0
 41
1.0
  0
SPLINE
  5
D0
330
1F
100
AcDbEntity
  8
Default
100
AcDbSpline
210
0.0
220
0.0
230
1.0
 70
    12
 71
     2
 72
     6
 73
     3
 74
     0
 42
0.0000000001
 43
0.0000000001
 40
0.0
 40
0.0
 40
0.0
 40
0.3954244124017839
 40
0.3954244124017839
 40
0.3954244124017839
 10
70.61624304423833
 20
0.0000003945672802
 30
0.0
 41
1.0
 10
70.81443101388881
 20
0.0000274211329071
 30
0.0
 41
0.999999999289049
 10
71.01214321983582
 20
0.0000391457582793
 30
0.0
 41
1.0
  0
SPLINE
  5
D1
330
1F
100
AcDbEntity
  8
Default
100
AcDbSpline
210
0.0
220
0.0
230
1.0
 70
    24
 71
     2
 72
     6
 73
     3
 74
     0
 42
0.0000000001
 43
0.0000000001
 40
0.0
 40
0.0
 40
0.0
 40
0.3954243890795226
 40
0.3954243890795226
 40
0.3954243890795226
 10
71.01214321983582
 20
0.0000391457582793
 30
0.0
 10
71.21009330337972
 20
0.0000391464777749
 30
0.0
 10
71.40804338692362
 20
0.0000391471972705
 30
0.0
  0
SPLINE
  5
D2
330
1F
100
AcDbEntity
  8
Default
100
AcDbSpline
210
0.0
220
0.0
230
1.0
 70
    12
 71
     2
 72
     6
 73
     3
 74
     0
 42
0.0000000001
 43
0.0000000001
 40
-0.2387271341672585
 40
-0.2387271341672585
 40
-0.2387271341672585
 40
0.0
 40
0.0
 40
0.0
 10
71.40804338692362
 20
0.0000391471972705
 30
0.0
 41
1.0
 10
71.55832661419652
 20
0.0000391477218271
 30
0.0
 41
0.7212776802320741
 10
71.56439521796312
 20
0.1497242040884146
 30
0.0
 41
1.0
  0
SPLINE
  5
D3
330
1F
100
AcDbEntity
  8
Default
100
AcDbSpline
210
0.0
220
0.0
230
1.0
 70
    12
 71
     2
 72
     6
 73
     3
 74
     0
 42
0.0000000001
 43
0.0000000001
 40
-0.7825548902353026
 40
-0.7825548902353026
 40
-0.7825548902353026
 40
0.0
 40
0.0
 40
0.0
 10
69.4990805923926
 20
10.30071586202212
 30
0.0
 41
1.0
 10
69.99698868670981
 20
10.30219105879808
 30
0.0
 41
0.7091100515193309
 10
69.99833654862357
 20
10.79994551539292
 30
0.0
 41
1.0
  0
LINE
  5
D4
330
1F
100
AcDbEntity
  8
Default
100
AcDbLine
 10
69.99833654862357
 20
10.79994551539292
 30
0.0
 11
69.99836261426412
 21
12.62503914793996
 31
0.0
  0
POLYLINE
  5
D5
330
1F
100
AcDbEntity
  8
Default
100
AcDb2dPolyline
 66
     1
 10
0.0
 20
0.0
 30
0.0
  0
VERTEX
  5
D6
330
D5
100
AcDbEntity
  8
Default
100
AcDbVertex
100
AcDb2dVertex
 10
69.99836261426412
 20
12.62503914793996
 30
0.0
  0
VERTEX
  5
D7
330
D5
100
AcDbEntity
  8
Default
100
AcDbVertex
100
AcDb2dVertex
 10
71.57336312434086
 20
12.62503914793996
 30
0.0
  0
SEQEND
  5
D8
330
D5
100
AcDbEntity
  8
Default
  0
LINE
  5
D9
330
1F
100
AcDbEntity
  8
Default
100
AcDbLine
 10
71.57336312434086
 20
12.62503914793996
 30
0.0
 11
71.57336316674696
 21
8.523832748022102
 31
0.0
  0
SPLINE
  5
DA
330
1F
100
AcDbEntity
  8
Default
100
AcDbSpline
210
0.0
220
0.0
230
1.0
 70
    12
 71
     5
 72
    12
 73
     6
 74
     0
 42
0.0000000001
 43
0.0000000001
 40
-0.0000000000115655
 40
-0.0000000000115655
 40
-0.0000000000115655
 40
-0.0000000000115655
 40
-0.0000000000115655
 40
-0.0000000000115655
 40
0.9922383364707964
 40
0.9922383364707964
 40
0.9922383364707964
 40
0.9922383364707964
 40
0.9922383364707964
 40
0.9922383364707964
 10
71.57336316674696
 20
8.523832748022102
 30
0.0
 41
1.0
 10
71.57336306370826
 20
6.906723733638387
 30
0.0
 41
1.0
 10
71.57490311456309
 20
5.28999874261649
 30
0.0
 41
1.0
 10
71.5779281105738
 20
3.673665990484096
 30
0.0
 41
1.0
 10
71.57751093044635
 20
2.056446236198724
 30
0.0
 41
1.0
 10
71.57352068449734
 20
0.438327709682369
 30
0.0
 41
1.0
  0
SPLINE
  5
DB
330
1F
100
AcDbEntity
  8
Default
100
AcDbSpline
210
0.0
220
0.0
230
1.0
 70
    12
 71
     2
 72
     6
 73
     3
 74
     0
 42
0.0000000001
 43
0.0000000001
 40
0.0
 40
0.0
 40
0.0
 40
0.0876876088231114
 40
0.0876876088231114
 40
0.0876876088231114
 10
71.57352068449734
 20
0.438327709682369
 30
0.0
 41
1.0
 10
71.57376147837799
 20
0.3857006415266954
 30
0.0
 41
0.7674574304402552
 10
71.52201752268104
 20
0.376097031102347
 30
0.0
 41
1.0
  0
POLYLINE
  5
DC
330
1F
100
AcDbEntity
  8
Default
100
AcDb2dPolyline
 66
     1
 10
0.0
 20
0.0
 30
0.0
  0
VERTEX
  5
DD
330
DC
100
AcDbEntity
  8
Default
100
AcDbVertex
100
AcDb2dVertex
 10
71.52201752268104
 20
0.376097031102347
 30
0.0
  0
VERTEX
  5
DE
330
DC
100
AcDbEntity
  8
Default
100
AcDbVertex
100
AcDb2dVertex
 10
70.4971933464468
 20
0.3760291938065166
 30
0.0
  0
SEQEND
  5
DF
330
DC
100
AcDbEntity
  8
Default
  0
SPLINE
  5
E0
330
1F
100
AcDbEntity
  8
Default
100
AcDbSpline
210
0.0
220
0.0
230
1.0
 70
    12
 71
     2
 72
     6
 73
     3
 74
     0
 42
0.0000000001
 43
0.0000000001
 40
0.0
 40
0.0
 40
0.0
 40
0.0846250291315599
 40
0.0846250291315599
 40
0.0846250291315599
 10
70.4971933464468
 20
0.3760291938065166
 30
0.0
 41
1.0
 10
70.44790125191439
 20
0.3848725235289587
 30
0.0
 41
0.7828101505964009
 10
70.44539640406413
 20
0.4349040010501994
 30
0.0
 41
1.0
  0
SPLINE
  5
E1
330
1F
100
AcDbEntity
  8
Default
100
AcDbSpline
210
0.0
220
0.0
230
1.0
 70
    12
 71
     5
 72
    12
 73
     6
 74
     0
 42
0.0000000001
 43
0.0000000001
 40
-0.9926563385080105
 40
-0.9926563385080105
 40
-0.9926563385080105
 40
-0.9926563385080105
 40
-0.9926563385080105
 40
-0.9926563385080105
 40
0.0000000000115655
 40
0.0000000000115655
 40
0.0000000000115655
 40
0.0000000000115655
 40
0.0000000000115655
 40
0.0000000000115655
 10
70.44539640406413
 20
0.4349040010501994
 30
0.0
 41
1.0
 10
70.36512503712686
 20
2.053720817427831
 30
0.0
 41
1.0
 10
70.28185778858881
 20
3.671623239166394
 30
0.0
 41
1.0
 10
70.1956992560306
 20
5.288636897332367
 30
0.0
 41
1.0
 10
70.11078110234632
 20
6.906042847420849
 30
0.0
 41
1.0
 10
70.02714865693645
 20
8.523832748022102
 30
0.0
 41
1.0
  0
SPLINE
  5
E2
330
1F
100
AcDbEntity
  8
Default
100
AcDbSpline
210
0.0
220
0.0
230
1.0
 70
    12
 71
     2
 72
     6
 73
     3
 74
     0
 42
0.0000000001
 43
0.0000000001
 40
-0.082649365308941
 40
-0.082649365308941
 40
-0.082649365308941
 40
0.0
 40
0.0
 40
0.0
 10
70.02714865693645
 20
8.523832748022102
 30
0.0
 41
1.0
 10
70.02502822703845
 20
8.565102993962563
 30
0.0
 41
0.9999999883852876
 10
70.02289730685504
 20
8.606814936584982
 30
0.0
 41
1.0
  0
SPLINE
  5
E3
330
1F
100
AcDbEntity
  8
Default
100
AcDbSpline
210
0.0
220
0.0
230
1.0
 70
    12
 71
     2
 72
     6
 73
     3
 74
     0
 42
0.0000000001
 43
0.0000000001
 40
0.0
 40
0.0
 40
0.0
 40
0.7576113662501209
 40
0.7576113662501209
 40
0.7576113662501209
 10
70.02289730685504
 20
8.606814936584982
 30
0.0
 41
1.0
 10
69.99775782115066
 20
9.079543739913545
 30
0.0
 41
0.72648491075732
 10
69.52419103154318
 20
9.080707515794899
 30
0.0
 41
1.0
  0
SPLINE
  5
E4
330
1F
100
AcDbEntity
  8
Default
100
AcDbSpline
210
0.0
220
0.0
230
1.0
 70
    24
 71
     2
 72
     6
 73
     3
 74
     0
 42
0.0000000001
 43
0.0000000001
 40
0.0
 40
0.0
 40
0.0
 40
19.64792944108129
 40
19.64792944108129
 40
19.64792944108129
 10
69.52419103154318
 20
9.080707515794899
 30
0.0
 10
59.69961322058344
 20
9.080707515794899
 30
0.0
 10
49.87503540962371
 20
9.080707515794899
 30
0.0
  0
SPLINE
  5
E5
330
1F
100
AcDbEntity
  8
Default
100
AcDbSpline
210
0.0
220
0.0
230
1.0
 70
    12
 71
     2
 72
     6
 73
     3
 74
     0
 42
0.0000000001
 43
0.0000000001
 40
-0.7576113662501209
 40
-0.7576113662501209
 40
-0.7576113662501209
 40
0.0
 40
0.0
 40
0.0
 10
49.87503540962371
 20
9.080707515794899
 30
0.0
 41
1.0
 10
49.40146862001627
 20
9.079543739913545
 30
0.0
 41
0.72648491075732
 10
49.37632913431185
 20
8.606814936584982
 30
0.0
 41
1.0
  0
SPLINE
  5
E6
330
1F
100
AcDbEntity
  8
Default
100
AcDbSpline
210
0.0
220
0.0
230
1.0
 70
    12
 71
     2
 72
     6
 73
     3
 74
     0
 42
0.0000000001
 43
0.0000000001
 40
0.0
 40
0.0
 40
0.0
 40
0.082649365308941
 40
0.082649365308941
 40
0.082649365308941
 10
49.37632913431185
 20
8.606814936584982
 30
0.0
 41
1.0
 10
49.37419821412855
 20
8.565102993962563
 30
0.0
 41
0.9999999883852876
 10
49.37207778423033
 20
8.523832748022102
 30
0.0
 41
1.0
  0
SPLINE
  5
E7
330
1F
100
AcDbEntity
  8
Default
100
AcDbSpline
210
0.0
220
0.0
230
1.0
 70
    12
 71
     5
 72
    12
 73
     6
 74
     0
 42
0.0000000001
 43
0.0000000001
 40
-0.0000000000115655
 40
-0.0000000000115655
 40
-0.0000000000115655
 40
-0.0000000000115655
 40
-0.0000000000115655
 40
-0.0000000000115655
 40
0.9926563385080105
 40
0.9926563385080105
 40
0.9926563385080105
 40
0.9926563385080105
 40
0.9926563385080105
 40
0.9926563385080105
 10
49.37207778423033
 20
8.523832748022102
 30
0.0
 41
1.0
 10
49.28844533882057
 20
6.906042847420849
 30
0.0
 41
1.0
 10
49.20352718513629
 20
5.288636897332367
 30
0.0
 41
1.0
 10
49.11736865257808
 20
3.671623239166394
 30
0.0
 41
1.0
 10
49.03410140404003
 20
2.053720817427831
 30
0.0
 41
1.0
 10
48.95383003710276
 20
0.4349040010501994
 30
0.0
 41
1.0
  0
SPLINE
  5
E8
330
1F
100
AcDbEntity
  8
Default
100
AcDbSpline
210
0.0
220
0.0
230
1.0
 70
    12
 71
     2
 72
     6
 73
     3
 74
     0
 42
0.0000000001
 43
0.0000000001
 40
-0.0846250291315599
 40
-0.0846250291315599
 40
-0.0846250291315599
 40
0.0
 40
0.0
 40
0.0
 10
48.95383003710276
 20
0.4349040010501994
 30
0.0
 41
1.0
 10
48.95132518925247
 20
0.3848725235289587
 30
0.0
 41
0.7828101505964009
 10
48.90203309472008
 20
0.3760291938065166
 30
0.0
 41
1.0
  0
POLYLINE
  5
E9
330
1F
100
AcDbEntity
  8
Default
100
AcDb2dPolyline
 66
     1
 10
0.0
 20
0.0
 30
0.0
  0
VERTEX
  5
EA
330
E9
100
AcDbEntity
  8
Default
100
AcDbVertex
100
AcDb2dVertex
 10
48.90203309472008
 20
0.3760291938065166
 30
0.0
  0
VERTEX
  5
EB
330
E9
100
AcDbEntity
  8
Default
100
AcDbVertex
100
AcDb2dVertex
 10
47.87720891848585
 20
0.376097031102347
 30
0.0
  0
SEQEND
  5
EC
330
E9
100
AcDbEntity
  8
Default
  0
SPLINE
  5
ED
330
1F
100
AcDbEntity
  8
Default
100
AcDbSpline
210
0.0
220
0.0
230
1.0
 70
    12
 71
     2
 72
     6
 73
     3
 74
     0
 42
0.0000000001
 43
0.0000000001
 40
-0.0876876088231114
 40
-0.0876876088231114
 40
-0.0876876088231114
 40
0.0
 40
0.0
 40
0.0
 10
47.87720891848585
 20
0.376097031102347
 30
0.0
 41
1.0
 10
47.82546496278885
 20
0.3857006415266954
 30
0.0
 41
0.7674574304402552
 10
47.82570575666955
 20
0.438327709682369
 30
0.0
 41
1.0
  0
SPLINE
  5
EE
330
1F
100
AcDbEntity
  8
Default
100
AcDbSpline
210
0.0
220
0.0
230
1.0
 70
    12
 71
     5
 72
    12
 73
     6
 74
     0
 42
0.0000000001
 43
0.0000000001
 40
-0.9922383364707964
 40
-0.9922383364707964
 40
-0.9922383364707964
 40
-0.9922383364707964
 40
-0.9922383364707964
 40
-0.9922383364707964
 40
0.0000000000115655
 40
0.0000000000115655
 40
0.0000000000115655
 40
0.0000000000115655
 40
0.0000000000115655
 40
0.0000000000115655
 10
47.82570575666955
 20
0.438327709682369
 30
0.0
 41
1.0
 10
47.82171551072054
 20
2.056446236198724
 30
0.0
 41
1.0
 10
47.82129833059309
 20
3.673665990484096
 30
0.0
 41
1.0
 10
47.8243233266038
 20
5.28999874261649
 30
0.0
 41
1.0
 10
47.82586337745863
 20
6.906723733638387
 30
0.0
 41
1.0
 10
47.82586327441993
 20
8.523832748022102
 30
0.0
 41
1.0
  0
LINE
  5
EF
330
1F
100
AcDbEntity
  8
Default
100
AcDbLine
 10
47.82586327441993
 20
8.523832748022102
 30
0.0
 11
47.82586331682603
 21
12.62503914793996
 31
0.0
  0
POLYLINE
  5
F0
330
1F
100
AcDbEntity
  8
Default
100
AcDb2dPolyline
 66
     1
 10
0.0
 20
0.0
 30
0.0
  0
VERTEX
  5
F1
330
F0
100
AcDbEntity
  8
Default
100
AcDbVertex
100
AcDb2dVertex
 10
47.82586331682603
 20
12.62503914793996
 30
0.0
  0
VERTEX
  5
F2
330
F0
100
AcDbEntity
  8
Default
100
AcDbVertex
100
AcDb2dVertex
 10
49.40086382690276
 20
12.62503914793996
 30
0.0
  0
SEQEND
  5
F3
330
F0
100
AcDbEntity
  8
Default
  0
LINE
  5
F4
330
1F
100
AcDbEntity
  8
Default
100
AcDbLine
 10
49.40086382690276
 20
12.62503914793996
 30
0.0
 11
49.40088989254332
 21
10.79994551539292
 31
0.0
  0
SPLINE
  5
F5
330
1F
100
AcDbEntity
  8
Default
100
AcDbSpline
210
0.0
220
0.0
230
1.0
 70
    12
 71
     2
 72
     6
 73
     3
 74
     0
 42
0.0000000001
 43
0.0000000001
 40
0.0
 40
0.0
 40
0.0
 40
0.7825548902353026
 40
0.7825548902353026
 40
0.7825548902353026
 10
49.40088989254332
 20
10.79994551539292
 30
0.0
 41
1.0
 10
49.40223775445698
 20
10.30219105879808
 30
0.0
 41
0.7091100515193309
 10
49.90014584877417
 20
10.30071586202212
 30
0.0
 41
1.0
  0
SPLINE
  5
F6
330
1F
100
AcDbEntity
  8
Default
100
AcDbSpline
210
0.0
220
0.0
230
1.0
 70
    24
 71
     2
 72
     6
 73
     3
 74
     0
 42
0.0000000001
 43
0.0000000001
 40
0.0
 40
0.0
 40
0.0
 40
19.59744819239467
 40
19.59744819239467
 40
19.59744819239467
 10
49.90014584877417
 20
10.30071586202212
 30
0.0
 10
59.69961322058339
 20
10.30071586202212
 30
0.0
 10
69.4990805923926
 20
10.30071586202212
 30
0.0
  0
SPLINE
  5
F7
330
1F
100
AcDbEntity
  8
Default
100
AcDbSpline
210
0.0
220
0.0
230
1.0
 70
     8
 71
     3
 72
    12
 73
     8
 74
     0
 42
0.0000000001
 43
0.0000000001
 40
0.0
 40
0.0
 40
0.0
 40
0.0
 40
1.0
 40
2.0
 40
3.0
 40
4.0
 40
5.0
 40
5.0
 40
5.0
 40
5.0
 10
49.40084763141078
 20
12.62503918825035
 30
0.0
 10
49.38445073664627
 20
12.49412383179848
 30
0.0
 10
49.16239881682975
 20
12.34303393060617
 30
0.0
 10
48.80138170948203
 20
12.2627180002051
 30
0.0
 10
48.42564817194636
 20
12.26322850250835
 30
0.0
 10
48.06435388444231
 20
12.34265459674313
 30
0.0
 10
47.84267591336561
 20
12.49439055061359
 30
0.0
 10
47.82584777309114
 20
12.62498982757822
 30
0.0
  0
POLYLINE
  5
F8
330
1F
100
AcDbEntity
  8
Default
100
AcDb2dPolyline
 66
     1
 10
0.0
 20
0.0
 30
0.0
  0
VERTEX
  5
F9
330
F8
100
AcDbEntity
  8
Default
100
AcDbVertex
100
AcDb2dVertex
 10
47.24961322058346
 20
14.62503914793996
 30
0.0
  0
VERTEX
  5
FA
330
F8
100
AcDbEntity
  8
Default
100
AcDbVertex
100
AcDb2dVertex
 10
72.14961322058355
 20
14.62503914793996
 30
0.0
  0
VERTEX
  5
FB
330
F8
100
AcDbEntity
  8
Default
100
AcDbVertex
100
AcDb2dVertex
 10
72.14961322058355
 20
15.37503914793996
 30
0.0
  0
VERTEX
  5
FC
330
F8
100
AcDbEntity
  8
Default
100
AcDbVertex
100
AcDb2dVertex
 10
47.24961322058346
 20
15.37503914793996
 30
0.0
  0
VERTEX
  5
FD
330
F8
100
AcDbEntity
  8
Default
100
AcDbVertex
100
AcDb2dVertex
 10
47.24961322058346
 20
14.62503914793996
 30
0.0
  0
SEQEND
  5
FE
330
F8
100
AcDbEntity
  8
Default
  0
POLYLINE
  5
FF
330
1F
100
AcDbEntity
  8
Default
100
AcDb2dPolyline
 66
     1
 10
0.0
 20
0.0
 30
0.0
  0
VERTEX
  5
100
330
FF
100
AcDbEntity
  8
Default
100
AcDbVertex
100
AcDb2dVertex
 10
48.74961322058346
 20
14.37503914793996
 30
0.0
  0
VERTEX
  5
101
330
FF
100
AcDbEntity
  8
Default
100
AcDbVertex
100
AcDb2dVertex
 10
70.64961322058343
 20
14.37503914793996
 30
0.0
  0
VERTEX
  5
102
330
FF
100
AcDbEntity
  8
Default
100
AcDbVertex
100
AcDb2dVertex
 10
70.64961322058343
 20
14.62503914793996
 30
0.0
  0
VERTEX
  5
103
330
FF
100
AcDbEntity
  8
Default
100
AcDbVertex
100
AcDb2dVertex
 10
48.74961322058346
 20
14.62503914793996
 30
0.0
  0
VERTEX
  5
104
330
FF
100
AcDbEntity
  8
Default
100
AcDbVertex
100
AcDb2dVertex
 10
48.74961322058346
 20
14.37503914793996
 30
0.0
  0
SEQEND
  5
105
330
FF
100
AcDbEntity
  8
Default
  0
SPLINE
  5
106
330
1F
100
AcDbEntity
  8
Default
100
AcDbSpline
210
0.0
220
0.0
230
1.0
 70
    12
 71
     2
 72
     6
 73
     3
 74
     0
 42
0.0000000001
 43
0.0000000001
 40
0.0
 40
0.0
 40
0.0
 40
0.0026344063336084
 40
0.0026344063336084
 40
0.0026344063336084
 10
49.40085951894878
 20
12.62369822161139
 30
0.0
 41
1.0
 10
49.40084542168815
 20
12.62238109374753
 30
0.0
 41
0.9999998444549029
 10
49.40082985516835
 20
12.62106398242881
 30
0.0
 41
1.0
  0
SPLINE
  5
107
330
1F
100
AcDbEntity
  8
Default
100
AcDbSpline
210
0.0
220
0.0
230
1.0
 70
    24
 71
     2
 72
     6
 73
     3
 74
     0
 42
0.0000000001
 43
0.0000000001
 40
0.0
 40
0.0
 40
0.0
 40
0.003885868834095
 40
0.003885868834095
 40
0.003885868834095
 10
49.40086322578338
 20
12.62106376877136
 30
0.0
 10
49.40086322956085
 20
12.61912083435432
 30
0.0
 10
49.40086323333833
 20
12.61717789993727
 30
0.0
  0
SPLINE
  5
108
330
1F
100
AcDbEntity
  8
Default
100
AcDbSpline
210
0.0
220
0.0
230
1.0
 70
     8
 71
     3
 72
    12
 73
     8
 74
     0
 42
0.0000000001
 43
0.0000000001
 40
0.0
 40
0.0
 40
0.0
 40
0.0
 40
1.0
 40
2.0
 40
3.0
 40
4.0
 40
5.0
 40
5.0
 40
5.0
 40
5.0
 10
69.9983788097561
 20
12.62503918825035
 30
0.0
 10
70.01477570452062
 20
12.49412383179848
 30
0.0
 10
70.23682762433714
 20
12.34303393060617
 30
0.0
 10
70.59784473168486
 20
12.2627180002051
 30
0.0
 10
70.97357826922052
 20
12.26322850250835
 30
0.0
 10
71.33487255672446
 20
12.34265459674313
 30
0.0
 10
71.55655052780128
 20
12.49439055061359
 30
0.0
 10
71.57337866807575
 20
12.62498982757822
 30
0.0
  0
ARC
  5
109
330
1F
100
AcDbEntity
  8
Default
100
AcDbCircle
 10
-10190.2287029564
 20
-414.3754196209939
 30
0.0
 40
10246.45187490584
100
AcDbArc
 50
2.318561083130736
 51
2.319822024816971
  0
LINE
  5
10A
330
1F
100
AcDbEntity
  8
Default
100
AcDbLine
 10
47.82570604692012
 20
0.3750391479403845
 30
0.0
 11
48.95071132109501
 21
0.3750391479403845
 31
0.0
  0
LINE
  5
10B
330
1F
100
AcDbEntity
  8
Default
100
AcDbLine
 10
48.95071132109501
 20
0.3750391479403845
 30
0.0
 11
48.9393553990576
 21
0.1496421885582038
 31
0.0
  0
SPLINE
  5
10C
330
1F
100
AcDbEntity
  8
Default
100
AcDbSpline
210
0.0
220
0.0
230
1.0
 70
    12
 71
     2
 72
     6
 73
     3
 74
     0
 42
0.0000000001
 43
0.0000000001
 40
-0.2387149143318927
 40
-0.2387149143318927
 40
-0.2387149143318927
 40
0.0
 40
0.0
 40
0.0
 10
48.9393553990576
 20
0.1496421885582038
 30
0.0
 41
1.0
 10
48.93326345682389
 20
-0.0000384788826898
 30
0.0
 41
0.7212476062221478
 10
48.78298339692856
 20
0.0000003945672802
 30
0.0
 41
1.0
  0
SPLINE
  5
10D
330
1F
100
AcDbEntity
  8
Default
100
AcDbSpline
210
0.0
220
0.0
230
1.0
 70
    12
 71
     2
 72
     6
 73
     3
 74
     0
 42
0.0000000001
 43
0.0000000001
 40
0.0
 40
0.0
 40
0.0
 40
0.3954244124017839
 40
0.3954244124017839
 40
0.3954244124017839
 10
48.78298339692856
 20
0.0000003945672802
 30
0.0
 41
1.0
 10
48.5847954272781
 20
0.0000274211329071
 30
0.0
 41
0.999999999289049
 10
48.38708322133107
 20
0.0000391457582793
 30
0.0
 41
1.0
  0
SPLINE
  5
10E
330
1F
100
AcDbEntity
  8
Default
100
AcDbSpline
210
0.0
220
0.0
230
1.0
 70
    24
 71
     2
 72
     6
 73
     3
 74
     0
 42
0.0000000001
 43
0.0000000001
 40
0.0
 40
0.0
 40
0.0
 40
0.3954243890795226
 40
0.3954243890795226
 40
0.3954243890795226
 10
48.38708322133107
 20
0.0000391457582793
 30
0.0
 10
48.18913313778717
 20
0.0000391464777749
 30
0.0
 10
47.99118305424327
 20
0.0000391471972705
 30
0.0
  0
SPLINE
  5
10F
330
1F
100
AcDbEntity
  8
Default
100
AcDbSpline
210
0.0
220
0.0
230
1.0
 70
    12
 71
     2
 72
     6
 73
     3
 74
     0
 42
0.0000000001
 43
0.0000000001
 40
-0.2387271341672585
 40
-0.2387271341672585
 40
-0.2387271341672585
 40
0.0
 40
0.0
 40
0.0
 10
47.99118305424327
 20
0.0000391471972705
 30
0.0
 41
1.0
 10
47.84089982697029
 20
0.0000391477218271
 30
0.0
 41
0.7212776802320741
 10
47.83483122320376
 20
0.1497242040884146
 30
0.0
 41
1.0
  0
SPLINE
  5
110
330
1F
100
AcDbEntity
  8
Default
100
AcDbSpline
210
0.0
220
0.0
230
1.0
 70
    12
 71
     2
 72
     6
 73
     3
 74
     0
 42
0.0000000001
 43
0.0000000001
 40
0.0
 40
0.0
 40
0.0
 40
0.0051272633192371
 40
0.0051272633192371
 40
0.0051272633192371
 10
49.400842565164
 20
12.61991732659044
 30
0.0
 41
1.0
 10
49.40086360829899
 20
12.62248088681026
 30
0.0
 41
0.9999912669693292
 10
49.40086322345735
 20
12.62504453336663
 30
0.0
 41
1.0
  0
ENDSEC
  0
SECTION
  2
OBJECTS
  0
DICTIONARY
  5
C
330
0
100
AcDbDictionary
281
     1
  3
ACAD_GROUP
350
D
  3
ACAD_LAYOUT
350
1A
  3
ACAD_MLEADERSTYLE
350
112
  3
ACAD_MLINESTYLE
350
17
  3
ACAD_PLOTSETTINGS
350
19
  3
ACAD_PLOTSTYLENAME
350
E
  3
ACAD_TABLESTYLE
350
111
  3
ACAD_VISUALSTYLE
350
2A
  0
DICTIONARY
  5
D
102
{ACAD_REACTORS
330
C
102
}
330
C
100
AcDbDictionary
281
     1
  0
DICTIONARY
  5
1A
102
{ACAD_REACTORS
330
C
102
}
330
C
100
AcDbDictionary
281
     1
  3
Layout1
350
1E
  3
Layout2
350
26
  3
Model
350
22
  0
DICTIONARY
  5
112
102
{ACAD_REACTORS
330
C
102
}
330
C
100
AcDbDictionary
281
     1
  0
DICTIONARY
  5
17
102
{ACAD_REACTORS
330
C
102
}
330
C
100
AcDbDictionary
281
     1
  3
Standard
350
18
  0
DICTIONARY
  5
19
102
{ACAD_REACTORS
330
C
102
}
330
C
100
AcDbDictionary
281
     1
  0
ACDBDICTIONARYWDFLT
  5
E
102
{ACAD_REACTORS
330
C
102
}
330
C
100
AcDbDictionary
281
     1
  3
Normal
350
F
100
AcDbDictionaryWithDefault
340
F
  0
DICTIONARY
  5
111
102
{ACAD_REACTORS
330
C
102
}
330
C
100
AcDbDictionary
281
     1
  0
DICTIONARY
  5
2A
102
{ACAD_REACTORS
330
C
102
}
330
C
100
AcDbDictionary
281
     1
  3
2dWireframe
350
2F
  3
3D Hidden
350
31
  3
3dWireframe
350
30
  3
Basic
350
32
  3
Brighten
350
36
  3
ColorChange
350
3A
  3
Conceptual
350
34
  3
Dim
350
35
  3
Facepattern
350
39
  3
Flat
350
2B
  3
FlatWithEdges
350
2C
  3
Gouraud
350
2D
  3
GouraudWithEdges
350
2E
  3
Linepattern
350
38
  3
Realistic
350
33
  3
Thicken
350
37
  0
LAYOUT
  5
1E
102
{ACAD_REACTORS
330
1A
102
}
330
1A
100
AcDbPlotSettings
  1

  2
none_device
  4

  6

 40
0.0
 41
0.0
 42
0.0
 43
0.0
 44
0.0
 45
0.0
 46
0.0
 47
0.0
 48
0.0
 49
0.0
140
0.0
141
0.0
142
1.0
143
1.0
 70
   688
 72
     0
 73
     0
 74
     5
  7

 75
    16
 76
     0
 77
     2
 78
   300
147
1.0
148
0.0
149
0.0
100
AcDbLayout
  1
Layout1
 70
     1
 71
     1
 10
0.0
 20
0.0
 11
12.0
 21
9.0
 12
0.0
 22
0.0
 32
0.0
 14
1.000000000000000E+20
 24
1.000000000000000E+20
 34
1.000000000000000E+20
 15
-1.000000000000000E+20
 25
-1.000000000000000E+20
 35
-1.000000000000000E+20
146
0.0
 13
0.0
 23
0.0
 33
0.0
 16
1.0
 26
0.0
 36
0.0
 17
0.0
 27
1.0
 37
0.0
 76
     0
330
1B
  0
LAYOUT
  5
26
102
{ACAD_REACTORS
330
1A
102
}
330
1A
100
AcDbPlotSettings
  1

  2
none_device
  4

  6

 40
0.0
 41
0.0
 42
0.0
 43
0.0
 44
0.0
 45
0.0
 46
0.0
 47
0.0
 48
0.0
 49
0.0
140
0.0
141
0.0
142
1.0
143
1.0
 70
   688
 72
     0
 73
     0
 74
     5
  7

 75
    16
 76
     0
 77
     2
 78
   300
147
1.0
148
0.0
149
0.0
100
AcDbLayout
  1
Layout2
 70
     1
 71
     2
 10
0.0
 20
0.0
 11
0.0
 21
0.0
 12
0.0
 22
0.0
 32
0.0
 14
0.0
 24
0.0
 34
0.0
 15
0.0
 25
0.0
 35
0.0
146
0.0
 13
0.0
 23
0.0
 33
0.0
 16
1.0
 26
0.0
 36
0.0
 17
0.0
 27
1.0
 37
0.0
 76
     0
330
23
  0
LAYOUT
  5
22
102
{ACAD_REACTORS
330
1A
102
}
330
1A
100
AcDbPlotSettings
  1

  2
none_device
  4

  6

 40
0.0
 41
0.0
 42
0.0
 43
0.0
 44
0.0
 45
0.0
 46
0.0
 47
0.0
 48
0.0
 49
0.0
140
0.0
141
0.0
142
1.0
143
1.0
 70
  1712
 72
     0
 73
     0
 74
     0
  7

 75
     0
 76
     0
 77
     2
 78
   300
147
1.0
148
0.0
149
0.0
100
AcDbLayout
  1
Model
 70
     1
 71
     0
 10
0.0
 20
0.0
 11
12.0
 21
9.0
 12
0.0
 22
0.0
 32
0.0
 14
-31.75000000000011
 24
-0.0000000002171134
 34
0.0
 15
72.20086322058455
 25
65.13795852298665
 35
0.0
146
0.0
 13
0.0
 23
0.0
 33
0.0
 16
1.0
 26
0.0
 36
0.0
 17
0.0
 27
1.0
 37
0.0
 76
     0
330
1F
331
29
  0
MLINESTYLE
  5
18
102
{ACAD_REACTORS
330
17
102
}
330
17
100
AcDbMlineStyle
  2
Standard
 70
     0
  3

 62
   256
 51
90.0
 52
90.0
 71
     2
 49
0.5
 62
   256
  6
BYLAYER
 49
-0.5
 62
   256
  6
BYLAYER
  0
ACDBPLACEHOLDER
  5
F
102
{ACAD_REACTORS
330
E
102
}
330
E
  0
VISUALSTYLE
  5
2F
102
{ACAD_REACTORS
330
2A
102
}
330
2A
100
AcDbVisualStyle
  2
2dWireframe
 70
     4
 71
     0
 72
     2
 73
     0
 90
        0
 40
-0.6
 41
-30.0
 62
     5
 63
     7
421
 16777215
 74
     1
 91
        4
 64
     7
 65
   257
 75
     1
175
     1
 42
1.0
 92
        0
 66
   257
 43
1.0
 76
     1
 77
     6
 78
     2
 67
     7
 79
     5
170
     0
171
     0
290
     0
174
     0
 93
        1
 44
0.0
173
     0
291
     0
 45
0.0
1001
ACAD
1000
AcDbSavedByObjectVersion
1070
     0
  0
VISUALSTYLE
  5
31
102
{ACAD_REACTORS
330
2A
102
}
330
2A
100
AcDbVisualStyle
  2
3D Hidden
 70
     6
 71
     1
 72
     2
 73
     2
 90
        0
 40
-0.6
 41
-30.0
 62
     5
 63
     7
421
 16777215
 74
     2
 91
        2
 64
     7
 65
   257
 75
     2
175
     1
 42
40.0
 92
        0
 66
   257
 43
1.0
 76
     1
 77
     6
 78
     2
 67
     7
 79
     3
170
     0
171
     0
290
     0
174
     0
 93
        1
 44
0.0
173
     0
291
     0
 45
0.0
1001
ACAD
1000
AcDbSavedByObjectVersion
1070
     0
  0
VISUALSTYLE
  5
30
102
{ACAD_REACTORS
330
2A
102
}
330
2A
100
AcDbVisualStyle
  2
3dWireframe
 70
     5
 71
     0
 72
     2
 73
     0
 90
        0
 40
-0.6
 41
-30.0
 62
     5
 63
     7
421
 16777215
 74
     1
 91
        4
 64
     7
 65
   257
 75
     1
175
     1
 42
1.0
 92
        0
 66
   257
 43
1.0
 76
     1
 77
     6
 78
     2
 67
     7
 79
     5
170
     0
171
     0
290
     0
174
     0
 93
        1
 44
0.0
173
     0
291
     0
 45
0.0
1001
ACAD
1000
AcDbSavedByObjectVersion
1070
     0
  0
VISUALSTYLE
  5
32
102
{ACAD_REACTORS
330
2A
102
}
330
2A
100
AcDbVisualStyle
  2
Basic
 70
     7
 71
     1
 72
     0
 73
     1
 90
        0
 40
-0.6
 41
-30.0
 62
     5
 63
     7
421
 16777215
 74
     0
 91
        4
 64
     7
 65
   257
 75
     1
175
     1
 42
1.0
 92
        8
 66
     7
 43
1.0
 76
     1
 77
     6
 78
     2
 67
     7
 79
     5
170
     0
171
     0
290
     0
174
     0
 93
        1
 44
0.0
173
     0
291
     1
 45
0.0
1001
ACAD
1000
AcDbSavedByObjectVersion
1070
     0
  0
VISUALSTYLE
  5
36
102
{ACAD_REACTORS
330
2A
102
}
330
2A
100
AcDbVisualStyle
  2
Brighten
 70
    12
 71
     2
 72
     2
 73
     0
 90
        0
 40
-0.6
 41
-30.0
 62
     5
 63
     7
421
 16777215
 74
     1
 91
        4
 64
     7
 65
   257
 75
     1
175
     1
 42
1.0
 92
        8
 66
     7
 43
1.0
 76
     1
 77
     6
 78
     2
 67
     7
 79
     5
170
     0
171
     0
290
     0
174
     0
 93
        1
 44
50.0
173
     0
291
     1
 45
0.0
1001
ACAD
1000
AcDbSavedByObjectVersion
1070
     0
  0
VISUALSTYLE
  5
3A
102
{ACAD_REACTORS
330
2A
102
}
330
2A
100
AcDbVisualStyle
  2
ColorChange
 70
    16
 71
     2
 72
     2
 73
     3
 90
        0
 40
-0.6
 41
-30.0
 62
     5
 63
     8
421
  8421504
 74
     1
 91
        4
 64
     7
 65
   257
 75
     1
175
     1
 42
1.0
 92
        8
 66
     8
424
  8421504
 43
1.0
 76
     1
 77
     6
 78
     2
 67
     7
 79
     5
170
     0
171
     0
290
     0
174
     0
 93
        1
 44
0.0
173
     0
291
     1
 45
0.0
1001
ACAD
1000
AcDbSavedByObjectVersion
1070
     0
  0
VISUALSTYLE
  5
34
102
{ACAD_REACTORS
330
2A
102
}
330
2A
100
AcDbVisualStyle
  2
Conceptual
 70
     9
 71
     3
 72
     2
 73
     0
 90
        0
 40
-0.6
 41
-30.0
 62
     5
 63
     7
421
 16777215
 74
     2
 91
        2
 64
     7
 65
   257
 75
     1
175
     1
 42
40.0
 92
        8
 66
     7
 43
1.0
 76
     1
 77
     6
 78
     2
 67
     7
 79
     3
170
     0
171
     0
290
     0
174
     0
 93
        1
 44
0.0
173
     0
291
     0
 45
0.0
1001
ACAD
1000
AcDbSavedByObjectVersion
1070
     0
  0
VISUALSTYLE
  5
35
102
{ACAD_REACTORS
330
2A
102
}
330
2A
100
AcDbVisualStyle
  2
Dim
 70
    11
 71
     2
 72
     2
 73
     0
 90
        0
 40
-0.6
 41
-30.0
 62
     5
 63
     7
421
 16777215
 74
     1
 91
        4
 64
     7
 65
   257
 75
     1
175
     1
 42
1.0
 92
        8
 66
     7
 43
1.0
 76
     1
 77
     6
 78
     2
 67
     7
 79
     5
170
     0
171
     0
290
     0
174
     0
 93
        1
 44
-50.0
173
     0
291
     1
 45
0.0
1001
ACAD
1000
AcDbSavedByObjectVersion
1070
     0
  0
VISUALSTYLE
  5
39
102
{ACAD_REACTORS
330
2A
102
}
330
2A
100
AcDbVisualStyle
  2
Facepattern
 70
    15
 71
     2
 72
     2
 73
     0
 90
        0
 40
-0.6
 41
-30.0
 62
     5
 63
     7
421
 16777215
 74
     1
 91
        4
 64
     7
 65
   257
 75
     1
175
     1
 42
1.0
 92
        8
 66
     7
 43
1.0
 76
     1
 77
     6
 78
     2
 67
     7
 79
     5
170
     0
171
     0
290
     0
174
     0
 93
        1
 44
0.0
173
     0
291
     1
 45
0.0
1001
ACAD
1000
AcDbSavedByObjectVersion
1070
     0
  0
VISUALSTYLE
  5
2B
102
{ACAD_REACTORS
330
2A
102
}
330
2A
100
AcDbVisualStyle
  2
Flat
 70
     0
 71
     2
 72
     1
 73
     1
 90
        2
 40
-0.6
 41
30.0
 62
     5
 63
     7
421
 16777215
 74
     0
 91
        4
 64
     7
 65
   257
 75
     1
175
     1
 42
1.0
 92
        8
 66
     7
 43
1.0
 76
     1
 77
     6
 78
     2
 67
     7
 79
     5
170
     0
171
     0
290
     0
174
     0
 93
       13
 44
0.0
173
     0
291
     1
 45
0.0
1001
ACAD
1000
AcDbSavedByObjectVersion
1070
     0
  0
VISUALSTYLE
  5
2C
102
{ACAD_REACTORS
330
2A
102
}
330
2A
100
AcDbVisualStyle
  2
FlatWithEdges
 70
     1
 71
     2
 72
     1
 73
     1
 90
        2
 40
-0.6
 41
30.0
 62
     5
 63
     7
421
 16777215
 74
     1
 91
        4
 64
     7
 65
   257
 75
     1
175
     1
 42
1.0
 92
        0
 66
   257
 43
1.0
 76
     1
 77
     6
 78
     2
 67
     7
 79
     5
170
     0
171
     0
290
     0
174
     0
 93
       13
 44
0.0
173
     0
291
     1
 45
0.0
1001
ACAD
1000
AcDbSavedByObjectVersion
1070
     0
  0
VISUALSTYLE
  5
2D
102
{ACAD_REACTORS
330
2A
102
}
330
2A
100
AcDbVisualStyle
  2
Gouraud
 70
     2
 71
     2
 72
     2
 73
     1
 90
        2
 40
-0.6
 41
30.0
 62
     5
 63
     7
421
 16777215
 74
     0
 91
        4
 64
     7
 65
   257
 75
     1
175
     1
 42
1.0
 92
        0
 66
     7
 43
1.0
 76
     1
 77
     6
 78
     2
 67
     7
 79
     5
170
     0
171
     0
290
     0
174
     0
 93
       13
 44
0.0
173
     0
291
     1
 45
0.0
1001
ACAD
1000
AcDbSavedByObjectVersion
1070
     0
  0
VISUALSTYLE
  5
2E
102
{ACAD_REACTORS
330
2A
102
}
330
2A
100
AcDbVisualStyle
  2
GouraudWithEdges
 70
     3
 71
     2
 72
     2
 73
     1
 90
        2
 40
-0.6
 41
30.0
 62
     5
 63
     7
421
 16777215
 74
     1
 91
        4
 64
     7
 65
   257
 75
     1
175
     1
 42
1.0
 92
        0
 66
   257
 43
1.0
 76
     1
 77
     6
 78
     2
 67
     7
 79
     5
170
     0
171
     0
290
     0
174
     0
 93
       13
 44
0.0
173
     0
291
     1
 45
0.0
1001
ACAD
1000
AcDbSavedByObjectVersion
1070
     0
  0
VISUALSTYLE
  5
38
102
{ACAD_REACTORS
330
2A
102
}
330
2A
100
AcDbVisualStyle
  2
Linepattern
 70
    14
 71
     2
 72
     2
 73
     0
 90
        0
 40
-0.6
 41
-30.0
 62
     5
 63
     7
421
 16777215
 74
     1
 91
        4
 64
     7
 65
   257
 75
     7
175
     7
 42
1.0
 92
        8
 66
     7
 43
1.0
 76
     1
 77
     6
 78
     2
 67
     7
 79
     5
170
     0
171
     0
290
     0
174
     0
 93
        1
 44
0.0
173
     0
291
     1
 45
0.0
1001
ACAD
1000
AcDbSavedByObjectVersion
1070
     0
  0
VISUALSTYLE
  5
33
102
{ACAD_REACTORS
330
2A
102
}
330
2A
100
AcDbVisualStyle
  2
Realistic
 70
     8
 71
     2
 72
     2
 73
     0
 90
        0
 40
-0.6
 41
-30.0
 62
     5
 63
     7
421
 16777215
 74
     1
 91
        0
 64
     7
 65
   257
 75
     1
175
     1
 42
1.0
 92
        8
 66
     8
424
  7895160
 43
1.0
 76
     1
 77
     6
 78
     2
 67
     7
 79
     5
170
     0
171
     0
290
     0
174
     0
 93
       13
 44
0.0
173
     0
291
     0
 45
0.0
1001
ACAD
1000
AcDbSavedByObjectVersion
1070
     0
  0
VISUALSTYLE
  5
37
102
{ACAD_REACTORS
330
2A
102
}
330
2A
100
AcDbVisualStyle
  2
Thicken
 70
    13
 71
     2
 72
     2
 73
     0
 90
        0
 40
-0.6
 41
-30.0
 62
     5
 63
     7
421
 16777215
 74
     1
 91
        4
 64
     7
 65
   257
 75
     1
175
     1
 42
1.0
 92
       12
 66
     7
 43
1.0
 76
     1
 77
     6
 78
     2
 67
     7
 79
     5
170
     0
171
     0
290
     0
174
     0
 93
        1
 44
0.0
173
     0
291
     1
 45
0.0
1001
ACAD
1000
AcDbSavedByObjectVersion
1070
     0
  0
ENDSEC
  0
EOF
