  0
SECTION
  2
HEADER
  9
$ACADVER
  1
AC1018
  9
$ACADMAINTVER
 70
     0
  9
$DWGCODEPAGE
  3
ANSI_1252
  9
$INSBASE
 10
0.0
 20
0.0
 30
0.0
  9
$EXTMIN
 10
-37.74943007999249
 20
-0.0000000002171134
 30
0.0
  9
$EXTMAX
 10
78.20028928075433
 20
65.13795852298665
 30
0.0
  9
$LIMMIN
 10
0.0
 20
0.0
  9
$LIMMAX
 10
12.0
 20
9.0
  9
$ORTHOMODE
 70
     0
  9
$REGENMODE
 70
     1
  9
$FILLMODE
 70
     1
  9
$QTEXTMODE
 70
     0
  9
$MIRRTEXT
 70
     1
  9
$LTSCALE
 40
0.0393700787401575
  9
$ATTMODE
 70
     1
  9
$TEXTSIZE
 40
0.2
  9
$TRACEWID
 40
0.05
  9
$TEXTSTYLE
  7
Standard
  9
$CLAYER
  8
Default
  9
$CELTYPE
  6
ByLayer
  9
$CECOLOR
 62
   256
  9
$CELTSCALE
 40
1.0
  9
$DISPSILH
 70
     0
  9
$DIMSCALE
 40
1.0
  9
$DIMASZ
 40
0.18
  9
$DIMEXO
 40
0.0625
  9
$DIMDLI
 40
0.38
  9
$DIMRND
 40
0.0
  9
$DIMDLE
 40
0.0
  9
$DIMEXE
 40
0.18
  9
$DIMTP
 40
0.0
  9
$DIMTM
 40
0.0
  9
$DIMTXT
 40
0.18
  9
$DIMCEN
 40
0.09
  9
$DIMTSZ
 40
0.0
  9
$DIMTOL
 70
     0
  9
$DIMLIM
 70
     0
  9
$DIMTIH
 70
     1
  9
$DIMTOH
 70
     1
  9
$DIMSE1
 70
     0
  9
$DIMSE2
 70
     0
  9
$DIMTAD
 70
     0
  9
$DIMZIN
 70
     0
  9
$DIMBLK
  1

  9
$DIMASO
 70
     1
  9
$DIMSHO
 70
     1
  9
$DIMPOST
  1

  9
$DIMAPOST
  1

  9
$DIMALT
 70
     0
  9
$DIMALTD
 70
     2
  9
$DIMALTF
 40
25.4
  9
$DIMLFAC
 40
1.0
  9
$DIMTOFL
 70
     0
  9
$DIMTVP
 40
0.0
  9
$DIMTIX
 70
     0
  9
$DIMSOXD
 70
     0
  9
$DIMSAH
 70
     0
  9
$DIMBLK1
  1

  9
$DIMBLK2
  1

  9
$DIMSTYLE
  2
Standard
  9
$DIMCLRD
 70
     0
  9
$DIMCLRE
 70
     0
  9
$DIMCLRT
 70
     0
  9
$DIMTFAC
 40
1.0
  9
$DIMGAP
 40
0.09
  9
$DIMJUST
 70
     0
  9
$DIMSD1
 70
     0
  9
$DIMSD2
 70
     0
  9
$DIMTOLJ
 70
     1
  9
$DIMTZIN
 70
     0
  9
$DIMALTZ
 70
     0
  9
$DIMALTTZ
 70
     0
  9
$DIMUPT
 70
     0
  9
$DIMDEC
 70
     4
  9
$DIMTDEC
 70
     4
  9
$DIMALTU
 70
     2
  9
$DIMALTTD
 70
     2
  9
$DIMTXSTY
  7
Standard
  9
$DIMAUNIT
 70
     0
  9
$DIMADEC
 70
     0
  9
$DIMALTRND
 40
0.0
  9
$DIMAZIN
 70
     0
  9
$DIMDSEP
 70
    46
  9
$DIMATFIT
 70
     3
  9
$DIMFRAC
 70
     0
  9
$DIMLDRBLK
  1

  9
$DIMLUNIT
 70
     2
  9
$DIMLWD
 70
    -2
  9
$DIMLWE
 70
    -2
  9
$DIMTMOVE
 70
     2
  9
$LUNITS
 70
     2
  9
$LUPREC
 70
     3
  9
$SKETCHINC
 40
0.1
  9
$FILLETRAD
 40
0.5
  9
$AUNITS
 70
     0
  9
$AUPREC
 70
     0
  9
$MENU
  1
.
  9
$ELEVATION
 40
0.0
  9
$PELEVATION
 40
0.0
  9
$THICKNESS
 40
0.0
  9
$LIMCHECK
 70
     0
  9
$CHAMFERA
 40
0.5
  9
$CHAMFERB
 40
0.5
  9
$CHAMFERC
 40
1.0
  9
$CHAMFERD
 40
0.0
  9
$SKPOLY
 70
     0
  9
$TDCREATE
 40
2458148.939141377
  9
$TDUCREATE
 40
2458149.147474711
  9
$TDUPDATE
 40
2458148.939141389
  9
$TDUUPDATE
 40
2458149.147474722
  9
$TDINDWG
 40
0.0000000116
  9
$TDUSRTIMER
 40
0.0000000116
  9
$USRTIMER
 70
     1
  9
$ANGBASE
 50
0.0
  9
$ANGDIR
 70
     0
  9
$PDMODE
 70
     0
  9
$PDSIZE
 40
0.0
  9
$PLINEWID
 40
0.0
  9
$SPLFRAME
 70
     0
  9
$SPLINETYPE
 70
     6
  9
$SPLINESEGS
 70
     8
  9
$HANDSEED
  5
F1
  9
$SURFTAB1
 70
     6
  9
$SURFTAB2
 70
     6
  9
$SURFTYPE
 70
     6
  9
$SURFU
 70
     6
  9
$SURFV
 70
     6
  9
$UCSBASE
  2

  9
$UCSNAME
  2

  9
$UCSORG
 10
0.0
 20
0.0
 30
0.0
  9
$UCSXDIR
 10
1.0
 20
0.0
 30
0.0
  9
$UCSYDIR
 10
0.0
 20
1.0
 30
0.0
  9
$UCSORTHOREF
  2

  9
$UCSORTHOVIEW
 70
     0
  9
$UCSORGTOP
 10
0.0
 20
0.0
 30
0.0
  9
$UCSORGBOTTOM
 10
0.0
 20
0.0
 30
0.0
  9
$UCSORGLEFT
 10
0.0
 20
0.0
 30
0.0
  9
$UCSORGRIGHT
 10
0.0
 20
0.0
 30
0.0
  9
$UCSORGFRONT
 10
0.0
 20
0.0
 30
0.0
  9
$UCSORGBACK
 10
0.0
 20
0.0
 30
0.0
  9
$PUCSBASE
  2

  9
$PUCSNAME
  2

  9
$PUCSORG
 10
0.0
 20
0.0
 30
0.0
  9
$PUCSXDIR
 10
1.0
 20
0.0
 30
0.0
  9
$PUCSYDIR
 10
0.0
 20
1.0
 30
0.0
  9
$PUCSORTHOREF
  2

  9
$PUCSORTHOVIEW
 70
     0
  9
$PUCSORGTOP
 10
0.0
 20
0.0
 30
0.0
  9
$PUCSORGBOTTOM
 10
0.0
 20
0.0
 30
0.0
  9
$PUCSORGLEFT
 10
0.0
 20
0.0
 30
0.0
  9
$PUCSORGRIGHT
 10
0.0
 20
0.0
 30
0.0
  9
$PUCSORGFRONT
 10
0.0
 20
0.0
 30
0.0
  9
$PUCSORGBACK
 10
0.0
 20
0.0
 30
0.0
  9
$USERI1
 70
     0
  9
$USERI2
 70
     0
  9
$USERI3
 70
     0
  9
$USERI4
 70
     0
  9
$USERI5
 70
     0
  9
$USERR1
 40
0.0
  9
$USERR2
 40
0.0
  9
$USERR3
 40
0.0
  9
$USERR4
 40
0.0
  9
$USERR5
 40
0.0
  9
$WORLDVIEW
 70
     1
  9
$SHADEDGE
 70
     3
  9
$SHADEDIF
 70
    70
  9
$TILEMODE
 70
     1
  9
$MAXACTVP
 70
    64
  9
$PINSBASE
 10
0.0
 20
0.0
 30
0.0
  9
$PLIMCHECK
 70
     0
  9
$PEXTMIN
 10
1.000000000000000E+20
 20
1.000000000000000E+20
 30
1.000000000000000E+20
  9
$PEXTMAX
 10
-1.000000000000000E+20
 20
-1.000000000000000E+20
 30
-1.000000000000000E+20
  9
$PLIMMIN
 10
0.0
 20
0.0
  9
$PLIMMAX
 10
12.0
 20
9.0
  9
$UNITMODE
 70
     0
  9
$VISRETAIN
 70
     1
  9
$PLINEGEN
 70
     0
  9
$PSLTSCALE
 70
     1
  9
$TREEDEPTH
 70
  3020
  9
$CMLSTYLE
  2
Standard
  9
$CMLJUST
 70
     0
  9
$CMLSCALE
 40
1.0
  9
$PROXYGRAPHICS
 70
     1
  9
$MEASUREMENT
 70
     0
  9
$CELWEIGHT
370
    -1
  9
$ENDCAPS
280
     0
  9
$JOINSTYLE
280
     0
  9
$LWDISPLAY
290
     0
  9
$INSUNITS
 70
     1
  9
$HYPERLINKBASE
  1

  9
$STYLESHEET
  1

  9
$XEDIT
290
     1
  9
$CEPSNTYPE
380
     0
  9
$PSTYLEMODE
290
     1
  9
$FINGERPRINTGUID
  2
{E4F4D1BB-0BED-4D65-916D-8044B6005A8A}
  9
$VERSIONGUID
  2
{FAEB1C32-E019-11D5-929B-00C0DF256EC4}
  9
$EXTNAMES
290
     1
  9
$PSVPSCALE
 40
0.0
  9
$OLESTARTUP
290
     0
  9
$SORTENTS
280
   127
  9
$INDEXCTL
280
     0
  9
$HIDETEXT
280
     1
  9
$XCLIPFRAME
290
     0
  9
$HALOGAP
280
     0
  9
$OBSCOLOR
 70
   257
  9
$OBSLTYPE
280
     0
  9
$INTERSECTIONDISPLAY
280
     0
  9
$INTERSECTIONCOLOR
 70
   257
  9
$DIMASSOC
280
     2
  9
$PROJECTNAME
  1

  0
ENDSEC
  0
SECTION
  2
CLASSES
  0
CLASS
  1
ACDBDICTIONARYWDFLT
  2
AcDbDictionaryWithDefault
  3
ObjectDBX Classes
 90
        0
 91
        4
280
     0
281
     0
  0
CLASS
  1
VISUALSTYLE
  2
AcDbVisualStyle
  3
ObjectDBX Classes
 90
     4095
 91
        4
280
     0
281
     0
  0
ENDSEC
  0
SECTION
  2
TABLES
  0
TABLE
  2
VPORT
  5
8
330
0
100
AcDbSymbolTable
 70
     1
  0
VPORT
  5
29
330
8
100
AcDbSymbolTableRecord
100
AcDbViewportTableRecord
  2
*Active
 70
     0
 10
0.0
 20
0.0
 11
1.0
 21
1.0
 12
20.22542960038092
 22
32.56897926138477
 13
0.0
 23
0.0
 14
0.5
 24
0.5
 15
0.5
 25
0.5
 16
0.0
 26
0.0
 36
1.0
 17
0.0
 27
0.0
 37
0.0
 40
66.44071769366784
 41
1.78006375989574
 42
50.0
 43
0.0
 44
0.0
 50
0.0
 51
0.0
 71
     0
 72
   100
 73
     1
 74
     3
 75
     0
 76
     0
 77
     0
 78
     0
281
     0
 65
     1
110
0.0
120
0.0
130
0.0
111
1.0
121
0.0
131
0.0
112
0.0
122
1.0
132
0.0
 79
     0
146
0.0
  0
ENDTAB
  0
TABLE
  2
LTYPE
  5
5
330
0
100
AcDbSymbolTable
 70
     1
  0
LTYPE
  5
14
330
5
100
AcDbSymbolTableRecord
100
AcDbLinetypeTableRecord
  2
ByBlock
 70
     0
  3

 72
    65
 73
     0
 40
0.0
  0
LTYPE
  5
15
330
5
100
AcDbSymbolTableRecord
100
AcDbLinetypeTableRecord
  2
ByLayer
 70
     0
  3

 72
    65
 73
     0
 40
0.0
  0
LTYPE
  5
16
330
5
100
AcDbSymbolTableRecord
100
AcDbLinetypeTableRecord
  2
Continuous
 70
     0
  3
Solid line
 72
    65
 73
     0
 40
0.0
  0
ENDTAB
  0
TABLE
  2
LAYER
  5
2
330
0
100
AcDbSymbolTable
 70
     2
  0
LAYER
  5
10
330
2
100
AcDbSymbolTableRecord
100
AcDbLayerTableRecord
  2
0
 70
     0
 62
     7
  6
Continuous
370
    -3
390
F
  0
LAYER
  5
3B
330
2
100
AcDbSymbolTableRecord
100
AcDbLayerTableRecord
  2
Default
 70
     0
 62
     7
  6
Continuous
370
    -3
390
F
  0
ENDTAB
  0
TABLE
  2
STYLE
  5
3
330
0
100
AcDbSymbolTable
 70
     1
  0
STYLE
  5
11
330
3
100
AcDbSymbolTableRecord
100
AcDbTextStyleTableRecord
  2
Standard
 70
     0
 40
0.0
 41
1.0
 50
0.0
 71
     0
 42
0.2
  3
txt
  4

  0
ENDTAB
  0
TABLE
  2
VIEW
  5
6
330
0
100
AcDbSymbolTable
 70
     0
  0
ENDTAB
  0
TABLE
  2
UCS
  5
7
330
0
100
AcDbSymbolTable
 70
     0
  0
ENDTAB
  0
TABLE
  2
APPID
  5
9
330
0
100
AcDbSymbolTable
 70
     1
  0
APPID
  5
12
330
9
100
AcDbSymbolTableRecord
100
AcDbRegAppTableRecord
  2
ACAD
 70
     0
  0
ENDTAB
  0
TABLE
  2
DIMSTYLE
  5
A
330
0
100
AcDbSymbolTable
 70
     1
100
AcDbDimStyleTable
  0
DIMSTYLE
105
27
330
A
100
AcDbSymbolTableRecord
100
AcDbDimStyleTableRecord
  2
Standard
 70
     0
340
11
  0
ENDTAB
  0
TABLE
  2
BLOCK_RECORD
  5
1
330
0
100
AcDbSymbolTable
 70
     1
  0
BLOCK_RECORD
  5
1F
330
1
100
AcDbSymbolTableRecord
100
AcDbBlockTableRecord
  2
*Model_Space
340
22
  0
BLOCK_RECORD
  5
1B
330
1
100
AcDbSymbolTableRecord
100
AcDbBlockTableRecord
  2
*Paper_Space
340
1E
  0
BLOCK_RECORD
  5
23
330
1
100
AcDbSymbolTableRecord
100
AcDbBlockTableRecord
  2
*Paper_Space0
340
26
  0
ENDTAB
  0
ENDSEC
  0
SECTION
  2
BLOCKS
  0
BLOCK
  5
20
330
1F
100
AcDbEntity
  8
0
100
AcDbBlockBegin
  2
*Model_Space
 70
     0
 10
0.0
 20
0.0
 30
0.0
  3
*Model_Space
  1

  0
ENDBLK
  5
21
330
1F
100
AcDbEntity
  8
0
100
AcDbBlockEnd
  0
BLOCK
  5
1C
330
1B
100
AcDbEntity
 67
     1
  8
0
100
AcDbBlockBegin
  2
*Paper_Space
 70
     0
 10
0.0
 20
0.0
 30
0.0
  3
*Paper_Space
  1

  0
ENDBLK
  5
1D
330
1B
100
AcDbEntity
 67
     1
  8
0
100
AcDbBlockEnd
  0
BLOCK
  5
24
330
23
100
AcDbEntity
  8
0
100
AcDbBlockBegin
  2
*Paper_Space0
 70
     0
 10
0.0
 20
0.0
 30
0.0
  3
*Paper_Space0
  1

  0
ENDBLK
  5
25
330
23
100
AcDbEntity
  8
0
100
AcDbBlockEnd
  0
ENDSEC
  0
SECTION
  2
ENTITIES
  0
POLYLINE
  5
3C
330
1F
100
AcDbEntity
  8
Default
100
AcDb2dPolyline
 66
     1
 10
0.0
 20
0.0
 30
0.0
  0
VERTEX
  5
3D
330
3C
100
AcDbEntity
  8
Default
100
AcDbVertex
100
AcDb2dVertex
 10
-27.4133327020194
 20
-0.0000000002171134
 30
0.0
  0
VERTEX
  5
3E
330
3C
100
AcDbEntity
  8
Default
100
AcDbVertex
100
AcDb2dVertex
 10
-27.89751022942679
 20
0.0000000002171703
 30
0.0
  0
SEQEND
  5
3F
330
3C
100
AcDbEntity
  8
Default
  0
SPLINE
  5
40
330
1F
100
AcDbEntity
  8
Default
100
AcDbSpline
210
0.0
220
0.0
230
1.0
 70
    12
 71
     2
 72
     6
 73
     3
 74
     0
 42
0.0000000001
 43
0.0000000001
 40
0.0
 40
0.0
 40
0.0
 40
0.241924443334512
 40
0.241924443334512
 40
0.241924443334512
 10
-27.89751022942679
 20
0.0000000002171703
 30
0.0
 41
1.0
 10
-28.05042124359412
 20
0.0000000303540884
 30
0.0
 41
0.7141418074729331
 10
-28.05339256776452
 20
0.1529065059711456
 30
0.0
 41
1.0
  0
LINE
  5
41
330
1F
100
AcDbEntity
  8
Default
100
AcDbLine
 10
-28.05339256776452
 20
0.1529065059711456
 30
0.0
 11
-28.0580911648552
 21
0.3750000023996165
 31
0.0
  0
LINE
  5
42
330
1F
100
AcDbEntity
  8
Default
100
AcDbLine
 10
-28.0580911648552
 20
0.3750000023996165
 30
0.0
 11
-27.2532820488801
 21
0.3750000023996165
 31
0.0
  0
LINE
  5
43
330
1F
100
AcDbEntity
  8
Default
100
AcDbLine
 10
-27.2532820488801
 20
0.3750000023996165
 30
0.0
 11
-27.25771550742277
 21
0.1529065037773307
 31
0.0
  0
SPLINE
  5
44
330
1F
100
AcDbEntity
  8
Default
100
AcDbSpline
210
0.0
220
0.0
230
1.0
 70
    12
 71
     2
 72
     6
 73
     3
 74
     0
 42
0.0000000001
 43
0.0000000001
 40
0.0
 40
0.0
 40
0.0
 40
0.2419244355107725
 40
0.2419244355107725
 40
0.2419244355107725
 10
-27.25771550742277
 20
0.1529065037773307
 30
0.0
 41
1.0
 10
-27.2604216940218
 20
0.0000000321588069
 30
0.0
 41
0.7141418153608741
 10
-27.4133327020194
 20
-0.0000000002171134
 30
0.0
 41
1.0
  0
POLYLINE
  5
45
330
1F
100
AcDbEntity
  8
Default
100
AcDb2dPolyline
 66
     1
 10
0.0
 20
0.0
 30
0.0
  0
VERTEX
  5
46
330
45
100
AcDbEntity
  8
Default
100
AcDbVertex
100
AcDb2dVertex
 10
-30.76542114289751
 20
12.62500000235795
 30
0.0
  0
VERTEX
  5
47
330
45
100
AcDbEntity
  8
Default
100
AcDbVertex
100
AcDb2dVertex
 10
-24.54542146349584
 20
12.62500000235795
 30
0.0
  0
SEQEND
  5
48
330
45
100
AcDbEntity
  8
Default
  0
SPLINE
  5
49
330
1F
100
AcDbEntity
  8
Default
100
AcDbSpline
210
0.0
220
0.0
230
1.0
 70
    12
 71
     5
 72
    13
 73
     7
 74
     0
 42
0.0000000001
 43
0.0000000001
 40
-0.9999999998854913
 40
-0.9999999998854913
 40
-0.9999999998854913
 40
-0.9999999998854913
 40
-0.9999999998854913
 40
-0.9999999998854913
 40
-0.4999999999118557
 40
0.0000214316302039
 40
0.0000214316302039
 40
0.0000214316302039
 40
0.0000214316302039
 40
0.0000214316302039
 40
0.0000214316302039
 10
-24.54542146349584
 20
12.62500000235795
 30
0.0
 41
1.0
 10
-24.54542210953568
 20
12.56009560996313
 30
0.0
 41
1.0
 10
-24.56472116103996
 20
12.44654867131678
 30
0.0
 41
1.0
 10
-24.62261733370397
 20
12.3655361986593
 30
0.0
 41
1.0
 10
-24.710786401126
 20
12.31002542084664
 30
0.0
 41
1.0
 10
-24.82547039022765
 20
12.27687454006866
 30
0.0
 41
1.0
 10
-24.88944202732714
 20
12.26588517969745
 30
0.0
 41
1.0
  0
SPLINE
  5
4A
330
1F
100
AcDbEntity
  8
Default
100
AcDbSpline
210
0.0
220
0.0
230
1.0
 70
    12
 71
     2
 72
     6
 73
     3
 74
     0
 42
0.0000000001
 43
0.0000000001
 40
0.0
 40
0.0
 40
0.0
 40
1.843263450064862
 40
1.843263450064862
 40
1.843263450064862
 10
-24.88944202732714
 20
12.26588517969745
 30
0.0
 41
1.0
 10
-25.79776138742373
 20
12.10980514713988
 30
0.0
 41
0.9999999999936852
 10
-26.70608179074176
 20
11.9537310177214
 30
0.0
 41
1.0
  0
SPLINE
  5
4B
330
1F
100
AcDbEntity
  8
Default
100
AcDbSpline
210
0.0
220
0.0
230
1.0
 70
    12
 71
     2
 72
     6
 73
     3
 74
     0
 42
0.0000000001
 43
0.0000000001
 40
0.0
 40
0.0
 40
0.0
 40
0.6997662170032295
 40
0.6997662170032295
 40
0.6997662170032295
 10
-26.70608179074176
 20
11.9537310177214
 30
0.0
 41
1.0
 10
-27.12094882346993
 20
11.88244667937159
 30
0.0
 41
0.7649870492777086
 10
-27.12140540273683
 20
11.46120110138611
 30
0.0
 41
1.0
  0
SPLINE
  5
4C
330
1F
100
AcDbEntity
  8
Default
100
AcDbSpline
210
0.0
220
0.0
230
1.0
 70
    12
 71
     3
 72
    13
 73
     9
 74
     0
 42
0.0000000001
 43
0.0000000001
 40
1.164116092654201
 40
1.164116092654201
 40
1.164116092654201
 40
1.164116092654201
 40
1.192754371812117
 40
1.192754371812117
 40
1.839154429652598
 40
2.485554487552516
 40
2.485554487552516
 40
2.941799361814759
 40
2.941799361814759
 40
2.941799361814759
 40
2.941799361814759
 10
-27.12140540273683
 20
11.46120110138611
 30
0.0
 41
1.0
 10
-27.12140455748565
 20
11.45135583614481
 30
0.0
 41
1.0
 10
-27.12140511635917
 20
11.44180974146306
 30
0.0
 41
1.0
 10
-27.12145466090513
 20
11.2167969686364
 30
0.0
 41
1.0
 10
-27.12353832135952
 20
10.78587479042528
 30
0.0
 41
1.0
 10
-27.13072606284814
 20
10.35502399011492
 30
0.0
 41
1.0
 10
-27.13652426304279
 20
9.987521416801457
 30
0.0
 41
1.0
 10
-27.13872506830452
 20
9.83544406875302
 30
0.0
 41
1.0
 10
-27.14049176836537
 20
9.682909845823701
 30
0.0
 41
1.0
  0
SPLINE
  5
4D
330
1F
100
AcDbEntity
  8
Default
100
AcDbSpline
210
0.0
220
0.0
230
1.0
 70
    12
 71
     2
 72
     6
 73
     3
 74
     0
 42
0.0000000001
 43
0.0000000001
 40
0.0
 40
0.0
 40
0.0
 40
0.0011199978112541
 40
0.0011199978112541
 40
0.0011199978112541
 10
-27.14049176836537
 20
9.682909845823701
 30
0.0
 41
1.0
 10
-27.14050947646612
 20
9.68189344886065
 30
0.0
 41
0.9999999565253123
 10
-27.14050947572119
 20
9.681333409514025
 30
0.0
 41
1.0
  0
SPLINE
  5
4E
330
1F
100
AcDbEntity
  8
Default
100
AcDbSpline
210
0.0
220
0.0
230
1.0
 70
    12
 71
     2
 72
     6
 73
     3
 74
     0
 42
0.0000000001
 43
0.0000000001
 40
0.0
 40
0.0
 40
0.0
 40
1.157563000328597
 40
1.157563000328597
 40
1.157563000328597
 10
-27.14050947572119
 20
9.681333409514025
 30
0.0
 41
1.0
 10
-27.14608519402034
 20
9.102576156243051
 30
0.0
 41
0.9999932729902123
 10
-27.14742122914558
 20
8.523792488378888
 30
0.0
 41
1.0
  0
SPLINE
  5
4F
330
1F
100
AcDbEntity
  8
Default
100
AcDbSpline
210
0.0
220
0.0
230
1.0
 70
    12
 71
     3
 72
    12
 73
     8
 74
     0
 42
0.0000000001
 43
0.0000000001
 40
0.0000022290245399
 40
0.0000022290245399
 40
0.0000022290245399
 40
0.0000022290245399
 40
2.973330383277389
 40
2.973330383277389
 40
5.533332299297856
 40
5.533332299297856
 40
8.0907540207247
 40
8.0907540207247
 40
8.0907540207247
 40
8.0907540207247
 10
-27.14742122914558
 20
8.523792488378888
 30
0.0
 41
1.0
 10
-27.15116443902141
 20
7.533012356544702
 30
0.0
 41
1.0
 10
-27.16130101624029
 20
6.542166505228664
 30
0.0
 41
1.0
 10
-27.18624505313662
 20
4.698546802840923
 30
0.0
 41
1.0
 10
-27.20010432920552
 20
3.846004306662138
 30
0.0
 41
1.0
 10
-27.22745479056462
 20
2.140986238235911
 30
0.0
 41
1.0
 10
-27.24086370393465
 20
1.289616091246216
 30
0.0
 41
1.0
 10
-27.25210128332813
 20
0.4374291487058031
 30
0.0
 41
1.0
  0
SPLINE
  5
50
330
1F
100
AcDbEntity
  8
Default
100
AcDbSpline
210
0.0
220
0.0
230
1.0
 70
    12
 71
     2
 72
     6
 73
     3
 74
     0
 42
0.0000000001
 43
0.0000000001
 40
0.0
 40
0.0
 40
0.0
 40
0.0970316672143772
 40
0.0970316672143772
 40
0.0970316672143772
 10
-27.25210128332813
 20
0.4374291487058031
 30
0.0
 41
1.0
 10
-27.25267988006291
 20
0.3763075181236976
 30
0.0
 41
0.717857630247824
 10
-27.31376590741021
 20
0.3750140462356626
 30
0.0
 41
1.0
  0
POLYLINE
  5
51
330
1F
100
AcDbEntity
  8
Default
100
AcDb2dPolyline
 66
     1
 10
0.0
 20
0.0
 30
0.0
  0
VERTEX
  5
52
330
51
100
AcDbEntity
  8
Default
100
AcDbVertex
100
AcDb2dVertex
 10
-27.31376590741021
 20
0.3750140462356626
 30
0.0
  0
VERTEX
  5
53
330
51
100
AcDbEntity
  8
Default
100
AcDbVertex
100
AcDb2dVertex
 10
-27.99574593598263
 20
0.3750000024411975
 30
0.0
  0
SEQEND
  5
54
330
51
100
AcDbEntity
  8
Default
  0
SPLINE
  5
55
330
1F
100
AcDbEntity
  8
Default
100
AcDbSpline
210
0.0
220
0.0
230
1.0
 70
    12
 71
     2
 72
     6
 73
     3
 74
     0
 42
0.0000000001
 43
0.0000000001
 40
0.0
 40
0.0
 40
0.0
 40
0.0983105351425802
 40
0.0983105351425802
 40
0.0983105351425802
 10
-27.99574593598263
 20
0.3750000024411975
 30
0.0
 41
1.0
 10
-28.0581017724088
 20
0.374998070860006
 30
0.0
 41
0.7107094273922171
 10
-28.05874068601995
 20
0.4373708929651912
 30
0.0
 41
1.0
  0
SPLINE
  5
56
330
1F
100
AcDbEntity
  8
Default
100
AcDbSpline
210
0.0
220
0.0
230
1.0
 70
    12
 71
     3
 72
    12
 73
     8
 74
     0
 42
0.0000000001
 43
0.0000000001
 40
0.0025122088885125
 40
0.0025122088885125
 40
0.0025122088885125
 40
0.0025122088885125
 40
2.559996601448771
 40
2.559996601448771
 40
5.119998517672128
 40
5.119998517672128
 40
8.093326489272172
 40
8.093326489272172
 40
8.093326489272172
 40
8.093326489272172
 10
-28.05874068601995
 20
0.4373708929651912
 30
0.0
 41
1.0
 10
-28.06997856587154
 20
1.289574364790269
 30
0.0
 41
1.0
 10
-28.08338780147764
 20
2.140965357733307
 30
0.0
 41
1.0
 10
-28.11073859778858
 20
3.8460043069324
 30
0.0
 41
1.0
 10
-28.12459787385845
 20
4.6985468031788
 30
0.0
 41
1.0
 10
-28.14954190993066
 20
6.542166444777081
 30
0.0
 41
1.0
 10
-28.15967848672622
 20
7.53301223521413
 30
0.0
 41
1.0
 10
-28.16342169750001
 20
8.523792397285746
 30
0.0
 41
1.0
  0
SPLINE
  5
57
330
1F
100
AcDbEntity
  8
Default
100
AcDbSpline
210
0.0
220
0.0
230
1.0
 70
    12
 71
     2
 72
     6
 73
     3
 74
     0
 42
0.0000000001
 43
0.0000000001
 40
0.0
 40
0.0
 40
0.0
 40
1.157566753814006
 40
1.157566753814006
 40
1.157566753814006
 10
-28.16342169750001
 20
8.523792397285746
 30
0.0
 41
1.0
 10
-28.16476956095558
 20
9.102577944119421
 30
0.0
 41
0.9999934222404667
 10
-28.17032162399337
 20
9.681337225291125
 30
0.0
 41
0.9999999999999121
  0
SPLINE
  5
58
330
1F
100
AcDbEntity
  8
Default
100
AcDbSpline
210
0.0
220
0.0
230
1.0
 70
    12
 71
     2
 72
     6
 73
     3
 74
     0
 42
0.0000000001
 43
0.0000000001
 40
0.0
 40
0.0
 40
0.0
 40
0.0011163185374098
 40
0.0011163185374098
 40
0.0011163185374098
 10
-28.17032162399343
 20
9.681337225291117
 30
0.0
 41
1.0
 10
-28.17033346966353
 20
9.681895288399144
 30
0.0
 41
0.9999999568108967
 10
-28.17033911773709
 20
9.682909979841583
 30
0.0
 41
1.0
  0
SPLINE
  5
59
330
1F
100
AcDbEntity
  8
Default
100
AcDbSpline
210
0.0
220
0.0
230
1.0
 70
    12
 71
     3
 72
    13
 73
     9
 74
     0
 42
0.0000000001
 43
0.0000000001
 40
1.159780968969077
 40
1.159780968969077
 40
1.159780968969077
 40
1.159780968969077
 40
1.219999999483621
 40
1.219999999483621
 40
1.859999999216523
 40
1.859999999216523
 40
2.49999999917158
 40
2.937447200127758
 40
2.937447200127758
 40
2.937447200127758
 40
2.937447200127758
 10
-28.17033911773709
 20
9.682909979841583
 30
0.0
 41
1.0
 10
-28.17056718308837
 20
9.703438966347733
 30
0.0
 41
1.0
 10
-28.17080366028293
 20
9.723511031694557
 30
0.0
 41
1.0
 10
-28.1736508690544
 20
9.95689999374116
 30
0.0
 41
1.0
 10
-28.17726588861743
 20
10.17023320478074
 30
0.0
 41
1.0
 10
-28.18389816217788
 20
10.59684831315658
 30
0.0
 41
1.0
 10
-28.18858289572566
 20
10.95596334870555
 30
0.0
 41
1.0
 10
-28.18943307510867
 20
11.31509077060545
 30
0.0
 41
1.0
 10
-28.18943243966274
 20
11.46118232485981
 30
0.0
 41
1.0
  0
SPLINE
  5
5A
330
1F
100
AcDbEntity
  8
Default
100
AcDbSpline
210
0.0
220
0.0
230
1.0
 70
    12
 71
     2
 72
     6
 73
     3
 74
     0
 42
0.0000000001
 43
0.0000000001
 40
0.0
 40
0.0
 40
0.0
 40
0.6998000892342029
 40
0.6998000892342029
 40
0.6998000892342029
 10
-28.18943243966274
 20
11.46118232485981
 30
0.0
 41
1.0
 10
-28.18987153995932
 20
11.88243362283056
 30
0.0
 41
0.764976675619346
 10
-28.60476113124403
 20
11.9537310466041
 30
0.0
 41
1.0
  0
SPLINE
  5
5B
330
1F
100
AcDbEntity
  8
Default
100
AcDbSpline
210
0.0
220
0.0
230
1.0
 70
    12
 71
     2
 72
     6
 73
     3
 74
     0
 42
0.0000000001
 43
0.0000000001
 40
0.0
 40
0.0
 40
0.0
 40
1.843263134159366
 40
1.843263134159366
 40
1.843263134159366
 10
-28.60476113124403
 20
11.9537310466041
 30
0.0
 41
1.0
 10
-29.51308138383018
 20
12.10980512042263
 30
0.0
 41
0.999999999993685
 10
-30.4214005836599
 20
12.26588515296334
 30
0.0
 41
1.0
  0
SPLINE
  5
5C
330
1F
100
AcDbEntity
  8
Default
100
AcDbSpline
210
0.0
220
0.0
230
1.0
 70
    12
 71
     5
 72
    13
 73
     7
 74
     0
 42
0.0000000001
 43
0.0000000001
 40
-0.0000214316302125
 40
-0.0000214316302125
 40
-0.0000214316302125
 40
-0.0000214316302125
 40
-0.0000214316302125
 40
-0.0000214316302125
 40
0.4999999999109885
 40
0.9999999998854894
 40
0.9999999998854894
 40
0.9999999998854894
 40
0.9999999998854894
 40
0.9999999998854894
 40
0.9999999998854894
 10
-30.4214005836599
 20
12.26588515296334
 30
0.0
 41
1.0
 10
-30.48537221616655
 20
12.27687454006889
 30
0.0
 41
1.0
 10
-30.6000562052678
 20
12.31002542084693
 30
0.0
 41
1.0
 10
-30.68822527268966
 20
12.36553619865956
 30
0.0
 41
1.0
 10
-30.74612144535345
 20
12.44654867131698
 30
0.0
 41
1.0
 10
-30.76542049685773
 20
12.56009560996313
 30
0.0
 41
1.0
 10
-30.76542114289751
 20
12.62500000235795
 30
0.0
 41
1.0
  0
POLYLINE
  5
5D
330
1F
100
AcDbEntity
  8
Default
100
AcDb2dPolyline
 66
     1
 10
0.0
 20
0.0
 30
0.0
  0
VERTEX
  5
5E
330
5D
100
AcDbEntity
  8
Default
100
AcDbVertex
100
AcDb2dVertex
 10
30.76542114289751
 20
12.62500000235795
 30
0.0
  0
VERTEX
  5
5F
330
5D
100
AcDbEntity
  8
Default
100
AcDbVertex
100
AcDb2dVertex
 10
24.54542146349584
 20
12.62500000235795
 30
0.0
  0
SEQEND
  5
60
330
5D
100
AcDbEntity
  8
Default
  0
SPLINE
  5
61
330
1F
100
AcDbEntity
  8
Default
100
AcDbSpline
210
0.0
220
0.0
230
1.0
 70
    12
 71
     5
 72
    13
 73
     7
 74
     0
 42
0.0000000001
 43
0.0000000001
 40
-0.9999999998854913
 40
-0.9999999998854913
 40
-0.9999999998854913
 40
-0.9999999998854913
 40
-0.9999999998854913
 40
-0.9999999998854913
 40
-0.4999999999118557
 40
0.0000214316302039
 40
0.0000214316302039
 40
0.0000214316302039
 40
0.0000214316302039
 40
0.0000214316302039
 40
0.0000214316302039
 10
24.54542146349584
 20
12.62500000235795
 30
0.0
 41
1.0
 10
24.54542210953574
 20
12.56009560996313
 30
0.0
 41
1.0
 10
24.5647211610399
 20
12.44654867131678
 30
0.0
 41
1.0
 10
24.62261733370397
 20
12.3655361986593
 30
0.0
 41
1.0
 10
24.71078640112606
 20
12.31002542084664
 30
0.0
 41
1.0
 10
24.82547039022759
 20
12.27687454006866
 30
0.0
 41
1.0
 10
24.88944202732708
 20
12.26588517969745
 30
0.0
 41
1.0
  0
SPLINE
  5
62
330
1F
100
AcDbEntity
  8
Default
100
AcDbSpline
210
0.0
220
0.0
230
1.0
 70
    12
 71
     2
 72
     6
 73
     3
 74
     0
 42
0.0000000001
 43
0.0000000001
 40
0.0
 40
0.0
 40
0.0
 40
1.843263450064862
 40
1.843263450064862
 40
1.843263450064862
 10
24.88944202732708
 20
12.26588517969745
 30
0.0
 41
1.0
 10
25.79776138742378
 20
12.10980514713988
 30
0.0
 41
0.9999999999936852
 10
26.70608179074182
 20
11.9537310177214
 30
0.0
 41
1.0
  0
SPLINE
  5
63
330
1F
100
AcDbEntity
  8
Default
100
AcDbSpline
210
0.0
220
0.0
230
1.0
 70
    12
 71
     2
 72
     6
 73
     3
 74
     0
 42
0.0000000001
 43
0.0000000001
 40
0.0
 40
0.0
 40
0.0
 40
0.6997662170032295
 40
0.6997662170032295
 40
0.6997662170032295
 10
26.70608179074182
 20
11.9537310177214
 30
0.0
 41
1.0
 10
27.12094882347
 20
11.88244667937159
 30
0.0
 41
0.7649870492777086
 10
27.12140540273688
 20
11.46120110138611
 30
0.0
 41
1.0
  0
SPLINE
  5
64
330
1F
100
AcDbEntity
  8
Default
100
AcDbSpline
210
0.0
220
0.0
230
1.0
 70
    12
 71
     3
 72
    13
 73
     9
 74
     0
 42
0.0000000001
 43
0.0000000001
 40
1.164116092654201
 40
1.164116092654201
 40
1.164116092654201
 40
1.164116092654201
 40
1.192754371812117
 40
1.192754371812117
 40
1.839154429652598
 40
2.485554487552516
 40
2.485554487552516
 40
2.941799361814759
 40
2.941799361814759
 40
2.941799361814759
 40
2.941799361814759
 10
27.12140540273688
 20
11.46120110138611
 30
0.0
 41
1.0
 10
27.1214045574857
 20
11.45135583614481
 30
0.0
 41
1.0
 10
27.12140511635917
 20
11.44180974146306
 30
0.0
 41
1.0
 10
27.12145466090513
 20
11.2167969686364
 30
0.0
 41
1.0
 10
27.12353832135958
 20
10.78587479042528
 30
0.0
 41
1.0
 10
27.13072606284814
 20
10.35502399011492
 30
0.0
 41
1.0
 10
27.13652426304273
 20
9.987521416801457
 30
0.0
 41
1.0
 10
27.13872506830458
 20
9.83544406875302
 30
0.0
 41
1.0
 10
27.14049176836537
 20
9.682909845823701
 30
0.0
 41
1.0
  0
SPLINE
  5
65
330
1F
100
AcDbEntity
  8
Default
100
AcDbSpline
210
0.0
220
0.0
230
1.0
 70
    12
 71
     2
 72
     6
 73
     3
 74
     0
 42
0.0000000001
 43
0.0000000001
 40
0.0
 40
0.0
 40
0.0
 40
0.0011199978112541
 40
0.0011199978112541
 40
0.0011199978112541
 10
27.14049176836537
 20
9.682909845823701
 30
0.0
 41
1.0
 10
27.14050947646614
 20
9.68189344886065
 30
0.0
 41
0.9999999565253123
 10
27.14050947572119
 20
9.681333409514025
 30
0.0
 41
1.0
  0
SPLINE
  5
66
330
1F
100
AcDbEntity
  8
Default
100
AcDbSpline
210
0.0
220
0.0
230
1.0
 70
    12
 71
     2
 72
     6
 73
     3
 74
     0
 42
0.0000000001
 43
0.0000000001
 40
0.0
 40
0.0
 40
0.0
 40
1.157563000328597
 40
1.157563000328597
 40
1.157563000328597
 10
27.14050947572119
 20
9.681333409514025
 30
0.0
 41
1.0
 10
27.14608519402031
 20
9.102576156243051
 30
0.0
 41
0.9999932729902123
 10
27.14742122914552
 20
8.523792488378888
 30
0.0
 41
1.0
  0
SPLINE
  5
67
330
1F
100
AcDbEntity
  8
Default
100
AcDbSpline
210
0.0
220
0.0
230
1.0
 70
    12
 71
     3
 72
    12
 73
     8
 74
     0
 42
0.0000000001
 43
0.0000000001
 40
0.0000022290245399
 40
0.0000022290245399
 40
0.0000022290245399
 40
0.0000022290245399
 40
2.973330383277389
 40
2.973330383277389
 40
5.533332299297856
 40
5.533332299297856
 40
8.0907540207247
 40
8.0907540207247
 40
8.0907540207247
 40
8.0907540207247
 10
27.14742122914552
 20
8.523792488378888
 30
0.0
 41
1.0
 10
27.15116443902141
 20
7.533012356544702
 30
0.0
 41
1.0
 10
27.16130101624029
 20
6.542166505228664
 30
0.0
 41
1.0
 10
27.18624505313667
 20
4.698546802840923
 30
0.0
 41
1.0
 10
27.20010432920552
 20
3.846004306662138
 30
0.0
 41
1.0
 10
27.22745479056462
 20
2.140986238235911
 30
0.0
 41
1.0
 10
27.24086370393471
 20
1.289616091246216
 30
0.0
 41
1.0
 10
27.25210128332813
 20
0.4374291487058031
 30
0.0
 41
1.0
  0
SPLINE
  5
68
330
1F
100
AcDbEntity
  8
Default
100
AcDbSpline
210
0.0
220
0.0
230
1.0
 70
    12
 71
     2
 72
     6
 73
     3
 74
     0
 42
0.0000000001
 43
0.0000000001
 40
0.0
 40
0.0
 40
0.0
 40
0.0970316672143772
 40
0.0970316672143772
 40
0.0970316672143772
 10
27.25210128332813
 20
0.4374291487058031
 30
0.0
 41
1.0
 10
27.25267988006291
 20
0.3763075181236976
 30
0.0
 41
0.717857630247824
 10
27.31376590741027
 20
0.3750140462356626
 30
0.0
 41
1.0
  0
POLYLINE
  5
69
330
1F
100
AcDbEntity
  8
Default
100
AcDb2dPolyline
 66
     1
 10
0.0
 20
0.0
 30
0.0
  0
VERTEX
  5
6A
330
69
100
AcDbEntity
  8
Default
100
AcDbVertex
100
AcDb2dVertex
 10
27.31376590741027
 20
0.3750140462356626
 30
0.0
  0
VERTEX
  5
6B
330
69
100
AcDbEntity
  8
Default
100
AcDbVertex
100
AcDb2dVertex
 10
27.99574593598257
 20
0.3750000024411975
 30
0.0
  0
SEQEND
  5
6C
330
69
100
AcDbEntity
  8
Default
  0
SPLINE
  5
6D
330
1F
100
AcDbEntity
  8
Default
100
AcDbSpline
210
0.0
220
0.0
230
1.0
 70
    12
 71
     2
 72
     6
 73
     3
 74
     0
 42
0.0000000001
 43
0.0000000001
 40
0.0
 40
0.0
 40
0.0
 40
0.0983105351425802
 40
0.0983105351425802
 40
0.0983105351425802
 10
27.99574593598257
 20
0.3750000024411975
 30
0.0
 41
1.0
 10
28.05810177240875
 20
0.374998070860006
 30
0.0
 41
0.7107094273922171
 10
28.05874068602
 20
0.4373708929651912
 30
0.0
 41
1.0
  0
SPLINE
  5
6E
330
1F
100
AcDbEntity
  8
Default
100
AcDbSpline
210
0.0
220
0.0
230
1.0
 70
    12
 71
     3
 72
    12
 73
     8
 74
     0
 42
0.0000000001
 43
0.0000000001
 40
0.0025122088885125
 40
0.0025122088885125
 40
0.0025122088885125
 40
0.0025122088885125
 40
2.559996601448771
 40
2.559996601448771
 40
5.119998517672128
 40
5.119998517672128
 40
8.093326489272172
 40
8.093326489272172
 40
8.093326489272172
 40
8.093326489272172
 10
28.05874068602
 20
0.4373708929651912
 30
0.0
 41
1.0
 10
28.06997856587148
 20
1.289574364790269
 30
0.0
 41
1.0
 10
28.0833878014777
 20
2.140965357733307
 30
0.0
 41
1.0
 10
28.11073859778858
 20
3.8460043069324
 30
0.0
 41
1.0
 10
28.12459787385845
 20
4.6985468031788
 30
0.0
 41
1.0
 10
28.14954190993072
 20
6.542166444777081
 30
0.0
 41
1.0
 10
28.15967848672622
 20
7.53301223521413
 30
0.0
 41
1.0
 10
28.16342169750001
 20
8.523792397285746
 30
0.0
 41
1.0
  0
SPLINE
  5
6F
330
1F
100
AcDbEntity
  8
Default
100
AcDbSpline
210
0.0
220
0.0
230
1.0
 70
    12
 71
     2
 72
     6
 73
     3
 74
     0
 42
0.0000000001
 43
0.0000000001
 40
0.0
 40
0.0
 40
0.0
 40
1.157566753814006
 40
1.157566753814006
 40
1.157566753814006
 10
28.16342169750001
 20
8.523792397285746
 30
0.0
 41
1.0
 10
28.16476956095562
 20
9.102577944119421
 30
0.0
 41
0.9999934222404667
 10
28.17032162399349
 20
9.681337225291125
 30
0.0
 41
0.9999999999999121
  0
SPLINE
  5
70
330
1F
100
AcDbEntity
  8
Default
100
AcDbSpline
210
0.0
220
0.0
230
1.0
 70
    12
 71
     2
 72
     6
 73
     3
 74
     0
 42
0.0000000001
 43
0.0000000001
 40
0.0
 40
0.0
 40
0.0
 40
0.0011163185374098
 40
0.0011163185374098
 40
0.0011163185374098
 10
28.17032162399349
 20
9.681337225291117
 30
0.0
 41
1.0
 10
28.17033346966352
 20
9.681895288399144
 30
0.0
 41
0.9999999568108967
 10
28.17033911773709
 20
9.682909979841583
 30
0.0
 41
1.0
  0
SPLINE
  5
71
330
1F
100
AcDbEntity
  8
Default
100
AcDbSpline
210
0.0
220
0.0
230
1.0
 70
    12
 71
     3
 72
    13
 73
     9
 74
     0
 42
0.0000000001
 43
0.0000000001
 40
1.159780968969077
 40
1.159780968969077
 40
1.159780968969077
 40
1.159780968969077
 40
1.219999999483621
 40
1.219999999483621
 40
1.859999999216523
 40
1.859999999216523
 40
2.49999999917158
 40
2.937447200127758
 40
2.937447200127758
 40
2.937447200127758
 40
2.937447200127758
 10
28.17033911773709
 20
9.682909979841583
 30
0.0
 41
1.0
 10
28.17056718308837
 20
9.703438966347733
 30
0.0
 41
1.0
 10
28.17080366028293
 20
9.723511031694557
 30
0.0
 41
1.0
 10
28.17365086905446
 20
9.95689999374116
 30
0.0
 41
1.0
 10
28.17726588861743
 20
10.17023320478074
 30
0.0
 41
1.0
 10
28.18389816217794
 20
10.59684831315658
 30
0.0
 41
1.0
 10
28.18858289572566
 20
10.95596334870555
 30
0.0
 41
1.0
 10
28.18943307510872
 20
11.31509077060545
 30
0.0
 41
1.0
 10
28.18943243966274
 20
11.46118232485981
 30
0.0
 41
1.0
  0
SPLINE
  5
72
330
1F
100
AcDbEntity
  8
Default
100
AcDbSpline
210
0.0
220
0.0
230
1.0
 70
    12
 71
     2
 72
     6
 73
     3
 74
     0
 42
0.0000000001
 43
0.0000000001
 40
0.0
 40
0.0
 40
0.0
 40
0.6998000892342029
 40
0.6998000892342029
 40
0.6998000892342029
 10
28.18943243966274
 20
11.46118232485981
 30
0.0
 41
1.0
 10
28.18987153995928
 20
11.88243362283056
 30
0.0
 41
0.764976675619346
 10
28.60476113124403
 20
11.9537310466041
 30
0.0
 41
1.0
  0
SPLINE
  5
73
330
1F
100
AcDbEntity
  8
Default
100
AcDbSpline
210
0.0
220
0.0
230
1.0
 70
    12
 71
     2
 72
     6
 73
     3
 74
     0
 42
0.0000000001
 43
0.0000000001
 40
0.0
 40
0.0
 40
0.0
 40
1.843263134159366
 40
1.843263134159366
 40
1.843263134159366
 10
28.60476113124403
 20
11.9537310466041
 30
0.0
 41
1.0
 10
29.51308138383011
 20
12.10980512042263
 30
0.0
 41
0.999999999993685
 10
30.4214005836599
 20
12.26588515296334
 30
0.0
 41
1.0
  0
SPLINE
  5
74
330
1F
100
AcDbEntity
  8
Default
100
AcDbSpline
210
0.0
220
0.0
230
1.0
 70
    12
 71
     5
 72
    13
 73
     7
 74
     0
 42
0.0000000001
 43
0.0000000001
 40
-0.0000214316302125
 40
-0.0000214316302125
 40
-0.0000214316302125
 40
-0.0000214316302125
 40
-0.0000214316302125
 40
-0.0000214316302125
 40
0.4999999999109885
 40
0.9999999998854894
 40
0.9999999998854894
 40
0.9999999998854894
 40
0.9999999998854894
 40
0.9999999998854894
 40
0.9999999998854894
 10
30.4214005836599
 20
12.26588515296334
 30
0.0
 41
1.0
 10
30.48537221616655
 20
12.27687454006889
 30
0.0
 41
1.0
 10
30.60005620526786
 20
12.31002542084693
 30
0.0
 41
1.0
 10
30.68822527268972
 20
12.36553619865956
 30
0.0
 41
1.0
 10
30.74612144535345
 20
12.44654867131698
 30
0.0
 41
1.0
 10
30.76542049685773
 20
12.56009560996313
 30
0.0
 41
1.0
 10
30.76542114289751
 20
12.62500000235795
 30
0.0
 41
1.0
  0
SPLINE
  5
75
330
1F
100
AcDbEntity
  8
Default
100
AcDbSpline
210
0.0
220
0.0
230
1.0
 70
     8
 71
     3
 72
    12
 73
     8
 74
     0
 42
0.0000000001
 43
0.0000000001
 40
0.0
 40
0.0
 40
0.0
 40
0.0
 40
1.0
 40
2.0
 40
3.0
 40
4.0
 40
5.0
 40
5.0
 40
5.0
 40
5.0
 10
55.40027369158057
 20
12.62503918825035
 30
0.0
 10
55.38387679681605
 20
12.49412383179848
 30
0.0
 10
55.16182487699953
 20
12.34303393060617
 30
0.0
 10
54.80080776965181
 20
12.2627180002051
 30
0.0
 10
54.42507423211626
 20
12.26322850250835
 30
0.0
 10
54.06377994461221
 20
12.34265459674313
 30
0.0
 10
53.84210197353551
 20
12.49439055061359
 30
0.0
 10
53.82527383326104
 20
12.62498982757822
 30
0.0
  0
SPLINE
  5
76
330
1F
100
AcDbEntity
  8
Default
100
AcDbSpline
210
0.0
220
0.0
230
1.0
 70
    12
 71
     2
 72
     6
 73
     3
 74
     0
 42
0.0000000001
 43
0.0000000001
 40
0.0
 40
0.0
 40
0.0
 40
0.0026344063336084
 40
0.0026344063336084
 40
0.0026344063336084
 10
55.40028557911856
 20
12.62369822161139
 30
0.0
 41
1.0
 10
55.40027148185802
 20
12.62238109374753
 30
0.0
 41
0.9999998444549029
 10
55.40025591533814
 20
12.62106398242881
 30
0.0
 41
1.0
  0
SPLINE
  5
77
330
1F
100
AcDbEntity
  8
Default
100
AcDbSpline
210
0.0
220
0.0
230
1.0
 70
    12
 71
     2
 72
     6
 73
     3
 74
     0
 42
0.0000000001
 43
0.0000000001
 40
0.0
 40
0.0
 40
0.0
 40
0.0051272633192371
 40
0.0051272633192371
 40
0.0051272633192371
 10
55.40026862533378
 20
12.61991732659044
 30
0.0
 41
1.0
 10
55.40028966846883
 20
12.62248088681026
 30
0.0
 41
0.9999912669693292
 10
55.40028928362713
 20
12.62504453336663
 30
0.0
 41
1.0
  0
SPLINE
  5
78
330
1F
100
AcDbEntity
  8
Default
100
AcDbSpline
210
0.0
220
0.0
230
1.0
 70
    24
 71
     2
 72
     6
 73
     3
 74
     0
 42
0.0000000001
 43
0.0000000001
 40
0.0
 40
0.0
 40
0.0
 40
0.003885868834095
 40
0.003885868834095
 40
0.003885868834095
 10
55.40028928595316
 20
12.62106376877136
 30
0.0
 10
55.40028928973064
 20
12.61912083435432
 30
0.0
 10
55.40028929350811
 20
12.61717789993727
 30
0.0
  0
SPLINE
  5
79
330
1F
100
AcDbEntity
  8
Default
100
AcDbSpline
210
0.0
220
0.0
230
1.0
 70
    24
 71
     2
 72
     6
 73
     3
 74
     0
 42
0.0000000001
 43
0.0000000001
 40
0.0
 40
0.0
 40
0.0
 40
2.872049792281604
 40
2.872049792281604
 40
2.872049792281604
 10
53.2002892807524
 20
14.62503914793996
 30
0.0
 10
53.20028928075246
 20
16.06106404408075
 30
0.0
 10
53.20028928075251
 20
17.49708894022154
 30
0.0
  0
SPLINE
  5
7A
330
1F
100
AcDbEntity
  8
Default
100
AcDbSpline
210
0.0
220
0.0
230
1.0
 70
    12
 71
     2
 72
     6
 73
     3
 74
     0
 42
0.0000000001
 43
0.0000000001
 40
0.0
 40
0.0
 40
0.0
 40
0.7853981633974554
 40
0.7853981633974554
 40
0.7853981633974554
 10
53.20028928075251
 20
17.49708894022154
 30
0.0
 41
1.0
 10
53.20028928075249
 20
17.99708894022156
 30
0.0
 41
0.7071067811865426
 10
53.70028928075251
 20
17.99708894022154
 30
0.0
 41
1.0
  0
SPLINE
  5
7B
330
1F
100
AcDbEntity
  8
Default
100
AcDbSpline
210
0.0
220
0.0
230
1.0
 70
    24
 71
     2
 72
     6
 73
     3
 74
     0
 42
0.0000000001
 43
0.0000000001
 40
0.0
 40
0.0
 40
0.0
 40
23.99999995722946
 40
23.99999995722946
 40
23.99999995722946
 10
53.70028928075251
 20
17.99708894022154
 30
0.0
 10
65.70028925936722
 20
17.99708894022154
 30
0.0
 10
77.70028923798193
 20
17.99708894022154
 30
0.0
  0
SPLINE
  5
7C
330
1F
100
AcDbEntity
  8
Default
100
AcDbSpline
210
0.0
220
0.0
230
1.0
 70
    12
 71
     2
 72
     6
 73
     3
 74
     0
 42
0.0000000001
 43
0.0000000001
 40
0.0
 40
0.0
 40
0.0
 40
0.7853981633974382
 40
0.7853981633974382
 40
0.7853981633974382
 10
77.70028923798193
 20
17.99708894022154
 30
0.0
 41
1.0
 10
78.20028923798189
 20
17.99708894022154
 30
0.0
 41
0.7071067811865627
 10
78.20028923798193
 20
17.49708894022154
 30
0.0
 41
1.0
  0
SPLINE
  5
7D
330
1F
100
AcDbEntity
  8
Default
100
AcDbSpline
210
0.0
220
0.0
230
1.0
 70
    24
 71
     2
 72
     6
 73
     3
 74
     0
 42
0.0000000001
 43
0.0000000001
 40
0.0
 40
0.0
 40
0.0
 40
2.872049792281601
 40
2.872049792281601
 40
2.872049792281601
 10
78.20028923798193
 20
17.49708894022154
 30
0.0
 10
78.20028923798205
 20
16.06106404408075
 30
0.0
 10
78.20028923798216
 20
14.62503914793996
 30
0.0
  0
ARC
  5
7E
330
1F
100
AcDbEntity
  8
Default
100
AcDbCircle
 10
77.95028923798216
 20
14.62503914793996
 30
0.0
 40
0.25
100
AcDbArc
 50
270.0
 51
0.0000000000008142
  0
POLYLINE
  5
7F
330
1F
100
AcDbEntity
  8
Default
100
AcDb2dPolyline
 66
     1
 10
0.0
 20
0.0
 30
0.0
  0
VERTEX
  5
80
330
7F
100
AcDbEntity
  8
Default
100
AcDbVertex
100
AcDb2dVertex
 10
77.95028923798216
 20
14.37503914793996
 30
0.0
  0
VERTEX
  5
81
330
7F
100
AcDbEntity
  8
Default
100
AcDbVertex
100
AcDb2dVertex
 10
54.74903928075335
 20
14.37503914793996
 30
0.0
  0
SEQEND
  5
82
330
7F
100
AcDbEntity
  8
Default
  0
LINE
  5
83
330
1F
100
AcDbEntity
  8
Default
100
AcDbLine
 10
54.74903928075335
 20
14.37503914793996
 30
0.0
 11
53.45028928075251
 21
14.37503914793996
 31
0.0
  0
ARC
  5
84
330
1F
100
AcDbEntity
  8
Default
100
AcDbCircle
 10
53.4502892807524
 20
14.62503914793996
 30
0.0
 40
0.25
100
AcDbArc
 50
180.0
 51
270.0000000000196
  0
SPLINE
  5
85
330
1F
100
AcDbEntity
  8
Default
100
AcDbSpline
210
0.0
220
0.0
230
1.0
 70
    12
 71
     2
 72
     6
 73
     3
 74
     0
 42
0.0000000001
 43
0.0000000001
 40
-0.7825548902353026
 40
-0.7825548902353026
 40
-0.7825548902353026
 40
0.0
 40
0.0
 40
0.0
 10
75.4985066525625
 20
10.30071586202212
 30
0.0
 41
1.0
 10
75.99641474687965
 20
10.30219105879808
 30
0.0
 41
0.7091100515193309
 10
75.99776260879347
 20
10.79994551539292
 30
0.0
 41
1.0
  0
LINE
  5
86
330
1F
100
AcDbEntity
  8
Default
100
AcDbLine
 10
75.99776260879347
 20
10.79994551539292
 30
0.0
 11
75.9977886744339
 21
12.62503914793996
 31
0.0
  0
POLYLINE
  5
87
330
1F
100
AcDbEntity
  8
Default
100
AcDb2dPolyline
 66
     1
 10
0.0
 20
0.0
 30
0.0
  0
VERTEX
  5
88
330
87
100
AcDbEntity
  8
Default
100
AcDbVertex
100
AcDb2dVertex
 10
75.9977886744339
 20
12.62503914793996
 30
0.0
  0
VERTEX
  5
89
330
87
100
AcDbEntity
  8
Default
100
AcDbVertex
100
AcDb2dVertex
 10
77.57278918451075
 20
12.62503914793996
 30
0.0
  0
SEQEND
  5
8A
330
87
100
AcDbEntity
  8
Default
  0
LINE
  5
8B
330
1F
100
AcDbEntity
  8
Default
100
AcDbLine
 10
77.57278918451075
 20
12.62503914793996
 30
0.0
 11
77.57278922691674
 21
8.523832748022102
 31
0.0
  0
SPLINE
  5
8C
330
1F
100
AcDbEntity
  8
Default
100
AcDbSpline
210
0.0
220
0.0
230
1.0
 70
    12
 71
     5
 72
    12
 73
     6
 74
     0
 42
0.0000000001
 43
0.0000000001
 40
-0.0000000000115655
 40
-0.0000000000115655
 40
-0.0000000000115655
 40
-0.0000000000115655
 40
-0.0000000000115655
 40
-0.0000000000115655
 40
0.9922383364707964
 40
0.9922383364707964
 40
0.9922383364707964
 40
0.9922383364707964
 40
0.9922383364707964
 40
0.9922383364707964
 10
77.57278922691674
 20
8.523832748022102
 30
0.0
 41
1.0
 10
77.57278912387815
 20
6.906723733638387
 30
0.0
 41
1.0
 10
77.57432917473298
 20
5.28999874261649
 30
0.0
 41
1.0
 10
77.57735417074358
 20
3.673665990484096
 30
0.0
 41
1.0
 10
77.57693699061625
 20
2.056446236198724
 30
0.0
 41
1.0
 10
77.57294674466712
 20
0.438327709682369
 30
0.0
 41
1.0
  0
SPLINE
  5
8D
330
1F
100
AcDbEntity
  8
Default
100
AcDbSpline
210
0.0
220
0.0
230
1.0
 70
    12
 71
     2
 72
     6
 73
     3
 74
     0
 42
0.0000000001
 43
0.0000000001
 40
0.0
 40
0.0
 40
0.0
 40
0.0876876088231114
 40
0.0876876088231114
 40
0.0876876088231114
 10
77.57294674466712
 20
0.438327709682369
 30
0.0
 41
1.0
 10
77.57318753854788
 20
0.3857006415266954
 30
0.0
 41
0.7674574304402552
 10
77.52144358285094
 20
0.376097031102347
 30
0.0
 41
1.0
  0
POLYLINE
  5
8E
330
1F
100
AcDbEntity
  8
Default
100
AcDb2dPolyline
 66
     1
 10
0.0
 20
0.0
 30
0.0
  0
VERTEX
  5
8F
330
8E
100
AcDbEntity
  8
Default
100
AcDbVertex
100
AcDb2dVertex
 10
77.52144358285094
 20
0.376097031102347
 30
0.0
  0
VERTEX
  5
90
330
8E
100
AcDbEntity
  8
Default
100
AcDbVertex
100
AcDb2dVertex
 10
76.49661940661659
 20
0.3760291938065166
 30
0.0
  0
SEQEND
  5
91
330
8E
100
AcDbEntity
  8
Default
  0
SPLINE
  5
92
330
1F
100
AcDbEntity
  8
Default
100
AcDbSpline
210
0.0
220
0.0
230
1.0
 70
    12
 71
     2
 72
     6
 73
     3
 74
     0
 42
0.0000000001
 43
0.0000000001
 40
0.0
 40
0.0
 40
0.0
 40
0.0846250291315599
 40
0.0846250291315599
 40
0.0846250291315599
 10
76.49661940661659
 20
0.3760291938065166
 30
0.0
 41
1.0
 10
76.44732731208421
 20
0.3848725235289587
 30
0.0
 41
0.7828101505964009
 10
76.44482246423402
 20
0.4349040010501994
 30
0.0
 41
1.0
  0
SPLINE
  5
93
330
1F
100
AcDbEntity
  8
Default
100
AcDbSpline
210
0.0
220
0.0
230
1.0
 70
    12
 71
     5
 72
    12
 73
     6
 74
     0
 42
0.0000000001
 43
0.0000000001
 40
-0.9926563385080105
 40
-0.9926563385080105
 40
-0.9926563385080105
 40
-0.9926563385080105
 40
-0.9926563385080105
 40
-0.9926563385080105
 40
0.0000000000115655
 40
0.0000000000115655
 40
0.0000000000115655
 40
0.0000000000115655
 40
0.0000000000115655
 40
0.0000000000115655
 10
76.44482246423402
 20
0.4349040010501994
 30
0.0
 41
1.0
 10
76.36455109729675
 20
2.053720817427831
 30
0.0
 41
1.0
 10
76.2812838487587
 20
3.671623239166394
 30
0.0
 41
1.0
 10
76.19512531620049
 20
5.288636897332367
 30
0.0
 41
1.0
 10
76.1102071625161
 20
6.906042847420849
 30
0.0
 41
1.0
 10
76.02657471710634
 20
8.523832748022102
 30
0.0
 41
1.0
  0
SPLINE
  5
94
330
1F
100
AcDbEntity
  8
Default
100
AcDbSpline
210
0.0
220
0.0
230
1.0
 70
    12
 71
     2
 72
     6
 73
     3
 74
     0
 42
0.0000000001
 43
0.0000000001
 40
-0.082649365308941
 40
-0.082649365308941
 40
-0.082649365308941
 40
0.0
 40
0.0
 40
0.0
 10
76.02657471710634
 20
8.523832748022102
 30
0.0
 41
1.0
 10
76.02445428720824
 20
8.565102993962563
 30
0.0
 41
0.9999999883852876
 10
76.02232336702494
 20
8.606814936584982
 30
0.0
 41
1.0
  0
SPLINE
  5
95
330
1F
100
AcDbEntity
  8
Default
100
AcDbSpline
210
0.0
220
0.0
230
1.0
 70
    12
 71
     2
 72
     6
 73
     3
 74
     0
 42
0.0000000001
 43
0.0000000001
 40
0.0
 40
0.0
 40
0.0
 40
0.7576113662501209
 40
0.7576113662501209
 40
0.7576113662501209
 10
76.02232336702494
 20
8.606814936584982
 30
0.0
 41
1.0
 10
75.9971838813204
 20
9.079543739913545
 30
0.0
 41
0.72648491075732
 10
75.52361709171308
 20
9.080707515794899
 30
0.0
 41
1.0
  0
SPLINE
  5
96
330
1F
100
AcDbEntity
  8
Default
100
AcDbSpline
210
0.0
220
0.0
230
1.0
 70
    24
 71
     2
 72
     6
 73
     3
 74
     0
 42
0.0000000001
 43
0.0000000001
 40
0.0
 40
0.0
 40
0.0
 40
19.64792944108129
 40
19.64792944108129
 40
19.64792944108129
 10
75.52361709171308
 20
9.080707515794899
 30
0.0
 10
65.69903928075328
 20
9.080707515794899
 30
0.0
 10
55.87446146979349
 20
9.080707515794899
 30
0.0
  0
SPLINE
  5
97
330
1F
100
AcDbEntity
  8
Default
100
AcDbSpline
210
0.0
220
0.0
230
1.0
 70
    12
 71
     2
 72
     6
 73
     3
 74
     0
 42
0.0000000001
 43
0.0000000001
 40
-0.7576113662501209
 40
-0.7576113662501209
 40
-0.7576113662501209
 40
0.0
 40
0.0
 40
0.0
 10
55.87446146979349
 20
9.080707515794899
 30
0.0
 41
1.0
 10
55.40089468018617
 20
9.079543739913545
 30
0.0
 41
0.72648491075732
 10
55.37575519448163
 20
8.606814936584982
 30
0.0
 41
1.0
  0
SPLINE
  5
98
330
1F
100
AcDbEntity
  8
Default
100
AcDbSpline
210
0.0
220
0.0
230
1.0
 70
    12
 71
     2
 72
     6
 73
     3
 74
     0
 42
0.0000000001
 43
0.0000000001
 40
0.0
 40
0.0
 40
0.0
 40
0.082649365308941
 40
0.082649365308941
 40
0.082649365308941
 10
55.37575519448163
 20
8.606814936584982
 30
0.0
 41
1.0
 10
55.37362427429832
 20
8.565102993962563
 30
0.0
 41
0.9999999883852876
 10
55.37150384440022
 20
8.523832748022102
 30
0.0
 41
1.0
  0
SPLINE
  5
99
330
1F
100
AcDbEntity
  8
Default
100
AcDbSpline
210
0.0
220
0.0
230
1.0
 70
    12
 71
     5
 72
    12
 73
     6
 74
     0
 42
0.0000000001
 43
0.0000000001
 40
-0.0000000000115655
 40
-0.0000000000115655
 40
-0.0000000000115655
 40
-0.0000000000115655
 40
-0.0000000000115655
 40
-0.0000000000115655
 40
0.9926563385080105
 40
0.9926563385080105
 40
0.9926563385080105
 40
0.9926563385080105
 40
0.9926563385080105
 40
0.9926563385080105
 10
55.37150384440022
 20
8.523832748022102
 30
0.0
 41
1.0
 10
55.28787139899046
 20
6.906042847420849
 30
0.0
 41
1.0
 10
55.20295324530608
 20
5.288636897332367
 30
0.0
 41
1.0
 10
55.11679471274786
 20
3.671623239166394
 30
0.0
 41
1.0
 10
55.03352746420981
 20
2.053720817427831
 30
0.0
 41
1.0
 10
54.95325609727254
 20
0.4349040010501994
 30
0.0
 41
1.0
  0
SPLINE
  5
9A
330
1F
100
AcDbEntity
  8
Default
100
AcDbSpline
210
0.0
220
0.0
230
1.0
 70
    12
 71
     2
 72
     6
 73
     3
 74
     0
 42
0.0000000001
 43
0.0000000001
 40
-0.0846250291315599
 40
-0.0846250291315599
 40
-0.0846250291315599
 40
0.0
 40
0.0
 40
0.0
 10
54.95325609727254
 20
0.4349040010501994
 30
0.0
 41
1.0
 10
54.95075124942223
 20
0.3848725235289587
 30
0.0
 41
0.7828101505964009
 10
54.90145915488998
 20
0.3760291938065166
 30
0.0
 41
1.0
  0
POLYLINE
  5
9B
330
1F
100
AcDbEntity
  8
Default
100
AcDb2dPolyline
 66
     1
 10
0.0
 20
0.0
 30
0.0
  0
VERTEX
  5
9C
330
9B
100
AcDbEntity
  8
Default
100
AcDbVertex
100
AcDb2dVertex
 10
54.90145915488998
 20
0.3760291938065166
 30
0.0
  0
VERTEX
  5
9D
330
9B
100
AcDbEntity
  8
Default
100
AcDbVertex
100
AcDb2dVertex
 10
53.87663497865563
 20
0.376097031102347
 30
0.0
  0
SEQEND
  5
9E
330
9B
100
AcDbEntity
  8
Default
  0
SPLINE
  5
9F
330
1F
100
AcDbEntity
  8
Default
100
AcDbSpline
210
0.0
220
0.0
230
1.0
 70
    12
 71
     2
 72
     6
 73
     3
 74
     0
 42
0.0000000001
 43
0.0000000001
 40
-0.0876876088231114
 40
-0.0876876088231114
 40
-0.0876876088231114
 40
0.0
 40
0.0
 40
0.0
 10
53.87663497865563
 20
0.376097031102347
 30
0.0
 41
1.0
 10
53.82489102295875
 20
0.3857006415266954
 30
0.0
 41
0.7674574304402552
 10
53.82513181683944
 20
0.438327709682369
 30
0.0
 41
1.0
  0
SPLINE
  5
A0
330
1F
100
AcDbEntity
  8
Default
100
AcDbSpline
210
0.0
220
0.0
230
1.0
 70
    12
 71
     5
 72
    12
 73
     6
 74
     0
 42
0.0000000001
 43
0.0000000001
 40
-0.9922383364707964
 40
-0.9922383364707964
 40
-0.9922383364707964
 40
-0.9922383364707964
 40
-0.9922383364707964
 40
-0.9922383364707964
 40
0.0000000000115655
 40
0.0000000000115655
 40
0.0000000000115655
 40
0.0000000000115655
 40
0.0000000000115655
 40
0.0000000000115655
 10
53.82513181683944
 20
0.438327709682369
 30
0.0
 41
1.0
 10
53.82114157089032
 20
2.056446236198724
 30
0.0
 41
1.0
 10
53.82072439076299
 20
3.673665990484096
 30
0.0
 41
1.0
 10
53.82374938677359
 20
5.28999874261649
 30
0.0
 41
1.0
 10
53.82528943762841
 20
6.906723733638387
 30
0.0
 41
1.0
 10
53.82528933458983
 20
8.523832748022102
 30
0.0
 41
1.0
  0
LINE
  5
A1
330
1F
100
AcDbEntity
  8
Default
100
AcDbLine
 10
53.82528933458983
 20
8.523832748022102
 30
0.0
 11
53.82528937699581
 21
12.62503914793996
 31
0.0
  0
POLYLINE
  5
A2
330
1F
100
AcDbEntity
  8
Default
100
AcDb2dPolyline
 66
     1
 10
0.0
 20
0.0
 30
0.0
  0
VERTEX
  5
A3
330
A2
100
AcDbEntity
  8
Default
100
AcDbVertex
100
AcDb2dVertex
 10
53.82528937699581
 20
12.62503914793996
 30
0.0
  0
VERTEX
  5
A4
330
A2
100
AcDbEntity
  8
Default
100
AcDbVertex
100
AcDb2dVertex
 10
55.40028988707266
 20
12.62503914793996
 30
0.0
  0
SEQEND
  5
A5
330
A2
100
AcDbEntity
  8
Default
  0
LINE
  5
A6
330
1F
100
AcDbEntity
  8
Default
100
AcDbLine
 10
55.40028988707266
 20
12.62503914793996
 30
0.0
 11
55.4003159527131
 21
10.79994551539292
 31
0.0
  0
SPLINE
  5
A7
330
1F
100
AcDbEntity
  8
Default
100
AcDbSpline
210
0.0
220
0.0
230
1.0
 70
    12
 71
     2
 72
     6
 73
     3
 74
     0
 42
0.0000000001
 43
0.0000000001
 40
0.0
 40
0.0
 40
0.0
 40
0.7825548902353026
 40
0.7825548902353026
 40
0.7825548902353026
 10
55.4003159527131
 20
10.79994551539292
 30
0.0
 41
1.0
 10
55.40166381462691
 20
10.30219105879808
 30
0.0
 41
0.7091100515193309
 10
55.89957190894407
 20
10.30071586202212
 30
0.0
 41
1.0
  0
SPLINE
  5
A8
330
1F
100
AcDbEntity
  8
Default
100
AcDbSpline
210
0.0
220
0.0
230
1.0
 70
    24
 71
     2
 72
     6
 73
     3
 74
     0
 42
0.0000000001
 43
0.0000000001
 40
0.0
 40
0.0
 40
0.0
 40
19.59744819239467
 40
19.59744819239467
 40
19.59744819239467
 10
55.89957190894407
 20
10.30071586202212
 30
0.0
 10
65.69903928075328
 20
10.30071586202212
 30
0.0
 10
75.4985066525625
 20
10.30071586202212
 30
0.0
  0
ARC
  5
A9
330
1F
100
AcDbEntity
  8
Default
100
AcDbCircle
 10
-10184.22927689623
 20
-414.3754196209939
 30
0.0
 40
10246.45187490584
100
AcDbArc
 50
2.318561083130736
 51
2.319822024816971
  0
LINE
  5
AA
330
1F
100
AcDbEntity
  8
Default
100
AcDbLine
 10
53.82513210709001
 20
0.3750391479403845
 30
0.0
 11
54.95013738126491
 21
0.3750391479403845
 31
0.0
  0
LINE
  5
AB
330
1F
100
AcDbEntity
  8
Default
100
AcDbLine
 10
54.95013738126491
 20
0.3750391479403845
 30
0.0
 11
54.9387814592275
 21
0.1496421885582038
 31
0.0
  0
SPLINE
  5
AC
330
1F
100
AcDbEntity
  8
Default
100
AcDbSpline
210
0.0
220
0.0
230
1.0
 70
    12
 71
     2
 72
     6
 73
     3
 74
     0
 42
0.0000000001
 43
0.0000000001
 40
-0.2387149143318927
 40
-0.2387149143318927
 40
-0.2387149143318927
 40
0.0
 40
0.0
 40
0.0
 10
54.9387814592275
 20
0.1496421885582038
 30
0.0
 41
1.0
 10
54.93268951699381
 20
-0.0000384788826898
 30
0.0
 41
0.7212476062221478
 10
54.78240945709834
 20
0.0000003945672802
 30
0.0
 41
1.0
  0
SPLINE
  5
AD
330
1F
100
AcDbEntity
  8
Default
100
AcDbSpline
210
0.0
220
0.0
230
1.0
 70
    12
 71
     2
 72
     6
 73
     3
 74
     0
 42
0.0000000001
 43
0.0000000001
 40
0.0
 40
0.0
 40
0.0
 40
0.3954244124017839
 40
0.3954244124017839
 40
0.3954244124017839
 10
54.78240945709834
 20
0.0000003945672802
 30
0.0
 41
1.0
 10
54.58422148744793
 20
0.0000274211329071
 30
0.0
 41
0.999999999289049
 10
54.38650928150085
 20
0.0000391457582793
 30
0.0
 41
1.0
  0
SPLINE
  5
AE
330
1F
100
AcDbEntity
  8
Default
100
AcDbSpline
210
0.0
220
0.0
230
1.0
 70
    24
 71
     2
 72
     6
 73
     3
 74
     0
 42
0.0000000001
 43
0.0000000001
 40
0.0
 40
0.0
 40
0.0
 40
0.3954243890795226
 40
0.3954243890795226
 40
0.3954243890795226
 10
54.38650928150085
 20
0.0000391457582793
 30
0.0
 10
54.18855919795701
 20
0.0000391464777749
 30
0.0
 10
53.99060911441316
 20
0.0000391471972705
 30
0.0
  0
SPLINE
  5
AF
330
1F
100
AcDbEntity
  8
Default
100
AcDbSpline
210
0.0
220
0.0
230
1.0
 70
    12
 71
     2
 72
     6
 73
     3
 74
     0
 42
0.0000000001
 43
0.0000000001
 40
-0.2387271341672585
 40
-0.2387271341672585
 40
-0.2387271341672585
 40
0.0
 40
0.0
 40
0.0
 10
53.99060911441316
 20
0.0000391471972705
 30
0.0
 41
1.0
 10
53.84032588714011
 20
0.0000391477218271
 30
0.0
 41
0.7212776802320741
 10
53.83425728337366
 20
0.1497242040884146
 30
0.0
 41
1.0
  0
SPLINE
  5
B0
330
1F
100
AcDbEntity
  8
Default
100
AcDbSpline
210
0.0
220
0.0
230
1.0
 70
     8
 71
     3
 72
    12
 73
     8
 74
     0
 42
0.0000000001
 43
0.0000000001
 40
0.0
 40
0.0
 40
0.0
 40
0.0
 40
1.0
 40
2.0
 40
3.0
 40
4.0
 40
5.0
 40
5.0
 40
5.0
 40
5.0
 10
75.997804869926
 20
12.62503918825035
 30
0.0
 10
76.01420176469051
 20
12.49412383179848
 30
0.0
 10
76.23625368450703
 20
12.34303393060617
 30
0.0
 10
76.59727079185475
 20
12.2627180002051
 30
0.0
 10
76.9730043293903
 20
12.26322850250835
 30
0.0
 10
77.33429861689436
 20
12.34265459674313
 30
0.0
 10
77.55597658797106
 20
12.49439055061359
 30
0.0
 10
77.57280472824553
 20
12.62498982757822
 30
0.0
  0
SPLINE
  5
B1
330
1F
100
AcDbEntity
  8
Default
100
AcDbSpline
210
0.0
220
0.0
230
1.0
 70
    24
 71
     2
 72
     6
 73
     3
 74
     0
 42
0.0000000001
 43
0.0000000001
 40
0.0
 40
0.0
 40
0.0
 40
1.250000000000004
 40
1.250000000000004
 40
1.250000000000004
 10
53.20028928075286
 20
14.12503914793996
 30
0.0
 10
53.20028928075268
 20
13.50003914793996
 30
0.0
 10
53.20028928075251
 20
12.87503914793996
 30
0.0
  0
ARC
  5
B2
330
1F
100
AcDbEntity
  8
Default
100
AcDbCircle
 10
53.45028928075251
 20
12.87503914793996
 30
0.0
 40
0.25
100
AcDbArc
 50
180.0
 51
270.0
  0
LINE
  5
B3
330
1F
100
AcDbEntity
  8
Default
100
AcDbLine
 10
53.45028928075251
 20
12.62503914793996
 30
0.0
 11
77.95028928075422
 21
12.62503914793996
 31
0.0
  0
ARC
  5
B4
330
1F
100
AcDbEntity
  8
Default
100
AcDbCircle
 10
77.95028928075422
 20
12.87503914793996
 30
0.0
 40
0.25
100
AcDbArc
 50
270.000000000013
 51
359.9999999999935
  0
SPLINE
  5
B5
330
1F
100
AcDbEntity
  8
Default
100
AcDbSpline
210
0.0
220
0.0
230
1.0
 70
    24
 71
     2
 72
     6
 73
     3
 74
     0
 42
0.0000000001
 43
0.0000000001
 40
0.0
 40
0.0
 40
0.0
 40
1.250000000000004
 40
1.250000000000004
 40
1.250000000000004
 10
78.20028928075422
 20
12.87503914793996
 30
0.0
 10
78.20028928075428
 20
13.50003914793996
 30
0.0
 10
78.20028928075433
 20
14.12503914793996
 30
0.0
  0
ARC
  5
B6
330
1F
100
AcDbEntity
  8
Default
100
AcDbCircle
 10
77.95028928075433
 20
14.12503914793996
 30
0.0
 40
0.25
100
AcDbArc
 50
359.9999999999992
 51
90.0
  0
LINE
  5
B7
330
1F
100
AcDbEntity
  8
Default
100
AcDbLine
 10
77.95028928075433
 20
14.37503914793996
 30
0.0
 11
53.70028928075286
 21
14.37503914793996
 31
0.0
  0
LINE
  5
B8
330
1F
100
AcDbEntity
  8
Default
100
AcDbLine
 10
53.70028928075286
 20
14.37503914793996
 30
0.0
 11
53.45028928075251
 21
14.37503914793996
 31
0.0
  0
ARC
  5
B9
330
1F
100
AcDbEntity
  8
Default
100
AcDbCircle
 10
53.45028928075286
 20
14.12503914793996
 30
0.0
 40
0.25
100
AcDbArc
 50
90.00000000007165
 51
180.0000000000057
  0
SPLINE
  5
BA
330
1F
100
AcDbEntity
  8
Default
100
AcDbSpline
210
0.0
220
0.0
230
1.0
 70
    15
 71
     2
 72
    22
 73
    19
 74
     0
 42
0.0000000001
 43
0.0000000001
 40
0.0
 40
0.0
 40
0.0
 40
38.0521372463281
 40
38.0521372463281
 40
38.4448383576504
 40
38.4448383576504
 40
41.31688814993201
 40
41.31688814993201
 40
41.70965007631988
 40
41.70965007631988
 40
42.10241200270775
 40
42.10241200270775
 40
79.6545385781071
 40
79.6545385781071
 40
80.43993674150454
 40
80.43993674150454
 40
83.31198653378614
 40
83.31198653378614
 40
83.7046867353958
 40
83.7046867353958
 40
83.7046867353958
 10
-37.49942679895921
 20
14.37500000240129
 30
0.0
 41
1.0
 10
-12.47393441396301
 20
14.37500000240129
 30
0.0
 41
1.0
 10
12.55155699982041
 20
14.37500000240129
 30
0.0
 41
1.0
 10
12.80155736514158
 20
14.37499963704457
 30
0.0
 41
0.707110387889693
 10
12.80155597260481
 20
14.62500000239918
 30
0.0
 41
0.9999999999167506
 10
12.80155381848037
 20
16.06102489853998
 30
0.0
 41
0.9999999999167506
 10
12.80155166435603
 20
17.49704979468078
 30
0.0
 41
0.9999999999167506
 10
12.80167293447653
 20
17.70420678680296
 30
0.0
 41
0.9237674810464906
 10
12.65519079547746
 20
17.85068892580213
 30
0.0
 41
0.9999999999167506
 10
12.50870865647824
 20
17.99717106480131
 30
0.0
 41
0.9237674810464906
 10
12.30155166435602
 20
17.9970497946808
 30
0.0
 41
0.9999999999167506
 10
-12.47393441396305
 20
17.9970497946808
 30
0.0
 41
0.9999999999167506
 10
-37.24942146349496
 20
17.9970497946808
 30
0.0
 41
0.9999999999167506
 10
-37.74942146349496
 20
17.99704979468079
 30
0.0
 41
0.7071067811276798
 10
-37.74942146349492
 20
17.49704979468078
 30
0.0
 41
0.9999999999167506
 10
-37.74942361761931
 20
16.06102489853998
 30
0.0
 41
0.9999999999167506
 10
-37.7494257717437
 20
14.62500000239918
 30
0.0
 41
0.9999999999167506
 10
-37.7494250447283
 20
14.37500175658787
 30
0.0
 41
0.7071163829140098
 10
-37.49942679895921
 20
14.37500000240129
 30
0.0
 41
1.0
  0
POLYLINE
  5
BB
330
1F
100
AcDbEntity
  8
Default
100
AcDb2dPolyline
 66
     1
 10
0.0
 20
0.0
 30
0.0
  0
VERTEX
  5
BC
330
BB
100
AcDbEntity
  8
Default
100
AcDbVertex
100
AcDb2dVertex
 10
27.4133327020194
 20
-0.0000000002171134
 30
0.0
  0
VERTEX
  5
BD
330
BB
100
AcDbEntity
  8
Default
100
AcDbVertex
100
AcDb2dVertex
 10
27.89751022942679
 20
0.0000000002171703
 30
0.0
  0
SEQEND
  5
BE
330
BB
100
AcDbEntity
  8
Default
  0
SPLINE
  5
BF
330
1F
100
AcDbEntity
  8
Default
100
AcDbSpline
210
0.0
220
0.0
230
1.0
 70
    12
 71
     2
 72
     6
 73
     3
 74
     0
 42
0.0000000001
 43
0.0000000001
 40
0.0
 40
0.0
 40
0.0
 40
0.241924443334512
 40
0.241924443334512
 40
0.241924443334512
 10
27.89751022942679
 20
0.0000000002171703
 30
0.0
 41
1.0
 10
28.05042124359419
 20
0.0000000303540884
 30
0.0
 41
0.7141418074729331
 10
28.05339256776452
 20
0.1529065059711456
 30
0.0
 41
1.0
  0
LINE
  5
C0
330
1F
100
AcDbEntity
  8
Default
100
AcDbLine
 10
28.05339256776452
 20
0.1529065059711456
 30
0.0
 11
28.05809116485526
 21
0.3750000023996165
 31
0.0
  0
LINE
  5
C1
330
1F
100
AcDbEntity
  8
Default
100
AcDbLine
 10
28.05809116485526
 20
0.3750000023996165
 30
0.0
 11
27.25328204888004
 21
0.3750000023996165
 31
0.0
  0
LINE
  5
C2
330
1F
100
AcDbEntity
  8
Default
100
AcDbLine
 10
27.25328204888004
 20
0.3750000023996165
 30
0.0
 11
27.25771550742277
 21
0.1529065037773307
 31
0.0
  0
SPLINE
  5
C3
330
1F
100
AcDbEntity
  8
Default
100
AcDbSpline
210
0.0
220
0.0
230
1.0
 70
    12
 71
     2
 72
     6
 73
     3
 74
     0
 42
0.0000000001
 43
0.0000000001
 40
0.0
 40
0.0
 40
0.0
 40
0.2419244355107725
 40
0.2419244355107725
 40
0.2419244355107725
 10
27.25771550742277
 20
0.1529065037773307
 30
0.0
 41
1.0
 10
27.26042169402183
 20
0.0000000321588069
 30
0.0
 41
0.7141418153608741
 10
27.4133327020194
 20
-0.0000000002171134
 30
0.0
 41
1.0
  0
SPLINE
  5
C4
330
1F
100
AcDbEntity
  8
Default
100
AcDbSpline
210
0.0
220
0.0
230
1.0
 70
    15
 71
     2
 72
    20
 73
    17
 74
     0
 42
0.0000000001
 43
0.0000000001
 40
-6482.241760176043
 40
-6482.241760176043
 40
-6482.241760176043
 40
-6480.991760176043
 40
-6480.991760176043
 40
-6480.599061094345
 40
-6480.599061094345
 40
-6417.599061094345
 40
-6417.599061094345
 40
-6417.206362012646
 40
-6417.206362012646
 40
-6415.956362012646
 40
-6415.956362012646
 40
-6415.563662930947
 40
-6415.563662930947
 40
-6352.563662930947
 40
-6352.563662930947
 40
-6352.170963849248
 40
-6352.170963849248
 40
-6352.170963849248
 10
37.74942606017001
 20
12.87500000239919
 30
0.0
 41
1.0
 10
37.74942606016978
 20
13.50000000239919
 30
0.0
 41
1.0
 10
37.74942606016955
 20
14.12500000239919
 30
0.0
 41
1.0
 10
37.74942606016967
 20
14.37500000239918
 30
0.0
 41
0.7071067811865476
 10
37.49942606016955
 20
14.37500000239919
 30
0.0
 41
1.0
 10
0.0000022983374777
 20
14.37500000239919
 30
0.0
 41
1.0
 10
-37.49942146349471
 20
14.37500000239919
 30
0.0
 41
1.0
 10
-37.74942146349467
 20
14.37500000239918
 30
0.0
 41
0.7071067811865426
 10
-37.74942146349471
 20
14.12500000239919
 30
0.0
 41
1.0
 10
-37.74942146349477
 20
13.50000000239919
 30
0.0
 41
1.0
 10
-37.74942146349483
 20
12.87500000239919
 30
0.0
 41
1.0
 10
-37.74942146349493
 20
12.62500000239891
 30
0.0
 41
0.7071067811861858
 10
-37.4994214634946
 20
12.62500000239913
 30
0.0
 41
1.0
 10
0.000002298337705
 20
12.62500000239916
 30
0.0
 41
1.0
 10
37.49942606017001
 20
12.62500000239919
 30
0.0
 41
1.0
 10
37.74942606016995
 20
12.62500000239918
 30
0.0
 41
0.707106781186545
 10
37.74942606017001
 20
12.87500000239919
 30
0.0
 41
1.0
  0
SPLINE
  5
C5
330
1F
100
AcDbEntity
  8
Default
100
AcDbSpline
210
0.0
220
0.0
230
1.0
 70
    15
 71
     2
 72
    20
 73
    17
 74
     0
 42
0.0000000001
 43
0.0000000001
 40
201.8561944901975
 40
201.8561944901975
 40
201.8561944901975
 40
264.3561944901974
 40
264.3561944901974
 40
265.1415926535949
 40
265.1415926535949
 40
289.1415926535967
 40
289.1415926535967
 40
289.9269908169941
 40
289.9269908169941
 40
352.4269908169941
 40
352.4269908169941
 40
353.2123889803915
 40
353.2123889803915
 40
377.2123889803932
 40
377.2123889803932
 40
377.9977871437907
 40
377.9977871437907
 40
377.9977871437907
 10
-37.24943007999249
 20
65.13795852298665
 30
0.0
 41
1.0
 10
-10.06724358063488
 20
65.13795852298665
 30
0.0
 41
1.0
 10
12.30154401907126
 20
65.13795852298665
 30
0.0
 41
1.0
 10
12.80154401907128
 20
65.13795852298664
 30
0.0
 41
0.7071067811865375
 10
12.80154401907126
 20
64.63795852298665
 30
0.0
 41
1.0
 10
12.80154401907126
 20
52.63795852298577
 30
0.0
 41
1.0
 10
12.80154401907126
 20
40.63795852298492
 30
0.0
 41
1.0
 10
12.8015440190712
 20
40.13795852298492
 30
0.0
 41
0.7071067811865551
 10
12.30154401907126
 20
40.13795852298492
 30
0.0
 41
1.0
 10
-10.06724358063488
 20
40.13795852298492
 30
0.0
 41
1.0
 10
-37.24943007999249
 20
40.13795852298492
 30
0.0
 41
1.0
 10
-37.74943007999245
 20
40.13795852298492
 30
0.0
 41
0.7071067811865476
 10
-37.74943007999249
 20
40.63795852298492
 30
0.0
 41
1.0
 10
-37.74943007999249
 20
52.63795852298578
 30
0.0
 41
1.0
 10
-37.74943007999249
 20
64.63795852298665
 30
0.0
 41
1.0
 10
-37.74943007999249
 20
65.13795852298664
 30
0.0
 41
0.707106781186545
 10
-37.24943007999249
 20
65.13795852298665
 30
0.0
 41
1.0
  0
POLYLINE
  5
C6
330
1F
100
AcDbEntity
  8
Default
100
AcDb2dPolyline
 66
     1
 10
0.0
 20
0.0
 30
0.0
  0
VERTEX
  5
C7
330
C6
100
AcDbEntity
  8
Default
100
AcDbVertex
100
AcDb2dVertex
 10
14.30155263556881
 20
14.37500000239919
 30
0.0
  0
VERTEX
  5
C8
330
C6
100
AcDbEntity
  8
Default
100
AcDbVertex
100
AcDb2dVertex
 10
36.20155263556879
 20
14.37500000239919
 30
0.0
  0
VERTEX
  5
C9
330
C6
100
AcDbEntity
  8
Default
100
AcDbVertex
100
AcDb2dVertex
 10
36.20155263556879
 20
14.62500000239919
 30
0.0
  0
VERTEX
  5
CA
330
C6
100
AcDbEntity
  8
Default
100
AcDbVertex
100
AcDb2dVertex
 10
14.30155263556881
 20
14.62500000239919
 30
0.0
  0
VERTEX
  5
CB
330
C6
100
AcDbEntity
  8
Default
100
AcDbVertex
100
AcDb2dVertex
 10
14.30155263556881
 20
14.37500000239919
 30
0.0
  0
SEQEND
  5
CC
330
C6
100
AcDbEntity
  8
Default
  0
ARC
  5
CD
330
1F
100
AcDbEntity
  8
Default
100
AcDbCircle
 10
10315.62735545774
 20
-414.3754196209939
 30
0.0
 40
10246.45187490584
100
AcDbArc
 50
177.680177975196
 51
177.6814389168823
  0
LINE
  5
CE
330
1F
100
AcDbEntity
  8
Default
100
AcDbLine
 10
77.57294645441655
 20
0.3750391479403845
 30
0.0
 11
76.44794118024166
 21
0.3750391479403845
 31
0.0
  0
LINE
  5
CF
330
1F
100
AcDbEntity
  8
Default
100
AcDbLine
 10
76.44794118024166
 20
0.3750391479403845
 30
0.0
 11
76.45929710227907
 21
0.1496421885582038
 31
0.0
  0
SPLINE
  5
D0
330
1F
100
AcDbEntity
  8
Default
100
AcDbSpline
210
0.0
220
0.0
230
1.0
 70
    12
 71
     2
 72
     6
 73
     3
 74
     0
 42
0.0000000001
 43
0.0000000001
 40
-0.2387149143318927
 40
-0.2387149143318927
 40
-0.2387149143318927
 40
0.0
 40
0.0
 40
0.0
 10
76.45929710227907
 20
0.1496421885582038
 30
0.0
 41
1.0
 10
76.46538904451283
 20
-0.0000384788826898
 30
0.0
 41
0.7212476062221478
 10
76.61566910440823
 20
0.0000003945672802
 30
0.0
 41
1.0
  0
SPLINE
  5
D1
330
1F
100
AcDbEntity
  8
Default
100
AcDbSpline
210
0.0
220
0.0
230
1.0
 70
    12
 71
     2
 72
     6
 73
     3
 74
     0
 42
0.0000000001
 43
0.0000000001
 40
0.0
 40
0.0
 40
0.0
 40
0.3954244124017839
 40
0.3954244124017839
 40
0.3954244124017839
 10
76.61566910440823
 20
0.0000003945672802
 30
0.0
 41
1.0
 10
76.81385707405865
 20
0.0000274211329071
 30
0.0
 41
0.999999999289049
 10
77.01156928000572
 20
0.0000391457582793
 30
0.0
 41
1.0
  0
SPLINE
  5
D2
330
1F
100
AcDbEntity
  8
Default
100
AcDbSpline
210
0.0
220
0.0
230
1.0
 70
    24
 71
     2
 72
     6
 73
     3
 74
     0
 42
0.0000000001
 43
0.0000000001
 40
0.0
 40
0.0
 40
0.0
 40
0.3954243890795226
 40
0.3954243890795226
 40
0.3954243890795226
 10
77.01156928000572
 20
0.0000391457582793
 30
0.0
 10
77.20951936354956
 20
0.0000391464777749
 30
0.0
 10
77.4074694470934
 20
0.0000391471972705
 30
0.0
  0
SPLINE
  5
D3
330
1F
100
AcDbEntity
  8
Default
100
AcDbSpline
210
0.0
220
0.0
230
1.0
 70
    12
 71
     2
 72
     6
 73
     3
 74
     0
 42
0.0000000001
 43
0.0000000001
 40
-0.2387271341672585
 40
-0.2387271341672585
 40
-0.2387271341672585
 40
0.0
 40
0.0
 40
0.0
 10
77.4074694470934
 20
0.0000391471972705
 30
0.0
 41
1.0
 10
77.55775267436641
 20
0.0000391477218271
 30
0.0
 41
0.7212776802320741
 10
77.5638212781329
 20
0.1497242040884146
 30
0.0
 41
1.0
  0
POLYLINE
  5
D4
330
1F
100
AcDbEntity
  8
Default
100
AcDb2dPolyline
 66
     1
 10
0.0
 20
0.0
 30
0.0
  0
VERTEX
  5
D5
330
D4
100
AcDbEntity
  8
Default
100
AcDbVertex
100
AcDb2dVertex
 10
12.80155263556881
 20
14.62500000239919
 30
0.0
  0
VERTEX
  5
D6
330
D4
100
AcDbEntity
  8
Default
100
AcDbVertex
100
AcDb2dVertex
 10
37.70155263556879
 20
14.62500000239919
 30
0.0
  0
VERTEX
  5
D7
330
D4
100
AcDbEntity
  8
Default
100
AcDbVertex
100
AcDb2dVertex
 10
37.70155263556879
 20
15.37500000239919
 30
0.0
  0
VERTEX
  5
D8
330
D4
100
AcDbEntity
  8
Default
100
AcDbVertex
100
AcDb2dVertex
 10
12.80155263556881
 20
15.37500000239919
 30
0.0
  0
VERTEX
  5
D9
330
D4
100
AcDbEntity
  8
Default
100
AcDbVertex
100
AcDb2dVertex
 10
12.80155263556881
 20
14.62500000239919
 30
0.0
  0
SEQEND
  5
DA
330
D4
100
AcDbEntity
  8
Default
  0
POLYLINE
  5
DB
330
1F
100
AcDbEntity
  8
Default
100
AcDb2dPolyline
 66
     1
 10
0.0
 20
0.0
 30
0.0
  0
VERTEX
  5
DC
330
DB
100
AcDbEntity
  8
Default
100
AcDbVertex
100
AcDb2dVertex
 10
13.55154401907126
 20
40.1879585229858
 30
0.0
  0
VERTEX
  5
DD
330
DB
100
AcDbEntity
  8
Default
100
AcDbVertex
100
AcDb2dVertex
 10
36.95154401907124
 20
40.1879585229858
 30
0.0
  0
SEQEND
  5
DE
330
DB
100
AcDbEntity
  8
Default
  0
ARC
  5
DF
330
1F
100
AcDbEntity
  8
Default
100
AcDbCircle
 10
36.95154401907124
 20
40.9379585229858
 30
0.0
 40
0.75
100
AcDbArc
 50
270.0
 51
0.0000000000005428
  0
POLYLINE
  5
E0
330
1F
100
AcDbEntity
  8
Default
100
AcDb2dPolyline
 66
     1
 10
0.0
 20
0.0
 30
0.0
  0
VERTEX
  5
E1
330
E0
100
AcDbEntity
  8
Default
100
AcDbVertex
100
AcDb2dVertex
 10
37.70154401907124
 20
40.9379585229858
 30
0.0
  0
VERTEX
  5
E2
330
E0
100
AcDbEntity
  8
Default
100
AcDbVertex
100
AcDb2dVertex
 10
37.70154401907124
 20
64.33795852298579
 30
0.0
  0
SEQEND
  5
E3
330
E0
100
AcDbEntity
  8
Default
  0
ARC
  5
E4
330
1F
100
AcDbEntity
  8
Default
100
AcDbCircle
 10
36.95154401907124
 20
64.33795852298579
 30
0.0
 40
0.75
100
AcDbArc
 50
0.0
 51
90.00000000000054
  0
POLYLINE
  5
E5
330
1F
100
AcDbEntity
  8
Default
100
AcDb2dPolyline
 66
     1
 10
0.0
 20
0.0
 30
0.0
  0
VERTEX
  5
E6
330
E5
100
AcDbEntity
  8
Default
100
AcDbVertex
100
AcDb2dVertex
 10
36.95154401907124
 20
65.08795852298579
 30
0.0
  0
VERTEX
  5
E7
330
E5
100
AcDbEntity
  8
Default
100
AcDbVertex
100
AcDb2dVertex
 10
13.55154401907126
 20
65.08795852298579
 30
0.0
  0
SEQEND
  5
E8
330
E5
100
AcDbEntity
  8
Default
  0
ARC
  5
E9
330
1F
100
AcDbEntity
  8
Default
100
AcDbCircle
 10
13.55154401907126
 20
64.33795852298579
 30
0.0
 40
0.75
100
AcDbArc
 50
90.0
 51
180.0
  0
POLYLINE
  5
EA
330
1F
100
AcDbEntity
  8
Default
100
AcDb2dPolyline
 66
     1
 10
0.0
 20
0.0
 30
0.0
  0
VERTEX
  5
EB
330
EA
100
AcDbEntity
  8
Default
100
AcDbVertex
100
AcDb2dVertex
 10
12.80154401907126
 20
64.33795852298579
 30
0.0
  0
VERTEX
  5
EC
330
EA
100
AcDbEntity
  8
Default
100
AcDbVertex
100
AcDb2dVertex
 10
12.80154401907126
 20
40.9379585229858
 30
0.0
  0
SEQEND
  5
ED
330
EA
100
AcDbEntity
  8
Default
  0
ARC
  5
EE
330
1F
100
AcDbEntity
  8
Default
100
AcDbCircle
 10
13.55154401907126
 20
40.9379585229858
 30
0.0
 40
0.75
100
AcDbArc
 50
180.0
 51
270.0
  0
ENDSEC
  0
SECTION
  2
OBJECTS
  0
DICTIONARY
  5
C
330
0
100
AcDbDictionary
281
     1
  3
ACAD_GROUP
350
D
  3
ACAD_LAYOUT
350
1A
  3
ACAD_MLEADERSTYLE
350
F0
  3
ACAD_MLINESTYLE
350
17
  3
ACAD_PLOTSETTINGS
350
19
  3
ACAD_PLOTSTYLENAME
350
E
  3
ACAD_TABLESTYLE
350
EF
  3
ACAD_VISUALSTYLE
350
2A
  0
DICTIONARY
  5
D
102
{ACAD_REACTORS
330
C
102
}
330
C
100
AcDbDictionary
281
     1
  0
DICTIONARY
  5
1A
102
{ACAD_REACTORS
330
C
102
}
330
C
100
AcDbDictionary
281
     1
  3
Layout1
350
1E
  3
Layout2
350
26
  3
Model
350
22
  0
DICTIONARY
  5
F0
102
{ACAD_REACTORS
330
C
102
}
330
C
100
AcDbDictionary
281
     1
  0
DICTIONARY
  5
17
102
{ACAD_REACTORS
330
C
102
}
330
C
100
AcDbDictionary
281
     1
  3
Standard
350
18
  0
DICTIONARY
  5
19
102
{ACAD_REACTORS
330
C
102
}
330
C
100
AcDbDictionary
281
     1
  0
ACDBDICTIONARYWDFLT
  5
E
102
{ACAD_REACTORS
330
C
102
}
330
C
100
AcDbDictionary
281
     1
  3
Normal
350
F
100
AcDbDictionaryWithDefault
340
F
  0
DICTIONARY
  5
EF
102
{ACAD_REACTORS
330
C
102
}
330
C
100
AcDbDictionary
281
     1
  0
DICTIONARY
  5
2A
102
{ACAD_REACTORS
330
C
102
}
330
C
100
AcDbDictionary
281
     1
  3
2dWireframe
350
2F
  3
3D Hidden
350
31
  3
3dWireframe
350
30
  3
Basic
350
32
  3
Brighten
350
36
  3
ColorChange
350
3A
  3
Conceptual
350
34
  3
Dim
350
35
  3
Facepattern
350
39
  3
Flat
350
2B
  3
FlatWithEdges
350
2C
  3
Gouraud
350
2D
  3
GouraudWithEdges
350
2E
  3
Linepattern
350
38
  3
Realistic
350
33
  3
Thicken
350
37
  0
LAYOUT
  5
1E
102
{ACAD_REACTORS
330
1A
102
}
330
1A
100
AcDbPlotSettings
  1

  2
none_device
  4

  6

 40
0.0
 41
0.0
 42
0.0
 43
0.0
 44
0.0
 45
0.0
 46
0.0
 47
0.0
 48
0.0
 49
0.0
140
0.0
141
0.0
142
1.0
143
1.0
 70
   688
 72
     0
 73
     0
 74
     5
  7

 75
    16
 76
     0
 77
     2
 78
   300
147
1.0
148
0.0
149
0.0
100
AcDbLayout
  1
Layout1
 70
     1
 71
     1
 10
0.0
 20
0.0
 11
12.0
 21
9.0
 12
0.0
 22
0.0
 32
0.0
 14
1.000000000000000E+20
 24
1.000000000000000E+20
 34
1.000000000000000E+20
 15
-1.000000000000000E+20
 25
-1.000000000000000E+20
 35
-1.000000000000000E+20
146
0.0
 13
0.0
 23
0.0
 33
0.0
 16
1.0
 26
0.0
 36
0.0
 17
0.0
 27
1.0
 37
0.0
 76
     0
330
1B
  0
LAYOUT
  5
26
102
{ACAD_REACTORS
330
1A
102
}
330
1A
100
AcDbPlotSettings
  1

  2
none_device
  4

  6

 40
0.0
 41
0.0
 42
0.0
 43
0.0
 44
0.0
 45
0.0
 46
0.0
 47
0.0
 48
0.0
 49
0.0
140
0.0
141
0.0
142
1.0
143
1.0
 70
   688
 72
     0
 73
     0
 74
     5
  7

 75
    16
 76
     0
 77
     2
 78
   300
147
1.0
148
0.0
149
0.0
100
AcDbLayout
  1
Layout2
 70
     1
 71
     2
 10
0.0
 20
0.0
 11
0.0
 21
0.0
 12
0.0
 22
0.0
 32
0.0
 14
0.0
 24
0.0
 34
0.0
 15
0.0
 25
0.0
 35
0.0
146
0.0
 13
0.0
 23
0.0
 33
0.0
 16
1.0
 26
0.0
 36
0.0
 17
0.0
 27
1.0
 37
0.0
 76
     0
330
23
  0
LAYOUT
  5
22
102
{ACAD_REACTORS
330
1A
102
}
330
1A
100
AcDbPlotSettings
  1

  2
none_device
  4

  6

 40
0.0
 41
0.0
 42
0.0
 43
0.0
 44
0.0
 45
0.0
 46
0.0
 47
0.0
 48
0.0
 49
0.0
140
0.0
141
0.0
142
1.0
143
1.0
 70
  1712
 72
     0
 73
     0
 74
     0
  7

 75
     0
 76
     0
 77
     2
 78
   300
147
1.0
148
0.0
149
0.0
100
AcDbLayout
  1
Model
 70
     1
 71
     0
 10
0.0
 20
0.0
 11
12.0
 21
9.0
 12
0.0
 22
0.0
 32
0.0
 14
-37.74943007999249
 24
-0.0000000002171134
 34
0.0
 15
78.20028928075433
 25
65.13795852298665
 35
0.0
146
0.0
 13
0.0
 23
0.0
 33
0.0
 16
1.0
 26
0.0
 36
0.0
 17
0.0
 27
1.0
 37
0.0
 76
     0
330
1F
331
29
  0
MLINESTYLE
  5
18
102
{ACAD_REACTORS
330
17
102
}
330
17
100
AcDbMlineStyle
  2
Standard
 70
     0
  3

 62
   256
 51
90.0
 52
90.0
 71
     2
 49
0.5
 62
   256
  6
BYLAYER
 49
-0.5
 62
   256
  6
BYLAYER
  0
ACDBPLACEHOLDER
  5
F
102
{ACAD_REACTORS
330
E
102
}
330
E
  0
VISUALSTYLE
  5
2F
102
{ACAD_REACTORS
330
2A
102
}
330
2A
100
AcDbVisualStyle
  2
2dWireframe
 70
     4
 71
     0
 72
     2
 73
     0
 90
        0
 40
-0.6
 41
-30.0
 62
     5
 63
     7
421
 16777215
 74
     1
 91
        4
 64
     7
 65
   257
 75
     1
175
     1
 42
1.0
 92
        0
 66
   257
 43
1.0
 76
     1
 77
     6
 78
     2
 67
     7
 79
     5
170
     0
171
     0
290
     0
174
     0
 93
        1
 44
0.0
173
     0
291
     0
 45
0.0
1001
ACAD
1000
AcDbSavedByObjectVersion
1070
     0
  0
VISUALSTYLE
  5
31
102
{ACAD_REACTORS
330
2A
102
}
330
2A
100
AcDbVisualStyle
  2
3D Hidden
 70
     6
 71
     1
 72
     2
 73
     2
 90
        0
 40
-0.6
 41
-30.0
 62
     5
 63
     7
421
 16777215
 74
     2
 91
        2
 64
     7
 65
   257
 75
     2
175
     1
 42
40.0
 92
        0
 66
   257
 43
1.0
 76
     1
 77
     6
 78
     2
 67
     7
 79
     3
170
     0
171
     0
290
     0
174
     0
 93
        1
 44
0.0
173
     0
291
     0
 45
0.0
1001
ACAD
1000
AcDbSavedByObjectVersion
1070
     0
  0
VISUALSTYLE
  5
30
102
{ACAD_REACTORS
330
2A
102
}
330
2A
100
AcDbVisualStyle
  2
3dWireframe
 70
     5
 71
     0
 72
     2
 73
     0
 90
        0
 40
-0.6
 41
-30.0
 62
     5
 63
     7
421
 16777215
 74
     1
 91
        4
 64
     7
 65
   257
 75
     1
175
     1
 42
1.0
 92
        0
 66
   257
 43
1.0
 76
     1
 77
     6
 78
     2
 67
     7
 79
     5
170
     0
171
     0
290
     0
174
     0
 93
        1
 44
0.0
173
     0
291
     0
 45
0.0
1001
ACAD
1000
AcDbSavedByObjectVersion
1070
     0
  0
VISUALSTYLE
  5
32
102
{ACAD_REACTORS
330
2A
102
}
330
2A
100
AcDbVisualStyle
  2
Basic
 70
     7
 71
     1
 72
     0
 73
     1
 90
        0
 40
-0.6
 41
-30.0
 62
     5
 63
     7
421
 16777215
 74
     0
 91
        4
 64
     7
 65
   257
 75
     1
175
     1
 42
1.0
 92
        8
 66
     7
 43
1.0
 76
     1
 77
     6
 78
     2
 67
     7
 79
     5
170
     0
171
     0
290
     0
174
     0
 93
        1
 44
0.0
173
     0
291
     1
 45
0.0
1001
ACAD
1000
AcDbSavedByObjectVersion
1070
     0
  0
VISUALSTYLE
  5
36
102
{ACAD_REACTORS
330
2A
102
}
330
2A
100
AcDbVisualStyle
  2
Brighten
 70
    12
 71
     2
 72
     2
 73
     0
 90
        0
 40
-0.6
 41
-30.0
 62
     5
 63
     7
421
 16777215
 74
     1
 91
        4
 64
     7
 65
   257
 75
     1
175
     1
 42
1.0
 92
        8
 66
     7
 43
1.0
 76
     1
 77
     6
 78
     2
 67
     7
 79
     5
170
     0
171
     0
290
     0
174
     0
 93
        1
 44
50.0
173
     0
291
     1
 45
0.0
1001
ACAD
1000
AcDbSavedByObjectVersion
1070
     0
  0
VISUALSTYLE
  5
3A
102
{ACAD_REACTORS
330
2A
102
}
330
2A
100
AcDbVisualStyle
  2
ColorChange
 70
    16
 71
     2
 72
     2
 73
     3
 90
        0
 40
-0.6
 41
-30.0
 62
     5
 63
     8
421
  8421504
 74
     1
 91
        4
 64
     7
 65
   257
 75
     1
175
     1
 42
1.0
 92
        8
 66
     8
424
  8421504
 43
1.0
 76
     1
 77
     6
 78
     2
 67
     7
 79
     5
170
     0
171
     0
290
     0
174
     0
 93
        1
 44
0.0
173
     0
291
     1
 45
0.0
1001
ACAD
1000
AcDbSavedByObjectVersion
1070
     0
  0
VISUALSTYLE
  5
34
102
{ACAD_REACTORS
330
2A
102
}
330
2A
100
AcDbVisualStyle
  2
Conceptual
 70
     9
 71
     3
 72
     2
 73
     0
 90
        0
 40
-0.6
 41
-30.0
 62
     5
 63
     7
421
 16777215
 74
     2
 91
        2
 64
     7
 65
   257
 75
     1
175
     1
 42
40.0
 92
        8
 66
     7
 43
1.0
 76
     1
 77
     6
 78
     2
 67
     7
 79
     3
170
     0
171
     0
290
     0
174
     0
 93
        1
 44
0.0
173
     0
291
     0
 45
0.0
1001
ACAD
1000
AcDbSavedByObjectVersion
1070
     0
  0
VISUALSTYLE
  5
35
102
{ACAD_REACTORS
330
2A
102
}
330
2A
100
AcDbVisualStyle
  2
Dim
 70
    11
 71
     2
 72
     2
 73
     0
 90
        0
 40
-0.6
 41
-30.0
 62
     5
 63
     7
421
 16777215
 74
     1
 91
        4
 64
     7
 65
   257
 75
     1
175
     1
 42
1.0
 92
        8
 66
     7
 43
1.0
 76
     1
 77
     6
 78
     2
 67
     7
 79
     5
170
     0
171
     0
290
     0
174
     0
 93
        1
 44
-50.0
173
     0
291
     1
 45
0.0
1001
ACAD
1000
AcDbSavedByObjectVersion
1070
     0
  0
VISUALSTYLE
  5
39
102
{ACAD_REACTORS
330
2A
102
}
330
2A
100
AcDbVisualStyle
  2
Facepattern
 70
    15
 71
     2
 72
     2
 73
     0
 90
        0
 40
-0.6
 41
-30.0
 62
     5
 63
     7
421
 16777215
 74
     1
 91
        4
 64
     7
 65
   257
 75
     1
175
     1
 42
1.0
 92
        8
 66
     7
 43
1.0
 76
     1
 77
     6
 78
     2
 67
     7
 79
     5
170
     0
171
     0
290
     0
174
     0
 93
        1
 44
0.0
173
     0
291
     1
 45
0.0
1001
ACAD
1000
AcDbSavedByObjectVersion
1070
     0
  0
VISUALSTYLE
  5
2B
102
{ACAD_REACTORS
330
2A
102
}
330
2A
100
AcDbVisualStyle
  2
Flat
 70
     0
 71
     2
 72
     1
 73
     1
 90
        2
 40
-0.6
 41
30.0
 62
     5
 63
     7
421
 16777215
 74
     0
 91
        4
 64
     7
 65
   257
 75
     1
175
     1
 42
1.0
 92
        8
 66
     7
 43
1.0
 76
     1
 77
     6
 78
     2
 67
     7
 79
     5
170
     0
171
     0
290
     0
174
     0
 93
       13
 44
0.0
173
     0
291
     1
 45
0.0
1001
ACAD
1000
AcDbSavedByObjectVersion
1070
     0
  0
VISUALSTYLE
  5
2C
102
{ACAD_REACTORS
330
2A
102
}
330
2A
100
AcDbVisualStyle
  2
FlatWithEdges
 70
     1
 71
     2
 72
     1
 73
     1
 90
        2
 40
-0.6
 41
30.0
 62
     5
 63
     7
421
 16777215
 74
     1
 91
        4
 64
     7
 65
   257
 75
     1
175
     1
 42
1.0
 92
        0
 66
   257
 43
1.0
 76
     1
 77
     6
 78
     2
 67
     7
 79
     5
170
     0
171
     0
290
     0
174
     0
 93
       13
 44
0.0
173
     0
291
     1
 45
0.0
1001
ACAD
1000
AcDbSavedByObjectVersion
1070
     0
  0
VISUALSTYLE
  5
2D
102
{ACAD_REACTORS
330
2A
102
}
330
2A
100
AcDbVisualStyle
  2
Gouraud
 70
     2
 71
     2
 72
     2
 73
     1
 90
        2
 40
-0.6
 41
30.0
 62
     5
 63
     7
421
 16777215
 74
     0
 91
        4
 64
     7
 65
   257
 75
     1
175
     1
 42
1.0
 92
        0
 66
     7
 43
1.0
 76
     1
 77
     6
 78
     2
 67
     7
 79
     5
170
     0
171
     0
290
     0
174
     0
 93
       13
 44
0.0
173
     0
291
     1
 45
0.0
1001
ACAD
1000
AcDbSavedByObjectVersion
1070
     0
  0
VISUALSTYLE
  5
2E
102
{ACAD_REACTORS
330
2A
102
}
330
2A
100
AcDbVisualStyle
  2
GouraudWithEdges
 70
     3
 71
     2
 72
     2
 73
     1
 90
        2
 40
-0.6
 41
30.0
 62
     5
 63
     7
421
 16777215
 74
     1
 91
        4
 64
     7
 65
   257
 75
     1
175
     1
 42
1.0
 92
        0
 66
   257
 43
1.0
 76
     1
 77
     6
 78
     2
 67
     7
 79
     5
170
     0
171
     0
290
     0
174
     0
 93
       13
 44
0.0
173
     0
291
     1
 45
0.0
1001
ACAD
1000
AcDbSavedByObjectVersion
1070
     0
  0
VISUALSTYLE
  5
38
102
{ACAD_REACTORS
330
2A
102
}
330
2A
100
AcDbVisualStyle
  2
Linepattern
 70
    14
 71
     2
 72
     2
 73
     0
 90
        0
 40
-0.6
 41
-30.0
 62
     5
 63
     7
421
 16777215
 74
     1
 91
        4
 64
     7
 65
   257
 75
     7
175
     7
 42
1.0
 92
        8
 66
     7
 43
1.0
 76
     1
 77
     6
 78
     2
 67
     7
 79
     5
170
     0
171
     0
290
     0
174
     0
 93
        1
 44
0.0
173
     0
291
     1
 45
0.0
1001
ACAD
1000
AcDbSavedByObjectVersion
1070
     0
  0
VISUALSTYLE
  5
33
102
{ACAD_REACTORS
330
2A
102
}
330
2A
100
AcDbVisualStyle
  2
Realistic
 70
     8
 71
     2
 72
     2
 73
     0
 90
        0
 40
-0.6
 41
-30.0
 62
     5
 63
     7
421
 16777215
 74
     1
 91
        0
 64
     7
 65
   257
 75
     1
175
     1
 42
1.0
 92
        8
 66
     8
424
  7895160
 43
1.0
 76
     1
 77
     6
 78
     2
 67
     7
 79
     5
170
     0
171
     0
290
     0
174
     0
 93
       13
 44
0.0
173
     0
291
     0
 45
0.0
1001
ACAD
1000
AcDbSavedByObjectVersion
1070
     0
  0
VISUALSTYLE
  5
37
102
{ACAD_REACTORS
330
2A
102
}
330
2A
100
AcDbVisualStyle
  2
Thicken
 70
    13
 71
     2
 72
     2
 73
     0
 90
        0
 40
-0.6
 41
-30.0
 62
     5
 63
     7
421
 16777215
 74
     1
 91
        4
 64
     7
 65
   257
 75
     1
175
     1
 42
1.0
 92
       12
 66
     7
 43
1.0
 76
     1
 77
     6
 78
     2
 67
     7
 79
     5
170
     0
171
     0
290
     0
174
     0
 93
        1
 44
0.0
173
     0
291
     1
 45
0.0
1001
ACAD
1000
AcDbSavedByObjectVersion
1070
     0
  0
ENDSEC
  0
EOF
