  0
SECTION
  2
HEADER
  9
$ACADVER
  1
AC1018
  9
$ACADMAINTVER
 70
     0
  9
$DWGCODEPAGE
  3
ANSI_1252
  9
$INSBASE
 10
0.0
 20
0.0
 30
0.0
  9
$EXTMIN
 10
-37.74943007999249
 20
-0.0000000002171134
 30
0.0
  9
$EXTMAX
 10
78.20028928075422
 20
65.13795852298665
 30
0.0
  9
$LIMMIN
 10
0.0
 20
0.0
  9
$LIMMAX
 10
12.0
 20
9.0
  9
$ORTHOMODE
 70
     0
  9
$REGENMODE
 70
     1
  9
$FILLMODE
 70
     1
  9
$QTEXTMODE
 70
     0
  9
$MIRRTEXT
 70
     1
  9
$LTSCALE
 40
0.0393700787401575
  9
$ATTMODE
 70
     1
  9
$TEXTSIZE
 40
0.2
  9
$TRACEWID
 40
0.05
  9
$TEXTSTYLE
  7
Standard
  9
$CLAYER
  8
Default
  9
$CELTYPE
  6
ByLayer
  9
$CECOLOR
 62
   256
  9
$CELTSCALE
 40
1.0
  9
$DISPSILH
 70
     0
  9
$DIMSCALE
 40
1.0
  9
$DIMASZ
 40
0.18
  9
$DIMEXO
 40
0.0625
  9
$DIMDLI
 40
0.38
  9
$DIMRND
 40
0.0
  9
$DIMDLE
 40
0.0
  9
$DIMEXE
 40
0.18
  9
$DIMTP
 40
0.0
  9
$DIMTM
 40
0.0
  9
$DIMTXT
 40
0.18
  9
$DIMCEN
 40
0.09
  9
$DIMTSZ
 40
0.0
  9
$DIMTOL
 70
     0
  9
$DIMLIM
 70
     0
  9
$DIMTIH
 70
     1
  9
$DIMTOH
 70
     1
  9
$DIMSE1
 70
     0
  9
$DIMSE2
 70
     0
  9
$DIMTAD
 70
     0
  9
$DIMZIN
 70
     0
  9
$DIMBLK
  1

  9
$DIMASO
 70
     1
  9
$DIMSHO
 70
     1
  9
$DIMPOST
  1

  9
$DIMAPOST
  1

  9
$DIMALT
 70
     0
  9
$DIMALTD
 70
     2
  9
$DIMALTF
 40
25.4
  9
$DIMLFAC
 40
1.0
  9
$DIMTOFL
 70
     0
  9
$DIMTVP
 40
0.0
  9
$DIMTIX
 70
     0
  9
$DIMSOXD
 70
     0
  9
$DIMSAH
 70
     0
  9
$DIMBLK1
  1

  9
$DIMBLK2
  1

  9
$DIMSTYLE
  2
Standard
  9
$DIMCLRD
 70
     0
  9
$DIMCLRE
 70
     0
  9
$DIMCLRT
 70
     0
  9
$DIMTFAC
 40
1.0
  9
$DIMGAP
 40
0.09
  9
$DIMJUST
 70
     0
  9
$DIMSD1
 70
     0
  9
$DIMSD2
 70
     0
  9
$DIMTOLJ
 70
     1
  9
$DIMTZIN
 70
     0
  9
$DIMALTZ
 70
     0
  9
$DIMALTTZ
 70
     0
  9
$DIMUPT
 70
     0
  9
$DIMDEC
 70
     4
  9
$DIMTDEC
 70
     4
  9
$DIMALTU
 70
     2
  9
$DIMALTTD
 70
     2
  9
$DIMTXSTY
  7
Standard
  9
$DIMAUNIT
 70
     0
  9
$DIMADEC
 70
     0
  9
$DIMALTRND
 40
0.0
  9
$DIMAZIN
 70
     0
  9
$DIMDSEP
 70
    46
  9
$DIMATFIT
 70
     3
  9
$DIMFRAC
 70
     0
  9
$DIMLDRBLK
  1

  9
$DIMLUNIT
 70
     2
  9
$DIMLWD
 70
    -2
  9
$DIMLWE
 70
    -2
  9
$DIMTMOVE
 70
     2
  9
$LUNITS
 70
     2
  9
$LUPREC
 70
     3
  9
$SKETCHINC
 40
0.1
  9
$FILLETRAD
 40
0.5
  9
$AUNITS
 70
     0
  9
$AUPREC
 70
     0
  9
$MENU
  1
.
  9
$ELEVATION
 40
0.0
  9
$PELEVATION
 40
0.0
  9
$THICKNESS
 40
0.0
  9
$LIMCHECK
 70
     0
  9
$CHAMFERA
 40
0.5
  9
$CHAMFERB
 40
0.5
  9
$CHAMFERC
 40
1.0
  9
$CHAMFERD
 40
0.0
  9
$SKPOLY
 70
     0
  9
$TDCREATE
 40
2458148.941618403
  9
$TDUCREATE
 40
2458149.149951736
  9
$TDUPDATE
 40
2458148.941618414
  9
$TDUUPDATE
 40
2458149.149951748
  9
$TDINDWG
 40
0.0000000116
  9
$TDUSRTIMER
 40
0.0000000116
  9
$USRTIMER
 70
     1
  9
$ANGBASE
 50
0.0
  9
$ANGDIR
 70
     0
  9
$PDMODE
 70
     0
  9
$PDSIZE
 40
0.0
  9
$PLINEWID
 40
0.0
  9
$SPLFRAME
 70
     0
  9
$SPLINETYPE
 70
     6
  9
$SPLINESEGS
 70
     8
  9
$HANDSEED
  5
F9
  9
$SURFTAB1
 70
     6
  9
$SURFTAB2
 70
     6
  9
$SURFTYPE
 70
     6
  9
$SURFU
 70
     6
  9
$SURFV
 70
     6
  9
$UCSBASE
  2

  9
$UCSNAME
  2

  9
$UCSORG
 10
0.0
 20
0.0
 30
0.0
  9
$UCSXDIR
 10
1.0
 20
0.0
 30
0.0
  9
$UCSYDIR
 10
0.0
 20
1.0
 30
0.0
  9
$UCSORTHOREF
  2

  9
$UCSORTHOVIEW
 70
     0
  9
$UCSORGTOP
 10
0.0
 20
0.0
 30
0.0
  9
$UCSORGBOTTOM
 10
0.0
 20
0.0
 30
0.0
  9
$UCSORGLEFT
 10
0.0
 20
0.0
 30
0.0
  9
$UCSORGRIGHT
 10
0.0
 20
0.0
 30
0.0
  9
$UCSORGFRONT
 10
0.0
 20
0.0
 30
0.0
  9
$UCSORGBACK
 10
0.0
 20
0.0
 30
0.0
  9
$PUCSBASE
  2

  9
$PUCSNAME
  2

  9
$PUCSORG
 10
0.0
 20
0.0
 30
0.0
  9
$PUCSXDIR
 10
1.0
 20
0.0
 30
0.0
  9
$PUCSYDIR
 10
0.0
 20
1.0
 30
0.0
  9
$PUCSORTHOREF
  2

  9
$PUCSORTHOVIEW
 70
     0
  9
$PUCSORGTOP
 10
0.0
 20
0.0
 30
0.0
  9
$PUCSORGBOTTOM
 10
0.0
 20
0.0
 30
0.0
  9
$PUCSORGLEFT
 10
0.0
 20
0.0
 30
0.0
  9
$PUCSORGRIGHT
 10
0.0
 20
0.0
 30
0.0
  9
$PUCSORGFRONT
 10
0.0
 20
0.0
 30
0.0
  9
$PUCSORGBACK
 10
0.0
 20
0.0
 30
0.0
  9
$USERI1
 70
     0
  9
$USERI2
 70
     0
  9
$USERI3
 70
     0
  9
$USERI4
 70
     0
  9
$USERI5
 70
     0
  9
$USERR1
 40
0.0
  9
$USERR2
 40
0.0
  9
$USERR3
 40
0.0
  9
$USERR4
 40
0.0
  9
$USERR5
 40
0.0
  9
$WORLDVIEW
 70
     1
  9
$SHADEDGE
 70
     3
  9
$SHADEDIF
 70
    70
  9
$TILEMODE
 70
     1
  9
$MAXACTVP
 70
    64
  9
$PINSBASE
 10
0.0
 20
0.0
 30
0.0
  9
$PLIMCHECK
 70
     0
  9
$PEXTMIN
 10
1.000000000000000E+20
 20
1.000000000000000E+20
 30
1.000000000000000E+20
  9
$PEXTMAX
 10
-1.000000000000000E+20
 20
-1.000000000000000E+20
 30
-1.000000000000000E+20
  9
$PLIMMIN
 10
0.0
 20
0.0
  9
$PLIMMAX
 10
12.0
 20
9.0
  9
$UNITMODE
 70
     0
  9
$VISRETAIN
 70
     1
  9
$PLINEGEN
 70
     0
  9
$PSLTSCALE
 70
     1
  9
$TREEDEPTH
 70
  3020
  9
$CMLSTYLE
  2
Standard
  9
$CMLJUST
 70
     0
  9
$CMLSCALE
 40
1.0
  9
$PROXYGRAPHICS
 70
     1
  9
$MEASUREMENT
 70
     0
  9
$CELWEIGHT
370
    -1
  9
$ENDCAPS
280
     0
  9
$JOINSTYLE
280
     0
  9
$LWDISPLAY
290
     0
  9
$INSUNITS
 70
     1
  9
$HYPERLINKBASE
  1

  9
$STYLESHEET
  1

  9
$XEDIT
290
     1
  9
$CEPSNTYPE
380
     0
  9
$PSTYLEMODE
290
     1
  9
$FINGERPRINTGUID
  2
{C13C019F-35BA-4FF7-8B34-6A2EF3E8D25C}
  9
$VERSIONGUID
  2
{FAEB1C32-E019-11D5-929B-00C0DF256EC4}
  9
$EXTNAMES
290
     1
  9
$PSVPSCALE
 40
0.0
  9
$OLESTARTUP
290
     0
  9
$SORTENTS
280
   127
  9
$INDEXCTL
280
     0
  9
$HIDETEXT
280
     1
  9
$XCLIPFRAME
290
     0
  9
$HALOGAP
280
     0
  9
$OBSCOLOR
 70
   257
  9
$OBSLTYPE
280
     0
  9
$INTERSECTIONDISPLAY
280
     0
  9
$INTERSECTIONCOLOR
 70
   257
  9
$DIMASSOC
280
     2
  9
$PROJECTNAME
  1

  0
ENDSEC
  0
SECTION
  2
CLASSES
  0
CLASS
  1
ACDBDICTIONARYWDFLT
  2
AcDbDictionaryWithDefault
  3
ObjectDBX Classes
 90
        0
 91
        4
280
     0
281
     0
  0
CLASS
  1
VISUALSTYLE
  2
AcDbVisualStyle
  3
ObjectDBX Classes
 90
     4095
 91
        4
280
     0
281
     0
  0
ENDSEC
  0
SECTION
  2
TABLES
  0
TABLE
  2
VPORT
  5
8
330
0
100
AcDbSymbolTable
 70
     1
  0
VPORT
  5
29
330
8
100
AcDbSymbolTableRecord
100
AcDbViewportTableRecord
  2
*Active
 70
     0
 10
0.0
 20
0.0
 11
1.0
 21
1.0
 12
20.22542960038086
 22
32.56897926138477
 13
0.0
 23
0.0
 14
0.5
 24
0.5
 15
0.5
 25
0.5
 16
0.0
 26
0.0
 36
1.0
 17
0.0
 27
0.0
 37
0.0
 40
66.44071769366784
 41
1.780063759895738
 42
50.0
 43
0.0
 44
0.0
 50
0.0
 51
0.0
 71
     0
 72
   100
 73
     1
 74
     3
 75
     0
 76
     0
 77
     0
 78
     0
281
     0
 65
     1
110
0.0
120
0.0
130
0.0
111
1.0
121
0.0
131
0.0
112
0.0
122
1.0
132
0.0
 79
     0
146
0.0
  0
ENDTAB
  0
TABLE
  2
LTYPE
  5
5
330
0
100
AcDbSymbolTable
 70
     1
  0
LTYPE
  5
14
330
5
100
AcDbSymbolTableRecord
100
AcDbLinetypeTableRecord
  2
ByBlock
 70
     0
  3

 72
    65
 73
     0
 40
0.0
  0
LTYPE
  5
15
330
5
100
AcDbSymbolTableRecord
100
AcDbLinetypeTableRecord
  2
ByLayer
 70
     0
  3

 72
    65
 73
     0
 40
0.0
  0
LTYPE
  5
16
330
5
100
AcDbSymbolTableRecord
100
AcDbLinetypeTableRecord
  2
Continuous
 70
     0
  3
Solid line
 72
    65
 73
     0
 40
0.0
  0
ENDTAB
  0
TABLE
  2
LAYER
  5
2
330
0
100
AcDbSymbolTable
 70
     2
  0
LAYER
  5
10
330
2
100
AcDbSymbolTableRecord
100
AcDbLayerTableRecord
  2
0
 70
     0
 62
     7
  6
Continuous
370
    -3
390
F
  0
LAYER
  5
3B
330
2
100
AcDbSymbolTableRecord
100
AcDbLayerTableRecord
  2
Default
 70
     0
 62
     7
  6
Continuous
370
    -3
390
F
  0
ENDTAB
  0
TABLE
  2
STYLE
  5
3
330
0
100
AcDbSymbolTable
 70
     1
  0
STYLE
  5
11
330
3
100
AcDbSymbolTableRecord
100
AcDbTextStyleTableRecord
  2
Standard
 70
     0
 40
0.0
 41
1.0
 50
0.0
 71
     0
 42
0.2
  3
txt
  4

  0
ENDTAB
  0
TABLE
  2
VIEW
  5
6
330
0
100
AcDbSymbolTable
 70
     0
  0
ENDTAB
  0
TABLE
  2
UCS
  5
7
330
0
100
AcDbSymbolTable
 70
     0
  0
ENDTAB
  0
TABLE
  2
APPID
  5
9
330
0
100
AcDbSymbolTable
 70
     1
  0
APPID
  5
12
330
9
100
AcDbSymbolTableRecord
100
AcDbRegAppTableRecord
  2
ACAD
 70
     0
  0
ENDTAB
  0
TABLE
  2
DIMSTYLE
  5
A
330
0
100
AcDbSymbolTable
 70
     1
100
AcDbDimStyleTable
  0
DIMSTYLE
105
27
330
A
100
AcDbSymbolTableRecord
100
AcDbDimStyleTableRecord
  2
Standard
 70
     0
340
11
  0
ENDTAB
  0
TABLE
  2
BLOCK_RECORD
  5
1
330
0
100
AcDbSymbolTable
 70
     1
  0
BLOCK_RECORD
  5
1F
330
1
100
AcDbSymbolTableRecord
100
AcDbBlockTableRecord
  2
*Model_Space
340
22
  0
BLOCK_RECORD
  5
1B
330
1
100
AcDbSymbolTableRecord
100
AcDbBlockTableRecord
  2
*Paper_Space
340
1E
  0
BLOCK_RECORD
  5
23
330
1
100
AcDbSymbolTableRecord
100
AcDbBlockTableRecord
  2
*Paper_Space0
340
26
  0
ENDTAB
  0
ENDSEC
  0
SECTION
  2
BLOCKS
  0
BLOCK
  5
20
330
1F
100
AcDbEntity
  8
0
100
AcDbBlockBegin
  2
*Model_Space
 70
     0
 10
0.0
 20
0.0
 30
0.0
  3
*Model_Space
  1

  0
ENDBLK
  5
21
330
1F
100
AcDbEntity
  8
0
100
AcDbBlockEnd
  0
BLOCK
  5
1C
330
1B
100
AcDbEntity
 67
     1
  8
0
100
AcDbBlockBegin
  2
*Paper_Space
 70
     0
 10
0.0
 20
0.0
 30
0.0
  3
*Paper_Space
  1

  0
ENDBLK
  5
1D
330
1B
100
AcDbEntity
 67
     1
  8
0
100
AcDbBlockEnd
  0
BLOCK
  5
24
330
23
100
AcDbEntity
  8
0
100
AcDbBlockBegin
  2
*Paper_Space0
 70
     0
 10
0.0
 20
0.0
 30
0.0
  3
*Paper_Space0
  1

  0
ENDBLK
  5
25
330
23
100
AcDbEntity
  8
0
100
AcDbBlockEnd
  0
ENDSEC
  0
SECTION
  2
ENTITIES
  0
SPLINE
  5
3C
330
1F
100
AcDbEntity
  8
Default
100
AcDbSpline
210
0.0
220
0.0
230
1.0
 70
    15
 71
     2
 72
    20
 73
    17
 74
     0
 42
0.0000000001
 43
0.0000000001
 40
201.8561944901975
 40
201.8561944901975
 40
201.8561944901975
 40
264.3561944901974
 40
264.3561944901974
 40
265.1415926535949
 40
265.1415926535949
 40
289.1415926535967
 40
289.1415926535967
 40
289.9269908169941
 40
289.9269908169941
 40
352.4269908169941
 40
352.4269908169941
 40
353.2123889803915
 40
353.2123889803915
 40
377.2123889803932
 40
377.2123889803932
 40
377.9977871437907
 40
377.9977871437907
 40
377.9977871437907
 10
-37.24943007999249
 20
58.84086407428856
 30
0.0
 41
1.0
 10
-10.06724358063499
 20
58.84086407428856
 30
0.0
 41
1.0
 10
12.30154401907114
 20
58.84086407428856
 30
0.0
 41
1.0
 10
12.80154401907125
 20
58.84086407428855
 30
0.0
 41
0.7071067811865375
 10
12.80154401907114
 20
58.34086407428856
 30
0.0
 41
1.0
 10
12.80154401907114
 20
52.63795852298577
 30
0.0
 41
1.0
 10
12.80154401907114
 20
40.63795852298492
 30
0.0
 41
1.0
 10
12.80154401907115
 20
40.13795852298492
 30
0.0
 41
0.7071067811865551
 10
12.30154401907114
 20
40.13795852298492
 30
0.0
 41
1.0
 10
-10.06724358063499
 20
40.13795852298492
 30
0.0
 41
1.0
 10
-37.24943007999249
 20
40.13795852298492
 30
0.0
 41
1.0
 10
-37.74943007999254
 20
40.13795852298492
 30
0.0
 41
0.7071067811865476
 10
-37.74943007999249
 20
40.63795852298492
 30
0.0
 41
1.0
 10
-37.74943007999249
 20
52.63795852298578
 30
0.0
 41
1.0
 10
-37.74943007999249
 20
58.34086407428856
 30
0.0
 41
1.0
 10
-37.74943007999256
 20
58.84086407428856
 30
0.0
 41
0.707106781186545
 10
-37.24943007999249
 20
58.84086407428856
 30
0.0
 41
1.0
  0
SPLINE
  5
3D
330
1F
100
AcDbEntity
  8
Default
100
AcDbSpline
210
0.0
220
0.0
230
1.0
 70
    15
 71
     2
 72
    20
 73
    17
 74
     0
 42
0.0000000001
 43
0.0000000001
 40
-6482.241760176043
 40
-6482.241760176043
 40
-6482.241760176043
 40
-6480.991760176043
 40
-6480.991760176043
 40
-6480.599061094345
 40
-6480.599061094345
 40
-6417.599061094345
 40
-6417.599061094345
 40
-6417.206362012646
 40
-6417.206362012646
 40
-6415.956362012646
 40
-6415.956362012646
 40
-6415.563662930947
 40
-6415.563662930947
 40
-6352.563662930947
 40
-6352.563662930947
 40
-6352.170963849248
 40
-6352.170963849248
 40
-6352.170963849248
 10
37.7494260601699
 20
12.87500000239919
 30
0.0
 41
1.0
 10
37.74942606016972
 20
13.50000000239919
 30
0.0
 41
1.0
 10
37.74942606016955
 20
14.12500000239919
 30
0.0
 41
1.0
 10
37.7494260601696
 20
14.37500000239918
 30
0.0
 41
0.7071067811865476
 10
37.49942606016955
 20
14.37500000239919
 30
0.0
 41
1.0
 10
0.000002298337364
 20
14.37500000239919
 30
0.0
 41
1.0
 10
-37.49942146349471
 20
14.37500000239919
 30
0.0
 41
1.0
 10
-37.74942146349483
 20
14.37500000239918
 30
0.0
 41
0.7071067811865426
 10
-37.74942146349471
 20
14.12500000239919
 30
0.0
 41
1.0
 10
-37.74942146349483
 20
13.50000000239919
 30
0.0
 41
1.0
 10
-37.74942146349494
 20
12.87500000239919
 30
0.0
 41
1.0
 10
-37.74942146349498
 20
12.62500000239891
 30
0.0
 41
0.7071067811861858
 10
-37.49942146349471
 20
12.62500000239913
 30
0.0
 41
1.0
 10
0.0000022983375914
 20
12.62500000239916
 30
0.0
 41
1.0
 10
37.4994260601699
 20
12.62500000239919
 30
0.0
 41
1.0
 10
37.7494260601699
 20
12.62500000239918
 30
0.0
 41
0.707106781186545
 10
37.7494260601699
 20
12.87500000239919
 30
0.0
 41
1.0
  0
POLYLINE
  5
3E
330
1F
100
AcDbEntity
  8
Default
100
AcDb2dPolyline
 66
     1
 10
0.0
 20
0.0
 30
0.0
  0
VERTEX
  5
3F
330
3E
100
AcDbEntity
  8
Default
100
AcDbVertex
100
AcDb2dVertex
 10
13.55154401907114
 20
40.1879585229858
 30
0.0
  0
VERTEX
  5
40
330
3E
100
AcDbEntity
  8
Default
100
AcDbVertex
100
AcDb2dVertex
 10
36.95154401907112
 20
40.1879585229858
 30
0.0
  0
SEQEND
  5
41
330
3E
100
AcDbEntity
  8
Default
  0
ARC
  5
42
330
1F
100
AcDbEntity
  8
Default
100
AcDbCircle
 10
36.95154401907118
 20
40.9379585229858
 30
0.0
 40
0.75
100
AcDbArc
 50
269.9999999999968
 51
359.9999999999973
  0
POLYLINE
  5
43
330
1F
100
AcDbEntity
  8
Default
100
AcDb2dPolyline
 66
     1
 10
0.0
 20
0.0
 30
0.0
  0
VERTEX
  5
44
330
43
100
AcDbEntity
  8
Default
100
AcDbVertex
100
AcDb2dVertex
 10
37.70154401907118
 20
40.9379585229858
 30
0.0
  0
VERTEX
  5
45
330
43
100
AcDbEntity
  8
Default
100
AcDbVertex
100
AcDb2dVertex
 10
37.70154401907118
 20
64.33795852298579
 30
0.0
  0
SEQEND
  5
46
330
43
100
AcDbEntity
  8
Default
  0
ARC
  5
47
330
1F
100
AcDbEntity
  8
Default
100
AcDbCircle
 10
36.95154401907118
 20
64.33795852298579
 30
0.0
 40
0.75
100
AcDbArc
 50
0.0
 51
90.00000000000054
  0
POLYLINE
  5
48
330
1F
100
AcDbEntity
  8
Default
100
AcDb2dPolyline
 66
     1
 10
0.0
 20
0.0
 30
0.0
  0
VERTEX
  5
49
330
48
100
AcDbEntity
  8
Default
100
AcDbVertex
100
AcDb2dVertex
 10
36.95154401907112
 20
65.08795852298579
 30
0.0
  0
VERTEX
  5
4A
330
48
100
AcDbEntity
  8
Default
100
AcDbVertex
100
AcDb2dVertex
 10
13.55154401907114
 20
65.08795852298579
 30
0.0
  0
SEQEND
  5
4B
330
48
100
AcDbEntity
  8
Default
  0
ARC
  5
4C
330
1F
100
AcDbEntity
  8
Default
100
AcDbCircle
 10
13.55154401907114
 20
64.33795852298579
 30
0.0
 40
0.75
100
AcDbArc
 50
90.0
 51
180.0
  0
POLYLINE
  5
4D
330
1F
100
AcDbEntity
  8
Default
100
AcDb2dPolyline
 66
     1
 10
0.0
 20
0.0
 30
0.0
  0
VERTEX
  5
4E
330
4D
100
AcDbEntity
  8
Default
100
AcDbVertex
100
AcDb2dVertex
 10
12.80154401907114
 20
64.33795852298579
 30
0.0
  0
VERTEX
  5
4F
330
4D
100
AcDbEntity
  8
Default
100
AcDbVertex
100
AcDb2dVertex
 10
12.80154401907114
 20
40.9379585229858
 30
0.0
  0
SEQEND
  5
50
330
4D
100
AcDbEntity
  8
Default
  0
ARC
  5
51
330
1F
100
AcDbEntity
  8
Default
100
AcDbCircle
 10
13.55154401907114
 20
40.9379585229858
 30
0.0
 40
0.75
100
AcDbArc
 50
180.0
 51
270.0
  0
POLYLINE
  5
52
330
1F
100
AcDbEntity
  8
Default
100
AcDb2dPolyline
 66
     1
 10
0.0
 20
0.0
 30
0.0
  0
VERTEX
  5
53
330
52
100
AcDbEntity
  8
Default
100
AcDbVertex
100
AcDb2dVertex
 10
14.30155263556875
 20
14.37500000239919
 30
0.0
  0
VERTEX
  5
54
330
52
100
AcDbEntity
  8
Default
100
AcDbVertex
100
AcDb2dVertex
 10
36.20155263556873
 20
14.37500000239919
 30
0.0
  0
VERTEX
  5
55
330
52
100
AcDbEntity
  8
Default
100
AcDbVertex
100
AcDb2dVertex
 10
36.20155263556873
 20
14.62500000239919
 30
0.0
  0
VERTEX
  5
56
330
52
100
AcDbEntity
  8
Default
100
AcDbVertex
100
AcDb2dVertex
 10
14.30155263556875
 20
14.62500000239919
 30
0.0
  0
VERTEX
  5
57
330
52
100
AcDbEntity
  8
Default
100
AcDbVertex
100
AcDb2dVertex
 10
14.30155263556875
 20
14.37500000239919
 30
0.0
  0
SEQEND
  5
58
330
52
100
AcDbEntity
  8
Default
  0
POLYLINE
  5
59
330
1F
100
AcDbEntity
  8
Default
100
AcDb2dPolyline
 66
     1
 10
0.0
 20
0.0
 30
0.0
  0
VERTEX
  5
5A
330
59
100
AcDbEntity
  8
Default
100
AcDbVertex
100
AcDb2dVertex
 10
12.8015526355687
 20
14.62500000239919
 30
0.0
  0
VERTEX
  5
5B
330
59
100
AcDbEntity
  8
Default
100
AcDbVertex
100
AcDb2dVertex
 10
37.70155263556873
 20
14.62500000239919
 30
0.0
  0
VERTEX
  5
5C
330
59
100
AcDbEntity
  8
Default
100
AcDbVertex
100
AcDb2dVertex
 10
37.70155263556873
 20
15.37500000239919
 30
0.0
  0
VERTEX
  5
5D
330
59
100
AcDbEntity
  8
Default
100
AcDbVertex
100
AcDb2dVertex
 10
12.8015526355687
 20
15.37500000239919
 30
0.0
  0
VERTEX
  5
5E
330
59
100
AcDbEntity
  8
Default
100
AcDbVertex
100
AcDb2dVertex
 10
12.8015526355687
 20
14.62500000239919
 30
0.0
  0
SEQEND
  5
5F
330
59
100
AcDbEntity
  8
Default
  0
SPLINE
  5
60
330
1F
100
AcDbEntity
  8
Default
100
AcDbSpline
210
0.0
220
0.0
230
1.0
 70
    15
 71
     2
 72
    22
 73
    19
 74
     0
 42
0.0000000001
 43
0.0000000001
 40
-2581.011064848845
 40
-2581.011064848845
 40
-2581.011064848845
 40
-2578.139015056563
 40
-2578.139015056563
 40
-2577.353616893166
 40
-2577.353616893166
 40
-2553.353616935937
 40
-2553.353616935937
 40
-2552.568218772539
 40
-2552.568218772539
 40
-2549.696168980258
 40
-2549.696168980258
 40
-2549.303469898559
 40
-2549.303469898559
 40
-2526.10221994133
 40
-2526.10221994133
 40
-2524.803469941329
 40
-2524.803469941329
 40
-2524.41077085963
 40
-2524.41077085963
 40
-2524.41077085963
 10
59.50008128821858
 20
14.62503914793996
 30
0.0
 41
1.0
 10
59.50008128821864
 20
16.06106404408075
 30
0.0
 41
1.0
 10
59.50008128821869
 20
17.49708894022154
 30
0.0
 41
1.0
 10
59.50008128821867
 20
17.99708894022156
 30
0.0
 41
0.7071067811865426
 10
60.00008128821869
 20
17.99708894022154
 30
0.0
 41
1.0
 10
65.70028925936711
 20
17.99708894022154
 30
0.0
 41
1.0
 10
77.70028923798182
 20
17.99708894022154
 30
0.0
 41
1.0
 10
78.20028923798185
 20
17.99708894022154
 30
0.0
 41
0.7071067811865627
 10
78.20028923798182
 20
17.49708894022154
 30
0.0
 41
1.0
 10
78.20028923798193
 20
16.06106404408075
 30
0.0
 41
1.0
 10
78.20028923798205
 20
14.62503914793996
 30
0.0
 41
1.0
 10
78.20028923798208
 20
14.37503914793996
 30
0.0
 41
0.7071067811865426
 10
77.95028923798205
 20
14.37503914793996
 30
0.0
 41
1.0
 10
66.34966425936764
 20
14.37503914793996
 30
0.0
 41
1.0
 10
61.04883128821953
 20
14.37503914793996
 30
0.0
 41
1.0
 10
60.39945628821911
 20
14.37503914793996
 30
0.0
 41
1.0
 10
59.75008128821869
 20
14.37503914793996
 30
0.0
 41
1.0
 10
59.50008128821862
 20
14.37503914793988
 30
0.0
 41
0.707106781186427
 10
59.50008128821858
 20
14.62503914793996
 30
0.0
 41
1.0
  0
LINE
  5
61
330
1F
100
AcDbEntity
  8
Default
100
AcDbLine
 10
53.43505728314713
 20
14.37545611180573
 30
0.0
 11
54.46802275474701
 21
14.37545611180573
 31
0.0
  0
POLYLINE
  5
62
330
1F
100
AcDbEntity
  8
Default
100
AcDb2dPolyline
 66
     1
 10
0.0
 20
0.0
 30
0.0
  0
VERTEX
  5
63
330
62
100
AcDbEntity
  8
Default
100
AcDbVertex
100
AcDb2dVertex
 10
54.46802275474701
 20
14.37545611180573
 30
0.0
  0
VERTEX
  5
64
330
62
100
AcDbEntity
  8
Default
100
AcDbVertex
100
AcDb2dVertex
 10
59.26342140828208
 20
14.37545611180573
 30
0.0
  0
SEQEND
  5
65
330
62
100
AcDbEntity
  8
Default
  0
SPLINE
  5
66
330
1F
100
AcDbEntity
  8
Default
100
AcDbSpline
210
0.0
220
0.0
230
1.0
 70
    12
 71
     2
 72
     6
 73
     3
 74
     0
 42
0.0000000001
 43
0.0000000001
 40
0.0
 40
0.0
 40
0.0
 40
0.3786001376135906
 40
0.3786001376135906
 40
0.3786001376135906
 10
59.26342140828208
 20
14.37545611180573
 30
0.0
 41
1.0
 10
59.49927863916537
 20
14.3897354913445
 30
0.0
 41
0.7267410359880693
 10
59.49830556895589
 20
14.62602989237629
 30
0.0
 41
1.0
  0
SPLINE
  5
67
330
1F
100
AcDbEntity
  8
Default
100
AcDbSpline
210
0.0
220
0.0
230
1.0
 70
    12
 71
     2
 72
     6
 73
     3
 74
     0
 42
0.0000000001
 43
0.0000000001
 40
-0.0017423404607927
 40
-0.0017423404607927
 40
-0.0017423404607927
 40
0.0
 40
0.0
 40
0.0
 10
59.49830556895589
 20
14.62602989237629
 30
0.0
 41
1.0
 10
59.49917868324587
 20
14.62609694547728
 30
0.0
 41
0.9994397703759269
 10
59.50005020776392
 20
14.62606046745052
 30
0.0
 41
0.9999999586676036
  0
LINE
  5
68
330
1F
100
AcDbEntity
  8
Default
100
AcDbLine
 10
59.50005020776391
 20
14.62606046745054
 30
0.0
 11
59.50005020556685
 21
17.31204279830689
 31
0.0
  0
SPLINE
  5
69
330
1F
100
AcDbEntity
  8
Default
100
AcDbSpline
210
0.0
220
0.0
230
1.0
 70
     8
 71
     3
 72
    14
 73
    10
 74
     0
 42
0.0000000001
 43
0.0000000001
 40
-12.26203533468478
 40
-12.26203533468478
 40
-12.26203533468478
 40
-12.26203533468478
 40
-10.74358193232705
 40
-8.947613819412345
 40
-7.141201977474322
 40
-5.367291970666196
 40
-2.433620593354017
 40
-1.183560743342271
 40
0.0
 40
0.0
 40
0.0
 40
0.0
 10
59.50005020556685
 20
17.31204279830689
 30
0.0
 10
59.49095754964938
 20
17.81810309943509
 30
0.0
 10
59.44099509750029
 20
18.92216990809669
 30
0.0
 10
59.28710536098211
 20
20.62237700348935
 30
0.0
 10
59.067752104221
 20
22.40137396918736
 30
0.0
 10
58.72087681409747
 20
24.54498231632816
 30
0.0
 10
58.28369220114055
 20
26.48463194237473
 30
0.0
 10
57.73440168931452
 20
28.18873419803595
 30
0.0
 10
57.42878383909155
 20
28.94065262518302
 30
0.0
 10
57.26490635856115
 20
29.29960367785272
 30
0.0
  0
LINE
  5
6A
330
1F
100
AcDbEntity
  8
Default
100
AcDbLine
 10
57.26490635856115
 20
29.29960367785272
 30
0.0
 11
57.25405718658502
 21
29.32336729496976
 31
0.0
  0
ARC
  5
6B
330
1F
100
AcDbEntity
  8
Default
100
AcDbCircle
 10
56.7992172641398
 20
29.11571218438954
 30
0.0
 40
0.5
100
AcDbArc
 50
24.53885410444715
 51
80.99917740315651
  0
SPLINE
  5
6C
330
1F
100
AcDbEntity
  8
Default
100
AcDbSpline
210
0.0
220
0.0
230
1.0
 70
    12
 71
     2
 72
     6
 73
     3
 74
     0
 42
0.0000000001
 43
0.0000000001
 40
-1.629194543905347
 40
-1.629194543905347
 40
-1.629194543905347
 40
0.0
 40
0.0
 40
0.0
 10
56.8774415867841
 20
29.60955523166959
 30
0.0
 41
0.9999618433163424
 10
56.070977764299
 20
29.7372984217347
 30
0.0
 41
0.9964642919834154
 10
55.25450602944644
 20
29.72857341259279
 30
0.0
 41
0.999999996566831
  0
SPLINE
  5
6D
330
1F
100
AcDbEntity
  8
Default
100
AcDbSpline
210
0.0
220
0.0
230
1.0
 70
    12
 71
     2
 72
     6
 73
     3
 74
     0
 42
0.0000000001
 43
0.0000000001
 40
0.0
 40
0.0
 40
0.0
 40
1.638033214271802
 40
1.638033214271802
 40
1.638033214271802
 10
55.25450602944644
 20
29.72857341259279
 30
0.0
 41
0.999999996566831
 10
54.43358898755412
 20
29.73734592533206
 30
0.0
 41
0.9964451101567618
 10
53.62285125516453
 20
29.60817005188505
 30
0.0
 41
1.0
  0
SPLINE
  5
6E
330
1F
100
AcDbEntity
  8
Default
100
AcDbSpline
210
0.0
220
0.0
230
1.0
 70
    12
 71
     2
 72
     6
 73
     3
 74
     0
 42
0.0000000001
 43
0.0000000001
 40
0.0
 40
0.0
 40
0.0
 40
0.7070700636718217
 40
0.7070700636718217
 40
0.7070700636718217
 10
53.62285125516453
 20
29.60817005188505
 30
0.0
 41
1.0
 10
53.20085502529334
 20
29.54153760515117
 30
0.0
 41
0.760266553890503
 10
53.20083575608018
 20
29.11431336970455
 30
0.0
 41
1.0
  0
SPLINE
  5
6F
330
1F
100
AcDbEntity
  8
Default
100
AcDbSpline
210
0.0
220
0.0
230
1.0
 70
    24
 71
     2
 72
     6
 73
     3
 74
     0
 42
0.0000000001
 43
0.0000000001
 40
-14.4893020002786
 40
-14.4893020002786
 40
-14.4893020002786
 40
0.0
 40
0.0
 40
0.0
 10
53.20083575608018
 20
29.11431336970455
 30
0.0
 10
53.20049689081651
 20
21.86966207037342
 30
0.0
 10
53.20015802555284
 20
14.6250107710423
 30
0.0
  0
SPLINE
  5
70
330
1F
100
AcDbEntity
  8
Default
100
AcDbSpline
210
0.0
220
0.0
230
1.0
 70
    12
 71
     2
 72
     6
 73
     3
 74
     0
 42
0.0000000001
 43
0.0000000001
 40
0.0
 40
0.0
 40
0.0
 40
0.3761352932874497
 40
0.3761352932874497
 40
0.3761352932874497
 10
53.20015802555284
 20
14.6250107710423
 30
0.0
 41
1.0
 10
53.20014550468657
 20
14.38966848008359
 30
0.0
 41
0.7194662149251728
 10
53.43505728314714
 20
14.37545611180574
 30
0.0
 41
0.9763257704015883
  0
ARC
  5
71
330
1F
100
AcDbEntity
  8
Default
100
AcDbCircle
 10
10315.62735545774
 20
-414.3754196209939
 30
0.0
 40
10246.45187490584
100
AcDbArc
 50
177.680177975183
 51
177.6814389168693
  0
LINE
  5
72
330
1F
100
AcDbEntity
  8
Default
100
AcDbLine
 10
77.57294645441644
 20
0.3750391479403845
 30
0.0
 11
76.44794118024154
 21
0.3750391479403845
 31
0.0
  0
LINE
  5
73
330
1F
100
AcDbEntity
  8
Default
100
AcDbLine
 10
76.44794118024154
 20
0.3750391479403845
 30
0.0
 11
76.45929710227895
 21
0.1496421885582038
 31
0.0
  0
SPLINE
  5
74
330
1F
100
AcDbEntity
  8
Default
100
AcDbSpline
210
0.0
220
0.0
230
1.0
 70
    12
 71
     2
 72
     6
 73
     3
 74
     0
 42
0.0000000001
 43
0.0000000001
 40
-0.2387149143318927
 40
-0.2387149143318927
 40
-0.2387149143318927
 40
0.0
 40
0.0
 40
0.0
 10
76.45929710227895
 20
0.1496421885582038
 30
0.0
 41
1.0
 10
76.4653890445127
 20
-0.0000384788826898
 30
0.0
 41
0.7212476062221478
 10
76.61566910440811
 20
0.0000003945672802
 30
0.0
 41
1.0
  0
SPLINE
  5
75
330
1F
100
AcDbEntity
  8
Default
100
AcDbSpline
210
0.0
220
0.0
230
1.0
 70
    12
 71
     2
 72
     6
 73
     3
 74
     0
 42
0.0000000001
 43
0.0000000001
 40
0.0
 40
0.0
 40
0.0
 40
0.3954244124017839
 40
0.3954244124017839
 40
0.3954244124017839
 10
76.61566910440811
 20
0.0000003945672802
 30
0.0
 41
1.0
 10
76.81385707405862
 20
0.0000274211329071
 30
0.0
 41
0.999999999289049
 10
77.0115692800056
 20
0.0000391457582793
 30
0.0
 41
1.0
  0
SPLINE
  5
76
330
1F
100
AcDbEntity
  8
Default
100
AcDbSpline
210
0.0
220
0.0
230
1.0
 70
    24
 71
     2
 72
     6
 73
     3
 74
     0
 42
0.0000000001
 43
0.0000000001
 40
0.0
 40
0.0
 40
0.0
 40
0.3954243890795226
 40
0.3954243890795226
 40
0.3954243890795226
 10
77.0115692800056
 20
0.0000391457582793
 30
0.0
 10
77.20951936354945
 20
0.0000391464777749
 30
0.0
 10
77.40746944709329
 20
0.0000391471972705
 30
0.0
  0
SPLINE
  5
77
330
1F
100
AcDbEntity
  8
Default
100
AcDbSpline
210
0.0
220
0.0
230
1.0
 70
    12
 71
     2
 72
     6
 73
     3
 74
     0
 42
0.0000000001
 43
0.0000000001
 40
-0.2387271341672585
 40
-0.2387271341672585
 40
-0.2387271341672585
 40
0.0
 40
0.0
 40
0.0
 10
77.40746944709329
 20
0.0000391471972705
 30
0.0
 41
1.0
 10
77.55775267436636
 20
0.0000391477218271
 30
0.0
 41
0.7212776802320741
 10
77.56382127813279
 20
0.1497242040884146
 30
0.0
 41
1.0
  0
SPLINE
  5
78
330
1F
100
AcDbEntity
  8
Default
100
AcDbSpline
210
0.0
220
0.0
230
1.0
 70
     8
 71
     3
 72
    12
 73
     8
 74
     0
 42
0.0000000001
 43
0.0000000001
 40
0.0
 40
0.0
 40
0.0
 40
0.0
 40
1.0
 40
2.0
 40
3.0
 40
4.0
 40
5.0
 40
5.0
 40
5.0
 40
5.0
 10
75.99780486992589
 20
12.62503918825035
 30
0.0
 10
76.0142017646904
 20
12.49412383179848
 30
0.0
 10
76.23625368450692
 20
12.34303393060617
 30
0.0
 10
76.59727079185458
 20
12.2627180002051
 30
0.0
 10
76.97300432939025
 20
12.26322850250835
 30
0.0
 10
77.33429861689424
 20
12.34265459674313
 30
0.0
 10
77.55597658797095
 20
12.49439055061359
 30
0.0
 10
77.57280472824542
 20
12.62498982757822
 30
0.0
  0
SPLINE
  5
79
330
1F
100
AcDbEntity
  8
Default
100
AcDbSpline
210
0.0
220
0.0
230
1.0
 70
    24
 71
     2
 72
     6
 73
     3
 74
     0
 42
0.0000000001
 43
0.0000000001
 40
0.0
 40
0.0
 40
0.0
 40
1.250000000000004
 40
1.250000000000004
 40
1.250000000000004
 10
53.20028928075274
 20
14.12503914793996
 30
0.0
 10
53.20028928075257
 20
13.50003914793996
 30
0.0
 10
53.2002892807524
 20
12.87503914793996
 30
0.0
  0
ARC
  5
7A
330
1F
100
AcDbEntity
  8
Default
100
AcDbCircle
 10
53.4502892807524
 20
12.87503914793996
 30
0.0
 40
0.25
100
AcDbArc
 50
180.0
 51
270.0
  0
LINE
  5
7B
330
1F
100
AcDbEntity
  8
Default
100
AcDbLine
 10
53.4502892807524
 20
12.62503914793996
 30
0.0
 11
77.9502892807541
 21
12.62503914793996
 31
0.0
  0
ARC
  5
7C
330
1F
100
AcDbEntity
  8
Default
100
AcDbCircle
 10
77.9502892807541
 20
12.87503914793996
 30
0.0
 40
0.25
100
AcDbArc
 50
270.000000000013
 51
359.9999999999935
  0
SPLINE
  5
7D
330
1F
100
AcDbEntity
  8
Default
100
AcDbSpline
210
0.0
220
0.0
230
1.0
 70
    24
 71
     2
 72
     6
 73
     3
 74
     0
 42
0.0000000001
 43
0.0000000001
 40
0.0
 40
0.0
 40
0.0
 40
1.250000000000004
 40
1.250000000000004
 40
1.250000000000004
 10
78.2002892807541
 20
12.87503914793996
 30
0.0
 10
78.20028928075416
 20
13.50003914793996
 30
0.0
 10
78.20028928075422
 20
14.12503914793996
 30
0.0
  0
ARC
  5
7E
330
1F
100
AcDbEntity
  8
Default
100
AcDbCircle
 10
77.95028928075422
 20
14.12503914793996
 30
0.0
 40
0.25
100
AcDbArc
 50
359.9999999999992
 51
90.0
  0
LINE
  5
7F
330
1F
100
AcDbEntity
  8
Default
100
AcDbLine
 10
77.95028928075422
 20
14.37503914793996
 30
0.0
 11
53.7002892807528
 21
14.37503914793996
 31
0.0
  0
LINE
  5
80
330
1F
100
AcDbEntity
  8
Default
100
AcDbLine
 10
53.7002892807528
 20
14.37503914793996
 30
0.0
 11
53.4502892807524
 21
14.37503914793996
 31
0.0
  0
ARC
  5
81
330
1F
100
AcDbEntity
  8
Default
100
AcDbCircle
 10
53.45028928075274
 20
14.12503914793996
 30
0.0
 40
0.25
100
AcDbArc
 50
90.0000000000684
 51
180.0000000000024
  0
SPLINE
  5
82
330
1F
100
AcDbEntity
  8
Default
100
AcDbSpline
210
0.0
220
0.0
230
1.0
 70
    12
 71
     2
 72
     6
 73
     3
 74
     0
 42
0.0000000001
 43
0.0000000001
 40
-0.7825548902353026
 40
-0.7825548902353026
 40
-0.7825548902353026
 40
0.0
 40
0.0
 40
0.0
 10
75.49850665256238
 20
10.30071586202212
 30
0.0
 41
1.0
 10
75.99641474687958
 20
10.30219105879808
 30
0.0
 41
0.7091100515193309
 10
75.99776260879335
 20
10.79994551539292
 30
0.0
 41
1.0
  0
LINE
  5
83
330
1F
100
AcDbEntity
  8
Default
100
AcDbLine
 10
75.99776260879335
 20
10.79994551539292
 30
0.0
 11
75.9977886744339
 21
12.62503914793996
 31
0.0
  0
POLYLINE
  5
84
330
1F
100
AcDbEntity
  8
Default
100
AcDb2dPolyline
 66
     1
 10
0.0
 20
0.0
 30
0.0
  0
VERTEX
  5
85
330
84
100
AcDbEntity
  8
Default
100
AcDbVertex
100
AcDb2dVertex
 10
75.9977886744339
 20
12.62503914793996
 30
0.0
  0
VERTEX
  5
86
330
84
100
AcDbEntity
  8
Default
100
AcDbVertex
100
AcDb2dVertex
 10
77.57278918451064
 20
12.62503914793996
 30
0.0
  0
SEQEND
  5
87
330
84
100
AcDbEntity
  8
Default
  0
LINE
  5
88
330
1F
100
AcDbEntity
  8
Default
100
AcDbLine
 10
77.57278918451064
 20
12.62503914793996
 30
0.0
 11
77.57278922691663
 21
8.523832748022102
 31
0.0
  0
SPLINE
  5
89
330
1F
100
AcDbEntity
  8
Default
100
AcDbSpline
210
0.0
220
0.0
230
1.0
 70
    12
 71
     5
 72
    12
 73
     6
 74
     0
 42
0.0000000001
 43
0.0000000001
 40
-0.0000000000115655
 40
-0.0000000000115655
 40
-0.0000000000115655
 40
-0.0000000000115655
 40
-0.0000000000115655
 40
-0.0000000000115655
 40
0.9922383364707964
 40
0.9922383364707964
 40
0.9922383364707964
 40
0.9922383364707964
 40
0.9922383364707964
 40
0.9922383364707964
 10
77.57278922691663
 20
8.523832748022102
 30
0.0
 41
1.0
 10
77.57278912387804
 20
6.906723733638387
 30
0.0
 41
1.0
 10
77.57432917473287
 20
5.28999874261649
 30
0.0
 41
1.0
 10
77.57735417074346
 20
3.673665990484096
 30
0.0
 41
1.0
 10
77.57693699061613
 20
2.056446236198724
 30
0.0
 41
1.0
 10
77.57294674466701
 20
0.438327709682369
 30
0.0
 41
1.0
  0
SPLINE
  5
8A
330
1F
100
AcDbEntity
  8
Default
100
AcDbSpline
210
0.0
220
0.0
230
1.0
 70
    12
 71
     2
 72
     6
 73
     3
 74
     0
 42
0.0000000001
 43
0.0000000001
 40
0.0
 40
0.0
 40
0.0
 40
0.0876876088231114
 40
0.0876876088231114
 40
0.0876876088231114
 10
77.57294674466701
 20
0.438327709682369
 30
0.0
 41
1.0
 10
77.57318753854776
 20
0.3857006415266954
 30
0.0
 41
0.7674574304402552
 10
77.52144358285082
 20
0.376097031102347
 30
0.0
 41
1.0
  0
POLYLINE
  5
8B
330
1F
100
AcDbEntity
  8
Default
100
AcDb2dPolyline
 66
     1
 10
0.0
 20
0.0
 30
0.0
  0
VERTEX
  5
8C
330
8B
100
AcDbEntity
  8
Default
100
AcDbVertex
100
AcDb2dVertex
 10
77.52144358285082
 20
0.376097031102347
 30
0.0
  0
VERTEX
  5
8D
330
8B
100
AcDbEntity
  8
Default
100
AcDbVertex
100
AcDb2dVertex
 10
76.49661940661647
 20
0.3760291938065166
 30
0.0
  0
SEQEND
  5
8E
330
8B
100
AcDbEntity
  8
Default
  0
SPLINE
  5
8F
330
1F
100
AcDbEntity
  8
Default
100
AcDbSpline
210
0.0
220
0.0
230
1.0
 70
    12
 71
     2
 72
     6
 73
     3
 74
     0
 42
0.0000000001
 43
0.0000000001
 40
0.0
 40
0.0
 40
0.0
 40
0.0846250291315599
 40
0.0846250291315599
 40
0.0846250291315599
 10
76.49661940661647
 20
0.3760291938065166
 30
0.0
 41
1.0
 10
76.4473273120842
 20
0.3848725235289587
 30
0.0
 41
0.7828101505964009
 10
76.44482246423391
 20
0.4349040010501994
 30
0.0
 41
1.0
  0
SPLINE
  5
90
330
1F
100
AcDbEntity
  8
Default
100
AcDbSpline
210
0.0
220
0.0
230
1.0
 70
    12
 71
     5
 72
    12
 73
     6
 74
     0
 42
0.0000000001
 43
0.0000000001
 40
-0.9926563385080105
 40
-0.9926563385080105
 40
-0.9926563385080105
 40
-0.9926563385080105
 40
-0.9926563385080105
 40
-0.9926563385080105
 40
0.0000000000115655
 40
0.0000000000115655
 40
0.0000000000115655
 40
0.0000000000115655
 40
0.0000000000115655
 40
0.0000000000115655
 10
76.44482246423391
 20
0.4349040010501994
 30
0.0
 41
1.0
 10
76.36455109729664
 20
2.053720817427831
 30
0.0
 41
1.0
 10
76.28128384875859
 20
3.671623239166394
 30
0.0
 41
1.0
 10
76.19512531620038
 20
5.288636897332367
 30
0.0
 41
1.0
 10
76.11020716251599
 20
6.906042847420849
 30
0.0
 41
1.0
 10
76.02657471710623
 20
8.523832748022102
 30
0.0
 41
1.0
  0
SPLINE
  5
91
330
1F
100
AcDbEntity
  8
Default
100
AcDbSpline
210
0.0
220
0.0
230
1.0
 70
    12
 71
     2
 72
     6
 73
     3
 74
     0
 42
0.0000000001
 43
0.0000000001
 40
-0.082649365308941
 40
-0.082649365308941
 40
-0.082649365308941
 40
0.0
 40
0.0
 40
0.0
 10
76.02657471710623
 20
8.523832748022102
 30
0.0
 41
1.0
 10
76.02445428720809
 20
8.565102993962563
 30
0.0
 41
0.9999999883852876
 10
76.02232336702482
 20
8.606814936584982
 30
0.0
 41
1.0
  0
SPLINE
  5
92
330
1F
100
AcDbEntity
  8
Default
100
AcDbSpline
210
0.0
220
0.0
230
1.0
 70
    12
 71
     2
 72
     6
 73
     3
 74
     0
 42
0.0000000001
 43
0.0000000001
 40
0.0
 40
0.0
 40
0.0
 40
0.7576113662501209
 40
0.7576113662501209
 40
0.7576113662501209
 10
76.02232336702482
 20
8.606814936584982
 30
0.0
 41
1.0
 10
75.99718388132032
 20
9.079543739913545
 30
0.0
 41
0.72648491075732
 10
75.52361709171291
 20
9.080707515794899
 30
0.0
 41
1.0
  0
SPLINE
  5
93
330
1F
100
AcDbEntity
  8
Default
100
AcDbSpline
210
0.0
220
0.0
230
1.0
 70
    24
 71
     2
 72
     6
 73
     3
 74
     0
 42
0.0000000001
 43
0.0000000001
 40
0.0
 40
0.0
 40
0.0
 40
19.64792944108129
 40
19.64792944108129
 40
19.64792944108129
 10
75.52361709171291
 20
9.080707515794899
 30
0.0
 10
65.69903928075317
 20
9.080707515794899
 30
0.0
 10
55.87446146979343
 20
9.080707515794899
 30
0.0
  0
SPLINE
  5
94
330
1F
100
AcDbEntity
  8
Default
100
AcDbSpline
210
0.0
220
0.0
230
1.0
 70
    12
 71
     2
 72
     6
 73
     3
 74
     0
 42
0.0000000001
 43
0.0000000001
 40
-0.7576113662501209
 40
-0.7576113662501209
 40
-0.7576113662501209
 40
0.0
 40
0.0
 40
0.0
 10
55.87446146979343
 20
9.080707515794899
 30
0.0
 41
1.0
 10
55.40089468018602
 20
9.079543739913545
 30
0.0
 41
0.72648491075732
 10
55.37575519448157
 20
8.606814936584982
 30
0.0
 41
1.0
  0
SPLINE
  5
95
330
1F
100
AcDbEntity
  8
Default
100
AcDbSpline
210
0.0
220
0.0
230
1.0
 70
    12
 71
     2
 72
     6
 73
     3
 74
     0
 42
0.0000000001
 43
0.0000000001
 40
0.0
 40
0.0
 40
0.0
 40
0.082649365308941
 40
0.082649365308941
 40
0.082649365308941
 10
55.37575519448157
 20
8.606814936584982
 30
0.0
 41
1.0
 10
55.37362427429819
 20
8.565102993962563
 30
0.0
 41
0.9999999883852876
 10
55.37150384440011
 20
8.523832748022102
 30
0.0
 41
1.0
  0
SPLINE
  5
96
330
1F
100
AcDbEntity
  8
Default
100
AcDbSpline
210
0.0
220
0.0
230
1.0
 70
    12
 71
     5
 72
    12
 73
     6
 74
     0
 42
0.0000000001
 43
0.0000000001
 40
-0.0000000000115655
 40
-0.0000000000115655
 40
-0.0000000000115655
 40
-0.0000000000115655
 40
-0.0000000000115655
 40
-0.0000000000115655
 40
0.9926563385080105
 40
0.9926563385080105
 40
0.9926563385080105
 40
0.9926563385080105
 40
0.9926563385080105
 40
0.9926563385080105
 10
55.37150384440011
 20
8.523832748022102
 30
0.0
 41
1.0
 10
55.28787139899035
 20
6.906042847420849
 30
0.0
 41
1.0
 10
55.20295324530602
 20
5.288636897332367
 30
0.0
 41
1.0
 10
55.1167947127478
 20
3.671623239166394
 30
0.0
 41
1.0
 10
55.03352746420975
 20
2.053720817427831
 30
0.0
 41
1.0
 10
54.95325609727249
 20
0.4349040010501994
 30
0.0
 41
1.0
  0
SPLINE
  5
97
330
1F
100
AcDbEntity
  8
Default
100
AcDbSpline
210
0.0
220
0.0
230
1.0
 70
    12
 71
     2
 72
     6
 73
     3
 74
     0
 42
0.0000000001
 43
0.0000000001
 40
-0.0846250291315599
 40
-0.0846250291315599
 40
-0.0846250291315599
 40
0.0
 40
0.0
 40
0.0
 10
54.95325609727249
 20
0.4349040010501994
 30
0.0
 41
1.0
 10
54.9507512494222
 20
0.3848725235289587
 30
0.0
 41
0.7828101505964009
 10
54.90145915488986
 20
0.3760291938065166
 30
0.0
 41
1.0
  0
POLYLINE
  5
98
330
1F
100
AcDbEntity
  8
Default
100
AcDb2dPolyline
 66
     1
 10
0.0
 20
0.0
 30
0.0
  0
VERTEX
  5
99
330
98
100
AcDbEntity
  8
Default
100
AcDbVertex
100
AcDb2dVertex
 10
54.90145915488986
 20
0.3760291938065166
 30
0.0
  0
VERTEX
  5
9A
330
98
100
AcDbEntity
  8
Default
100
AcDbVertex
100
AcDb2dVertex
 10
53.87663497865557
 20
0.376097031102347
 30
0.0
  0
SEQEND
  5
9B
330
98
100
AcDbEntity
  8
Default
  0
SPLINE
  5
9C
330
1F
100
AcDbEntity
  8
Default
100
AcDbSpline
210
0.0
220
0.0
230
1.0
 70
    12
 71
     2
 72
     6
 73
     3
 74
     0
 42
0.0000000001
 43
0.0000000001
 40
-0.0876876088231114
 40
-0.0876876088231114
 40
-0.0876876088231114
 40
0.0
 40
0.0
 40
0.0
 10
53.87663497865557
 20
0.376097031102347
 30
0.0
 41
1.0
 10
53.82489102295862
 20
0.3857006415266954
 30
0.0
 41
0.7674574304402552
 10
53.82513181683933
 20
0.438327709682369
 30
0.0
 41
1.0
  0
SPLINE
  5
9D
330
1F
100
AcDbEntity
  8
Default
100
AcDbSpline
210
0.0
220
0.0
230
1.0
 70
    12
 71
     5
 72
    12
 73
     6
 74
     0
 42
0.0000000001
 43
0.0000000001
 40
-0.9922383364707964
 40
-0.9922383364707964
 40
-0.9922383364707964
 40
-0.9922383364707964
 40
-0.9922383364707964
 40
-0.9922383364707964
 40
0.0000000000115655
 40
0.0000000000115655
 40
0.0000000000115655
 40
0.0000000000115655
 40
0.0000000000115655
 40
0.0000000000115655
 10
53.82513181683933
 20
0.438327709682369
 30
0.0
 41
1.0
 10
53.82114157089026
 20
2.056446236198724
 30
0.0
 41
1.0
 10
53.82072439076288
 20
3.673665990484096
 30
0.0
 41
1.0
 10
53.82374938677353
 20
5.28999874261649
 30
0.0
 41
1.0
 10
53.82528943762836
 20
6.906723733638387
 30
0.0
 41
1.0
 10
53.82528933458971
 20
8.523832748022102
 30
0.0
 41
1.0
  0
LINE
  5
9E
330
1F
100
AcDbEntity
  8
Default
100
AcDbLine
 10
53.82528933458971
 20
8.523832748022102
 30
0.0
 11
53.82528937699576
 21
12.62503914793996
 31
0.0
  0
POLYLINE
  5
9F
330
1F
100
AcDbEntity
  8
Default
100
AcDb2dPolyline
 66
     1
 10
0.0
 20
0.0
 30
0.0
  0
VERTEX
  5
A0
330
9F
100
AcDbEntity
  8
Default
100
AcDbVertex
100
AcDb2dVertex
 10
53.82528937699576
 20
12.62503914793996
 30
0.0
  0
VERTEX
  5
A1
330
9F
100
AcDbEntity
  8
Default
100
AcDbVertex
100
AcDb2dVertex
 10
55.40028988707249
 20
12.62503914793996
 30
0.0
  0
SEQEND
  5
A2
330
9F
100
AcDbEntity
  8
Default
  0
LINE
  5
A3
330
1F
100
AcDbEntity
  8
Default
100
AcDbLine
 10
55.40028988707249
 20
12.62503914793996
 30
0.0
 11
55.40031595271304
 21
10.79994551539292
 31
0.0
  0
SPLINE
  5
A4
330
1F
100
AcDbEntity
  8
Default
100
AcDbSpline
210
0.0
220
0.0
230
1.0
 70
    12
 71
     2
 72
     6
 73
     3
 74
     0
 42
0.0000000001
 43
0.0000000001
 40
0.0
 40
0.0
 40
0.0
 40
0.7825548902353026
 40
0.7825548902353026
 40
0.7825548902353026
 10
55.40031595271304
 20
10.79994551539292
 30
0.0
 41
1.0
 10
55.40166381462675
 20
10.30219105879808
 30
0.0
 41
0.7091100515193309
 10
55.89957190894395
 20
10.30071586202212
 30
0.0
 41
1.0
  0
SPLINE
  5
A5
330
1F
100
AcDbEntity
  8
Default
100
AcDbSpline
210
0.0
220
0.0
230
1.0
 70
    24
 71
     2
 72
     6
 73
     3
 74
     0
 42
0.0000000001
 43
0.0000000001
 40
0.0
 40
0.0
 40
0.0
 40
19.59744819239467
 40
19.59744819239467
 40
19.59744819239467
 10
55.89957190894395
 20
10.30071586202212
 30
0.0
 10
65.69903928075317
 20
10.30071586202212
 30
0.0
 10
75.49850665256238
 20
10.30071586202212
 30
0.0
  0
SPLINE
  5
A6
330
1F
100
AcDbEntity
  8
Default
100
AcDbSpline
210
0.0
220
0.0
230
1.0
 70
    24
 71
     2
 72
     6
 73
     3
 74
     0
 42
0.0000000001
 43
0.0000000001
 40
0.0
 40
0.0
 40
0.0
 40
0.003885868834095
 40
0.003885868834095
 40
0.003885868834095
 10
55.40028928595311
 20
12.62106376877136
 30
0.0
 10
55.40028928973058
 20
12.61912083435432
 30
0.0
 10
55.40028929350805
 20
12.61717789993727
 30
0.0
  0
ARC
  5
A7
330
1F
100
AcDbEntity
  8
Default
100
AcDbCircle
 10
-10184.22927689624
 20
-414.3754196209939
 30
0.0
 40
10246.45187490584
100
AcDbArc
 50
2.318561083117719
 51
2.319822024803955
  0
LINE
  5
A8
330
1F
100
AcDbEntity
  8
Default
100
AcDbLine
 10
53.8251321070899
 20
0.3750391479403845
 30
0.0
 11
54.9501373812648
 21
0.3750391479403845
 31
0.0
  0
LINE
  5
A9
330
1F
100
AcDbEntity
  8
Default
100
AcDbLine
 10
54.9501373812648
 20
0.3750391479403845
 30
0.0
 11
54.93878145922739
 21
0.1496421885582038
 31
0.0
  0
SPLINE
  5
AA
330
1F
100
AcDbEntity
  8
Default
100
AcDbSpline
210
0.0
220
0.0
230
1.0
 70
    12
 71
     2
 72
     6
 73
     3
 74
     0
 42
0.0000000001
 43
0.0000000001
 40
-0.2387149143318927
 40
-0.2387149143318927
 40
-0.2387149143318927
 40
0.0
 40
0.0
 40
0.0
 10
54.93878145922739
 20
0.1496421885582038
 30
0.0
 41
1.0
 10
54.93268951699368
 20
-0.0000384788826898
 30
0.0
 41
0.7212476062221478
 10
54.78240945709828
 20
0.0000003945672802
 30
0.0
 41
1.0
  0
SPLINE
  5
AB
330
1F
100
AcDbEntity
  8
Default
100
AcDbSpline
210
0.0
220
0.0
230
1.0
 70
    12
 71
     2
 72
     6
 73
     3
 74
     0
 42
0.0000000001
 43
0.0000000001
 40
0.0
 40
0.0
 40
0.0
 40
0.3954244124017839
 40
0.3954244124017839
 40
0.3954244124017839
 10
54.78240945709828
 20
0.0000003945672802
 30
0.0
 41
1.0
 10
54.58422148744781
 20
0.0000274211329071
 30
0.0
 41
0.999999999289049
 10
54.38650928150079
 20
0.0000391457582793
 30
0.0
 41
1.0
  0
SPLINE
  5
AC
330
1F
100
AcDbEntity
  8
Default
100
AcDbSpline
210
0.0
220
0.0
230
1.0
 70
    24
 71
     2
 72
     6
 73
     3
 74
     0
 42
0.0000000001
 43
0.0000000001
 40
0.0
 40
0.0
 40
0.0
 40
0.3954243890795226
 40
0.3954243890795226
 40
0.3954243890795226
 10
54.38650928150079
 20
0.0000391457582793
 30
0.0
 10
54.18855919795692
 20
0.0000391464777749
 30
0.0
 10
53.99060911441305
 20
0.0000391471972705
 30
0.0
  0
SPLINE
  5
AD
330
1F
100
AcDbEntity
  8
Default
100
AcDbSpline
210
0.0
220
0.0
230
1.0
 70
    12
 71
     2
 72
     6
 73
     3
 74
     0
 42
0.0000000001
 43
0.0000000001
 40
-0.2387271341672585
 40
-0.2387271341672585
 40
-0.2387271341672585
 40
0.0
 40
0.0
 40
0.0
 10
53.99060911441305
 20
0.0000391471972705
 30
0.0
 41
1.0
 10
53.84032588714004
 20
0.0000391477218271
 30
0.0
 41
0.7212776802320741
 10
53.83425728337355
 20
0.1497242040884146
 30
0.0
 41
1.0
  0
SPLINE
  5
AE
330
1F
100
AcDbEntity
  8
Default
100
AcDbSpline
210
0.0
220
0.0
230
1.0
 70
     8
 71
     3
 72
    12
 73
     8
 74
     0
 42
0.0000000001
 43
0.0000000001
 40
0.0
 40
0.0
 40
0.0
 40
0.0
 40
1.0
 40
2.0
 40
3.0
 40
4.0
 40
5.0
 40
5.0
 40
5.0
 40
5.0
 10
55.40027369158051
 20
12.62503918825035
 30
0.0
 10
55.38387679681594
 20
12.49412383179848
 30
0.0
 10
55.16182487699942
 20
12.34303393060617
 30
0.0
 10
54.80080776965175
 20
12.2627180002051
 30
0.0
 10
54.42507423211609
 20
12.26322850250835
 30
0.0
 10
54.06377994461209
 20
12.34265459674313
 30
0.0
 10
53.84210197353539
 20
12.49439055061359
 30
0.0
 10
53.82527383326092
 20
12.62498982757822
 30
0.0
  0
POLYLINE
  5
AF
330
1F
100
AcDbEntity
  8
Default
100
AcDb2dPolyline
 66
     1
 10
0.0
 20
0.0
 30
0.0
  0
VERTEX
  5
B0
330
AF
100
AcDbEntity
  8
Default
100
AcDbVertex
100
AcDb2dVertex
 10
30.76542114289745
 20
12.62500000235795
 30
0.0
  0
VERTEX
  5
B1
330
AF
100
AcDbEntity
  8
Default
100
AcDbVertex
100
AcDb2dVertex
 10
24.54542146349579
 20
12.62500000235795
 30
0.0
  0
SEQEND
  5
B2
330
AF
100
AcDbEntity
  8
Default
  0
SPLINE
  5
B3
330
1F
100
AcDbEntity
  8
Default
100
AcDbSpline
210
0.0
220
0.0
230
1.0
 70
    12
 71
     5
 72
    13
 73
     7
 74
     0
 42
0.0000000001
 43
0.0000000001
 40
-0.9999999998854913
 40
-0.9999999998854913
 40
-0.9999999998854913
 40
-0.9999999998854913
 40
-0.9999999998854913
 40
-0.9999999998854913
 40
-0.4999999999118557
 40
0.0000214316302039
 40
0.0000214316302039
 40
0.0000214316302039
 40
0.0000214316302039
 40
0.0000214316302039
 40
0.0000214316302039
 10
24.54542146349579
 20
12.62500000235795
 30
0.0
 41
1.0
 10
24.54542210953562
 20
12.56009560996313
 30
0.0
 41
1.0
 10
24.56472116103984
 20
12.44654867131678
 30
0.0
 41
1.0
 10
24.62261733370386
 20
12.3655361986593
 30
0.0
 41
1.0
 10
24.71078640112594
 20
12.31002542084664
 30
0.0
 41
1.0
 10
24.82547039022754
 20
12.27687454006866
 30
0.0
 41
1.0
 10
24.88944202732702
 20
12.26588517969745
 30
0.0
 41
1.0
  0
SPLINE
  5
B4
330
1F
100
AcDbEntity
  8
Default
100
AcDbSpline
210
0.0
220
0.0
230
1.0
 70
    12
 71
     2
 72
     6
 73
     3
 74
     0
 42
0.0000000001
 43
0.0000000001
 40
0.0
 40
0.0
 40
0.0
 40
1.843263450064862
 40
1.843263450064862
 40
1.843263450064862
 10
24.88944202732702
 20
12.26588517969745
 30
0.0
 41
1.0
 10
25.79776138742368
 20
12.10980514713988
 30
0.0
 41
0.9999999999936852
 10
26.70608179074165
 20
11.9537310177214
 30
0.0
 41
1.0
  0
SPLINE
  5
B5
330
1F
100
AcDbEntity
  8
Default
100
AcDbSpline
210
0.0
220
0.0
230
1.0
 70
    12
 71
     2
 72
     6
 73
     3
 74
     0
 42
0.0000000001
 43
0.0000000001
 40
0.0
 40
0.0
 40
0.0
 40
0.6997662170032295
 40
0.6997662170032295
 40
0.6997662170032295
 10
26.70608179074165
 20
11.9537310177214
 30
0.0
 41
1.0
 10
27.12094882346988
 20
11.88244667937159
 30
0.0
 41
0.7649870492777086
 10
27.12140540273671
 20
11.46120110138611
 30
0.0
 41
1.0
  0
SPLINE
  5
B6
330
1F
100
AcDbEntity
  8
Default
100
AcDbSpline
210
0.0
220
0.0
230
1.0
 70
    12
 71
     3
 72
    13
 73
     9
 74
     0
 42
0.0000000001
 43
0.0000000001
 40
1.164116092654201
 40
1.164116092654201
 40
1.164116092654201
 40
1.164116092654201
 40
1.192754371812117
 40
1.192754371812117
 40
1.839154429652598
 40
2.485554487552516
 40
2.485554487552516
 40
2.941799361814759
 40
2.941799361814759
 40
2.941799361814759
 40
2.941799361814759
 10
27.12140540273671
 20
11.46120110138611
 30
0.0
 41
1.0
 10
27.12140455748553
 20
11.45135583614481
 30
0.0
 41
1.0
 10
27.12140511635911
 20
11.44180974146306
 30
0.0
 41
1.0
 10
27.12145466090507
 20
11.2167969686364
 30
0.0
 41
1.0
 10
27.1235383213594
 20
10.78587479042528
 30
0.0
 41
1.0
 10
27.13072606284803
 20
10.35502399011492
 30
0.0
 41
1.0
 10
27.13652426304267
 20
9.987521416801457
 30
0.0
 41
1.0
 10
27.13872506830447
 20
9.83544406875302
 30
0.0
 41
1.0
 10
27.14049176836525
 20
9.682909845823701
 30
0.0
 41
1.0
  0
SPLINE
  5
B7
330
1F
100
AcDbEntity
  8
Default
100
AcDbSpline
210
0.0
220
0.0
230
1.0
 70
    12
 71
     2
 72
     6
 73
     3
 74
     0
 42
0.0000000001
 43
0.0000000001
 40
0.0
 40
0.0
 40
0.0
 40
0.0011199978112541
 40
0.0011199978112541
 40
0.0011199978112541
 10
27.14049176836525
 20
9.682909845823701
 30
0.0
 41
1.0
 10
27.14050947646609
 20
9.68189344886065
 30
0.0
 41
0.9999999565253123
 10
27.14050947572107
 20
9.681333409514025
 30
0.0
 41
1.0
  0
SPLINE
  5
B8
330
1F
100
AcDbEntity
  8
Default
100
AcDbSpline
210
0.0
220
0.0
230
1.0
 70
    12
 71
     2
 72
     6
 73
     3
 74
     0
 42
0.0000000001
 43
0.0000000001
 40
0.0
 40
0.0
 40
0.0
 40
1.157563000328597
 40
1.157563000328597
 40
1.157563000328597
 10
27.14050947572107
 20
9.681333409514025
 30
0.0
 41
1.0
 10
27.14608519402015
 20
9.102576156243051
 30
0.0
 41
0.9999932729902123
 10
27.14742122914546
 20
8.523792488378888
 30
0.0
 41
1.0
  0
SPLINE
  5
B9
330
1F
100
AcDbEntity
  8
Default
100
AcDbSpline
210
0.0
220
0.0
230
1.0
 70
    12
 71
     3
 72
    12
 73
     8
 74
     0
 42
0.0000000001
 43
0.0000000001
 40
0.0000022290245399
 40
0.0000022290245399
 40
0.0000022290245399
 40
0.0000022290245399
 40
2.973330383277389
 40
2.973330383277389
 40
5.533332299297856
 40
5.533332299297856
 40
8.0907540207247
 40
8.0907540207247
 40
8.0907540207247
 40
8.0907540207247
 10
27.14742122914546
 20
8.523792488378888
 30
0.0
 41
1.0
 10
27.1511644390213
 20
7.533012356544702
 30
0.0
 41
1.0
 10
27.16130101624023
 20
6.542166505228664
 30
0.0
 41
1.0
 10
27.1862450531365
 20
4.698546802840923
 30
0.0
 41
1.0
 10
27.20010432920546
 20
3.846004306662138
 30
0.0
 41
1.0
 10
27.22745479056456
 20
2.140986238235911
 30
0.0
 41
1.0
 10
27.24086370393459
 20
1.289616091246216
 30
0.0
 41
1.0
 10
27.25210128332802
 20
0.4374291487058031
 30
0.0
 41
1.0
  0
SPLINE
  5
BA
330
1F
100
AcDbEntity
  8
Default
100
AcDbSpline
210
0.0
220
0.0
230
1.0
 70
    12
 71
     2
 72
     6
 73
     3
 74
     0
 42
0.0000000001
 43
0.0000000001
 40
0.0
 40
0.0
 40
0.0
 40
0.0970316672143772
 40
0.0970316672143772
 40
0.0970316672143772
 10
27.25210128332802
 20
0.4374291487058031
 30
0.0
 41
1.0
 10
27.25267988006281
 20
0.3763075181236976
 30
0.0
 41
0.717857630247824
 10
27.31376590741016
 20
0.3750140462356626
 30
0.0
 41
1.0
  0
POLYLINE
  5
BB
330
1F
100
AcDbEntity
  8
Default
100
AcDb2dPolyline
 66
     1
 10
0.0
 20
0.0
 30
0.0
  0
VERTEX
  5
BC
330
BB
100
AcDbEntity
  8
Default
100
AcDbVertex
100
AcDb2dVertex
 10
27.31376590741016
 20
0.3750140462356626
 30
0.0
  0
VERTEX
  5
BD
330
BB
100
AcDbEntity
  8
Default
100
AcDbVertex
100
AcDb2dVertex
 10
27.99574593598251
 20
0.3750000024411975
 30
0.0
  0
SEQEND
  5
BE
330
BB
100
AcDbEntity
  8
Default
  0
SPLINE
  5
BF
330
1F
100
AcDbEntity
  8
Default
100
AcDbSpline
210
0.0
220
0.0
230
1.0
 70
    12
 71
     2
 72
     6
 73
     3
 74
     0
 42
0.0000000001
 43
0.0000000001
 40
0.0
 40
0.0
 40
0.0
 40
0.0983105351425802
 40
0.0983105351425802
 40
0.0983105351425802
 10
27.99574593598251
 20
0.3750000024411975
 30
0.0
 41
1.0
 10
28.05810177240869
 20
0.374998070860006
 30
0.0
 41
0.7107094273922171
 10
28.05874068601983
 20
0.4373708929651912
 30
0.0
 41
1.0
  0
SPLINE
  5
C0
330
1F
100
AcDbEntity
  8
Default
100
AcDbSpline
210
0.0
220
0.0
230
1.0
 70
    12
 71
     3
 72
    12
 73
     8
 74
     0
 42
0.0000000001
 43
0.0000000001
 40
0.0025122088885125
 40
0.0025122088885125
 40
0.0025122088885125
 40
0.0025122088885125
 40
2.559996601448771
 40
2.559996601448771
 40
5.119998517672128
 40
5.119998517672128
 40
8.093326489272172
 40
8.093326489272172
 40
8.093326489272172
 40
8.093326489272172
 10
28.05874068601983
 20
0.4373708929651912
 30
0.0
 41
1.0
 10
28.06997856587142
 20
1.289574364790269
 30
0.0
 41
1.0
 10
28.08338780147758
 20
2.140965357733307
 30
0.0
 41
1.0
 10
28.11073859778847
 20
3.8460043069324
 30
0.0
 41
1.0
 10
28.12459787385833
 20
4.6985468031788
 30
0.0
 41
1.0
 10
28.1495419099306
 20
6.542166444777081
 30
0.0
 41
1.0
 10
28.15967848672611
 20
7.53301223521413
 30
0.0
 41
1.0
 10
28.1634216974999
 20
8.523792397285746
 30
0.0
 41
1.0
  0
SPLINE
  5
C1
330
1F
100
AcDbEntity
  8
Default
100
AcDbSpline
210
0.0
220
0.0
230
1.0
 70
    12
 71
     2
 72
     6
 73
     3
 74
     0
 42
0.0000000001
 43
0.0000000001
 40
0.0
 40
0.0
 40
0.0
 40
1.157566753814006
 40
1.157566753814006
 40
1.157566753814006
 10
28.1634216974999
 20
8.523792397285746
 30
0.0
 41
1.0
 10
28.16476956095554
 20
9.102577944119421
 30
0.0
 41
0.9999934222404667
 10
28.17032162399332
 20
9.681337225291125
 30
0.0
 41
0.9999999999999121
  0
SPLINE
  5
C2
330
1F
100
AcDbEntity
  8
Default
100
AcDbSpline
210
0.0
220
0.0
230
1.0
 70
    12
 71
     2
 72
     6
 73
     3
 74
     0
 42
0.0000000001
 43
0.0000000001
 40
0.0
 40
0.0
 40
0.0
 40
0.0011163185374098
 40
0.0011163185374098
 40
0.0011163185374098
 10
28.17032162399332
 20
9.681337225291117
 30
0.0
 41
1.0
 10
28.17033346966346
 20
9.681895288399144
 30
0.0
 41
0.9999999568108967
 10
28.17033911773697
 20
9.682909979841583
 30
0.0
 41
1.0
  0
SPLINE
  5
C3
330
1F
100
AcDbEntity
  8
Default
100
AcDbSpline
210
0.0
220
0.0
230
1.0
 70
    12
 71
     3
 72
    13
 73
     9
 74
     0
 42
0.0000000001
 43
0.0000000001
 40
1.159780968969077
 40
1.159780968969077
 40
1.159780968969077
 40
1.159780968969077
 40
1.219999999483621
 40
1.219999999483621
 40
1.859999999216523
 40
1.859999999216523
 40
2.49999999917158
 40
2.937447200127758
 40
2.937447200127758
 40
2.937447200127758
 40
2.937447200127758
 10
28.17033911773697
 20
9.682909979841583
 30
0.0
 41
1.0
 10
28.17056718308825
 20
9.703438966347733
 30
0.0
 41
1.0
 10
28.17080366028287
 20
9.723511031694557
 30
0.0
 41
1.0
 10
28.17365086905434
 20
9.95689999374116
 30
0.0
 41
1.0
 10
28.17726588861737
 20
10.17023320478074
 30
0.0
 41
1.0
 10
28.18389816217777
 20
10.59684831315658
 30
0.0
 41
1.0
 10
28.1885828957256
 20
10.95596334870555
 30
0.0
 41
1.0
 10
28.18943307510861
 20
11.31509077060545
 30
0.0
 41
1.0
 10
28.18943243966262
 20
11.46118232485981
 30
0.0
 41
1.0
  0
SPLINE
  5
C4
330
1F
100
AcDbEntity
  8
Default
100
AcDbSpline
210
0.0
220
0.0
230
1.0
 70
    12
 71
     2
 72
     6
 73
     3
 74
     0
 42
0.0000000001
 43
0.0000000001
 40
0.0
 40
0.0
 40
0.0
 40
0.6998000892342029
 40
0.6998000892342029
 40
0.6998000892342029
 10
28.18943243966262
 20
11.46118232485981
 30
0.0
 41
1.0
 10
28.18987153995919
 20
11.88243362283056
 30
0.0
 41
0.764976675619346
 10
28.60476113124392
 20
11.9537310466041
 30
0.0
 41
1.0
  0
SPLINE
  5
C5
330
1F
100
AcDbEntity
  8
Default
100
AcDbSpline
210
0.0
220
0.0
230
1.0
 70
    12
 71
     2
 72
     6
 73
     3
 74
     0
 42
0.0000000001
 43
0.0000000001
 40
0.0
 40
0.0
 40
0.0
 40
1.843263134159366
 40
1.843263134159366
 40
1.843263134159366
 10
28.60476113124392
 20
11.9537310466041
 30
0.0
 41
1.0
 10
29.51308138383004
 20
12.10980512042263
 30
0.0
 41
0.999999999993685
 10
30.42140058365985
 20
12.26588515296334
 30
0.0
 41
1.0
  0
SPLINE
  5
C6
330
1F
100
AcDbEntity
  8
Default
100
AcDbSpline
210
0.0
220
0.0
230
1.0
 70
    12
 71
     5
 72
    13
 73
     7
 74
     0
 42
0.0000000001
 43
0.0000000001
 40
-0.0000214316302125
 40
-0.0000214316302125
 40
-0.0000214316302125
 40
-0.0000214316302125
 40
-0.0000214316302125
 40
-0.0000214316302125
 40
0.4999999999109885
 40
0.9999999998854894
 40
0.9999999998854894
 40
0.9999999998854894
 40
0.9999999998854894
 40
0.9999999998854894
 40
0.9999999998854894
 10
30.42140058365985
 20
12.26588515296334
 30
0.0
 41
1.0
 10
30.4853722161665
 20
12.27687454006889
 30
0.0
 41
1.0
 10
30.60005620526775
 20
12.31002542084693
 30
0.0
 41
1.0
 10
30.68822527268961
 20
12.36553619865956
 30
0.0
 41
1.0
 10
30.7461214453534
 20
12.44654867131698
 30
0.0
 41
1.0
 10
30.76542049685762
 20
12.56009560996313
 30
0.0
 41
1.0
 10
30.76542114289745
 20
12.62500000235795
 30
0.0
 41
1.0
  0
POLYLINE
  5
C7
330
1F
100
AcDbEntity
  8
Default
100
AcDb2dPolyline
 66
     1
 10
0.0
 20
0.0
 30
0.0
  0
VERTEX
  5
C8
330
C7
100
AcDbEntity
  8
Default
100
AcDbVertex
100
AcDb2dVertex
 10
27.41333270201935
 20
-0.0000000002171134
 30
0.0
  0
VERTEX
  5
C9
330
C7
100
AcDbEntity
  8
Default
100
AcDbVertex
100
AcDb2dVertex
 10
27.89751022942673
 20
0.0000000002171703
 30
0.0
  0
SEQEND
  5
CA
330
C7
100
AcDbEntity
  8
Default
  0
SPLINE
  5
CB
330
1F
100
AcDbEntity
  8
Default
100
AcDbSpline
210
0.0
220
0.0
230
1.0
 70
    12
 71
     2
 72
     6
 73
     3
 74
     0
 42
0.0000000001
 43
0.0000000001
 40
0.0
 40
0.0
 40
0.0
 40
0.241924443334512
 40
0.241924443334512
 40
0.241924443334512
 10
27.89751022942673
 20
0.0000000002171703
 30
0.0
 41
1.0
 10
28.05042124359401
 20
0.0000000303540884
 30
0.0
 41
0.7141418074729331
 10
28.05339256776446
 20
0.1529065059711456
 30
0.0
 41
1.0
  0
LINE
  5
CC
330
1F
100
AcDbEntity
  8
Default
100
AcDbLine
 10
28.05339256776446
 20
0.1529065059711456
 30
0.0
 11
28.05809116485514
 21
0.3750000023996165
 31
0.0
  0
LINE
  5
CD
330
1F
100
AcDbEntity
  8
Default
100
AcDbLine
 10
28.05809116485514
 20
0.3750000023996165
 30
0.0
 11
27.25328204887998
 21
0.3750000023996165
 31
0.0
  0
LINE
  5
CE
330
1F
100
AcDbEntity
  8
Default
100
AcDbLine
 10
27.25328204887998
 20
0.3750000023996165
 30
0.0
 11
27.25771550742266
 21
0.1529065037773307
 31
0.0
  0
SPLINE
  5
CF
330
1F
100
AcDbEntity
  8
Default
100
AcDbSpline
210
0.0
220
0.0
230
1.0
 70
    12
 71
     2
 72
     6
 73
     3
 74
     0
 42
0.0000000001
 43
0.0000000001
 40
0.0
 40
0.0
 40
0.0
 40
0.2419244355107725
 40
0.2419244355107725
 40
0.2419244355107725
 10
27.25771550742266
 20
0.1529065037773307
 30
0.0
 41
1.0
 10
27.2604216940217
 20
0.0000000321588069
 30
0.0
 41
0.7141418153608741
 10
27.41333270201935
 20
-0.0000000002171134
 30
0.0
 41
1.0
  0
SPLINE
  5
D0
330
1F
100
AcDbEntity
  8
Default
100
AcDbSpline
210
0.0
220
0.0
230
1.0
 70
    12
 71
     2
 72
     6
 73
     3
 74
     0
 42
0.0000000001
 43
0.0000000001
 40
0.0
 40
0.0
 40
0.0
 40
0.0051272633192371
 40
0.0051272633192371
 40
0.0051272633192371
 10
55.40026862533372
 20
12.61991732659044
 30
0.0
 41
1.0
 10
55.40028966846873
 20
12.62248088681026
 30
0.0
 41
0.9999912669693292
 10
55.40028928362707
 20
12.62504453336663
 30
0.0
 41
1.0
  0
SPLINE
  5
D1
330
1F
100
AcDbEntity
  8
Default
100
AcDbSpline
210
0.0
220
0.0
230
1.0
 70
    12
 71
     2
 72
     6
 73
     3
 74
     0
 42
0.0000000001
 43
0.0000000001
 40
0.0
 40
0.0
 40
0.0
 40
0.0026344063336084
 40
0.0026344063336084
 40
0.0026344063336084
 10
55.4002855791185
 20
12.62369822161139
 30
0.0
 41
1.0
 10
55.40027148185786
 20
12.62238109374753
 30
0.0
 41
0.9999998444549029
 10
55.40025591533808
 20
12.62106398242881
 30
0.0
 41
1.0
  0
SPLINE
  5
D2
330
1F
100
AcDbEntity
  8
Default
100
AcDbSpline
210
0.0
220
0.0
230
1.0
 70
    24
 71
     2
 72
     6
 73
     3
 74
     0
 42
0.0000000001
 43
0.0000000001
 40
-4.31576817762928
 40
-4.31576817762928
 40
-4.31576817762928
 40
30.3751483392478
 40
30.3751483392478
 40
30.3751483392478
 10
-37.74943007999249
 20
61.07389069670472
 30
0.0
 10
-12.47394303046067
 20
61.07389069670472
 30
0.0
 10
12.80154401907114
 20
61.07389069670472
 30
0.0
  0
POLYLINE
  5
D3
330
1F
100
AcDbEntity
  8
Default
100
AcDb2dPolyline
 66
     1
 10
0.0
 20
0.0
 30
0.0
  0
VERTEX
  5
D4
330
D3
100
AcDbEntity
  8
Default
100
AcDbVertex
100
AcDb2dVertex
 10
-27.41333270201957
 20
-0.0000000002171134
 30
0.0
  0
VERTEX
  5
D5
330
D3
100
AcDbEntity
  8
Default
100
AcDbVertex
100
AcDb2dVertex
 10
-27.89751022942696
 20
0.0000000002171703
 30
0.0
  0
SEQEND
  5
D6
330
D3
100
AcDbEntity
  8
Default
  0
SPLINE
  5
D7
330
1F
100
AcDbEntity
  8
Default
100
AcDbSpline
210
0.0
220
0.0
230
1.0
 70
    12
 71
     2
 72
     6
 73
     3
 74
     0
 42
0.0000000001
 43
0.0000000001
 40
0.0
 40
0.0
 40
0.0
 40
0.241924443334512
 40
0.241924443334512
 40
0.241924443334512
 10
-27.89751022942696
 20
0.0000000002171703
 30
0.0
 41
1.0
 10
-28.05042124359422
 20
0.0000000303540884
 30
0.0
 41
0.7141418074729331
 10
-28.05339256776469
 20
0.1529065059711456
 30
0.0
 41
1.0
  0
LINE
  5
D8
330
1F
100
AcDbEntity
  8
Default
100
AcDbLine
 10
-28.05339256776469
 20
0.1529065059711456
 30
0.0
 11
-28.05809116485531
 21
0.3750000023996165
 31
0.0
  0
LINE
  5
D9
330
1F
100
AcDbEntity
  8
Default
100
AcDbLine
 10
-28.05809116485531
 20
0.3750000023996165
 30
0.0
 11
-27.2532820488801
 21
0.3750000023996165
 31
0.0
  0
LINE
  5
DA
330
1F
100
AcDbEntity
  8
Default
100
AcDbLine
 10
-27.2532820488801
 20
0.3750000023996165
 30
0.0
 11
-27.25771550742283
 21
0.1529065037773307
 31
0.0
  0
SPLINE
  5
DB
330
1F
100
AcDbEntity
  8
Default
100
AcDbSpline
210
0.0
220
0.0
230
1.0
 70
    12
 71
     2
 72
     6
 73
     3
 74
     0
 42
0.0000000001
 43
0.0000000001
 40
0.0
 40
0.0
 40
0.0
 40
0.2419244355107725
 40
0.2419244355107725
 40
0.2419244355107725
 10
-27.25771550742283
 20
0.1529065037773307
 30
0.0
 41
1.0
 10
-27.26042169402185
 20
0.0000000321588069
 30
0.0
 41
0.7141418153608741
 10
-27.41333270201957
 20
-0.0000000002171134
 30
0.0
 41
1.0
  0
POLYLINE
  5
DC
330
1F
100
AcDbEntity
  8
Default
100
AcDb2dPolyline
 66
     1
 10
0.0
 20
0.0
 30
0.0
  0
VERTEX
  5
DD
330
DC
100
AcDbEntity
  8
Default
100
AcDbVertex
100
AcDb2dVertex
 10
-30.76542114289768
 20
12.62500000235795
 30
0.0
  0
VERTEX
  5
DE
330
DC
100
AcDbEntity
  8
Default
100
AcDbVertex
100
AcDb2dVertex
 10
-24.54542146349596
 20
12.62500000235795
 30
0.0
  0
SEQEND
  5
DF
330
DC
100
AcDbEntity
  8
Default
  0
SPLINE
  5
E0
330
1F
100
AcDbEntity
  8
Default
100
AcDbSpline
210
0.0
220
0.0
230
1.0
 70
    12
 71
     5
 72
    13
 73
     7
 74
     0
 42
0.0000000001
 43
0.0000000001
 40
-0.9999999998854913
 40
-0.9999999998854913
 40
-0.9999999998854913
 40
-0.9999999998854913
 40
-0.9999999998854913
 40
-0.9999999998854913
 40
-0.4999999999118557
 40
0.0000214316302039
 40
0.0000214316302039
 40
0.0000214316302039
 40
0.0000214316302039
 40
0.0000214316302039
 40
0.0000214316302039
 10
-24.54542146349596
 20
12.62500000235795
 30
0.0
 41
1.0
 10
-24.54542210953579
 20
12.56009560996313
 30
0.0
 41
1.0
 10
-24.56472116104001
 20
12.44654867131678
 30
0.0
 41
1.0
 10
-24.62261733370403
 20
12.3655361986593
 30
0.0
 41
1.0
 10
-24.71078640112611
 20
12.31002542084664
 30
0.0
 41
1.0
 10
-24.82547039022771
 20
12.27687454006866
 30
0.0
 41
1.0
 10
-24.88944202732719
 20
12.26588517969745
 30
0.0
 41
1.0
  0
SPLINE
  5
E1
330
1F
100
AcDbEntity
  8
Default
100
AcDbSpline
210
0.0
220
0.0
230
1.0
 70
    12
 71
     2
 72
     6
 73
     3
 74
     0
 42
0.0000000001
 43
0.0000000001
 40
0.0
 40
0.0
 40
0.0
 40
1.843263450064862
 40
1.843263450064862
 40
1.843263450064862
 10
-24.88944202732719
 20
12.26588517969745
 30
0.0
 41
1.0
 10
-25.79776138742382
 20
12.10980514713988
 30
0.0
 41
0.9999999999936852
 10
-26.70608179074188
 20
11.9537310177214
 30
0.0
 41
1.0
  0
SPLINE
  5
E2
330
1F
100
AcDbEntity
  8
Default
100
AcDbSpline
210
0.0
220
0.0
230
1.0
 70
    12
 71
     2
 72
     6
 73
     3
 74
     0
 42
0.0000000001
 43
0.0000000001
 40
0.0
 40
0.0
 40
0.0
 40
0.6997662170032295
 40
0.6997662170032295
 40
0.6997662170032295
 10
-26.70608179074188
 20
11.9537310177214
 30
0.0
 41
1.0
 10
-27.12094882347006
 20
11.88244667937159
 30
0.0
 41
0.7649870492777086
 10
-27.12140540273694
 20
11.46120110138611
 30
0.0
 41
1.0
  0
SPLINE
  5
E3
330
1F
100
AcDbEntity
  8
Default
100
AcDbSpline
210
0.0
220
0.0
230
1.0
 70
    12
 71
     3
 72
    13
 73
     9
 74
     0
 42
0.0000000001
 43
0.0000000001
 40
1.164116092654201
 40
1.164116092654201
 40
1.164116092654201
 40
1.164116092654201
 40
1.192754371812117
 40
1.192754371812117
 40
1.839154429652598
 40
2.485554487552516
 40
2.485554487552516
 40
2.941799361814759
 40
2.941799361814759
 40
2.941799361814759
 40
2.941799361814759
 10
-27.12140540273694
 20
11.46120110138611
 30
0.0
 41
1.0
 10
-27.12140455748576
 20
11.45135583614481
 30
0.0
 41
1.0
 10
-27.12140511635934
 20
11.44180974146306
 30
0.0
 41
1.0
 10
-27.12145466090519
 20
11.2167969686364
 30
0.0
 41
1.0
 10
-27.12353832135963
 20
10.78587479042528
 30
0.0
 41
1.0
 10
-27.1307260628482
 20
10.35502399011492
 30
0.0
 41
1.0
 10
-27.13652426304279
 20
9.987521416801457
 30
0.0
 41
1.0
 10
-27.13872506830464
 20
9.83544406875302
 30
0.0
 41
1.0
 10
-27.14049176836542
 20
9.682909845823701
 30
0.0
 41
1.0
  0
SPLINE
  5
E4
330
1F
100
AcDbEntity
  8
Default
100
AcDbSpline
210
0.0
220
0.0
230
1.0
 70
    12
 71
     2
 72
     6
 73
     3
 74
     0
 42
0.0000000001
 43
0.0000000001
 40
0.0
 40
0.0
 40
0.0
 40
0.0011199978112541
 40
0.0011199978112541
 40
0.0011199978112541
 10
-27.14049176836542
 20
9.682909845823701
 30
0.0
 41
1.0
 10
-27.14050947646624
 20
9.68189344886065
 30
0.0
 41
0.9999999565253123
 10
-27.14050947572125
 20
9.681333409514025
 30
0.0
 41
1.0
  0
SPLINE
  5
E5
330
1F
100
AcDbEntity
  8
Default
100
AcDbSpline
210
0.0
220
0.0
230
1.0
 70
    12
 71
     2
 72
     6
 73
     3
 74
     0
 42
0.0000000001
 43
0.0000000001
 40
0.0
 40
0.0
 40
0.0
 40
1.157563000328597
 40
1.157563000328597
 40
1.157563000328597
 10
-27.14050947572125
 20
9.681333409514025
 30
0.0
 41
1.0
 10
-27.14608519402034
 20
9.102576156243051
 30
0.0
 41
0.9999932729902123
 10
-27.14742122914558
 20
8.523792488378888
 30
0.0
 41
1.0
  0
SPLINE
  5
E6
330
1F
100
AcDbEntity
  8
Default
100
AcDbSpline
210
0.0
220
0.0
230
1.0
 70
    12
 71
     3
 72
    12
 73
     8
 74
     0
 42
0.0000000001
 43
0.0000000001
 40
0.0000022290245399
 40
0.0000022290245399
 40
0.0000022290245399
 40
0.0000022290245399
 40
2.973330383277389
 40
2.973330383277389
 40
5.533332299297856
 40
5.533332299297856
 40
8.0907540207247
 40
8.0907540207247
 40
8.0907540207247
 40
8.0907540207247
 10
-27.14742122914558
 20
8.523792488378888
 30
0.0
 41
1.0
 10
-27.15116443902147
 20
7.533012356544702
 30
0.0
 41
1.0
 10
-27.16130101624034
 20
6.542166505228664
 30
0.0
 41
1.0
 10
-27.18624505313673
 20
4.698546802840923
 30
0.0
 41
1.0
 10
-27.20010432920557
 20
3.846004306662138
 30
0.0
 41
1.0
 10
-27.22745479056479
 20
2.140986238235911
 30
0.0
 41
1.0
 10
-27.24086370393476
 20
1.289616091246216
 30
0.0
 41
1.0
 10
-27.25210128332819
 20
0.4374291487058031
 30
0.0
 41
1.0
  0
SPLINE
  5
E7
330
1F
100
AcDbEntity
  8
Default
100
AcDbSpline
210
0.0
220
0.0
230
1.0
 70
    12
 71
     2
 72
     6
 73
     3
 74
     0
 42
0.0000000001
 43
0.0000000001
 40
0.0
 40
0.0
 40
0.0
 40
0.0970316672143772
 40
0.0970316672143772
 40
0.0970316672143772
 10
-27.25210128332819
 20
0.4374291487058031
 30
0.0
 41
1.0
 10
-27.25267988006293
 20
0.3763075181236976
 30
0.0
 41
0.717857630247824
 10
-27.31376590741033
 20
0.3750140462356626
 30
0.0
 41
1.0
  0
POLYLINE
  5
E8
330
1F
100
AcDbEntity
  8
Default
100
AcDb2dPolyline
 66
     1
 10
0.0
 20
0.0
 30
0.0
  0
VERTEX
  5
E9
330
E8
100
AcDbEntity
  8
Default
100
AcDbVertex
100
AcDb2dVertex
 10
-27.31376590741033
 20
0.3750140462356626
 30
0.0
  0
VERTEX
  5
EA
330
E8
100
AcDbEntity
  8
Default
100
AcDbVertex
100
AcDb2dVertex
 10
-27.99574593598263
 20
0.3750000024411975
 30
0.0
  0
SEQEND
  5
EB
330
E8
100
AcDbEntity
  8
Default
  0
SPLINE
  5
EC
330
1F
100
AcDbEntity
  8
Default
100
AcDbSpline
210
0.0
220
0.0
230
1.0
 70
    12
 71
     2
 72
     6
 73
     3
 74
     0
 42
0.0000000001
 43
0.0000000001
 40
0.0
 40
0.0
 40
0.0
 40
0.0983105351425802
 40
0.0983105351425802
 40
0.0983105351425802
 10
-27.99574593598263
 20
0.3750000024411975
 30
0.0
 41
1.0
 10
-28.05810177240884
 20
0.374998070860006
 30
0.0
 41
0.7107094273922171
 10
-28.05874068602006
 20
0.4373708929651912
 30
0.0
 41
1.0
  0
SPLINE
  5
ED
330
1F
100
AcDbEntity
  8
Default
100
AcDbSpline
210
0.0
220
0.0
230
1.0
 70
    12
 71
     3
 72
    12
 73
     8
 74
     0
 42
0.0000000001
 43
0.0000000001
 40
0.0025122088885125
 40
0.0025122088885125
 40
0.0025122088885125
 40
0.0025122088885125
 40
2.559996601448771
 40
2.559996601448771
 40
5.119998517672128
 40
5.119998517672128
 40
8.093326489272172
 40
8.093326489272172
 40
8.093326489272172
 40
8.093326489272172
 10
-28.05874068602006
 20
0.4373708929651912
 30
0.0
 41
1.0
 10
-28.06997856587154
 20
1.289574364790269
 30
0.0
 41
1.0
 10
-28.08338780147776
 20
2.140965357733307
 30
0.0
 41
1.0
 10
-28.11073859778864
 20
3.8460043069324
 30
0.0
 41
1.0
 10
-28.12459787385851
 20
4.6985468031788
 30
0.0
 41
1.0
 10
-28.14954190993078
 20
6.542166444777081
 30
0.0
 41
1.0
 10
-28.15967848672628
 20
7.53301223521413
 30
0.0
 41
1.0
 10
-28.16342169750007
 20
8.523792397285746
 30
0.0
 41
1.0
  0
SPLINE
  5
EE
330
1F
100
AcDbEntity
  8
Default
100
AcDbSpline
210
0.0
220
0.0
230
1.0
 70
    12
 71
     2
 72
     6
 73
     3
 74
     0
 42
0.0000000001
 43
0.0000000001
 40
0.0
 40
0.0
 40
0.0
 40
1.157566753814006
 40
1.157566753814006
 40
1.157566753814006
 10
-28.16342169750007
 20
8.523792397285746
 30
0.0
 41
1.0
 10
-28.16476956095575
 20
9.102577944119421
 30
0.0
 41
0.9999934222404667
 10
-28.17032162399349
 20
9.681337225291125
 30
0.0
 41
0.9999999999999121
  0
SPLINE
  5
EF
330
1F
100
AcDbEntity
  8
Default
100
AcDbSpline
210
0.0
220
0.0
230
1.0
 70
    12
 71
     2
 72
     6
 73
     3
 74
     0
 42
0.0000000001
 43
0.0000000001
 40
0.0
 40
0.0
 40
0.0
 40
0.0011163185374098
 40
0.0011163185374098
 40
0.0011163185374098
 10
-28.17032162399354
 20
9.681337225291117
 30
0.0
 41
1.0
 10
-28.17033346966364
 20
9.681895288399144
 30
0.0
 41
0.9999999568108967
 10
-28.17033911773714
 20
9.682909979841583
 30
0.0
 41
1.0
  0
SPLINE
  5
F0
330
1F
100
AcDbEntity
  8
Default
100
AcDbSpline
210
0.0
220
0.0
230
1.0
 70
    12
 71
     3
 72
    13
 73
     9
 74
     0
 42
0.0000000001
 43
0.0000000001
 40
1.159780968969077
 40
1.159780968969077
 40
1.159780968969077
 40
1.159780968969077
 40
1.219999999483621
 40
1.219999999483621
 40
1.859999999216523
 40
1.859999999216523
 40
2.49999999917158
 40
2.937447200127758
 40
2.937447200127758
 40
2.937447200127758
 40
2.937447200127758
 10
-28.17033911773714
 20
9.682909979841583
 30
0.0
 41
1.0
 10
-28.17056718308842
 20
9.703438966347733
 30
0.0
 41
1.0
 10
-28.17080366028298
 20
9.723511031694557
 30
0.0
 41
1.0
 10
-28.17365086905451
 20
9.95689999374116
 30
0.0
 41
1.0
 10
-28.1772658886176
 20
10.17023320478074
 30
0.0
 41
1.0
 10
-28.183898162178
 20
10.59684831315658
 30
0.0
 41
1.0
 10
-28.18858289572572
 20
10.95596334870555
 30
0.0
 41
1.0
 10
-28.18943307510878
 20
11.31509077060545
 30
0.0
 41
1.0
 10
-28.1894324396628
 20
11.46118232485981
 30
0.0
 41
1.0
  0
SPLINE
  5
F1
330
1F
100
AcDbEntity
  8
Default
100
AcDbSpline
210
0.0
220
0.0
230
1.0
 70
    12
 71
     2
 72
     6
 73
     3
 74
     0
 42
0.0000000001
 43
0.0000000001
 40
0.0
 40
0.0
 40
0.0
 40
0.6998000892342029
 40
0.6998000892342029
 40
0.6998000892342029
 10
-28.1894324396628
 20
11.46118232485981
 30
0.0
 41
1.0
 10
-28.1898715399594
 20
11.88243362283056
 30
0.0
 41
0.764976675619346
 10
-28.60476113124409
 20
11.9537310466041
 30
0.0
 41
1.0
  0
SPLINE
  5
F2
330
1F
100
AcDbEntity
  8
Default
100
AcDbSpline
210
0.0
220
0.0
230
1.0
 70
    12
 71
     2
 72
     6
 73
     3
 74
     0
 42
0.0000000001
 43
0.0000000001
 40
0.0
 40
0.0
 40
0.0
 40
1.843263134159366
 40
1.843263134159366
 40
1.843263134159366
 10
-28.60476113124409
 20
11.9537310466041
 30
0.0
 41
1.0
 10
-29.51308138383017
 20
12.10980512042263
 30
0.0
 41
0.999999999993685
 10
-30.42140058366007
 20
12.26588515296334
 30
0.0
 41
1.0
  0
SPLINE
  5
F3
330
1F
100
AcDbEntity
  8
Default
100
AcDbSpline
210
0.0
220
0.0
230
1.0
 70
    12
 71
     5
 72
    13
 73
     7
 74
     0
 42
0.0000000001
 43
0.0000000001
 40
-0.0000214316302125
 40
-0.0000214316302125
 40
-0.0000214316302125
 40
-0.0000214316302125
 40
-0.0000214316302125
 40
-0.0000214316302125
 40
0.4999999999109885
 40
0.9999999998854894
 40
0.9999999998854894
 40
0.9999999998854894
 40
0.9999999998854894
 40
0.9999999998854894
 40
0.9999999998854894
 10
-30.42140058366007
 20
12.26588515296334
 30
0.0
 41
1.0
 10
-30.48537221616661
 20
12.27687454006889
 30
0.0
 41
1.0
 10
-30.60005620526792
 20
12.31002542084693
 30
0.0
 41
1.0
 10
-30.68822527268978
 20
12.36553619865956
 30
0.0
 41
1.0
 10
-30.74612144535362
 20
12.44654867131698
 30
0.0
 41
1.0
 10
-30.76542049685779
 20
12.56009560996313
 30
0.0
 41
1.0
 10
-30.76542114289768
 20
12.62500000235795
 30
0.0
 41
1.0
  0
SPLINE
  5
F4
330
1F
100
AcDbEntity
  8
Default
100
AcDbSpline
210
0.0
220
0.0
230
1.0
 70
    15
 71
     2
 72
    20
 73
    17
 74
     0
 42
0.0000000001
 43
0.0000000001
 40
-6733.358085338376
 40
-6733.358085338376
 40
-6733.358085338376
 40
-6719.00382466361
 40
-6719.00382466361
 40
-6718.218426500182
 40
-6718.218426500182
 40
-6679.489858540186
 40
-6679.489858540186
 40
-6678.704460377189
 40
-6678.704460377189
 40
-6664.350199704786
 40
-6664.350199704786
 40
-6663.564801541019
 40
-6663.564801541019
 40
-6624.836233570425
 40
-6624.836233570425
 40
-6624.050835407028
 40
-6624.050835407028
 40
-6624.050835407028
 10
12.8015526355687
 20
14.87500000239919
 30
0.0
 41
1.0
 10
12.8015526355687
 20
22.05213033978217
 30
0.0
 41
1.0
 10
12.80155263556875
 20
29.22926067716517
 30
0.0
 41
1.0
 10
12.80155263556874
 20
29.72926067719568
 30
0.0
 41
0.7071067811649757
 10
12.30155263553823
 20
29.72926067716517
 30
0.0
 41
1.0
 10
-11.88571371639611
 20
29.72926067598371
 30
0.0
 41
1.0
 10
-37.24942145822601
 20
29.72926067480225
 30
0.0
 41
1.0
 10
-37.74942145782616
 20
29.72926067477175
 30
0.0
 41
0.7071067814692698
 10
-37.74942145819543
 20
29.22926067517159
 30
0.0
 41
1.0
 10
-37.74942146349483
 20
22.05213033897002
 30
0.0
 41
1.0
 10
-37.74942146879422
 20
14.87500000276847
 30
0.0
 41
1.0
 10
-37.74942146916354
 20
14.37500000239917
 30
0.0
 41
0.7071067809254249
 10
-37.24942146879422
 20
14.37500000239919
 30
0.0
 41
1.0
 10
-11.88571372166504
 20
14.37500000239919
 30
0.0
 41
1.0
 10
12.3015526355687
 20
14.37500000239919
 30
0.0
 41
1.0
 10
12.80155263556875
 20
14.37500000239918
 30
0.0
 41
0.70710678118655
 10
12.8015526355687
 20
14.87500000239919
 30
0.0
 41
1.0
  0
SPLINE
  5
F5
330
1F
100
AcDbEntity
  8
Default
100
AcDbSpline
210
0.0
220
0.0
230
1.0
 70
    15
 71
     2
 72
    22
 73
    19
 74
     0
 42
0.0000000001
 43
0.0000000001
 40
0.0
 40
0.0
 40
0.0
 40
38.0521372463281
 40
38.0521372463281
 40
38.4448383576504
 40
38.4448383576504
 40
41.31688814993201
 40
41.31688814993201
 40
41.70965007631988
 40
41.70965007631988
 40
42.10241200270775
 40
42.10241200270775
 40
79.6545385781071
 40
79.6545385781071
 40
80.43993674150454
 40
80.43993674150454
 40
83.31198653378614
 40
83.31198653378614
 40
83.7046867353958
 40
83.7046867353958
 40
83.7046867353958
 10
-37.49942679895932
 20
14.37500000240129
 30
0.0
 41
1.0
 10
-12.47393441396306
 20
14.37500000240129
 30
0.0
 41
1.0
 10
12.55155699982041
 20
14.37500000240129
 30
0.0
 41
1.0
 10
12.80155736514157
 20
14.37499963704457
 30
0.0
 41
0.707110387889693
 10
12.80155597260473
 20
14.62500000239918
 30
0.0
 41
0.9999999999167506
 10
12.80155381848034
 20
16.06102489853998
 30
0.0
 41
0.9999999999167506
 10
12.80155166435595
 20
17.49704979468078
 30
0.0
 41
0.9999999999167506
 10
12.80167293447645
 20
17.70420678680296
 30
0.0
 41
0.9237674810464906
 10
12.65519079547732
 20
17.85068892580213
 30
0.0
 41
0.9999999999167506
 10
12.50870865647817
 20
17.99717106480131
 30
0.0
 41
0.9237674810464906
 10
12.30155166435599
 20
17.9970497946808
 30
0.0
 41
0.9999999999167506
 10
-12.47393441396313
 20
17.9970497946808
 30
0.0
 41
0.9999999999167506
 10
-37.24942146349499
 20
17.9970497946808
 30
0.0
 41
0.9999999999167506
 10
-37.74942146349495
 20
17.99704979468079
 30
0.0
 41
0.7071067811276798
 10
-37.74942146349489
 20
17.49704979468078
 30
0.0
 41
0.9999999999167506
 10
-37.74942361761934
 20
16.06102489853998
 30
0.0
 41
0.9999999999167506
 10
-37.74942577174378
 20
14.62500000239918
 30
0.0
 41
0.9999999999167506
 10
-37.74942504472844
 20
14.37500175658787
 30
0.0
 41
0.7071163829140098
 10
-37.49942679895932
 20
14.37500000240129
 30
0.0
 41
1.0
  0
SPLINE
  5
F6
330
1F
100
AcDbEntity
  8
Default
100
AcDbSpline
210
0.0
220
0.0
230
1.0
 70
    15
 71
     2
 72
    20
 73
    17
 74
     0
 42
0.0000000001
 43
0.0000000001
 40
198.7137567059726
 40
198.7137567059726
 40
198.7137567059726
 40
204.0108511546707
 40
204.0108511546707
 40
204.7962493180681
 40
204.7962493180681
 40
238.4871658349452
 40
238.4871658349452
 40
239.2725639983426
 40
239.2725639983426
 40
244.5696584470407
 40
244.5696584470407
 40
245.3550566104381
 40
245.3550566104381
 40
279.0459731273152
 40
279.0459731273152
 40
279.8313712907126
 40
279.8313712907126
 40
279.8313712907126
 10
12.80154401907114
 20
59.34086407428856
 30
0.0
 41
1.0
 10
12.80154401907114
 20
61.98941129863761
 30
0.0
 41
1.0
 10
12.80154401907114
 20
64.63795852298665
 30
0.0
 41
1.0
 10
12.80154401907118
 20
65.13795852298666
 30
0.0
 41
0.7071067811865476
 10
12.30154401907114
 20
65.13795852298665
 30
0.0
 41
1.0
 10
-10.4132440149402
 20
65.13795852298665
 30
0.0
 41
1.0
 10
-37.24943007999249
 20
65.13795852298665
 30
0.0
 41
1.0
 10
-37.74943007999252
 20
65.13795852298665
 30
0.0
 41
0.7071067811865576
 10
-37.74943007999249
 20
64.63795852298665
 30
0.0
 41
1.0
 10
-37.74943007999249
 20
61.98941129863761
 30
0.0
 41
1.0
 10
-37.74943007999249
 20
59.34086407428856
 30
0.0
 41
1.0
 10
-37.74943007999254
 20
58.84086407428857
 30
0.0
 41
0.7071067811865476
 10
-37.24943007999249
 20
58.84086407428856
 30
0.0
 41
1.0
 10
-10.4132440149402
 20
58.84086407428856
 30
0.0
 41
1.0
 10
12.30154401907114
 20
58.84086407428856
 30
0.0
 41
1.0
 10
12.80154401907111
 20
58.84086407428856
 30
0.0
 41
0.7071067811865576
 10
12.80154401907114
 20
59.34086407428856
 30
0.0
 41
1.0
  0
ENDSEC
  0
SECTION
  2
OBJECTS
  0
DICTIONARY
  5
C
330
0
100
AcDbDictionary
281
     1
  3
ACAD_GROUP
350
D
  3
ACAD_LAYOUT
350
1A
  3
ACAD_MLEADERSTYLE
350
F8
  3
ACAD_MLINESTYLE
350
17
  3
ACAD_PLOTSETTINGS
350
19
  3
ACAD_PLOTSTYLENAME
350
E
  3
ACAD_TABLESTYLE
350
F7
  3
ACAD_VISUALSTYLE
350
2A
  0
DICTIONARY
  5
D
102
{ACAD_REACTORS
330
C
102
}
330
C
100
AcDbDictionary
281
     1
  0
DICTIONARY
  5
1A
102
{ACAD_REACTORS
330
C
102
}
330
C
100
AcDbDictionary
281
     1
  3
Layout1
350
1E
  3
Layout2
350
26
  3
Model
350
22
  0
DICTIONARY
  5
F8
102
{ACAD_REACTORS
330
C
102
}
330
C
100
AcDbDictionary
281
     1
  0
DICTIONARY
  5
17
102
{ACAD_REACTORS
330
C
102
}
330
C
100
AcDbDictionary
281
     1
  3
Standard
350
18
  0
DICTIONARY
  5
19
102
{ACAD_REACTORS
330
C
102
}
330
C
100
AcDbDictionary
281
     1
  0
ACDBDICTIONARYWDFLT
  5
E
102
{ACAD_REACTORS
330
C
102
}
330
C
100
AcDbDictionary
281
     1
  3
Normal
350
F
100
AcDbDictionaryWithDefault
340
F
  0
DICTIONARY
  5
F7
102
{ACAD_REACTORS
330
C
102
}
330
C
100
AcDbDictionary
281
     1
  0
DICTIONARY
  5
2A
102
{ACAD_REACTORS
330
C
102
}
330
C
100
AcDbDictionary
281
     1
  3
2dWireframe
350
2F
  3
3D Hidden
350
31
  3
3dWireframe
350
30
  3
Basic
350
32
  3
Brighten
350
36
  3
ColorChange
350
3A
  3
Conceptual
350
34
  3
Dim
350
35
  3
Facepattern
350
39
  3
Flat
350
2B
  3
FlatWithEdges
350
2C
  3
Gouraud
350
2D
  3
GouraudWithEdges
350
2E
  3
Linepattern
350
38
  3
Realistic
350
33
  3
Thicken
350
37
  0
LAYOUT
  5
1E
102
{ACAD_REACTORS
330
1A
102
}
330
1A
100
AcDbPlotSettings
  1

  2
none_device
  4

  6

 40
0.0
 41
0.0
 42
0.0
 43
0.0
 44
0.0
 45
0.0
 46
0.0
 47
0.0
 48
0.0
 49
0.0
140
0.0
141
0.0
142
1.0
143
1.0
 70
   688
 72
     0
 73
     0
 74
     5
  7

 75
    16
 76
     0
 77
     2
 78
   300
147
1.0
148
0.0
149
0.0
100
AcDbLayout
  1
Layout1
 70
     1
 71
     1
 10
0.0
 20
0.0
 11
12.0
 21
9.0
 12
0.0
 22
0.0
 32
0.0
 14
1.000000000000000E+20
 24
1.000000000000000E+20
 34
1.000000000000000E+20
 15
-1.000000000000000E+20
 25
-1.000000000000000E+20
 35
-1.000000000000000E+20
146
0.0
 13
0.0
 23
0.0
 33
0.0
 16
1.0
 26
0.0
 36
0.0
 17
0.0
 27
1.0
 37
0.0
 76
     0
330
1B
  0
LAYOUT
  5
26
102
{ACAD_REACTORS
330
1A
102
}
330
1A
100
AcDbPlotSettings
  1

  2
none_device
  4

  6

 40
0.0
 41
0.0
 42
0.0
 43
0.0
 44
0.0
 45
0.0
 46
0.0
 47
0.0
 48
0.0
 49
0.0
140
0.0
141
0.0
142
1.0
143
1.0
 70
   688
 72
     0
 73
     0
 74
     5
  7

 75
    16
 76
     0
 77
     2
 78
   300
147
1.0
148
0.0
149
0.0
100
AcDbLayout
  1
Layout2
 70
     1
 71
     2
 10
0.0
 20
0.0
 11
0.0
 21
0.0
 12
0.0
 22
0.0
 32
0.0
 14
0.0
 24
0.0
 34
0.0
 15
0.0
 25
0.0
 35
0.0
146
0.0
 13
0.0
 23
0.0
 33
0.0
 16
1.0
 26
0.0
 36
0.0
 17
0.0
 27
1.0
 37
0.0
 76
     0
330
23
  0
LAYOUT
  5
22
102
{ACAD_REACTORS
330
1A
102
}
330
1A
100
AcDbPlotSettings
  1

  2
none_device
  4

  6

 40
0.0
 41
0.0
 42
0.0
 43
0.0
 44
0.0
 45
0.0
 46
0.0
 47
0.0
 48
0.0
 49
0.0
140
0.0
141
0.0
142
1.0
143
1.0
 70
  1712
 72
     0
 73
     0
 74
     0
  7

 75
     0
 76
     0
 77
     2
 78
   300
147
1.0
148
0.0
149
0.0
100
AcDbLayout
  1
Model
 70
     1
 71
     0
 10
0.0
 20
0.0
 11
12.0
 21
9.0
 12
0.0
 22
0.0
 32
0.0
 14
-37.74943007999249
 24
-0.0000000002171134
 34
0.0
 15
78.20028928075422
 25
65.13795852298665
 35
0.0
146
0.0
 13
0.0
 23
0.0
 33
0.0
 16
1.0
 26
0.0
 36
0.0
 17
0.0
 27
1.0
 37
0.0
 76
     0
330
1F
331
29
  0
MLINESTYLE
  5
18
102
{ACAD_REACTORS
330
17
102
}
330
17
100
AcDbMlineStyle
  2
Standard
 70
     0
  3

 62
   256
 51
90.0
 52
90.0
 71
     2
 49
0.5
 62
   256
  6
BYLAYER
 49
-0.5
 62
   256
  6
BYLAYER
  0
ACDBPLACEHOLDER
  5
F
102
{ACAD_REACTORS
330
E
102
}
330
E
  0
VISUALSTYLE
  5
2F
102
{ACAD_REACTORS
330
2A
102
}
330
2A
100
AcDbVisualStyle
  2
2dWireframe
 70
     4
 71
     0
 72
     2
 73
     0
 90
        0
 40
-0.6
 41
-30.0
 62
     5
 63
     7
421
 16777215
 74
     1
 91
        4
 64
     7
 65
   257
 75
     1
175
     1
 42
1.0
 92
        0
 66
   257
 43
1.0
 76
     1
 77
     6
 78
     2
 67
     7
 79
     5
170
     0
171
     0
290
     0
174
     0
 93
        1
 44
0.0
173
     0
291
     0
 45
0.0
1001
ACAD
1000
AcDbSavedByObjectVersion
1070
     0
  0
VISUALSTYLE
  5
31
102
{ACAD_REACTORS
330
2A
102
}
330
2A
100
AcDbVisualStyle
  2
3D Hidden
 70
     6
 71
     1
 72
     2
 73
     2
 90
        0
 40
-0.6
 41
-30.0
 62
     5
 63
     7
421
 16777215
 74
     2
 91
        2
 64
     7
 65
   257
 75
     2
175
     1
 42
40.0
 92
        0
 66
   257
 43
1.0
 76
     1
 77
     6
 78
     2
 67
     7
 79
     3
170
     0
171
     0
290
     0
174
     0
 93
        1
 44
0.0
173
     0
291
     0
 45
0.0
1001
ACAD
1000
AcDbSavedByObjectVersion
1070
     0
  0
VISUALSTYLE
  5
30
102
{ACAD_REACTORS
330
2A
102
}
330
2A
100
AcDbVisualStyle
  2
3dWireframe
 70
     5
 71
     0
 72
     2
 73
     0
 90
        0
 40
-0.6
 41
-30.0
 62
     5
 63
     7
421
 16777215
 74
     1
 91
        4
 64
     7
 65
   257
 75
     1
175
     1
 42
1.0
 92
        0
 66
   257
 43
1.0
 76
     1
 77
     6
 78
     2
 67
     7
 79
     5
170
     0
171
     0
290
     0
174
     0
 93
        1
 44
0.0
173
     0
291
     0
 45
0.0
1001
ACAD
1000
AcDbSavedByObjectVersion
1070
     0
  0
VISUALSTYLE
  5
32
102
{ACAD_REACTORS
330
2A
102
}
330
2A
100
AcDbVisualStyle
  2
Basic
 70
     7
 71
     1
 72
     0
 73
     1
 90
        0
 40
-0.6
 41
-30.0
 62
     5
 63
     7
421
 16777215
 74
     0
 91
        4
 64
     7
 65
   257
 75
     1
175
     1
 42
1.0
 92
        8
 66
     7
 43
1.0
 76
     1
 77
     6
 78
     2
 67
     7
 79
     5
170
     0
171
     0
290
     0
174
     0
 93
        1
 44
0.0
173
     0
291
     1
 45
0.0
1001
ACAD
1000
AcDbSavedByObjectVersion
1070
     0
  0
VISUALSTYLE
  5
36
102
{ACAD_REACTORS
330
2A
102
}
330
2A
100
AcDbVisualStyle
  2
Brighten
 70
    12
 71
     2
 72
     2
 73
     0
 90
        0
 40
-0.6
 41
-30.0
 62
     5
 63
     7
421
 16777215
 74
     1
 91
        4
 64
     7
 65
   257
 75
     1
175
     1
 42
1.0
 92
        8
 66
     7
 43
1.0
 76
     1
 77
     6
 78
     2
 67
     7
 79
     5
170
     0
171
     0
290
     0
174
     0
 93
        1
 44
50.0
173
     0
291
     1
 45
0.0
1001
ACAD
1000
AcDbSavedByObjectVersion
1070
     0
  0
VISUALSTYLE
  5
3A
102
{ACAD_REACTORS
330
2A
102
}
330
2A
100
AcDbVisualStyle
  2
ColorChange
 70
    16
 71
     2
 72
     2
 73
     3
 90
        0
 40
-0.6
 41
-30.0
 62
     5
 63
     8
421
  8421504
 74
     1
 91
        4
 64
     7
 65
   257
 75
     1
175
     1
 42
1.0
 92
        8
 66
     8
424
  8421504
 43
1.0
 76
     1
 77
     6
 78
     2
 67
     7
 79
     5
170
     0
171
     0
290
     0
174
     0
 93
        1
 44
0.0
173
     0
291
     1
 45
0.0
1001
ACAD
1000
AcDbSavedByObjectVersion
1070
     0
  0
VISUALSTYLE
  5
34
102
{ACAD_REACTORS
330
2A
102
}
330
2A
100
AcDbVisualStyle
  2
Conceptual
 70
     9
 71
     3
 72
     2
 73
     0
 90
        0
 40
-0.6
 41
-30.0
 62
     5
 63
     7
421
 16777215
 74
     2
 91
        2
 64
     7
 65
   257
 75
     1
175
     1
 42
40.0
 92
        8
 66
     7
 43
1.0
 76
     1
 77
     6
 78
     2
 67
     7
 79
     3
170
     0
171
     0
290
     0
174
     0
 93
        1
 44
0.0
173
     0
291
     0
 45
0.0
1001
ACAD
1000
AcDbSavedByObjectVersion
1070
     0
  0
VISUALSTYLE
  5
35
102
{ACAD_REACTORS
330
2A
102
}
330
2A
100
AcDbVisualStyle
  2
Dim
 70
    11
 71
     2
 72
     2
 73
     0
 90
        0
 40
-0.6
 41
-30.0
 62
     5
 63
     7
421
 16777215
 74
     1
 91
        4
 64
     7
 65
   257
 75
     1
175
     1
 42
1.0
 92
        8
 66
     7
 43
1.0
 76
     1
 77
     6
 78
     2
 67
     7
 79
     5
170
     0
171
     0
290
     0
174
     0
 93
        1
 44
-50.0
173
     0
291
     1
 45
0.0
1001
ACAD
1000
AcDbSavedByObjectVersion
1070
     0
  0
VISUALSTYLE
  5
39
102
{ACAD_REACTORS
330
2A
102
}
330
2A
100
AcDbVisualStyle
  2
Facepattern
 70
    15
 71
     2
 72
     2
 73
     0
 90
        0
 40
-0.6
 41
-30.0
 62
     5
 63
     7
421
 16777215
 74
     1
 91
        4
 64
     7
 65
   257
 75
     1
175
     1
 42
1.0
 92
        8
 66
     7
 43
1.0
 76
     1
 77
     6
 78
     2
 67
     7
 79
     5
170
     0
171
     0
290
     0
174
     0
 93
        1
 44
0.0
173
     0
291
     1
 45
0.0
1001
ACAD
1000
AcDbSavedByObjectVersion
1070
     0
  0
VISUALSTYLE
  5
2B
102
{ACAD_REACTORS
330
2A
102
}
330
2A
100
AcDbVisualStyle
  2
Flat
 70
     0
 71
     2
 72
     1
 73
     1
 90
        2
 40
-0.6
 41
30.0
 62
     5
 63
     7
421
 16777215
 74
     0
 91
        4
 64
     7
 65
   257
 75
     1
175
     1
 42
1.0
 92
        8
 66
     7
 43
1.0
 76
     1
 77
     6
 78
     2
 67
     7
 79
     5
170
     0
171
     0
290
     0
174
     0
 93
       13
 44
0.0
173
     0
291
     1
 45
0.0
1001
ACAD
1000
AcDbSavedByObjectVersion
1070
     0
  0
VISUALSTYLE
  5
2C
102
{ACAD_REACTORS
330
2A
102
}
330
2A
100
AcDbVisualStyle
  2
FlatWithEdges
 70
     1
 71
     2
 72
     1
 73
     1
 90
        2
 40
-0.6
 41
30.0
 62
     5
 63
     7
421
 16777215
 74
     1
 91
        4
 64
     7
 65
   257
 75
     1
175
     1
 42
1.0
 92
        0
 66
   257
 43
1.0
 76
     1
 77
     6
 78
     2
 67
     7
 79
     5
170
     0
171
     0
290
     0
174
     0
 93
       13
 44
0.0
173
     0
291
     1
 45
0.0
1001
ACAD
1000
AcDbSavedByObjectVersion
1070
     0
  0
VISUALSTYLE
  5
2D
102
{ACAD_REACTORS
330
2A
102
}
330
2A
100
AcDbVisualStyle
  2
Gouraud
 70
     2
 71
     2
 72
     2
 73
     1
 90
        2
 40
-0.6
 41
30.0
 62
     5
 63
     7
421
 16777215
 74
     0
 91
        4
 64
     7
 65
   257
 75
     1
175
     1
 42
1.0
 92
        0
 66
     7
 43
1.0
 76
     1
 77
     6
 78
     2
 67
     7
 79
     5
170
     0
171
     0
290
     0
174
     0
 93
       13
 44
0.0
173
     0
291
     1
 45
0.0
1001
ACAD
1000
AcDbSavedByObjectVersion
1070
     0
  0
VISUALSTYLE
  5
2E
102
{ACAD_REACTORS
330
2A
102
}
330
2A
100
AcDbVisualStyle
  2
GouraudWithEdges
 70
     3
 71
     2
 72
     2
 73
     1
 90
        2
 40
-0.6
 41
30.0
 62
     5
 63
     7
421
 16777215
 74
     1
 91
        4
 64
     7
 65
   257
 75
     1
175
     1
 42
1.0
 92
        0
 66
   257
 43
1.0
 76
     1
 77
     6
 78
     2
 67
     7
 79
     5
170
     0
171
     0
290
     0
174
     0
 93
       13
 44
0.0
173
     0
291
     1
 45
0.0
1001
ACAD
1000
AcDbSavedByObjectVersion
1070
     0
  0
VISUALSTYLE
  5
38
102
{ACAD_REACTORS
330
2A
102
}
330
2A
100
AcDbVisualStyle
  2
Linepattern
 70
    14
 71
     2
 72
     2
 73
     0
 90
        0
 40
-0.6
 41
-30.0
 62
     5
 63
     7
421
 16777215
 74
     1
 91
        4
 64
     7
 65
   257
 75
     7
175
     7
 42
1.0
 92
        8
 66
     7
 43
1.0
 76
     1
 77
     6
 78
     2
 67
     7
 79
     5
170
     0
171
     0
290
     0
174
     0
 93
        1
 44
0.0
173
     0
291
     1
 45
0.0
1001
ACAD
1000
AcDbSavedByObjectVersion
1070
     0
  0
VISUALSTYLE
  5
33
102
{ACAD_REACTORS
330
2A
102
}
330
2A
100
AcDbVisualStyle
  2
Realistic
 70
     8
 71
     2
 72
     2
 73
     0
 90
        0
 40
-0.6
 41
-30.0
 62
     5
 63
     7
421
 16777215
 74
     1
 91
        0
 64
     7
 65
   257
 75
     1
175
     1
 42
1.0
 92
        8
 66
     8
424
  7895160
 43
1.0
 76
     1
 77
     6
 78
     2
 67
     7
 79
     5
170
     0
171
     0
290
     0
174
     0
 93
       13
 44
0.0
173
     0
291
     0
 45
0.0
1001
ACAD
1000
AcDbSavedByObjectVersion
1070
     0
  0
VISUALSTYLE
  5
37
102
{ACAD_REACTORS
330
2A
102
}
330
2A
100
AcDbVisualStyle
  2
Thicken
 70
    13
 71
     2
 72
     2
 73
     0
 90
        0
 40
-0.6
 41
-30.0
 62
     5
 63
     7
421
 16777215
 74
     1
 91
        4
 64
     7
 65
   257
 75
     1
175
     1
 42
1.0
 92
       12
 66
     7
 43
1.0
 76
     1
 77
     6
 78
     2
 67
     7
 79
     5
170
     0
171
     0
290
     0
174
     0
 93
        1
 44
0.0
173
     0
291
     1
 45
0.0
1001
ACAD
1000
AcDbSavedByObjectVersion
1070
     0
  0
ENDSEC
  0
EOF
