  0
SECTION
  2
HEADER
  9
$ACADVER
  1
AC1018
  9
$ACADMAINTVER
 70
     0
  9
$DWGCODEPAGE
  3
ANSI_1252
  9
$INSBASE
 10
0.0
 20
0.0
 30
0.0
  9
$EXTMIN
 10
-37.74942146349494
 20
0.049999999783779
 30
0.0
  9
$EXTMAX
 10
78.20028928075422
 20
65.18795852298751
 30
0.0
  9
$LIMMIN
 10
0.0
 20
0.0
  9
$LIMMAX
 10
12.0
 20
9.0
  9
$ORTHOMODE
 70
     0
  9
$REGENMODE
 70
     1
  9
$FILLMODE
 70
     1
  9
$QTEXTMODE
 70
     0
  9
$MIRRTEXT
 70
     1
  9
$LTSCALE
 40
0.0393700787401575
  9
$ATTMODE
 70
     1
  9
$TEXTSIZE
 40
0.2
  9
$TRACEWID
 40
0.05
  9
$TEXTSTYLE
  7
Standard
  9
$CLAYER
  8
Default
  9
$CELTYPE
  6
ByLayer
  9
$CECOLOR
 62
   256
  9
$CELTSCALE
 40
1.0
  9
$DISPSILH
 70
     0
  9
$DIMSCALE
 40
1.0
  9
$DIMASZ
 40
0.18
  9
$DIMEXO
 40
0.0625
  9
$DIMDLI
 40
0.38
  9
$DIMRND
 40
0.0
  9
$DIMDLE
 40
0.0
  9
$DIMEXE
 40
0.18
  9
$DIMTP
 40
0.0
  9
$DIMTM
 40
0.0
  9
$DIMTXT
 40
0.18
  9
$DIMCEN
 40
0.09
  9
$DIMTSZ
 40
0.0
  9
$DIMTOL
 70
     0
  9
$DIMLIM
 70
     0
  9
$DIMTIH
 70
     1
  9
$DIMTOH
 70
     1
  9
$DIMSE1
 70
     0
  9
$DIMSE2
 70
     0
  9
$DIMTAD
 70
     0
  9
$DIMZIN
 70
     0
  9
$DIMBLK
  1

  9
$DIMASO
 70
     1
  9
$DIMSHO
 70
     1
  9
$DIMPOST
  1

  9
$DIMAPOST
  1

  9
$DIMALT
 70
     0
  9
$DIMALTD
 70
     2
  9
$DIMALTF
 40
25.4
  9
$DIMLFAC
 40
1.0
  9
$DIMTOFL
 70
     0
  9
$DIMTVP
 40
0.0
  9
$DIMTIX
 70
     0
  9
$DIMSOXD
 70
     0
  9
$DIMSAH
 70
     0
  9
$DIMBLK1
  1

  9
$DIMBLK2
  1

  9
$DIMSTYLE
  2
Standard
  9
$DIMCLRD
 70
     0
  9
$DIMCLRE
 70
     0
  9
$DIMCLRT
 70
     0
  9
$DIMTFAC
 40
1.0
  9
$DIMGAP
 40
0.09
  9
$DIMJUST
 70
     0
  9
$DIMSD1
 70
     0
  9
$DIMSD2
 70
     0
  9
$DIMTOLJ
 70
     1
  9
$DIMTZIN
 70
     0
  9
$DIMALTZ
 70
     0
  9
$DIMALTTZ
 70
     0
  9
$DIMUPT
 70
     0
  9
$DIMDEC
 70
     4
  9
$DIMTDEC
 70
     4
  9
$DIMALTU
 70
     2
  9
$DIMALTTD
 70
     2
  9
$DIMTXSTY
  7
Standard
  9
$DIMAUNIT
 70
     0
  9
$DIMADEC
 70
     0
  9
$DIMALTRND
 40
0.0
  9
$DIMAZIN
 70
     0
  9
$DIMDSEP
 70
    46
  9
$DIMATFIT
 70
     3
  9
$DIMFRAC
 70
     0
  9
$DIMLDRBLK
  1

  9
$DIMLUNIT
 70
     2
  9
$DIMLWD
 70
    -2
  9
$DIMLWE
 70
    -2
  9
$DIMTMOVE
 70
     2
  9
$LUNITS
 70
     2
  9
$LUPREC
 70
     3
  9
$SKETCHINC
 40
0.1
  9
$FILLETRAD
 40
0.5
  9
$AUNITS
 70
     0
  9
$AUPREC
 70
     0
  9
$MENU
  1
.
  9
$ELEVATION
 40
0.0
  9
$PELEVATION
 40
0.0
  9
$THICKNESS
 40
0.0
  9
$LIMCHECK
 70
     0
  9
$CHAMFERA
 40
0.5
  9
$CHAMFERB
 40
0.5
  9
$CHAMFERC
 40
1.0
  9
$CHAMFERD
 40
0.0
  9
$SKPOLY
 70
     0
  9
$TDCREATE
 40
2458148.943207766
  9
$TDUCREATE
 40
2458149.151541099
  9
$TDUPDATE
 40
2458148.943207778
  9
$TDUUPDATE
 40
2458149.151541111
  9
$TDINDWG
 40
0.0000000116
  9
$TDUSRTIMER
 40
0.0000000116
  9
$USRTIMER
 70
     1
  9
$ANGBASE
 50
0.0
  9
$ANGDIR
 70
     0
  9
$PDMODE
 70
     0
  9
$PDSIZE
 40
0.0
  9
$PLINEWID
 40
0.0
  9
$SPLFRAME
 70
     0
  9
$SPLINETYPE
 70
     6
  9
$SPLINESEGS
 70
     8
  9
$HANDSEED
  5
F0
  9
$SURFTAB1
 70
     6
  9
$SURFTAB2
 70
     6
  9
$SURFTYPE
 70
     6
  9
$SURFU
 70
     6
  9
$SURFV
 70
     6
  9
$UCSBASE
  2

  9
$UCSNAME
  2

  9
$UCSORG
 10
0.0
 20
0.0
 30
0.0
  9
$UCSXDIR
 10
1.0
 20
0.0
 30
0.0
  9
$UCSYDIR
 10
0.0
 20
1.0
 30
0.0
  9
$UCSORTHOREF
  2

  9
$UCSORTHOVIEW
 70
     0
  9
$UCSORGTOP
 10
0.0
 20
0.0
 30
0.0
  9
$UCSORGBOTTOM
 10
0.0
 20
0.0
 30
0.0
  9
$UCSORGLEFT
 10
0.0
 20
0.0
 30
0.0
  9
$UCSORGRIGHT
 10
0.0
 20
0.0
 30
0.0
  9
$UCSORGFRONT
 10
0.0
 20
0.0
 30
0.0
  9
$UCSORGBACK
 10
0.0
 20
0.0
 30
0.0
  9
$PUCSBASE
  2

  9
$PUCSNAME
  2

  9
$PUCSORG
 10
0.0
 20
0.0
 30
0.0
  9
$PUCSXDIR
 10
1.0
 20
0.0
 30
0.0
  9
$PUCSYDIR
 10
0.0
 20
1.0
 30
0.0
  9
$PUCSORTHOREF
  2

  9
$PUCSORTHOVIEW
 70
     0
  9
$PUCSORGTOP
 10
0.0
 20
0.0
 30
0.0
  9
$PUCSORGBOTTOM
 10
0.0
 20
0.0
 30
0.0
  9
$PUCSORGLEFT
 10
0.0
 20
0.0
 30
0.0
  9
$PUCSORGRIGHT
 10
0.0
 20
0.0
 30
0.0
  9
$PUCSORGFRONT
 10
0.0
 20
0.0
 30
0.0
  9
$PUCSORGBACK
 10
0.0
 20
0.0
 30
0.0
  9
$USERI1
 70
     0
  9
$USERI2
 70
     0
  9
$USERI3
 70
     0
  9
$USERI4
 70
     0
  9
$USERI5
 70
     0
  9
$USERR1
 40
0.0
  9
$USERR2
 40
0.0
  9
$USERR3
 40
0.0
  9
$USERR4
 40
0.0
  9
$USERR5
 40
0.0
  9
$WORLDVIEW
 70
     1
  9
$SHADEDGE
 70
     3
  9
$SHADEDIF
 70
    70
  9
$TILEMODE
 70
     1
  9
$MAXACTVP
 70
    64
  9
$PINSBASE
 10
0.0
 20
0.0
 30
0.0
  9
$PLIMCHECK
 70
     0
  9
$PEXTMIN
 10
1.000000000000000E+20
 20
1.000000000000000E+20
 30
1.000000000000000E+20
  9
$PEXTMAX
 10
-1.000000000000000E+20
 20
-1.000000000000000E+20
 30
-1.000000000000000E+20
  9
$PLIMMIN
 10
0.0
 20
0.0
  9
$PLIMMAX
 10
12.0
 20
9.0
  9
$UNITMODE
 70
     0
  9
$VISRETAIN
 70
     1
  9
$PLINEGEN
 70
     0
  9
$PSLTSCALE
 70
     1
  9
$TREEDEPTH
 70
  3020
  9
$CMLSTYLE
  2
Standard
  9
$CMLJUST
 70
     0
  9
$CMLSCALE
 40
1.0
  9
$PROXYGRAPHICS
 70
     1
  9
$MEASUREMENT
 70
     0
  9
$CELWEIGHT
370
    -1
  9
$ENDCAPS
280
     0
  9
$JOINSTYLE
280
     0
  9
$LWDISPLAY
290
     0
  9
$INSUNITS
 70
     1
  9
$HYPERLINKBASE
  1

  9
$STYLESHEET
  1

  9
$XEDIT
290
     1
  9
$CEPSNTYPE
380
     0
  9
$PSTYLEMODE
290
     1
  9
$FINGERPRINTGUID
  2
{3C4A893B-6975-4678-8EA2-FD66D515F92E}
  9
$VERSIONGUID
  2
{FAEB1C32-E019-11D5-929B-00C0DF256EC4}
  9
$EXTNAMES
290
     1
  9
$PSVPSCALE
 40
0.0
  9
$OLESTARTUP
290
     0
  9
$SORTENTS
280
   127
  9
$INDEXCTL
280
     0
  9
$HIDETEXT
280
     1
  9
$XCLIPFRAME
290
     0
  9
$HALOGAP
280
     0
  9
$OBSCOLOR
 70
   257
  9
$OBSLTYPE
280
     0
  9
$INTERSECTIONDISPLAY
280
     0
  9
$INTERSECTIONCOLOR
 70
   257
  9
$DIMASSOC
280
     2
  9
$PROJECTNAME
  1

  0
ENDSEC
  0
SECTION
  2
CLASSES
  0
CLASS
  1
ACDBDICTIONARYWDFLT
  2
AcDbDictionaryWithDefault
  3
ObjectDBX Classes
 90
        0
 91
        4
280
     0
281
     0
  0
CLASS
  1
VISUALSTYLE
  2
AcDbVisualStyle
  3
ObjectDBX Classes
 90
     4095
 91
        4
280
     0
281
     0
  0
ENDSEC
  0
SECTION
  2
TABLES
  0
TABLE
  2
VPORT
  5
8
330
0
100
AcDbSymbolTable
 70
     1
  0
VPORT
  5
29
330
8
100
AcDbSymbolTableRecord
100
AcDbViewportTableRecord
  2
*Active
 70
     0
 10
0.0
 20
0.0
 11
1.0
 21
1.0
 12
20.22543390862964
 22
32.61897926138565
 13
0.0
 23
0.0
 14
0.5
 24
0.5
 15
0.5
 25
0.5
 16
0.0
 26
0.0
 36
1.0
 17
0.0
 27
0.0
 37
0.0
 40
66.4407176936678
 41
1.780063627614996
 42
50.0
 43
0.0
 44
0.0
 50
0.0
 51
0.0
 71
     0
 72
   100
 73
     1
 74
     3
 75
     0
 76
     0
 77
     0
 78
     0
281
     0
 65
     1
110
0.0
120
0.0
130
0.0
111
1.0
121
0.0
131
0.0
112
0.0
122
1.0
132
0.0
 79
     0
146
0.0
  0
ENDTAB
  0
TABLE
  2
LTYPE
  5
5
330
0
100
AcDbSymbolTable
 70
     1
  0
LTYPE
  5
14
330
5
100
AcDbSymbolTableRecord
100
AcDbLinetypeTableRecord
  2
ByBlock
 70
     0
  3

 72
    65
 73
     0
 40
0.0
  0
LTYPE
  5
15
330
5
100
AcDbSymbolTableRecord
100
AcDbLinetypeTableRecord
  2
ByLayer
 70
     0
  3

 72
    65
 73
     0
 40
0.0
  0
LTYPE
  5
16
330
5
100
AcDbSymbolTableRecord
100
AcDbLinetypeTableRecord
  2
Continuous
 70
     0
  3
Solid line
 72
    65
 73
     0
 40
0.0
  0
ENDTAB
  0
TABLE
  2
LAYER
  5
2
330
0
100
AcDbSymbolTable
 70
     2
  0
LAYER
  5
10
330
2
100
AcDbSymbolTableRecord
100
AcDbLayerTableRecord
  2
0
 70
     0
 62
     7
  6
Continuous
370
    -3
390
F
  0
LAYER
  5
3B
330
2
100
AcDbSymbolTableRecord
100
AcDbLayerTableRecord
  2
Default
 70
     0
 62
     7
  6
Continuous
370
    -3
390
F
  0
ENDTAB
  0
TABLE
  2
STYLE
  5
3
330
0
100
AcDbSymbolTable
 70
     1
  0
STYLE
  5
11
330
3
100
AcDbSymbolTableRecord
100
AcDbTextStyleTableRecord
  2
Standard
 70
     0
 40
0.0
 41
1.0
 50
0.0
 71
     0
 42
0.2
  3
txt
  4

  0
ENDTAB
  0
TABLE
  2
VIEW
  5
6
330
0
100
AcDbSymbolTable
 70
     0
  0
ENDTAB
  0
TABLE
  2
UCS
  5
7
330
0
100
AcDbSymbolTable
 70
     0
  0
ENDTAB
  0
TABLE
  2
APPID
  5
9
330
0
100
AcDbSymbolTable
 70
     1
  0
APPID
  5
12
330
9
100
AcDbSymbolTableRecord
100
AcDbRegAppTableRecord
  2
ACAD
 70
     0
  0
ENDTAB
  0
TABLE
  2
DIMSTYLE
  5
A
330
0
100
AcDbSymbolTable
 70
     1
100
AcDbDimStyleTable
  0
DIMSTYLE
105
27
330
A
100
AcDbSymbolTableRecord
100
AcDbDimStyleTableRecord
  2
Standard
 70
     0
340
11
  0
ENDTAB
  0
TABLE
  2
BLOCK_RECORD
  5
1
330
0
100
AcDbSymbolTable
 70
     1
  0
BLOCK_RECORD
  5
1F
330
1
100
AcDbSymbolTableRecord
100
AcDbBlockTableRecord
  2
*Model_Space
340
22
  0
BLOCK_RECORD
  5
1B
330
1
100
AcDbSymbolTableRecord
100
AcDbBlockTableRecord
  2
*Paper_Space
340
1E
  0
BLOCK_RECORD
  5
23
330
1
100
AcDbSymbolTableRecord
100
AcDbBlockTableRecord
  2
*Paper_Space0
340
26
  0
ENDTAB
  0
ENDSEC
  0
SECTION
  2
BLOCKS
  0
BLOCK
  5
20
330
1F
100
AcDbEntity
  8
0
100
AcDbBlockBegin
  2
*Model_Space
 70
     0
 10
0.0
 20
0.0
 30
0.0
  3
*Model_Space
  1

  0
ENDBLK
  5
21
330
1F
100
AcDbEntity
  8
0
100
AcDbBlockEnd
  0
BLOCK
  5
1C
330
1B
100
AcDbEntity
 67
     1
  8
0
100
AcDbBlockBegin
  2
*Paper_Space
 70
     0
 10
0.0
 20
0.0
 30
0.0
  3
*Paper_Space
  1

  0
ENDBLK
  5
1D
330
1B
100
AcDbEntity
 67
     1
  8
0
100
AcDbBlockEnd
  0
BLOCK
  5
24
330
23
100
AcDbEntity
  8
0
100
AcDbBlockBegin
  2
*Paper_Space0
 70
     0
 10
0.0
 20
0.0
 30
0.0
  3
*Paper_Space0
  1

  0
ENDBLK
  5
25
330
23
100
AcDbEntity
  8
0
100
AcDbBlockEnd
  0
ENDSEC
  0
SECTION
  2
ENTITIES
  0
LINE
  5
3C
330
1F
100
AcDbEntity
  8
Default
100
AcDbLine
 10
59.50005020715126
 20
15.42503914794077
 30
0.0
 11
59.50005020556685
 21
17.36204279830781
 31
0.0
  0
SPLINE
  5
3D
330
1F
100
AcDbEntity
  8
Default
100
AcDbSpline
210
0.0
220
0.0
230
1.0
 70
     8
 71
     3
 72
    14
 73
    10
 74
     0
 42
0.0000000001
 43
0.0000000001
 40
-12.26203533468478
 40
-12.26203533468478
 40
-12.26203533468478
 40
-12.26203533468478
 40
-10.74358193232705
 40
-8.947613819412345
 40
-7.141201977474322
 40
-5.367291970666196
 40
-2.433620593354017
 40
-1.183560743342271
 40
0.0
 40
0.0
 40
0.0
 40
0.0
 10
59.50005020556685
 20
17.36204279830781
 30
0.0
 10
59.49095754964938
 20
17.86810309943601
 30
0.0
 10
59.44099509750029
 20
18.97216990809761
 30
0.0
 10
59.28710536098211
 20
20.67237700349028
 30
0.0
 10
59.067752104221
 20
22.4513739691883
 30
0.0
 10
58.72087681409747
 20
24.59498231632909
 30
0.0
 10
58.28369220114055
 20
26.53463194237565
 30
0.0
 10
57.73440168931452
 20
28.23873419803687
 30
0.0
 10
57.42878383909155
 20
28.99065262518394
 30
0.0
 10
57.26490635856115
 20
29.34960367785362
 30
0.0
  0
LINE
  5
3E
330
1F
100
AcDbEntity
  8
Default
100
AcDbLine
 10
57.26490635856115
 20
29.34960367785362
 30
0.0
 11
57.25405718658502
 21
29.37336729497068
 31
0.0
  0
ARC
  5
3F
330
1F
100
AcDbEntity
  8
Default
100
AcDbCircle
 10
56.7992172641398
 20
29.16571218439046
 30
0.0
 40
0.5
100
AcDbArc
 50
24.53885410444715
 51
80.99917740315651
  0
SPLINE
  5
40
330
1F
100
AcDbEntity
  8
Default
100
AcDbSpline
210
0.0
220
0.0
230
1.0
 70
    12
 71
     2
 72
     6
 73
     3
 74
     0
 42
0.0000000001
 43
0.0000000001
 40
-1.629194543905347
 40
-1.629194543905347
 40
-1.629194543905347
 40
0.0
 40
0.0
 40
0.0
 10
56.8774415867841
 20
29.65955523167051
 30
0.0
 41
0.9999618433163424
 10
56.070977764299
 20
29.78729842173562
 30
0.0
 41
0.9964642919834154
 10
55.25450602944644
 20
29.77857341259372
 30
0.0
 41
0.999999996566831
  0
SPLINE
  5
41
330
1F
100
AcDbEntity
  8
Default
100
AcDbSpline
210
0.0
220
0.0
230
1.0
 70
    12
 71
     2
 72
     6
 73
     3
 74
     0
 42
0.0000000001
 43
0.0000000001
 40
0.0
 40
0.0
 40
0.0
 40
1.638033214271802
 40
1.638033214271802
 40
1.638033214271802
 10
55.25450602944644
 20
29.77857341259372
 30
0.0
 41
0.999999996566831
 10
54.43358898755412
 20
29.78734592533299
 30
0.0
 41
0.9964451101567618
 10
53.62285125516453
 20
29.65817005188597
 30
0.0
 41
1.0
  0
SPLINE
  5
42
330
1F
100
AcDbEntity
  8
Default
100
AcDbSpline
210
0.0
220
0.0
230
1.0
 70
    12
 71
     2
 72
     6
 73
     3
 74
     0
 42
0.0000000001
 43
0.0000000001
 40
0.0
 40
0.0
 40
0.0
 40
0.7070700636718217
 40
0.7070700636718217
 40
0.7070700636718217
 10
53.62285125516453
 20
29.65817005188597
 30
0.0
 41
1.0
 10
53.20085502529334
 20
29.59153760515209
 30
0.0
 41
0.760266553890503
 10
53.20083575608018
 20
29.16431336970547
 30
0.0
 41
1.0
  0
SPLINE
  5
43
330
1F
100
AcDbEntity
  8
Default
100
AcDbSpline
210
0.0
220
0.0
230
1.0
 70
    24
 71
     2
 72
     6
 73
     3
 74
     0
 42
0.0000000001
 43
0.0000000001
 40
-14.4893020002786
 40
-14.4893020002786
 40
-14.4893020002786
 40
0.0
 40
0.0
 40
0.0
 10
53.20083575608018
 20
29.16431336970547
 30
0.0
 10
53.20049689081651
 20
21.91966207037434
 30
0.0
 10
53.20015802555284
 20
14.67501077104322
 30
0.0
  0
SPLINE
  5
44
330
1F
100
AcDbEntity
  8
Default
100
AcDbSpline
210
0.0
220
0.0
230
1.0
 70
    12
 71
     2
 72
     6
 73
     3
 74
     0
 42
0.0000000001
 43
0.0000000001
 40
0.0
 40
0.0
 40
0.0
 40
0.3761352932874497
 40
0.3761352932874497
 40
0.3761352932874497
 10
53.20015802555284
 20
14.67501077104322
 30
0.0
 41
1.0
 10
53.20014550468657
 20
14.43966848008451
 30
0.0
 41
0.7194662149251728
 10
53.43505728314714
 20
14.42545611180666
 30
0.0
 41
0.9763257704015883
  0
LINE
  5
45
330
1F
100
AcDbEntity
  8
Default
100
AcDbLine
 10
53.43505728314713
 20
14.42545611180665
 30
0.0
 11
54.46802275474701
 21
14.42545611180665
 31
0.0
  0
POLYLINE
  5
46
330
1F
100
AcDbEntity
  8
Default
100
AcDb2dPolyline
 66
     1
 10
0.0
 20
0.0
 30
0.0
  0
VERTEX
  5
47
330
46
100
AcDbEntity
  8
Default
100
AcDbVertex
100
AcDb2dVertex
 10
54.46802275474701
 20
14.42545611180665
 30
0.0
  0
VERTEX
  5
48
330
46
100
AcDbEntity
  8
Default
100
AcDbVertex
100
AcDb2dVertex
 10
54.74903928075317
 20
14.42545611180665
 30
0.0
  0
SEQEND
  5
49
330
46
100
AcDbEntity
  8
Default
  0
SPLINE
  5
4A
330
1F
100
AcDbEntity
  8
Default
100
AcDbSpline
210
0.0
220
0.0
230
1.0
 70
    12
 71
     2
 72
     6
 73
     3
 74
     0
 42
0.0000000001
 43
0.0000000001
 40
0.0
 40
0.0
 40
0.0
 40
0.3775088600025234
 40
0.3775088600025234
 40
0.3775088600025234
 10
59.26342140828208
 20
14.42545611180665
 30
0.0
 41
1.0
 10
59.49834419457142
 20
14.43967891776078
 30
0.0
 41
0.7275286780405241
 10
59.4983076857526
 20
14.67503914794086
 30
0.0
 41
0.9984292564963844
  0
POLYLINE
  5
4B
330
1F
100
AcDbEntity
  8
Default
100
AcDb2dPolyline
 66
     1
 10
0.0
 20
0.0
 30
0.0
  0
VERTEX
  5
4C
330
4B
100
AcDbEntity
  8
Default
100
AcDbVertex
100
AcDb2dVertex
 10
54.74903928075317
 20
14.42545611180665
 30
0.0
  0
VERTEX
  5
4D
330
4B
100
AcDbEntity
  8
Default
100
AcDbVertex
100
AcDb2dVertex
 10
59.26342140828208
 20
14.42545611180665
 30
0.0
  0
SEQEND
  5
4E
330
4B
100
AcDbEntity
  8
Default
  0
SPLINE
  5
4F
330
1F
100
AcDbEntity
  8
Default
100
AcDbSpline
210
0.0
220
0.0
230
1.0
 70
    12
 71
     2
 72
     6
 73
     3
 74
     0
 42
0.0000000001
 43
0.0000000001
 40
-2524.803469941329
 40
-2524.803469941329
 40
-2524.803469941329
 40
-2524.41077085963
 40
-2524.41077085963
 40
-2524.41077085963
 10
59.75008128821869
 20
14.42503914794088
 30
0.0
 41
1.0
 10
59.50008128821862
 20
14.42503914794078
 30
0.0
 41
0.707106781186427
 10
59.50008128821858
 20
14.67503914794088
 30
0.0
 41
1.0
  0
SPLINE
  5
50
330
1F
100
AcDbEntity
  8
Default
100
AcDbSpline
210
0.0
220
0.0
230
1.0
 70
    28
 71
     2
 72
     8
 73
     5
 74
     0
 42
0.0000000001
 43
0.0000000001
 40
-2547.981775971362
 40
-2547.981775971362
 40
-2547.981775971362
 40
-2526.10221994133
 40
-2526.10221994133
 40
-2524.803469941329
 40
-2524.803469941329
 40
-2524.803469941329
 10
76.64903928075339
 20
14.42503914794088
 30
0.0
 41
1.0
 10
66.04769437584983
 20
14.42503914794088
 30
0.0
 41
1.0
 10
61.04883128821953
 20
14.42503914794088
 30
0.0
 41
1.0
 10
60.39945628821911
 20
14.42503914794088
 30
0.0
 41
1.0
 10
59.75008128821869
 20
14.42503914794088
 30
0.0
 41
1.0
  0
SPLINE
  5
51
330
1F
100
AcDbEntity
  8
Default
100
AcDbSpline
210
0.0
220
0.0
230
1.0
 70
    12
 71
     2
 72
    18
 73
    15
 74
     0
 42
0.0000000001
 43
0.0000000001
 40
-2580.261064848845
 40
-2580.261064848845
 40
-2580.261064848845
 40
-2578.139015056563
 40
-2578.139015056563
 40
-2577.353616893166
 40
-2577.353616893166
 40
-2553.353616935937
 40
-2553.353616935937
 40
-2552.568218772539
 40
-2552.568218772539
 40
-2549.696168980258
 40
-2549.696168980258
 40
-2549.303469898559
 40
-2549.303469898559
 40
-2547.981775971362
 40
-2547.981775971362
 40
-2547.981775971362
 10
59.50008128821861
 20
15.42503914794082
 30
0.0
 41
1.0
 10
59.50008128821865
 20
16.48606404408164
 30
0.0
 41
1.0
 10
59.50008128821869
 20
17.54708894022247
 30
0.0
 41
1.0
 10
59.50008128821867
 20
18.04708894022247
 30
0.0
 41
0.7071067811865426
 10
60.00008128821869
 20
18.04708894022247
 30
0.0
 41
1.0
 10
65.70028925936711
 20
18.04708894022247
 30
0.0
 41
1.0
 10
77.70028923798182
 20
18.04708894022247
 30
0.0
 41
1.0
 10
78.20028923798185
 20
18.04708894022247
 30
0.0
 41
0.7071067811865627
 10
78.20028923798182
 20
17.54708894022247
 30
0.0
 41
1.0
 10
78.20028923798193
 20
16.11106404408167
 30
0.0
 41
1.0
 10
78.20028923798205
 20
14.67503914794088
 30
0.0
 41
1.0
 10
78.20028923798208
 20
14.42503914794088
 30
0.0
 41
0.7071067811865426
 10
77.95028923798205
 20
14.42503914794088
 30
0.0
 41
1.0
 10
77.28944227438356
 20
14.42503914794088
 30
0.0
 41
1.0
 10
76.64903928075339
 20
14.42503914794088
 30
0.0
 41
1.0
  0
SPLINE
  5
52
330
1F
100
AcDbEntity
  8
Default
100
AcDbSpline
210
0.0
220
0.0
230
1.0
 70
    15
 71
     2
 72
    22
 73
    19
 74
     0
 42
0.0000000001
 43
0.0000000001
 40
0.0
 40
0.0
 40
0.0
 40
38.0521372463281
 40
38.0521372463281
 40
38.4448383576504
 40
38.4448383576504
 40
41.31688814993201
 40
41.31688814993201
 40
41.70965007631988
 40
41.70965007631988
 40
42.10241200270775
 40
42.10241200270775
 40
79.6545385781071
 40
79.6545385781071
 40
80.43993674150454
 40
80.43993674150454
 40
83.31198653378614
 40
83.31198653378614
 40
83.7046867353958
 40
83.7046867353958
 40
83.7046867353958
 10
-25.00155652083467
 20
14.42500000240219
 30
0.0
 41
1.0
 10
0.0239358641615866
 20
14.42500000240219
 30
0.0
 41
1.0
 10
25.00155512910541
 20
14.42500000240219
 30
0.0
 41
1.0
 10
25.25155549442655
 20
14.42499963704545
 30
0.0
 41
0.707110387889693
 10
25.25155410188977
 20
14.67500000240008
 30
0.0
 41
0.9999999999167506
 10
25.25155194776538
 20
16.11102489854088
 30
0.0
 41
0.9999999999167506
 10
25.25154979364099
 20
17.54704979468168
 30
0.0
 41
0.9999999999167506
 10
25.25167106376149
 20
17.75420678680386
 30
0.0
 41
0.9237674810464906
 10
25.10518892476235
 20
17.90068892580303
 30
0.0
 41
0.9999999999167506
 10
24.95870678576314
 20
18.04717106480221
 30
0.0
 41
0.9237674810464906
 10
24.75154979364098
 20
18.04704979468167
 30
0.0
 41
0.9999999999167506
 10
0.023935864161553
 20
18.04704979468169
 30
0.0
 41
0.9999999999167506
 10
-24.7515511853703
 20
18.04704979468169
 30
0.0
 41
0.9999999999167506
 10
-25.25155118537034
 20
18.04704979468169
 30
0.0
 41
0.7071067811276798
 10
-25.25155118537032
 20
17.54704979468168
 30
0.0
 41
0.9999999999167506
 10
-25.25155333949471
 20
16.11102489854088
 30
0.0
 41
0.9999999999167506
 10
-25.25155549361909
 20
14.67500000240008
 30
0.0
 41
0.9999999999167506
 10
-25.2515547666037
 20
14.42500175658876
 30
0.0
 41
0.7071163829140098
 10
-25.00155652083467
 20
14.42500000240219
 30
0.0
 41
1.0
  0
SPLINE
  5
53
330
1F
100
AcDbEntity
  8
Default
100
AcDbSpline
210
0.0
220
0.0
230
1.0
 70
    15
 71
     2
 72
    20
 73
    17
 74
     0
 42
0.0000000001
 43
0.0000000001
 40
201.8561944901975
 40
201.8561944901975
 40
201.8561944901975
 40
264.3561944901974
 40
264.3561944901974
 40
265.1415926535949
 40
265.1415926535949
 40
289.1415926535967
 40
289.1415926535967
 40
289.9269908169941
 40
289.9269908169941
 40
352.4269908169941
 40
352.4269908169941
 40
353.2123889803915
 40
353.2123889803915
 40
377.2123889803932
 40
377.2123889803932
 40
377.9977871437907
 40
377.9977871437907
 40
377.9977871437907
 10
-24.75155980186784
 20
58.89086407428945
 30
0.0
 41
1.0
 10
2.430626697489714
 20
58.89086407428945
 30
0.0
 41
1.0
 10
24.75154214835621
 20
58.89086407428945
 30
0.0
 41
1.0
 10
25.25154214835624
 20
58.89086407428944
 30
0.0
 41
0.7071067811865375
 10
25.25154214835621
 20
58.39086407428942
 30
0.0
 41
1.0
 10
25.25154214835621
 20
52.68795852298666
 30
0.0
 41
1.0
 10
25.25154214835621
 20
40.68795852298581
 30
0.0
 41
1.0
 10
25.25154214835624
 20
40.18795852298583
 30
0.0
 41
0.7071067811865551
 10
24.75154214835621
 20
40.18795852298581
 30
0.0
 41
1.0
 10
2.430626697489714
 20
40.18795852298581
 30
0.0
 41
1.0
 10
-24.75155980186784
 20
40.18795852298581
 30
0.0
 41
1.0
 10
-25.25155980186792
 20
40.18795852298582
 30
0.0
 41
0.7071067811865476
 10
-25.25155980186784
 20
40.68795852298581
 30
0.0
 41
1.0
 10
-25.25155980186784
 20
52.68795852298666
 30
0.0
 41
1.0
 10
-25.25155980186784
 20
58.39086407428945
 30
0.0
 41
1.0
 10
-25.25155980186781
 20
58.89086407428945
 30
0.0
 41
0.707106781186545
 10
-24.75155980186784
 20
58.89086407428945
 30
0.0
 41
1.0
  0
SPLINE
  5
54
330
1F
100
AcDbEntity
  8
Default
100
AcDbSpline
210
0.0
220
0.0
230
1.0
 70
    24
 71
     2
 72
     6
 73
     3
 74
     0
 42
0.0000000001
 43
0.0000000001
 40
0.0
 40
0.0
 40
0.0
 40
1.250000000000004
 40
1.250000000000004
 40
1.250000000000004
 10
53.20028928075274
 20
14.17503914794082
 30
0.0
 10
53.20028928075257
 20
13.55003914794082
 30
0.0
 10
53.2002892807524
 20
12.92503914794082
 30
0.0
  0
ARC
  5
55
330
1F
100
AcDbEntity
  8
Default
100
AcDbCircle
 10
53.4502892807524
 20
12.92503914794082
 30
0.0
 40
0.25
100
AcDbArc
 50
180.0
 51
270.0
  0
LINE
  5
56
330
1F
100
AcDbEntity
  8
Default
100
AcDbLine
 10
53.4502892807524
 20
12.67503914794082
 30
0.0
 11
77.9502892807541
 21
12.67503914794088
 31
0.0
  0
ARC
  5
57
330
1F
100
AcDbEntity
  8
Default
100
AcDbCircle
 10
77.9502892807541
 20
12.92503914794088
 30
0.0
 40
0.25
100
AcDbArc
 50
270.000000000013
 51
359.9999999999919
  0
SPLINE
  5
58
330
1F
100
AcDbEntity
  8
Default
100
AcDbSpline
210
0.0
220
0.0
230
1.0
 70
    24
 71
     2
 72
     6
 73
     3
 74
     0
 42
0.0000000001
 43
0.0000000001
 40
0.0
 40
0.0
 40
0.0
 40
1.250000000000004
 40
1.250000000000004
 40
1.250000000000004
 10
78.2002892807541
 20
12.92503914794082
 30
0.0
 10
78.20028928075416
 20
13.55003914794082
 30
0.0
 10
78.20028928075422
 20
14.17503914794082
 30
0.0
  0
ARC
  5
59
330
1F
100
AcDbEntity
  8
Default
100
AcDbCircle
 10
77.95028928075422
 20
14.17503914794085
 30
0.0
 40
0.25
100
AcDbArc
 50
359.9999999999992
 51
90.0
  0
LINE
  5
5A
330
1F
100
AcDbEntity
  8
Default
100
AcDbLine
 10
77.95028928075422
 20
14.42503914794085
 30
0.0
 11
53.7002892807528
 21
14.42503914794085
 31
0.0
  0
LINE
  5
5B
330
1F
100
AcDbEntity
  8
Default
100
AcDbLine
 10
53.7002892807528
 20
14.42503914794085
 30
0.0
 11
53.4502892807524
 21
14.42503914794085
 31
0.0
  0
ARC
  5
5C
330
1F
100
AcDbEntity
  8
Default
100
AcDbCircle
 10
53.45028928075274
 20
14.17503914794085
 30
0.0
 40
0.25
100
AcDbArc
 50
90.0000000000684
 51
180.0000000000024
  0
ARC
  5
5D
330
1F
100
AcDbEntity
  8
Default
100
AcDbCircle
 10
10315.62735545774
 20
-414.325419620993
 30
0.0
 40
10246.45187490584
100
AcDbArc
 50
177.680177975183
 51
177.6814389168693
  0
LINE
  5
5E
330
1F
100
AcDbEntity
  8
Default
100
AcDbLine
 10
77.57294645441644
 20
0.425039147941277
 30
0.0
 11
76.44794118024154
 21
0.425039147941277
 31
0.0
  0
LINE
  5
5F
330
1F
100
AcDbEntity
  8
Default
100
AcDbLine
 10
76.44794118024154
 20
0.425039147941277
 30
0.0
 11
76.45929710227895
 21
0.1996421885590962
 31
0.0
  0
SPLINE
  5
60
330
1F
100
AcDbEntity
  8
Default
100
AcDbSpline
210
0.0
220
0.0
230
1.0
 70
    12
 71
     2
 72
     6
 73
     3
 74
     0
 42
0.0000000001
 43
0.0000000001
 40
-0.2387149143318927
 40
-0.2387149143318927
 40
-0.2387149143318927
 40
0.0
 40
0.0
 40
0.0
 10
76.45929710227895
 20
0.1996421885590962
 30
0.0
 41
1.0
 10
76.4653890445127
 20
0.0499615211182037
 30
0.0
 41
0.7212476062221478
 10
76.61566910440811
 20
0.0500003945681442
 30
0.0
 41
1.0
  0
SPLINE
  5
61
330
1F
100
AcDbEntity
  8
Default
100
AcDbSpline
210
0.0
220
0.0
230
1.0
 70
    12
 71
     2
 72
     6
 73
     3
 74
     0
 42
0.0000000001
 43
0.0000000001
 40
0.0
 40
0.0
 40
0.0
 40
0.3954244124017839
 40
0.3954244124017839
 40
0.3954244124017839
 10
76.61566910440811
 20
0.0500003945681442
 30
0.0
 41
1.0
 10
76.81385707405862
 20
0.0500274211337853
 30
0.0
 41
0.999999999289049
 10
77.0115692800056
 20
0.0500391457591718
 30
0.0
 41
1.0
  0
SPLINE
  5
62
330
1F
100
AcDbEntity
  8
Default
100
AcDbSpline
210
0.0
220
0.0
230
1.0
 70
    24
 71
     2
 72
     6
 73
     3
 74
     0
 42
0.0000000001
 43
0.0000000001
 40
0.0
 40
0.0
 40
0.0
 40
0.3954243890795226
 40
0.3954243890795226
 40
0.3954243890795226
 10
77.0115692800056
 20
0.0500391457591718
 30
0.0
 10
77.20951936354945
 20
0.0500391464786674
 30
0.0
 10
77.40746944709329
 20
0.0500391471981629
 30
0.0
  0
SPLINE
  5
63
330
1F
100
AcDbEntity
  8
Default
100
AcDbSpline
210
0.0
220
0.0
230
1.0
 70
    12
 71
     2
 72
     6
 73
     3
 74
     0
 42
0.0000000001
 43
0.0000000001
 40
-0.2387271341672585
 40
-0.2387271341672585
 40
-0.2387271341672585
 40
0.0
 40
0.0
 40
0.0
 10
77.40746944709329
 20
0.0500391471981629
 30
0.0
 41
1.0
 10
77.55775267436636
 20
0.0500391477227108
 30
0.0
 41
0.7212776802320741
 10
77.56382127813279
 20
0.199724204089307
 30
0.0
 41
1.0
  0
SPLINE
  5
64
330
1F
100
AcDbEntity
  8
Default
100
AcDbSpline
210
0.0
220
0.0
230
1.0
 70
    24
 71
     2
 72
     6
 73
     3
 74
     0
 42
0.0000000001
 43
0.0000000001
 40
-4.31576817762928
 40
-4.31576817762928
 40
-4.31576817762928
 40
30.3751483392478
 40
30.3751483392478
 40
30.3751483392478
 10
-25.25154401907136
 20
61.12389069670559
 30
0.0
 10
-0.0000000000000853
 20
61.12389069670559
 30
0.0
 10
25.25154401907119
 20
61.12389069670559
 30
0.0
  0
SPLINE
  5
65
330
1F
100
AcDbEntity
  8
Default
100
AcDbSpline
210
0.0
220
0.0
230
1.0
 70
    15
 71
     2
 72
    20
 73
    17
 74
     0
 42
0.0000000001
 43
0.0000000001
 40
198.7137567059726
 40
198.7137567059726
 40
198.7137567059726
 40
204.0108511546707
 40
204.0108511546707
 40
204.7962493180681
 40
204.7962493180681
 40
238.4871658349452
 40
238.4871658349452
 40
239.2725639983426
 40
239.2725639983426
 40
244.5696584470407
 40
244.5696584470407
 40
245.3550566104381
 40
245.3550566104381
 40
279.0459731273152
 40
279.0459731273152
 40
279.8313712907126
 40
279.8313712907126
 40
279.8313712907126
 10
25.25154401907119
 20
59.39086407428942
 30
0.0
 41
1.0
 10
25.25154401907119
 20
62.03941129863847
 30
0.0
 41
1.0
 10
25.25154401907119
 20
64.68795852298751
 30
0.0
 41
1.0
 10
25.25154401907121
 20
65.18795852298751
 30
0.0
 41
0.7071067811865476
 10
24.75154401907119
 20
65.18795852298751
 30
0.0
 41
1.0
 10
1.906661998800445
 20
65.18795852298751
 30
0.0
 41
1.0
 10
-24.75154401907136
 20
65.18795852298751
 30
0.0
 41
1.0
 10
-25.25154401907134
 20
65.18795852298751
 30
0.0
 41
0.7071067811865576
 10
-25.25154401907136
 20
64.68795852298751
 30
0.0
 41
1.0
 10
-25.25154401907136
 20
62.03941129863847
 30
0.0
 41
1.0
 10
-25.25154401907136
 20
59.39086407428942
 30
0.0
 41
1.0
 10
-25.25154401907135
 20
58.89086407428941
 30
0.0
 41
0.7071067811865476
 10
-24.75154401907136
 20
58.89086407428942
 30
0.0
 41
1.0
 10
1.906661998800445
 20
58.89086407428942
 30
0.0
 41
1.0
 10
24.75154401907119
 20
58.89086407428942
 30
0.0
 41
1.0
 10
25.25154401907112
 20
58.89086407428942
 30
0.0
 41
0.7071067811865576
 10
25.25154401907119
 20
59.39086407428942
 30
0.0
 41
1.0
  0
SPLINE
  5
66
330
1F
100
AcDbEntity
  8
Default
100
AcDbSpline
210
0.0
220
0.0
230
1.0
 70
    15
 71
     2
 72
    20
 73
    17
 74
     0
 42
0.0000000001
 43
0.0000000001
 40
-6482.241760176043
 40
-6482.241760176043
 40
-6482.241760176043
 40
-6480.991760176043
 40
-6480.991760176043
 40
-6480.599061094345
 40
-6480.599061094345
 40
-6417.599061094345
 40
-6417.599061094345
 40
-6417.206362012646
 40
-6417.206362012646
 40
-6415.956362012646
 40
-6415.956362012646
 40
-6415.563662930947
 40
-6415.563662930947
 40
-6352.563662930947
 40
-6352.563662930947
 40
-6352.170963849248
 40
-6352.170963849248
 40
-6352.170963849248
 10
37.7494260601699
 20
12.92500000240005
 30
0.0
 41
1.0
 10
37.74942606016972
 20
13.55000000240005
 30
0.0
 41
1.0
 10
37.74942606016955
 20
14.17500000240008
 30
0.0
 41
1.0
 10
37.7494260601696
 20
14.42500000240008
 30
0.0
 41
0.7071067811865476
 10
37.49942606016955
 20
14.42500000240008
 30
0.0
 41
1.0
 10
0.000002298337364
 20
14.42500000240008
 30
0.0
 41
1.0
 10
-37.49942146349471
 20
14.42500000240008
 30
0.0
 41
1.0
 10
-37.74942146349483
 20
14.42500000240008
 30
0.0
 41
0.7071067811865426
 10
-37.74942146349471
 20
14.17500000240008
 30
0.0
 41
1.0
 10
-37.74942146349483
 20
13.55000000240005
 30
0.0
 41
1.0
 10
-37.74942146349494
 20
12.92500000240005
 30
0.0
 41
1.0
 10
-37.74942146349498
 20
12.67500000239979
 30
0.0
 41
0.7071067811861858
 10
-37.49942146349471
 20
12.67500000240003
 30
0.0
 41
1.0
 10
0.0000022983375914
 20
12.67500000240005
 30
0.0
 41
1.0
 10
37.4994260601699
 20
12.67500000240005
 30
0.0
 41
1.0
 10
37.7494260601699
 20
12.67500000240005
 30
0.0
 41
0.707106781186545
 10
37.7494260601699
 20
12.92500000240005
 30
0.0
 41
1.0
  0
SPLINE
  5
67
330
1F
100
AcDbEntity
  8
Default
100
AcDbSpline
210
0.0
220
0.0
230
1.0
 70
    15
 71
     2
 72
    20
 73
    17
 74
     0
 42
0.0000000001
 43
0.0000000001
 40
100.35
 40
100.35
 40
100.35
 40
123.75
 40
123.75
 40
124.9280972450962
 40
124.9280972450962
 40
148.3280972450962
 40
148.3280972450962
 40
149.5061944901923
 40
149.5061944901923
 40
172.9061944901923
 40
172.9061944901923
 40
174.0842917352885
 40
174.0842917352885
 40
197.4842917352885
 40
197.4842917352885
 40
198.6623889803847
 40
198.6623889803847
 40
198.6623889803847
 10
26.00154401907113
 20
40.23795852298667
 30
0.0
 41
1.0
 10
28.97204474650741
 20
40.23795852298667
 30
0.0
 41
1.0
 10
36.95154401907112
 20
40.23795852298667
 30
0.0
 41
1.0
 10
37.70154401907114
 20
40.23795852298666
 30
0.0
 41
0.7071067811865458
 10
37.70154401907118
 20
40.98795852298667
 30
0.0
 41
1.0
 10
37.70154401907118
 20
52.68795852298666
 30
0.0
 41
1.0
 10
37.70154401907118
 20
64.38795852298665
 30
0.0
 41
1.0
 10
37.70154401907114
 20
65.13795852298665
 30
0.0
 41
0.7071067811865458
 10
36.95154401907112
 20
65.13795852298665
 30
0.0
 41
1.0
 10
28.97204474650741
 20
65.13795852298665
 30
0.0
 41
1.0
 10
26.00154401907113
 20
65.13795852298665
 30
0.0
 41
1.0
 10
25.25154401907115
 20
65.13795852298664
 30
0.0
 41
0.7071067811865483
 10
25.25154401907113
 20
64.38795852298665
 30
0.0
 41
1.0
 10
25.25154401907113
 20
52.68795852298666
 30
0.0
 41
1.0
 10
25.25154401907113
 20
40.98795852298667
 30
0.0
 41
1.0
 10
25.25154401907121
 20
40.23795852298666
 30
0.0
 41
0.7071067811865476
 10
26.00154401907113
 20
40.23795852298667
 30
0.0
 41
1.0
  0
SPLINE
  5
68
330
1F
100
AcDbEntity
  8
Default
100
AcDbSpline
210
0.0
220
0.0
230
1.0
 70
    15
 71
     2
 72
    20
 73
    17
 74
     0
 42
0.0000000001
 43
0.0000000001
 40
100.35
 40
100.35
 40
100.35
 40
123.75
 40
123.75
 40
124.9280972450962
 40
124.9280972450962
 40
148.3280972450962
 40
148.3280972450962
 40
149.5061944901923
 40
149.5061944901923
 40
172.9061944901923
 40
172.9061944901923
 40
174.0842917352885
 40
174.0842917352885
 40
197.4842917352885
 40
197.4842917352885
 40
198.6623889803847
 40
198.6623889803847
 40
198.6623889803847
 10
-26.0015440190713
 20
40.23795852298667
 30
0.0
 41
1.0
 10
-28.97204474650752
 20
40.23795852298667
 30
0.0
 41
1.0
 10
-36.95154401907129
 20
40.23795852298667
 30
0.0
 41
1.0
 10
-37.7015440190713
 20
40.23795852298666
 30
0.0
 41
0.7071067811865458
 10
-37.70154401907129
 20
40.98795852298667
 30
0.0
 41
1.0
 10
-37.70154401907129
 20
52.68795852298666
 30
0.0
 41
1.0
 10
-37.70154401907129
 20
64.38795852298665
 30
0.0
 41
1.0
 10
-37.7015440190713
 20
65.13795852298665
 30
0.0
 41
0.7071067811865458
 10
-36.95154401907129
 20
65.13795852298665
 30
0.0
 41
1.0
 10
-28.97204474650752
 20
65.13795852298665
 30
0.0
 41
1.0
 10
-26.0015440190713
 20
65.13795852298665
 30
0.0
 41
1.0
 10
-25.25154401907134
 20
65.13795852298664
 30
0.0
 41
0.7071067811865483
 10
-25.2515440190713
 20
64.38795852298665
 30
0.0
 41
1.0
 10
-25.2515440190713
 20
52.68795852298666
 30
0.0
 41
1.0
 10
-25.2515440190713
 20
40.98795852298667
 30
0.0
 41
1.0
 10
-25.25154401907135
 20
40.23795852298666
 30
0.0
 41
0.7071067811865476
 10
-26.0015440190713
 20
40.23795852298667
 30
0.0
 41
1.0
  0
SPLINE
  5
69
330
1F
100
AcDbEntity
  8
Default
100
AcDbSpline
210
0.0
220
0.0
230
1.0
 70
    11
 71
     2
 72
    12
 73
     9
 74
     0
 42
0.0000000001
 43
0.0000000001
 40
0.0
 40
0.0
 40
0.0
 40
24.90000000000001
 40
24.90000000000001
 40
25.65000000000001
 40
25.65000000000001
 40
50.55000000000001
 40
50.55000000000001
 40
51.30000000000001
 40
51.30000000000001
 40
51.30000000000001
 10
-25.25155263556886
 20
14.67500000240008
 30
0.0
 10
-31.47655263556885
 20
14.67500000240008
 30
0.0
 10
-37.70155263556885
 20
14.67500000240008
 30
0.0
 10
-37.70155263556885
 20
15.05000000240008
 30
0.0
 10
-37.70155263556885
 20
15.42500000240008
 30
0.0
 10
-31.47655263556885
 20
15.42500000240008
 30
0.0
 10
-25.25155263556886
 20
15.42500000240008
 30
0.0
 10
-25.25155263556886
 20
15.05000000240008
 30
0.0
 10
-25.25155263556886
 20
14.67500000240008
 30
0.0
  0
SPLINE
  5
6A
330
1F
100
AcDbEntity
  8
Default
100
AcDbSpline
210
0.0
220
0.0
230
1.0
 70
    11
 71
     2
 72
    12
 73
     9
 74
     0
 42
0.0000000001
 43
0.0000000001
 40
0.0
 40
0.0
 40
0.0
 40
21.89999999999998
 40
21.89999999999998
 40
22.14999999999998
 40
22.14999999999998
 40
44.04999999999995
 40
44.04999999999995
 40
44.29999999999995
 40
44.29999999999995
 40
44.29999999999995
 10
-26.75155263556891
 20
14.42500000240005
 30
0.0
 10
-31.47655263556888
 20
14.42500000240005
 30
0.0
 10
-36.20155263556885
 20
14.42500000240005
 30
0.0
 10
-36.20155263556885
 20
14.55000000240005
 30
0.0
 10
-36.20155263556885
 20
14.67500000240005
 30
0.0
 10
-31.47655263556888
 20
14.67500000240005
 30
0.0
 10
-26.75155263556891
 20
14.67500000240005
 30
0.0
 10
-26.75155263556891
 20
14.55000000240005
 30
0.0
 10
-26.75155263556891
 20
14.42500000240005
 30
0.0
  0
POLYLINE
  5
6B
330
1F
100
AcDbEntity
  8
Default
100
AcDb2dPolyline
 66
     1
 10
0.0
 20
0.0
 30
0.0
  0
VERTEX
  5
6C
330
6B
100
AcDbEntity
  8
Default
100
AcDbVertex
100
AcDb2dVertex
 10
-27.41333270201957
 20
0.049999999783779
 30
0.0
  0
VERTEX
  5
6D
330
6B
100
AcDbEntity
  8
Default
100
AcDbVertex
100
AcDb2dVertex
 10
-27.89751022942696
 20
0.0500000002180627
 30
0.0
  0
SEQEND
  5
6E
330
6B
100
AcDbEntity
  8
Default
  0
SPLINE
  5
6F
330
1F
100
AcDbEntity
  8
Default
100
AcDbSpline
210
0.0
220
0.0
230
1.0
 70
    12
 71
     2
 72
     6
 73
     3
 74
     0
 42
0.0000000001
 43
0.0000000001
 40
0.0
 40
0.0
 40
0.0
 40
0.241924443334512
 40
0.241924443334512
 40
0.241924443334512
 10
-27.89751022942696
 20
0.0500000002180627
 30
0.0
 41
1.0
 10
-28.05042124359422
 20
0.0500000303549922
 30
0.0
 41
0.7141418074729331
 10
-28.05339256776469
 20
0.2029065059720097
 30
0.0
 41
1.0
  0
LINE
  5
70
330
1F
100
AcDbEntity
  8
Default
100
AcDbLine
 10
-28.05339256776469
 20
0.2029065059720097
 30
0.0
 11
-28.05809116485531
 21
0.4250000024005089
 31
0.0
  0
LINE
  5
71
330
1F
100
AcDbEntity
  8
Default
100
AcDbLine
 10
-28.05809116485531
 20
0.4250000024005089
 30
0.0
 11
-27.2532820488801
 21
0.4250000024005089
 31
0.0
  0
LINE
  5
72
330
1F
100
AcDbEntity
  8
Default
100
AcDbLine
 10
-27.2532820488801
 20
0.4250000024005089
 30
0.0
 11
-27.25771550742283
 21
0.2029065037782232
 31
0.0
  0
SPLINE
  5
73
330
1F
100
AcDbEntity
  8
Default
100
AcDbSpline
210
0.0
220
0.0
230
1.0
 70
    12
 71
     2
 72
     6
 73
     3
 74
     0
 42
0.0000000001
 43
0.0000000001
 40
0.0
 40
0.0
 40
0.0
 40
0.2419244355107725
 40
0.2419244355107725
 40
0.2419244355107725
 10
-27.25771550742283
 20
0.2029065037782232
 30
0.0
 41
1.0
 10
-27.26042169402185
 20
0.0500000321597107
 30
0.0
 41
0.7141418153608741
 10
-27.41333270201957
 20
0.049999999783779
 30
0.0
 41
1.0
  0
POLYLINE
  5
74
330
1F
100
AcDbEntity
  8
Default
100
AcDb2dPolyline
 66
     1
 10
0.0
 20
0.0
 30
0.0
  0
VERTEX
  5
75
330
74
100
AcDbEntity
  8
Default
100
AcDbVertex
100
AcDb2dVertex
 10
-30.76542114289768
 20
12.67500000235884
 30
0.0
  0
VERTEX
  5
76
330
74
100
AcDbEntity
  8
Default
100
AcDbVertex
100
AcDb2dVertex
 10
-24.54542146349596
 20
12.67500000235884
 30
0.0
  0
SEQEND
  5
77
330
74
100
AcDbEntity
  8
Default
  0
SPLINE
  5
78
330
1F
100
AcDbEntity
  8
Default
100
AcDbSpline
210
0.0
220
0.0
230
1.0
 70
    12
 71
     5
 72
    13
 73
     7
 74
     0
 42
0.0000000001
 43
0.0000000001
 40
-0.9999999998854913
 40
-0.9999999998854913
 40
-0.9999999998854913
 40
-0.9999999998854913
 40
-0.9999999998854913
 40
-0.9999999998854913
 40
-0.4999999999118557
 40
0.0000214316302039
 40
0.0000214316302039
 40
0.0000214316302039
 40
0.0000214316302039
 40
0.0000214316302039
 40
0.0000214316302039
 10
-24.54542146349596
 20
12.67500000235884
 30
0.0
 41
1.0
 10
-24.54542210953579
 20
12.61009560996402
 30
0.0
 41
1.0
 10
-24.56472116104001
 20
12.49654867131767
 30
0.0
 41
1.0
 10
-24.62261733370403
 20
12.41553619866016
 30
0.0
 41
1.0
 10
-24.71078640112611
 20
12.36002542084753
 30
0.0
 41
1.0
 10
-24.82547039022771
 20
12.32687454006953
 30
0.0
 41
1.0
 10
-24.88944202732719
 20
12.31588517969834
 30
0.0
 41
1.0
  0
SPLINE
  5
79
330
1F
100
AcDbEntity
  8
Default
100
AcDbSpline
210
0.0
220
0.0
230
1.0
 70
    12
 71
     2
 72
     6
 73
     3
 74
     0
 42
0.0000000001
 43
0.0000000001
 40
0.0
 40
0.0
 40
0.0
 40
1.843263450064862
 40
1.843263450064862
 40
1.843263450064862
 10
-24.88944202732719
 20
12.31588517969834
 30
0.0
 41
1.0
 10
-25.79776138742382
 20
12.15980514714075
 30
0.0
 41
0.9999999999936852
 10
-26.70608179074188
 20
12.00373101772229
 30
0.0
 41
1.0
  0
SPLINE
  5
7A
330
1F
100
AcDbEntity
  8
Default
100
AcDbSpline
210
0.0
220
0.0
230
1.0
 70
    12
 71
     2
 72
     6
 73
     3
 74
     0
 42
0.0000000001
 43
0.0000000001
 40
0.0
 40
0.0
 40
0.0
 40
0.6997662170032295
 40
0.6997662170032295
 40
0.6997662170032295
 10
-26.70608179074188
 20
12.00373101772229
 30
0.0
 41
1.0
 10
-27.12094882347006
 20
11.93244667937249
 30
0.0
 41
0.7649870492777086
 10
-27.12140540273694
 20
11.51120110138697
 30
0.0
 41
1.0
  0
SPLINE
  5
7B
330
1F
100
AcDbEntity
  8
Default
100
AcDbSpline
210
0.0
220
0.0
230
1.0
 70
    12
 71
     3
 72
    13
 73
     9
 74
     0
 42
0.0000000001
 43
0.0000000001
 40
1.164116092654201
 40
1.164116092654201
 40
1.164116092654201
 40
1.164116092654201
 40
1.192754371812117
 40
1.192754371812117
 40
1.839154429652598
 40
2.485554487552516
 40
2.485554487552516
 40
2.941799361814759
 40
2.941799361814759
 40
2.941799361814759
 40
2.941799361814759
 10
-27.12140540273694
 20
11.51120110138697
 30
0.0
 41
1.0
 10
-27.12140455748576
 20
11.50135583614571
 30
0.0
 41
1.0
 10
-27.12140511635934
 20
11.49180974146395
 30
0.0
 41
1.0
 10
-27.12145466090519
 20
11.26679696863729
 30
0.0
 41
1.0
 10
-27.12353832135963
 20
10.83587479042617
 30
0.0
 41
1.0
 10
-27.1307260628482
 20
10.40502399011581
 30
0.0
 41
1.0
 10
-27.13652426304279
 20
10.03752141680235
 30
0.0
 41
1.0
 10
-27.13872506830464
 20
9.88544406875394
 30
0.0
 41
1.0
 10
-27.14049176836542
 20
9.732909845824622
 30
0.0
 41
1.0
  0
SPLINE
  5
7C
330
1F
100
AcDbEntity
  8
Default
100
AcDbSpline
210
0.0
220
0.0
230
1.0
 70
    12
 71
     2
 72
     6
 73
     3
 74
     0
 42
0.0000000001
 43
0.0000000001
 40
0.0
 40
0.0
 40
0.0
 40
0.0011199978112541
 40
0.0011199978112541
 40
0.0011199978112541
 10
-27.14049176836542
 20
9.732909845824622
 30
0.0
 41
1.0
 10
-27.14050947646624
 20
9.73189344886153
 30
0.0
 41
0.9999999565253123
 10
-27.14050947572125
 20
9.731333409514889
 30
0.0
 41
1.0
  0
SPLINE
  5
7D
330
1F
100
AcDbEntity
  8
Default
100
AcDbSpline
210
0.0
220
0.0
230
1.0
 70
    12
 71
     2
 72
     6
 73
     3
 74
     0
 42
0.0000000001
 43
0.0000000001
 40
0.0
 40
0.0
 40
0.0
 40
1.157563000328597
 40
1.157563000328597
 40
1.157563000328597
 10
-27.14050947572125
 20
9.731333409514889
 30
0.0
 41
1.0
 10
-27.14608519402034
 20
9.152576156243956
 30
0.0
 41
0.9999932729902123
 10
-27.14742122914558
 20
8.57379248837978
 30
0.0
 41
1.0
  0
SPLINE
  5
7E
330
1F
100
AcDbEntity
  8
Default
100
AcDbSpline
210
0.0
220
0.0
230
1.0
 70
    12
 71
     3
 72
    12
 73
     8
 74
     0
 42
0.0000000001
 43
0.0000000001
 40
0.0000022290245399
 40
0.0000022290245399
 40
0.0000022290245399
 40
0.0000022290245399
 40
2.973330383277389
 40
2.973330383277389
 40
5.533332299297856
 40
5.533332299297856
 40
8.0907540207247
 40
8.0907540207247
 40
8.0907540207247
 40
8.0907540207247
 10
-27.14742122914558
 20
8.57379248837978
 30
0.0
 41
1.0
 10
-27.15116443902147
 20
7.583012356545566
 30
0.0
 41
1.0
 10
-27.16130101624034
 20
6.592166505229557
 30
0.0
 41
1.0
 10
-27.18624505313673
 20
4.748546802841815
 30
0.0
 41
1.0
 10
-27.20010432920557
 20
3.896004306663031
 30
0.0
 41
1.0
 10
-27.22745479056479
 20
2.190986238236803
 30
0.0
 41
1.0
 10
-27.24086370393476
 20
1.33961609124708
 30
0.0
 41
1.0
 10
-27.25210128332819
 20
0.4874291487066955
 30
0.0
 41
1.0
  0
SPLINE
  5
7F
330
1F
100
AcDbEntity
  8
Default
100
AcDbSpline
210
0.0
220
0.0
230
1.0
 70
    12
 71
     2
 72
     6
 73
     3
 74
     0
 42
0.0000000001
 43
0.0000000001
 40
0.0
 40
0.0
 40
0.0
 40
0.0970316672143772
 40
0.0970316672143772
 40
0.0970316672143772
 10
-27.25210128332819
 20
0.4874291487066955
 30
0.0
 41
1.0
 10
-27.25267988006293
 20
0.4263075181246012
 30
0.0
 41
0.717857630247824
 10
-27.31376590741033
 20
0.4250140462365835
 30
0.0
 41
1.0
  0
POLYLINE
  5
80
330
1F
100
AcDbEntity
  8
Default
100
AcDb2dPolyline
 66
     1
 10
0.0
 20
0.0
 30
0.0
  0
VERTEX
  5
81
330
80
100
AcDbEntity
  8
Default
100
AcDbVertex
100
AcDb2dVertex
 10
-27.31376590741033
 20
0.4250140462365835
 30
0.0
  0
VERTEX
  5
82
330
80
100
AcDbEntity
  8
Default
100
AcDbVertex
100
AcDb2dVertex
 10
-27.99574593598263
 20
0.4250000024421183
 30
0.0
  0
SEQEND
  5
83
330
80
100
AcDbEntity
  8
Default
  0
SPLINE
  5
84
330
1F
100
AcDbEntity
  8
Default
100
AcDbSpline
210
0.0
220
0.0
230
1.0
 70
    12
 71
     2
 72
     6
 73
     3
 74
     0
 42
0.0000000001
 43
0.0000000001
 40
0.0
 40
0.0
 40
0.0
 40
0.0983105351425802
 40
0.0983105351425802
 40
0.0983105351425802
 10
-27.99574593598263
 20
0.4250000024421183
 30
0.0
 41
1.0
 10
-28.05810177240884
 20
0.42499807086089
 30
0.0
 41
0.7107094273922171
 10
-28.05874068602006
 20
0.4873708929660836
 30
0.0
 41
1.0
  0
SPLINE
  5
85
330
1F
100
AcDbEntity
  8
Default
100
AcDbSpline
210
0.0
220
0.0
230
1.0
 70
    12
 71
     3
 72
    12
 73
     8
 74
     0
 42
0.0000000001
 43
0.0000000001
 40
0.0025122088885125
 40
0.0025122088885125
 40
0.0025122088885125
 40
0.0025122088885125
 40
2.559996601448771
 40
2.559996601448771
 40
5.119998517672128
 40
5.119998517672128
 40
8.093326489272172
 40
8.093326489272172
 40
8.093326489272172
 40
8.093326489272172
 10
-28.05874068602006
 20
0.4873708929660836
 30
0.0
 41
1.0
 10
-28.06997856587154
 20
1.33957436479119
 30
0.0
 41
1.0
 10
-28.08338780147776
 20
2.1909653577342
 30
0.0
 41
1.0
 10
-28.11073859778864
 20
3.896004306933293
 30
0.0
 41
1.0
 10
-28.12459787385851
 20
4.748546803179693
 30
0.0
 41
1.0
 10
-28.14954190993078
 20
6.592166444777945
 30
0.0
 41
1.0
 10
-28.15967848672628
 20
7.583012235215051
 30
0.0
 41
1.0
 10
-28.16342169750007
 20
8.573792397286638
 30
0.0
 41
1.0
  0
SPLINE
  5
86
330
1F
100
AcDbEntity
  8
Default
100
AcDbSpline
210
0.0
220
0.0
230
1.0
 70
    12
 71
     2
 72
     6
 73
     3
 74
     0
 42
0.0000000001
 43
0.0000000001
 40
0.0
 40
0.0
 40
0.0
 40
1.157566753814006
 40
1.157566753814006
 40
1.157566753814006
 10
-28.16342169750007
 20
8.573792397286638
 30
0.0
 41
1.0
 10
-28.16476956095575
 20
9.152577944120313
 30
0.0
 41
0.9999934222404667
 10
-28.17032162399349
 20
9.731337225292005
 30
0.0
 41
0.9999999999999121
  0
SPLINE
  5
87
330
1F
100
AcDbEntity
  8
Default
100
AcDbSpline
210
0.0
220
0.0
230
1.0
 70
    12
 71
     2
 72
     6
 73
     3
 74
     0
 42
0.0000000001
 43
0.0000000001
 40
0.0
 40
0.0
 40
0.0
 40
0.0011163185374098
 40
0.0011163185374098
 40
0.0011163185374098
 10
-28.17032162399354
 20
9.731337225292009
 30
0.0
 41
1.0
 10
-28.17033346966364
 20
9.731895288400036
 30
0.0
 41
0.9999999568108967
 10
-28.17033911773714
 20
9.732909979842475
 30
0.0
 41
1.0
  0
SPLINE
  5
88
330
1F
100
AcDbEntity
  8
Default
100
AcDbSpline
210
0.0
220
0.0
230
1.0
 70
    12
 71
     3
 72
    13
 73
     9
 74
     0
 42
0.0000000001
 43
0.0000000001
 40
1.159780968969077
 40
1.159780968969077
 40
1.159780968969077
 40
1.159780968969077
 40
1.219999999483621
 40
1.219999999483621
 40
1.859999999216523
 40
1.859999999216523
 40
2.49999999917158
 40
2.937447200127758
 40
2.937447200127758
 40
2.937447200127758
 40
2.937447200127758
 10
-28.17033911773714
 20
9.732909979842475
 30
0.0
 41
1.0
 10
-28.17056718308842
 20
9.753438966348597
 30
0.0
 41
1.0
 10
-28.17080366028298
 20
9.77351103169542
 30
0.0
 41
1.0
 10
-28.17365086905451
 20
10.00689999374208
 30
0.0
 41
1.0
 10
-28.1772658886176
 20
10.22023320478161
 30
0.0
 41
1.0
 10
-28.183898162178
 20
10.64684831315748
 30
0.0
 41
1.0
 10
-28.18858289572572
 20
11.00596334870644
 30
0.0
 41
1.0
 10
-28.18943307510878
 20
11.36509077060634
 30
0.0
 41
1.0
 10
-28.1894324396628
 20
11.5111823248607
 30
0.0
 41
1.0
  0
SPLINE
  5
89
330
1F
100
AcDbEntity
  8
Default
100
AcDbSpline
210
0.0
220
0.0
230
1.0
 70
    12
 71
     2
 72
     6
 73
     3
 74
     0
 42
0.0000000001
 43
0.0000000001
 40
0.0
 40
0.0
 40
0.0
 40
0.6998000892342029
 40
0.6998000892342029
 40
0.6998000892342029
 10
-28.1894324396628
 20
11.5111823248607
 30
0.0
 41
1.0
 10
-28.1898715399594
 20
11.93243362283144
 30
0.0
 41
0.764976675619346
 10
-28.60476113124409
 20
12.003731046605
 30
0.0
 41
1.0
  0
SPLINE
  5
8A
330
1F
100
AcDbEntity
  8
Default
100
AcDbSpline
210
0.0
220
0.0
230
1.0
 70
    12
 71
     2
 72
     6
 73
     3
 74
     0
 42
0.0000000001
 43
0.0000000001
 40
0.0
 40
0.0
 40
0.0
 40
1.843263134159366
 40
1.843263134159366
 40
1.843263134159366
 10
-28.60476113124409
 20
12.003731046605
 30
0.0
 41
1.0
 10
-29.51308138383017
 20
12.15980512042354
 30
0.0
 41
0.999999999993685
 10
-30.42140058366007
 20
12.31588515296423
 30
0.0
 41
1.0
  0
SPLINE
  5
8B
330
1F
100
AcDbEntity
  8
Default
100
AcDbSpline
210
0.0
220
0.0
230
1.0
 70
    12
 71
     5
 72
    13
 73
     7
 74
     0
 42
0.0000000001
 43
0.0000000001
 40
-0.0000214316302125
 40
-0.0000214316302125
 40
-0.0000214316302125
 40
-0.0000214316302125
 40
-0.0000214316302125
 40
-0.0000214316302125
 40
0.4999999999109885
 40
0.9999999998854894
 40
0.9999999998854894
 40
0.9999999998854894
 40
0.9999999998854894
 40
0.9999999998854894
 40
0.9999999998854894
 10
-30.42140058366007
 20
12.31588515296423
 30
0.0
 41
1.0
 10
-30.48537221616661
 20
12.32687454006975
 30
0.0
 41
1.0
 10
-30.60005620526792
 20
12.36002542084782
 30
0.0
 41
1.0
 10
-30.68822527268978
 20
12.41553619866045
 30
0.0
 41
1.0
 10
-30.74612144535362
 20
12.49654867131787
 30
0.0
 41
1.0
 10
-30.76542049685779
 20
12.61009560996402
 30
0.0
 41
1.0
 10
-30.76542114289768
 20
12.67500000235884
 30
0.0
 41
1.0
  0
SPLINE
  5
8C
330
1F
100
AcDbEntity
  8
Default
100
AcDbSpline
210
0.0
220
0.0
230
1.0
 70
    11
 71
     2
 72
    12
 73
     9
 74
     0
 42
0.0000000001
 43
0.0000000001
 40
0.0
 40
0.0
 40
0.0
 40
24.90000000000001
 40
24.90000000000001
 40
25.65000000000001
 40
25.65000000000001
 40
50.55000000000001
 40
50.55000000000001
 40
51.30000000000001
 40
51.30000000000001
 40
51.30000000000001
 10
25.25155263556869
 20
14.67500000240008
 30
0.0
 10
31.47655263556871
 20
14.67500000240008
 30
0.0
 10
37.70155263556873
 20
14.67500000240008
 30
0.0
 10
37.70155263556873
 20
15.05000000240008
 30
0.0
 10
37.70155263556873
 20
15.42500000240008
 30
0.0
 10
31.47655263556871
 20
15.42500000240008
 30
0.0
 10
25.25155263556869
 20
15.42500000240008
 30
0.0
 10
25.25155263556869
 20
15.05000000240008
 30
0.0
 10
25.25155263556869
 20
14.67500000240008
 30
0.0
  0
SPLINE
  5
8D
330
1F
100
AcDbEntity
  8
Default
100
AcDbSpline
210
0.0
220
0.0
230
1.0
 70
    11
 71
     2
 72
    12
 73
     9
 74
     0
 42
0.0000000001
 43
0.0000000001
 40
0.0
 40
0.0
 40
0.0
 40
21.89999999999998
 40
21.89999999999998
 40
22.14999999999998
 40
22.14999999999998
 40
44.04999999999995
 40
44.04999999999995
 40
44.29999999999995
 40
44.29999999999995
 40
44.29999999999995
 10
26.75155263556874
 20
14.42500000240005
 30
0.0
 10
31.47655263556874
 20
14.42500000240005
 30
0.0
 10
36.20155263556873
 20
14.42500000240005
 30
0.0
 10
36.20155263556873
 20
14.55000000240005
 30
0.0
 10
36.20155263556873
 20
14.67500000240005
 30
0.0
 10
31.47655263556874
 20
14.67500000240005
 30
0.0
 10
26.75155263556874
 20
14.67500000240005
 30
0.0
 10
26.75155263556874
 20
14.55000000240005
 30
0.0
 10
26.75155263556874
 20
14.42500000240005
 30
0.0
  0
POLYLINE
  5
8E
330
1F
100
AcDbEntity
  8
Default
100
AcDb2dPolyline
 66
     1
 10
0.0
 20
0.0
 30
0.0
  0
VERTEX
  5
8F
330
8E
100
AcDbEntity
  8
Default
100
AcDbVertex
100
AcDb2dVertex
 10
30.76542114289745
 20
12.67500000235884
 30
0.0
  0
VERTEX
  5
90
330
8E
100
AcDbEntity
  8
Default
100
AcDbVertex
100
AcDb2dVertex
 10
24.54542146349579
 20
12.67500000235884
 30
0.0
  0
SEQEND
  5
91
330
8E
100
AcDbEntity
  8
Default
  0
SPLINE
  5
92
330
1F
100
AcDbEntity
  8
Default
100
AcDbSpline
210
0.0
220
0.0
230
1.0
 70
    12
 71
     5
 72
    13
 73
     7
 74
     0
 42
0.0000000001
 43
0.0000000001
 40
-0.9999999998854913
 40
-0.9999999998854913
 40
-0.9999999998854913
 40
-0.9999999998854913
 40
-0.9999999998854913
 40
-0.9999999998854913
 40
-0.4999999999118557
 40
0.0000214316302039
 40
0.0000214316302039
 40
0.0000214316302039
 40
0.0000214316302039
 40
0.0000214316302039
 40
0.0000214316302039
 10
24.54542146349579
 20
12.67500000235884
 30
0.0
 41
1.0
 10
24.54542210953562
 20
12.61009560996402
 30
0.0
 41
1.0
 10
24.56472116103984
 20
12.49654867131767
 30
0.0
 41
1.0
 10
24.62261733370386
 20
12.41553619866016
 30
0.0
 41
1.0
 10
24.71078640112594
 20
12.36002542084753
 30
0.0
 41
1.0
 10
24.82547039022754
 20
12.32687454006953
 30
0.0
 41
1.0
 10
24.88944202732702
 20
12.31588517969834
 30
0.0
 41
1.0
  0
SPLINE
  5
93
330
1F
100
AcDbEntity
  8
Default
100
AcDbSpline
210
0.0
220
0.0
230
1.0
 70
    12
 71
     2
 72
     6
 73
     3
 74
     0
 42
0.0000000001
 43
0.0000000001
 40
0.0
 40
0.0
 40
0.0
 40
1.843263450064862
 40
1.843263450064862
 40
1.843263450064862
 10
24.88944202732702
 20
12.31588517969834
 30
0.0
 41
1.0
 10
25.79776138742368
 20
12.15980514714075
 30
0.0
 41
0.9999999999936852
 10
26.70608179074165
 20
12.00373101772229
 30
0.0
 41
1.0
  0
SPLINE
  5
94
330
1F
100
AcDbEntity
  8
Default
100
AcDbSpline
210
0.0
220
0.0
230
1.0
 70
    12
 71
     2
 72
     6
 73
     3
 74
     0
 42
0.0000000001
 43
0.0000000001
 40
0.0
 40
0.0
 40
0.0
 40
0.6997662170032295
 40
0.6997662170032295
 40
0.6997662170032295
 10
26.70608179074165
 20
12.00373101772229
 30
0.0
 41
1.0
 10
27.12094882346988
 20
11.93244667937249
 30
0.0
 41
0.7649870492777086
 10
27.12140540273671
 20
11.51120110138697
 30
0.0
 41
1.0
  0
SPLINE
  5
95
330
1F
100
AcDbEntity
  8
Default
100
AcDbSpline
210
0.0
220
0.0
230
1.0
 70
    12
 71
     3
 72
    13
 73
     9
 74
     0
 42
0.0000000001
 43
0.0000000001
 40
1.164116092654201
 40
1.164116092654201
 40
1.164116092654201
 40
1.164116092654201
 40
1.192754371812117
 40
1.192754371812117
 40
1.839154429652598
 40
2.485554487552516
 40
2.485554487552516
 40
2.941799361814759
 40
2.941799361814759
 40
2.941799361814759
 40
2.941799361814759
 10
27.12140540273671
 20
11.51120110138697
 30
0.0
 41
1.0
 10
27.12140455748553
 20
11.50135583614571
 30
0.0
 41
1.0
 10
27.12140511635911
 20
11.49180974146395
 30
0.0
 41
1.0
 10
27.12145466090507
 20
11.26679696863729
 30
0.0
 41
1.0
 10
27.1235383213594
 20
10.83587479042617
 30
0.0
 41
1.0
 10
27.13072606284803
 20
10.40502399011581
 30
0.0
 41
1.0
 10
27.13652426304267
 20
10.03752141680235
 30
0.0
 41
1.0
 10
27.13872506830447
 20
9.88544406875394
 30
0.0
 41
1.0
 10
27.14049176836525
 20
9.732909845824622
 30
0.0
 41
1.0
  0
SPLINE
  5
96
330
1F
100
AcDbEntity
  8
Default
100
AcDbSpline
210
0.0
220
0.0
230
1.0
 70
    12
 71
     2
 72
     6
 73
     3
 74
     0
 42
0.0000000001
 43
0.0000000001
 40
0.0
 40
0.0
 40
0.0
 40
0.0011199978112541
 40
0.0011199978112541
 40
0.0011199978112541
 10
27.14049176836525
 20
9.732909845824622
 30
0.0
 41
1.0
 10
27.14050947646609
 20
9.73189344886153
 30
0.0
 41
0.9999999565253123
 10
27.14050947572107
 20
9.731333409514889
 30
0.0
 41
1.0
  0
SPLINE
  5
97
330
1F
100
AcDbEntity
  8
Default
100
AcDbSpline
210
0.0
220
0.0
230
1.0
 70
    12
 71
     2
 72
     6
 73
     3
 74
     0
 42
0.0000000001
 43
0.0000000001
 40
0.0
 40
0.0
 40
0.0
 40
1.157563000328597
 40
1.157563000328597
 40
1.157563000328597
 10
27.14050947572107
 20
9.731333409514889
 30
0.0
 41
1.0
 10
27.14608519402015
 20
9.152576156243956
 30
0.0
 41
0.9999932729902123
 10
27.14742122914546
 20
8.57379248837978
 30
0.0
 41
1.0
  0
SPLINE
  5
98
330
1F
100
AcDbEntity
  8
Default
100
AcDbSpline
210
0.0
220
0.0
230
1.0
 70
    12
 71
     3
 72
    12
 73
     8
 74
     0
 42
0.0000000001
 43
0.0000000001
 40
0.0000022290245399
 40
0.0000022290245399
 40
0.0000022290245399
 40
0.0000022290245399
 40
2.973330383277389
 40
2.973330383277389
 40
5.533332299297856
 40
5.533332299297856
 40
8.0907540207247
 40
8.0907540207247
 40
8.0907540207247
 40
8.0907540207247
 10
27.14742122914546
 20
8.57379248837978
 30
0.0
 41
1.0
 10
27.1511644390213
 20
7.583012356545566
 30
0.0
 41
1.0
 10
27.16130101624023
 20
6.592166505229557
 30
0.0
 41
1.0
 10
27.1862450531365
 20
4.748546802841815
 30
0.0
 41
1.0
 10
27.20010432920546
 20
3.896004306663031
 30
0.0
 41
1.0
 10
27.22745479056456
 20
2.190986238236803
 30
0.0
 41
1.0
 10
27.24086370393459
 20
1.33961609124708
 30
0.0
 41
1.0
 10
27.25210128332802
 20
0.4874291487066955
 30
0.0
 41
1.0
  0
SPLINE
  5
99
330
1F
100
AcDbEntity
  8
Default
100
AcDbSpline
210
0.0
220
0.0
230
1.0
 70
    12
 71
     2
 72
     6
 73
     3
 74
     0
 42
0.0000000001
 43
0.0000000001
 40
0.0
 40
0.0
 40
0.0
 40
0.0970316672143772
 40
0.0970316672143772
 40
0.0970316672143772
 10
27.25210128332802
 20
0.4874291487066955
 30
0.0
 41
1.0
 10
27.25267988006281
 20
0.4263075181246012
 30
0.0
 41
0.717857630247824
 10
27.31376590741016
 20
0.4250140462365835
 30
0.0
 41
1.0
  0
POLYLINE
  5
9A
330
1F
100
AcDbEntity
  8
Default
100
AcDb2dPolyline
 66
     1
 10
0.0
 20
0.0
 30
0.0
  0
VERTEX
  5
9B
330
9A
100
AcDbEntity
  8
Default
100
AcDbVertex
100
AcDb2dVertex
 10
27.31376590741016
 20
0.4250140462365835
 30
0.0
  0
VERTEX
  5
9C
330
9A
100
AcDbEntity
  8
Default
100
AcDbVertex
100
AcDb2dVertex
 10
27.99574593598251
 20
0.4250000024421183
 30
0.0
  0
SEQEND
  5
9D
330
9A
100
AcDbEntity
  8
Default
  0
SPLINE
  5
9E
330
1F
100
AcDbEntity
  8
Default
100
AcDbSpline
210
0.0
220
0.0
230
1.0
 70
    12
 71
     2
 72
     6
 73
     3
 74
     0
 42
0.0000000001
 43
0.0000000001
 40
0.0
 40
0.0
 40
0.0
 40
0.0983105351425802
 40
0.0983105351425802
 40
0.0983105351425802
 10
27.99574593598251
 20
0.4250000024421183
 30
0.0
 41
1.0
 10
28.05810177240869
 20
0.42499807086089
 30
0.0
 41
0.7107094273922171
 10
28.05874068601983
 20
0.4873708929660836
 30
0.0
 41
1.0
  0
SPLINE
  5
9F
330
1F
100
AcDbEntity
  8
Default
100
AcDbSpline
210
0.0
220
0.0
230
1.0
 70
    12
 71
     3
 72
    12
 73
     8
 74
     0
 42
0.0000000001
 43
0.0000000001
 40
0.0025122088885125
 40
0.0025122088885125
 40
0.0025122088885125
 40
0.0025122088885125
 40
2.559996601448771
 40
2.559996601448771
 40
5.119998517672128
 40
5.119998517672128
 40
8.093326489272172
 40
8.093326489272172
 40
8.093326489272172
 40
8.093326489272172
 10
28.05874068601983
 20
0.4873708929660836
 30
0.0
 41
1.0
 10
28.06997856587142
 20
1.33957436479119
 30
0.0
 41
1.0
 10
28.08338780147758
 20
2.1909653577342
 30
0.0
 41
1.0
 10
28.11073859778847
 20
3.896004306933293
 30
0.0
 41
1.0
 10
28.12459787385833
 20
4.748546803179693
 30
0.0
 41
1.0
 10
28.1495419099306
 20
6.592166444777945
 30
0.0
 41
1.0
 10
28.15967848672611
 20
7.583012235215051
 30
0.0
 41
1.0
 10
28.1634216974999
 20
8.573792397286638
 30
0.0
 41
1.0
  0
SPLINE
  5
A0
330
1F
100
AcDbEntity
  8
Default
100
AcDbSpline
210
0.0
220
0.0
230
1.0
 70
    12
 71
     2
 72
     6
 73
     3
 74
     0
 42
0.0000000001
 43
0.0000000001
 40
0.0
 40
0.0
 40
0.0
 40
1.157566753814006
 40
1.157566753814006
 40
1.157566753814006
 10
28.1634216974999
 20
8.573792397286638
 30
0.0
 41
1.0
 10
28.16476956095554
 20
9.152577944120313
 30
0.0
 41
0.9999934222404667
 10
28.17032162399332
 20
9.731337225292005
 30
0.0
 41
0.9999999999999121
  0
SPLINE
  5
A1
330
1F
100
AcDbEntity
  8
Default
100
AcDbSpline
210
0.0
220
0.0
230
1.0
 70
    12
 71
     2
 72
     6
 73
     3
 74
     0
 42
0.0000000001
 43
0.0000000001
 40
0.0
 40
0.0
 40
0.0
 40
0.0011163185374098
 40
0.0011163185374098
 40
0.0011163185374098
 10
28.17032162399332
 20
9.731337225292009
 30
0.0
 41
1.0
 10
28.17033346966346
 20
9.731895288400036
 30
0.0
 41
0.9999999568108967
 10
28.17033911773697
 20
9.732909979842475
 30
0.0
 41
1.0
  0
SPLINE
  5
A2
330
1F
100
AcDbEntity
  8
Default
100
AcDbSpline
210
0.0
220
0.0
230
1.0
 70
    12
 71
     3
 72
    13
 73
     9
 74
     0
 42
0.0000000001
 43
0.0000000001
 40
1.159780968969077
 40
1.159780968969077
 40
1.159780968969077
 40
1.159780968969077
 40
1.219999999483621
 40
1.219999999483621
 40
1.859999999216523
 40
1.859999999216523
 40
2.49999999917158
 40
2.937447200127758
 40
2.937447200127758
 40
2.937447200127758
 40
2.937447200127758
 10
28.17033911773697
 20
9.732909979842475
 30
0.0
 41
1.0
 10
28.17056718308825
 20
9.753438966348597
 30
0.0
 41
1.0
 10
28.17080366028287
 20
9.77351103169542
 30
0.0
 41
1.0
 10
28.17365086905434
 20
10.00689999374208
 30
0.0
 41
1.0
 10
28.17726588861737
 20
10.22023320478161
 30
0.0
 41
1.0
 10
28.18389816217777
 20
10.64684831315748
 30
0.0
 41
1.0
 10
28.1885828957256
 20
11.00596334870644
 30
0.0
 41
1.0
 10
28.18943307510861
 20
11.36509077060634
 30
0.0
 41
1.0
 10
28.18943243966262
 20
11.5111823248607
 30
0.0
 41
1.0
  0
SPLINE
  5
A3
330
1F
100
AcDbEntity
  8
Default
100
AcDbSpline
210
0.0
220
0.0
230
1.0
 70
    12
 71
     2
 72
     6
 73
     3
 74
     0
 42
0.0000000001
 43
0.0000000001
 40
0.0
 40
0.0
 40
0.0
 40
0.6998000892342029
 40
0.6998000892342029
 40
0.6998000892342029
 10
28.18943243966262
 20
11.5111823248607
 30
0.0
 41
1.0
 10
28.18987153995919
 20
11.93243362283144
 30
0.0
 41
0.764976675619346
 10
28.60476113124392
 20
12.003731046605
 30
0.0
 41
1.0
  0
SPLINE
  5
A4
330
1F
100
AcDbEntity
  8
Default
100
AcDbSpline
210
0.0
220
0.0
230
1.0
 70
    12
 71
     2
 72
     6
 73
     3
 74
     0
 42
0.0000000001
 43
0.0000000001
 40
0.0
 40
0.0
 40
0.0
 40
1.843263134159366
 40
1.843263134159366
 40
1.843263134159366
 10
28.60476113124392
 20
12.003731046605
 30
0.0
 41
1.0
 10
29.51308138383004
 20
12.15980512042354
 30
0.0
 41
0.999999999993685
 10
30.42140058365985
 20
12.31588515296423
 30
0.0
 41
1.0
  0
SPLINE
  5
A5
330
1F
100
AcDbEntity
  8
Default
100
AcDbSpline
210
0.0
220
0.0
230
1.0
 70
    12
 71
     5
 72
    13
 73
     7
 74
     0
 42
0.0000000001
 43
0.0000000001
 40
-0.0000214316302125
 40
-0.0000214316302125
 40
-0.0000214316302125
 40
-0.0000214316302125
 40
-0.0000214316302125
 40
-0.0000214316302125
 40
0.4999999999109885
 40
0.9999999998854894
 40
0.9999999998854894
 40
0.9999999998854894
 40
0.9999999998854894
 40
0.9999999998854894
 40
0.9999999998854894
 10
30.42140058365985
 20
12.31588515296423
 30
0.0
 41
1.0
 10
30.4853722161665
 20
12.32687454006975
 30
0.0
 41
1.0
 10
30.60005620526775
 20
12.36002542084782
 30
0.0
 41
1.0
 10
30.68822527268961
 20
12.41553619866045
 30
0.0
 41
1.0
 10
30.7461214453534
 20
12.49654867131787
 30
0.0
 41
1.0
 10
30.76542049685762
 20
12.61009560996402
 30
0.0
 41
1.0
 10
30.76542114289745
 20
12.67500000235884
 30
0.0
 41
1.0
  0
SPLINE
  5
A6
330
1F
100
AcDbEntity
  8
Default
100
AcDbSpline
210
0.0
220
0.0
230
1.0
 70
     8
 71
     3
 72
    12
 73
     8
 74
     0
 42
0.0000000001
 43
0.0000000001
 40
0.0
 40
0.0
 40
0.0
 40
0.0
 40
1.0
 40
2.0
 40
3.0
 40
4.0
 40
5.0
 40
5.0
 40
5.0
 40
5.0
 10
55.40027369158051
 20
12.67503918825125
 30
0.0
 10
55.38387679681594
 20
12.54412383179937
 30
0.0
 10
55.16182487699942
 20
12.39303393060706
 30
0.0
 10
54.80080776965175
 20
12.31271800020599
 30
0.0
 10
54.42507423211609
 20
12.31322850250922
 30
0.0
 10
54.06377994461209
 20
12.39265459674402
 30
0.0
 10
53.84210197353539
 20
12.54439055061448
 30
0.0
 10
53.82527383326092
 20
12.67498982757911
 30
0.0
  0
ARC
  5
A7
330
1F
100
AcDbEntity
  8
Default
100
AcDbCircle
 10
-10184.22927689624
 20
-414.325419620993
 30
0.0
 40
10246.45187490584
100
AcDbArc
 50
2.318561083120973
 51
2.319822024807209
  0
LINE
  5
A8
330
1F
100
AcDbEntity
  8
Default
100
AcDbLine
 10
53.8251321070899
 20
0.425039147941277
 30
0.0
 11
54.9501373812648
 21
0.425039147941277
 31
0.0
  0
LINE
  5
A9
330
1F
100
AcDbEntity
  8
Default
100
AcDbLine
 10
54.9501373812648
 20
0.425039147941277
 30
0.0
 11
54.93878145922739
 21
0.1996421885590962
 31
0.0
  0
SPLINE
  5
AA
330
1F
100
AcDbEntity
  8
Default
100
AcDbSpline
210
0.0
220
0.0
230
1.0
 70
    12
 71
     2
 72
     6
 73
     3
 74
     0
 42
0.0000000001
 43
0.0000000001
 40
-0.2387149143318927
 40
-0.2387149143318927
 40
-0.2387149143318927
 40
0.0
 40
0.0
 40
0.0
 10
54.93878145922739
 20
0.1996421885590962
 30
0.0
 41
1.0
 10
54.93268951699368
 20
0.0499615211182037
 30
0.0
 41
0.7212476062221478
 10
54.78240945709828
 20
0.0500003945681442
 30
0.0
 41
1.0
  0
SPLINE
  5
AB
330
1F
100
AcDbEntity
  8
Default
100
AcDbSpline
210
0.0
220
0.0
230
1.0
 70
    12
 71
     2
 72
     6
 73
     3
 74
     0
 42
0.0000000001
 43
0.0000000001
 40
0.0
 40
0.0
 40
0.0
 40
0.3954244124017839
 40
0.3954244124017839
 40
0.3954244124017839
 10
54.78240945709828
 20
0.0500003945681442
 30
0.0
 41
1.0
 10
54.58422148744781
 20
0.0500274211337853
 30
0.0
 41
0.999999999289049
 10
54.38650928150079
 20
0.0500391457591718
 30
0.0
 41
1.0
  0
SPLINE
  5
AC
330
1F
100
AcDbEntity
  8
Default
100
AcDbSpline
210
0.0
220
0.0
230
1.0
 70
    24
 71
     2
 72
     6
 73
     3
 74
     0
 42
0.0000000001
 43
0.0000000001
 40
0.0
 40
0.0
 40
0.0
 40
0.3954243890795226
 40
0.3954243890795226
 40
0.3954243890795226
 10
54.38650928150079
 20
0.0500391457591718
 30
0.0
 10
54.18855919795692
 20
0.0500391464786674
 30
0.0
 10
53.99060911441305
 20
0.0500391471981629
 30
0.0
  0
SPLINE
  5
AD
330
1F
100
AcDbEntity
  8
Default
100
AcDbSpline
210
0.0
220
0.0
230
1.0
 70
    12
 71
     2
 72
     6
 73
     3
 74
     0
 42
0.0000000001
 43
0.0000000001
 40
-0.2387271341672585
 40
-0.2387271341672585
 40
-0.2387271341672585
 40
0.0
 40
0.0
 40
0.0
 10
53.99060911441305
 20
0.0500391471981629
 30
0.0
 41
1.0
 10
53.84032588714004
 20
0.0500391477227108
 30
0.0
 41
0.7212776802320741
 10
53.83425728337355
 20
0.199724204089307
 30
0.0
 41
1.0
  0
SPLINE
  5
AE
330
1F
100
AcDbEntity
  8
Default
100
AcDbSpline
210
0.0
220
0.0
230
1.0
 70
     8
 71
     3
 72
    12
 73
     8
 74
     0
 42
0.0000000001
 43
0.0000000001
 40
0.0
 40
0.0
 40
0.0
 40
0.0
 40
1.0
 40
2.0
 40
3.0
 40
4.0
 40
5.0
 40
5.0
 40
5.0
 40
5.0
 10
75.99780486992589
 20
12.67503918825125
 30
0.0
 10
76.0142017646904
 20
12.54412383179937
 30
0.0
 10
76.23625368450692
 20
12.39303393060706
 30
0.0
 10
76.59727079185458
 20
12.31271800020599
 30
0.0
 10
76.97300432939025
 20
12.31322850250922
 30
0.0
 10
77.33429861689424
 20
12.39265459674402
 30
0.0
 10
77.55597658797095
 20
12.54439055061448
 30
0.0
 10
77.57280472824542
 20
12.67498982757911
 30
0.0
  0
SPLINE
  5
AF
330
1F
100
AcDbEntity
  8
Default
100
AcDbSpline
210
0.0
220
0.0
230
1.0
 70
    12
 71
     2
 72
     6
 73
     3
 74
     0
 42
0.0000000001
 43
0.0000000001
 40
-0.7825548902353026
 40
-0.7825548902353026
 40
-0.7825548902353026
 40
0.0
 40
0.0
 40
0.0
 10
75.49850665256238
 20
10.35071586202301
 30
0.0
 41
1.0
 10
75.99641474687958
 20
10.35219105879899
 30
0.0
 41
0.7091100515193309
 10
75.99776260879335
 20
10.84994551539381
 30
0.0
 41
1.0
  0
LINE
  5
B0
330
1F
100
AcDbEntity
  8
Default
100
AcDbLine
 10
75.99776260879335
 20
10.84994551539381
 30
0.0
 11
75.9977886744339
 21
12.67503914794082
 31
0.0
  0
POLYLINE
  5
B1
330
1F
100
AcDbEntity
  8
Default
100
AcDb2dPolyline
 66
     1
 10
0.0
 20
0.0
 30
0.0
  0
VERTEX
  5
B2
330
B1
100
AcDbEntity
  8
Default
100
AcDbVertex
100
AcDb2dVertex
 10
75.9977886744339
 20
12.67503914794082
 30
0.0
  0
VERTEX
  5
B3
330
B1
100
AcDbEntity
  8
Default
100
AcDbVertex
100
AcDb2dVertex
 10
77.57278918451064
 20
12.67503914794085
 30
0.0
  0
SEQEND
  5
B4
330
B1
100
AcDbEntity
  8
Default
  0
LINE
  5
B5
330
1F
100
AcDbEntity
  8
Default
100
AcDbLine
 10
77.57278918451064
 20
12.67503914794085
 30
0.0
 11
77.57278922691663
 21
8.573832748022994
 31
0.0
  0
SPLINE
  5
B6
330
1F
100
AcDbEntity
  8
Default
100
AcDbSpline
210
0.0
220
0.0
230
1.0
 70
    12
 71
     5
 72
    12
 73
     6
 74
     0
 42
0.0000000001
 43
0.0000000001
 40
-0.0000000000115655
 40
-0.0000000000115655
 40
-0.0000000000115655
 40
-0.0000000000115655
 40
-0.0000000000115655
 40
-0.0000000000115655
 40
0.9922383364707964
 40
0.9922383364707964
 40
0.9922383364707964
 40
0.9922383364707964
 40
0.9922383364707964
 40
0.9922383364707964
 10
77.57278922691663
 20
8.573832748022994
 30
0.0
 41
1.0
 10
77.57278912387804
 20
6.956723733639279
 30
0.0
 41
1.0
 10
77.57432917473287
 20
5.339998742617354
 30
0.0
 41
1.0
 10
77.57735417074346
 20
3.723665990484989
 30
0.0
 41
1.0
 10
77.57693699061613
 20
2.106446236199616
 30
0.0
 41
1.0
 10
77.57294674466701
 20
0.488327709683233
 30
0.0
 41
1.0
  0
SPLINE
  5
B7
330
1F
100
AcDbEntity
  8
Default
100
AcDbSpline
210
0.0
220
0.0
230
1.0
 70
    12
 71
     2
 72
     6
 73
     3
 74
     0
 42
0.0000000001
 43
0.0000000001
 40
0.0
 40
0.0
 40
0.0
 40
0.0876876088231114
 40
0.0876876088231114
 40
0.0876876088231114
 10
77.57294674466701
 20
0.488327709683233
 30
0.0
 41
1.0
 10
77.57318753854776
 20
0.4357006415275872
 30
0.0
 41
0.7674574304402552
 10
77.52144358285082
 20
0.4260970311032679
 30
0.0
 41
1.0
  0
POLYLINE
  5
B8
330
1F
100
AcDbEntity
  8
Default
100
AcDb2dPolyline
 66
     1
 10
0.0
 20
0.0
 30
0.0
  0
VERTEX
  5
B9
330
B8
100
AcDbEntity
  8
Default
100
AcDbVertex
100
AcDb2dVertex
 10
77.52144358285082
 20
0.4260970311032679
 30
0.0
  0
VERTEX
  5
BA
330
B8
100
AcDbEntity
  8
Default
100
AcDbVertex
100
AcDb2dVertex
 10
76.49661940661647
 20
0.4260291938073806
 30
0.0
  0
SEQEND
  5
BB
330
B8
100
AcDbEntity
  8
Default
  0
SPLINE
  5
BC
330
1F
100
AcDbEntity
  8
Default
100
AcDbSpline
210
0.0
220
0.0
230
1.0
 70
    12
 71
     2
 72
     6
 73
     3
 74
     0
 42
0.0000000001
 43
0.0000000001
 40
0.0
 40
0.0
 40
0.0
 40
0.0846250291315599
 40
0.0846250291315599
 40
0.0846250291315599
 10
76.49661940661647
 20
0.4260291938073806
 30
0.0
 41
1.0
 10
76.4473273120842
 20
0.43487252352985
 30
0.0
 41
0.7828101505964009
 10
76.44482246423391
 20
0.4849040010511203
 30
0.0
 41
1.0
  0
SPLINE
  5
BD
330
1F
100
AcDbEntity
  8
Default
100
AcDbSpline
210
0.0
220
0.0
230
1.0
 70
    12
 71
     5
 72
    12
 73
     6
 74
     0
 42
0.0000000001
 43
0.0000000001
 40
-0.9926563385080105
 40
-0.9926563385080105
 40
-0.9926563385080105
 40
-0.9926563385080105
 40
-0.9926563385080105
 40
-0.9926563385080105
 40
0.0000000000115655
 40
0.0000000000115655
 40
0.0000000000115655
 40
0.0000000000115655
 40
0.0000000000115655
 40
0.0000000000115655
 10
76.44482246423391
 20
0.4849040010511203
 30
0.0
 41
1.0
 10
76.36455109729664
 20
2.103720817428723
 30
0.0
 41
1.0
 10
76.28128384875859
 20
3.721623239167286
 30
0.0
 41
1.0
 10
76.19512531620038
 20
5.338636897333259
 30
0.0
 41
1.0
 10
76.11020716251599
 20
6.956042847421742
 30
0.0
 41
1.0
 10
76.02657471710623
 20
8.573832748022994
 30
0.0
 41
1.0
  0
SPLINE
  5
BE
330
1F
100
AcDbEntity
  8
Default
100
AcDbSpline
210
0.0
220
0.0
230
1.0
 70
    12
 71
     2
 72
     6
 73
     3
 74
     0
 42
0.0000000001
 43
0.0000000001
 40
-0.082649365308941
 40
-0.082649365308941
 40
-0.082649365308941
 40
0.0
 40
0.0
 40
0.0
 10
76.02657471710623
 20
8.573832748022994
 30
0.0
 41
1.0
 10
76.02445428720809
 20
8.615102993963456
 30
0.0
 41
0.9999999883852876
 10
76.02232336702482
 20
8.656814936585874
 30
0.0
 41
1.0
  0
SPLINE
  5
BF
330
1F
100
AcDbEntity
  8
Default
100
AcDbSpline
210
0.0
220
0.0
230
1.0
 70
    12
 71
     2
 72
     6
 73
     3
 74
     0
 42
0.0000000001
 43
0.0000000001
 40
0.0
 40
0.0
 40
0.0
 40
0.7576113662501209
 40
0.7576113662501209
 40
0.7576113662501209
 10
76.02232336702482
 20
8.656814936585874
 30
0.0
 41
1.0
 10
75.99718388132032
 20
9.129543739914439
 30
0.0
 41
0.72648491075732
 10
75.52361709171291
 20
9.130707515795791
 30
0.0
 41
1.0
  0
SPLINE
  5
C0
330
1F
100
AcDbEntity
  8
Default
100
AcDbSpline
210
0.0
220
0.0
230
1.0
 70
    24
 71
     2
 72
     6
 73
     3
 74
     0
 42
0.0000000001
 43
0.0000000001
 40
0.0
 40
0.0
 40
0.0
 40
19.64792944108129
 40
19.64792944108129
 40
19.64792944108129
 10
75.52361709171291
 20
9.130707515795791
 30
0.0
 10
65.69903928075317
 20
9.130707515795791
 30
0.0
 10
55.87446146979343
 20
9.130707515795791
 30
0.0
  0
SPLINE
  5
C1
330
1F
100
AcDbEntity
  8
Default
100
AcDbSpline
210
0.0
220
0.0
230
1.0
 70
    12
 71
     2
 72
     6
 73
     3
 74
     0
 42
0.0000000001
 43
0.0000000001
 40
-0.7576113662501209
 40
-0.7576113662501209
 40
-0.7576113662501209
 40
0.0
 40
0.0
 40
0.0
 10
55.87446146979343
 20
9.130707515795791
 30
0.0
 41
1.0
 10
55.40089468018602
 20
9.129543739914439
 30
0.0
 41
0.72648491075732
 10
55.37575519448157
 20
8.656814936585874
 30
0.0
 41
1.0
  0
SPLINE
  5
C2
330
1F
100
AcDbEntity
  8
Default
100
AcDbSpline
210
0.0
220
0.0
230
1.0
 70
    12
 71
     2
 72
     6
 73
     3
 74
     0
 42
0.0000000001
 43
0.0000000001
 40
0.0
 40
0.0
 40
0.0
 40
0.082649365308941
 40
0.082649365308941
 40
0.082649365308941
 10
55.37575519448157
 20
8.656814936585874
 30
0.0
 41
1.0
 10
55.37362427429819
 20
8.615102993963456
 30
0.0
 41
0.9999999883852876
 10
55.37150384440011
 20
8.573832748022994
 30
0.0
 41
1.0
  0
SPLINE
  5
C3
330
1F
100
AcDbEntity
  8
Default
100
AcDbSpline
210
0.0
220
0.0
230
1.0
 70
    12
 71
     5
 72
    12
 73
     6
 74
     0
 42
0.0000000001
 43
0.0000000001
 40
-0.0000000000115655
 40
-0.0000000000115655
 40
-0.0000000000115655
 40
-0.0000000000115655
 40
-0.0000000000115655
 40
-0.0000000000115655
 40
0.9926563385080105
 40
0.9926563385080105
 40
0.9926563385080105
 40
0.9926563385080105
 40
0.9926563385080105
 40
0.9926563385080105
 10
55.37150384440011
 20
8.573832748022994
 30
0.0
 41
1.0
 10
55.28787139899035
 20
6.956042847421742
 30
0.0
 41
1.0
 10
55.20295324530602
 20
5.338636897333259
 30
0.0
 41
1.0
 10
55.1167947127478
 20
3.721623239167286
 30
0.0
 41
1.0
 10
55.03352746420975
 20
2.103720817428723
 30
0.0
 41
1.0
 10
54.95325609727249
 20
0.4849040010511203
 30
0.0
 41
1.0
  0
SPLINE
  5
C4
330
1F
100
AcDbEntity
  8
Default
100
AcDbSpline
210
0.0
220
0.0
230
1.0
 70
    12
 71
     2
 72
     6
 73
     3
 74
     0
 42
0.0000000001
 43
0.0000000001
 40
-0.0846250291315599
 40
-0.0846250291315599
 40
-0.0846250291315599
 40
0.0
 40
0.0
 40
0.0
 10
54.95325609727249
 20
0.4849040010511203
 30
0.0
 41
1.0
 10
54.9507512494222
 20
0.43487252352985
 30
0.0
 41
0.7828101505964009
 10
54.90145915488986
 20
0.4260291938073806
 30
0.0
 41
1.0
  0
POLYLINE
  5
C5
330
1F
100
AcDbEntity
  8
Default
100
AcDb2dPolyline
 66
     1
 10
0.0
 20
0.0
 30
0.0
  0
VERTEX
  5
C6
330
C5
100
AcDbEntity
  8
Default
100
AcDbVertex
100
AcDb2dVertex
 10
54.90145915488986
 20
0.4260291938073806
 30
0.0
  0
VERTEX
  5
C7
330
C5
100
AcDbEntity
  8
Default
100
AcDbVertex
100
AcDb2dVertex
 10
53.87663497865557
 20
0.4260970311032679
 30
0.0
  0
SEQEND
  5
C8
330
C5
100
AcDbEntity
  8
Default
  0
SPLINE
  5
C9
330
1F
100
AcDbEntity
  8
Default
100
AcDbSpline
210
0.0
220
0.0
230
1.0
 70
    12
 71
     2
 72
     6
 73
     3
 74
     0
 42
0.0000000001
 43
0.0000000001
 40
-0.0876876088231114
 40
-0.0876876088231114
 40
-0.0876876088231114
 40
0.0
 40
0.0
 40
0.0
 10
53.87663497865557
 20
0.4260970311032679
 30
0.0
 41
1.0
 10
53.82489102295862
 20
0.4357006415275872
 30
0.0
 41
0.7674574304402552
 10
53.82513181683933
 20
0.488327709683233
 30
0.0
 41
1.0
  0
SPLINE
  5
CA
330
1F
100
AcDbEntity
  8
Default
100
AcDbSpline
210
0.0
220
0.0
230
1.0
 70
    12
 71
     5
 72
    12
 73
     6
 74
     0
 42
0.0000000001
 43
0.0000000001
 40
-0.9922383364707964
 40
-0.9922383364707964
 40
-0.9922383364707964
 40
-0.9922383364707964
 40
-0.9922383364707964
 40
-0.9922383364707964
 40
0.0000000000115655
 40
0.0000000000115655
 40
0.0000000000115655
 40
0.0000000000115655
 40
0.0000000000115655
 40
0.0000000000115655
 10
53.82513181683933
 20
0.488327709683233
 30
0.0
 41
1.0
 10
53.82114157089026
 20
2.106446236199616
 30
0.0
 41
1.0
 10
53.82072439076288
 20
3.723665990484989
 30
0.0
 41
1.0
 10
53.82374938677353
 20
5.339998742617354
 30
0.0
 41
1.0
 10
53.82528943762836
 20
6.956723733639279
 30
0.0
 41
1.0
 10
53.82528933458971
 20
8.573832748022994
 30
0.0
 41
1.0
  0
LINE
  5
CB
330
1F
100
AcDbEntity
  8
Default
100
AcDbLine
 10
53.82528933458971
 20
8.573832748022994
 30
0.0
 11
53.82528937699576
 21
12.67503914794085
 31
0.0
  0
POLYLINE
  5
CC
330
1F
100
AcDbEntity
  8
Default
100
AcDb2dPolyline
 66
     1
 10
0.0
 20
0.0
 30
0.0
  0
VERTEX
  5
CD
330
CC
100
AcDbEntity
  8
Default
100
AcDbVertex
100
AcDb2dVertex
 10
53.82528937699576
 20
12.67503914794085
 30
0.0
  0
VERTEX
  5
CE
330
CC
100
AcDbEntity
  8
Default
100
AcDbVertex
100
AcDb2dVertex
 10
55.40028988707249
 20
12.67503914794082
 30
0.0
  0
SEQEND
  5
CF
330
CC
100
AcDbEntity
  8
Default
  0
LINE
  5
D0
330
1F
100
AcDbEntity
  8
Default
100
AcDbLine
 10
55.40028988707249
 20
12.67503914794082
 30
0.0
 11
55.40031595271304
 21
10.84994551539381
 31
0.0
  0
SPLINE
  5
D1
330
1F
100
AcDbEntity
  8
Default
100
AcDbSpline
210
0.0
220
0.0
230
1.0
 70
    12
 71
     2
 72
     6
 73
     3
 74
     0
 42
0.0000000001
 43
0.0000000001
 40
0.0
 40
0.0
 40
0.0
 40
0.7825548902353026
 40
0.7825548902353026
 40
0.7825548902353026
 10
55.40031595271304
 20
10.84994551539381
 30
0.0
 41
1.0
 10
55.40166381462675
 20
10.35219105879899
 30
0.0
 41
0.7091100515193309
 10
55.89957190894395
 20
10.35071586202301
 30
0.0
 41
1.0
  0
SPLINE
  5
D2
330
1F
100
AcDbEntity
  8
Default
100
AcDbSpline
210
0.0
220
0.0
230
1.0
 70
    24
 71
     2
 72
     6
 73
     3
 74
     0
 42
0.0000000001
 43
0.0000000001
 40
0.0
 40
0.0
 40
0.0
 40
19.59744819239467
 40
19.59744819239467
 40
19.59744819239467
 10
55.89957190894395
 20
10.35071586202301
 30
0.0
 10
65.69903928075317
 20
10.35071586202301
 30
0.0
 10
75.49850665256238
 20
10.35071586202301
 30
0.0
  0
POLYLINE
  5
D3
330
1F
100
AcDbEntity
  8
Default
100
AcDb2dPolyline
 66
     1
 10
0.0
 20
0.0
 30
0.0
  0
VERTEX
  5
D4
330
D3
100
AcDbEntity
  8
Default
100
AcDbVertex
100
AcDb2dVertex
 10
54.74903928075324
 20
14.42503914794085
 30
0.0
  0
VERTEX
  5
D5
330
D3
100
AcDbEntity
  8
Default
100
AcDbVertex
100
AcDb2dVertex
 10
76.64903928075321
 20
14.42503914794085
 30
0.0
  0
VERTEX
  5
D6
330
D3
100
AcDbEntity
  8
Default
100
AcDbVertex
100
AcDb2dVertex
 10
76.64903928075321
 20
14.67503914794085
 30
0.0
  0
VERTEX
  5
D7
330
D3
100
AcDbEntity
  8
Default
100
AcDbVertex
100
AcDb2dVertex
 10
54.74903928075324
 20
14.67503914794085
 30
0.0
  0
VERTEX
  5
D8
330
D3
100
AcDbEntity
  8
Default
100
AcDbVertex
100
AcDb2dVertex
 10
54.74903928075324
 20
14.42503914794085
 30
0.0
  0
SEQEND
  5
D9
330
D3
100
AcDbEntity
  8
Default
  0
POLYLINE
  5
DA
330
1F
100
AcDbEntity
  8
Default
100
AcDb2dPolyline
 66
     1
 10
0.0
 20
0.0
 30
0.0
  0
VERTEX
  5
DB
330
DA
100
AcDbEntity
  8
Default
100
AcDbVertex
100
AcDb2dVertex
 10
53.24903928075324
 20
14.67503914794085
 30
0.0
  0
VERTEX
  5
DC
330
DA
100
AcDbEntity
  8
Default
100
AcDbVertex
100
AcDb2dVertex
 10
78.14903928075321
 20
14.67503914794085
 30
0.0
  0
VERTEX
  5
DD
330
DA
100
AcDbEntity
  8
Default
100
AcDbVertex
100
AcDb2dVertex
 10
78.14903928075321
 20
15.42503914794085
 30
0.0
  0
VERTEX
  5
DE
330
DA
100
AcDbEntity
  8
Default
100
AcDbVertex
100
AcDb2dVertex
 10
53.24903928075324
 20
15.42503914794085
 30
0.0
  0
VERTEX
  5
DF
330
DA
100
AcDbEntity
  8
Default
100
AcDbVertex
100
AcDb2dVertex
 10
53.24903928075324
 20
14.67503914794085
 30
0.0
  0
SEQEND
  5
E0
330
DA
100
AcDbEntity
  8
Default
  0
SPLINE
  5
E1
330
1F
100
AcDbEntity
  8
Default
100
AcDbSpline
210
0.0
220
0.0
230
1.0
 70
    24
 71
     2
 72
     6
 73
     3
 74
     0
 42
0.0000000001
 43
0.0000000001
 40
0.0
 40
0.0
 40
0.0
 40
0.003885868834095
 40
0.003885868834095
 40
0.003885868834095
 10
55.40028928595311
 20
12.67106376877226
 30
0.0
 10
55.40028928973058
 20
12.66912083435521
 30
0.0
 10
55.40028929350805
 20
12.66717789993817
 30
0.0
  0
SPLINE
  5
E2
330
1F
100
AcDbEntity
  8
Default
100
AcDbSpline
210
0.0
220
0.0
230
1.0
 70
    12
 71
     2
 72
     6
 73
     3
 74
     0
 42
0.0000000001
 43
0.0000000001
 40
0.0
 40
0.0
 40
0.0
 40
0.0026344063336084
 40
0.0026344063336084
 40
0.0026344063336084
 10
55.4002855791185
 20
12.67369822161226
 30
0.0
 41
1.0
 10
55.40027148185786
 20
12.67238109374844
 30
0.0
 41
0.9999998444549029
 10
55.40025591533808
 20
12.6710639824297
 30
0.0
 41
1.0
  0
SPLINE
  5
E3
330
1F
100
AcDbEntity
  8
Default
100
AcDbSpline
210
0.0
220
0.0
230
1.0
 70
    12
 71
     2
 72
     6
 73
     3
 74
     0
 42
0.0000000001
 43
0.0000000001
 40
0.0
 40
0.0
 40
0.0
 40
0.0051272633192371
 40
0.0051272633192371
 40
0.0051272633192371
 10
55.40026862533372
 20
12.66991732659136
 30
0.0
 41
1.0
 10
55.40028966846873
 20
12.67248088681117
 30
0.0
 41
0.9999912669693292
 10
55.40028928362707
 20
12.67504453336753
 30
0.0
 41
1.0
  0
POLYLINE
  5
E4
330
1F
100
AcDbEntity
  8
Default
100
AcDb2dPolyline
 66
     1
 10
0.0
 20
0.0
 30
0.0
  0
VERTEX
  5
E5
330
E4
100
AcDbEntity
  8
Default
100
AcDbVertex
100
AcDb2dVertex
 10
27.41333270201935
 20
0.049999999783779
 30
0.0
  0
VERTEX
  5
E6
330
E4
100
AcDbEntity
  8
Default
100
AcDbVertex
100
AcDb2dVertex
 10
27.89751022942673
 20
0.0500000002180627
 30
0.0
  0
SEQEND
  5
E7
330
E4
100
AcDbEntity
  8
Default
  0
SPLINE
  5
E8
330
1F
100
AcDbEntity
  8
Default
100
AcDbSpline
210
0.0
220
0.0
230
1.0
 70
    12
 71
     2
 72
     6
 73
     3
 74
     0
 42
0.0000000001
 43
0.0000000001
 40
0.0
 40
0.0
 40
0.0
 40
0.241924443334512
 40
0.241924443334512
 40
0.241924443334512
 10
27.89751022942673
 20
0.0500000002180627
 30
0.0
 41
1.0
 10
28.05042124359401
 20
0.0500000303549922
 30
0.0
 41
0.7141418074729331
 10
28.05339256776446
 20
0.2029065059720097
 30
0.0
 41
1.0
  0
LINE
  5
E9
330
1F
100
AcDbEntity
  8
Default
100
AcDbLine
 10
28.05339256776446
 20
0.2029065059720097
 30
0.0
 11
28.05809116485514
 21
0.4250000024005089
 31
0.0
  0
LINE
  5
EA
330
1F
100
AcDbEntity
  8
Default
100
AcDbLine
 10
28.05809116485514
 20
0.4250000024005089
 30
0.0
 11
27.25328204887998
 21
0.4250000024005089
 31
0.0
  0
LINE
  5
EB
330
1F
100
AcDbEntity
  8
Default
100
AcDbLine
 10
27.25328204887998
 20
0.4250000024005089
 30
0.0
 11
27.25771550742266
 21
0.2029065037782232
 31
0.0
  0
SPLINE
  5
EC
330
1F
100
AcDbEntity
  8
Default
100
AcDbSpline
210
0.0
220
0.0
230
1.0
 70
    12
 71
     2
 72
     6
 73
     3
 74
     0
 42
0.0000000001
 43
0.0000000001
 40
0.0
 40
0.0
 40
0.0
 40
0.2419244355107725
 40
0.2419244355107725
 40
0.2419244355107725
 10
27.25771550742266
 20
0.2029065037782232
 30
0.0
 41
1.0
 10
27.2604216940217
 20
0.0500000321597107
 30
0.0
 41
0.7141418153608741
 10
27.41333270201935
 20
0.049999999783779
 30
0.0
 41
1.0
  0
SPLINE
  5
ED
330
1F
100
AcDbEntity
  8
Default
100
AcDbSpline
210
0.0
220
0.0
230
1.0
 70
    15
 71
     2
 72
    20
 73
    17
 74
     0
 42
0.0000000001
 43
0.0000000001
 40
-6733.358085338376
 40
-6733.358085338376
 40
-6733.358085338376
 40
-6719.00382466361
 40
-6719.00382466361
 40
-6718.218426500182
 40
-6718.218426500182
 40
-6679.489858540186
 40
-6679.489858540186
 40
-6678.704460377189
 40
-6678.704460377189
 40
-6664.350199704786
 40
-6664.350199704786
 40
-6663.564801541019
 40
-6663.564801541019
 40
-6624.836233570425
 40
-6624.836233570425
 40
-6624.050835407028
 40
-6624.050835407028
 40
-6624.050835407028
 10
25.25155263556869
 20
14.92500000240005
 30
0.0
 41
1.0
 10
25.25155263556874
 20
22.10213033978306
 30
0.0
 41
1.0
 10
25.25155263556874
 20
29.27926067716606
 30
0.0
 41
1.0
 10
25.25155263556875
 20
29.77926067719655
 30
0.0
 41
0.7071067811649757
 10
24.75155263553827
 20
29.77926067716606
 30
0.0
 41
1.0
 10
0.5642862836038773
 20
29.7792606759846
 30
0.0
 41
1.0
 10
-24.79942145822596
 20
29.77926067480314
 30
0.0
 41
1.0
 10
-25.2994214578261
 20
29.77926067477265
 30
0.0
 41
0.7071067814692698
 10
-25.29942145819544
 20
29.27926067517248
 30
0.0
 41
1.0
 10
-25.29942146349484
 20
22.10213033897091
 30
0.0
 41
1.0
 10
-25.29942146879424
 20
14.92500000276937
 30
0.0
 41
1.0
 10
-25.29942146916352
 20
14.42500000240006
 30
0.0
 41
0.7071067809254249
 10
-24.79942146879424
 20
14.42500000240008
 30
0.0
 41
1.0
 10
0.5642862783349472
 20
14.42500000240008
 30
0.0
 41
1.0
 10
24.75155263556869
 20
14.42500000240008
 30
0.0
 41
1.0
 10
25.25155263556873
 20
14.42500000240007
 30
0.0
 41
0.70710678118655
 10
25.25155263556869
 20
14.92500000240005
 30
0.0
 41
1.0
  0
ENDSEC
  0
SECTION
  2
OBJECTS
  0
DICTIONARY
  5
C
330
0
100
AcDbDictionary
281
     1
  3
ACAD_GROUP
350
D
  3
ACAD_LAYOUT
350
1A
  3
ACAD_MLEADERSTYLE
350
EF
  3
ACAD_MLINESTYLE
350
17
  3
ACAD_PLOTSETTINGS
350
19
  3
ACAD_PLOTSTYLENAME
350
E
  3
ACAD_TABLESTYLE
350
EE
  3
ACAD_VISUALSTYLE
350
2A
  0
DICTIONARY
  5
D
102
{ACAD_REACTORS
330
C
102
}
330
C
100
AcDbDictionary
281
     1
  0
DICTIONARY
  5
1A
102
{ACAD_REACTORS
330
C
102
}
330
C
100
AcDbDictionary
281
     1
  3
Layout1
350
1E
  3
Layout2
350
26
  3
Model
350
22
  0
DICTIONARY
  5
EF
102
{ACAD_REACTORS
330
C
102
}
330
C
100
AcDbDictionary
281
     1
  0
DICTIONARY
  5
17
102
{ACAD_REACTORS
330
C
102
}
330
C
100
AcDbDictionary
281
     1
  3
Standard
350
18
  0
DICTIONARY
  5
19
102
{ACAD_REACTORS
330
C
102
}
330
C
100
AcDbDictionary
281
     1
  0
ACDBDICTIONARYWDFLT
  5
E
102
{ACAD_REACTORS
330
C
102
}
330
C
100
AcDbDictionary
281
     1
  3
Normal
350
F
100
AcDbDictionaryWithDefault
340
F
  0
DICTIONARY
  5
EE
102
{ACAD_REACTORS
330
C
102
}
330
C
100
AcDbDictionary
281
     1
  0
DICTIONARY
  5
2A
102
{ACAD_REACTORS
330
C
102
}
330
C
100
AcDbDictionary
281
     1
  3
2dWireframe
350
2F
  3
3D Hidden
350
31
  3
3dWireframe
350
30
  3
Basic
350
32
  3
Brighten
350
36
  3
ColorChange
350
3A
  3
Conceptual
350
34
  3
Dim
350
35
  3
Facepattern
350
39
  3
Flat
350
2B
  3
FlatWithEdges
350
2C
  3
Gouraud
350
2D
  3
GouraudWithEdges
350
2E
  3
Linepattern
350
38
  3
Realistic
350
33
  3
Thicken
350
37
  0
LAYOUT
  5
1E
102
{ACAD_REACTORS
330
1A
102
}
330
1A
100
AcDbPlotSettings
  1

  2
none_device
  4

  6

 40
0.0
 41
0.0
 42
0.0
 43
0.0
 44
0.0
 45
0.0
 46
0.0
 47
0.0
 48
0.0
 49
0.0
140
0.0
141
0.0
142
1.0
143
1.0
 70
   688
 72
     0
 73
     0
 74
     5
  7

 75
    16
 76
     0
 77
     2
 78
   300
147
1.0
148
0.0
149
0.0
100
AcDbLayout
  1
Layout1
 70
     1
 71
     1
 10
0.0
 20
0.0
 11
12.0
 21
9.0
 12
0.0
 22
0.0
 32
0.0
 14
1.000000000000000E+20
 24
1.000000000000000E+20
 34
1.000000000000000E+20
 15
-1.000000000000000E+20
 25
-1.000000000000000E+20
 35
-1.000000000000000E+20
146
0.0
 13
0.0
 23
0.0
 33
0.0
 16
1.0
 26
0.0
 36
0.0
 17
0.0
 27
1.0
 37
0.0
 76
     0
330
1B
  0
LAYOUT
  5
26
102
{ACAD_REACTORS
330
1A
102
}
330
1A
100
AcDbPlotSettings
  1

  2
none_device
  4

  6

 40
0.0
 41
0.0
 42
0.0
 43
0.0
 44
0.0
 45
0.0
 46
0.0
 47
0.0
 48
0.0
 49
0.0
140
0.0
141
0.0
142
1.0
143
1.0
 70
   688
 72
     0
 73
     0
 74
     5
  7

 75
    16
 76
     0
 77
     2
 78
   300
147
1.0
148
0.0
149
0.0
100
AcDbLayout
  1
Layout2
 70
     1
 71
     2
 10
0.0
 20
0.0
 11
0.0
 21
0.0
 12
0.0
 22
0.0
 32
0.0
 14
0.0
 24
0.0
 34
0.0
 15
0.0
 25
0.0
 35
0.0
146
0.0
 13
0.0
 23
0.0
 33
0.0
 16
1.0
 26
0.0
 36
0.0
 17
0.0
 27
1.0
 37
0.0
 76
     0
330
23
  0
LAYOUT
  5
22
102
{ACAD_REACTORS
330
1A
102
}
330
1A
100
AcDbPlotSettings
  1

  2
none_device
  4

  6

 40
0.0
 41
0.0
 42
0.0
 43
0.0
 44
0.0
 45
0.0
 46
0.0
 47
0.0
 48
0.0
 49
0.0
140
0.0
141
0.0
142
1.0
143
1.0
 70
  1712
 72
     0
 73
     0
 74
     0
  7

 75
     0
 76
     0
 77
     2
 78
   300
147
1.0
148
0.0
149
0.0
100
AcDbLayout
  1
Model
 70
     1
 71
     0
 10
0.0
 20
0.0
 11
12.0
 21
9.0
 12
0.0
 22
0.0
 32
0.0
 14
-37.74942146349494
 24
0.049999999783779
 34
0.0
 15
78.20028928075422
 25
65.18795852298751
 35
0.0
146
0.0
 13
0.0
 23
0.0
 33
0.0
 16
1.0
 26
0.0
 36
0.0
 17
0.0
 27
1.0
 37
0.0
 76
     0
330
1F
331
29
  0
MLINESTYLE
  5
18
102
{ACAD_REACTORS
330
17
102
}
330
17
100
AcDbMlineStyle
  2
Standard
 70
     0
  3

 62
   256
 51
90.0
 52
90.0
 71
     2
 49
0.5
 62
   256
  6
BYLAYER
 49
-0.5
 62
   256
  6
BYLAYER
  0
ACDBPLACEHOLDER
  5
F
102
{ACAD_REACTORS
330
E
102
}
330
E
  0
VISUALSTYLE
  5
2F
102
{ACAD_REACTORS
330
2A
102
}
330
2A
100
AcDbVisualStyle
  2
2dWireframe
 70
     4
 71
     0
 72
     2
 73
     0
 90
        0
 40
-0.6
 41
-30.0
 62
     5
 63
     7
421
 16777215
 74
     1
 91
        4
 64
     7
 65
   257
 75
     1
175
     1
 42
1.0
 92
        0
 66
   257
 43
1.0
 76
     1
 77
     6
 78
     2
 67
     7
 79
     5
170
     0
171
     0
290
     0
174
     0
 93
        1
 44
0.0
173
     0
291
     0
 45
0.0
1001
ACAD
1000
AcDbSavedByObjectVersion
1070
     0
  0
VISUALSTYLE
  5
31
102
{ACAD_REACTORS
330
2A
102
}
330
2A
100
AcDbVisualStyle
  2
3D Hidden
 70
     6
 71
     1
 72
     2
 73
     2
 90
        0
 40
-0.6
 41
-30.0
 62
     5
 63
     7
421
 16777215
 74
     2
 91
        2
 64
     7
 65
   257
 75
     2
175
     1
 42
40.0
 92
        0
 66
   257
 43
1.0
 76
     1
 77
     6
 78
     2
 67
     7
 79
     3
170
     0
171
     0
290
     0
174
     0
 93
        1
 44
0.0
173
     0
291
     0
 45
0.0
1001
ACAD
1000
AcDbSavedByObjectVersion
1070
     0
  0
VISUALSTYLE
  5
30
102
{ACAD_REACTORS
330
2A
102
}
330
2A
100
AcDbVisualStyle
  2
3dWireframe
 70
     5
 71
     0
 72
     2
 73
     0
 90
        0
 40
-0.6
 41
-30.0
 62
     5
 63
     7
421
 16777215
 74
     1
 91
        4
 64
     7
 65
   257
 75
     1
175
     1
 42
1.0
 92
        0
 66
   257
 43
1.0
 76
     1
 77
     6
 78
     2
 67
     7
 79
     5
170
     0
171
     0
290
     0
174
     0
 93
        1
 44
0.0
173
     0
291
     0
 45
0.0
1001
ACAD
1000
AcDbSavedByObjectVersion
1070
     0
  0
VISUALSTYLE
  5
32
102
{ACAD_REACTORS
330
2A
102
}
330
2A
100
AcDbVisualStyle
  2
Basic
 70
     7
 71
     1
 72
     0
 73
     1
 90
        0
 40
-0.6
 41
-30.0
 62
     5
 63
     7
421
 16777215
 74
     0
 91
        4
 64
     7
 65
   257
 75
     1
175
     1
 42
1.0
 92
        8
 66
     7
 43
1.0
 76
     1
 77
     6
 78
     2
 67
     7
 79
     5
170
     0
171
     0
290
     0
174
     0
 93
        1
 44
0.0
173
     0
291
     1
 45
0.0
1001
ACAD
1000
AcDbSavedByObjectVersion
1070
     0
  0
VISUALSTYLE
  5
36
102
{ACAD_REACTORS
330
2A
102
}
330
2A
100
AcDbVisualStyle
  2
Brighten
 70
    12
 71
     2
 72
     2
 73
     0
 90
        0
 40
-0.6
 41
-30.0
 62
     5
 63
     7
421
 16777215
 74
     1
 91
        4
 64
     7
 65
   257
 75
     1
175
     1
 42
1.0
 92
        8
 66
     7
 43
1.0
 76
     1
 77
     6
 78
     2
 67
     7
 79
     5
170
     0
171
     0
290
     0
174
     0
 93
        1
 44
50.0
173
     0
291
     1
 45
0.0
1001
ACAD
1000
AcDbSavedByObjectVersion
1070
     0
  0
VISUALSTYLE
  5
3A
102
{ACAD_REACTORS
330
2A
102
}
330
2A
100
AcDbVisualStyle
  2
ColorChange
 70
    16
 71
     2
 72
     2
 73
     3
 90
        0
 40
-0.6
 41
-30.0
 62
     5
 63
     8
421
  8421504
 74
     1
 91
        4
 64
     7
 65
   257
 75
     1
175
     1
 42
1.0
 92
        8
 66
     8
424
  8421504
 43
1.0
 76
     1
 77
     6
 78
     2
 67
     7
 79
     5
170
     0
171
     0
290
     0
174
     0
 93
        1
 44
0.0
173
     0
291
     1
 45
0.0
1001
ACAD
1000
AcDbSavedByObjectVersion
1070
     0
  0
VISUALSTYLE
  5
34
102
{ACAD_REACTORS
330
2A
102
}
330
2A
100
AcDbVisualStyle
  2
Conceptual
 70
     9
 71
     3
 72
     2
 73
     0
 90
        0
 40
-0.6
 41
-30.0
 62
     5
 63
     7
421
 16777215
 74
     2
 91
        2
 64
     7
 65
   257
 75
     1
175
     1
 42
40.0
 92
        8
 66
     7
 43
1.0
 76
     1
 77
     6
 78
     2
 67
     7
 79
     3
170
     0
171
     0
290
     0
174
     0
 93
        1
 44
0.0
173
     0
291
     0
 45
0.0
1001
ACAD
1000
AcDbSavedByObjectVersion
1070
     0
  0
VISUALSTYLE
  5
35
102
{ACAD_REACTORS
330
2A
102
}
330
2A
100
AcDbVisualStyle
  2
Dim
 70
    11
 71
     2
 72
     2
 73
     0
 90
        0
 40
-0.6
 41
-30.0
 62
     5
 63
     7
421
 16777215
 74
     1
 91
        4
 64
     7
 65
   257
 75
     1
175
     1
 42
1.0
 92
        8
 66
     7
 43
1.0
 76
     1
 77
     6
 78
     2
 67
     7
 79
     5
170
     0
171
     0
290
     0
174
     0
 93
        1
 44
-50.0
173
     0
291
     1
 45
0.0
1001
ACAD
1000
AcDbSavedByObjectVersion
1070
     0
  0
VISUALSTYLE
  5
39
102
{ACAD_REACTORS
330
2A
102
}
330
2A
100
AcDbVisualStyle
  2
Facepattern
 70
    15
 71
     2
 72
     2
 73
     0
 90
        0
 40
-0.6
 41
-30.0
 62
     5
 63
     7
421
 16777215
 74
     1
 91
        4
 64
     7
 65
   257
 75
     1
175
     1
 42
1.0
 92
        8
 66
     7
 43
1.0
 76
     1
 77
     6
 78
     2
 67
     7
 79
     5
170
     0
171
     0
290
     0
174
     0
 93
        1
 44
0.0
173
     0
291
     1
 45
0.0
1001
ACAD
1000
AcDbSavedByObjectVersion
1070
     0
  0
VISUALSTYLE
  5
2B
102
{ACAD_REACTORS
330
2A
102
}
330
2A
100
AcDbVisualStyle
  2
Flat
 70
     0
 71
     2
 72
     1
 73
     1
 90
        2
 40
-0.6
 41
30.0
 62
     5
 63
     7
421
 16777215
 74
     0
 91
        4
 64
     7
 65
   257
 75
     1
175
     1
 42
1.0
 92
        8
 66
     7
 43
1.0
 76
     1
 77
     6
 78
     2
 67
     7
 79
     5
170
     0
171
     0
290
     0
174
     0
 93
       13
 44
0.0
173
     0
291
     1
 45
0.0
1001
ACAD
1000
AcDbSavedByObjectVersion
1070
     0
  0
VISUALSTYLE
  5
2C
102
{ACAD_REACTORS
330
2A
102
}
330
2A
100
AcDbVisualStyle
  2
FlatWithEdges
 70
     1
 71
     2
 72
     1
 73
     1
 90
        2
 40
-0.6
 41
30.0
 62
     5
 63
     7
421
 16777215
 74
     1
 91
        4
 64
     7
 65
   257
 75
     1
175
     1
 42
1.0
 92
        0
 66
   257
 43
1.0
 76
     1
 77
     6
 78
     2
 67
     7
 79
     5
170
     0
171
     0
290
     0
174
     0
 93
       13
 44
0.0
173
     0
291
     1
 45
0.0
1001
ACAD
1000
AcDbSavedByObjectVersion
1070
     0
  0
VISUALSTYLE
  5
2D
102
{ACAD_REACTORS
330
2A
102
}
330
2A
100
AcDbVisualStyle
  2
Gouraud
 70
     2
 71
     2
 72
     2
 73
     1
 90
        2
 40
-0.6
 41
30.0
 62
     5
 63
     7
421
 16777215
 74
     0
 91
        4
 64
     7
 65
   257
 75
     1
175
     1
 42
1.0
 92
        0
 66
     7
 43
1.0
 76
     1
 77
     6
 78
     2
 67
     7
 79
     5
170
     0
171
     0
290
     0
174
     0
 93
       13
 44
0.0
173
     0
291
     1
 45
0.0
1001
ACAD
1000
AcDbSavedByObjectVersion
1070
     0
  0
VISUALSTYLE
  5
2E
102
{ACAD_REACTORS
330
2A
102
}
330
2A
100
AcDbVisualStyle
  2
GouraudWithEdges
 70
     3
 71
     2
 72
     2
 73
     1
 90
        2
 40
-0.6
 41
30.0
 62
     5
 63
     7
421
 16777215
 74
     1
 91
        4
 64
     7
 65
   257
 75
     1
175
     1
 42
1.0
 92
        0
 66
   257
 43
1.0
 76
     1
 77
     6
 78
     2
 67
     7
 79
     5
170
     0
171
     0
290
     0
174
     0
 93
       13
 44
0.0
173
     0
291
     1
 45
0.0
1001
ACAD
1000
AcDbSavedByObjectVersion
1070
     0
  0
VISUALSTYLE
  5
38
102
{ACAD_REACTORS
330
2A
102
}
330
2A
100
AcDbVisualStyle
  2
Linepattern
 70
    14
 71
     2
 72
     2
 73
     0
 90
        0
 40
-0.6
 41
-30.0
 62
     5
 63
     7
421
 16777215
 74
     1
 91
        4
 64
     7
 65
   257
 75
     7
175
     7
 42
1.0
 92
        8
 66
     7
 43
1.0
 76
     1
 77
     6
 78
     2
 67
     7
 79
     5
170
     0
171
     0
290
     0
174
     0
 93
        1
 44
0.0
173
     0
291
     1
 45
0.0
1001
ACAD
1000
AcDbSavedByObjectVersion
1070
     0
  0
VISUALSTYLE
  5
33
102
{ACAD_REACTORS
330
2A
102
}
330
2A
100
AcDbVisualStyle
  2
Realistic
 70
     8
 71
     2
 72
     2
 73
     0
 90
        0
 40
-0.6
 41
-30.0
 62
     5
 63
     7
421
 16777215
 74
     1
 91
        0
 64
     7
 65
   257
 75
     1
175
     1
 42
1.0
 92
        8
 66
     8
424
  7895160
 43
1.0
 76
     1
 77
     6
 78
     2
 67
     7
 79
     5
170
     0
171
     0
290
     0
174
     0
 93
       13
 44
0.0
173
     0
291
     0
 45
0.0
1001
ACAD
1000
AcDbSavedByObjectVersion
1070
     0
  0
VISUALSTYLE
  5
37
102
{ACAD_REACTORS
330
2A
102
}
330
2A
100
AcDbVisualStyle
  2
Thicken
 70
    13
 71
     2
 72
     2
 73
     0
 90
        0
 40
-0.6
 41
-30.0
 62
     5
 63
     7
421
 16777215
 74
     1
 91
        4
 64
     7
 65
   257
 75
     1
175
     1
 42
1.0
 92
       12
 66
     7
 43
1.0
 76
     1
 77
     6
 78
     2
 67
     7
 79
     5
170
     0
171
     0
290
     0
174
     0
 93
        1
 44
0.0
173
     0
291
     1
 45
0.0
1001
ACAD
1000
AcDbSavedByObjectVersion
1070
     0
  0
ENDSEC
  0
EOF
