  0
SECTION
  2
HEADER
  9
$ACADVER
  1
AC1018
  9
$ACADMAINTVER
 70
     0
  9
$DWGCODEPAGE
  3
ANSI_1252
  9
$INSBASE
 10
0.0
 20
0.0
 30
0.0
  9
$EXTMIN
 10
-44.05213112541551
 20
-0.0000000001849969
 30
0.0
  9
$EXTMAX
 10
84.45086781337133
 20
65.13795852301877
 30
0.0
  9
$LIMMIN
 10
0.0
 20
0.0
  9
$LIMMAX
 10
12.0
 20
9.0
  9
$ORTHOMODE
 70
     0
  9
$REGENMODE
 70
     1
  9
$FILLMODE
 70
     1
  9
$QTEXTMODE
 70
     0
  9
$MIRRTEXT
 70
     1
  9
$LTSCALE
 40
0.0393700787401575
  9
$ATTMODE
 70
     1
  9
$TEXTSIZE
 40
0.2
  9
$TRACEWID
 40
0.05
  9
$TEXTSTYLE
  7
Standard
  9
$CLAYER
  8
Default
  9
$CELTYPE
  6
ByLayer
  9
$CECOLOR
 62
   256
  9
$CELTSCALE
 40
1.0
  9
$DISPSILH
 70
     0
  9
$DIMSCALE
 40
1.0
  9
$DIMASZ
 40
0.18
  9
$DIMEXO
 40
0.0625
  9
$DIMDLI
 40
0.38
  9
$DIMRND
 40
0.0
  9
$DIMDLE
 40
0.0
  9
$DIMEXE
 40
0.18
  9
$DIMTP
 40
0.0
  9
$DIMTM
 40
0.0
  9
$DIMTXT
 40
0.18
  9
$DIMCEN
 40
0.09
  9
$DIMTSZ
 40
0.0
  9
$DIMTOL
 70
     0
  9
$DIMLIM
 70
     0
  9
$DIMTIH
 70
     1
  9
$DIMTOH
 70
     1
  9
$DIMSE1
 70
     0
  9
$DIMSE2
 70
     0
  9
$DIMTAD
 70
     0
  9
$DIMZIN
 70
     0
  9
$DIMBLK
  1

  9
$DIMASO
 70
     1
  9
$DIMSHO
 70
     1
  9
$DIMPOST
  1

  9
$DIMAPOST
  1

  9
$DIMALT
 70
     0
  9
$DIMALTD
 70
     2
  9
$DIMALTF
 40
25.4
  9
$DIMLFAC
 40
1.0
  9
$DIMTOFL
 70
     0
  9
$DIMTVP
 40
0.0
  9
$DIMTIX
 70
     0
  9
$DIMSOXD
 70
     0
  9
$DIMSAH
 70
     0
  9
$DIMBLK1
  1

  9
$DIMBLK2
  1

  9
$DIMSTYLE
  2
Standard
  9
$DIMCLRD
 70
     0
  9
$DIMCLRE
 70
     0
  9
$DIMCLRT
 70
     0
  9
$DIMTFAC
 40
1.0
  9
$DIMGAP
 40
0.09
  9
$DIMJUST
 70
     0
  9
$DIMSD1
 70
     0
  9
$DIMSD2
 70
     0
  9
$DIMTOLJ
 70
     1
  9
$DIMTZIN
 70
     0
  9
$DIMALTZ
 70
     0
  9
$DIMALTTZ
 70
     0
  9
$DIMUPT
 70
     0
  9
$DIMDEC
 70
     4
  9
$DIMTDEC
 70
     4
  9
$DIMALTU
 70
     2
  9
$DIMALTTD
 70
     2
  9
$DIMTXSTY
  7
Standard
  9
$DIMAUNIT
 70
     0
  9
$DIMADEC
 70
     0
  9
$DIMALTRND
 40
0.0
  9
$DIMAZIN
 70
     0
  9
$DIMDSEP
 70
    46
  9
$DIMATFIT
 70
     3
  9
$DIMFRAC
 70
     0
  9
$DIMLDRBLK
  1

  9
$DIMLUNIT
 70
     2
  9
$DIMLWD
 70
    -2
  9
$DIMLWE
 70
    -2
  9
$DIMTMOVE
 70
     2
  9
$LUNITS
 70
     2
  9
$LUPREC
 70
     3
  9
$SKETCHINC
 40
0.1
  9
$FILLETRAD
 40
0.5
  9
$AUNITS
 70
     0
  9
$AUPREC
 70
     0
  9
$MENU
  1
.
  9
$ELEVATION
 40
0.0
  9
$PELEVATION
 40
0.0
  9
$THICKNESS
 40
0.0
  9
$LIMCHECK
 70
     0
  9
$CHAMFERA
 40
0.5
  9
$CHAMFERB
 40
0.5
  9
$CHAMFERC
 40
1.0
  9
$CHAMFERD
 40
0.0
  9
$SKPOLY
 70
     0
  9
$TDCREATE
 40
2458148.949396099
  9
$TDUCREATE
 40
2458149.157729433
  9
$TDUPDATE
 40
2458148.949396111
  9
$TDUUPDATE
 40
2458149.157729445
  9
$TDINDWG
 40
0.0000000116
  9
$TDUSRTIMER
 40
0.0000000116
  9
$USRTIMER
 70
     1
  9
$ANGBASE
 50
0.0
  9
$ANGDIR
 70
     0
  9
$PDMODE
 70
     0
  9
$PDSIZE
 40
0.0
  9
$PLINEWID
 40
0.0
  9
$SPLFRAME
 70
     0
  9
$SPLINETYPE
 70
     6
  9
$SPLINESEGS
 70
     8
  9
$HANDSEED
  5
106
  9
$SURFTAB1
 70
     6
  9
$SURFTAB2
 70
     6
  9
$SURFTYPE
 70
     6
  9
$SURFU
 70
     6
  9
$SURFV
 70
     6
  9
$UCSBASE
  2

  9
$UCSNAME
  2

  9
$UCSORG
 10
0.0
 20
0.0
 30
0.0
  9
$UCSXDIR
 10
1.0
 20
0.0
 30
0.0
  9
$UCSYDIR
 10
0.0
 20
1.0
 30
0.0
  9
$UCSORTHOREF
  2

  9
$UCSORTHOVIEW
 70
     0
  9
$UCSORGTOP
 10
0.0
 20
0.0
 30
0.0
  9
$UCSORGBOTTOM
 10
0.0
 20
0.0
 30
0.0
  9
$UCSORGLEFT
 10
0.0
 20
0.0
 30
0.0
  9
$UCSORGRIGHT
 10
0.0
 20
0.0
 30
0.0
  9
$UCSORGFRONT
 10
0.0
 20
0.0
 30
0.0
  9
$UCSORGBACK
 10
0.0
 20
0.0
 30
0.0
  9
$PUCSBASE
  2

  9
$PUCSNAME
  2

  9
$PUCSORG
 10
0.0
 20
0.0
 30
0.0
  9
$PUCSXDIR
 10
1.0
 20
0.0
 30
0.0
  9
$PUCSYDIR
 10
0.0
 20
1.0
 30
0.0
  9
$PUCSORTHOREF
  2

  9
$PUCSORTHOVIEW
 70
     0
  9
$PUCSORGTOP
 10
0.0
 20
0.0
 30
0.0
  9
$PUCSORGBOTTOM
 10
0.0
 20
0.0
 30
0.0
  9
$PUCSORGLEFT
 10
0.0
 20
0.0
 30
0.0
  9
$PUCSORGRIGHT
 10
0.0
 20
0.0
 30
0.0
  9
$PUCSORGFRONT
 10
0.0
 20
0.0
 30
0.0
  9
$PUCSORGBACK
 10
0.0
 20
0.0
 30
0.0
  9
$USERI1
 70
     0
  9
$USERI2
 70
     0
  9
$USERI3
 70
     0
  9
$USERI4
 70
     0
  9
$USERI5
 70
     0
  9
$USERR1
 40
0.0
  9
$USERR2
 40
0.0
  9
$USERR3
 40
0.0
  9
$USERR4
 40
0.0
  9
$USERR5
 40
0.0
  9
$WORLDVIEW
 70
     1
  9
$SHADEDGE
 70
     3
  9
$SHADEDIF
 70
    70
  9
$TILEMODE
 70
     1
  9
$MAXACTVP
 70
    64
  9
$PINSBASE
 10
0.0
 20
0.0
 30
0.0
  9
$PLIMCHECK
 70
     0
  9
$PEXTMIN
 10
1.000000000000000E+20
 20
1.000000000000000E+20
 30
1.000000000000000E+20
  9
$PEXTMAX
 10
-1.000000000000000E+20
 20
-1.000000000000000E+20
 30
-1.000000000000000E+20
  9
$PLIMMIN
 10
0.0
 20
0.0
  9
$PLIMMAX
 10
12.0
 20
9.0
  9
$UNITMODE
 70
     0
  9
$VISRETAIN
 70
     1
  9
$PLINEGEN
 70
     0
  9
$PSLTSCALE
 70
     1
  9
$TREEDEPTH
 70
  3020
  9
$CMLSTYLE
  2
Standard
  9
$CMLJUST
 70
     0
  9
$CMLSCALE
 40
1.0
  9
$PROXYGRAPHICS
 70
     1
  9
$MEASUREMENT
 70
     0
  9
$CELWEIGHT
370
    -1
  9
$ENDCAPS
280
     0
  9
$JOINSTYLE
280
     0
  9
$LWDISPLAY
290
     0
  9
$INSUNITS
 70
     1
  9
$HYPERLINKBASE
  1

  9
$STYLESHEET
  1

  9
$XEDIT
290
     1
  9
$CEPSNTYPE
380
     0
  9
$PSTYLEMODE
290
     1
  9
$FINGERPRINTGUID
  2
{178FCC1F-1BD3-4C68-80D6-90ECF8A664BF}
  9
$VERSIONGUID
  2
{FAEB1C32-E019-11D5-929B-00C0DF256EC4}
  9
$EXTNAMES
290
     1
  9
$PSVPSCALE
 40
0.0
  9
$OLESTARTUP
290
     0
  9
$SORTENTS
280
   127
  9
$INDEXCTL
280
     0
  9
$HIDETEXT
280
     1
  9
$XCLIPFRAME
290
     0
  9
$HALOGAP
280
     0
  9
$OBSCOLOR
 70
   257
  9
$OBSLTYPE
280
     0
  9
$INTERSECTIONDISPLAY
280
     0
  9
$INTERSECTIONCOLOR
 70
   257
  9
$DIMASSOC
280
     2
  9
$PROJECTNAME
  1

  0
ENDSEC
  0
SECTION
  2
CLASSES
  0
CLASS
  1
ACDBDICTIONARYWDFLT
  2
AcDbDictionaryWithDefault
  3
ObjectDBX Classes
 90
        0
 91
        4
280
     0
281
     0
  0
CLASS
  1
VISUALSTYLE
  2
AcDbVisualStyle
  3
ObjectDBX Classes
 90
     4095
 91
        4
280
     0
281
     0
  0
ENDSEC
  0
SECTION
  2
TABLES
  0
TABLE
  2
VPORT
  5
8
330
0
100
AcDbSymbolTable
 70
     1
  0
VPORT
  5
29
330
8
100
AcDbSymbolTableRecord
100
AcDbViewportTableRecord
  2
*Active
 70
     0
 10
0.0
 20
0.0
 11
1.0
 21
1.0
 12
20.19936834397791
 22
32.56897926141689
 13
0.0
 23
0.0
 14
0.5
 24
0.5
 15
0.5
 25
0.5
 16
0.0
 26
0.0
 36
1.0
 17
0.0
 27
0.0
 37
0.0
 40
66.44071769366784
 41
1.972782105122482
 42
50.0
 43
0.0
 44
0.0
 50
0.0
 51
0.0
 71
     0
 72
   100
 73
     1
 74
     3
 75
     0
 76
     0
 77
     0
 78
     0
281
     0
 65
     1
110
0.0
120
0.0
130
0.0
111
1.0
121
0.0
131
0.0
112
0.0
122
1.0
132
0.0
 79
     0
146
0.0
  0
ENDTAB
  0
TABLE
  2
LTYPE
  5
5
330
0
100
AcDbSymbolTable
 70
     1
  0
LTYPE
  5
14
330
5
100
AcDbSymbolTableRecord
100
AcDbLinetypeTableRecord
  2
ByBlock
 70
     0
  3

 72
    65
 73
     0
 40
0.0
  0
LTYPE
  5
15
330
5
100
AcDbSymbolTableRecord
100
AcDbLinetypeTableRecord
  2
ByLayer
 70
     0
  3

 72
    65
 73
     0
 40
0.0
  0
LTYPE
  5
16
330
5
100
AcDbSymbolTableRecord
100
AcDbLinetypeTableRecord
  2
Continuous
 70
     0
  3
Solid line
 72
    65
 73
     0
 40
0.0
  0
ENDTAB
  0
TABLE
  2
LAYER
  5
2
330
0
100
AcDbSymbolTable
 70
     2
  0
LAYER
  5
10
330
2
100
AcDbSymbolTableRecord
100
AcDbLayerTableRecord
  2
0
 70
     0
 62
     7
  6
Continuous
370
    -3
390
F
  0
LAYER
  5
3B
330
2
100
AcDbSymbolTableRecord
100
AcDbLayerTableRecord
  2
Default
 70
     0
 62
     7
  6
Continuous
370
    -3
390
F
  0
ENDTAB
  0
TABLE
  2
STYLE
  5
3
330
0
100
AcDbSymbolTable
 70
     1
  0
STYLE
  5
11
330
3
100
AcDbSymbolTableRecord
100
AcDbTextStyleTableRecord
  2
Standard
 70
     0
 40
0.0
 41
1.0
 50
0.0
 71
     0
 42
0.2
  3
txt
  4

  0
ENDTAB
  0
TABLE
  2
VIEW
  5
6
330
0
100
AcDbSymbolTable
 70
     0
  0
ENDTAB
  0
TABLE
  2
UCS
  5
7
330
0
100
AcDbSymbolTable
 70
     0
  0
ENDTAB
  0
TABLE
  2
APPID
  5
9
330
0
100
AcDbSymbolTable
 70
     1
  0
APPID
  5
12
330
9
100
AcDbSymbolTableRecord
100
AcDbRegAppTableRecord
  2
ACAD
 70
     0
  0
ENDTAB
  0
TABLE
  2
DIMSTYLE
  5
A
330
0
100
AcDbSymbolTable
 70
     1
100
AcDbDimStyleTable
  0
DIMSTYLE
105
27
330
A
100
AcDbSymbolTableRecord
100
AcDbDimStyleTableRecord
  2
Standard
 70
     0
340
11
  0
ENDTAB
  0
TABLE
  2
BLOCK_RECORD
  5
1
330
0
100
AcDbSymbolTable
 70
     1
  0
BLOCK_RECORD
  5
1F
330
1
100
AcDbSymbolTableRecord
100
AcDbBlockTableRecord
  2
*Model_Space
340
22
  0
BLOCK_RECORD
  5
1B
330
1
100
AcDbSymbolTableRecord
100
AcDbBlockTableRecord
  2
*Paper_Space
340
1E
  0
BLOCK_RECORD
  5
23
330
1
100
AcDbSymbolTableRecord
100
AcDbBlockTableRecord
  2
*Paper_Space0
340
26
  0
ENDTAB
  0
ENDSEC
  0
SECTION
  2
BLOCKS
  0
BLOCK
  5
20
330
1F
100
AcDbEntity
  8
0
100
AcDbBlockBegin
  2
*Model_Space
 70
     0
 10
0.0
 20
0.0
 30
0.0
  3
*Model_Space
  1

  0
ENDBLK
  5
21
330
1F
100
AcDbEntity
  8
0
100
AcDbBlockEnd
  0
BLOCK
  5
1C
330
1B
100
AcDbEntity
 67
     1
  8
0
100
AcDbBlockBegin
  2
*Paper_Space
 70
     0
 10
0.0
 20
0.0
 30
0.0
  3
*Paper_Space
  1

  0
ENDBLK
  5
1D
330
1B
100
AcDbEntity
 67
     1
  8
0
100
AcDbBlockEnd
  0
BLOCK
  5
24
330
23
100
AcDbEntity
  8
0
100
AcDbBlockBegin
  2
*Paper_Space0
 70
     0
 10
0.0
 20
0.0
 30
0.0
  3
*Paper_Space0
  1

  0
ENDBLK
  5
25
330
23
100
AcDbEntity
  8
0
100
AcDbBlockEnd
  0
ENDSEC
  0
SECTION
  2
ENTITIES
  0
LINE
  5
3C
330
1F
100
AcDbEntity
  8
Default
100
AcDbLine
 10
59.68637084721215
 20
14.37545611183785
 30
0.0
 11
60.71860128736411
 21
14.37545611183785
 31
0.0
  0
POLYLINE
  5
3D
330
1F
100
AcDbEntity
  8
Default
100
AcDb2dPolyline
 66
     1
 10
0.0
 20
0.0
 30
0.0
  0
VERTEX
  5
3E
330
3D
100
AcDbEntity
  8
Default
100
AcDbVertex
100
AcDb2dVertex
 10
60.71860128736411
 20
14.37545611183785
 30
0.0
  0
VERTEX
  5
3F
330
3D
100
AcDbEntity
  8
Default
100
AcDbVertex
100
AcDb2dVertex
 10
60.99961781337027
 20
14.37545611183785
 30
0.0
  0
SEQEND
  5
40
330
3D
100
AcDbEntity
  8
Default
  0
SPLINE
  5
41
330
1F
100
AcDbEntity
  8
Default
100
AcDbSpline
210
0.0
220
0.0
230
1.0
 70
    24
 71
     2
 72
     6
 73
     3
 74
     0
 42
0.0000000001
 43
0.0000000001
 40
-0.0000283800382021
 40
-0.0000283800382021
 40
-0.0000283800382021
 40
0.0
 40
0.0
 40
0.0
 10
59.45073655949737
 20
14.62503915111379
 30
0.0
 10
59.45073655883364
 20
14.6250249610941
 30
0.0
 10
59.45073655816991
 20
14.62501077107441
 30
0.0
  0
SPLINE
  5
42
330
1F
100
AcDbEntity
  8
Default
100
AcDbSpline
210
0.0
220
0.0
230
1.0
 70
    12
 71
     2
 72
     6
 73
     3
 74
     0
 42
0.0000000001
 43
0.0000000001
 40
0.0
 40
0.0
 40
0.0
 40
0.3761352932874497
 40
0.3761352932874497
 40
0.3761352932874497
 10
59.45073655816991
 20
14.62501077107441
 30
0.0
 41
1.0
 10
59.45072403730362
 20
14.3896684801157
 30
0.0
 41
0.7194662149251728
 10
59.68563581576422
 20
14.37545611183786
 30
0.0
 41
0.9763257704015883
  0
LINE
  5
43
330
1F
100
AcDbEntity
  8
Default
100
AcDbLine
 10
59.68563581576424
 20
14.37545611183785
 30
0.0
 11
59.68637084721215
 21
14.37545611183785
 31
0.0
  0
SPLINE
  5
44
330
1F
100
AcDbEntity
  8
Default
100
AcDbSpline
210
0.0
220
0.0
230
1.0
 70
     8
 71
     3
 72
    14
 73
    10
 74
     0
 42
0.0000000001
 43
0.0000000001
 40
-11.57666737507756
 40
-11.57666737507756
 40
-11.57666737507756
 40
-11.57666737507756
 40
-10.74358193232705
 40
-8.947613819412345
 40
-7.141201977474322
 40
-5.367291970666196
 40
-2.433620593354017
 40
-1.183560743342271
 40
0.0
 40
0.0
 40
0.0
 40
0.0
 10
65.73019483998495
 20
17.9970889402537
 30
0.0
 10
65.71875060738607
 20
18.27455407886082
 30
0.0
 10
65.67097715931571
 20
19.14972417256083
 30
0.0
 10
65.53768389359922
 20
20.62237700352146
 30
0.0
 10
65.31833063683807
 20
22.40137396921948
 30
0.0
 10
64.97145534671456
 20
24.54498231636028
 30
0.0
 10
64.53427073375767
 20
26.48463194240685
 30
0.0
 10
63.98498022193162
 20
28.18873419806806
 30
0.0
 10
63.67936237170865
 20
28.94065262521514
 30
0.0
 10
63.51548489117823
 20
29.29960367788483
 30
0.0
  0
LINE
  5
45
330
1F
100
AcDbEntity
  8
Default
100
AcDbLine
 10
63.51548489117823
 20
29.29960367788483
 30
0.0
 11
63.50463571920207
 21
29.32336729500187
 31
0.0
  0
ARC
  5
46
330
1F
100
AcDbEntity
  8
Default
100
AcDbCircle
 10
63.04979579675691
 20
29.11571218442165
 30
0.0
 40
0.5
100
AcDbArc
 50
24.5388541044486
 51
80.9991774031581
  0
SPLINE
  5
47
330
1F
100
AcDbEntity
  8
Default
100
AcDbSpline
210
0.0
220
0.0
230
1.0
 70
    12
 71
     2
 72
     6
 73
     3
 74
     0
 42
0.0000000001
 43
0.0000000001
 40
-1.629194543905347
 40
-1.629194543905347
 40
-1.629194543905347
 40
0.0
 40
0.0
 40
0.0
 10
63.12802011940121
 20
29.60955523170171
 30
0.0
 41
0.9999618433163424
 10
62.32155629691609
 20
29.73729842176682
 30
0.0
 41
0.9964642919834154
 10
61.5050845620635
 20
29.72857341262491
 30
0.0
 41
0.999999996566831
  0
SPLINE
  5
48
330
1F
100
AcDbEntity
  8
Default
100
AcDbSpline
210
0.0
220
0.0
230
1.0
 70
    12
 71
     2
 72
     6
 73
     3
 74
     0
 42
0.0000000001
 43
0.0000000001
 40
0.0
 40
0.0
 40
0.0
 40
1.638033214271802
 40
1.638033214271802
 40
1.638033214271802
 10
61.5050845620635
 20
29.72857341262491
 30
0.0
 41
0.999999996566831
 10
60.68416752017117
 20
29.73734592536418
 30
0.0
 41
0.9964451101567618
 10
59.87342978778162
 20
29.60817005191717
 30
0.0
 41
1.0
  0
SPLINE
  5
49
330
1F
100
AcDbEntity
  8
Default
100
AcDbSpline
210
0.0
220
0.0
230
1.0
 70
    12
 71
     2
 72
     6
 73
     3
 74
     0
 42
0.0000000001
 43
0.0000000001
 40
0.0
 40
0.0
 40
0.0
 40
0.7070700636718217
 40
0.7070700636718217
 40
0.7070700636718217
 10
59.87342978778162
 20
29.60817005191717
 30
0.0
 41
1.0
 10
59.45143355791039
 20
29.54153760518328
 30
0.0
 41
0.760266553890503
 10
59.45141428869726
 20
29.11431336973666
 30
0.0
 41
1.0
  0
SPLINE
  5
4A
330
1F
100
AcDbEntity
  8
Default
100
AcDbSpline
210
0.0
220
0.0
230
1.0
 70
    24
 71
     2
 72
     6
 73
     3
 74
     0
 42
0.0000000001
 43
0.0000000001
 40
-14.4893020002786
 40
-14.4893020002786
 40
-14.4893020002786
 40
-0.0000283800382021
 40
-0.0000283800382021
 40
-0.0000283800382021
 10
59.45141428869726
 20
29.11431336973666
 30
0.0
 10
59.45107542409732
 20
21.86967626042523
 30
0.0
 10
59.45073655949737
 20
14.62503915111379
 30
0.0
  0
SPLINE
  5
4B
330
1F
100
AcDbEntity
  8
Default
100
AcDbSpline
210
0.0
220
0.0
230
1.0
 70
    28
 71
     2
 72
     8
 73
     5
 74
     0
 42
0.0000000001
 43
0.0000000001
 40
-2547.981775971362
 40
-2547.981775971362
 40
-2547.981775971362
 40
-2526.10221994133
 40
-2526.10221994133
 40
-2524.803469941329
 40
-2524.803469941329
 40
-2524.803469941329
 10
82.89961781337047
 20
14.37503914797207
 30
0.0
 41
1.0
 10
72.29827290846691
 20
14.37503914797207
 30
0.0
 41
1.0
 10
67.29940982083662
 20
14.37503914797207
 30
0.0
 41
1.0
 10
66.65003482083618
 20
14.37503914797207
 30
0.0
 41
1.0
 10
66.00065982083575
 20
14.37503914797207
 30
0.0
 41
1.0
  0
POLYLINE
  5
4C
330
1F
100
AcDbEntity
  8
Default
100
AcDb2dPolyline
 66
     1
 10
0.0
 20
0.0
 30
0.0
  0
VERTEX
  5
4D
330
4C
100
AcDbEntity
  8
Default
100
AcDbVertex
100
AcDb2dVertex
 10
60.99961781337027
 20
14.37545611183785
 30
0.0
  0
VERTEX
  5
4E
330
4C
100
AcDbEntity
  8
Default
100
AcDbVertex
100
AcDb2dVertex
 10
65.51399994089918
 20
14.37545611183785
 30
0.0
  0
SEQEND
  5
4F
330
4C
100
AcDbEntity
  8
Default
  0
SPLINE
  5
50
330
1F
100
AcDbEntity
  8
Default
100
AcDbSpline
210
0.0
220
0.0
230
1.0
 70
    24
 71
     2
 72
     6
 73
     3
 74
     0
 42
0.0000000001
 43
0.0000000001
 40
0.0
 40
0.0
 40
0.0
 40
2.872049792281604
 40
2.872049792281604
 40
2.872049792281604
 10
-19.05213116818572
 20
14.62503914797207
 30
0.0
 10
-19.05213116818578
 20
16.06106404411287
 30
0.0
 10
-19.05213116818584
 20
17.49708894025366
 30
0.0
  0
SPLINE
  5
51
330
1F
100
AcDbEntity
  8
Default
100
AcDbSpline
210
0.0
220
0.0
230
1.0
 70
    12
 71
     2
 72
     6
 73
     3
 74
     0
 42
0.0000000001
 43
0.0000000001
 40
0.0
 40
0.0
 40
0.0
 40
0.7853981633974554
 40
0.7853981633974554
 40
0.7853981633974554
 10
-19.05213116818584
 20
17.49708894025366
 30
0.0
 41
1.0
 10
-19.05213116818584
 20
17.99708894025368
 30
0.0
 41
0.7071067811865426
 10
-19.55213116818584
 20
17.99708894025366
 30
0.0
 41
1.0
  0
SPLINE
  5
52
330
1F
100
AcDbEntity
  8
Default
100
AcDbSpline
210
0.0
220
0.0
230
1.0
 70
    24
 71
     2
 72
     6
 73
     3
 74
     0
 42
0.0000000001
 43
0.0000000001
 40
0.0
 40
0.0
 40
0.0
 40
23.99999995722946
 40
23.99999995722946
 40
23.99999995722946
 10
-19.55213116818584
 20
17.99708894025366
 30
0.0
 10
-31.55213114680058
 20
17.99708894025366
 30
0.0
 10
-43.55213112541531
 20
17.99708894025366
 30
0.0
  0
SPLINE
  5
53
330
1F
100
AcDbEntity
  8
Default
100
AcDbSpline
210
0.0
220
0.0
230
1.0
 70
    12
 71
     2
 72
     6
 73
     3
 74
     0
 42
0.0000000001
 43
0.0000000001
 40
0.0
 40
0.0
 40
0.0
 40
0.7853981633974382
 40
0.7853981633974382
 40
0.7853981633974382
 10
-43.55213112541531
 20
17.99708894025366
 30
0.0
 41
1.0
 10
-44.05213112541529
 20
17.99708894025366
 30
0.0
 41
0.7071067811865627
 10
-44.05213112541531
 20
17.49708894025366
 30
0.0
 41
1.0
  0
SPLINE
  5
54
330
1F
100
AcDbEntity
  8
Default
100
AcDbSpline
210
0.0
220
0.0
230
1.0
 70
    24
 71
     2
 72
     6
 73
     3
 74
     0
 42
0.0000000001
 43
0.0000000001
 40
0.0
 40
0.0
 40
0.0
 40
2.872049792281601
 40
2.872049792281601
 40
2.872049792281601
 10
-44.05213112541531
 20
17.49708894025366
 30
0.0
 10
-44.05213112541541
 20
16.06106404411287
 30
0.0
 10
-44.05213112541551
 20
14.62503914797207
 30
0.0
  0
ARC
  5
55
330
1F
100
AcDbEntity
  8
Default
100
AcDbCircle
 10
-43.80213112541551
 20
14.62503914797207
 30
0.0
 40
0.25
100
AcDbArc
 50
179.9999999999992
 51
270.0
  0
POLYLINE
  5
56
330
1F
100
AcDbEntity
  8
Default
100
AcDb2dPolyline
 66
     1
 10
0.0
 20
0.0
 30
0.0
  0
VERTEX
  5
57
330
56
100
AcDbEntity
  8
Default
100
AcDbVertex
100
AcDb2dVertex
 10
-43.80213112541551
 20
14.37503914797207
 30
0.0
  0
VERTEX
  5
58
330
56
100
AcDbEntity
  8
Default
100
AcDbVertex
100
AcDb2dVertex
 10
-20.60088116818667
 20
14.37503914797207
 30
0.0
  0
SEQEND
  5
59
330
56
100
AcDbEntity
  8
Default
  0
LINE
  5
5A
330
1F
100
AcDbEntity
  8
Default
100
AcDbLine
 10
-20.60088116818667
 20
14.37503914797207
 30
0.0
 11
-19.30213116818581
 21
14.37503914797207
 31
0.0
  0
ARC
  5
5B
330
1F
100
AcDbEntity
  8
Default
100
AcDbCircle
 10
-19.30213116818572
 20
14.62503914797207
 30
0.0
 40
0.25
100
AcDbArc
 50
269.9999999999804
 51
0.0
  0
POLYLINE
  5
5C
330
1F
100
AcDbEntity
  8
Default
100
AcDb2dPolyline
 66
     1
 10
0.0
 20
0.0
 30
0.0
  0
VERTEX
  5
5D
330
5C
100
AcDbEntity
  8
Default
100
AcDbVertex
100
AcDb2dVertex
 10
37.01599967551451
 20
12.62500000239007
 30
0.0
  0
VERTEX
  5
5E
330
5C
100
AcDbEntity
  8
Default
100
AcDbVertex
100
AcDb2dVertex
 10
30.79599999611284
 20
12.62500000239007
 30
0.0
  0
SEQEND
  5
5F
330
5C
100
AcDbEntity
  8
Default
  0
SPLINE
  5
60
330
1F
100
AcDbEntity
  8
Default
100
AcDbSpline
210
0.0
220
0.0
230
1.0
 70
    12
 71
     5
 72
    13
 73
     7
 74
     0
 42
0.0000000001
 43
0.0000000001
 40
-0.9999999998854913
 40
-0.9999999998854913
 40
-0.9999999998854913
 40
-0.9999999998854913
 40
-0.9999999998854913
 40
-0.9999999998854913
 40
-0.4999999999118557
 40
0.0000214316302039
 40
0.0000214316302039
 40
0.0000214316302039
 40
0.0000214316302039
 40
0.0000214316302039
 40
0.0000214316302039
 10
30.79599999611284
 20
12.62500000239007
 30
0.0
 41
1.0
 10
30.79600064215268
 20
12.56009560999524
 30
0.0
 41
1.0
 10
30.81529969365693
 20
12.44654867134889
 30
0.0
 41
1.0
 10
30.87319586632094
 20
12.36553619869142
 30
0.0
 41
1.0
 10
30.961364933743
 20
12.31002542087876
 30
0.0
 41
1.0
 10
31.07604892284462
 20
12.27687454010078
 30
0.0
 41
1.0
 10
31.14002055994411
 20
12.26588517972957
 30
0.0
 41
1.0
  0
SPLINE
  5
61
330
1F
100
AcDbEntity
  8
Default
100
AcDbSpline
210
0.0
220
0.0
230
1.0
 70
    12
 71
     2
 72
     6
 73
     3
 74
     0
 42
0.0000000001
 43
0.0000000001
 40
0.0
 40
0.0
 40
0.0
 40
1.843263450064862
 40
1.843263450064862
 40
1.843263450064862
 10
31.14002055994411
 20
12.26588517972957
 30
0.0
 41
1.0
 10
32.04833992004075
 20
12.109805147172
 30
0.0
 41
0.9999999999936852
 10
32.95666032335873
 20
11.95373101775351
 30
0.0
 41
1.0
  0
SPLINE
  5
62
330
1F
100
AcDbEntity
  8
Default
100
AcDbSpline
210
0.0
220
0.0
230
1.0
 70
    12
 71
     2
 72
     6
 73
     3
 74
     0
 42
0.0000000001
 43
0.0000000001
 40
0.0
 40
0.0
 40
0.0
 40
0.6997662170032295
 40
0.6997662170032295
 40
0.6997662170032295
 10
32.95666032335873
 20
11.95373101775351
 30
0.0
 41
1.0
 10
33.37152735608695
 20
11.88244667940371
 30
0.0
 41
0.7649870492777086
 10
33.3719839353538
 20
11.46120110141823
 30
0.0
 41
1.0
  0
SPLINE
  5
63
330
1F
100
AcDbEntity
  8
Default
100
AcDbSpline
210
0.0
220
0.0
230
1.0
 70
    12
 71
     3
 72
    13
 73
     9
 74
     0
 42
0.0000000001
 43
0.0000000001
 40
1.164116092654201
 40
1.164116092654201
 40
1.164116092654201
 40
1.164116092654201
 40
1.192754371812117
 40
1.192754371812117
 40
1.839154429652598
 40
2.485554487552516
 40
2.485554487552516
 40
2.941799361814759
 40
2.941799361814759
 40
2.941799361814759
 40
2.941799361814759
 10
33.3719839353538
 20
11.46120110141823
 30
0.0
 41
1.0
 10
33.37198309010262
 20
11.45135583617693
 30
0.0
 41
1.0
 10
33.37198364897617
 20
11.44180974149518
 30
0.0
 41
1.0
 10
33.37203319352213
 20
11.21679696866852
 30
0.0
 41
1.0
 10
33.37411685397649
 20
10.7858747904574
 30
0.0
 41
1.0
 10
33.38130459546511
 20
10.35502399014703
 30
0.0
 41
1.0
 10
33.38710279565976
 20
9.987521416833573
 30
0.0
 41
1.0
 10
33.38930360092152
 20
9.835444068785137
 30
0.0
 41
1.0
 10
33.39107030098234
 20
9.682909845855818
 30
0.0
 41
1.0
  0
SPLINE
  5
64
330
1F
100
AcDbEntity
  8
Default
100
AcDbSpline
210
0.0
220
0.0
230
1.0
 70
    12
 71
     2
 72
     6
 73
     3
 74
     0
 42
0.0000000001
 43
0.0000000001
 40
0.0
 40
0.0
 40
0.0
 40
0.0011199978112541
 40
0.0011199978112541
 40
0.0011199978112541
 10
33.39107030098234
 20
9.682909845855818
 30
0.0
 41
1.0
 10
33.39108800908315
 20
9.681893448892767
 30
0.0
 41
0.9999999565253123
 10
33.39108800833816
 20
9.681333409546141
 30
0.0
 41
1.0
  0
SPLINE
  5
65
330
1F
100
AcDbEntity
  8
Default
100
AcDbSpline
210
0.0
220
0.0
230
1.0
 70
    12
 71
     2
 72
     6
 73
     3
 74
     0
 42
0.0000000001
 43
0.0000000001
 40
0.0
 40
0.0
 40
0.0
 40
1.157563000328597
 40
1.157563000328597
 40
1.157563000328597
 10
33.39108800833816
 20
9.681333409546141
 30
0.0
 41
1.0
 10
33.39666372663727
 20
9.102576156275168
 30
0.0
 41
0.9999932729902123
 10
33.39799976176255
 20
8.523792488411004
 30
0.0
 41
1.0
  0
SPLINE
  5
66
330
1F
100
AcDbEntity
  8
Default
100
AcDbSpline
210
0.0
220
0.0
230
1.0
 70
    12
 71
     3
 72
    12
 73
     8
 74
     0
 42
0.0000000001
 43
0.0000000001
 40
0.0000022290245399
 40
0.0000022290245399
 40
0.0000022290245399
 40
0.0000022290245399
 40
2.973330383277389
 40
2.973330383277389
 40
5.533332299297856
 40
5.533332299297856
 40
8.0907540207247
 40
8.0907540207247
 40
8.0907540207247
 40
8.0907540207247
 10
33.39799976176255
 20
8.523792488411004
 30
0.0
 41
1.0
 10
33.40174297163838
 20
7.533012356576819
 30
0.0
 41
1.0
 10
33.41187954885729
 20
6.542166505260781
 30
0.0
 41
1.0
 10
33.43682358575359
 20
4.698546802873039
 30
0.0
 41
1.0
 10
33.45068286182251
 20
3.846004306694255
 30
0.0
 41
1.0
 10
33.47803332318162
 20
2.140986238268027
 30
0.0
 41
1.0
 10
33.49144223655165
 20
1.289616091278333
 30
0.0
 41
1.0
 10
33.5026798159451
 20
0.4374291487379196
 30
0.0
 41
1.0
  0
SPLINE
  5
67
330
1F
100
AcDbEntity
  8
Default
100
AcDbSpline
210
0.0
220
0.0
230
1.0
 70
    12
 71
     2
 72
     6
 73
     3
 74
     0
 42
0.0000000001
 43
0.0000000001
 40
0.0
 40
0.0
 40
0.0
 40
0.0970316672143772
 40
0.0970316672143772
 40
0.0970316672143772
 10
33.5026798159451
 20
0.4374291487379196
 30
0.0
 41
1.0
 10
33.50325841267988
 20
0.3763075181558169
 30
0.0
 41
0.717857630247824
 10
33.56434444002721
 20
0.3750140462677791
 30
0.0
 41
1.0
  0
POLYLINE
  5
68
330
1F
100
AcDbEntity
  8
Default
100
AcDb2dPolyline
 66
     1
 10
0.0
 20
0.0
 30
0.0
  0
VERTEX
  5
69
330
68
100
AcDbEntity
  8
Default
100
AcDbVertex
100
AcDb2dVertex
 10
33.56434444002721
 20
0.3750140462677791
 30
0.0
  0
VERTEX
  5
6A
330
68
100
AcDbEntity
  8
Default
100
AcDbVertex
100
AcDb2dVertex
 10
34.2463244685996
 20
0.375000002473314
 30
0.0
  0
SEQEND
  5
6B
330
68
100
AcDbEntity
  8
Default
  0
SPLINE
  5
6C
330
1F
100
AcDbEntity
  8
Default
100
AcDbSpline
210
0.0
220
0.0
230
1.0
 70
    12
 71
     2
 72
     6
 73
     3
 74
     0
 42
0.0000000001
 43
0.0000000001
 40
0.0
 40
0.0
 40
0.0
 40
0.0983105351425802
 40
0.0983105351425802
 40
0.0983105351425802
 10
34.2463244685996
 20
0.375000002473314
 30
0.0
 41
1.0
 10
34.30868030502578
 20
0.3749980708921185
 30
0.0
 41
0.7107094273922171
 10
34.30931921863692
 20
0.4373708929973077
 30
0.0
 41
1.0
  0
SPLINE
  5
6D
330
1F
100
AcDbEntity
  8
Default
100
AcDbSpline
210
0.0
220
0.0
230
1.0
 70
    12
 71
     3
 72
    12
 73
     8
 74
     0
 42
0.0000000001
 43
0.0000000001
 40
0.0025122088885125
 40
0.0025122088885125
 40
0.0025122088885125
 40
0.0025122088885125
 40
2.559996601448771
 40
2.559996601448771
 40
5.119998517672128
 40
5.119998517672128
 40
8.093326489272172
 40
8.093326489272172
 40
8.093326489272172
 40
8.093326489272172
 10
34.30931921863692
 20
0.4373708929973077
 30
0.0
 41
1.0
 10
34.32055709848851
 20
1.289574364822386
 30
0.0
 41
1.0
 10
34.33396633409464
 20
2.140965357765424
 30
0.0
 41
1.0
 10
34.36131713040555
 20
3.846004306964517
 30
0.0
 41
1.0
 10
34.37517640647542
 20
4.698546803210917
 30
0.0
 41
1.0
 10
34.40012044254766
 20
6.542166444809197
 30
0.0
 41
1.0
 10
34.41025701934319
 20
7.533012235246247
 30
0.0
 41
1.0
 10
34.41400023011698
 20
8.523792397317862
 30
0.0
 41
1.0
  0
SPLINE
  5
6E
330
1F
100
AcDbEntity
  8
Default
100
AcDbSpline
210
0.0
220
0.0
230
1.0
 70
    12
 71
     2
 72
     6
 73
     3
 74
     0
 42
0.0000000001
 43
0.0000000001
 40
0.0
 40
0.0
 40
0.0
 40
1.157566753814006
 40
1.157566753814006
 40
1.157566753814006
 10
34.41400023011698
 20
8.523792397317862
 30
0.0
 41
1.0
 10
34.4153480935726
 20
9.102577944151538
 30
0.0
 41
0.9999934222404667
 10
34.42090015661041
 20
9.681337225323242
 30
0.0
 41
0.9999999999999121
  0
SPLINE
  5
6F
330
1F
100
AcDbEntity
  8
Default
100
AcDbSpline
210
0.0
220
0.0
230
1.0
 70
    12
 71
     2
 72
     6
 73
     3
 74
     0
 42
0.0000000001
 43
0.0000000001
 40
0.0
 40
0.0
 40
0.0
 40
0.0011163185374098
 40
0.0011163185374098
 40
0.0011163185374098
 10
34.4209001566104
 20
9.681337225323233
 30
0.0
 41
1.0
 10
34.42091200228053
 20
9.68189528843126
 30
0.0
 41
0.9999999568108967
 10
34.42091765035406
 20
9.682909979873699
 30
0.0
 41
1.0
  0
SPLINE
  5
70
330
1F
100
AcDbEntity
  8
Default
100
AcDbSpline
210
0.0
220
0.0
230
1.0
 70
    12
 71
     3
 72
    13
 73
     9
 74
     0
 42
0.0000000001
 43
0.0000000001
 40
1.159780968969077
 40
1.159780968969077
 40
1.159780968969077
 40
1.159780968969077
 40
1.219999999483621
 40
1.219999999483621
 40
1.859999999216523
 40
1.859999999216523
 40
2.49999999917158
 40
2.937447200127758
 40
2.937447200127758
 40
2.937447200127758
 40
2.937447200127758
 10
34.42091765035406
 20
9.682909979873699
 30
0.0
 41
1.0
 10
34.42114571570534
 20
9.70343896637985
 30
0.0
 41
1.0
 10
34.42138219289993
 20
9.723511031726673
 30
0.0
 41
1.0
 10
34.4242294016714
 20
9.956899993773277
 30
0.0
 41
1.0
 10
34.42784442123443
 20
10.17023320481286
 30
0.0
 41
1.0
 10
34.43447669479485
 20
10.5968483131887
 30
0.0
 41
1.0
 10
34.43916142834266
 20
10.95596334873767
 30
0.0
 41
1.0
 10
34.44001160772567
 20
11.31509077063757
 30
0.0
 41
1.0
 10
34.44001097227971
 20
11.46118232489192
 30
0.0
 41
1.0
  0
SPLINE
  5
71
330
1F
100
AcDbEntity
  8
Default
100
AcDbSpline
210
0.0
220
0.0
230
1.0
 70
    12
 71
     2
 72
     6
 73
     3
 74
     0
 42
0.0000000001
 43
0.0000000001
 40
0.0
 40
0.0
 40
0.0
 40
0.6998000892342029
 40
0.6998000892342029
 40
0.6998000892342029
 10
34.44001097227971
 20
11.46118232489192
 30
0.0
 41
1.0
 10
34.4404500725763
 20
11.88243362286268
 30
0.0
 41
0.764976675619346
 10
34.855339663861
 20
11.95373104663622
 30
0.0
 41
1.0
  0
SPLINE
  5
72
330
1F
100
AcDbEntity
  8
Default
100
AcDbSpline
210
0.0
220
0.0
230
1.0
 70
    12
 71
     2
 72
     6
 73
     3
 74
     0
 42
0.0000000001
 43
0.0000000001
 40
0.0
 40
0.0
 40
0.0
 40
1.843263134159366
 40
1.843263134159366
 40
1.843263134159366
 10
34.855339663861
 20
11.95373104663622
 30
0.0
 41
1.0
 10
35.76365991644713
 20
12.10980512045475
 30
0.0
 41
0.999999999993685
 10
36.6719791162769
 20
12.26588515299545
 30
0.0
 41
1.0
  0
SPLINE
  5
73
330
1F
100
AcDbEntity
  8
Default
100
AcDbSpline
210
0.0
220
0.0
230
1.0
 70
    12
 71
     5
 72
    13
 73
     7
 74
     0
 42
0.0000000001
 43
0.0000000001
 40
-0.0000214316302125
 40
-0.0000214316302125
 40
-0.0000214316302125
 40
-0.0000214316302125
 40
-0.0000214316302125
 40
-0.0000214316302125
 40
0.4999999999109885
 40
0.9999999998854894
 40
0.9999999998854894
 40
0.9999999998854894
 40
0.9999999998854894
 40
0.9999999998854894
 40
0.9999999998854894
 10
36.6719791162769
 20
12.26588515299545
 30
0.0
 41
1.0
 10
36.73595074878355
 20
12.27687454010101
 30
0.0
 41
1.0
 10
36.8506347378848
 20
12.31002542087904
 30
0.0
 41
1.0
 10
36.93880380530666
 20
12.36553619869167
 30
0.0
 41
1.0
 10
36.99669997797045
 20
12.44654867134909
 30
0.0
 41
1.0
 10
37.0159990294747
 20
12.56009560999524
 30
0.0
 41
1.0
 10
37.01599967551451
 20
12.62500000239007
 30
0.0
 41
1.0
  0
POLYLINE
  5
74
330
1F
100
AcDbEntity
  8
Default
100
AcDb2dPolyline
 66
     1
 10
0.0
 20
0.0
 30
0.0
  0
VERTEX
  5
75
330
74
100
AcDbEntity
  8
Default
100
AcDbVertex
100
AcDb2dVertex
 10
33.6639112346364
 20
-0.0000000001849969
 30
0.0
  0
VERTEX
  5
76
330
74
100
AcDbEntity
  8
Default
100
AcDbVertex
100
AcDb2dVertex
 10
34.14808876204378
 20
0.0000000002492868
 30
0.0
  0
SEQEND
  5
77
330
74
100
AcDbEntity
  8
Default
  0
SPLINE
  5
78
330
1F
100
AcDbEntity
  8
Default
100
AcDbSpline
210
0.0
220
0.0
230
1.0
 70
    12
 71
     2
 72
     6
 73
     3
 74
     0
 42
0.0000000001
 43
0.0000000001
 40
0.0
 40
0.0
 40
0.0
 40
0.241924443334512
 40
0.241924443334512
 40
0.241924443334512
 10
34.14808876204378
 20
0.0000000002492868
 30
0.0
 41
1.0
 10
34.30099977621114
 20
0.0000000303862057
 30
0.0
 41
0.7141418074729331
 10
34.30397110038152
 20
0.1529065060032622
 30
0.0
 41
1.0
  0
LINE
  5
79
330
1F
100
AcDbEntity
  8
Default
100
AcDbLine
 10
34.30397110038152
 20
0.1529065060032622
 30
0.0
 11
34.3086696974722
 21
0.375000002431733
 31
0.0
  0
LINE
  5
7A
330
1F
100
AcDbEntity
  8
Default
100
AcDbLine
 10
34.3086696974722
 20
0.375000002431733
 30
0.0
 11
33.50386058149707
 21
0.375000002431733
 31
0.0
  0
LINE
  5
7B
330
1F
100
AcDbEntity
  8
Default
100
AcDbLine
 10
33.50386058149707
 20
0.375000002431733
 30
0.0
 11
33.50829404003974
 21
0.1529065038094473
 31
0.0
  0
SPLINE
  5
7C
330
1F
100
AcDbEntity
  8
Default
100
AcDbSpline
210
0.0
220
0.0
230
1.0
 70
    12
 71
     2
 72
     6
 73
     3
 74
     0
 42
0.0000000001
 43
0.0000000001
 40
0.0
 40
0.0
 40
0.0
 40
0.2419244355107725
 40
0.2419244355107725
 40
0.2419244355107725
 10
33.50829404003974
 20
0.1529065038094473
 30
0.0
 41
1.0
 10
33.51100022663881
 20
0.0000000321909242
 30
0.0
 41
0.7141418153608741
 10
33.6639112346364
 20
-0.0000000001849969
 30
0.0
 41
1.0
  0
POLYLINE
  5
7D
330
1F
100
AcDbEntity
  8
Default
100
AcDb2dPolyline
 66
     1
 10
0.0
 20
0.0
 30
0.0
  0
VERTEX
  5
7E
330
7D
100
AcDbEntity
  8
Default
100
AcDbVertex
100
AcDb2dVertex
 10
-19.80212255168823
 20
40.18795852301791
 30
0.0
  0
VERTEX
  5
7F
330
7D
100
AcDbEntity
  8
Default
100
AcDbVertex
100
AcDb2dVertex
 10
-43.20212255168823
 20
40.18795852301791
 30
0.0
  0
SEQEND
  5
80
330
7D
100
AcDbEntity
  8
Default
  0
ARC
  5
81
330
1F
100
AcDbEntity
  8
Default
100
AcDbCircle
 10
-43.20212255168823
 20
40.93795852301791
 30
0.0
 40
0.75
100
AcDbArc
 50
179.9999999999995
 51
270.0
  0
POLYLINE
  5
82
330
1F
100
AcDbEntity
  8
Default
100
AcDb2dPolyline
 66
     1
 10
0.0
 20
0.0
 30
0.0
  0
VERTEX
  5
83
330
82
100
AcDbEntity
  8
Default
100
AcDbVertex
100
AcDb2dVertex
 10
-43.95212255168823
 20
40.93795852301791
 30
0.0
  0
VERTEX
  5
84
330
82
100
AcDbEntity
  8
Default
100
AcDbVertex
100
AcDb2dVertex
 10
-43.95212255168823
 20
64.3379585230179
 30
0.0
  0
SEQEND
  5
85
330
82
100
AcDbEntity
  8
Default
  0
ARC
  5
86
330
1F
100
AcDbEntity
  8
Default
100
AcDbCircle
 10
-43.20212255168823
 20
64.3379585230179
 30
0.0
 40
0.75
100
AcDbArc
 50
89.99999999999946
 51
180.0
  0
POLYLINE
  5
87
330
1F
100
AcDbEntity
  8
Default
100
AcDb2dPolyline
 66
     1
 10
0.0
 20
0.0
 30
0.0
  0
VERTEX
  5
88
330
87
100
AcDbEntity
  8
Default
100
AcDbVertex
100
AcDb2dVertex
 10
-43.20212255168823
 20
65.0879585230179
 30
0.0
  0
VERTEX
  5
89
330
87
100
AcDbEntity
  8
Default
100
AcDbVertex
100
AcDb2dVertex
 10
-19.80212255168823
 20
65.0879585230179
 30
0.0
  0
SEQEND
  5
8A
330
87
100
AcDbEntity
  8
Default
  0
ARC
  5
8B
330
1F
100
AcDbEntity
  8
Default
100
AcDbCircle
 10
-19.80212255168823
 20
64.3379585230179
 30
0.0
 40
0.75
100
AcDbArc
 50
0.0
 51
90.0
  0
POLYLINE
  5
8C
330
1F
100
AcDbEntity
  8
Default
100
AcDb2dPolyline
 66
     1
 10
0.0
 20
0.0
 30
0.0
  0
VERTEX
  5
8D
330
8C
100
AcDbEntity
  8
Default
100
AcDbVertex
100
AcDb2dVertex
 10
-19.05212255168823
 20
64.3379585230179
 30
0.0
  0
VERTEX
  5
8E
330
8C
100
AcDbEntity
  8
Default
100
AcDbVertex
100
AcDb2dVertex
 10
-19.05212255168823
 20
40.93795852301791
 30
0.0
  0
SEQEND
  5
8F
330
8C
100
AcDbEntity
  8
Default
  0
ARC
  5
90
330
1F
100
AcDbEntity
  8
Default
100
AcDbCircle
 10
-19.80212255168823
 20
40.93795852301791
 30
0.0
 40
0.75
100
AcDbArc
 50
270.0
 51
0.0
  0
POLYLINE
  5
91
330
1F
100
AcDbEntity
  8
Default
100
AcDb2dPolyline
 66
     1
 10
0.0
 20
0.0
 30
0.0
  0
VERTEX
  5
92
330
91
100
AcDbEntity
  8
Default
100
AcDbVertex
100
AcDb2dVertex
 10
-37.01599967551451
 20
12.62500000239007
 30
0.0
  0
VERTEX
  5
93
330
91
100
AcDbEntity
  8
Default
100
AcDbVertex
100
AcDb2dVertex
 10
-30.79599999611284
 20
12.62500000239007
 30
0.0
  0
SEQEND
  5
94
330
91
100
AcDbEntity
  8
Default
  0
SPLINE
  5
95
330
1F
100
AcDbEntity
  8
Default
100
AcDbSpline
210
0.0
220
0.0
230
1.0
 70
    12
 71
     5
 72
    13
 73
     7
 74
     0
 42
0.0000000001
 43
0.0000000001
 40
-0.9999999998854913
 40
-0.9999999998854913
 40
-0.9999999998854913
 40
-0.9999999998854913
 40
-0.9999999998854913
 40
-0.9999999998854913
 40
-0.4999999999118557
 40
0.0000214316302039
 40
0.0000214316302039
 40
0.0000214316302039
 40
0.0000214316302039
 40
0.0000214316302039
 40
0.0000214316302039
 10
-30.79599999611284
 20
12.62500000239007
 30
0.0
 41
1.0
 10
-30.79600064215268
 20
12.56009560999524
 30
0.0
 41
1.0
 10
-30.81529969365693
 20
12.44654867134889
 30
0.0
 41
1.0
 10
-30.87319586632094
 20
12.36553619869142
 30
0.0
 41
1.0
 10
-30.961364933743
 20
12.31002542087876
 30
0.0
 41
1.0
 10
-31.07604892284462
 20
12.27687454010078
 30
0.0
 41
1.0
 10
-31.14002055994411
 20
12.26588517972957
 30
0.0
 41
1.0
  0
SPLINE
  5
96
330
1F
100
AcDbEntity
  8
Default
100
AcDbSpline
210
0.0
220
0.0
230
1.0
 70
    12
 71
     2
 72
     6
 73
     3
 74
     0
 42
0.0000000001
 43
0.0000000001
 40
0.0
 40
0.0
 40
0.0
 40
1.843263450064862
 40
1.843263450064862
 40
1.843263450064862
 10
-31.14002055994411
 20
12.26588517972957
 30
0.0
 41
1.0
 10
-32.04833992004075
 20
12.109805147172
 30
0.0
 41
0.9999999999936852
 10
-32.95666032335873
 20
11.95373101775351
 30
0.0
 41
1.0
  0
SPLINE
  5
97
330
1F
100
AcDbEntity
  8
Default
100
AcDbSpline
210
0.0
220
0.0
230
1.0
 70
    12
 71
     2
 72
     6
 73
     3
 74
     0
 42
0.0000000001
 43
0.0000000001
 40
0.0
 40
0.0
 40
0.0
 40
0.6997662170032295
 40
0.6997662170032295
 40
0.6997662170032295
 10
-32.95666032335873
 20
11.95373101775351
 30
0.0
 41
1.0
 10
-33.37152735608695
 20
11.88244667940371
 30
0.0
 41
0.7649870492777086
 10
-33.3719839353538
 20
11.46120110141823
 30
0.0
 41
1.0
  0
SPLINE
  5
98
330
1F
100
AcDbEntity
  8
Default
100
AcDbSpline
210
0.0
220
0.0
230
1.0
 70
    12
 71
     3
 72
    13
 73
     9
 74
     0
 42
0.0000000001
 43
0.0000000001
 40
1.164116092654201
 40
1.164116092654201
 40
1.164116092654201
 40
1.164116092654201
 40
1.192754371812117
 40
1.192754371812117
 40
1.839154429652598
 40
2.485554487552516
 40
2.485554487552516
 40
2.941799361814759
 40
2.941799361814759
 40
2.941799361814759
 40
2.941799361814759
 10
-33.3719839353538
 20
11.46120110141823
 30
0.0
 41
1.0
 10
-33.37198309010262
 20
11.45135583617693
 30
0.0
 41
1.0
 10
-33.37198364897617
 20
11.44180974149518
 30
0.0
 41
1.0
 10
-33.37203319352213
 20
11.21679696866852
 30
0.0
 41
1.0
 10
-33.37411685397649
 20
10.7858747904574
 30
0.0
 41
1.0
 10
-33.38130459546511
 20
10.35502399014703
 30
0.0
 41
1.0
 10
-33.38710279565976
 20
9.987521416833573
 30
0.0
 41
1.0
 10
-33.38930360092152
 20
9.835444068785137
 30
0.0
 41
1.0
 10
-33.39107030098234
 20
9.682909845855818
 30
0.0
 41
1.0
  0
SPLINE
  5
99
330
1F
100
AcDbEntity
  8
Default
100
AcDbSpline
210
0.0
220
0.0
230
1.0
 70
    12
 71
     2
 72
     6
 73
     3
 74
     0
 42
0.0000000001
 43
0.0000000001
 40
0.0
 40
0.0
 40
0.0
 40
0.0011199978112541
 40
0.0011199978112541
 40
0.0011199978112541
 10
-33.39107030098234
 20
9.682909845855818
 30
0.0
 41
1.0
 10
-33.39108800908313
 20
9.681893448892767
 30
0.0
 41
0.9999999565253123
 10
-33.39108800833816
 20
9.681333409546141
 30
0.0
 41
1.0
  0
SPLINE
  5
9A
330
1F
100
AcDbEntity
  8
Default
100
AcDbSpline
210
0.0
220
0.0
230
1.0
 70
    12
 71
     2
 72
     6
 73
     3
 74
     0
 42
0.0000000001
 43
0.0000000001
 40
0.0
 40
0.0
 40
0.0
 40
1.157563000328597
 40
1.157563000328597
 40
1.157563000328597
 10
-33.39108800833816
 20
9.681333409546141
 30
0.0
 41
1.0
 10
-33.3966637266373
 20
9.102576156275168
 30
0.0
 41
0.9999932729902123
 10
-33.39799976176255
 20
8.523792488411004
 30
0.0
 41
1.0
  0
SPLINE
  5
9B
330
1F
100
AcDbEntity
  8
Default
100
AcDbSpline
210
0.0
220
0.0
230
1.0
 70
    12
 71
     3
 72
    12
 73
     8
 74
     0
 42
0.0000000001
 43
0.0000000001
 40
0.0000022290245399
 40
0.0000022290245399
 40
0.0000022290245399
 40
0.0000022290245399
 40
2.973330383277389
 40
2.973330383277389
 40
5.533332299297856
 40
5.533332299297856
 40
8.0907540207247
 40
8.0907540207247
 40
8.0907540207247
 40
8.0907540207247
 10
-33.39799976176255
 20
8.523792488411004
 30
0.0
 41
1.0
 10
-33.40174297163838
 20
7.533012356576819
 30
0.0
 41
1.0
 10
-33.41187954885729
 20
6.542166505260781
 30
0.0
 41
1.0
 10
-33.43682358575359
 20
4.698546802873039
 30
0.0
 41
1.0
 10
-33.45068286182251
 20
3.846004306694255
 30
0.0
 41
1.0
 10
-33.47803332318162
 20
2.140986238268027
 30
0.0
 41
1.0
 10
-33.49144223655165
 20
1.289616091278333
 30
0.0
 41
1.0
 10
-33.5026798159451
 20
0.4374291487379196
 30
0.0
 41
1.0
  0
SPLINE
  5
9C
330
1F
100
AcDbEntity
  8
Default
100
AcDbSpline
210
0.0
220
0.0
230
1.0
 70
    12
 71
     2
 72
     6
 73
     3
 74
     0
 42
0.0000000001
 43
0.0000000001
 40
0.0
 40
0.0
 40
0.0
 40
0.0970316672143772
 40
0.0970316672143772
 40
0.0970316672143772
 10
-33.5026798159451
 20
0.4374291487379196
 30
0.0
 41
1.0
 10
-33.50325841267987
 20
0.3763075181558169
 30
0.0
 41
0.717857630247824
 10
-33.56434444002721
 20
0.3750140462677791
 30
0.0
 41
1.0
  0
POLYLINE
  5
9D
330
1F
100
AcDbEntity
  8
Default
100
AcDb2dPolyline
 66
     1
 10
0.0
 20
0.0
 30
0.0
  0
VERTEX
  5
9E
330
9D
100
AcDbEntity
  8
Default
100
AcDbVertex
100
AcDb2dVertex
 10
-33.56434444002721
 20
0.3750140462677791
 30
0.0
  0
VERTEX
  5
9F
330
9D
100
AcDbEntity
  8
Default
100
AcDbVertex
100
AcDb2dVertex
 10
-34.2463244685996
 20
0.375000002473314
 30
0.0
  0
SEQEND
  5
A0
330
9D
100
AcDbEntity
  8
Default
  0
SPLINE
  5
A1
330
1F
100
AcDbEntity
  8
Default
100
AcDbSpline
210
0.0
220
0.0
230
1.0
 70
    12
 71
     2
 72
     6
 73
     3
 74
     0
 42
0.0000000001
 43
0.0000000001
 40
0.0
 40
0.0
 40
0.0
 40
0.0983105351425802
 40
0.0983105351425802
 40
0.0983105351425802
 10
-34.2463244685996
 20
0.375000002473314
 30
0.0
 41
1.0
 10
-34.30868030502577
 20
0.3749980708921185
 30
0.0
 41
0.7107094273922171
 10
-34.30931921863692
 20
0.4373708929973077
 30
0.0
 41
1.0
  0
SPLINE
  5
A2
330
1F
100
AcDbEntity
  8
Default
100
AcDbSpline
210
0.0
220
0.0
230
1.0
 70
    12
 71
     3
 72
    12
 73
     8
 74
     0
 42
0.0000000001
 43
0.0000000001
 40
0.0025122088885125
 40
0.0025122088885125
 40
0.0025122088885125
 40
0.0025122088885125
 40
2.559996601448771
 40
2.559996601448771
 40
5.119998517672128
 40
5.119998517672128
 40
8.093326489272172
 40
8.093326489272172
 40
8.093326489272172
 40
8.093326489272172
 10
-34.30931921863692
 20
0.4373708929973077
 30
0.0
 41
1.0
 10
-34.32055709848851
 20
1.289574364822386
 30
0.0
 41
1.0
 10
-34.33396633409464
 20
2.140965357765424
 30
0.0
 41
1.0
 10
-34.36131713040555
 20
3.846004306964517
 30
0.0
 41
1.0
 10
-34.37517640647542
 20
4.698546803210917
 30
0.0
 41
1.0
 10
-34.40012044254766
 20
6.542166444809197
 30
0.0
 41
1.0
 10
-34.41025701934319
 20
7.533012235246247
 30
0.0
 41
1.0
 10
-34.41400023011698
 20
8.523792397317862
 30
0.0
 41
1.0
  0
SPLINE
  5
A3
330
1F
100
AcDbEntity
  8
Default
100
AcDbSpline
210
0.0
220
0.0
230
1.0
 70
    12
 71
     2
 72
     6
 73
     3
 74
     0
 42
0.0000000001
 43
0.0000000001
 40
0.0
 40
0.0
 40
0.0
 40
1.157566753814006
 40
1.157566753814006
 40
1.157566753814006
 10
-34.41400023011698
 20
8.523792397317862
 30
0.0
 41
1.0
 10
-34.4153480935726
 20
9.102577944151538
 30
0.0
 41
0.9999934222404667
 10
-34.42090015661041
 20
9.681337225323242
 30
0.0
 41
0.9999999999999121
  0
SPLINE
  5
A4
330
1F
100
AcDbEntity
  8
Default
100
AcDbSpline
210
0.0
220
0.0
230
1.0
 70
    12
 71
     2
 72
     6
 73
     3
 74
     0
 42
0.0000000001
 43
0.0000000001
 40
0.0
 40
0.0
 40
0.0
 40
0.0011163185374098
 40
0.0011163185374098
 40
0.0011163185374098
 10
-34.4209001566104
 20
9.681337225323233
 30
0.0
 41
1.0
 10
-34.42091200228053
 20
9.68189528843126
 30
0.0
 41
0.9999999568108967
 10
-34.42091765035406
 20
9.682909979873699
 30
0.0
 41
1.0
  0
SPLINE
  5
A5
330
1F
100
AcDbEntity
  8
Default
100
AcDbSpline
210
0.0
220
0.0
230
1.0
 70
    12
 71
     3
 72
    13
 73
     9
 74
     0
 42
0.0000000001
 43
0.0000000001
 40
1.159780968969077
 40
1.159780968969077
 40
1.159780968969077
 40
1.159780968969077
 40
1.219999999483621
 40
1.219999999483621
 40
1.859999999216523
 40
1.859999999216523
 40
2.49999999917158
 40
2.937447200127758
 40
2.937447200127758
 40
2.937447200127758
 40
2.937447200127758
 10
-34.42091765035406
 20
9.682909979873699
 30
0.0
 41
1.0
 10
-34.42114571570534
 20
9.70343896637985
 30
0.0
 41
1.0
 10
-34.42138219289993
 20
9.723511031726673
 30
0.0
 41
1.0
 10
-34.4242294016714
 20
9.956899993773277
 30
0.0
 41
1.0
 10
-34.42784442123443
 20
10.17023320481286
 30
0.0
 41
1.0
 10
-34.43447669479485
 20
10.5968483131887
 30
0.0
 41
1.0
 10
-34.43916142834266
 20
10.95596334873767
 30
0.0
 41
1.0
 10
-34.44001160772567
 20
11.31509077063757
 30
0.0
 41
1.0
 10
-34.44001097227971
 20
11.46118232489192
 30
0.0
 41
1.0
  0
SPLINE
  5
A6
330
1F
100
AcDbEntity
  8
Default
100
AcDbSpline
210
0.0
220
0.0
230
1.0
 70
    12
 71
     2
 72
     6
 73
     3
 74
     0
 42
0.0000000001
 43
0.0000000001
 40
0.0
 40
0.0
 40
0.0
 40
0.6998000892342029
 40
0.6998000892342029
 40
0.6998000892342029
 10
-34.44001097227971
 20
11.46118232489192
 30
0.0
 41
1.0
 10
-34.4404500725763
 20
11.88243362286268
 30
0.0
 41
0.764976675619346
 10
-34.855339663861
 20
11.95373104663622
 30
0.0
 41
1.0
  0
SPLINE
  5
A7
330
1F
100
AcDbEntity
  8
Default
100
AcDbSpline
210
0.0
220
0.0
230
1.0
 70
    12
 71
     2
 72
     6
 73
     3
 74
     0
 42
0.0000000001
 43
0.0000000001
 40
0.0
 40
0.0
 40
0.0
 40
1.843263134159366
 40
1.843263134159366
 40
1.843263134159366
 10
-34.855339663861
 20
11.95373104663622
 30
0.0
 41
1.0
 10
-35.76365991644713
 20
12.10980512045475
 30
0.0
 41
0.999999999993685
 10
-36.6719791162769
 20
12.26588515299545
 30
0.0
 41
1.0
  0
SPLINE
  5
A8
330
1F
100
AcDbEntity
  8
Default
100
AcDbSpline
210
0.0
220
0.0
230
1.0
 70
    12
 71
     5
 72
    13
 73
     7
 74
     0
 42
0.0000000001
 43
0.0000000001
 40
-0.0000214316302125
 40
-0.0000214316302125
 40
-0.0000214316302125
 40
-0.0000214316302125
 40
-0.0000214316302125
 40
-0.0000214316302125
 40
0.4999999999109885
 40
0.9999999998854894
 40
0.9999999998854894
 40
0.9999999998854894
 40
0.9999999998854894
 40
0.9999999998854894
 40
0.9999999998854894
 10
-36.6719791162769
 20
12.26588515299545
 30
0.0
 41
1.0
 10
-36.73595074878355
 20
12.27687454010101
 30
0.0
 41
1.0
 10
-36.8506347378848
 20
12.31002542087904
 30
0.0
 41
1.0
 10
-36.93880380530666
 20
12.36553619869167
 30
0.0
 41
1.0
 10
-36.99669997797045
 20
12.44654867134909
 30
0.0
 41
1.0
 10
-37.0159990294747
 20
12.56009560999524
 30
0.0
 41
1.0
 10
-37.01599967551451
 20
12.62500000239007
 30
0.0
 41
1.0
  0
POLYLINE
  5
A9
330
1F
100
AcDbEntity
  8
Default
100
AcDb2dPolyline
 66
     1
 10
0.0
 20
0.0
 30
0.0
  0
VERTEX
  5
AA
330
A9
100
AcDbEntity
  8
Default
100
AcDbVertex
100
AcDb2dVertex
 10
-33.6639112346364
 20
-0.0000000001849969
 30
0.0
  0
VERTEX
  5
AB
330
A9
100
AcDbEntity
  8
Default
100
AcDbVertex
100
AcDb2dVertex
 10
-34.14808876204378
 20
0.0000000002492868
 30
0.0
  0
SEQEND
  5
AC
330
A9
100
AcDbEntity
  8
Default
  0
SPLINE
  5
AD
330
1F
100
AcDbEntity
  8
Default
100
AcDbSpline
210
0.0
220
0.0
230
1.0
 70
    12
 71
     2
 72
     6
 73
     3
 74
     0
 42
0.0000000001
 43
0.0000000001
 40
0.0
 40
0.0
 40
0.0
 40
0.241924443334512
 40
0.241924443334512
 40
0.241924443334512
 10
-34.14808876204378
 20
0.0000000002492868
 30
0.0
 41
1.0
 10
-34.30099977621112
 20
0.0000000303862057
 30
0.0
 41
0.7141418074729331
 10
-34.30397110038152
 20
0.1529065060032622
 30
0.0
 41
1.0
  0
LINE
  5
AE
330
1F
100
AcDbEntity
  8
Default
100
AcDbLine
 10
-34.30397110038152
 20
0.1529065060032622
 30
0.0
 11
-34.3086696974722
 21
0.375000002431733
 31
0.0
  0
LINE
  5
AF
330
1F
100
AcDbEntity
  8
Default
100
AcDbLine
 10
-34.3086696974722
 20
0.375000002431733
 30
0.0
 11
-33.50386058149707
 21
0.375000002431733
 31
0.0
  0
LINE
  5
B0
330
1F
100
AcDbEntity
  8
Default
100
AcDbLine
 10
-33.50386058149707
 20
0.375000002431733
 30
0.0
 11
-33.50829404003974
 21
0.1529065038094473
 31
0.0
  0
SPLINE
  5
B1
330
1F
100
AcDbEntity
  8
Default
100
AcDbSpline
210
0.0
220
0.0
230
1.0
 70
    12
 71
     2
 72
     6
 73
     3
 74
     0
 42
0.0000000001
 43
0.0000000001
 40
0.0
 40
0.0
 40
0.0
 40
0.2419244355107725
 40
0.2419244355107725
 40
0.2419244355107725
 10
-33.50829404003974
 20
0.1529065038094473
 30
0.0
 41
1.0
 10
-33.51100022663879
 20
0.0000000321909242
 30
0.0
 41
0.7141418153608741
 10
-33.6639112346364
 20
-0.0000000001849969
 30
0.0
 41
1.0
  0
SPLINE
  5
B2
330
1F
100
AcDbEntity
  8
Default
100
AcDbSpline
210
0.0
220
0.0
230
1.0
 70
    15
 71
     2
 72
    20
 73
    17
 74
     0
 42
0.0000000001
 43
0.0000000001
 40
201.8561944901975
 40
201.8561944901975
 40
201.8561944901975
 40
264.3561944901974
 40
264.3561944901974
 40
265.1415926535949
 40
265.1415926535949
 40
289.1415926535967
 40
289.1415926535967
 40
289.9269908169941
 40
289.9269908169941
 40
352.4269908169941
 40
352.4269908169941
 40
353.2123889803915
 40
353.2123889803915
 40
377.2123889803932
 40
377.2123889803932
 40
377.9977871437907
 40
377.9977871437907
 40
377.9977871437907
 10
43.50000861260946
 20
58.84086407432068
 30
0.0
 41
1.0
 10
10.06724358063491
 20
58.84086407432068
 30
0.0
 41
1.0
 10
-18.55212255168826
 20
58.84086407432068
 30
0.0
 41
1.0
 10
-19.05212255168827
 20
58.84086407432067
 30
0.0
 41
0.7071067811865375
 10
-19.05212255168826
 20
58.34086407432068
 30
0.0
 41
1.0
 10
-19.05212255168826
 20
52.63795852301789
 30
0.0
 41
1.0
 10
-19.05212255168826
 20
40.63795852301703
 30
0.0
 41
1.0
 10
-19.05212255168824
 20
40.13795852301703
 30
0.0
 41
0.7071067811865551
 10
-18.55212255168826
 20
40.13795852301703
 30
0.0
 41
1.0
 10
10.06724358063491
 20
40.13795852301703
 30
0.0
 41
1.0
 10
43.50000861260946
 20
40.13795852301703
 30
0.0
 41
1.0
 10
44.00000861260946
 20
40.13795852301703
 30
0.0
 41
0.7071067811865476
 10
44.00000861260946
 20
40.63795852301703
 30
0.0
 41
1.0
 10
44.00000861260946
 20
52.6379585230179
 30
0.0
 41
1.0
 10
44.00000861260946
 20
58.34086407432068
 30
0.0
 41
1.0
 10
44.00000861260947
 20
58.84086407432068
 30
0.0
 41
0.707106781186545
 10
43.50000861260946
 20
58.84086407432068
 30
0.0
 41
1.0
  0
SPLINE
  5
B3
330
1F
100
AcDbEntity
  8
Default
100
AcDbSpline
210
0.0
220
0.0
230
1.0
 70
    24
 71
     2
 72
     6
 73
     3
 74
     0
 42
0.0000000001
 43
0.0000000001
 40
-4.31576817762928
 40
-4.31576817762928
 40
-4.31576817762928
 40
30.3751483392478
 40
30.3751483392478
 40
30.3751483392478
 10
44.00000861260946
 20
61.07389069673684
 30
0.0
 10
12.4739430304606
 20
61.07389069673684
 30
0.0
 10
-19.05212255168826
 20
61.07389069673684
 30
0.0
  0
SPLINE
  5
B4
330
1F
100
AcDbEntity
  8
Default
100
AcDbSpline
210
0.0
220
0.0
230
1.0
 70
    15
 71
     2
 72
    20
 73
    17
 74
     0
 42
0.0000000001
 43
0.0000000001
 40
198.7137567059726
 40
198.7137567059726
 40
198.7137567059726
 40
204.0108511546707
 40
204.0108511546707
 40
204.7962493180681
 40
204.7962493180681
 40
238.4871658349452
 40
238.4871658349452
 40
239.2725639983426
 40
239.2725639983426
 40
244.5696584470407
 40
244.5696584470407
 40
245.3550566104381
 40
245.3550566104381
 40
279.0459731273152
 40
279.0459731273152
 40
279.8313712907126
 40
279.8313712907126
 40
279.8313712907126
 10
-19.05212255168826
 20
59.34086407432068
 30
0.0
 41
1.0
 10
-19.05212255168826
 20
61.98941129866972
 30
0.0
 41
1.0
 10
-19.05212255168826
 20
64.63795852301877
 30
0.0
 41
1.0
 10
-19.05212255168825
 20
65.13795852301878
 30
0.0
 41
0.7071067811865476
 10
-18.55212255168826
 20
65.13795852301877
 30
0.0
 41
1.0
 10
10.41324401494012
 20
65.13795852301877
 30
0.0
 41
1.0
 10
43.50000861260946
 20
65.13795852301877
 30
0.0
 41
1.0
 10
44.00000861260943
 20
65.13795852301877
 30
0.0
 41
0.7071067811865576
 10
44.00000861260946
 20
64.63795852301877
 30
0.0
 41
1.0
 10
44.00000861260946
 20
61.98941129866972
 30
0.0
 41
1.0
 10
44.00000861260946
 20
59.34086407432068
 30
0.0
 41
1.0
 10
44.00000861260946
 20
58.84086407432068
 30
0.0
 41
0.7071067811865476
 10
43.50000861260946
 20
58.84086407432068
 30
0.0
 41
1.0
 10
10.41324401494012
 20
58.84086407432068
 30
0.0
 41
1.0
 10
-18.55212255168826
 20
58.84086407432068
 30
0.0
 41
1.0
 10
-19.05212255168823
 20
58.84086407432068
 30
0.0
 41
0.7071067811865576
 10
-19.05212255168826
 20
59.34086407432068
 30
0.0
 41
1.0
  0
SPLINE
  5
B5
330
1F
100
AcDbEntity
  8
Default
100
AcDbSpline
210
0.0
220
0.0
230
1.0
 70
    15
 71
     2
 72
    20
 73
    17
 74
     0
 42
0.0000000001
 43
0.0000000001
 40
-6733.358085338376
 40
-6733.358085338376
 40
-6733.358085338376
 40
-6719.00382466361
 40
-6719.00382466361
 40
-6718.218426500182
 40
-6718.218426500182
 40
-6679.489858540186
 40
-6679.489858540186
 40
-6678.704460377189
 40
-6678.704460377189
 40
-6664.350199704786
 40
-6664.350199704786
 40
-6663.564801541019
 40
-6663.564801541019
 40
-6624.836233570425
 40
-6624.836233570425
 40
-6624.050835407028
 40
-6624.050835407028
 40
-6624.050835407028
 10
-19.05213116818578
 20
14.87500000243131
 30
0.0
 41
1.0
 10
-19.05213116818581
 20
22.05213033981428
 30
0.0
 41
1.0
 10
-19.05213116818584
 20
29.22926067719729
 30
0.0
 41
1.0
 10
-19.05213116818584
 20
29.72926067722779
 30
0.0
 41
0.7071067811649757
 10
-18.55213116815534
 20
29.72926067719729
 30
0.0
 41
1.0
 10
11.88571371639605
 20
29.72926067601583
 30
0.0
 41
1.0
 10
43.49999999084287
 20
29.72926067483436
 30
0.0
 41
1.0
 10
43.99999999044304
 20
29.72926067480387
 30
0.0
 41
0.7071067814692698
 10
43.99999999081237
 20
29.2292606752037
 30
0.0
 41
1.0
 10
43.99999999611177
 20
22.05213033900213
 30
0.0
 41
1.0
 10
44.00000000141117
 20
14.87500000280059
 30
0.0
 41
1.0
 10
44.00000000178045
 20
14.37500000243129
 30
0.0
 41
0.7071067809254249
 10
43.50000000141117
 20
14.37500000243131
 30
0.0
 41
1.0
 10
11.88571372166498
 20
14.37500000243131
 30
0.0
 41
1.0
 10
-18.55213116818578
 20
14.37500000243131
 30
0.0
 41
1.0
 10
-19.05213116818576
 20
14.3750000024313
 30
0.0
 41
0.70710678118655
 10
-19.05213116818578
 20
14.87500000243131
 30
0.0
 41
1.0
  0
SPLINE
  5
B6
330
1F
100
AcDbEntity
  8
Default
100
AcDbSpline
210
0.0
220
0.0
230
1.0
 70
    15
 71
     2
 72
    22
 73
    19
 74
     0
 42
0.0000000001
 43
0.0000000001
 40
0.0
 40
0.0
 40
0.0
 40
38.0521372463281
 40
38.0521372463281
 40
38.4448383576504
 40
38.4448383576504
 40
41.31688814993201
 40
41.31688814993201
 40
41.70965007631988
 40
41.70965007631988
 40
42.10241200270775
 40
42.10241200270775
 40
79.6545385781071
 40
79.6545385781071
 40
80.43993674150454
 40
80.43993674150454
 40
83.31198653378614
 40
83.31198653378614
 40
83.7046867353958
 40
83.7046867353958
 40
83.7046867353958
 10
43.75000533157623
 20
14.37500000243341
 30
0.0
 41
1.0
 10
12.47393441396298
 20
14.37500000243341
 30
0.0
 41
1.0
 10
-18.80213553243746
 20
14.37500000243341
 30
0.0
 41
1.0
 10
-19.05213589775861
 20
14.37499963707669
 30
0.0
 41
0.707110387889693
 10
-19.05213450522183
 20
14.6250000024313
 30
0.0
 41
0.9999999999167506
 10
-19.05213235109744
 20
16.0610248985721
 30
0.0
 41
0.9999999999167506
 10
-19.05213019697305
 20
17.4970497947129
 30
0.0
 41
0.9999999999167506
 10
-19.05225146709356
 20
17.70420678683507
 30
0.0
 41
0.9237674810464906
 10
-18.90576932809439
 20
17.85068892583425
 30
0.0
 41
0.9999999999167506
 10
-18.75928718909524
 20
17.99717106483342
 30
0.0
 41
0.9237674810464906
 10
-18.55213019697306
 20
17.99704979471291
 30
0.0
 41
0.9999999999167506
 10
12.47393441396305
 20
17.99704979471291
 30
0.0
 41
0.9999999999167506
 10
43.49999999611192
 20
17.99704979471291
 30
0.0
 41
0.9999999999167506
 10
43.9999999961119
 20
17.9970497947129
 30
0.0
 41
0.7071067811276798
 10
43.99999999611187
 20
17.4970497947129
 30
0.0
 41
0.9999999999167506
 10
44.00000215023626
 20
16.0610248985721
 30
0.0
 41
0.9999999999167506
 10
44.00000430436068
 20
14.6250000024313
 30
0.0
 41
0.9999999999167506
 10
44.0000035773453
 20
14.37500175661999
 30
0.0
 41
0.7071163829140098
 10
43.75000533157623
 20
14.37500000243341
 30
0.0
 41
1.0
  0
SPLINE
  5
B7
330
1F
100
AcDbEntity
  8
Default
100
AcDbSpline
210
0.0
220
0.0
230
1.0
 70
    15
 71
     2
 72
    20
 73
    17
 74
     0
 42
0.0000000001
 43
0.0000000001
 40
-6482.241760176043
 40
-6482.241760176043
 40
-6482.241760176043
 40
-6480.991760176043
 40
-6480.991760176043
 40
-6480.599061094345
 40
-6480.599061094345
 40
-6417.599061094345
 40
-6417.599061094345
 40
-6417.206362012646
 40
-6417.206362012646
 40
-6415.956362012646
 40
-6415.956362012646
 40
-6415.563662930947
 40
-6415.563662930947
 40
-6352.563662930947
 40
-6352.563662930947
 40
-6352.170963849248
 40
-6352.170963849248
 40
-6352.170963849248
 10
-44.00000459278698
 20
12.87500000243131
 30
0.0
 41
1.0
 10
-44.00000459278681
 20
13.50000000243131
 30
0.0
 41
1.0
 10
-44.00000459278662
 20
14.12500000243131
 30
0.0
 41
1.0
 10
-44.00000459278662
 20
14.3750000024313
 30
0.0
 41
0.7071067811865476
 10
-43.75000459278662
 20
14.37500000243131
 30
0.0
 41
1.0
 10
-0.0000022983374777
 20
14.37500000243131
 30
0.0
 41
1.0
 10
43.74999999611168
 20
14.37500000243131
 30
0.0
 41
1.0
 10
43.99999999611169
 20
14.3750000024313
 30
0.0
 41
0.7071067811865426
 10
43.99999999611168
 20
14.12500000243131
 30
0.0
 41
1.0
 10
43.99999999611177
 20
13.50000000243131
 30
0.0
 41
1.0
 10
43.99999999611185
 20
12.87500000243131
 30
0.0
 41
1.0
 10
43.99999999611189
 20
12.62500000243102
 30
0.0
 41
0.7071067811861858
 10
43.74999999611163
 20
12.62500000243125
 30
0.0
 41
1.0
 10
-0.0000022983376766
 20
12.62500000243128
 30
0.0
 41
1.0
 10
-43.75000459278698
 20
12.62500000243131
 30
0.0
 41
1.0
 10
-44.00000459278696
 20
12.6250000024313
 30
0.0
 41
0.707106781186545
 10
-44.00000459278698
 20
12.87500000243131
 30
0.0
 41
1.0
  0
SPLINE
  5
B8
330
1F
100
AcDbEntity
  8
Default
100
AcDbSpline
210
0.0
220
0.0
230
1.0
 70
    24
 71
     2
 72
     6
 73
     3
 74
     0
 42
0.0000000001
 43
0.0000000001
 40
0.0
 40
0.0
 40
0.0
 40
2.872049792281604
 40
2.872049792281604
 40
2.872049792281604
 10
59.45080372890737
 20
14.62503914797207
 30
0.0
 10
59.45080372890743
 20
16.06106404411287
 30
0.0
 10
59.45080372890749
 20
17.49708894025366
 30
0.0
  0
SPLINE
  5
B9
330
1F
100
AcDbEntity
  8
Default
100
AcDbSpline
210
0.0
220
0.0
230
1.0
 70
    12
 71
     2
 72
     6
 73
     3
 74
     0
 42
0.0000000001
 43
0.0000000001
 40
0.0
 40
0.0
 40
0.0
 40
0.7853981633974554
 40
0.7853981633974554
 40
0.7853981633974554
 10
59.45080372890749
 20
17.49708894025366
 30
0.0
 41
1.0
 10
59.45080372890749
 20
17.99708894025368
 30
0.0
 41
0.7071067811865426
 10
59.95080372890749
 20
17.99708894025366
 30
0.0
 41
1.0
  0
SPLINE
  5
BA
330
1F
100
AcDbEntity
  8
Default
100
AcDbSpline
210
0.0
220
0.0
230
1.0
 70
    24
 71
     2
 72
     6
 73
     3
 74
     0
 42
0.0000000001
 43
0.0000000001
 40
0.0
 40
0.0
 40
0.0
 40
23.99999995722946
 40
23.99999995722946
 40
23.99999995722946
 10
59.95080372890749
 20
17.99708894025366
 30
0.0
 10
71.95080370752223
 20
17.99708894025366
 30
0.0
 10
83.95080368613696
 20
17.99708894025366
 30
0.0
  0
SPLINE
  5
BB
330
1F
100
AcDbEntity
  8
Default
100
AcDbSpline
210
0.0
220
0.0
230
1.0
 70
    12
 71
     2
 72
     6
 73
     3
 74
     0
 42
0.0000000001
 43
0.0000000001
 40
0.0
 40
0.0
 40
0.0
 40
0.7853981633974382
 40
0.7853981633974382
 40
0.7853981633974382
 10
83.95080368613696
 20
17.99708894025366
 30
0.0
 41
1.0
 10
84.45080368613695
 20
17.99708894025366
 30
0.0
 41
0.7071067811865627
 10
84.45080368613696
 20
17.49708894025366
 30
0.0
 41
1.0
  0
SPLINE
  5
BC
330
1F
100
AcDbEntity
  8
Default
100
AcDbSpline
210
0.0
220
0.0
230
1.0
 70
    24
 71
     2
 72
     6
 73
     3
 74
     0
 42
0.0000000001
 43
0.0000000001
 40
0.0
 40
0.0
 40
0.0
 40
2.872049792281601
 40
2.872049792281601
 40
2.872049792281601
 10
84.45080368613696
 20
17.49708894025366
 30
0.0
 10
84.45080368613706
 20
16.06106404411287
 30
0.0
 10
84.45080368613716
 20
14.62503914797207
 30
0.0
  0
ARC
  5
BD
330
1F
100
AcDbEntity
  8
Default
100
AcDbCircle
 10
84.20080368613716
 20
14.62503914797207
 30
0.0
 40
0.25
100
AcDbArc
 50
270.0
 51
0.0000000000008142
  0
POLYLINE
  5
BE
330
1F
100
AcDbEntity
  8
Default
100
AcDb2dPolyline
 66
     1
 10
0.0
 20
0.0
 30
0.0
  0
VERTEX
  5
BF
330
BE
100
AcDbEntity
  8
Default
100
AcDbVertex
100
AcDb2dVertex
 10
84.20080368613716
 20
14.37503914797207
 30
0.0
  0
VERTEX
  5
C0
330
BE
100
AcDbEntity
  8
Default
100
AcDbVertex
100
AcDb2dVertex
 10
60.99955372890832
 20
14.37503914797207
 30
0.0
  0
SEQEND
  5
C1
330
BE
100
AcDbEntity
  8
Default
  0
LINE
  5
C2
330
1F
100
AcDbEntity
  8
Default
100
AcDbLine
 10
60.99955372890832
 20
14.37503914797207
 30
0.0
 11
59.70080372890746
 21
14.37503914797207
 31
0.0
  0
ARC
  5
C3
330
1F
100
AcDbEntity
  8
Default
100
AcDbCircle
 10
59.70080372890737
 20
14.62503914797207
 30
0.0
 40
0.25
100
AcDbArc
 50
180.0
 51
270.0000000000196
  0
ARC
  5
C4
330
1F
100
AcDbEntity
  8
Default
100
AcDbCircle
 10
10321.87793399036
 20
-414.3754196209618
 30
0.0
 40
10246.45187490584
100
AcDbArc
 50
177.6801779751895
 51
177.6814389168758
  0
LINE
  5
C5
330
1F
100
AcDbEntity
  8
Default
100
AcDbLine
 10
83.82352498703355
 20
0.375039147972501
 30
0.0
 11
82.69851971285865
 21
0.375039147972501
 31
0.0
  0
LINE
  5
C6
330
1F
100
AcDbEntity
  8
Default
100
AcDbLine
 10
82.69851971285865
 20
0.375039147972501
 30
0.0
 11
82.70987563489606
 21
0.1496421885903203
 31
0.0
  0
SPLINE
  5
C7
330
1F
100
AcDbEntity
  8
Default
100
AcDbSpline
210
0.0
220
0.0
230
1.0
 70
    12
 71
     2
 72
     6
 73
     3
 74
     0
 42
0.0000000001
 43
0.0000000001
 40
-0.2387149143318927
 40
-0.2387149143318927
 40
-0.2387149143318927
 40
0.0
 40
0.0
 40
0.0
 10
82.70987563489606
 20
0.1496421885903203
 30
0.0
 41
1.0
 10
82.71596757712977
 20
-0.0000384788505737
 30
0.0
 41
0.7212476062221478
 10
82.86624763702517
 20
0.0000003945993967
 30
0.0
 41
1.0
  0
SPLINE
  5
C8
330
1F
100
AcDbEntity
  8
Default
100
AcDbSpline
210
0.0
220
0.0
230
1.0
 70
    12
 71
     2
 72
     6
 73
     3
 74
     0
 42
0.0000000001
 43
0.0000000001
 40
0.0
 40
0.0
 40
0.0
 40
0.3954244124017839
 40
0.3954244124017839
 40
0.3954244124017839
 10
82.86624763702517
 20
0.0000003945993967
 30
0.0
 41
1.0
 10
83.06443560667567
 20
0.0000274211650236
 30
0.0
 41
0.999999999289049
 10
83.26214781262266
 20
0.0000391457903959
 30
0.0
 41
1.0
  0
SPLINE
  5
C9
330
1F
100
AcDbEntity
  8
Default
100
AcDbSpline
210
0.0
220
0.0
230
1.0
 70
    24
 71
     2
 72
     6
 73
     3
 74
     0
 42
0.0000000001
 43
0.0000000001
 40
0.0
 40
0.0
 40
0.0
 40
0.3954243890795226
 40
0.3954243890795226
 40
0.3954243890795226
 10
83.26214781262266
 20
0.0000391457903959
 30
0.0
 10
83.46009789616653
 20
0.0000391465098915
 30
0.0
 10
83.6580479797104
 20
0.000039147229387
 30
0.0
  0
SPLINE
  5
CA
330
1F
100
AcDbEntity
  8
Default
100
AcDbSpline
210
0.0
220
0.0
230
1.0
 70
    12
 71
     2
 72
     6
 73
     3
 74
     0
 42
0.0000000001
 43
0.0000000001
 40
-0.2387271341672585
 40
-0.2387271341672585
 40
-0.2387271341672585
 40
0.0
 40
0.0
 40
0.0
 10
83.6580479797104
 20
0.000039147229387
 30
0.0
 41
1.0
 10
83.80833120698341
 20
0.0000391477539419
 30
0.0
 41
0.7212776802320741
 10
83.8143998107499
 20
0.1497242041205311
 30
0.0
 41
1.0
  0
SPLINE
  5
CB
330
1F
100
AcDbEntity
  8
Default
100
AcDbSpline
210
0.0
220
0.0
230
1.0
 70
    24
 71
     2
 72
     6
 73
     3
 74
     0
 42
0.0000000001
 43
0.0000000001
 40
0.0
 40
0.0
 40
0.0
 40
1.250000000000004
 40
1.250000000000004
 40
1.250000000000004
 10
59.4508678133698
 20
14.12503914797207
 30
0.0
 10
59.45086781336963
 20
13.50003914797207
 30
0.0
 10
59.45086781336946
 20
12.87503914797207
 30
0.0
  0
ARC
  5
CC
330
1F
100
AcDbEntity
  8
Default
100
AcDbCircle
 10
59.70086781336946
 20
12.87503914797207
 30
0.0
 40
0.25
100
AcDbArc
 50
180.0
 51
270.0
  0
LINE
  5
CD
330
1F
100
AcDbEntity
  8
Default
100
AcDbLine
 10
59.70086781336946
 20
12.62503914797207
 30
0.0
 11
84.20086781337122
 21
12.62503914797207
 31
0.0
  0
ARC
  5
CE
330
1F
100
AcDbEntity
  8
Default
100
AcDbCircle
 10
84.20086781337116
 20
12.87503914797207
 30
0.0
 40
0.25
100
AcDbArc
 50
270.000000000013
 51
359.9999999999935
  0
SPLINE
  5
CF
330
1F
100
AcDbEntity
  8
Default
100
AcDbSpline
210
0.0
220
0.0
230
1.0
 70
    24
 71
     2
 72
     6
 73
     3
 74
     0
 42
0.0000000001
 43
0.0000000001
 40
0.0
 40
0.0
 40
0.0
 40
1.250000000000004
 40
1.250000000000004
 40
1.250000000000004
 10
84.45086781337116
 20
12.87503914797207
 30
0.0
 10
84.45086781337125
 20
13.50003914797207
 30
0.0
 10
84.45086781337133
 20
14.12503914797207
 30
0.0
  0
ARC
  5
D0
330
1F
100
AcDbEntity
  8
Default
100
AcDbCircle
 10
84.20086781337133
 20
14.12503914797207
 30
0.0
 40
0.25
100
AcDbArc
 50
359.9999999999992
 51
90.0
  0
LINE
  5
D1
330
1F
100
AcDbEntity
  8
Default
100
AcDbLine
 10
84.20086781337133
 20
14.37503914797207
 30
0.0
 11
59.95086781336985
 21
14.37503914797207
 31
0.0
  0
LINE
  5
D2
330
1F
100
AcDbEntity
  8
Default
100
AcDbLine
 10
59.95086781336985
 20
14.37503914797207
 30
0.0
 11
59.70086781336951
 21
14.37503914797207
 31
0.0
  0
ARC
  5
D3
330
1F
100
AcDbEntity
  8
Default
100
AcDbCircle
 10
59.7008678133698
 20
14.12503914797207
 30
0.0
 40
0.25
100
AcDbArc
 50
90.00000000006676
 51
180.0000000000008
  0
SPLINE
  5
D4
330
1F
100
AcDbEntity
  8
Default
100
AcDbSpline
210
0.0
220
0.0
230
1.0
 70
    12
 71
     2
 72
     6
 73
     3
 74
     0
 42
0.0000000001
 43
0.0000000001
 40
-0.7825548902353026
 40
-0.7825548902353026
 40
-0.7825548902353026
 40
0.0
 40
0.0
 40
0.0
 10
81.74908518517947
 20
10.30071586205423
 30
0.0
 41
1.0
 10
82.24699327949665
 20
10.3021910588302
 30
0.0
 41
0.7091100515193309
 10
82.2483411414104
 20
10.79994551542504
 30
0.0
 41
1.0
  0
LINE
  5
D5
330
1F
100
AcDbEntity
  8
Default
100
AcDbLine
 10
82.2483411414104
 20
10.79994551542504
 30
0.0
 11
82.24836720705096
 21
12.62503914797207
 31
0.0
  0
POLYLINE
  5
D6
330
1F
100
AcDbEntity
  8
Default
100
AcDb2dPolyline
 66
     1
 10
0.0
 20
0.0
 30
0.0
  0
VERTEX
  5
D7
330
D6
100
AcDbEntity
  8
Default
100
AcDbVertex
100
AcDb2dVertex
 10
82.24836720705096
 20
12.62503914797207
 30
0.0
  0
VERTEX
  5
D8
330
D6
100
AcDbEntity
  8
Default
100
AcDbVertex
100
AcDb2dVertex
 10
83.8233677171277
 20
12.62503914797207
 30
0.0
  0
SEQEND
  5
D9
330
D6
100
AcDbEntity
  8
Default
  0
LINE
  5
DA
330
1F
100
AcDbEntity
  8
Default
100
AcDbLine
 10
83.8233677171277
 20
12.62503914797207
 30
0.0
 11
83.82336775953374
 21
8.523832748054218
 31
0.0
  0
SPLINE
  5
DB
330
1F
100
AcDbEntity
  8
Default
100
AcDbSpline
210
0.0
220
0.0
230
1.0
 70
    12
 71
     5
 72
    12
 73
     6
 74
     0
 42
0.0000000001
 43
0.0000000001
 40
-0.0000000000115655
 40
-0.0000000000115655
 40
-0.0000000000115655
 40
-0.0000000000115655
 40
-0.0000000000115655
 40
-0.0000000000115655
 40
0.9922383364707964
 40
0.9922383364707964
 40
0.9922383364707964
 40
0.9922383364707964
 40
0.9922383364707964
 40
0.9922383364707964
 10
83.82336775953374
 20
8.523832748054218
 30
0.0
 41
1.0
 10
83.8233676564951
 20
6.906723733670503
 30
0.0
 41
1.0
 10
83.82490770734992
 20
5.289998742648606
 30
0.0
 41
1.0
 10
83.82793270336057
 20
3.673665990516213
 30
0.0
 41
1.0
 10
83.82751552323319
 20
2.05644623623084
 30
0.0
 41
1.0
 10
83.82352527728412
 20
0.4383277097144855
 30
0.0
 41
1.0
  0
SPLINE
  5
DC
330
1F
100
AcDbEntity
  8
Default
100
AcDbSpline
210
0.0
220
0.0
230
1.0
 70
    12
 71
     2
 72
     6
 73
     3
 74
     0
 42
0.0000000001
 43
0.0000000001
 40
0.0
 40
0.0
 40
0.0
 40
0.0876876088231114
 40
0.0876876088231114
 40
0.0876876088231114
 10
83.82352527728412
 20
0.4383277097144855
 30
0.0
 41
1.0
 10
83.82376607116484
 20
0.3857006415588127
 30
0.0
 41
0.7674574304402552
 10
83.77202211546788
 20
0.3760970311344636
 30
0.0
 41
1.0
  0
POLYLINE
  5
DD
330
1F
100
AcDbEntity
  8
Default
100
AcDb2dPolyline
 66
     1
 10
0.0
 20
0.0
 30
0.0
  0
VERTEX
  5
DE
330
DD
100
AcDbEntity
  8
Default
100
AcDbVertex
100
AcDb2dVertex
 10
83.77202211546788
 20
0.3760970311344636
 30
0.0
  0
VERTEX
  5
DF
330
DD
100
AcDbEntity
  8
Default
100
AcDbVertex
100
AcDb2dVertex
 10
82.74719793923359
 20
0.3760291938386331
 30
0.0
  0
SEQEND
  5
E0
330
DD
100
AcDbEntity
  8
Default
  0
SPLINE
  5
E1
330
1F
100
AcDbEntity
  8
Default
100
AcDbSpline
210
0.0
220
0.0
230
1.0
 70
    12
 71
     2
 72
     6
 73
     3
 74
     0
 42
0.0000000001
 43
0.0000000001
 40
0.0
 40
0.0
 40
0.0
 40
0.0846250291315599
 40
0.0846250291315599
 40
0.0846250291315599
 10
82.74719793923359
 20
0.3760291938386331
 30
0.0
 41
1.0
 10
82.69790584470125
 20
0.3848725235610725
 30
0.0
 41
0.7828101505964009
 10
82.69540099685096
 20
0.434904001082316
 30
0.0
 41
1.0
  0
SPLINE
  5
E2
330
1F
100
AcDbEntity
  8
Default
100
AcDbSpline
210
0.0
220
0.0
230
1.0
 70
    12
 71
     5
 72
    12
 73
     6
 74
     0
 42
0.0000000001
 43
0.0000000001
 40
-0.9926563385080105
 40
-0.9926563385080105
 40
-0.9926563385080105
 40
-0.9926563385080105
 40
-0.9926563385080105
 40
-0.9926563385080105
 40
0.0000000000115655
 40
0.0000000000115655
 40
0.0000000000115655
 40
0.0000000000115655
 40
0.0000000000115655
 40
0.0000000000115655
 10
82.69540099685096
 20
0.434904001082316
 30
0.0
 41
1.0
 10
82.6151296299137
 20
2.053720817459947
 30
0.0
 41
1.0
 10
82.53186238137565
 20
3.67162323919851
 30
0.0
 41
1.0
 10
82.44570384881743
 20
5.288636897364484
 30
0.0
 41
1.0
 10
82.3607856951331
 20
6.906042847452966
 30
0.0
 41
1.0
 10
82.27715324972331
 20
8.523832748054218
 30
0.0
 41
1.0
  0
SPLINE
  5
E3
330
1F
100
AcDbEntity
  8
Default
100
AcDbSpline
210
0.0
220
0.0
230
1.0
 70
    12
 71
     2
 72
     6
 73
     3
 74
     0
 42
0.0000000001
 43
0.0000000001
 40
-0.082649365308941
 40
-0.082649365308941
 40
-0.082649365308941
 40
0.0
 40
0.0
 40
0.0
 10
82.27715324972331
 20
8.523832748054218
 30
0.0
 41
1.0
 10
82.27503281982521
 20
8.56510299399468
 30
0.0
 41
0.9999999883852876
 10
82.27290189964188
 20
8.606814936617099
 30
0.0
 41
1.0
  0
SPLINE
  5
E4
330
1F
100
AcDbEntity
  8
Default
100
AcDbSpline
210
0.0
220
0.0
230
1.0
 70
    12
 71
     2
 72
     6
 73
     3
 74
     0
 42
0.0000000001
 43
0.0000000001
 40
0.0
 40
0.0
 40
0.0
 40
0.7576113662501209
 40
0.7576113662501209
 40
0.7576113662501209
 10
82.27290189964188
 20
8.606814936617099
 30
0.0
 41
1.0
 10
82.2477624139374
 20
9.079543739945663
 30
0.0
 41
0.72648491075732
 10
81.77419562432999
 20
9.080707515827015
 30
0.0
 41
1.0
  0
SPLINE
  5
E5
330
1F
100
AcDbEntity
  8
Default
100
AcDbSpline
210
0.0
220
0.0
230
1.0
 70
    24
 71
     2
 72
     6
 73
     3
 74
     0
 42
0.0000000001
 43
0.0000000001
 40
0.0
 40
0.0
 40
0.0
 40
19.64792944108129
 40
19.64792944108129
 40
19.64792944108129
 10
81.77419562432999
 20
9.080707515827015
 30
0.0
 10
71.94961781337025
 20
9.080707515827015
 30
0.0
 10
62.12504000241051
 20
9.080707515827015
 30
0.0
  0
SPLINE
  5
E6
330
1F
100
AcDbEntity
  8
Default
100
AcDbSpline
210
0.0
220
0.0
230
1.0
 70
    12
 71
     2
 72
     6
 73
     3
 74
     0
 42
0.0000000001
 43
0.0000000001
 40
-0.7576113662501209
 40
-0.7576113662501209
 40
-0.7576113662501209
 40
0.0
 40
0.0
 40
0.0
 10
62.12504000241051
 20
9.080707515827015
 30
0.0
 41
1.0
 10
61.65147321280313
 20
9.079543739945663
 30
0.0
 41
0.72648491075732
 10
61.62633372709863
 20
8.606814936617099
 30
0.0
 41
1.0
  0
SPLINE
  5
E7
330
1F
100
AcDbEntity
  8
Default
100
AcDbSpline
210
0.0
220
0.0
230
1.0
 70
    12
 71
     2
 72
     6
 73
     3
 74
     0
 42
0.0000000001
 43
0.0000000001
 40
0.0
 40
0.0
 40
0.0
 40
0.082649365308941
 40
0.082649365308941
 40
0.082649365308941
 10
61.62633372709863
 20
8.606814936617099
 30
0.0
 41
1.0
 10
61.62420280691529
 20
8.56510299399468
 30
0.0
 41
0.9999999883852876
 10
61.62208237701719
 20
8.523832748054218
 30
0.0
 41
1.0
  0
SPLINE
  5
E8
330
1F
100
AcDbEntity
  8
Default
100
AcDbSpline
210
0.0
220
0.0
230
1.0
 70
    12
 71
     5
 72
    12
 73
     6
 74
     0
 42
0.0000000001
 43
0.0000000001
 40
-0.0000000000115655
 40
-0.0000000000115655
 40
-0.0000000000115655
 40
-0.0000000000115655
 40
-0.0000000000115655
 40
-0.0000000000115655
 40
0.9926563385080105
 40
0.9926563385080105
 40
0.9926563385080105
 40
0.9926563385080105
 40
0.9926563385080105
 40
0.9926563385080105
 10
61.62208237701719
 20
8.523832748054218
 30
0.0
 41
1.0
 10
61.5384499316074
 20
6.906042847452966
 30
0.0
 41
1.0
 10
61.45353177792308
 20
5.288636897364484
 30
0.0
 41
1.0
 10
61.36737324536486
 20
3.67162323919851
 30
0.0
 41
1.0
 10
61.28410599682681
 20
2.053720817459947
 30
0.0
 41
1.0
 10
61.20383462988954
 20
0.434904001082316
 30
0.0
 41
1.0
  0
SPLINE
  5
E9
330
1F
100
AcDbEntity
  8
Default
100
AcDbSpline
210
0.0
220
0.0
230
1.0
 70
    12
 71
     2
 72
     6
 73
     3
 74
     0
 42
0.0000000001
 43
0.0000000001
 40
-0.0846250291315599
 40
-0.0846250291315599
 40
-0.0846250291315599
 40
0.0
 40
0.0
 40
0.0
 10
61.20383462988954
 20
0.434904001082316
 30
0.0
 41
1.0
 10
61.20132978203927
 20
0.3848725235610725
 30
0.0
 41
0.7828101505964009
 10
61.15203768750692
 20
0.3760291938386331
 30
0.0
 41
1.0
  0
POLYLINE
  5
EA
330
1F
100
AcDbEntity
  8
Default
100
AcDb2dPolyline
 66
     1
 10
0.0
 20
0.0
 30
0.0
  0
VERTEX
  5
EB
330
EA
100
AcDbEntity
  8
Default
100
AcDbVertex
100
AcDb2dVertex
 10
61.15203768750692
 20
0.3760291938386331
 30
0.0
  0
VERTEX
  5
EC
330
EA
100
AcDbEntity
  8
Default
100
AcDbVertex
100
AcDb2dVertex
 10
60.12721351127263
 20
0.3760970311344636
 30
0.0
  0
SEQEND
  5
ED
330
EA
100
AcDbEntity
  8
Default
  0
SPLINE
  5
EE
330
1F
100
AcDbEntity
  8
Default
100
AcDbSpline
210
0.0
220
0.0
230
1.0
 70
    12
 71
     2
 72
     6
 73
     3
 74
     0
 42
0.0000000001
 43
0.0000000001
 40
-0.0876876088231114
 40
-0.0876876088231114
 40
-0.0876876088231114
 40
0.0
 40
0.0
 40
0.0
 10
60.12721351127263
 20
0.3760970311344636
 30
0.0
 41
1.0
 10
60.0754695555757
 20
0.3857006415588127
 30
0.0
 41
0.7674574304402552
 10
60.07571034945639
 20
0.4383277097144855
 30
0.0
 41
1.0
  0
SPLINE
  5
EF
330
1F
100
AcDbEntity
  8
Default
100
AcDbSpline
210
0.0
220
0.0
230
1.0
 70
    12
 71
     5
 72
    12
 73
     6
 74
     0
 42
0.0000000001
 43
0.0000000001
 40
-0.9922383364707964
 40
-0.9922383364707964
 40
-0.9922383364707964
 40
-0.9922383364707964
 40
-0.9922383364707964
 40
-0.9922383364707964
 40
0.0000000000115655
 40
0.0000000000115655
 40
0.0000000000115655
 40
0.0000000000115655
 40
0.0000000000115655
 40
0.0000000000115655
 10
60.07571034945639
 20
0.4383277097144855
 30
0.0
 41
1.0
 10
60.07172010350732
 20
2.05644623623084
 30
0.0
 41
1.0
 10
60.07130292337993
 20
3.673665990516213
 30
0.0
 41
1.0
 10
60.07432791939058
 20
5.289998742648606
 30
0.0
 41
1.0
 10
60.07586797024541
 20
6.906723733670503
 30
0.0
 41
1.0
 10
60.07586786720677
 20
8.523832748054218
 30
0.0
 41
1.0
  0
LINE
  5
F0
330
1F
100
AcDbEntity
  8
Default
100
AcDbLine
 10
60.07586786720677
 20
8.523832748054218
 30
0.0
 11
60.07586790961281
 21
12.62503914797207
 31
0.0
  0
POLYLINE
  5
F1
330
1F
100
AcDbEntity
  8
Default
100
AcDb2dPolyline
 66
     1
 10
0.0
 20
0.0
 30
0.0
  0
VERTEX
  5
F2
330
F1
100
AcDbEntity
  8
Default
100
AcDbVertex
100
AcDb2dVertex
 10
60.07586790961281
 20
12.62503914797207
 30
0.0
  0
VERTEX
  5
F3
330
F1
100
AcDbEntity
  8
Default
100
AcDbVertex
100
AcDb2dVertex
 10
61.65086841968957
 20
12.62503914797207
 30
0.0
  0
SEQEND
  5
F4
330
F1
100
AcDbEntity
  8
Default
  0
LINE
  5
F5
330
1F
100
AcDbEntity
  8
Default
100
AcDbLine
 10
61.65086841968957
 20
12.62503914797207
 30
0.0
 11
61.6508944853301
 21
10.79994551542504
 31
0.0
  0
SPLINE
  5
F6
330
1F
100
AcDbEntity
  8
Default
100
AcDbSpline
210
0.0
220
0.0
230
1.0
 70
    12
 71
     2
 72
     6
 73
     3
 74
     0
 42
0.0000000001
 43
0.0000000001
 40
0.0
 40
0.0
 40
0.0
 40
0.7825548902353026
 40
0.7825548902353026
 40
0.7825548902353026
 10
61.6508944853301
 20
10.79994551542504
 30
0.0
 41
1.0
 10
61.65224234724386
 20
10.3021910588302
 30
0.0
 41
0.7091100515193309
 10
62.15015044156101
 20
10.30071586205423
 30
0.0
 41
1.0
  0
SPLINE
  5
F7
330
1F
100
AcDbEntity
  8
Default
100
AcDbSpline
210
0.0
220
0.0
230
1.0
 70
    24
 71
     2
 72
     6
 73
     3
 74
     0
 42
0.0000000001
 43
0.0000000001
 40
0.0
 40
0.0
 40
0.0
 40
19.59744819239467
 40
19.59744819239467
 40
19.59744819239467
 10
62.15015044156101
 20
10.30071586205423
 30
0.0
 10
71.94961781337024
 20
10.30071586205423
 30
0.0
 10
81.74908518517947
 20
10.30071586205423
 30
0.0
  0
SPLINE
  5
F8
330
1F
100
AcDbEntity
  8
Default
100
AcDbSpline
210
0.0
220
0.0
230
1.0
 70
     8
 71
     3
 72
    12
 73
     8
 74
     0
 42
0.0000000001
 43
0.0000000001
 40
0.0
 40
0.0
 40
0.0
 40
0.0
 40
1.0
 40
2.0
 40
3.0
 40
4.0
 40
5.0
 40
5.0
 40
5.0
 40
5.0
 10
82.24838340254294
 20
12.62503918828247
 30
0.0
 10
82.26478029730745
 20
12.49412383183059
 30
0.0
 10
82.486832217124
 20
12.34303393063828
 30
0.0
 10
82.84784932447167
 20
12.26271800023721
 30
0.0
 10
83.22358286200733
 20
12.26322850254047
 30
0.0
 10
83.58487714951133
 20
12.34265459677525
 30
0.0
 10
83.80655512058806
 20
12.4943905506457
 30
0.0
 10
83.82338326086253
 20
12.62498982761034
 30
0.0
  0
ARC
  5
F9
330
1F
100
AcDbEntity
  8
Default
100
AcDbCircle
 10
-10177.97869836362
 20
-414.3754196209618
 30
0.0
 40
10246.45187490584
100
AcDbArc
 50
2.318561083124227
 51
2.319822024810463
  0
LINE
  5
FA
330
1F
100
AcDbEntity
  8
Default
100
AcDbLine
 10
60.07571063970695
 20
0.375039147972501
 30
0.0
 11
61.20071591388188
 21
0.375039147972501
 31
0.0
  0
LINE
  5
FB
330
1F
100
AcDbEntity
  8
Default
100
AcDbLine
 10
61.20071591388188
 20
0.375039147972501
 30
0.0
 11
61.18935999184444
 21
0.1496421885903203
 31
0.0
  0
SPLINE
  5
FC
330
1F
100
AcDbEntity
  8
Default
100
AcDbSpline
210
0.0
220
0.0
230
1.0
 70
    12
 71
     2
 72
     6
 73
     3
 74
     0
 42
0.0000000001
 43
0.0000000001
 40
-0.2387149143318927
 40
-0.2387149143318927
 40
-0.2387149143318927
 40
0.0
 40
0.0
 40
0.0
 10
61.18935999184444
 20
0.1496421885903203
 30
0.0
 41
1.0
 10
61.18326804961075
 20
-0.0000384788505737
 30
0.0
 41
0.7212476062221478
 10
61.03298798971534
 20
0.0000003945993967
 30
0.0
 41
1.0
  0
SPLINE
  5
FD
330
1F
100
AcDbEntity
  8
Default
100
AcDbSpline
210
0.0
220
0.0
230
1.0
 70
    12
 71
     2
 72
     6
 73
     3
 74
     0
 42
0.0000000001
 43
0.0000000001
 40
0.0
 40
0.0
 40
0.0
 40
0.3954244124017839
 40
0.3954244124017839
 40
0.3954244124017839
 10
61.03298798971534
 20
0.0000003945993967
 30
0.0
 41
1.0
 10
60.83480002006488
 20
0.0000274211650236
 30
0.0
 41
0.999999999289049
 10
60.63708781411785
 20
0.0000391457903959
 30
0.0
 41
1.0
  0
SPLINE
  5
FE
330
1F
100
AcDbEntity
  8
Default
100
AcDbSpline
210
0.0
220
0.0
230
1.0
 70
    24
 71
     2
 72
     6
 73
     3
 74
     0
 42
0.0000000001
 43
0.0000000001
 40
0.0
 40
0.0
 40
0.0
 40
0.3954243890795226
 40
0.3954243890795226
 40
0.3954243890795226
 10
60.63708781411785
 20
0.0000391457903959
 30
0.0
 10
60.43913773057398
 20
0.0000391465098915
 30
0.0
 10
60.2411876470301
 20
0.000039147229387
 30
0.0
  0
SPLINE
  5
FF
330
1F
100
AcDbEntity
  8
Default
100
AcDbSpline
210
0.0
220
0.0
230
1.0
 70
    12
 71
     2
 72
     6
 73
     3
 74
     0
 42
0.0000000001
 43
0.0000000001
 40
-0.2387271341672585
 40
-0.2387271341672585
 40
-0.2387271341672585
 40
0.0
 40
0.0
 40
0.0
 10
60.2411876470301
 20
0.000039147229387
 30
0.0
 41
1.0
 10
60.09090441975709
 20
0.0000391477539419
 30
0.0
 41
0.7212776802320741
 10
60.0848358159906
 20
0.1497242041205311
 30
0.0
 41
1.0
  0
SPLINE
  5
100
330
1F
100
AcDbEntity
  8
Default
100
AcDbSpline
210
0.0
220
0.0
230
1.0
 70
     8
 71
     3
 72
    12
 73
     8
 74
     0
 42
0.0000000001
 43
0.0000000001
 40
0.0
 40
0.0
 40
0.0
 40
0.0
 40
1.0
 40
2.0
 40
3.0
 40
4.0
 40
5.0
 40
5.0
 40
5.0
 40
5.0
 10
61.65085222419756
 20
12.62503918828247
 30
0.0
 10
61.63445532943305
 20
12.49412383183059
 30
0.0
 10
61.41240340961652
 20
12.34303393063828
 30
0.0
 10
61.05138630226887
 20
12.26271800023721
 30
0.0
 10
60.67565276473319
 20
12.26322850254047
 30
0.0
 10
60.31435847722918
 20
12.34265459677525
 30
0.0
 10
60.09268050615245
 20
12.4943905506457
 30
0.0
 10
60.07585236587798
 20
12.62498982761034
 30
0.0
  0
SPLINE
  5
101
330
1F
100
AcDbEntity
  8
Default
100
AcDbSpline
210
0.0
220
0.0
230
1.0
 70
    12
 71
     2
 72
     6
 73
     3
 74
     0
 42
0.0000000001
 43
0.0000000001
 40
0.0
 40
0.0
 40
0.0
 40
0.0051272633192371
 40
0.0051272633192371
 40
0.0051272633192371
 10
61.65084715795078
 20
12.61991732662256
 30
0.0
 41
1.0
 10
61.65086820108584
 20
12.62248088684238
 30
0.0
 41
0.9999912669693292
 10
61.65086781624413
 20
12.62504453339875
 30
0.0
 41
1.0
  0
SPLINE
  5
102
330
1F
100
AcDbEntity
  8
Default
100
AcDbSpline
210
0.0
220
0.0
230
1.0
 70
    12
 71
     2
 72
     6
 73
     3
 74
     0
 42
0.0000000001
 43
0.0000000001
 40
0.0
 40
0.0
 40
0.0
 40
0.0026344063336084
 40
0.0026344063336084
 40
0.0026344063336084
 10
61.65086411173556
 20
12.62369822164351
 30
0.0
 41
1.0
 10
61.65085001447494
 20
12.62238109377965
 30
0.0
 41
0.9999998444549029
 10
61.65083444795513
 20
12.62106398246092
 30
0.0
 41
1.0
  0
SPLINE
  5
103
330
1F
100
AcDbEntity
  8
Default
100
AcDbSpline
210
0.0
220
0.0
230
1.0
 70
    24
 71
     2
 72
     6
 73
     3
 74
     0
 42
0.0000000001
 43
0.0000000001
 40
0.0
 40
0.0
 40
0.0
 40
0.003885868834095
 40
0.003885868834095
 40
0.003885868834095
 10
61.65086781857016
 20
12.62106376880348
 30
0.0
 10
61.65086782234764
 20
12.61912083438644
 30
0.0
 10
61.65086782612511
 20
12.61717789996939
 30
0.0
  0
ENDSEC
  0
SECTION
  2
OBJECTS
  0
DICTIONARY
  5
C
330
0
100
AcDbDictionary
281
     1
  3
ACAD_GROUP
350
D
  3
ACAD_LAYOUT
350
1A
  3
ACAD_MLEADERSTYLE
350
105
  3
ACAD_MLINESTYLE
350
17
  3
ACAD_PLOTSETTINGS
350
19
  3
ACAD_PLOTSTYLENAME
350
E
  3
ACAD_TABLESTYLE
350
104
  3
ACAD_VISUALSTYLE
350
2A
  0
DICTIONARY
  5
D
102
{ACAD_REACTORS
330
C
102
}
330
C
100
AcDbDictionary
281
     1
  0
DICTIONARY
  5
1A
102
{ACAD_REACTORS
330
C
102
}
330
C
100
AcDbDictionary
281
     1
  3
Layout1
350
1E
  3
Layout2
350
26
  3
Model
350
22
  0
DICTIONARY
  5
105
102
{ACAD_REACTORS
330
C
102
}
330
C
100
AcDbDictionary
281
     1
  0
DICTIONARY
  5
17
102
{ACAD_REACTORS
330
C
102
}
330
C
100
AcDbDictionary
281
     1
  3
Standard
350
18
  0
DICTIONARY
  5
19
102
{ACAD_REACTORS
330
C
102
}
330
C
100
AcDbDictionary
281
     1
  0
ACDBDICTIONARYWDFLT
  5
E
102
{ACAD_REACTORS
330
C
102
}
330
C
100
AcDbDictionary
281
     1
  3
Normal
350
F
100
AcDbDictionaryWithDefault
340
F
  0
DICTIONARY
  5
104
102
{ACAD_REACTORS
330
C
102
}
330
C
100
AcDbDictionary
281
     1
  0
DICTIONARY
  5
2A
102
{ACAD_REACTORS
330
C
102
}
330
C
100
AcDbDictionary
281
     1
  3
2dWireframe
350
2F
  3
3D Hidden
350
31
  3
3dWireframe
350
30
  3
Basic
350
32
  3
Brighten
350
36
  3
ColorChange
350
3A
  3
Conceptual
350
34
  3
Dim
350
35
  3
Facepattern
350
39
  3
Flat
350
2B
  3
FlatWithEdges
350
2C
  3
Gouraud
350
2D
  3
GouraudWithEdges
350
2E
  3
Linepattern
350
38
  3
Realistic
350
33
  3
Thicken
350
37
  0
LAYOUT
  5
1E
102
{ACAD_REACTORS
330
1A
102
}
330
1A
100
AcDbPlotSettings
  1

  2
none_device
  4

  6

 40
0.0
 41
0.0
 42
0.0
 43
0.0
 44
0.0
 45
0.0
 46
0.0
 47
0.0
 48
0.0
 49
0.0
140
0.0
141
0.0
142
1.0
143
1.0
 70
   688
 72
     0
 73
     0
 74
     5
  7

 75
    16
 76
     0
 77
     2
 78
   300
147
1.0
148
0.0
149
0.0
100
AcDbLayout
  1
Layout1
 70
     1
 71
     1
 10
0.0
 20
0.0
 11
12.0
 21
9.0
 12
0.0
 22
0.0
 32
0.0
 14
1.000000000000000E+20
 24
1.000000000000000E+20
 34
1.000000000000000E+20
 15
-1.000000000000000E+20
 25
-1.000000000000000E+20
 35
-1.000000000000000E+20
146
0.0
 13
0.0
 23
0.0
 33
0.0
 16
1.0
 26
0.0
 36
0.0
 17
0.0
 27
1.0
 37
0.0
 76
     0
330
1B
  0
LAYOUT
  5
26
102
{ACAD_REACTORS
330
1A
102
}
330
1A
100
AcDbPlotSettings
  1

  2
none_device
  4

  6

 40
0.0
 41
0.0
 42
0.0
 43
0.0
 44
0.0
 45
0.0
 46
0.0
 47
0.0
 48
0.0
 49
0.0
140
0.0
141
0.0
142
1.0
143
1.0
 70
   688
 72
     0
 73
     0
 74
     5
  7

 75
    16
 76
     0
 77
     2
 78
   300
147
1.0
148
0.0
149
0.0
100
AcDbLayout
  1
Layout2
 70
     1
 71
     2
 10
0.0
 20
0.0
 11
0.0
 21
0.0
 12
0.0
 22
0.0
 32
0.0
 14
0.0
 24
0.0
 34
0.0
 15
0.0
 25
0.0
 35
0.0
146
0.0
 13
0.0
 23
0.0
 33
0.0
 16
1.0
 26
0.0
 36
0.0
 17
0.0
 27
1.0
 37
0.0
 76
     0
330
23
  0
LAYOUT
  5
22
102
{ACAD_REACTORS
330
1A
102
}
330
1A
100
AcDbPlotSettings
  1

  2
none_device
  4

  6

 40
0.0
 41
0.0
 42
0.0
 43
0.0
 44
0.0
 45
0.0
 46
0.0
 47
0.0
 48
0.0
 49
0.0
140
0.0
141
0.0
142
1.0
143
1.0
 70
  1712
 72
     0
 73
     0
 74
     0
  7

 75
     0
 76
     0
 77
     2
 78
   300
147
1.0
148
0.0
149
0.0
100
AcDbLayout
  1
Model
 70
     1
 71
     0
 10
0.0
 20
0.0
 11
12.0
 21
9.0
 12
0.0
 22
0.0
 32
0.0
 14
-44.05213112541551
 24
-0.0000000001849969
 34
0.0
 15
84.45086781337133
 25
65.13795852301877
 35
0.0
146
0.0
 13
0.0
 23
0.0
 33
0.0
 16
1.0
 26
0.0
 36
0.0
 17
0.0
 27
1.0
 37
0.0
 76
     0
330
1F
331
29
  0
MLINESTYLE
  5
18
102
{ACAD_REACTORS
330
17
102
}
330
17
100
AcDbMlineStyle
  2
Standard
 70
     0
  3

 62
   256
 51
90.0
 52
90.0
 71
     2
 49
0.5
 62
   256
  6
BYLAYER
 49
-0.5
 62
   256
  6
BYLAYER
  0
ACDBPLACEHOLDER
  5
F
102
{ACAD_REACTORS
330
E
102
}
330
E
  0
VISUALSTYLE
  5
2F
102
{ACAD_REACTORS
330
2A
102
}
330
2A
100
AcDbVisualStyle
  2
2dWireframe
 70
     4
 71
     0
 72
     2
 73
     0
 90
        0
 40
-0.6
 41
-30.0
 62
     5
 63
     7
421
 16777215
 74
     1
 91
        4
 64
     7
 65
   257
 75
     1
175
     1
 42
1.0
 92
        0
 66
   257
 43
1.0
 76
     1
 77
     6
 78
     2
 67
     7
 79
     5
170
     0
171
     0
290
     0
174
     0
 93
        1
 44
0.0
173
     0
291
     0
 45
0.0
1001
ACAD
1000
AcDbSavedByObjectVersion
1070
     0
  0
VISUALSTYLE
  5
31
102
{ACAD_REACTORS
330
2A
102
}
330
2A
100
AcDbVisualStyle
  2
3D Hidden
 70
     6
 71
     1
 72
     2
 73
     2
 90
        0
 40
-0.6
 41
-30.0
 62
     5
 63
     7
421
 16777215
 74
     2
 91
        2
 64
     7
 65
   257
 75
     2
175
     1
 42
40.0
 92
        0
 66
   257
 43
1.0
 76
     1
 77
     6
 78
     2
 67
     7
 79
     3
170
     0
171
     0
290
     0
174
     0
 93
        1
 44
0.0
173
     0
291
     0
 45
0.0
1001
ACAD
1000
AcDbSavedByObjectVersion
1070
     0
  0
VISUALSTYLE
  5
30
102
{ACAD_REACTORS
330
2A
102
}
330
2A
100
AcDbVisualStyle
  2
3dWireframe
 70
     5
 71
     0
 72
     2
 73
     0
 90
        0
 40
-0.6
 41
-30.0
 62
     5
 63
     7
421
 16777215
 74
     1
 91
        4
 64
     7
 65
   257
 75
     1
175
     1
 42
1.0
 92
        0
 66
   257
 43
1.0
 76
     1
 77
     6
 78
     2
 67
     7
 79
     5
170
     0
171
     0
290
     0
174
     0
 93
        1
 44
0.0
173
     0
291
     0
 45
0.0
1001
ACAD
1000
AcDbSavedByObjectVersion
1070
     0
  0
VISUALSTYLE
  5
32
102
{ACAD_REACTORS
330
2A
102
}
330
2A
100
AcDbVisualStyle
  2
Basic
 70
     7
 71
     1
 72
     0
 73
     1
 90
        0
 40
-0.6
 41
-30.0
 62
     5
 63
     7
421
 16777215
 74
     0
 91
        4
 64
     7
 65
   257
 75
     1
175
     1
 42
1.0
 92
        8
 66
     7
 43
1.0
 76
     1
 77
     6
 78
     2
 67
     7
 79
     5
170
     0
171
     0
290
     0
174
     0
 93
        1
 44
0.0
173
     0
291
     1
 45
0.0
1001
ACAD
1000
AcDbSavedByObjectVersion
1070
     0
  0
VISUALSTYLE
  5
36
102
{ACAD_REACTORS
330
2A
102
}
330
2A
100
AcDbVisualStyle
  2
Brighten
 70
    12
 71
     2
 72
     2
 73
     0
 90
        0
 40
-0.6
 41
-30.0
 62
     5
 63
     7
421
 16777215
 74
     1
 91
        4
 64
     7
 65
   257
 75
     1
175
     1
 42
1.0
 92
        8
 66
     7
 43
1.0
 76
     1
 77
     6
 78
     2
 67
     7
 79
     5
170
     0
171
     0
290
     0
174
     0
 93
        1
 44
50.0
173
     0
291
     1
 45
0.0
1001
ACAD
1000
AcDbSavedByObjectVersion
1070
     0
  0
VISUALSTYLE
  5
3A
102
{ACAD_REACTORS
330
2A
102
}
330
2A
100
AcDbVisualStyle
  2
ColorChange
 70
    16
 71
     2
 72
     2
 73
     3
 90
        0
 40
-0.6
 41
-30.0
 62
     5
 63
     8
421
  8421504
 74
     1
 91
        4
 64
     7
 65
   257
 75
     1
175
     1
 42
1.0
 92
        8
 66
     8
424
  8421504
 43
1.0
 76
     1
 77
     6
 78
     2
 67
     7
 79
     5
170
     0
171
     0
290
     0
174
     0
 93
        1
 44
0.0
173
     0
291
     1
 45
0.0
1001
ACAD
1000
AcDbSavedByObjectVersion
1070
     0
  0
VISUALSTYLE
  5
34
102
{ACAD_REACTORS
330
2A
102
}
330
2A
100
AcDbVisualStyle
  2
Conceptual
 70
     9
 71
     3
 72
     2
 73
     0
 90
        0
 40
-0.6
 41
-30.0
 62
     5
 63
     7
421
 16777215
 74
     2
 91
        2
 64
     7
 65
   257
 75
     1
175
     1
 42
40.0
 92
        8
 66
     7
 43
1.0
 76
     1
 77
     6
 78
     2
 67
     7
 79
     3
170
     0
171
     0
290
     0
174
     0
 93
        1
 44
0.0
173
     0
291
     0
 45
0.0
1001
ACAD
1000
AcDbSavedByObjectVersion
1070
     0
  0
VISUALSTYLE
  5
35
102
{ACAD_REACTORS
330
2A
102
}
330
2A
100
AcDbVisualStyle
  2
Dim
 70
    11
 71
     2
 72
     2
 73
     0
 90
        0
 40
-0.6
 41
-30.0
 62
     5
 63
     7
421
 16777215
 74
     1
 91
        4
 64
     7
 65
   257
 75
     1
175
     1
 42
1.0
 92
        8
 66
     7
 43
1.0
 76
     1
 77
     6
 78
     2
 67
     7
 79
     5
170
     0
171
     0
290
     0
174
     0
 93
        1
 44
-50.0
173
     0
291
     1
 45
0.0
1001
ACAD
1000
AcDbSavedByObjectVersion
1070
     0
  0
VISUALSTYLE
  5
39
102
{ACAD_REACTORS
330
2A
102
}
330
2A
100
AcDbVisualStyle
  2
Facepattern
 70
    15
 71
     2
 72
     2
 73
     0
 90
        0
 40
-0.6
 41
-30.0
 62
     5
 63
     7
421
 16777215
 74
     1
 91
        4
 64
     7
 65
   257
 75
     1
175
     1
 42
1.0
 92
        8
 66
     7
 43
1.0
 76
     1
 77
     6
 78
     2
 67
     7
 79
     5
170
     0
171
     0
290
     0
174
     0
 93
        1
 44
0.0
173
     0
291
     1
 45
0.0
1001
ACAD
1000
AcDbSavedByObjectVersion
1070
     0
  0
VISUALSTYLE
  5
2B
102
{ACAD_REACTORS
330
2A
102
}
330
2A
100
AcDbVisualStyle
  2
Flat
 70
     0
 71
     2
 72
     1
 73
     1
 90
        2
 40
-0.6
 41
30.0
 62
     5
 63
     7
421
 16777215
 74
     0
 91
        4
 64
     7
 65
   257
 75
     1
175
     1
 42
1.0
 92
        8
 66
     7
 43
1.0
 76
     1
 77
     6
 78
     2
 67
     7
 79
     5
170
     0
171
     0
290
     0
174
     0
 93
       13
 44
0.0
173
     0
291
     1
 45
0.0
1001
ACAD
1000
AcDbSavedByObjectVersion
1070
     0
  0
VISUALSTYLE
  5
2C
102
{ACAD_REACTORS
330
2A
102
}
330
2A
100
AcDbVisualStyle
  2
FlatWithEdges
 70
     1
 71
     2
 72
     1
 73
     1
 90
        2
 40
-0.6
 41
30.0
 62
     5
 63
     7
421
 16777215
 74
     1
 91
        4
 64
     7
 65
   257
 75
     1
175
     1
 42
1.0
 92
        0
 66
   257
 43
1.0
 76
     1
 77
     6
 78
     2
 67
     7
 79
     5
170
     0
171
     0
290
     0
174
     0
 93
       13
 44
0.0
173
     0
291
     1
 45
0.0
1001
ACAD
1000
AcDbSavedByObjectVersion
1070
     0
  0
VISUALSTYLE
  5
2D
102
{ACAD_REACTORS
330
2A
102
}
330
2A
100
AcDbVisualStyle
  2
Gouraud
 70
     2
 71
     2
 72
     2
 73
     1
 90
        2
 40
-0.6
 41
30.0
 62
     5
 63
     7
421
 16777215
 74
     0
 91
        4
 64
     7
 65
   257
 75
     1
175
     1
 42
1.0
 92
        0
 66
     7
 43
1.0
 76
     1
 77
     6
 78
     2
 67
     7
 79
     5
170
     0
171
     0
290
     0
174
     0
 93
       13
 44
0.0
173
     0
291
     1
 45
0.0
1001
ACAD
1000
AcDbSavedByObjectVersion
1070
     0
  0
VISUALSTYLE
  5
2E
102
{ACAD_REACTORS
330
2A
102
}
330
2A
100
AcDbVisualStyle
  2
GouraudWithEdges
 70
     3
 71
     2
 72
     2
 73
     1
 90
        2
 40
-0.6
 41
30.0
 62
     5
 63
     7
421
 16777215
 74
     1
 91
        4
 64
     7
 65
   257
 75
     1
175
     1
 42
1.0
 92
        0
 66
   257
 43
1.0
 76
     1
 77
     6
 78
     2
 67
     7
 79
     5
170
     0
171
     0
290
     0
174
     0
 93
       13
 44
0.0
173
     0
291
     1
 45
0.0
1001
ACAD
1000
AcDbSavedByObjectVersion
1070
     0
  0
VISUALSTYLE
  5
38
102
{ACAD_REACTORS
330
2A
102
}
330
2A
100
AcDbVisualStyle
  2
Linepattern
 70
    14
 71
     2
 72
     2
 73
     0
 90
        0
 40
-0.6
 41
-30.0
 62
     5
 63
     7
421
 16777215
 74
     1
 91
        4
 64
     7
 65
   257
 75
     7
175
     7
 42
1.0
 92
        8
 66
     7
 43
1.0
 76
     1
 77
     6
 78
     2
 67
     7
 79
     5
170
     0
171
     0
290
     0
174
     0
 93
        1
 44
0.0
173
     0
291
     1
 45
0.0
1001
ACAD
1000
AcDbSavedByObjectVersion
1070
     0
  0
VISUALSTYLE
  5
33
102
{ACAD_REACTORS
330
2A
102
}
330
2A
100
AcDbVisualStyle
  2
Realistic
 70
     8
 71
     2
 72
     2
 73
     0
 90
        0
 40
-0.6
 41
-30.0
 62
     5
 63
     7
421
 16777215
 74
     1
 91
        0
 64
     7
 65
   257
 75
     1
175
     1
 42
1.0
 92
        8
 66
     8
424
  7895160
 43
1.0
 76
     1
 77
     6
 78
     2
 67
     7
 79
     5
170
     0
171
     0
290
     0
174
     0
 93
       13
 44
0.0
173
     0
291
     0
 45
0.0
1001
ACAD
1000
AcDbSavedByObjectVersion
1070
     0
  0
VISUALSTYLE
  5
37
102
{ACAD_REACTORS
330
2A
102
}
330
2A
100
AcDbVisualStyle
  2
Thicken
 70
    13
 71
     2
 72
     2
 73
     0
 90
        0
 40
-0.6
 41
-30.0
 62
     5
 63
     7
421
 16777215
 74
     1
 91
        4
 64
     7
 65
   257
 75
     1
175
     1
 42
1.0
 92
       12
 66
     7
 43
1.0
 76
     1
 77
     6
 78
     2
 67
     7
 79
     5
170
     0
171
     0
290
     0
174
     0
 93
        1
 44
0.0
173
     0
291
     1
 45
0.0
1001
ACAD
1000
AcDbSavedByObjectVersion
1070
     0
  0
ENDSEC
  0
EOF
