  0
SECTION
  2
HEADER
  9
$ACADVER
  1
AC1018
  9
$ACADMAINTVER
 70
     0
  9
$DWGCODEPAGE
  3
ANSI_1252
  9
$INSBASE
 10
0.0
 20
0.0
 30
0.0
  9
$EXTMIN
 10
-37.75002908653327
 20
-0.0000000002171276
 30
0.0
  9
$EXTMAX
 10
75.20087298938898
 20
65.13727764025559
 30
0.0
  9
$LIMMIN
 10
0.0
 20
0.0
  9
$LIMMAX
 10
12.0
 20
9.0
  9
$ORTHOMODE
 70
     0
  9
$REGENMODE
 70
     1
  9
$FILLMODE
 70
     1
  9
$QTEXTMODE
 70
     0
  9
$MIRRTEXT
 70
     1
  9
$LTSCALE
 40
0.0393700787401575
  9
$ATTMODE
 70
     1
  9
$TEXTSIZE
 40
0.2
  9
$TRACEWID
 40
0.05
  9
$TEXTSTYLE
  7
Standard
  9
$CLAYER
  8
0
  9
$CELTYPE
  6
ByLayer
  9
$CECOLOR
 62
   256
  9
$CELTSCALE
 40
1.0
  9
$DISPSILH
 70
     0
  9
$DIMSCALE
 40
1.0
  9
$DIMASZ
 40
0.18
  9
$DIMEXO
 40
0.0625
  9
$DIMDLI
 40
0.38
  9
$DIMRND
 40
0.0
  9
$DIMDLE
 40
0.0
  9
$DIMEXE
 40
0.18
  9
$DIMTP
 40
0.0
  9
$DIMTM
 40
0.0
  9
$DIMTXT
 40
0.18
  9
$DIMCEN
 40
0.09
  9
$DIMTSZ
 40
0.0
  9
$DIMTOL
 70
     0
  9
$DIMLIM
 70
     0
  9
$DIMTIH
 70
     1
  9
$DIMTOH
 70
     1
  9
$DIMSE1
 70
     0
  9
$DIMSE2
 70
     0
  9
$DIMTAD
 70
     0
  9
$DIMZIN
 70
     0
  9
$DIMBLK
  1

  9
$DIMASO
 70
     1
  9
$DIMSHO
 70
     1
  9
$DIMPOST
  1

  9
$DIMAPOST
  1

  9
$DIMALT
 70
     0
  9
$DIMALTD
 70
     2
  9
$DIMALTF
 40
25.4
  9
$DIMLFAC
 40
1.0
  9
$DIMTOFL
 70
     0
  9
$DIMTVP
 40
0.0
  9
$DIMTIX
 70
     0
  9
$DIMSOXD
 70
     0
  9
$DIMSAH
 70
     0
  9
$DIMBLK1
  1

  9
$DIMBLK2
  1

  9
$DIMSTYLE
  2
Standard
  9
$DIMCLRD
 70
     0
  9
$DIMCLRE
 70
     0
  9
$DIMCLRT
 70
     0
  9
$DIMTFAC
 40
1.0
  9
$DIMGAP
 40
0.09
  9
$DIMJUST
 70
     0
  9
$DIMSD1
 70
     0
  9
$DIMSD2
 70
     0
  9
$DIMTOLJ
 70
     1
  9
$DIMTZIN
 70
     0
  9
$DIMALTZ
 70
     0
  9
$DIMALTTZ
 70
     0
  9
$DIMUPT
 70
     0
  9
$DIMDEC
 70
     4
  9
$DIMTDEC
 70
     4
  9
$DIMALTU
 70
     2
  9
$DIMALTTD
 70
     2
  9
$DIMTXSTY
  7
Standard
  9
$DIMAUNIT
 70
     0
  9
$DIMADEC
 70
     0
  9
$DIMALTRND
 40
0.0
  9
$DIMAZIN
 70
     0
  9
$DIMDSEP
 70
    46
  9
$DIMATFIT
 70
     3
  9
$DIMFRAC
 70
     0
  9
$DIMLDRBLK
  1

  9
$DIMLUNIT
 70
     2
  9
$DIMLWD
 70
    -2
  9
$DIMLWE
 70
    -2
  9
$DIMTMOVE
 70
     2
  9
$LUNITS
 70
     2
  9
$LUPREC
 70
     3
  9
$SKETCHINC
 40
0.1
  9
$FILLETRAD
 40
0.5
  9
$AUNITS
 70
     0
  9
$AUPREC
 70
     0
  9
$MENU
  1
.
  9
$ELEVATION
 40
0.0
  9
$PELEVATION
 40
0.0
  9
$THICKNESS
 40
0.0
  9
$LIMCHECK
 70
     0
  9
$CHAMFERA
 40
0.5
  9
$CHAMFERB
 40
0.5
  9
$CHAMFERC
 40
1.0
  9
$CHAMFERD
 40
0.0
  9
$SKPOLY
 70
     0
  9
$TDCREATE
 40
2458148.963891852
  9
$TDUCREATE
 40
2458149.172225185
  9
$TDUPDATE
 40
2458148.963891863
  9
$TDUUPDATE
 40
2458149.172225197
  9
$TDINDWG
 40
0.0000000116
  9
$TDUSRTIMER
 40
0.0000000116
  9
$USRTIMER
 70
     1
  9
$ANGBASE
 50
0.0
  9
$ANGDIR
 70
     0
  9
$PDMODE
 70
     0
  9
$PDSIZE
 40
0.0
  9
$PLINEWID
 40
0.0
  9
$SPLFRAME
 70
     0
  9
$SPLINETYPE
 70
     6
  9
$SPLINESEGS
 70
     8
  9
$HANDSEED
  5
103
  9
$SURFTAB1
 70
     6
  9
$SURFTAB2
 70
     6
  9
$SURFTYPE
 70
     6
  9
$SURFU
 70
     6
  9
$SURFV
 70
     6
  9
$UCSBASE
  2

  9
$UCSNAME
  2

  9
$UCSORG
 10
0.0
 20
0.0
 30
0.0
  9
$UCSXDIR
 10
1.0
 20
0.0
 30
0.0
  9
$UCSYDIR
 10
0.0
 20
1.0
 30
0.0
  9
$UCSORTHOREF
  2

  9
$UCSORTHOVIEW
 70
     0
  9
$UCSORGTOP
 10
0.0
 20
0.0
 30
0.0
  9
$UCSORGBOTTOM
 10
0.0
 20
0.0
 30
0.0
  9
$UCSORGLEFT
 10
0.0
 20
0.0
 30
0.0
  9
$UCSORGRIGHT
 10
0.0
 20
0.0
 30
0.0
  9
$UCSORGFRONT
 10
0.0
 20
0.0
 30
0.0
  9
$UCSORGBACK
 10
0.0
 20
0.0
 30
0.0
  9
$PUCSBASE
  2

  9
$PUCSNAME
  2

  9
$PUCSORG
 10
0.0
 20
0.0
 30
0.0
  9
$PUCSXDIR
 10
1.0
 20
0.0
 30
0.0
  9
$PUCSYDIR
 10
0.0
 20
1.0
 30
0.0
  9
$PUCSORTHOREF
  2

  9
$PUCSORTHOVIEW
 70
     0
  9
$PUCSORGTOP
 10
0.0
 20
0.0
 30
0.0
  9
$PUCSORGBOTTOM
 10
0.0
 20
0.0
 30
0.0
  9
$PUCSORGLEFT
 10
0.0
 20
0.0
 30
0.0
  9
$PUCSORGRIGHT
 10
0.0
 20
0.0
 30
0.0
  9
$PUCSORGFRONT
 10
0.0
 20
0.0
 30
0.0
  9
$PUCSORGBACK
 10
0.0
 20
0.0
 30
0.0
  9
$USERI1
 70
     0
  9
$USERI2
 70
     0
  9
$USERI3
 70
     0
  9
$USERI4
 70
     0
  9
$USERI5
 70
     0
  9
$USERR1
 40
0.0
  9
$USERR2
 40
0.0
  9
$USERR3
 40
0.0
  9
$USERR4
 40
0.0
  9
$USERR5
 40
0.0
  9
$WORLDVIEW
 70
     1
  9
$SHADEDGE
 70
     3
  9
$SHADEDIF
 70
    70
  9
$TILEMODE
 70
     1
  9
$MAXACTVP
 70
    64
  9
$PINSBASE
 10
0.0
 20
0.0
 30
0.0
  9
$PLIMCHECK
 70
     0
  9
$PEXTMIN
 10
1.000000000000000E+20
 20
1.000000000000000E+20
 30
1.000000000000000E+20
  9
$PEXTMAX
 10
-1.000000000000000E+20
 20
-1.000000000000000E+20
 30
-1.000000000000000E+20
  9
$PLIMMIN
 10
0.0
 20
0.0
  9
$PLIMMAX
 10
12.0
 20
9.0
  9
$UNITMODE
 70
     0
  9
$VISRETAIN
 70
     1
  9
$PLINEGEN
 70
     0
  9
$PSLTSCALE
 70
     1
  9
$TREEDEPTH
 70
  3020
  9
$CMLSTYLE
  2
Standard
  9
$CMLJUST
 70
     0
  9
$CMLSCALE
 40
1.0
  9
$PROXYGRAPHICS
 70
     1
  9
$MEASUREMENT
 70
     0
  9
$CELWEIGHT
370
    -1
  9
$ENDCAPS
280
     0
  9
$JOINSTYLE
280
     0
  9
$LWDISPLAY
290
     0
  9
$INSUNITS
 70
     1
  9
$HYPERLINKBASE
  1

  9
$STYLESHEET
  1

  9
$XEDIT
290
     1
  9
$CEPSNTYPE
380
     0
  9
$PSTYLEMODE
290
     1
  9
$FINGERPRINTGUID
  2
{B39813C6-4BBE-43C9-BD5D-D874523FC696}
  9
$VERSIONGUID
  2
{FAEB1C32-E019-11D5-929B-00C0DF256EC4}
  9
$EXTNAMES
290
     1
  9
$PSVPSCALE
 40
0.0
  9
$OLESTARTUP
290
     0
  9
$SORTENTS
280
   127
  9
$INDEXCTL
280
     0
  9
$HIDETEXT
280
     1
  9
$XCLIPFRAME
290
     0
  9
$HALOGAP
280
     0
  9
$OBSCOLOR
 70
   257
  9
$OBSLTYPE
280
     0
  9
$INTERSECTIONDISPLAY
280
     0
  9
$INTERSECTIONCOLOR
 70
   257
  9
$DIMASSOC
280
     2
  9
$PROJECTNAME
  1

  0
ENDSEC
  0
SECTION
  2
CLASSES
  0
CLASS
  1
ACDBDICTIONARYWDFLT
  2
AcDbDictionaryWithDefault
  3
ObjectDBX Classes
 90
        0
 91
        4
280
     0
281
     0
  0
CLASS
  1
VISUALSTYLE
  2
AcDbVisualStyle
  3
ObjectDBX Classes
 90
     4095
 91
        4
280
     0
281
     0
  0
ENDSEC
  0
SECTION
  2
TABLES
  0
TABLE
  2
VPORT
  5
8
330
0
100
AcDbSymbolTable
 70
     1
  0
VPORT
  5
29
330
8
100
AcDbSymbolTableRecord
100
AcDbViewportTableRecord
  2
*Active
 70
     0
 10
0.0
 20
0.0
 11
1.0
 21
1.0
 12
18.72542195142785
 22
32.56863882001923
 13
0.0
 23
0.0
 14
0.5
 24
0.5
 15
0.5
 25
0.5
 16
0.0
 26
0.0
 36
1.0
 17
0.0
 27
0.0
 37
0.0
 40
66.44002319328217
 41
1.734043947911952
 42
50.0
 43
0.0
 44
0.0
 50
0.0
 51
0.0
 71
     0
 72
   100
 73
     1
 74
     3
 75
     0
 76
     0
 77
     0
 78
     0
281
     0
 65
     1
110
0.0
120
0.0
130
0.0
111
1.0
121
0.0
131
0.0
112
0.0
122
1.0
132
0.0
 79
     0
146
0.0
  0
ENDTAB
  0
TABLE
  2
LTYPE
  5
5
330
0
100
AcDbSymbolTable
 70
     1
  0
LTYPE
  5
14
330
5
100
AcDbSymbolTableRecord
100
AcDbLinetypeTableRecord
  2
ByBlock
 70
     0
  3

 72
    65
 73
     0
 40
0.0
  0
LTYPE
  5
15
330
5
100
AcDbSymbolTableRecord
100
AcDbLinetypeTableRecord
  2
ByLayer
 70
     0
  3

 72
    65
 73
     0
 40
0.0
  0
LTYPE
  5
16
330
5
100
AcDbSymbolTableRecord
100
AcDbLinetypeTableRecord
  2
Continuous
 70
     0
  3
Solid line
 72
    65
 73
     0
 40
0.0
  0
ENDTAB
  0
TABLE
  2
LAYER
  5
2
330
0
100
AcDbSymbolTable
 70
     2
  0
LAYER
  5
10
330
2
100
AcDbSymbolTableRecord
100
AcDbLayerTableRecord
  2
0
 70
     0
 62
     7
  6
Continuous
370
    -3
390
F
  0
LAYER
  5
3B
330
2
100
AcDbSymbolTableRecord
100
AcDbLayerTableRecord
  2
Layer 01
 70
     0
 62
     7
  6
Continuous
370
    -3
390
F
  0
ENDTAB
  0
TABLE
  2
STYLE
  5
3
330
0
100
AcDbSymbolTable
 70
     1
  0
STYLE
  5
11
330
3
100
AcDbSymbolTableRecord
100
AcDbTextStyleTableRecord
  2
Standard
 70
     0
 40
0.0
 41
1.0
 50
0.0
 71
     0
 42
0.2
  3
txt
  4

  0
ENDTAB
  0
TABLE
  2
VIEW
  5
6
330
0
100
AcDbSymbolTable
 70
     0
  0
ENDTAB
  0
TABLE
  2
UCS
  5
7
330
0
100
AcDbSymbolTable
 70
     0
  0
ENDTAB
  0
TABLE
  2
APPID
  5
9
330
0
100
AcDbSymbolTable
 70
     1
  0
APPID
  5
12
330
9
100
AcDbSymbolTableRecord
100
AcDbRegAppTableRecord
  2
ACAD
 70
     0
  0
ENDTAB
  0
TABLE
  2
DIMSTYLE
  5
A
330
0
100
AcDbSymbolTable
 70
     1
100
AcDbDimStyleTable
  0
DIMSTYLE
105
27
330
A
100
AcDbSymbolTableRecord
100
AcDbDimStyleTableRecord
  2
Standard
 70
     0
340
11
  0
ENDTAB
  0
TABLE
  2
BLOCK_RECORD
  5
1
330
0
100
AcDbSymbolTable
 70
     1
  0
BLOCK_RECORD
  5
1F
330
1
100
AcDbSymbolTableRecord
100
AcDbBlockTableRecord
  2
*Model_Space
340
22
  0
BLOCK_RECORD
  5
1B
330
1
100
AcDbSymbolTableRecord
100
AcDbBlockTableRecord
  2
*Paper_Space
340
1E
  0
BLOCK_RECORD
  5
23
330
1
100
AcDbSymbolTableRecord
100
AcDbBlockTableRecord
  2
*Paper_Space0
340
26
  0
ENDTAB
  0
ENDSEC
  0
SECTION
  2
BLOCKS
  0
BLOCK
  5
20
330
1F
100
AcDbEntity
  8
0
100
AcDbBlockBegin
  2
*Model_Space
 70
     0
 10
0.0
 20
0.0
 30
0.0
  3
*Model_Space
  1

  0
ENDBLK
  5
21
330
1F
100
AcDbEntity
  8
0
100
AcDbBlockEnd
  0
BLOCK
  5
1C
330
1B
100
AcDbEntity
 67
     1
  8
0
100
AcDbBlockBegin
  2
*Paper_Space
 70
     0
 10
0.0
 20
0.0
 30
0.0
  3
*Paper_Space
  1

  0
ENDBLK
  5
1D
330
1B
100
AcDbEntity
 67
     1
  8
0
100
AcDbBlockEnd
  0
BLOCK
  5
24
330
23
100
AcDbEntity
  8
0
100
AcDbBlockBegin
  2
*Paper_Space0
 70
     0
 10
0.0
 20
0.0
 30
0.0
  3
*Paper_Space0
  1

  0
ENDBLK
  5
25
330
23
100
AcDbEntity
  8
0
100
AcDbBlockEnd
  0
ENDSEC
  0
SECTION
  2
ENTITIES
  0
SPLINE
  5
3C
330
1F
100
AcDbEntity
  8
Layer 01
100
AcDbSpline
210
0.0
220
0.0
230
1.0
 70
    15
 71
     2
 72
    22
 73
    19
 74
     0
 42
0.0000000001
 43
0.0000000001
 40
-2581.011064848845
 40
-2581.011064848845
 40
-2581.011064848845
 40
-2578.139015056563
 40
-2578.139015056563
 40
-2577.353616893166
 40
-2577.353616893166
 40
-2553.353616935937
 40
-2553.353616935937
 40
-2552.568218772539
 40
-2552.568218772539
 40
-2549.696168980258
 40
-2549.696168980258
 40
-2549.303469898559
 40
-2549.303469898559
 40
-2526.10221994133
 40
-2526.10221994133
 40
-2524.803469941329
 40
-2524.803469941329
 40
-2524.41077085963
 40
-2524.41077085963
 40
-2524.41077085963
 10
-28.45057042157659
 20
14.62503914815706
 30
0.0
 41
1.0
 10
-28.45057042157653
 20
16.06106404429786
 30
0.0
 41
1.0
 10
-28.45057042157647
 20
17.49708894043867
 30
0.0
 41
1.0
 10
-28.45057042157649
 20
17.99708894043868
 30
0.0
 41
0.7071067811865426
 10
-27.95057042157647
 20
17.99708894043867
 30
0.0
 41
1.0
 10
-22.25035720489848
 20
17.99708894043867
 30
0.0
 41
1.0
 10
9.30211044250638
 20
17.99708894043867
 30
0.0
 41
1.0
 10
9.802110442506352
 20
17.99708894043866
 30
0.0
 41
0.7071067811865627
 10
9.80211044250638
 20
17.49708894043867
 30
0.0
 41
1.0
 10
9.80211044250648
 20
16.06106404429786
 30
0.0
 41
1.0
 10
9.80211044250658
 20
14.62503914815707
 30
0.0
 41
1.0
 10
9.80211044250658
 20
14.37503914815707
 30
0.0
 41
0.7071067811865426
 10
9.55211044250658
 20
14.37503914815706
 30
0.0
 41
1.0
 10
-21.60098220489796
 20
14.37503914815706
 30
0.0
 41
1.0
 10
-26.90182042157564
 20
14.37503914815706
 30
0.0
 41
1.0
 10
-27.55119542157607
 20
14.37503914815706
 30
0.0
 41
1.0
 10
-28.2005704215765
 20
14.37503914815706
 30
0.0
 41
1.0
 10
-28.45057042157659
 20
14.37503914815699
 30
0.0
 41
0.707106781186427
 10
-28.45057042157659
 20
14.62503914815706
 30
0.0
 41
1.0
  0
SPLINE
  5
3D
330
1F
100
AcDbEntity
  8
Layer 01
100
AcDbSpline
210
0.0
220
0.0
230
1.0
 70
    12
 71
     2
 72
    10
 73
     7
 74
     0
 42
0.0000000001
 43
0.0000000001
 40
0.0
 40
0.0
 40
0.0
 40
22.32166540663653
 40
22.32166540663653
 40
23.10706357003397
 40
23.10706357003397
 40
34.69833270537369
 40
34.69833270537369
 40
34.69833270537369
 10
-32.59224780761613
 20
29.72912780620548
 30
0.0
 41
1.0
 10
-21.43141510429787
 20
29.72912780620548
 30
0.0
 41
1.0
 10
9.302110442506539
 20
29.72912780620548
 30
0.0
 41
1.0
 10
9.802110442506535
 20
29.72912780620537
 30
0.0
 41
0.70710678118655
 10
9.802110442506425
 20
29.22912780620537
 30
0.0
 41
1.0
 10
9.802110442506425
 20
23.43349323853552
 30
0.0
 41
1.0
 10
9.802110442506425
 20
17.63785867086567
 30
0.0
 41
1.0
  0
SPLINE
  5
3E
330
1F
100
AcDbEntity
  8
Layer 01
100
AcDbSpline
210
0.0
220
0.0
230
1.0
 70
    15
 71
     2
 72
    20
 73
    17
 74
     0
 42
0.0000000001
 43
0.0000000001
 40
201.8561944901975
 40
201.8561944901975
 40
201.8561944901975
 40
264.3561944901974
 40
264.3561944901974
 40
265.1415926535949
 40
265.1415926535949
 40
289.1415926535967
 40
289.1415926535967
 40
289.9269908169941
 40
289.9269908169941
 40
352.4269908169941
 40
352.4269908169941
 40
353.2123889803915
 40
353.2123889803915
 40
377.2123889803932
 40
377.2123889803932
 40
377.9977871437907
 40
377.9977871437907
 40
377.9977871437907
 10
9.302117958901281
 20
58.84018230528731
 30
0.0
 41
1.0
 10
-8.92401252247818
 20
58.84018230528731
 30
0.0
 41
1.0
 10
-30.95081365197647
 20
58.84018230528731
 30
0.0
 41
1.0
 10
-31.4508136519765
 20
58.84018230528731
 30
0.0
 41
0.7071067811865375
 10
-31.45081365197647
 20
58.34018230528729
 30
0.0
 41
1.0
 10
-31.45081365197647
 20
50.21525599047284
 30
0.0
 41
1.0
 10
-31.45081365197647
 20
40.6379585229849
 30
0.0
 41
1.0
 10
-31.45081365197645
 20
40.13795852298489
 30
0.0
 41
0.7071067811865551
 10
-30.95081365197647
 20
40.13795852298492
 30
0.0
 41
1.0
 10
-7.414040688894119
 20
40.13795852298492
 30
0.0
 41
1.0
 10
9.302117958901281
 20
40.13795852298492
 30
0.0
 41
1.0
 10
9.802117958901281
 20
40.1379585229849
 30
0.0
 41
0.7071067811865476
 10
9.802117958901281
 20
40.63795852298492
 30
0.0
 41
1.0
 10
9.802117958901281
 20
50.21525599047287
 30
0.0
 41
1.0
 10
9.802117958901281
 20
58.34018230528731
 30
0.0
 41
1.0
 10
9.802117958901274
 20
58.84018230528728
 30
0.0
 41
0.707106781186545
 10
9.302117958901281
 20
58.84018230528731
 30
0.0
 41
1.0
  0
SPLINE
  5
3F
330
1F
100
AcDbEntity
  8
Layer 01
100
AcDbSpline
210
0.0
220
0.0
230
1.0
 70
     8
 71
     3
 72
    18
 73
    14
 74
     0
 42
0.0000000001
 43
0.0000000001
 40
-64.98114690944844
 40
-64.98114690944844
 40
-64.98114690944844
 40
-64.98114690944844
 40
0.0000000000000009
 40
0.0000000000000009
 40
0.0000000000000009
 40
0.1164268758845156
 40
0.2328537517690304
 40
0.4657075035380599
 40
0.5821343794225746
 40
0.6985612553070895
 40
0.6985612553070895
 40
0.6985612553070895
 40
21.1790944341214
 40
21.1790944341214
 40
21.1790944341214
 40
21.1790944341214
 10
9.802117955386397
 20
61.07320902585262
 30
0.0
 10
-8.619012310767255
 20
61.07320883994301
 30
0.0
 10
-25.02325071418537
 20
61.07320865403337
 30
0.0
 10
-33.23115668176777
 20
61.07320846812375
 30
0.0
 10
-33.26674950732578
 20
61.06715281675547
 30
0.0
 10
-33.33845282318718
 20
61.04654472717759
 30
0.0
 10
-33.47491753402529
 20
60.97476334876784
 30
0.0
 10
-33.58745049373712
 20
60.86226709364438
 30
0.0
 10
-33.65927450277771
 20
60.72579928949152
 30
0.0
 10
-33.67989900344347
 20
60.65408821177975
 30
0.0
 10
-33.68595991440503
 20
60.61849171419196
 30
0.0
 10
-33.68596010341304
 20
53.79164732125386
 30
0.0
 10
-33.68596029242103
 20
46.96480292831575
 30
0.0
 10
-33.68596048142903
 20
40.13795853537765
 30
0.0
  0
SPLINE
  5
40
330
1F
100
AcDbEntity
  8
Layer 01
100
AcDbSpline
210
0.0
220
0.0
230
1.0
 70
    12
 71
     2
 72
    30
 73
    27
 74
     0
 42
0.0000000001
 43
0.0000000001
 40
-3.109438420000032
 40
-3.109438420000032
 40
-3.109438420000032
 40
2.189757698527387
 40
2.189757698527387
 40
2.975155860225331
 40
2.975155860225331
 40
20.67737962423837
 40
20.67737962423837
 40
21.46277778763555
 40
21.46277778763555
 40
83.66358166906649
 40
83.66358166906649
 40
84.44897983297616
 40
84.44897983297616
 40
89.7460741863537
 40
89.7460741863537
 40
90.53147234259009
 40
90.53147234259009
 40
159.0314723425979
 40
159.0314723425979
 40
159.4241714380999
 40
159.4241714380999
 40
159.8168705336019
 40
159.8168705336019
 40
183.8161896302306
 40
183.8161896302306
 40
184.5980979430872
 40
184.5980979430872
 40
184.5980979430872
 10
-37.2500097688044
 20
40.13795852326486
 30
0.0
 41
1.0
 10
-34.60041170954069
 20
40.13795853226979
 30
0.0
 41
1.0
 10
-31.95081365027698
 20
40.13795854127473
 30
0.0
 41
1.0
 10
-31.45081365197649
 20
40.13795854297402
 30
0.0
 41
0.7071067823882787
 10
-31.45081365197629
 20
40.63795854127453
 30
0.0
 41
1.0
 10
-31.45081365197628
 20
49.48907042328104
 30
0.0
 41
1.0
 10
-31.45081365197628
 20
58.34018230528754
 30
0.0
 41
1.0
 10
-31.45081365197602
 20
58.84018230528731
 30
0.0
 41
0.7071067811867284
 10
-30.95081365197628
 20
58.84018230528731
 30
0.0
 41
1.0
 10
-25.38266271550037
 20
58.84018230528731
 30
0.0
 41
1.0
 10
9.302117957160366
 20
58.84018230528731
 30
0.0
 41
1.0
 10
9.80211795767261
 20
58.84018230528728
 30
0.0
 41
0.707106780824336
 10
9.802117957160366
 20
59.34018230579956
 30
0.0
 41
1.0
 10
9.802117954449276
 20
61.9887294824883
 30
0.0
 41
1.0
 10
9.802117951738186
 20
64.63727665917706
 30
0.0
 41
1.0
 10
9.802117951738305
 20
65.13727665201603
 30
0.0
 41
0.7071067862501635
 10
9.302117958899348
 20
65.13727665917718
 30
0.0
 41
1.0
 10
-28.53227042832879
 20
65.13727714971638
 30
0.0
 41
1.0
 10
-37.2500290793721
 20
65.13727764025559
 30
0.0
 41
1.0
 10
-37.45713586864444
 20
65.13727764322186
 30
0.0
 41
0.9238795272289946
 10
-37.60358248182323
 20
64.99083102615218
 30
0.0
 41
1.0
 10
-37.75002909500204
 20
64.84438440908252
 30
0.0
 41
0.9238795272289946
 10
-37.75002908653327
 20
64.6372776198102
 30
0.0
 41
1.0
 10
-37.75002859586476
 20
52.63761807149585
 30
0.0
 41
1.0
 10
-37.75002810519625
 20
40.63795852318151
 30
0.0
 41
1.0
 10
-37.75003500380149
 20
40.14143236599887
 30
0.0
 41
0.7095625215404059
 10
-37.25352091392087
 20
40.13797066638945
 30
0.0
 41
1.0
  0
SPLINE
  5
41
330
1F
100
AcDbEntity
  8
Layer 01
100
AcDbSpline
210
0.0
220
0.0
230
1.0
 70
    15
 71
     2
 72
    20
 73
    17
 74
     0
 42
0.0000000001
 43
0.0000000001
 40
-6482.241760176043
 40
-6482.241760176043
 40
-6482.241760176043
 40
-6480.991760176043
 40
-6480.991760176043
 40
-6480.599061094345
 40
-6480.599061094345
 40
-6417.599061094345
 40
-6417.599061094345
 40
-6417.206362012646
 40
-6417.206362012646
 40
-6415.956362012646
 40
-6415.956362012646
 40
-6415.563662930947
 40
-6415.563662930947
 40
-6352.563662930947
 40
-6352.563662930947
 40
-6352.170963849248
 40
-6352.170963849248
 40
-6352.170963849248
 10
34.75000000000003
 20
12.87500000239918
 30
0.0
 41
1.0
 10
34.74999999999986
 20
13.50000000239918
 30
0.0
 41
1.0
 10
34.74999999999969
 20
14.12500000239918
 30
0.0
 41
1.0
 10
34.74999999999969
 20
14.37500000239918
 30
0.0
 41
0.7071067811865476
 10
34.49999999999969
 20
14.37500000239918
 30
0.0
 41
1.0
 10
2.999999999999744
 20
14.37500000239918
 30
0.0
 41
1.0
 10
-34.50000976880455
 20
14.37500000239918
 30
0.0
 41
1.0
 10
-34.75000976880455
 20
14.37500000239917
 30
0.0
 41
0.7071067811865426
 10
-34.75000976880455
 20
14.12500000239918
 30
0.0
 41
1.0
 10
-34.75000976880466
 20
13.50000000239918
 30
0.0
 41
1.0
 10
-34.75000976880477
 20
12.87500000239918
 30
0.0
 41
1.0
 10
-34.75000976880481
 20
12.62500000239891
 30
0.0
 41
0.7071067811861858
 10
-34.50000976880455
 20
12.62500000239912
 30
0.0
 41
1.0
 10
2.999999999999915
 20
12.62500000239915
 30
0.0
 41
1.0
 10
34.50000000000003
 20
12.62500000239918
 30
0.0
 41
1.0
 10
34.75000000000003
 20
12.62500000239918
 30
0.0
 41
0.707106781186545
 10
34.75000000000003
 20
12.87500000239918
 30
0.0
 41
1.0
  0
LINE
  5
42
330
1F
100
AcDbEntity
  8
Layer 01
100
AcDbLine
 10
-34.51545792591854
 20
14.37545611202285
 30
0.0
 11
-33.48249245431867
 21
14.37545611202285
 31
0.0
  0
POLYLINE
  5
43
330
1F
100
AcDbEntity
  8
Layer 01
100
AcDb2dPolyline
 66
     1
 10
0.0
 20
0.0
 30
0.0
  0
VERTEX
  5
44
330
43
100
AcDbEntity
  8
Layer 01
100
AcDbVertex
100
AcDb2dVertex
 10
-33.48249245431867
 20
14.37545611202285
 30
0.0
  0
VERTEX
  5
45
330
43
100
AcDbEntity
  8
Layer 01
100
AcDbVertex
100
AcDb2dVertex
 10
-28.6870938007836
 20
14.37545611202285
 30
0.0
  0
SEQEND
  5
46
330
43
100
AcDbEntity
  8
Layer 01
  0
SPLINE
  5
47
330
1F
100
AcDbEntity
  8
Layer 01
100
AcDbSpline
210
0.0
220
0.0
230
1.0
 70
    12
 71
     2
 72
     6
 73
     3
 74
     0
 42
0.0000000001
 43
0.0000000001
 40
0.0
 40
0.0
 40
0.0
 40
0.3786001376135906
 40
0.3786001376135906
 40
0.3786001376135906
 10
-28.6870938007836
 20
14.37545611202285
 30
0.0
 41
1.0
 10
-28.45123656990038
 20
14.38973549156164
 30
0.0
 41
0.7267410359880693
 10
-28.45220964010979
 20
14.62602989259341
 30
0.0
 41
1.0
  0
SPLINE
  5
48
330
1F
100
AcDbEntity
  8
Layer 01
100
AcDbSpline
210
0.0
220
0.0
230
1.0
 70
    12
 71
     2
 72
     6
 73
     3
 74
     0
 42
0.0000000001
 43
0.0000000001
 40
-0.0017423404607927
 40
-0.0017423404607927
 40
-0.0017423404607927
 40
0.0
 40
0.0
 40
0.0
 10
-28.45220964010979
 20
14.62602989259341
 30
0.0
 41
1.0
 10
-28.45133652581985
 20
14.62609694569441
 30
0.0
 41
0.9994397703759269
 10
-28.45046500130177
 20
14.62606046766764
 30
0.0
 41
0.9999999586676036
  0
LINE
  5
49
330
1F
100
AcDbEntity
  8
Layer 01
100
AcDbLine
 10
-28.45046500130178
 20
14.62606046766764
 30
0.0
 11
-28.45046500349882
 21
17.31204279852402
 31
0.0
  0
SPLINE
  5
4A
330
1F
100
AcDbEntity
  8
Layer 01
100
AcDbSpline
210
0.0
220
0.0
230
1.0
 70
     8
 71
     3
 72
    14
 73
    10
 74
     0
 42
0.0000000001
 43
0.0000000001
 40
-12.26203533468478
 40
-12.26203533468478
 40
-12.26203533468478
 40
-12.26203533468478
 40
-10.74358193232705
 40
-8.947613819412345
 40
-7.141201977474322
 40
-5.367291970666196
 40
-2.433620593354017
 40
-1.183560743342271
 40
0.0
 40
0.0
 40
0.0
 40
0.0
 10
-28.45046500349882
 20
17.31204279852402
 30
0.0
 10
-28.45955765941633
 20
17.81810309965219
 30
0.0
 10
-28.50952011156542
 20
18.92216990831379
 30
0.0
 10
-28.66340984808356
 20
20.62237700370646
 30
0.0
 10
-28.88276310484471
 20
22.40137396940447
 30
0.0
 10
-29.22963839496822
 20
24.54498231654527
 30
0.0
 10
-29.66682300792512
 20
26.48463194259185
 30
0.0
 10
-30.21611351975116
 20
28.18873419825304
 30
0.0
 10
-30.52173136997413
 20
28.94065262540013
 30
0.0
 10
-30.68560885050455
 20
29.29960367806983
 30
0.0
  0
LINE
  5
4B
330
1F
100
AcDbEntity
  8
Layer 01
100
AcDbLine
 10
-30.68560885050455
 20
29.29960367806983
 30
0.0
 11
-30.69645802248071
 21
29.32336729518687
 31
0.0
  0
ARC
  5
4C
330
1F
100
AcDbEntity
  8
Layer 01
100
AcDbCircle
 10
-31.15129794492587
 20
29.11571218460665
 30
0.0
 40
0.5
100
AcDbArc
 50
24.5388541044486
 51
80.9991774031581
  0
SPLINE
  5
4D
330
1F
100
AcDbEntity
  8
Layer 01
100
AcDbSpline
210
0.0
220
0.0
230
1.0
 70
    12
 71
     2
 72
     6
 73
     3
 74
     0
 42
0.0000000001
 43
0.0000000001
 40
-1.629194543905347
 40
-1.629194543905347
 40
-1.629194543905347
 40
0.0
 40
0.0
 40
0.0
 10
-31.07307362228156
 20
29.6095552318867
 30
0.0
 41
0.9999618433163424
 10
-31.87953744476668
 20
29.73729842195182
 30
0.0
 41
0.9964642919834154
 10
-32.69600917961929
 20
29.72857341280991
 30
0.0
 41
0.999999996566831
  0
SPLINE
  5
4E
330
1F
100
AcDbEntity
  8
Layer 01
100
AcDbSpline
210
0.0
220
0.0
230
1.0
 70
    12
 71
     2
 72
     6
 73
     3
 74
     0
 42
0.0000000001
 43
0.0000000001
 40
0.0
 40
0.0
 40
0.0
 40
1.638033214271802
 40
1.638033214271802
 40
1.638033214271802
 10
-32.69600917961929
 20
29.72857341280991
 30
0.0
 41
0.999999996566831
 10
-33.51692622151161
 20
29.73734592554918
 30
0.0
 41
0.9964451101567618
 10
-34.32766395390117
 20
29.60817005210217
 30
0.0
 41
1.0
  0
SPLINE
  5
4F
330
1F
100
AcDbEntity
  8
Layer 01
100
AcDbSpline
210
0.0
220
0.0
230
1.0
 70
    12
 71
     2
 72
     6
 73
     3
 74
     0
 42
0.0000000001
 43
0.0000000001
 40
0.0
 40
0.0
 40
0.0
 40
0.7070700636718217
 40
0.7070700636718217
 40
0.7070700636718217
 10
-34.32766395390117
 20
29.60817005210217
 30
0.0
 41
1.0
 10
-34.74966018377241
 20
29.54153760536828
 30
0.0
 41
0.760266553890503
 10
-34.74967945298552
 20
29.11431336992167
 30
0.0
 41
1.0
  0
SPLINE
  5
50
330
1F
100
AcDbEntity
  8
Layer 01
100
AcDbSpline
210
0.0
220
0.0
230
1.0
 70
    24
 71
     2
 72
     6
 73
     3
 74
     0
 42
0.0000000001
 43
0.0000000001
 40
-14.4893020002786
 40
-14.4893020002786
 40
-14.4893020002786
 40
0.0
 40
0.0
 40
0.0
 10
-34.74967945298552
 20
29.11431336992167
 30
0.0
 10
-34.7500183182492
 20
21.86966207059054
 30
0.0
 10
-34.75035718351288
 20
14.62501077125941
 30
0.0
  0
SPLINE
  5
51
330
1F
100
AcDbEntity
  8
Layer 01
100
AcDbSpline
210
0.0
220
0.0
230
1.0
 70
    12
 71
     2
 72
     6
 73
     3
 74
     0
 42
0.0000000001
 43
0.0000000001
 40
0.0
 40
0.0
 40
0.0
 40
0.3761352932874497
 40
0.3761352932874497
 40
0.3761352932874497
 10
-34.75035718351288
 20
14.62501077125941
 30
0.0
 41
1.0
 10
-34.75036970437917
 20
14.38966848030068
 30
0.0
 41
0.7194662149251728
 10
-34.51545792591855
 20
14.37545611202285
 30
0.0
 41
0.9763257704015883
  0
POLYLINE
  5
52
330
1F
100
AcDbEntity
  8
Layer 01
100
AcDb2dPolyline
 66
     1
 10
0.0
 20
0.0
 30
0.0
  0
VERTEX
  5
53
330
52
100
AcDbEntity
  8
Layer 01
100
AcDbVertex
100
AcDb2dVertex
 10
-24.41392100732929
 20
-0.0000000002171276
 30
0.0
  0
VERTEX
  5
54
330
52
100
AcDbEntity
  8
Layer 01
100
AcDbVertex
100
AcDb2dVertex
 10
-24.89809853473668
 20
0.0000000002171561
 30
0.0
  0
SEQEND
  5
55
330
52
100
AcDbEntity
  8
Layer 01
  0
SPLINE
  5
56
330
1F
100
AcDbEntity
  8
Layer 01
100
AcDbSpline
210
0.0
220
0.0
230
1.0
 70
    12
 71
     2
 72
     6
 73
     3
 74
     0
 42
0.0000000001
 43
0.0000000001
 40
0.0
 40
0.0
 40
0.0
 40
0.241924443334512
 40
0.241924443334512
 40
0.241924443334512
 10
-24.89809853473668
 20
0.0000000002171561
 30
0.0
 41
1.0
 10
-25.05100954890402
 20
0.0000000303540642
 30
0.0
 41
0.7141418074729331
 10
-25.05398087307441
 20
0.1529065059711314
 30
0.0
 41
1.0
  0
LINE
  5
57
330
1F
100
AcDbEntity
  8
Layer 01
100
AcDbLine
 10
-25.05398087307441
 20
0.1529065059711314
 30
0.0
 11
-25.05867947016515
 21
0.3750000023996023
 31
0.0
  0
LINE
  5
58
330
1F
100
AcDbEntity
  8
Layer 01
100
AcDbLine
 10
-25.05867947016515
 20
0.3750000023996023
 30
0.0
 11
-24.25387035419004
 21
0.3750000023996023
 31
0.0
  0
LINE
  5
59
330
1F
100
AcDbEntity
  8
Layer 01
100
AcDbLine
 10
-24.25387035419004
 20
0.3750000023996023
 30
0.0
 11
-24.25830381273266
 21
0.1529065037773165
 31
0.0
  0
SPLINE
  5
5A
330
1F
100
AcDbEntity
  8
Layer 01
100
AcDbSpline
210
0.0
220
0.0
230
1.0
 70
    12
 71
     2
 72
     6
 73
     3
 74
     0
 42
0.0000000001
 43
0.0000000001
 40
0.0
 40
0.0
 40
0.0
 40
0.2419244355107725
 40
0.2419244355107725
 40
0.2419244355107725
 10
-24.25830381273266
 20
0.1529065037773165
 30
0.0
 41
1.0
 10
-24.26100999933171
 20
0.0000000321587927
 30
0.0
 41
0.7141418153608741
 10
-24.41392100732929
 20
-0.0000000002171276
 30
0.0
 41
1.0
  0
POLYLINE
  5
5B
330
1F
100
AcDbEntity
  8
Layer 01
100
AcDb2dPolyline
 66
     1
 10
0.0
 20
0.0
 30
0.0
  0
VERTEX
  5
5C
330
5B
100
AcDbEntity
  8
Layer 01
100
AcDbVertex
100
AcDb2dVertex
 10
-27.7660094482074
 20
12.62500000235794
 30
0.0
  0
VERTEX
  5
5D
330
5B
100
AcDbEntity
  8
Layer 01
100
AcDbVertex
100
AcDb2dVertex
 10
-21.54600976880573
 20
12.62500000235794
 30
0.0
  0
SEQEND
  5
5E
330
5B
100
AcDbEntity
  8
Layer 01
  0
SPLINE
  5
5F
330
1F
100
AcDbEntity
  8
Layer 01
100
AcDbSpline
210
0.0
220
0.0
230
1.0
 70
    12
 71
     5
 72
    13
 73
     7
 74
     0
 42
0.0000000001
 43
0.0000000001
 40
-0.9999999998854913
 40
-0.9999999998854913
 40
-0.9999999998854913
 40
-0.9999999998854913
 40
-0.9999999998854913
 40
-0.9999999998854913
 40
-0.4999999999118557
 40
0.0000214316302039
 40
0.0000214316302039
 40
0.0000214316302039
 40
0.0000214316302039
 40
0.0000214316302039
 40
0.0000214316302039
 10
-21.54600976880573
 20
12.62500000235794
 30
0.0
 41
1.0
 10
-21.54601041484563
 20
12.56009560996311
 30
0.0
 41
1.0
 10
-21.5653094663499
 20
12.44654867131676
 30
0.0
 41
1.0
 10
-21.62320563901386
 20
12.36553619865929
 30
0.0
 41
1.0
 10
-21.71137470643595
 20
12.31002542084663
 30
0.0
 41
1.0
 10
-21.8260586955376
 20
12.27687454006865
 30
0.0
 41
1.0
 10
-21.89003033263708
 20
12.26588517969743
 30
0.0
 41
1.0
  0
SPLINE
  5
60
330
1F
100
AcDbEntity
  8
Layer 01
100
AcDbSpline
210
0.0
220
0.0
230
1.0
 70
    12
 71
     2
 72
     6
 73
     3
 74
     0
 42
0.0000000001
 43
0.0000000001
 40
0.0
 40
0.0
 40
0.0
 40
1.843263450064862
 40
1.843263450064862
 40
1.843263450064862
 10
-21.89003033263708
 20
12.26588517969743
 30
0.0
 41
1.0
 10
-22.79834969273367
 20
12.10980514713987
 30
0.0
 41
0.9999999999936852
 10
-23.7066700960516
 20
11.95373101772138
 30
0.0
 41
1.0
  0
SPLINE
  5
61
330
1F
100
AcDbEntity
  8
Layer 01
100
AcDbSpline
210
0.0
220
0.0
230
1.0
 70
    12
 71
     2
 72
     6
 73
     3
 74
     0
 42
0.0000000001
 43
0.0000000001
 40
0.0
 40
0.0
 40
0.0
 40
0.6997662170032295
 40
0.6997662170032295
 40
0.6997662170032295
 10
-23.7066700960516
 20
11.95373101772138
 30
0.0
 41
1.0
 10
-24.12153712877984
 20
11.88244667937158
 30
0.0
 41
0.7649870492777086
 10
-24.12199370804666
 20
11.4612011013861
 30
0.0
 41
1.0
  0
SPLINE
  5
62
330
1F
100
AcDbEntity
  8
Layer 01
100
AcDbSpline
210
0.0
220
0.0
230
1.0
 70
    12
 71
     3
 72
    13
 73
     9
 74
     0
 42
0.0000000001
 43
0.0000000001
 40
1.164116092654201
 40
1.164116092654201
 40
1.164116092654201
 40
1.164116092654201
 40
1.192754371812117
 40
1.192754371812117
 40
1.839154429652598
 40
2.485554487552516
 40
2.485554487552516
 40
2.941799361814759
 40
2.941799361814759
 40
2.941799361814759
 40
2.941799361814759
 10
-24.12199370804666
 20
11.4612011013861
 30
0.0
 41
1.0
 10
-24.12199286279548
 20
11.4513558361448
 30
0.0
 41
1.0
 10
-24.12199342166906
 20
11.44180974146305
 30
0.0
 41
1.0
 10
-24.12204296621502
 20
11.21679696863639
 30
0.0
 41
1.0
 10
-24.12412662666935
 20
10.78587479042527
 30
0.0
 41
1.0
 10
-24.13131436815803
 20
10.3550239901149
 30
0.0
 41
1.0
 10
-24.13711256835273
 20
9.987521416801442
 30
0.0
 41
1.0
 10
-24.13931337361447
 20
9.835444068753006
 30
0.0
 41
1.0
 10
-24.14108007367525
 20
9.682909845823687
 30
0.0
 41
1.0
  0
SPLINE
  5
63
330
1F
100
AcDbEntity
  8
Layer 01
100
AcDbSpline
210
0.0
220
0.0
230
1.0
 70
    12
 71
     2
 72
     6
 73
     3
 74
     0
 42
0.0000000001
 43
0.0000000001
 40
0.0
 40
0.0
 40
0.0
 40
0.0011199978112541
 40
0.0011199978112541
 40
0.0011199978112541
 10
-24.14108007367525
 20
9.682909845823687
 30
0.0
 41
1.0
 10
-24.14109778177605
 20
9.681893448860636
 30
0.0
 41
0.9999999565253123
 10
-24.14109778103108
 20
9.68133340951401
 30
0.0
 41
1.0
  0
SPLINE
  5
64
330
1F
100
AcDbEntity
  8
Layer 01
100
AcDbSpline
210
0.0
220
0.0
230
1.0
 70
    12
 71
     2
 72
     6
 73
     3
 74
     0
 42
0.0000000001
 43
0.0000000001
 40
0.0
 40
0.0
 40
0.0
 40
1.157563000328597
 40
1.157563000328597
 40
1.157563000328597
 10
-24.14109778103108
 20
9.68133340951401
 30
0.0
 41
1.0
 10
-24.14667349933025
 20
9.102576156243051
 30
0.0
 41
0.9999932729902123
 10
-24.14800953445553
 20
8.523792488378874
 30
0.0
 41
1.0
  0
SPLINE
  5
65
330
1F
100
AcDbEntity
  8
Layer 01
100
AcDbSpline
210
0.0
220
0.0
230
1.0
 70
    12
 71
     3
 72
    12
 73
     8
 74
     0
 42
0.0000000001
 43
0.0000000001
 40
0.0000022290245399
 40
0.0000022290245399
 40
0.0000022290245399
 40
0.0000022290245399
 40
2.973330383277389
 40
2.973330383277389
 40
5.533332299297856
 40
5.533332299297856
 40
8.0907540207247
 40
8.0907540207247
 40
8.0907540207247
 40
8.0907540207247
 10
-24.14800953445553
 20
8.523792488378874
 30
0.0
 41
1.0
 10
-24.1517527443313
 20
7.533012356544688
 30
0.0
 41
1.0
 10
-24.16188932155018
 20
6.54216650522865
 30
0.0
 41
1.0
 10
-24.18683335844645
 20
4.698546802840909
 30
0.0
 41
1.0
 10
-24.20069263451541
 20
3.846004306662124
 30
0.0
 41
1.0
 10
-24.22804309587451
 20
2.140986238235897
 30
0.0
 41
1.0
 10
-24.2414520092446
 20
1.289616091246202
 30
0.0
 41
1.0
 10
-24.25268958863802
 20
0.4374291487057889
 30
0.0
 41
1.0
  0
SPLINE
  5
66
330
1F
100
AcDbEntity
  8
Layer 01
100
AcDbSpline
210
0.0
220
0.0
230
1.0
 70
    12
 71
     2
 72
     6
 73
     3
 74
     0
 42
0.0000000001
 43
0.0000000001
 40
0.0
 40
0.0
 40
0.0
 40
0.0970316672143772
 40
0.0970316672143772
 40
0.0970316672143772
 10
-24.25268958863802
 20
0.4374291487057889
 30
0.0
 41
1.0
 10
-24.25326818537279
 20
0.3763075181237031
 30
0.0
 41
0.717857630247824
 10
-24.31435421272016
 20
0.3750140462356484
 30
0.0
 41
1.0
  0
POLYLINE
  5
67
330
1F
100
AcDbEntity
  8
Layer 01
100
AcDb2dPolyline
 66
     1
 10
0.0
 20
0.0
 30
0.0
  0
VERTEX
  5
68
330
67
100
AcDbEntity
  8
Layer 01
100
AcDbVertex
100
AcDb2dVertex
 10
-24.31435421272016
 20
0.3750140462356484
 30
0.0
  0
VERTEX
  5
69
330
67
100
AcDbEntity
  8
Layer 01
100
AcDbVertex
100
AcDb2dVertex
 10
-24.99633424129257
 20
0.3750000024411833
 30
0.0
  0
SEQEND
  5
6A
330
67
100
AcDbEntity
  8
Layer 01
  0
SPLINE
  5
6B
330
1F
100
AcDbEntity
  8
Layer 01
100
AcDbSpline
210
0.0
220
0.0
230
1.0
 70
    12
 71
     2
 72
     6
 73
     3
 74
     0
 42
0.0000000001
 43
0.0000000001
 40
0.0
 40
0.0
 40
0.0
 40
0.0983105351425802
 40
0.0983105351425802
 40
0.0983105351425802
 10
-24.99633424129257
 20
0.3750000024411833
 30
0.0
 41
1.0
 10
-25.05869007771869
 20
0.3749980708600117
 30
0.0
 41
0.7107094273922171
 10
-25.05932899132978
 20
0.4373708929651769
 30
0.0
 41
1.0
  0
SPLINE
  5
6C
330
1F
100
AcDbEntity
  8
Layer 01
100
AcDbSpline
210
0.0
220
0.0
230
1.0
 70
    12
 71
     3
 72
    12
 73
     8
 74
     0
 42
0.0000000001
 43
0.0000000001
 40
0.0025122088885125
 40
0.0025122088885125
 40
0.0025122088885125
 40
0.0025122088885125
 40
2.559996601448771
 40
2.559996601448771
 40
5.119998517672128
 40
5.119998517672128
 40
8.093326489272172
 40
8.093326489272172
 40
8.093326489272172
 40
8.093326489272172
 10
-25.05932899132978
 20
0.4373708929651769
 30
0.0
 41
1.0
 10
-25.07056687118148
 20
1.289574364790255
 30
0.0
 41
1.0
 10
-25.08397610678759
 20
2.140965357733293
 30
0.0
 41
1.0
 10
-25.11132690309847
 20
3.846004306932386
 30
0.0
 41
1.0
 10
-25.12518617916834
 20
4.698546803178786
 30
0.0
 41
1.0
 10
-25.15013021524061
 20
6.542166444777067
 30
0.0
 41
1.0
 10
-25.16026679203611
 20
7.533012235214116
 30
0.0
 41
1.0
 10
-25.1640100028099
 20
8.523792397285732
 30
0.0
 41
1.0
  0
SPLINE
  5
6D
330
1F
100
AcDbEntity
  8
Layer 01
100
AcDbSpline
210
0.0
220
0.0
230
1.0
 70
    12
 71
     2
 72
     6
 73
     3
 74
     0
 42
0.0000000001
 43
0.0000000001
 40
0.0
 40
0.0
 40
0.0
 40
1.157566753814006
 40
1.157566753814006
 40
1.157566753814006
 10
-25.1640100028099
 20
8.523792397285732
 30
0.0
 41
1.0
 10
-25.16535786626549
 20
9.102577944119407
 30
0.0
 41
0.9999934222404667
 10
-25.17090992930336
 20
9.681337225291111
 30
0.0
 41
0.9999999999999121
  0
SPLINE
  5
6E
330
1F
100
AcDbEntity
  8
Layer 01
100
AcDbSpline
210
0.0
220
0.0
230
1.0
 70
    12
 71
     2
 72
     6
 73
     3
 74
     0
 42
0.0000000001
 43
0.0000000001
 40
0.0
 40
0.0
 40
0.0
 40
0.0011163185374098
 40
0.0011163185374098
 40
0.0011163185374098
 10
-25.17090992930326
 20
9.681337225291102
 30
0.0
 41
1.0
 10
-25.17092177497347
 20
9.68189528839913
 30
0.0
 41
0.9999999568108967
 10
-25.17092742304698
 20
9.682909979841568
 30
0.0
 41
1.0
  0
SPLINE
  5
6F
330
1F
100
AcDbEntity
  8
Layer 01
100
AcDbSpline
210
0.0
220
0.0
230
1.0
 70
    12
 71
     3
 72
    13
 73
     9
 74
     0
 42
0.0000000001
 43
0.0000000001
 40
1.159780968969077
 40
1.159780968969077
 40
1.159780968969077
 40
1.159780968969077
 40
1.219999999483621
 40
1.219999999483621
 40
1.859999999216523
 40
1.859999999216523
 40
2.49999999917158
 40
2.937447200127758
 40
2.937447200127758
 40
2.937447200127758
 40
2.937447200127758
 10
-25.17092742304698
 20
9.682909979841568
 30
0.0
 41
1.0
 10
-25.17115548839826
 20
9.703438966347719
 30
0.0
 41
1.0
 10
-25.17139196559282
 20
9.723511031694542
 30
0.0
 41
1.0
 10
-25.17423917436435
 20
9.956899993741146
 30
0.0
 41
1.0
 10
-25.17785419392732
 20
10.17023320478073
 30
0.0
 41
1.0
 10
-25.18448646748772
 20
10.59684831315657
 30
0.0
 41
1.0
 10
-25.18917120103555
 20
10.95596334870554
 30
0.0
 41
1.0
 10
-25.19002138041861
 20
11.31509077060544
 30
0.0
 41
1.0
 10
-25.19002074497263
 20
11.46118232485979
 30
0.0
 41
1.0
  0
SPLINE
  5
70
330
1F
100
AcDbEntity
  8
Layer 01
100
AcDbSpline
210
0.0
220
0.0
230
1.0
 70
    12
 71
     2
 72
     6
 73
     3
 74
     0
 42
0.0000000001
 43
0.0000000001
 40
0.0
 40
0.0
 40
0.0
 40
0.6998000892342029
 40
0.6998000892342029
 40
0.6998000892342029
 10
-25.19002074497263
 20
11.46118232485979
 30
0.0
 41
1.0
 10
-25.19045984526915
 20
11.88243362283055
 30
0.0
 41
0.764976675619346
 10
-25.60534943655392
 20
11.95373104660409
 30
0.0
 41
1.0
  0
SPLINE
  5
71
330
1F
100
AcDbEntity
  8
Layer 01
100
AcDbSpline
210
0.0
220
0.0
230
1.0
 70
    12
 71
     2
 72
     6
 73
     3
 74
     0
 42
0.0000000001
 43
0.0000000001
 40
0.0
 40
0.0
 40
0.0
 40
1.843263134159366
 40
1.843263134159366
 40
1.843263134159366
 10
-25.60534943655392
 20
11.95373104660409
 30
0.0
 41
1.0
 10
-26.51366968914001
 20
12.10980512042262
 30
0.0
 41
0.999999999993685
 10
-27.42198888896979
 20
12.26588515296332
 30
0.0
 41
1.0
  0
SPLINE
  5
72
330
1F
100
AcDbEntity
  8
Layer 01
100
AcDbSpline
210
0.0
220
0.0
230
1.0
 70
    12
 71
     5
 72
    13
 73
     7
 74
     0
 42
0.0000000001
 43
0.0000000001
 40
-0.0000214316302125
 40
-0.0000214316302125
 40
-0.0000214316302125
 40
-0.0000214316302125
 40
-0.0000214316302125
 40
-0.0000214316302125
 40
0.4999999999109885
 40
0.9999999998854894
 40
0.9999999998854894
 40
0.9999999998854894
 40
0.9999999998854894
 40
0.9999999998854894
 40
0.9999999998854894
 10
-27.42198888896979
 20
12.26588515296332
 30
0.0
 41
1.0
 10
-27.48596052147644
 20
12.27687454006887
 30
0.0
 41
1.0
 10
-27.60064451057775
 20
12.31002542084691
 30
0.0
 41
1.0
 10
-27.68881357799961
 20
12.36553619865954
 30
0.0
 41
1.0
 10
-27.74670975066334
 20
12.44654867131696
 30
0.0
 41
1.0
 10
-27.76600880216762
 20
12.56009560996311
 30
0.0
 41
1.0
 10
-27.7660094482074
 20
12.62500000235794
 30
0.0
 41
1.0
  0
SPLINE
  5
73
330
1F
100
AcDbEntity
  8
Layer 01
100
AcDbSpline
210
0.0
220
0.0
230
1.0
 70
    24
 71
     2
 72
     6
 73
     3
 74
     0
 42
0.0000000001
 43
0.0000000001
 40
0.0
 40
0.0
 40
0.0
 40
2.872049792281604
 40
2.872049792281604
 40
2.872049792281604
 10
9.802110442506347
 20
14.62503914793994
 30
0.0
 10
9.802110442506404
 20
16.06106404408074
 30
0.0
 10
9.80211044250646
 20
17.49708894022153
 30
0.0
  0
SPLINE
  5
74
330
1F
100
AcDbEntity
  8
Layer 01
100
AcDbSpline
210
0.0
220
0.0
230
1.0
 70
    12
 71
     2
 72
     6
 73
     3
 74
     0
 42
0.0000000001
 43
0.0000000001
 40
0.0
 40
0.0
 40
0.0
 40
0.7853981633974554
 40
0.7853981633974554
 40
0.7853981633974554
 10
9.80211044250646
 20
17.49708894022153
 30
0.0
 41
1.0
 10
9.802110442506565
 20
17.99708894022155
 30
0.0
 41
0.7071067811865426
 10
10.30211044250646
 20
17.99708894022153
 30
0.0
 41
1.0
  0
SPLINE
  5
75
330
1F
100
AcDbEntity
  8
Layer 01
100
AcDbSpline
210
0.0
220
0.0
230
1.0
 70
    24
 71
     2
 72
     6
 73
     3
 74
     0
 42
0.0000000001
 43
0.0000000001
 40
0.0
 40
0.0
 40
0.0
 40
23.99999995722946
 40
23.99999995722946
 40
23.99999995722946
 10
10.30211044250646
 20
17.99708894022153
 30
0.0
 10
22.30211042112123
 20
17.99708894022153
 30
0.0
 10
34.30211039973599
 20
17.99708894022153
 30
0.0
  0
SPLINE
  5
76
330
1F
100
AcDbEntity
  8
Layer 01
100
AcDbSpline
210
0.0
220
0.0
230
1.0
 70
    12
 71
     2
 72
     6
 73
     3
 74
     0
 42
0.0000000001
 43
0.0000000001
 40
0.0
 40
0.0
 40
0.0
 40
0.7853981633974382
 40
0.7853981633974382
 40
0.7853981633974382
 10
34.30211039973599
 20
17.99708894022153
 30
0.0
 41
1.0
 10
34.80211039973609
 20
17.99708894022155
 30
0.0
 41
0.7071067811865627
 10
34.80211039973599
 20
17.49708894022153
 30
0.0
 41
1.0
  0
SPLINE
  5
77
330
1F
100
AcDbEntity
  8
Layer 01
100
AcDbSpline
210
0.0
220
0.0
230
1.0
 70
    24
 71
     2
 72
     6
 73
     3
 74
     0
 42
0.0000000001
 43
0.0000000001
 40
0.0
 40
0.0
 40
0.0
 40
2.872049792281601
 40
2.872049792281601
 40
2.872049792281601
 10
34.80211039973599
 20
17.49708894022153
 30
0.0
 10
34.80211039973611
 20
16.06106404408074
 30
0.0
 10
34.80211039973622
 20
14.62503914793994
 30
0.0
  0
ARC
  5
78
330
1F
100
AcDbEntity
  8
Layer 01
100
AcDbCircle
 10
34.55211039973622
 20
14.62503914793994
 30
0.0
 40
0.25
100
AcDbArc
 50
270.0
 51
0.0000000000008142
  0
POLYLINE
  5
79
330
1F
100
AcDbEntity
  8
Layer 01
100
AcDb2dPolyline
 66
     1
 10
0.0
 20
0.0
 30
0.0
  0
VERTEX
  5
7A
330
79
100
AcDbEntity
  8
Layer 01
100
AcDbVertex
100
AcDb2dVertex
 10
34.55211039973622
 20
14.37503914793994
 30
0.0
  0
VERTEX
  5
7B
330
79
100
AcDbEntity
  8
Layer 01
100
AcDbVertex
100
AcDb2dVertex
 10
11.3508604425073
 20
14.37503914793994
 30
0.0
  0
SEQEND
  5
7C
330
79
100
AcDbEntity
  8
Layer 01
  0
LINE
  5
7D
330
1F
100
AcDbEntity
  8
Layer 01
100
AcDbLine
 10
11.3508604425073
 20
14.37503914793994
 30
0.0
 11
10.05211044250646
 21
14.37503914793994
 31
0.0
  0
ARC
  5
7E
330
1F
100
AcDbEntity
  8
Layer 01
100
AcDbCircle
 10
10.05211044250635
 20
14.62503914793994
 30
0.0
 40
0.25
100
AcDbArc
 50
180.0
 51
270.0000000000196
  0
POLYLINE
  5
7F
330
1F
100
AcDbEntity
  8
Layer 01
100
AcDb2dPolyline
 66
     1
 10
0.0
 20
0.0
 30
0.0
  0
VERTEX
  5
80
330
7F
100
AcDbEntity
  8
Layer 01
100
AcDbVertex
100
AcDb2dVertex
 10
10.55211795890128
 20
40.1879585229858
 30
0.0
  0
VERTEX
  5
81
330
7F
100
AcDbEntity
  8
Layer 01
100
AcDbVertex
100
AcDb2dVertex
 10
33.95211795890137
 20
40.1879585229858
 30
0.0
  0
SEQEND
  5
82
330
7F
100
AcDbEntity
  8
Layer 01
  0
ARC
  5
83
330
1F
100
AcDbEntity
  8
Layer 01
100
AcDbCircle
 10
33.95211795890137
 20
40.9379585229858
 30
0.0
 40
0.75
100
AcDbArc
 50
270.0
 51
0.0000000000005428
  0
POLYLINE
  5
84
330
1F
100
AcDbEntity
  8
Layer 01
100
AcDb2dPolyline
 66
     1
 10
0.0
 20
0.0
 30
0.0
  0
VERTEX
  5
85
330
84
100
AcDbEntity
  8
Layer 01
100
AcDbVertex
100
AcDb2dVertex
 10
34.70211795890137
 20
40.9379585229858
 30
0.0
  0
VERTEX
  5
86
330
84
100
AcDbEntity
  8
Layer 01
100
AcDbVertex
100
AcDb2dVertex
 10
34.70211795890137
 20
64.33795852298577
 30
0.0
  0
SEQEND
  5
87
330
84
100
AcDbEntity
  8
Layer 01
  0
ARC
  5
88
330
1F
100
AcDbEntity
  8
Layer 01
100
AcDbCircle
 10
33.95211795890137
 20
64.33795852298577
 30
0.0
 40
0.75
100
AcDbArc
 50
0.0
 51
90.00000000000054
  0
POLYLINE
  5
89
330
1F
100
AcDbEntity
  8
Layer 01
100
AcDb2dPolyline
 66
     1
 10
0.0
 20
0.0
 30
0.0
  0
VERTEX
  5
8A
330
89
100
AcDbEntity
  8
Layer 01
100
AcDbVertex
100
AcDb2dVertex
 10
33.95211795890137
 20
65.08795852298577
 30
0.0
  0
VERTEX
  5
8B
330
89
100
AcDbEntity
  8
Layer 01
100
AcDbVertex
100
AcDb2dVertex
 10
10.55211795890128
 20
65.08795852298577
 30
0.0
  0
SEQEND
  5
8C
330
89
100
AcDbEntity
  8
Layer 01
  0
ARC
  5
8D
330
1F
100
AcDbEntity
  8
Layer 01
100
AcDbCircle
 10
10.55211795890128
 20
64.33795852298577
 30
0.0
 40
0.75
100
AcDbArc
 50
90.0
 51
180.0
  0
POLYLINE
  5
8E
330
1F
100
AcDbEntity
  8
Layer 01
100
AcDb2dPolyline
 66
     1
 10
0.0
 20
0.0
 30
0.0
  0
VERTEX
  5
8F
330
8E
100
AcDbEntity
  8
Layer 01
100
AcDbVertex
100
AcDb2dVertex
 10
9.802117958901277
 20
64.33795852298577
 30
0.0
  0
VERTEX
  5
90
330
8E
100
AcDbEntity
  8
Layer 01
100
AcDbVertex
100
AcDb2dVertex
 10
9.802117958901277
 20
40.9379585229858
 30
0.0
  0
SEQEND
  5
91
330
8E
100
AcDbEntity
  8
Layer 01
  0
ARC
  5
92
330
1F
100
AcDbEntity
  8
Layer 01
100
AcDbCircle
 10
10.55211795890128
 20
40.9379585229858
 30
0.0
 40
0.75
100
AcDbArc
 50
180.0
 51
270.0
  0
POLYLINE
  5
93
330
1F
100
AcDbEntity
  8
Layer 01
100
AcDb2dPolyline
 66
     1
 10
0.0
 20
0.0
 30
0.0
  0
VERTEX
  5
94
330
93
100
AcDbEntity
  8
Layer 01
100
AcDbVertex
100
AcDb2dVertex
 10
24.41390664184954
 20
-0.0000000002171276
 30
0.0
  0
VERTEX
  5
95
330
93
100
AcDbEntity
  8
Layer 01
100
AcDbVertex
100
AcDb2dVertex
 10
24.89808416925692
 20
0.0000000002171561
 30
0.0
  0
SEQEND
  5
96
330
93
100
AcDbEntity
  8
Layer 01
  0
SPLINE
  5
97
330
1F
100
AcDbEntity
  8
Layer 01
100
AcDbSpline
210
0.0
220
0.0
230
1.0
 70
    12
 71
     2
 72
     6
 73
     3
 74
     0
 42
0.0000000001
 43
0.0000000001
 40
0.0
 40
0.0
 40
0.0
 40
0.241924443334512
 40
0.241924443334512
 40
0.241924443334512
 10
24.89808416925692
 20
0.0000000002171561
 30
0.0
 41
1.0
 10
25.0509951834242
 20
0.0000000303540642
 30
0.0
 41
0.7141418074729331
 10
25.05396650759465
 20
0.1529065059711314
 30
0.0
 41
1.0
  0
LINE
  5
98
330
1F
100
AcDbEntity
  8
Layer 01
100
AcDbLine
 10
25.05396650759465
 20
0.1529065059711314
 30
0.0
 11
25.05866510468528
 21
0.3750000023996023
 31
0.0
  0
LINE
  5
99
330
1F
100
AcDbEntity
  8
Layer 01
100
AcDbLine
 10
25.05866510468528
 20
0.3750000023996023
 30
0.0
 11
24.25385598871017
 21
0.3750000023996023
 31
0.0
  0
LINE
  5
9A
330
1F
100
AcDbEntity
  8
Layer 01
100
AcDbLine
 10
24.25385598871017
 20
0.3750000023996023
 30
0.0
 11
24.25828944725279
 21
0.1529065037773165
 31
0.0
  0
SPLINE
  5
9B
330
1F
100
AcDbEntity
  8
Layer 01
100
AcDbSpline
210
0.0
220
0.0
230
1.0
 70
    12
 71
     2
 72
     6
 73
     3
 74
     0
 42
0.0000000001
 43
0.0000000001
 40
0.0
 40
0.0
 40
0.0
 40
0.2419244355107725
 40
0.2419244355107725
 40
0.2419244355107725
 10
24.25828944725279
 20
0.1529065037773165
 30
0.0
 41
1.0
 10
24.2609956338518
 20
0.0000000321587927
 30
0.0
 41
0.7141418153608741
 10
24.41390664184954
 20
-0.0000000002171276
 30
0.0
 41
1.0
  0
POLYLINE
  5
9C
330
1F
100
AcDbEntity
  8
Layer 01
100
AcDb2dPolyline
 66
     1
 10
0.0
 20
0.0
 30
0.0
  0
VERTEX
  5
9D
330
9C
100
AcDbEntity
  8
Layer 01
100
AcDbVertex
100
AcDb2dVertex
 10
27.76599508272764
 20
12.62500000235794
 30
0.0
  0
VERTEX
  5
9E
330
9C
100
AcDbEntity
  8
Layer 01
100
AcDbVertex
100
AcDb2dVertex
 10
21.54599540332597
 20
12.62500000235794
 30
0.0
  0
SEQEND
  5
9F
330
9C
100
AcDbEntity
  8
Layer 01
  0
SPLINE
  5
A0
330
1F
100
AcDbEntity
  8
Layer 01
100
AcDbSpline
210
0.0
220
0.0
230
1.0
 70
    12
 71
     5
 72
    13
 73
     7
 74
     0
 42
0.0000000001
 43
0.0000000001
 40
-0.9999999998854913
 40
-0.9999999998854913
 40
-0.9999999998854913
 40
-0.9999999998854913
 40
-0.9999999998854913
 40
-0.9999999998854913
 40
-0.4999999999118557
 40
0.0000214316302039
 40
0.0000214316302039
 40
0.0000214316302039
 40
0.0000214316302039
 40
0.0000214316302039
 40
0.0000214316302039
 10
21.54599540332597
 20
12.62500000235794
 30
0.0
 41
1.0
 10
21.54599604936575
 20
12.56009560996311
 30
0.0
 41
1.0
 10
21.56529510087003
 20
12.44654867131676
 30
0.0
 41
1.0
 10
21.62319127353399
 20
12.36553619865929
 30
0.0
 41
1.0
 10
21.71136034095608
 20
12.31002542084663
 30
0.0
 41
1.0
 10
21.82604433005773
 20
12.27687454006865
 30
0.0
 41
1.0
 10
21.89001596715721
 20
12.26588517969743
 30
0.0
 41
1.0
  0
SPLINE
  5
A1
330
1F
100
AcDbEntity
  8
Layer 01
100
AcDbSpline
210
0.0
220
0.0
230
1.0
 70
    12
 71
     2
 72
     6
 73
     3
 74
     0
 42
0.0000000001
 43
0.0000000001
 40
0.0
 40
0.0
 40
0.0
 40
1.843263450064862
 40
1.843263450064862
 40
1.843263450064862
 10
21.89001596715721
 20
12.26588517969743
 30
0.0
 41
1.0
 10
22.79833532725385
 20
12.10980514713987
 30
0.0
 41
0.9999999999936852
 10
23.70665573057184
 20
11.95373101772138
 30
0.0
 41
1.0
  0
SPLINE
  5
A2
330
1F
100
AcDbEntity
  8
Layer 01
100
AcDbSpline
210
0.0
220
0.0
230
1.0
 70
    12
 71
     2
 72
     6
 73
     3
 74
     0
 42
0.0000000001
 43
0.0000000001
 40
0.0
 40
0.0
 40
0.0
 40
0.6997662170032295
 40
0.6997662170032295
 40
0.6997662170032295
 10
23.70665573057184
 20
11.95373101772138
 30
0.0
 41
1.0
 10
24.12152276330008
 20
11.88244667937158
 30
0.0
 41
0.7649870492777086
 10
24.1219793425669
 20
11.4612011013861
 30
0.0
 41
1.0
  0
SPLINE
  5
A3
330
1F
100
AcDbEntity
  8
Layer 01
100
AcDbSpline
210
0.0
220
0.0
230
1.0
 70
    12
 71
     3
 72
    13
 73
     9
 74
     0
 42
0.0000000001
 43
0.0000000001
 40
1.164116092654201
 40
1.164116092654201
 40
1.164116092654201
 40
1.164116092654201
 40
1.192754371812117
 40
1.192754371812117
 40
1.839154429652598
 40
2.485554487552516
 40
2.485554487552516
 40
2.941799361814759
 40
2.941799361814759
 40
2.941799361814759
 40
2.941799361814759
 10
24.1219793425669
 20
11.4612011013861
 30
0.0
 41
1.0
 10
24.12197849731572
 20
11.4513558361448
 30
0.0
 41
1.0
 10
24.1219790561893
 20
11.44180974146305
 30
0.0
 41
1.0
 10
24.12202860073526
 20
11.21679696863639
 30
0.0
 41
1.0
 10
24.12411226118959
 20
10.78587479042527
 30
0.0
 41
1.0
 10
24.13130000267816
 20
10.3550239901149
 30
0.0
 41
1.0
 10
24.13709820287286
 20
9.987521416801442
 30
0.0
 41
1.0
 10
24.1392990081346
 20
9.835444068753006
 30
0.0
 41
1.0
 10
24.14106570819538
 20
9.682909845823687
 30
0.0
 41
1.0
  0
SPLINE
  5
A4
330
1F
100
AcDbEntity
  8
Layer 01
100
AcDbSpline
210
0.0
220
0.0
230
1.0
 70
    12
 71
     2
 72
     6
 73
     3
 74
     0
 42
0.0000000001
 43
0.0000000001
 40
0.0
 40
0.0
 40
0.0
 40
0.0011199978112541
 40
0.0011199978112541
 40
0.0011199978112541
 10
24.14106570819538
 20
9.682909845823687
 30
0.0
 41
1.0
 10
24.14108341629623
 20
9.681893448860636
 30
0.0
 41
0.9999999565253123
 10
24.14108341555121
 20
9.68133340951401
 30
0.0
 41
1.0
  0
SPLINE
  5
A5
330
1F
100
AcDbEntity
  8
Layer 01
100
AcDbSpline
210
0.0
220
0.0
230
1.0
 70
    12
 71
     2
 72
     6
 73
     3
 74
     0
 42
0.0000000001
 43
0.0000000001
 40
0.0
 40
0.0
 40
0.0
 40
1.157563000328597
 40
1.157563000328597
 40
1.157563000328597
 10
24.14108341555121
 20
9.68133340951401
 30
0.0
 41
1.0
 10
24.14665913385041
 20
9.102576156243051
 30
0.0
 41
0.9999932729902123
 10
24.14799516897565
 20
8.523792488378874
 30
0.0
 41
1.0
  0
SPLINE
  5
A6
330
1F
100
AcDbEntity
  8
Layer 01
100
AcDbSpline
210
0.0
220
0.0
230
1.0
 70
    12
 71
     3
 72
    12
 73
     8
 74
     0
 42
0.0000000001
 43
0.0000000001
 40
0.0000022290245399
 40
0.0000022290245399
 40
0.0000022290245399
 40
0.0000022290245399
 40
2.973330383277389
 40
2.973330383277389
 40
5.533332299297856
 40
5.533332299297856
 40
8.0907540207247
 40
8.0907540207247
 40
8.0907540207247
 40
8.0907540207247
 10
24.14799516897565
 20
8.523792488378874
 30
0.0
 41
1.0
 10
24.15173837885143
 20
7.533012356544688
 30
0.0
 41
1.0
 10
24.16187495607042
 20
6.54216650522865
 30
0.0
 41
1.0
 10
24.18681899296669
 20
4.698546802840909
 30
0.0
 41
1.0
 10
24.20067826903565
 20
3.846004306662124
 30
0.0
 41
1.0
 10
24.22802873039475
 20
2.140986238235897
 30
0.0
 41
1.0
 10
24.24143764376473
 20
1.289616091246202
 30
0.0
 41
1.0
 10
24.25267522315815
 20
0.4374291487057889
 30
0.0
 41
1.0
  0
SPLINE
  5
A7
330
1F
100
AcDbEntity
  8
Layer 01
100
AcDbSpline
210
0.0
220
0.0
230
1.0
 70
    12
 71
     2
 72
     6
 73
     3
 74
     0
 42
0.0000000001
 43
0.0000000001
 40
0.0
 40
0.0
 40
0.0
 40
0.0970316672143772
 40
0.0970316672143772
 40
0.0970316672143772
 10
24.25267522315815
 20
0.4374291487057889
 30
0.0
 41
1.0
 10
24.25325381989306
 20
0.3763075181237031
 30
0.0
 41
0.717857630247824
 10
24.31433984724029
 20
0.3750140462356484
 30
0.0
 41
1.0
  0
POLYLINE
  5
A8
330
1F
100
AcDbEntity
  8
Layer 01
100
AcDb2dPolyline
 66
     1
 10
0.0
 20
0.0
 30
0.0
  0
VERTEX
  5
A9
330
A8
100
AcDbEntity
  8
Layer 01
100
AcDbVertex
100
AcDb2dVertex
 10
24.31433984724029
 20
0.3750140462356484
 30
0.0
  0
VERTEX
  5
AA
330
A8
100
AcDbEntity
  8
Layer 01
100
AcDbVertex
100
AcDb2dVertex
 10
24.9963198758127
 20
0.3750000024411833
 30
0.0
  0
SEQEND
  5
AB
330
A8
100
AcDbEntity
  8
Layer 01
  0
SPLINE
  5
AC
330
1F
100
AcDbEntity
  8
Layer 01
100
AcDbSpline
210
0.0
220
0.0
230
1.0
 70
    12
 71
     2
 72
     6
 73
     3
 74
     0
 42
0.0000000001
 43
0.0000000001
 40
0.0
 40
0.0
 40
0.0
 40
0.0983105351425802
 40
0.0983105351425802
 40
0.0983105351425802
 10
24.9963198758127
 20
0.3750000024411833
 30
0.0
 41
1.0
 10
25.05867571223884
 20
0.3749980708600117
 30
0.0
 41
0.7107094273922171
 10
25.05931462585002
 20
0.4373708929651769
 30
0.0
 41
1.0
  0
SPLINE
  5
AD
330
1F
100
AcDbEntity
  8
Layer 01
100
AcDbSpline
210
0.0
220
0.0
230
1.0
 70
    12
 71
     3
 72
    12
 73
     8
 74
     0
 42
0.0000000001
 43
0.0000000001
 40
0.0025122088885125
 40
0.0025122088885125
 40
0.0025122088885125
 40
0.0025122088885125
 40
2.559996601448771
 40
2.559996601448771
 40
5.119998517672128
 40
5.119998517672128
 40
8.093326489272172
 40
8.093326489272172
 40
8.093326489272172
 40
8.093326489272172
 10
25.05931462585002
 20
0.4373708929651769
 30
0.0
 41
1.0
 10
25.07055250570161
 20
1.289574364790255
 30
0.0
 41
1.0
 10
25.08396174130772
 20
2.140965357733293
 30
0.0
 41
1.0
 10
25.1113125376186
 20
3.846004306932386
 30
0.0
 41
1.0
 10
25.12517181368847
 20
4.698546803178786
 30
0.0
 41
1.0
 10
25.15011584976074
 20
6.542166444777067
 30
0.0
 41
1.0
 10
25.16025242655624
 20
7.533012235214116
 30
0.0
 41
1.0
 10
25.16399563733003
 20
8.523792397285732
 30
0.0
 41
1.0
  0
SPLINE
  5
AE
330
1F
100
AcDbEntity
  8
Layer 01
100
AcDbSpline
210
0.0
220
0.0
230
1.0
 70
    12
 71
     2
 72
     6
 73
     3
 74
     0
 42
0.0000000001
 43
0.0000000001
 40
0.0
 40
0.0
 40
0.0
 40
1.157566753814006
 40
1.157566753814006
 40
1.157566753814006
 10
25.16399563733003
 20
8.523792397285732
 30
0.0
 41
1.0
 10
25.16534350078572
 20
9.102577944119407
 30
0.0
 41
0.9999934222404667
 10
25.17089556382356
 20
9.681337225291111
 30
0.0
 41
0.9999999999999121
  0
SPLINE
  5
AF
330
1F
100
AcDbEntity
  8
Layer 01
100
AcDbSpline
210
0.0
220
0.0
230
1.0
 70
    12
 71
     2
 72
     6
 73
     3
 74
     0
 42
0.0000000001
 43
0.0000000001
 40
0.0
 40
0.0
 40
0.0
 40
0.0011163185374098
 40
0.0011163185374098
 40
0.0011163185374098
 10
25.17089556382351
 20
9.681337225291102
 30
0.0
 41
1.0
 10
25.17090740949369
 20
9.68189528839913
 30
0.0
 41
0.9999999568108967
 10
25.17091305756711
 20
9.682909979841568
 30
0.0
 41
1.0
  0
SPLINE
  5
B0
330
1F
100
AcDbEntity
  8
Layer 01
100
AcDbSpline
210
0.0
220
0.0
230
1.0
 70
    12
 71
     3
 72
    13
 73
     9
 74
     0
 42
0.0000000001
 43
0.0000000001
 40
1.159780968969077
 40
1.159780968969077
 40
1.159780968969077
 40
1.159780968969077
 40
1.219999999483621
 40
1.219999999483621
 40
1.859999999216523
 40
1.859999999216523
 40
2.49999999917158
 40
2.937447200127758
 40
2.937447200127758
 40
2.937447200127758
 40
2.937447200127758
 10
25.17091305756711
 20
9.682909979841568
 30
0.0
 41
1.0
 10
25.17114112291839
 20
9.703438966347719
 30
0.0
 41
1.0
 10
25.17137760011306
 20
9.723511031694542
 30
0.0
 41
1.0
 10
25.17422480888447
 20
9.956899993741146
 30
0.0
 41
1.0
 10
25.17783982844756
 20
10.17023320478073
 30
0.0
 41
1.0
 10
25.18447210200796
 20
10.59684831315657
 30
0.0
 41
1.0
 10
25.18915683555579
 20
10.95596334870554
 30
0.0
 41
1.0
 10
25.19000701493874
 20
11.31509077060544
 30
0.0
 41
1.0
 10
25.19000637949276
 20
11.46118232485979
 30
0.0
 41
1.0
  0
SPLINE
  5
B1
330
1F
100
AcDbEntity
  8
Layer 01
100
AcDbSpline
210
0.0
220
0.0
230
1.0
 70
    12
 71
     2
 72
     6
 73
     3
 74
     0
 42
0.0000000001
 43
0.0000000001
 40
0.0
 40
0.0
 40
0.0
 40
0.6998000892342029
 40
0.6998000892342029
 40
0.6998000892342029
 10
25.19000637949276
 20
11.46118232485979
 30
0.0
 41
1.0
 10
25.19044547978944
 20
11.88243362283055
 30
0.0
 41
0.764976675619346
 10
25.60533507107405
 20
11.95373104660409
 30
0.0
 41
1.0
  0
SPLINE
  5
B2
330
1F
100
AcDbEntity
  8
Layer 01
100
AcDbSpline
210
0.0
220
0.0
230
1.0
 70
    12
 71
     2
 72
     6
 73
     3
 74
     0
 42
0.0000000001
 43
0.0000000001
 40
0.0
 40
0.0
 40
0.0
 40
1.843263134159366
 40
1.843263134159366
 40
1.843263134159366
 10
25.60533507107405
 20
11.95373104660409
 30
0.0
 41
1.0
 10
26.51365532366023
 20
12.10980512042262
 30
0.0
 41
0.999999999993685
 10
27.42197452349004
 20
12.26588515296332
 30
0.0
 41
1.0
  0
SPLINE
  5
B3
330
1F
100
AcDbEntity
  8
Layer 01
100
AcDbSpline
210
0.0
220
0.0
230
1.0
 70
    12
 71
     5
 72
    13
 73
     7
 74
     0
 42
0.0000000001
 43
0.0000000001
 40
-0.0000214316302125
 40
-0.0000214316302125
 40
-0.0000214316302125
 40
-0.0000214316302125
 40
-0.0000214316302125
 40
-0.0000214316302125
 40
0.4999999999109885
 40
0.9999999998854894
 40
0.9999999998854894
 40
0.9999999998854894
 40
0.9999999998854894
 40
0.9999999998854894
 40
0.9999999998854894
 10
27.42197452349004
 20
12.26588515296332
 30
0.0
 41
1.0
 10
27.48594615599669
 20
12.27687454006887
 30
0.0
 41
1.0
 10
27.60063014509788
 20
12.31002542084691
 30
0.0
 41
1.0
 10
27.68879921251974
 20
12.36553619865954
 30
0.0
 41
1.0
 10
27.74669538518359
 20
12.44654867131696
 30
0.0
 41
1.0
 10
27.76599443668775
 20
12.56009560996311
 30
0.0
 41
1.0
 10
27.76599508272764
 20
12.62500000235794
 30
0.0
 41
1.0
  0
LINE
  5
B4
330
1F
100
AcDbEntity
  8
Layer 01
100
AcDbLine
 10
74.68015945496845
 20
14.37379146592606
 30
0.0
 11
59.07956360825362
 21
14.37503914815703
 31
0.0
  0
LINE
  5
B5
330
1F
100
AcDbEntity
  8
Layer 01
100
AcDbLine
 10
59.07956360825362
 20
14.37503914815703
 30
0.0
 11
50.70039639929117
 21
14.37570928525555
 31
0.0
  0
ARC
  5
B6
330
1F
100
AcDbEntity
  8
Layer 01
100
AcDbCircle
 10
50.70043638757872
 20
14.87570928365649
 30
0.0
 40
0.5
100
AcDbArc
 50
179.9973200160203
 51
269.9954176797815
  0
LINE
  5
B7
330
1F
100
AcDbEntity
  8
Layer 01
100
AcDbLine
 10
50.20043638812568
 20
14.87573267092866
 30
0.0
 11
50.20110776273738
 21
29.22915119347782
 31
0.0
  0
ARC
  5
B8
330
1F
100
AcDbEntity
  8
Layer 01
100
AcDbCircle
 10
50.70110776219042
 20
29.22912780620544
 30
0.0
 40
0.5
100
AcDbArc
 50
90.0
 51
179.9973200159954
  0
LINE
  5
B9
330
1F
100
AcDbEntity
  8
Layer 01
100
AcDbLine
 10
50.70110776219042
 20
29.72912780620544
 30
0.0
 11
74.68019944325636
 21
29.72912780620544
 31
0.0
  0
ARC
  5
BA
330
1F
100
AcDbEntity
  8
Layer 01
100
AcDbCircle
 10
74.68019944325624
 20
29.22912780620544
 30
0.0
 40
0.5
100
AcDbArc
 50
359.9999999999874
 51
89.99999999998697
  0
POLYLINE
  5
BB
330
1F
100
AcDbEntity
  8
Layer 01
100
AcDb2dPolyline
 66
     1
 10
0.0
 20
0.0
 30
0.0
  0
VERTEX
  5
BC
330
BB
100
AcDbEntity
  8
Layer 01
100
AcDbVertex
100
AcDb2dVertex
 10
75.18019944325624
 20
29.22912780620534
 30
0.0
  0
VERTEX
  5
BD
330
BB
100
AcDbEntity
  8
Layer 01
100
AcDbVertex
100
AcDb2dVertex
 10
75.18019944325624
 20
17.63785867086563
 30
0.0
  0
SEQEND
  5
BE
330
BB
100
AcDbEntity
  8
Layer 01
  0
LINE
  5
BF
330
1F
100
AcDbEntity
  8
Layer 01
100
AcDbLine
 10
75.18019944325624
 20
17.63785867086563
 30
0.0
 11
75.18019944325624
 21
14.87379146432711
 31
0.0
  0
ARC
  5
C0
330
1F
100
AcDbEntity
  8
Layer 01
100
AcDbCircle
 10
74.68019944325624
 20
14.873791464327
 30
0.0
 40
0.5
100
AcDbArc
 50
269.9954176797538
 51
0.0000000000130276
  0
ARC
  5
C1
330
1F
100
AcDbEntity
  8
Layer 01
100
AcDbCircle
 10
10312.62793916638
 20
-414.3754196209939
 30
0.0
 40
10246.45187490584
100
AcDbArc
 50
177.680177975196
 51
177.6814389168823
  0
LINE
  5
C2
330
1F
100
AcDbEntity
  8
Layer 01
100
AcDbLine
 10
74.5735301630512
 20
0.3750391479403703
 30
0.0
 11
73.4485248888763
 21
0.3750391479403703
 31
0.0
  0
LINE
  5
C3
330
1F
100
AcDbEntity
  8
Layer 01
100
AcDbLine
 10
73.4485248888763
 20
0.3750391479403703
 30
0.0
 11
73.45988081091372
 21
0.1496421885581896
 31
0.0
  0
SPLINE
  5
C4
330
1F
100
AcDbEntity
  8
Layer 01
100
AcDbSpline
210
0.0
220
0.0
230
1.0
 70
    12
 71
     2
 72
     6
 73
     3
 74
     0
 42
0.0000000001
 43
0.0000000001
 40
-0.2387149143318927
 40
-0.2387149143318927
 40
-0.2387149143318927
 40
0.0
 40
0.0
 40
0.0
 10
73.45988081091372
 20
0.1496421885581896
 30
0.0
 41
1.0
 10
73.46597275314743
 20
-0.0000384788827139
 30
0.0
 41
0.7212476062221478
 10
73.61625281304276
 20
0.000000394567266
 30
0.0
 41
1.0
  0
SPLINE
  5
C5
330
1F
100
AcDbEntity
  8
Layer 01
100
AcDbSpline
210
0.0
220
0.0
230
1.0
 70
    12
 71
     2
 72
     6
 73
     3
 74
     0
 42
0.0000000001
 43
0.0000000001
 40
0.0
 40
0.0
 40
0.0
 40
0.3954244124017839
 40
0.3954244124017839
 40
0.3954244124017839
 10
73.61625281304276
 20
0.000000394567266
 30
0.0
 41
1.0
 10
73.81444078269324
 20
0.0000274211329071
 30
0.0
 41
0.999999999289049
 10
74.01215298864025
 20
0.0000391457582651
 30
0.0
 41
1.0
  0
SPLINE
  5
C6
330
1F
100
AcDbEntity
  8
Layer 01
100
AcDbSpline
210
0.0
220
0.0
230
1.0
 70
    24
 71
     2
 72
     6
 73
     3
 74
     0
 42
0.0000000001
 43
0.0000000001
 40
0.0
 40
0.0
 40
0.0
 40
0.3954243890795226
 40
0.3954243890795226
 40
0.3954243890795226
 10
74.01215298864025
 20
0.0000391457582651
 30
0.0
 10
74.21010307218415
 20
0.0000391464777607
 30
0.0
 10
74.40805315572806
 20
0.0000391471972563
 30
0.0
  0
SPLINE
  5
C7
330
1F
100
AcDbEntity
  8
Layer 01
100
AcDbSpline
210
0.0
220
0.0
230
1.0
 70
    12
 71
     2
 72
     6
 73
     3
 74
     0
 42
0.0000000001
 43
0.0000000001
 40
-0.2387271341672585
 40
-0.2387271341672585
 40
-0.2387271341672585
 40
0.0
 40
0.0
 40
0.0
 10
74.40805315572806
 20
0.0000391471972563
 30
0.0
 41
1.0
 10
74.55833638300093
 20
0.000039147721803
 30
0.0
 41
0.7212776802320741
 10
74.56440498676756
 20
0.1497242040884004
 30
0.0
 41
1.0
  0
SPLINE
  5
C8
330
1F
100
AcDbEntity
  8
Layer 01
100
AcDbSpline
210
0.0
220
0.0
230
1.0
 70
    12
 71
     2
 72
     6
 73
     3
 74
     0
 42
0.0000000001
 43
0.0000000001
 40
-0.7825548902353026
 40
-0.7825548902353026
 40
-0.7825548902353026
 40
0.0
 40
0.0
 40
0.0
 10
72.49909036119703
 20
10.3007158620221
 30
0.0
 41
1.0
 10
72.99699845551424
 20
10.30219105879808
 30
0.0
 41
0.7091100515193309
 10
72.998346317428
 20
10.79994551539291
 30
0.0
 41
1.0
  0
LINE
  5
C9
330
1F
100
AcDbEntity
  8
Layer 01
100
AcDbLine
 10
72.998346317428
 20
10.79994551539291
 30
0.0
 11
72.99837238306856
 21
12.62503914793994
 31
0.0
  0
POLYLINE
  5
CA
330
1F
100
AcDbEntity
  8
Layer 01
100
AcDb2dPolyline
 66
     1
 10
0.0
 20
0.0
 30
0.0
  0
VERTEX
  5
CB
330
CA
100
AcDbEntity
  8
Layer 01
100
AcDbVertex
100
AcDb2dVertex
 10
72.99837238306856
 20
12.62503914793994
 30
0.0
  0
VERTEX
  5
CC
330
CA
100
AcDbEntity
  8
Layer 01
100
AcDbVertex
100
AcDb2dVertex
 10
74.57337289314529
 20
12.62503914793994
 30
0.0
  0
SEQEND
  5
CD
330
CA
100
AcDbEntity
  8
Layer 01
  0
LINE
  5
CE
330
1F
100
AcDbEntity
  8
Layer 01
100
AcDbLine
 10
74.57337289314529
 20
12.62503914793994
 30
0.0
 11
74.57337293555139
 21
8.523832748022087
 31
0.0
  0
SPLINE
  5
CF
330
1F
100
AcDbEntity
  8
Layer 01
100
AcDbSpline
210
0.0
220
0.0
230
1.0
 70
    12
 71
     5
 72
    12
 73
     6
 74
     0
 42
0.0000000001
 43
0.0000000001
 40
-0.0000000000115655
 40
-0.0000000000115655
 40
-0.0000000000115655
 40
-0.0000000000115655
 40
-0.0000000000115655
 40
-0.0000000000115655
 40
0.9922383364707964
 40
0.9922383364707964
 40
0.9922383364707964
 40
0.9922383364707964
 40
0.9922383364707964
 40
0.9922383364707964
 10
74.57337293555139
 20
8.523832748022087
 30
0.0
 41
1.0
 10
74.57337283251269
 20
6.906723733638373
 30
0.0
 41
1.0
 10
74.57491288336752
 20
5.289998742616476
 30
0.0
 41
1.0
 10
74.57793787937823
 20
3.673665990484082
 30
0.0
 41
1.0
 10
74.57752069925078
 20
2.05644623619871
 30
0.0
 41
1.0
 10
74.57353045330177
 20
0.4383277096823548
 30
0.0
 41
1.0
  0
SPLINE
  5
D0
330
1F
100
AcDbEntity
  8
Layer 01
100
AcDbSpline
210
0.0
220
0.0
230
1.0
 70
    12
 71
     2
 72
     6
 73
     3
 74
     0
 42
0.0000000001
 43
0.0000000001
 40
0.0
 40
0.0
 40
0.0
 40
0.0876876088231114
 40
0.0876876088231114
 40
0.0876876088231114
 10
74.57353045330177
 20
0.4383277096823548
 30
0.0
 41
1.0
 10
74.5737712471824
 20
0.3857006415266719
 30
0.0
 41
0.7674574304402552
 10
74.52202729148547
 20
0.3760970311023328
 30
0.0
 41
1.0
  0
POLYLINE
  5
D1
330
1F
100
AcDbEntity
  8
Layer 01
100
AcDb2dPolyline
 66
     1
 10
0.0
 20
0.0
 30
0.0
  0
VERTEX
  5
D2
330
D1
100
AcDbEntity
  8
Layer 01
100
AcDbVertex
100
AcDb2dVertex
 10
74.52202729148547
 20
0.3760970311023328
 30
0.0
  0
VERTEX
  5
D3
330
D1
100
AcDbEntity
  8
Layer 01
100
AcDbVertex
100
AcDb2dVertex
 10
73.49720311525124
 20
0.3760291938065023
 30
0.0
  0
SEQEND
  5
D4
330
D1
100
AcDbEntity
  8
Layer 01
  0
SPLINE
  5
D5
330
1F
100
AcDbEntity
  8
Layer 01
100
AcDbSpline
210
0.0
220
0.0
230
1.0
 70
    12
 71
     2
 72
     6
 73
     3
 74
     0
 42
0.0000000001
 43
0.0000000001
 40
0.0
 40
0.0
 40
0.0
 40
0.0846250291315599
 40
0.0846250291315599
 40
0.0846250291315599
 10
73.49720311525124
 20
0.3760291938065023
 30
0.0
 41
1.0
 10
73.44791102071883
 20
0.3848725235289445
 30
0.0
 41
0.7828101505964009
 10
73.44540617286856
 20
0.4349040010501852
 30
0.0
 41
1.0
  0
SPLINE
  5
D6
330
1F
100
AcDbEntity
  8
Layer 01
100
AcDbSpline
210
0.0
220
0.0
230
1.0
 70
    12
 71
     5
 72
    12
 73
     6
 74
     0
 42
0.0000000001
 43
0.0000000001
 40
-0.9926563385080105
 40
-0.9926563385080105
 40
-0.9926563385080105
 40
-0.9926563385080105
 40
-0.9926563385080105
 40
-0.9926563385080105
 40
0.0000000000115655
 40
0.0000000000115655
 40
0.0000000000115655
 40
0.0000000000115655
 40
0.0000000000115655
 40
0.0000000000115655
 10
73.44540617286856
 20
0.4349040010501852
 30
0.0
 41
1.0
 10
73.36513480593129
 20
2.053720817427816
 30
0.0
 41
1.0
 10
73.28186755739324
 20
3.671623239166379
 30
0.0
 41
1.0
 10
73.19570902483503
 20
5.288636897332353
 30
0.0
 41
1.0
 10
73.11079087115075
 20
6.906042847420835
 30
0.0
 41
1.0
 10
73.02715842574088
 20
8.523832748022087
 30
0.0
 41
1.0
  0
SPLINE
  5
D7
330
1F
100
AcDbEntity
  8
Layer 01
100
AcDbSpline
210
0.0
220
0.0
230
1.0
 70
    12
 71
     2
 72
     6
 73
     3
 74
     0
 42
0.0000000001
 43
0.0000000001
 40
-0.082649365308941
 40
-0.082649365308941
 40
-0.082649365308941
 40
0.0
 40
0.0
 40
0.0
 10
73.02715842574088
 20
8.523832748022087
 30
0.0
 41
1.0
 10
73.02503799584288
 20
8.56510299396255
 30
0.0
 41
0.9999999883852876
 10
73.02290707565948
 20
8.606814936584968
 30
0.0
 41
1.0
  0
SPLINE
  5
D8
330
1F
100
AcDbEntity
  8
Layer 01
100
AcDbSpline
210
0.0
220
0.0
230
1.0
 70
    12
 71
     2
 72
     6
 73
     3
 74
     0
 42
0.0000000001
 43
0.0000000001
 40
0.0
 40
0.0
 40
0.0
 40
0.7576113662501209
 40
0.7576113662501209
 40
0.7576113662501209
 10
73.02290707565948
 20
8.606814936584968
 30
0.0
 41
1.0
 10
72.99776758995509
 20
9.079543739913541
 30
0.0
 41
0.72648491075732
 10
72.52420080034761
 20
9.080707515794884
 30
0.0
 41
1.0
  0
SPLINE
  5
D9
330
1F
100
AcDbEntity
  8
Layer 01
100
AcDbSpline
210
0.0
220
0.0
230
1.0
 70
    24
 71
     2
 72
     6
 73
     3
 74
     0
 42
0.0000000001
 43
0.0000000001
 40
0.0
 40
0.0
 40
0.0
 40
19.64792944108129
 40
19.64792944108129
 40
19.64792944108129
 10
72.52420080034761
 20
9.080707515794884
 30
0.0
 10
62.69962298938788
 20
9.080707515794884
 30
0.0
 10
52.87504517842814
 20
9.080707515794884
 30
0.0
  0
SPLINE
  5
DA
330
1F
100
AcDbEntity
  8
Layer 01
100
AcDbSpline
210
0.0
220
0.0
230
1.0
 70
    12
 71
     2
 72
     6
 73
     3
 74
     0
 42
0.0000000001
 43
0.0000000001
 40
-0.7576113662501209
 40
-0.7576113662501209
 40
-0.7576113662501209
 40
0.0
 40
0.0
 40
0.0
 10
52.87504517842814
 20
9.080707515794884
 30
0.0
 41
1.0
 10
52.40147838882071
 20
9.079543739913541
 30
0.0
 41
0.72648491075732
 10
52.37633890311628
 20
8.606814936584968
 30
0.0
 41
1.0
  0
SPLINE
  5
DB
330
1F
100
AcDbEntity
  8
Layer 01
100
AcDbSpline
210
0.0
220
0.0
230
1.0
 70
    12
 71
     2
 72
     6
 73
     3
 74
     0
 42
0.0000000001
 43
0.0000000001
 40
0.0
 40
0.0
 40
0.0
 40
0.082649365308941
 40
0.082649365308941
 40
0.082649365308941
 10
52.37633890311628
 20
8.606814936584968
 30
0.0
 41
1.0
 10
52.37420798293298
 20
8.56510299396255
 30
0.0
 41
0.9999999883852876
 10
52.37208755303476
 20
8.523832748022087
 30
0.0
 41
1.0
  0
SPLINE
  5
DC
330
1F
100
AcDbEntity
  8
Layer 01
100
AcDbSpline
210
0.0
220
0.0
230
1.0
 70
    12
 71
     5
 72
    12
 73
     6
 74
     0
 42
0.0000000001
 43
0.0000000001
 40
-0.0000000000115655
 40
-0.0000000000115655
 40
-0.0000000000115655
 40
-0.0000000000115655
 40
-0.0000000000115655
 40
-0.0000000000115655
 40
0.9926563385080105
 40
0.9926563385080105
 40
0.9926563385080105
 40
0.9926563385080105
 40
0.9926563385080105
 40
0.9926563385080105
 10
52.37208755303476
 20
8.523832748022087
 30
0.0
 41
1.0
 10
52.288455107625
 20
6.906042847420835
 30
0.0
 41
1.0
 10
52.20353695394073
 20
5.288636897332353
 30
0.0
 41
1.0
 10
52.11737842138251
 20
3.671623239166379
 30
0.0
 41
1.0
 10
52.03411117284446
 20
2.053720817427816
 30
0.0
 41
1.0
 10
51.95383980590719
 20
0.4349040010501852
 30
0.0
 41
1.0
  0
SPLINE
  5
DD
330
1F
100
AcDbEntity
  8
Layer 01
100
AcDbSpline
210
0.0
220
0.0
230
1.0
 70
    12
 71
     2
 72
     6
 73
     3
 74
     0
 42
0.0000000001
 43
0.0000000001
 40
-0.0846250291315599
 40
-0.0846250291315599
 40
-0.0846250291315599
 40
0.0
 40
0.0
 40
0.0
 10
51.95383980590719
 20
0.4349040010501852
 30
0.0
 41
1.0
 10
51.95133495805691
 20
0.3848725235289445
 30
0.0
 41
0.7828101505964009
 10
51.90204286352451
 20
0.3760291938065023
 30
0.0
 41
1.0
  0
POLYLINE
  5
DE
330
1F
100
AcDbEntity
  8
Layer 01
100
AcDb2dPolyline
 66
     1
 10
0.0
 20
0.0
 30
0.0
  0
VERTEX
  5
DF
330
DE
100
AcDbEntity
  8
Layer 01
100
AcDbVertex
100
AcDb2dVertex
 10
51.90204286352451
 20
0.3760291938065023
 30
0.0
  0
VERTEX
  5
E0
330
DE
100
AcDbEntity
  8
Layer 01
100
AcDbVertex
100
AcDb2dVertex
 10
50.87721868729028
 20
0.3760970311023328
 30
0.0
  0
SEQEND
  5
E1
330
DE
100
AcDbEntity
  8
Layer 01
  0
SPLINE
  5
E2
330
1F
100
AcDbEntity
  8
Layer 01
100
AcDbSpline
210
0.0
220
0.0
230
1.0
 70
    12
 71
     2
 72
     6
 73
     3
 74
     0
 42
0.0000000001
 43
0.0000000001
 40
-0.0876876088231114
 40
-0.0876876088231114
 40
-0.0876876088231114
 40
0.0
 40
0.0
 40
0.0
 10
50.87721868729028
 20
0.3760970311023328
 30
0.0
 41
1.0
 10
50.82547473159327
 20
0.3857006415266719
 30
0.0
 41
0.7674574304402552
 10
50.82571552547398
 20
0.4383277096823548
 30
0.0
 41
1.0
  0
SPLINE
  5
E3
330
1F
100
AcDbEntity
  8
Layer 01
100
AcDbSpline
210
0.0
220
0.0
230
1.0
 70
    12
 71
     5
 72
    12
 73
     6
 74
     0
 42
0.0000000001
 43
0.0000000001
 40
-0.9922383364707964
 40
-0.9922383364707964
 40
-0.9922383364707964
 40
-0.9922383364707964
 40
-0.9922383364707964
 40
-0.9922383364707964
 40
0.0000000000115655
 40
0.0000000000115655
 40
0.0000000000115655
 40
0.0000000000115655
 40
0.0000000000115655
 40
0.0000000000115655
 10
50.82571552547398
 20
0.4383277096823548
 30
0.0
 41
1.0
 10
50.82172527952497
 20
2.05644623619871
 30
0.0
 41
1.0
 10
50.82130809939753
 20
3.673665990484082
 30
0.0
 41
1.0
 10
50.82433309540824
 20
5.289998742616476
 30
0.0
 41
1.0
 10
50.82587314626306
 20
6.906723733638373
 30
0.0
 41
1.0
 10
50.82587304322436
 20
8.523832748022087
 30
0.0
 41
1.0
  0
LINE
  5
E4
330
1F
100
AcDbEntity
  8
Layer 01
100
AcDbLine
 10
50.82587304322436
 20
8.523832748022087
 30
0.0
 11
50.82587308563046
 21
12.62503914793994
 31
0.0
  0
POLYLINE
  5
E5
330
1F
100
AcDbEntity
  8
Layer 01
100
AcDb2dPolyline
 66
     1
 10
0.0
 20
0.0
 30
0.0
  0
VERTEX
  5
E6
330
E5
100
AcDbEntity
  8
Layer 01
100
AcDbVertex
100
AcDb2dVertex
 10
50.82587308563046
 20
12.62503914793994
 30
0.0
  0
VERTEX
  5
E7
330
E5
100
AcDbEntity
  8
Layer 01
100
AcDbVertex
100
AcDb2dVertex
 10
52.4008735957072
 20
12.62503914793994
 30
0.0
  0
SEQEND
  5
E8
330
E5
100
AcDbEntity
  8
Layer 01
  0
LINE
  5
E9
330
1F
100
AcDbEntity
  8
Layer 01
100
AcDbLine
 10
52.4008735957072
 20
12.62503914793994
 30
0.0
 11
52.40089966134775
 21
10.79994551539291
 31
0.0
  0
SPLINE
  5
EA
330
1F
100
AcDbEntity
  8
Layer 01
100
AcDbSpline
210
0.0
220
0.0
230
1.0
 70
    12
 71
     2
 72
     6
 73
     3
 74
     0
 42
0.0000000001
 43
0.0000000001
 40
0.0
 40
0.0
 40
0.0
 40
0.7825548902353026
 40
0.7825548902353026
 40
0.7825548902353026
 10
52.40089966134775
 20
10.79994551539291
 30
0.0
 41
1.0
 10
52.40224752326142
 20
10.30219105879808
 30
0.0
 41
0.7091100515193309
 10
52.9001556175786
 20
10.3007158620221
 30
0.0
 41
1.0
  0
SPLINE
  5
EB
330
1F
100
AcDbEntity
  8
Layer 01
100
AcDbSpline
210
0.0
220
0.0
230
1.0
 70
    24
 71
     2
 72
     6
 73
     3
 74
     0
 42
0.0000000001
 43
0.0000000001
 40
0.0
 40
0.0
 40
0.0
 40
19.59744819239467
 40
19.59744819239467
 40
19.59744819239467
 10
52.9001556175786
 20
10.3007158620221
 30
0.0
 10
62.69962298938782
 20
10.3007158620221
 30
0.0
 10
72.49909036119703
 20
10.3007158620221
 30
0.0
  0
SPLINE
  5
EC
330
1F
100
AcDbEntity
  8
Layer 01
100
AcDbSpline
210
0.0
220
0.0
230
1.0
 70
     8
 71
     3
 72
    12
 73
     8
 74
     0
 42
0.0000000001
 43
0.0000000001
 40
0.0
 40
0.0
 40
0.0
 40
0.0
 40
1.0
 40
2.0
 40
3.0
 40
4.0
 40
5.0
 40
5.0
 40
5.0
 40
5.0
 10
52.40085740021522
 20
12.62503918825034
 30
0.0
 10
52.3844605054507
 20
12.49412383179846
 30
0.0
 10
52.16240858563418
 20
12.34303393060615
 30
0.0
 10
51.80139147828646
 20
12.26271800020508
 30
0.0
 10
51.4256579407508
 20
12.26322850250834
 30
0.0
 10
51.06436365324674
 20
12.34265459674312
 30
0.0
 10
50.84268568217004
 20
12.49439055061357
 30
0.0
 10
50.82585754189557
 20
12.6249898275782
 30
0.0
  0
SPLINE
  5
ED
330
1F
100
AcDbEntity
  8
Layer 01
100
AcDbSpline
210
0.0
220
0.0
230
1.0
 70
    12
 71
     2
 72
     6
 73
     3
 74
     0
 42
0.0000000001
 43
0.0000000001
 40
0.0
 40
0.0
 40
0.0
 40
0.0026344063336084
 40
0.0026344063336084
 40
0.0026344063336084
 10
52.40086928775321
 20
12.62369822161138
 30
0.0
 41
1.0
 10
52.40085519049257
 20
12.6223810937475
 30
0.0
 41
0.9999998444549029
 10
52.40083962397279
 20
12.62106398242879
 30
0.0
 41
1.0
  0
SPLINE
  5
EE
330
1F
100
AcDbEntity
  8
Layer 01
100
AcDbSpline
210
0.0
220
0.0
230
1.0
 70
    24
 71
     2
 72
     6
 73
     3
 74
     0
 42
0.0000000001
 43
0.0000000001
 40
0.0
 40
0.0
 40
0.0
 40
0.003885868834095
 40
0.003885868834095
 40
0.003885868834095
 10
52.40087299458781
 20
12.62106376877135
 30
0.0
 10
52.40087299836529
 20
12.61912083435431
 30
0.0
 10
52.40087300214276
 20
12.61717789993726
 30
0.0
  0
SPLINE
  5
EF
330
1F
100
AcDbEntity
  8
Layer 01
100
AcDbSpline
210
0.0
220
0.0
230
1.0
 70
     8
 71
     3
 72
    12
 73
     8
 74
     0
 42
0.0000000001
 43
0.0000000001
 40
0.0
 40
0.0
 40
0.0
 40
0.0
 40
1.0
 40
2.0
 40
3.0
 40
4.0
 40
5.0
 40
5.0
 40
5.0
 40
5.0
 10
72.99838857856054
 20
12.62503918825034
 30
0.0
 10
73.01478547332505
 20
12.49412383179846
 30
0.0
 10
73.23683739314157
 20
12.34303393060615
 30
0.0
 10
73.59785450048929
 20
12.26271800020508
 30
0.0
 10
73.97358803802496
 20
12.26322850250834
 30
0.0
 10
74.3348823255289
 20
12.34265459674312
 30
0.0
 10
74.55656029660571
 20
12.49439055061357
 30
0.0
 10
74.57338843688018
 20
12.6249898275782
 30
0.0
  0
SPLINE
  5
F0
330
1F
100
AcDbEntity
  8
Layer 01
100
AcDbSpline
210
0.0
220
0.0
230
1.0
 70
    24
 71
     2
 72
     6
 73
     3
 74
     0
 42
0.0000000001
 43
0.0000000001
 40
0.0
 40
0.0
 40
0.0
 40
1.250000000000004
 40
1.250000000000004
 40
1.250000000000004
 10
50.20087298938739
 20
14.12503914793994
 30
0.0
 10
50.20087298938722
 20
13.50003914793994
 30
0.0
 10
50.20087298938705
 20
12.87503914793994
 30
0.0
  0
ARC
  5
F1
330
1F
100
AcDbEntity
  8
Layer 01
100
AcDbCircle
 10
50.45087298938705
 20
12.87503914793994
 30
0.0
 40
0.25
100
AcDbArc
 50
180.0
 51
270.0
  0
LINE
  5
F2
330
1F
100
AcDbEntity
  8
Layer 01
100
AcDbLine
 10
50.45087298938705
 20
12.62503914793994
 30
0.0
 11
74.95087298938887
 21
12.62503914793994
 31
0.0
  0
ARC
  5
F3
330
1F
100
AcDbEntity
  8
Layer 01
100
AcDbCircle
 10
74.95087298938876
 20
12.87503914793994
 30
0.0
 40
0.25
100
AcDbArc
 50
270.000000000013
 51
359.9999999999935
  0
SPLINE
  5
F4
330
1F
100
AcDbEntity
  8
Layer 01
100
AcDbSpline
210
0.0
220
0.0
230
1.0
 70
    24
 71
     2
 72
     6
 73
     3
 74
     0
 42
0.0000000001
 43
0.0000000001
 40
0.0
 40
0.0
 40
0.0
 40
1.250000000000004
 40
1.250000000000004
 40
1.250000000000004
 10
75.20087298938876
 20
12.87503914793994
 30
0.0
 10
75.20087298938887
 20
13.50003914793994
 30
0.0
 10
75.20087298938898
 20
14.12503914793994
 30
0.0
  0
ARC
  5
F5
330
1F
100
AcDbEntity
  8
Layer 01
100
AcDbCircle
 10
74.95087298938898
 20
14.12503914793994
 30
0.0
 40
0.25
100
AcDbArc
 50
359.9999999999992
 51
90.0
  0
LINE
  5
F6
330
1F
100
AcDbEntity
  8
Layer 01
100
AcDbLine
 10
74.95087298938898
 20
14.37503914793994
 30
0.0
 11
50.70087298938751
 21
14.37503914793994
 31
0.0
  0
LINE
  5
F7
330
1F
100
AcDbEntity
  8
Layer 01
100
AcDbLine
 10
50.70087298938751
 20
14.37503914793994
 30
0.0
 11
50.45087298938716
 21
14.37503914793994
 31
0.0
  0
ARC
  5
F8
330
1F
100
AcDbEntity
  8
Layer 01
100
AcDbCircle
 10
50.45087298938739
 20
14.12503914793994
 30
0.0
 40
0.25
100
AcDbArc
 50
90.00000000006514
 51
179.9999999999992
  0
ARC
  5
F9
330
1F
100
AcDbEntity
  8
Layer 01
100
AcDbCircle
 10
-10187.2286931876
 20
-414.3754196209939
 30
0.0
 40
10246.45187490584
100
AcDbArc
 50
2.318561083130736
 51
2.319822024816971
  0
LINE
  5
FA
330
1F
100
AcDbEntity
  8
Layer 01
100
AcDbLine
 10
50.82571581572455
 20
0.3750391479403703
 30
0.0
 11
51.95072108989945
 21
0.3750391479403703
 31
0.0
  0
LINE
  5
FB
330
1F
100
AcDbEntity
  8
Layer 01
100
AcDbLine
 10
51.95072108989945
 20
0.3750391479403703
 30
0.0
 11
51.93936516786204
 21
0.1496421885581896
 31
0.0
  0
SPLINE
  5
FC
330
1F
100
AcDbEntity
  8
Layer 01
100
AcDbSpline
210
0.0
220
0.0
230
1.0
 70
    12
 71
     2
 72
     6
 73
     3
 74
     0
 42
0.0000000001
 43
0.0000000001
 40
-0.2387149143318927
 40
-0.2387149143318927
 40
-0.2387149143318927
 40
0.0
 40
0.0
 40
0.0
 10
51.93936516786204
 20
0.1496421885581896
 30
0.0
 41
1.0
 10
51.93327322562832
 20
-0.0000384788827139
 30
0.0
 41
0.7212476062221478
 10
51.78299316573299
 20
0.000000394567266
 30
0.0
 41
1.0
  0
SPLINE
  5
FD
330
1F
100
AcDbEntity
  8
Layer 01
100
AcDbSpline
210
0.0
220
0.0
230
1.0
 70
    12
 71
     2
 72
     6
 73
     3
 74
     0
 42
0.0000000001
 43
0.0000000001
 40
0.0
 40
0.0
 40
0.0
 40
0.3954244124017839
 40
0.3954244124017839
 40
0.3954244124017839
 10
51.78299316573299
 20
0.000000394567266
 30
0.0
 41
1.0
 10
51.58480519608253
 20
0.0000274211329071
 30
0.0
 41
0.999999999289049
 10
51.3870929901355
 20
0.0000391457582651
 30
0.0
 41
1.0
  0
SPLINE
  5
FE
330
1F
100
AcDbEntity
  8
Layer 01
100
AcDbSpline
210
0.0
220
0.0
230
1.0
 70
    24
 71
     2
 72
     6
 73
     3
 74
     0
 42
0.0000000001
 43
0.0000000001
 40
0.0
 40
0.0
 40
0.0
 40
0.3954243890795226
 40
0.3954243890795226
 40
0.3954243890795226
 10
51.3870929901355
 20
0.0000391457582651
 30
0.0
 10
51.1891429065916
 20
0.0000391464777607
 30
0.0
 10
50.9911928230477
 20
0.0000391471972563
 30
0.0
  0
SPLINE
  5
FF
330
1F
100
AcDbEntity
  8
Layer 01
100
AcDbSpline
210
0.0
220
0.0
230
1.0
 70
    12
 71
     2
 72
     6
 73
     3
 74
     0
 42
0.0000000001
 43
0.0000000001
 40
-0.2387271341672585
 40
-0.2387271341672585
 40
-0.2387271341672585
 40
0.0
 40
0.0
 40
0.0
 10
50.9911928230477
 20
0.0000391471972563
 30
0.0
 41
1.0
 10
50.84090959577472
 20
0.000039147721803
 30
0.0
 41
0.7212776802320741
 10
50.8348409920082
 20
0.1497242040884004
 30
0.0
 41
1.0
  0
SPLINE
  5
100
330
1F
100
AcDbEntity
  8
Layer 01
100
AcDbSpline
210
0.0
220
0.0
230
1.0
 70
    12
 71
     2
 72
     6
 73
     3
 74
     0
 42
0.0000000001
 43
0.0000000001
 40
0.0
 40
0.0
 40
0.0
 40
0.0051272633192371
 40
0.0051272633192371
 40
0.0051272633192371
 10
52.40085233396843
 20
12.61991732659042
 30
0.0
 41
1.0
 10
52.40087337710342
 20
12.62248088681025
 30
0.0
 41
0.9999912669693292
 10
52.40087299226178
 20
12.62504453336662
 30
0.0
 41
1.0
  0
ENDSEC
  0
SECTION
  2
OBJECTS
  0
DICTIONARY
  5
C
330
0
100
AcDbDictionary
281
     1
  3
ACAD_GROUP
350
D
  3
ACAD_LAYOUT
350
1A
  3
ACAD_MLEADERSTYLE
350
102
  3
ACAD_MLINESTYLE
350
17
  3
ACAD_PLOTSETTINGS
350
19
  3
ACAD_PLOTSTYLENAME
350
E
  3
ACAD_TABLESTYLE
350
101
  3
ACAD_VISUALSTYLE
350
2A
  0
DICTIONARY
  5
D
102
{ACAD_REACTORS
330
C
102
}
330
C
100
AcDbDictionary
281
     1
  0
DICTIONARY
  5
1A
102
{ACAD_REACTORS
330
C
102
}
330
C
100
AcDbDictionary
281
     1
  3
Layout1
350
1E
  3
Layout2
350
26
  3
Model
350
22
  0
DICTIONARY
  5
102
102
{ACAD_REACTORS
330
C
102
}
330
C
100
AcDbDictionary
281
     1
  0
DICTIONARY
  5
17
102
{ACAD_REACTORS
330
C
102
}
330
C
100
AcDbDictionary
281
     1
  3
Standard
350
18
  0
DICTIONARY
  5
19
102
{ACAD_REACTORS
330
C
102
}
330
C
100
AcDbDictionary
281
     1
  0
ACDBDICTIONARYWDFLT
  5
E
102
{ACAD_REACTORS
330
C
102
}
330
C
100
AcDbDictionary
281
     1
  3
Normal
350
F
100
AcDbDictionaryWithDefault
340
F
  0
DICTIONARY
  5
101
102
{ACAD_REACTORS
330
C
102
}
330
C
100
AcDbDictionary
281
     1
  0
DICTIONARY
  5
2A
102
{ACAD_REACTORS
330
C
102
}
330
C
100
AcDbDictionary
281
     1
  3
2dWireframe
350
2F
  3
3D Hidden
350
31
  3
3dWireframe
350
30
  3
Basic
350
32
  3
Brighten
350
36
  3
ColorChange
350
3A
  3
Conceptual
350
34
  3
Dim
350
35
  3
Facepattern
350
39
  3
Flat
350
2B
  3
FlatWithEdges
350
2C
  3
Gouraud
350
2D
  3
GouraudWithEdges
350
2E
  3
Linepattern
350
38
  3
Realistic
350
33
  3
Thicken
350
37
  0
LAYOUT
  5
1E
102
{ACAD_REACTORS
330
1A
102
}
330
1A
100
AcDbPlotSettings
  1

  2
none_device
  4

  6

 40
0.0
 41
0.0
 42
0.0
 43
0.0
 44
0.0
 45
0.0
 46
0.0
 47
0.0
 48
0.0
 49
0.0
140
0.0
141
0.0
142
1.0
143
1.0
 70
   688
 72
     0
 73
     0
 74
     5
  7

 75
    16
 76
     0
 77
     2
 78
   300
147
1.0
148
0.0
149
0.0
100
AcDbLayout
  1
Layout1
 70
     1
 71
     1
 10
0.0
 20
0.0
 11
12.0
 21
9.0
 12
0.0
 22
0.0
 32
0.0
 14
1.000000000000000E+20
 24
1.000000000000000E+20
 34
1.000000000000000E+20
 15
-1.000000000000000E+20
 25
-1.000000000000000E+20
 35
-1.000000000000000E+20
146
0.0
 13
0.0
 23
0.0
 33
0.0
 16
1.0
 26
0.0
 36
0.0
 17
0.0
 27
1.0
 37
0.0
 76
     0
330
1B
  0
LAYOUT
  5
26
102
{ACAD_REACTORS
330
1A
102
}
330
1A
100
AcDbPlotSettings
  1

  2
none_device
  4

  6

 40
0.0
 41
0.0
 42
0.0
 43
0.0
 44
0.0
 45
0.0
 46
0.0
 47
0.0
 48
0.0
 49
0.0
140
0.0
141
0.0
142
1.0
143
1.0
 70
   688
 72
     0
 73
     0
 74
     5
  7

 75
    16
 76
     0
 77
     2
 78
   300
147
1.0
148
0.0
149
0.0
100
AcDbLayout
  1
Layout2
 70
     1
 71
     2
 10
0.0
 20
0.0
 11
0.0
 21
0.0
 12
0.0
 22
0.0
 32
0.0
 14
0.0
 24
0.0
 34
0.0
 15
0.0
 25
0.0
 35
0.0
146
0.0
 13
0.0
 23
0.0
 33
0.0
 16
1.0
 26
0.0
 36
0.0
 17
0.0
 27
1.0
 37
0.0
 76
     0
330
23
  0
LAYOUT
  5
22
102
{ACAD_REACTORS
330
1A
102
}
330
1A
100
AcDbPlotSettings
  1

  2
none_device
  4

  6

 40
0.0
 41
0.0
 42
0.0
 43
0.0
 44
0.0
 45
0.0
 46
0.0
 47
0.0
 48
0.0
 49
0.0
140
0.0
141
0.0
142
1.0
143
1.0
 70
  1712
 72
     0
 73
     0
 74
     0
  7

 75
     0
 76
     0
 77
     2
 78
   300
147
1.0
148
0.0
149
0.0
100
AcDbLayout
  1
Model
 70
     1
 71
     0
 10
0.0
 20
0.0
 11
12.0
 21
9.0
 12
0.0
 22
0.0
 32
0.0
 14
-37.75002908653327
 24
-0.0000000002171276
 34
0.0
 15
75.20087298938898
 25
65.13727764025559
 35
0.0
146
0.0
 13
0.0
 23
0.0
 33
0.0
 16
1.0
 26
0.0
 36
0.0
 17
0.0
 27
1.0
 37
0.0
 76
     0
330
1F
331
29
  0
MLINESTYLE
  5
18
102
{ACAD_REACTORS
330
17
102
}
330
17
100
AcDbMlineStyle
  2
Standard
 70
     0
  3

 62
   256
 51
90.0
 52
90.0
 71
     2
 49
0.5
 62
   256
  6
BYLAYER
 49
-0.5
 62
   256
  6
BYLAYER
  0
ACDBPLACEHOLDER
  5
F
102
{ACAD_REACTORS
330
E
102
}
330
E
  0
VISUALSTYLE
  5
2F
102
{ACAD_REACTORS
330
2A
102
}
330
2A
100
AcDbVisualStyle
  2
2dWireframe
 70
     4
 71
     0
 72
     2
 73
     0
 90
        0
 40
-0.6
 41
-30.0
 62
     5
 63
     7
421
 16777215
 74
     1
 91
        4
 64
     7
 65
   257
 75
     1
175
     1
 42
1.0
 92
        0
 66
   257
 43
1.0
 76
     1
 77
     6
 78
     2
 67
     7
 79
     5
170
     0
171
     0
290
     0
174
     0
 93
        1
 44
0.0
173
     0
291
     0
 45
0.0
1001
ACAD
1000
AcDbSavedByObjectVersion
1070
     0
  0
VISUALSTYLE
  5
31
102
{ACAD_REACTORS
330
2A
102
}
330
2A
100
AcDbVisualStyle
  2
3D Hidden
 70
     6
 71
     1
 72
     2
 73
     2
 90
        0
 40
-0.6
 41
-30.0
 62
     5
 63
     7
421
 16777215
 74
     2
 91
        2
 64
     7
 65
   257
 75
     2
175
     1
 42
40.0
 92
        0
 66
   257
 43
1.0
 76
     1
 77
     6
 78
     2
 67
     7
 79
     3
170
     0
171
     0
290
     0
174
     0
 93
        1
 44
0.0
173
     0
291
     0
 45
0.0
1001
ACAD
1000
AcDbSavedByObjectVersion
1070
     0
  0
VISUALSTYLE
  5
30
102
{ACAD_REACTORS
330
2A
102
}
330
2A
100
AcDbVisualStyle
  2
3dWireframe
 70
     5
 71
     0
 72
     2
 73
     0
 90
        0
 40
-0.6
 41
-30.0
 62
     5
 63
     7
421
 16777215
 74
     1
 91
        4
 64
     7
 65
   257
 75
     1
175
     1
 42
1.0
 92
        0
 66
   257
 43
1.0
 76
     1
 77
     6
 78
     2
 67
     7
 79
     5
170
     0
171
     0
290
     0
174
     0
 93
        1
 44
0.0
173
     0
291
     0
 45
0.0
1001
ACAD
1000
AcDbSavedByObjectVersion
1070
     0
  0
VISUALSTYLE
  5
32
102
{ACAD_REACTORS
330
2A
102
}
330
2A
100
AcDbVisualStyle
  2
Basic
 70
     7
 71
     1
 72
     0
 73
     1
 90
        0
 40
-0.6
 41
-30.0
 62
     5
 63
     7
421
 16777215
 74
     0
 91
        4
 64
     7
 65
   257
 75
     1
175
     1
 42
1.0
 92
        8
 66
     7
 43
1.0
 76
     1
 77
     6
 78
     2
 67
     7
 79
     5
170
     0
171
     0
290
     0
174
     0
 93
        1
 44
0.0
173
     0
291
     1
 45
0.0
1001
ACAD
1000
AcDbSavedByObjectVersion
1070
     0
  0
VISUALSTYLE
  5
36
102
{ACAD_REACTORS
330
2A
102
}
330
2A
100
AcDbVisualStyle
  2
Brighten
 70
    12
 71
     2
 72
     2
 73
     0
 90
        0
 40
-0.6
 41
-30.0
 62
     5
 63
     7
421
 16777215
 74
     1
 91
        4
 64
     7
 65
   257
 75
     1
175
     1
 42
1.0
 92
        8
 66
     7
 43
1.0
 76
     1
 77
     6
 78
     2
 67
     7
 79
     5
170
     0
171
     0
290
     0
174
     0
 93
        1
 44
50.0
173
     0
291
     1
 45
0.0
1001
ACAD
1000
AcDbSavedByObjectVersion
1070
     0
  0
VISUALSTYLE
  5
3A
102
{ACAD_REACTORS
330
2A
102
}
330
2A
100
AcDbVisualStyle
  2
ColorChange
 70
    16
 71
     2
 72
     2
 73
     3
 90
        0
 40
-0.6
 41
-30.0
 62
     5
 63
     8
421
  8421504
 74
     1
 91
        4
 64
     7
 65
   257
 75
     1
175
     1
 42
1.0
 92
        8
 66
     8
424
  8421504
 43
1.0
 76
     1
 77
     6
 78
     2
 67
     7
 79
     5
170
     0
171
     0
290
     0
174
     0
 93
        1
 44
0.0
173
     0
291
     1
 45
0.0
1001
ACAD
1000
AcDbSavedByObjectVersion
1070
     0
  0
VISUALSTYLE
  5
34
102
{ACAD_REACTORS
330
2A
102
}
330
2A
100
AcDbVisualStyle
  2
Conceptual
 70
     9
 71
     3
 72
     2
 73
     0
 90
        0
 40
-0.6
 41
-30.0
 62
     5
 63
     7
421
 16777215
 74
     2
 91
        2
 64
     7
 65
   257
 75
     1
175
     1
 42
40.0
 92
        8
 66
     7
 43
1.0
 76
     1
 77
     6
 78
     2
 67
     7
 79
     3
170
     0
171
     0
290
     0
174
     0
 93
        1
 44
0.0
173
     0
291
     0
 45
0.0
1001
ACAD
1000
AcDbSavedByObjectVersion
1070
     0
  0
VISUALSTYLE
  5
35
102
{ACAD_REACTORS
330
2A
102
}
330
2A
100
AcDbVisualStyle
  2
Dim
 70
    11
 71
     2
 72
     2
 73
     0
 90
        0
 40
-0.6
 41
-30.0
 62
     5
 63
     7
421
 16777215
 74
     1
 91
        4
 64
     7
 65
   257
 75
     1
175
     1
 42
1.0
 92
        8
 66
     7
 43
1.0
 76
     1
 77
     6
 78
     2
 67
     7
 79
     5
170
     0
171
     0
290
     0
174
     0
 93
        1
 44
-50.0
173
     0
291
     1
 45
0.0
1001
ACAD
1000
AcDbSavedByObjectVersion
1070
     0
  0
VISUALSTYLE
  5
39
102
{ACAD_REACTORS
330
2A
102
}
330
2A
100
AcDbVisualStyle
  2
Facepattern
 70
    15
 71
     2
 72
     2
 73
     0
 90
        0
 40
-0.6
 41
-30.0
 62
     5
 63
     7
421
 16777215
 74
     1
 91
        4
 64
     7
 65
   257
 75
     1
175
     1
 42
1.0
 92
        8
 66
     7
 43
1.0
 76
     1
 77
     6
 78
     2
 67
     7
 79
     5
170
     0
171
     0
290
     0
174
     0
 93
        1
 44
0.0
173
     0
291
     1
 45
0.0
1001
ACAD
1000
AcDbSavedByObjectVersion
1070
     0
  0
VISUALSTYLE
  5
2B
102
{ACAD_REACTORS
330
2A
102
}
330
2A
100
AcDbVisualStyle
  2
Flat
 70
     0
 71
     2
 72
     1
 73
     1
 90
        2
 40
-0.6
 41
30.0
 62
     5
 63
     7
421
 16777215
 74
     0
 91
        4
 64
     7
 65
   257
 75
     1
175
     1
 42
1.0
 92
        8
 66
     7
 43
1.0
 76
     1
 77
     6
 78
     2
 67
     7
 79
     5
170
     0
171
     0
290
     0
174
     0
 93
       13
 44
0.0
173
     0
291
     1
 45
0.0
1001
ACAD
1000
AcDbSavedByObjectVersion
1070
     0
  0
VISUALSTYLE
  5
2C
102
{ACAD_REACTORS
330
2A
102
}
330
2A
100
AcDbVisualStyle
  2
FlatWithEdges
 70
     1
 71
     2
 72
     1
 73
     1
 90
        2
 40
-0.6
 41
30.0
 62
     5
 63
     7
421
 16777215
 74
     1
 91
        4
 64
     7
 65
   257
 75
     1
175
     1
 42
1.0
 92
        0
 66
   257
 43
1.0
 76
     1
 77
     6
 78
     2
 67
     7
 79
     5
170
     0
171
     0
290
     0
174
     0
 93
       13
 44
0.0
173
     0
291
     1
 45
0.0
1001
ACAD
1000
AcDbSavedByObjectVersion
1070
     0
  0
VISUALSTYLE
  5
2D
102
{ACAD_REACTORS
330
2A
102
}
330
2A
100
AcDbVisualStyle
  2
Gouraud
 70
     2
 71
     2
 72
     2
 73
     1
 90
        2
 40
-0.6
 41
30.0
 62
     5
 63
     7
421
 16777215
 74
     0
 91
        4
 64
     7
 65
   257
 75
     1
175
     1
 42
1.0
 92
        0
 66
     7
 43
1.0
 76
     1
 77
     6
 78
     2
 67
     7
 79
     5
170
     0
171
     0
290
     0
174
     0
 93
       13
 44
0.0
173
     0
291
     1
 45
0.0
1001
ACAD
1000
AcDbSavedByObjectVersion
1070
     0
  0
VISUALSTYLE
  5
2E
102
{ACAD_REACTORS
330
2A
102
}
330
2A
100
AcDbVisualStyle
  2
GouraudWithEdges
 70
     3
 71
     2
 72
     2
 73
     1
 90
        2
 40
-0.6
 41
30.0
 62
     5
 63
     7
421
 16777215
 74
     1
 91
        4
 64
     7
 65
   257
 75
     1
175
     1
 42
1.0
 92
        0
 66
   257
 43
1.0
 76
     1
 77
     6
 78
     2
 67
     7
 79
     5
170
     0
171
     0
290
     0
174
     0
 93
       13
 44
0.0
173
     0
291
     1
 45
0.0
1001
ACAD
1000
AcDbSavedByObjectVersion
1070
     0
  0
VISUALSTYLE
  5
38
102
{ACAD_REACTORS
330
2A
102
}
330
2A
100
AcDbVisualStyle
  2
Linepattern
 70
    14
 71
     2
 72
     2
 73
     0
 90
        0
 40
-0.6
 41
-30.0
 62
     5
 63
     7
421
 16777215
 74
     1
 91
        4
 64
     7
 65
   257
 75
     7
175
     7
 42
1.0
 92
        8
 66
     7
 43
1.0
 76
     1
 77
     6
 78
     2
 67
     7
 79
     5
170
     0
171
     0
290
     0
174
     0
 93
        1
 44
0.0
173
     0
291
     1
 45
0.0
1001
ACAD
1000
AcDbSavedByObjectVersion
1070
     0
  0
VISUALSTYLE
  5
33
102
{ACAD_REACTORS
330
2A
102
}
330
2A
100
AcDbVisualStyle
  2
Realistic
 70
     8
 71
     2
 72
     2
 73
     0
 90
        0
 40
-0.6
 41
-30.0
 62
     5
 63
     7
421
 16777215
 74
     1
 91
        0
 64
     7
 65
   257
 75
     1
175
     1
 42
1.0
 92
        8
 66
     8
424
  7895160
 43
1.0
 76
     1
 77
     6
 78
     2
 67
     7
 79
     5
170
     0
171
     0
290
     0
174
     0
 93
       13
 44
0.0
173
     0
291
     0
 45
0.0
1001
ACAD
1000
AcDbSavedByObjectVersion
1070
     0
  0
VISUALSTYLE
  5
37
102
{ACAD_REACTORS
330
2A
102
}
330
2A
100
AcDbVisualStyle
  2
Thicken
 70
    13
 71
     2
 72
     2
 73
     0
 90
        0
 40
-0.6
 41
-30.0
 62
     5
 63
     7
421
 16777215
 74
     1
 91
        4
 64
     7
 65
   257
 75
     1
175
     1
 42
1.0
 92
       12
 66
     7
 43
1.0
 76
     1
 77
     6
 78
     2
 67
     7
 79
     5
170
     0
171
     0
290
     0
174
     0
 93
        1
 44
0.0
173
     0
291
     1
 45
0.0
1001
ACAD
1000
AcDbSavedByObjectVersion
1070
     0
  0
ENDSEC
  0
EOF
