  0
SECTION
  2
HEADER
  9
$ACADVER
  1
AC1018
  9
$ACADMAINTVER
 70
     0
  9
$DWGCODEPAGE
  3
ANSI_1252
  9
$INSBASE
 10
0.0
 20
0.0
 30
0.0
  9
$EXTMIN
 10
-41.00041319355797
 20
-0.0000000002170566
 30
0.0
  9
$EXTMAX
 10
81.45092899943408
 20
65.13727764025566
 30
0.0
  9
$LIMMIN
 10
0.0
 20
0.0
  9
$LIMMAX
 10
12.0
 20
9.0
  9
$ORTHOMODE
 70
     0
  9
$REGENMODE
 70
     1
  9
$FILLMODE
 70
     1
  9
$QTEXTMODE
 70
     0
  9
$MIRRTEXT
 70
     1
  9
$LTSCALE
 40
0.0393700787401575
  9
$ATTMODE
 70
     1
  9
$TEXTSIZE
 40
0.2
  9
$TRACEWID
 40
0.05
  9
$TEXTSTYLE
  7
Standard
  9
$CLAYER
  8
0
  9
$CELTYPE
  6
ByLayer
  9
$CECOLOR
 62
   256
  9
$CELTSCALE
 40
1.0
  9
$DISPSILH
 70
     0
  9
$DIMSCALE
 40
1.0
  9
$DIMASZ
 40
0.18
  9
$DIMEXO
 40
0.0625
  9
$DIMDLI
 40
0.38
  9
$DIMRND
 40
0.0
  9
$DIMDLE
 40
0.0
  9
$DIMEXE
 40
0.18
  9
$DIMTP
 40
0.0
  9
$DIMTM
 40
0.0
  9
$DIMTXT
 40
0.18
  9
$DIMCEN
 40
0.09
  9
$DIMTSZ
 40
0.0
  9
$DIMTOL
 70
     0
  9
$DIMLIM
 70
     0
  9
$DIMTIH
 70
     1
  9
$DIMTOH
 70
     1
  9
$DIMSE1
 70
     0
  9
$DIMSE2
 70
     0
  9
$DIMTAD
 70
     0
  9
$DIMZIN
 70
     0
  9
$DIMBLK
  1

  9
$DIMASO
 70
     1
  9
$DIMSHO
 70
     1
  9
$DIMPOST
  1

  9
$DIMAPOST
  1

  9
$DIMALT
 70
     0
  9
$DIMALTD
 70
     2
  9
$DIMALTF
 40
25.4
  9
$DIMLFAC
 40
1.0
  9
$DIMTOFL
 70
     0
  9
$DIMTVP
 40
0.0
  9
$DIMTIX
 70
     0
  9
$DIMSOXD
 70
     0
  9
$DIMSAH
 70
     0
  9
$DIMBLK1
  1

  9
$DIMBLK2
  1

  9
$DIMSTYLE
  2
Standard
  9
$DIMCLRD
 70
     0
  9
$DIMCLRE
 70
     0
  9
$DIMCLRT
 70
     0
  9
$DIMTFAC
 40
1.0
  9
$DIMGAP
 40
0.09
  9
$DIMJUST
 70
     0
  9
$DIMSD1
 70
     0
  9
$DIMSD2
 70
     0
  9
$DIMTOLJ
 70
     1
  9
$DIMTZIN
 70
     0
  9
$DIMALTZ
 70
     0
  9
$DIMALTTZ
 70
     0
  9
$DIMUPT
 70
     0
  9
$DIMDEC
 70
     4
  9
$DIMTDEC
 70
     4
  9
$DIMALTU
 70
     2
  9
$DIMALTTD
 70
     2
  9
$DIMTXSTY
  7
Standard
  9
$DIMAUNIT
 70
     0
  9
$DIMADEC
 70
     0
  9
$DIMALTRND
 40
0.0
  9
$DIMAZIN
 70
     0
  9
$DIMDSEP
 70
    46
  9
$DIMATFIT
 70
     3
  9
$DIMFRAC
 70
     0
  9
$DIMLDRBLK
  1

  9
$DIMLUNIT
 70
     2
  9
$DIMLWD
 70
    -2
  9
$DIMLWE
 70
    -2
  9
$DIMTMOVE
 70
     2
  9
$LUNITS
 70
     2
  9
$LUPREC
 70
     3
  9
$SKETCHINC
 40
0.1
  9
$FILLETRAD
 40
0.5
  9
$AUNITS
 70
     0
  9
$AUPREC
 70
     0
  9
$MENU
  1
.
  9
$ELEVATION
 40
0.0
  9
$PELEVATION
 40
0.0
  9
$THICKNESS
 40
0.0
  9
$LIMCHECK
 70
     0
  9
$CHAMFERA
 40
0.5
  9
$CHAMFERB
 40
0.5
  9
$CHAMFERC
 40
1.0
  9
$CHAMFERD
 40
0.0
  9
$SKPOLY
 70
     0
  9
$TDCREATE
 40
2458148.970377026
  9
$TDUCREATE
 40
2458149.178710359
  9
$TDUPDATE
 40
2458148.970377037
  9
$TDUUPDATE
 40
2458149.17871037
  9
$TDINDWG
 40
0.0000000116
  9
$TDUSRTIMER
 40
0.0000000116
  9
$USRTIMER
 70
     1
  9
$ANGBASE
 50
0.0
  9
$ANGDIR
 70
     0
  9
$PDMODE
 70
     0
  9
$PDSIZE
 40
0.0
  9
$PLINEWID
 40
0.0
  9
$SPLFRAME
 70
     0
  9
$SPLINETYPE
 70
     6
  9
$SPLINESEGS
 70
     8
  9
$HANDSEED
  5
ED
  9
$SURFTAB1
 70
     6
  9
$SURFTAB2
 70
     6
  9
$SURFTYPE
 70
     6
  9
$SURFU
 70
     6
  9
$SURFV
 70
     6
  9
$UCSBASE
  2

  9
$UCSNAME
  2

  9
$UCSORG
 10
0.0
 20
0.0
 30
0.0
  9
$UCSXDIR
 10
1.0
 20
0.0
 30
0.0
  9
$UCSYDIR
 10
0.0
 20
1.0
 30
0.0
  9
$UCSORTHOREF
  2

  9
$UCSORTHOVIEW
 70
     0
  9
$UCSORGTOP
 10
0.0
 20
0.0
 30
0.0
  9
$UCSORGBOTTOM
 10
0.0
 20
0.0
 30
0.0
  9
$UCSORGLEFT
 10
0.0
 20
0.0
 30
0.0
  9
$UCSORGRIGHT
 10
0.0
 20
0.0
 30
0.0
  9
$UCSORGFRONT
 10
0.0
 20
0.0
 30
0.0
  9
$UCSORGBACK
 10
0.0
 20
0.0
 30
0.0
  9
$PUCSBASE
  2

  9
$PUCSNAME
  2

  9
$PUCSORG
 10
0.0
 20
0.0
 30
0.0
  9
$PUCSXDIR
 10
1.0
 20
0.0
 30
0.0
  9
$PUCSYDIR
 10
0.0
 20
1.0
 30
0.0
  9
$PUCSORTHOREF
  2

  9
$PUCSORTHOVIEW
 70
     0
  9
$PUCSORGTOP
 10
0.0
 20
0.0
 30
0.0
  9
$PUCSORGBOTTOM
 10
0.0
 20
0.0
 30
0.0
  9
$PUCSORGLEFT
 10
0.0
 20
0.0
 30
0.0
  9
$PUCSORGRIGHT
 10
0.0
 20
0.0
 30
0.0
  9
$PUCSORGFRONT
 10
0.0
 20
0.0
 30
0.0
  9
$PUCSORGBACK
 10
0.0
 20
0.0
 30
0.0
  9
$USERI1
 70
     0
  9
$USERI2
 70
     0
  9
$USERI3
 70
     0
  9
$USERI4
 70
     0
  9
$USERI5
 70
     0
  9
$USERR1
 40
0.0
  9
$USERR2
 40
0.0
  9
$USERR3
 40
0.0
  9
$USERR4
 40
0.0
  9
$USERR5
 40
0.0
  9
$WORLDVIEW
 70
     1
  9
$SHADEDGE
 70
     3
  9
$SHADEDIF
 70
    70
  9
$TILEMODE
 70
     1
  9
$MAXACTVP
 70
    64
  9
$PINSBASE
 10
0.0
 20
0.0
 30
0.0
  9
$PLIMCHECK
 70
     0
  9
$PEXTMIN
 10
1.000000000000000E+20
 20
1.000000000000000E+20
 30
1.000000000000000E+20
  9
$PEXTMAX
 10
-1.000000000000000E+20
 20
-1.000000000000000E+20
 30
-1.000000000000000E+20
  9
$PLIMMIN
 10
0.0
 20
0.0
  9
$PLIMMAX
 10
12.0
 20
9.0
  9
$UNITMODE
 70
     0
  9
$VISRETAIN
 70
     1
  9
$PLINEGEN
 70
     0
  9
$PSLTSCALE
 70
     1
  9
$TREEDEPTH
 70
  3020
  9
$CMLSTYLE
  2
Standard
  9
$CMLJUST
 70
     0
  9
$CMLSCALE
 40
1.0
  9
$PROXYGRAPHICS
 70
     1
  9
$MEASUREMENT
 70
     0
  9
$CELWEIGHT
370
    -1
  9
$ENDCAPS
280
     0
  9
$JOINSTYLE
280
     0
  9
$LWDISPLAY
290
     0
  9
$INSUNITS
 70
     1
  9
$HYPERLINKBASE
  1

  9
$STYLESHEET
  1

  9
$XEDIT
290
     1
  9
$CEPSNTYPE
380
     0
  9
$PSTYLEMODE
290
     1
  9
$FINGERPRINTGUID
  2
{0148DDEA-5F17-4358-8801-27EE23996079}
  9
$VERSIONGUID
  2
{FAEB1C32-E019-11D5-929B-00C0DF256EC4}
  9
$EXTNAMES
290
     1
  9
$PSVPSCALE
 40
0.0
  9
$OLESTARTUP
290
     0
  9
$SORTENTS
280
   127
  9
$INDEXCTL
280
     0
  9
$HIDETEXT
280
     1
  9
$XCLIPFRAME
290
     0
  9
$HALOGAP
280
     0
  9
$OBSCOLOR
 70
   257
  9
$OBSLTYPE
280
     0
  9
$INTERSECTIONDISPLAY
280
     0
  9
$INTERSECTIONCOLOR
 70
   257
  9
$DIMASSOC
280
     2
  9
$PROJECTNAME
  1

  0
ENDSEC
  0
SECTION
  2
CLASSES
  0
CLASS
  1
ACDBDICTIONARYWDFLT
  2
AcDbDictionaryWithDefault
  3
ObjectDBX Classes
 90
        0
 91
        4
280
     0
281
     0
  0
CLASS
  1
VISUALSTYLE
  2
AcDbVisualStyle
  3
ObjectDBX Classes
 90
     4095
 91
        4
280
     0
281
     0
  0
ENDSEC
  0
SECTION
  2
TABLES
  0
TABLE
  2
VPORT
  5
8
330
0
100
AcDbSymbolTable
 70
     1
  0
VPORT
  5
29
330
8
100
AcDbSymbolTableRecord
100
AcDbViewportTableRecord
  2
*Active
 70
     0
 10
0.0
 20
0.0
 11
1.0
 21
1.0
 12
20.22525790293805
 22
32.5686388200193
 13
0.0
 23
0.0
 14
0.5
 24
0.5
 15
0.5
 25
0.5
 16
0.0
 26
0.0
 36
1.0
 17
0.0
 27
0.0
 37
0.0
 40
66.44002319328217
 41
1.879896529739332
 42
50.0
 43
0.0
 44
0.0
 50
0.0
 51
0.0
 71
     0
 72
   100
 73
     1
 74
     3
 75
     0
 76
     0
 77
     0
 78
     0
281
     0
 65
     1
110
0.0
120
0.0
130
0.0
111
1.0
121
0.0
131
0.0
112
0.0
122
1.0
132
0.0
 79
     0
146
0.0
  0
ENDTAB
  0
TABLE
  2
LTYPE
  5
5
330
0
100
AcDbSymbolTable
 70
     1
  0
LTYPE
  5
14
330
5
100
AcDbSymbolTableRecord
100
AcDbLinetypeTableRecord
  2
ByBlock
 70
     0
  3

 72
    65
 73
     0
 40
0.0
  0
LTYPE
  5
15
330
5
100
AcDbSymbolTableRecord
100
AcDbLinetypeTableRecord
  2
ByLayer
 70
     0
  3

 72
    65
 73
     0
 40
0.0
  0
LTYPE
  5
16
330
5
100
AcDbSymbolTableRecord
100
AcDbLinetypeTableRecord
  2
Continuous
 70
     0
  3
Solid line
 72
    65
 73
     0
 40
0.0
  0
ENDTAB
  0
TABLE
  2
LAYER
  5
2
330
0
100
AcDbSymbolTable
 70
     2
  0
LAYER
  5
10
330
2
100
AcDbSymbolTableRecord
100
AcDbLayerTableRecord
  2
0
 70
     0
 62
     7
  6
Continuous
370
    -3
390
F
  0
LAYER
  5
3B
330
2
100
AcDbSymbolTableRecord
100
AcDbLayerTableRecord
  2
Layer 01
 70
     0
 62
     7
  6
Continuous
370
    -3
390
F
  0
ENDTAB
  0
TABLE
  2
STYLE
  5
3
330
0
100
AcDbSymbolTable
 70
     1
  0
STYLE
  5
11
330
3
100
AcDbSymbolTableRecord
100
AcDbTextStyleTableRecord
  2
Standard
 70
     0
 40
0.0
 41
1.0
 50
0.0
 71
     0
 42
0.2
  3
txt
  4

  0
ENDTAB
  0
TABLE
  2
VIEW
  5
6
330
0
100
AcDbSymbolTable
 70
     0
  0
ENDTAB
  0
TABLE
  2
UCS
  5
7
330
0
100
AcDbSymbolTable
 70
     0
  0
ENDTAB
  0
TABLE
  2
APPID
  5
9
330
0
100
AcDbSymbolTable
 70
     1
  0
APPID
  5
12
330
9
100
AcDbSymbolTableRecord
100
AcDbRegAppTableRecord
  2
ACAD
 70
     0
  0
ENDTAB
  0
TABLE
  2
DIMSTYLE
  5
A
330
0
100
AcDbSymbolTable
 70
     1
100
AcDbDimStyleTable
  0
DIMSTYLE
105
27
330
A
100
AcDbSymbolTableRecord
100
AcDbDimStyleTableRecord
  2
Standard
 70
     0
340
11
  0
ENDTAB
  0
TABLE
  2
BLOCK_RECORD
  5
1
330
0
100
AcDbSymbolTable
 70
     1
  0
BLOCK_RECORD
  5
1F
330
1
100
AcDbSymbolTableRecord
100
AcDbBlockTableRecord
  2
*Model_Space
340
22
  0
BLOCK_RECORD
  5
1B
330
1
100
AcDbSymbolTableRecord
100
AcDbBlockTableRecord
  2
*Paper_Space
340
1E
  0
BLOCK_RECORD
  5
23
330
1
100
AcDbSymbolTableRecord
100
AcDbBlockTableRecord
  2
*Paper_Space0
340
26
  0
ENDTAB
  0
ENDSEC
  0
SECTION
  2
BLOCKS
  0
BLOCK
  5
20
330
1F
100
AcDbEntity
  8
0
100
AcDbBlockBegin
  2
*Model_Space
 70
     0
 10
0.0
 20
0.0
 30
0.0
  3
*Model_Space
  1

  0
ENDBLK
  5
21
330
1F
100
AcDbEntity
  8
0
100
AcDbBlockEnd
  0
BLOCK
  5
1C
330
1B
100
AcDbEntity
 67
     1
  8
0
100
AcDbBlockBegin
  2
*Paper_Space
 70
     0
 10
0.0
 20
0.0
 30
0.0
  3
*Paper_Space
  1

  0
ENDBLK
  5
1D
330
1B
100
AcDbEntity
 67
     1
  8
0
100
AcDbBlockEnd
  0
BLOCK
  5
24
330
23
100
AcDbEntity
  8
0
100
AcDbBlockBegin
  2
*Paper_Space0
 70
     0
 10
0.0
 20
0.0
 30
0.0
  3
*Paper_Space0
  1

  0
ENDBLK
  5
25
330
23
100
AcDbEntity
  8
0
100
AcDbBlockEnd
  0
ENDSEC
  0
SECTION
  2
ENTITIES
  0
SPLINE
  5
3C
330
1F
100
AcDbEntity
  8
Layer 01
100
AcDbSpline
210
0.0
220
0.0
230
1.0
 70
    15
 71
     2
 72
    20
 73
    17
 74
     0
 42
0.0000000001
 43
0.0000000001
 40
201.8561944901975
 40
201.8561944901975
 40
201.8561944901975
 40
264.3561944901974
 40
264.3561944901974
 40
265.1415926535949
 40
265.1415926535949
 40
289.1415926535967
 40
289.1415926535967
 40
289.9269908169941
 40
289.9269908169941
 40
352.4269908169941
 40
352.4269908169941
 40
353.2123889803915
 40
353.2123889803915
 40
377.2123889803932
 40
377.2123889803932
 40
377.9977871437907
 40
377.9977871437907
 40
377.9977871437907
 10
28.00211795890133
 20
58.84018230528739
 30
0.0
 41
1.0
 10
-5.673857486430876
 20
58.84018230528739
 30
0.0
 41
1.0
 10
-34.20070485716992
 20
58.84018230528739
 30
0.0
 41
1.0
 10
-34.70070485716995
 20
58.84018230528739
 30
0.0
 41
0.7071067811865375
 10
-34.70070485716992
 20
58.34018230528736
 30
0.0
 41
1.0
 10
-34.70070485716992
 20
50.21525599047291
 30
0.0
 41
1.0
 10
-34.70070485716992
 20
40.63795852298497
 30
0.0
 41
1.0
 10
-34.7007048571699
 20
40.13795852298496
 30
0.0
 41
0.7071067811865551
 10
-34.20070485716992
 20
40.137958522985
 30
0.0
 41
1.0
 10
-4.163885652846815
 20
40.137958522985
 30
0.0
 41
1.0
 10
28.00211795890133
 20
40.137958522985
 30
0.0
 41
1.0
 10
28.50211795890133
 20
40.13795852298496
 30
0.0
 41
0.7071067811865476
 10
28.50211795890133
 20
40.637958522985
 30
0.0
 41
1.0
 10
28.50211795890133
 20
50.21525599047294
 30
0.0
 41
1.0
 10
28.50211795890133
 20
58.34018230528739
 30
0.0
 41
1.0
 10
28.50211795890132
 20
58.84018230528735
 30
0.0
 41
0.707106781186545
 10
28.00211795890133
 20
58.84018230528739
 30
0.0
 41
1.0
  0
SPLINE
  5
3D
330
1F
100
AcDbEntity
  8
Layer 01
100
AcDbSpline
210
0.0
220
0.0
230
1.0
 70
     8
 71
     3
 72
    18
 73
    14
 74
     0
 42
0.0000000001
 43
0.0000000001
 40
-64.98114690944844
 40
-64.98114690944844
 40
-64.98114690944844
 40
-64.98114690944844
 40
0.0000000000000009
 40
0.0000000000000009
 40
0.0000000000000009
 40
0.1164268758845156
 40
0.2328537517690304
 40
0.4657075035380599
 40
0.5821343794225746
 40
0.6985612553070895
 40
0.6985612553070895
 40
0.6985612553070895
 40
21.1790944341214
 40
21.1790944341214
 40
21.1790944341214
 40
21.1790944341214
 10
28.50211795538645
 20
61.07320902585269
 30
0.0
 10
-5.368857274719952
 20
61.07320883994308
 30
0.0
 10
-28.27314191937882
 20
61.07320865403344
 30
0.0
 10
-36.48104788696122
 20
61.07320846812382
 30
0.0
 10
-36.51664071251923
 20
61.06715281675554
 30
0.0
 10
-36.58834402838063
 20
61.04654472717766
 30
0.0
 10
-36.72480873921874
 20
60.97476334876791
 30
0.0
 10
-36.83734169893057
 20
60.86226709364445
 30
0.0
 10
-36.90916570797116
 20
60.72579928949159
 30
0.0
 10
-36.92979020863692
 20
60.65408821177982
 30
0.0
 10
-36.93585111959848
 20
60.61849171419203
 30
0.0
 10
-36.93585130860649
 20
53.79164732125395
 30
0.0
 10
-36.93585149761448
 20
46.96480292831581
 30
0.0
 10
-36.93585168662248
 20
40.13795853537772
 30
0.0
  0
SPLINE
  5
3E
330
1F
100
AcDbEntity
  8
Layer 01
100
AcDbSpline
210
0.0
220
0.0
230
1.0
 70
    12
 71
     2
 72
    30
 73
    27
 74
     0
 42
0.0000000001
 43
0.0000000001
 40
-3.109438420000032
 40
-3.109438420000032
 40
-3.109438420000032
 40
2.189757698527387
 40
2.189757698527387
 40
2.975155860225331
 40
2.975155860225331
 40
20.67737962423837
 40
20.67737962423837
 40
21.46277778763555
 40
21.46277778763555
 40
83.66358166906649
 40
83.66358166906649
 40
84.44897983297616
 40
84.44897983297616
 40
89.7460741863537
 40
89.7460741863537
 40
90.53147234259009
 40
90.53147234259009
 40
159.0314723425979
 40
159.0314723425979
 40
159.4241714380999
 40
159.4241714380999
 40
159.8168705336019
 40
159.8168705336019
 40
183.8161896302306
 40
183.8161896302306
 40
184.5980979430872
 40
184.5980979430872
 40
184.5980979430872
 10
-40.49990097399785
 20
40.13795852326493
 30
0.0
 41
1.0
 10
-37.85030291473414
 20
40.13795853226986
 30
0.0
 41
1.0
 10
-35.20070485547043
 20
40.1379585412748
 30
0.0
 41
1.0
 10
-34.70070485716994
 20
40.13795854297408
 30
0.0
 41
0.7071067823882787
 10
-34.70070485716974
 20
40.6379585412746
 30
0.0
 41
1.0
 10
-34.70070485716973
 20
49.48907042328111
 30
0.0
 41
1.0
 10
-34.70070485716973
 20
58.34018230528761
 30
0.0
 41
1.0
 10
-34.70070485716947
 20
58.84018230528737
 30
0.0
 41
0.7071067811867284
 10
-34.20070485716973
 20
58.84018230528739
 30
0.0
 41
1.0
 10
-28.63255392069382
 20
58.84018230528739
 30
0.0
 41
1.0
 10
28.00211795716042
 20
58.84018230528739
 30
0.0
 41
1.0
 10
28.50211795767266
 20
58.84018230528735
 30
0.0
 41
0.707106780824336
 10
28.50211795716042
 20
59.34018230579963
 30
0.0
 41
1.0
 10
28.50211795444933
 20
61.98872948248837
 30
0.0
 41
1.0
 10
28.50211795173824
 20
64.63727665917713
 30
0.0
 41
1.0
 10
28.50211795173835
 20
65.13727665201608
 30
0.0
 41
0.7071067862501635
 10
28.0021179588994
 20
65.13727665917725
 30
0.0
 41
1.0
 10
-31.78216163352224
 20
65.13727714971645
 30
0.0
 41
1.0
 10
-40.49992028456555
 20
65.13727764025566
 30
0.0
 41
1.0
 10
-40.70702707383789
 20
65.1372776432219
 30
0.0
 41
0.9238795272289946
 10
-40.85347368701668
 20
64.99083102615225
 30
0.0
 41
1.0
 10
-40.99992030019549
 20
64.84438440908256
 30
0.0
 41
0.9238795272289946
 10
-40.99992029172672
 20
64.63727761981028
 30
0.0
 41
1.0
 10
-40.99991980105821
 20
52.63761807149592
 30
0.0
 41
1.0
 10
-40.9999193103897
 20
40.63795852318157
 30
0.0
 41
1.0
 10
-40.99992620899493
 20
40.14143236599893
 30
0.0
 41
0.7095625215404059
 10
-40.50341211911432
 20
40.13797066638952
 30
0.0
 41
1.0
  0
SPLINE
  5
3F
330
1F
100
AcDbEntity
  8
Layer 01
100
AcDbSpline
210
0.0
220
0.0
230
1.0
 70
    15
 71
     2
 72
    22
 73
    19
 74
     0
 42
0.0000000001
 43
0.0000000001
 40
-2581.011064848845
 40
-2581.011064848845
 40
-2581.011064848845
 40
-2578.139015056563
 40
-2578.139015056563
 40
-2577.353616893166
 40
-2577.353616893166
 40
-2553.353616935937
 40
-2553.353616935937
 40
-2552.568218772539
 40
-2552.568218772539
 40
-2549.696168980258
 40
-2549.696168980258
 40
-2549.303469898559
 40
-2549.303469898559
 40
-2526.10221994133
 40
-2526.10221994133
 40
-2524.803469941329
 40
-2524.803469941329
 40
-2524.41077085963
 40
-2524.41077085963
 40
-2524.41077085963
 10
-34.70062643162169
 20
14.62503914815716
 30
0.0
 41
1.0
 10
-34.70062643162163
 20
16.06106404429795
 30
0.0
 41
1.0
 10
-34.70062643162157
 20
17.49708894043874
 30
0.0
 41
1.0
 10
-34.70062643162159
 20
17.99708894043875
 30
0.0
 41
0.7071067811865426
 10
-34.20062643162157
 20
17.99708894043874
 30
0.0
 41
1.0
 10
-16.00035720489848
 20
17.99708894043874
 30
0.0
 41
1.0
 10
28.00212657539881
 20
17.99708894043874
 30
0.0
 41
1.0
 10
28.50212657539879
 20
17.99708894043875
 30
0.0
 41
0.7071067811865627
 10
28.50212657539881
 20
17.49708894043874
 30
0.0
 41
1.0
 10
28.50212657539891
 20
16.06106404429795
 30
0.0
 41
1.0
 10
28.50212657539901
 20
14.62503914815716
 30
0.0
 41
1.0
 10
28.50212657539901
 20
14.37503914815712
 30
0.0
 41
0.7071067811865426
 10
28.25212657539901
 20
14.37503914815716
 30
0.0
 41
1.0
 10
-15.35098220489796
 20
14.37503914815716
 30
0.0
 41
1.0
 10
-33.15187643162074
 20
14.37503914815716
 30
0.0
 41
1.0
 10
-33.80125143162117
 20
14.37503914815716
 30
0.0
 41
1.0
 10
-34.4506264316216
 20
14.37503914815716
 30
0.0
 41
1.0
 10
-34.70062643162169
 20
14.37503914815707
 30
0.0
 41
0.707106781186427
 10
-34.70062643162169
 20
14.62503914815716
 30
0.0
 41
1.0
  0
SPLINE
  5
40
330
1F
100
AcDbEntity
  8
Layer 01
100
AcDbSpline
210
0.0
220
0.0
230
1.0
 70
    12
 71
     2
 72
    10
 73
     7
 74
     0
 42
0.0000000001
 43
0.0000000001
 40
0.0
 40
0.0
 40
0.0
 40
22.32166540663653
 40
22.32166540663653
 40
23.10706357003397
 40
23.10706357003397
 40
34.69833270537369
 40
34.69833270537369
 40
34.69833270537369
 10
-38.84230381766123
 20
29.72912780620558
 30
0.0
 41
1.0
 10
-15.18141510429787
 20
29.72912780620558
 30
0.0
 41
1.0
 10
27.98190140070295
 20
29.72912780620558
 30
0.0
 41
1.0
 10
28.48190140070295
 20
29.72912780620547
 30
0.0
 41
0.70710678118655
 10
28.48190140070283
 20
29.22912780620547
 30
0.0
 41
1.0
 10
28.48190140070283
 20
23.43349323853562
 30
0.0
 41
1.0
 10
28.48190140070283
 20
17.63785867086574
 30
0.0
 41
1.0
  0
SPLINE
  5
41
330
1F
100
AcDbEntity
  8
Layer 01
100
AcDbSpline
210
0.0
220
0.0
230
1.0
 70
    15
 71
     2
 72
    20
 73
    17
 74
     0
 42
0.0000000001
 43
0.0000000001
 40
-6482.241760176043
 40
-6482.241760176043
 40
-6482.241760176043
 40
-6480.991760176043
 40
-6480.991760176043
 40
-6480.599061094345
 40
-6480.599061094345
 40
-6417.599061094345
 40
-6417.599061094345
 40
-6417.206362012646
 40
-6417.206362012646
 40
-6415.956362012646
 40
-6415.956362012646
 40
-6415.563662930947
 40
-6415.563662930947
 40
-6352.563662930947
 40
-6352.563662930947
 40
-6352.170963849248
 40
-6352.170963849248
 40
-6352.170963849248
 10
41.00000000000003
 20
12.87500000239922
 30
0.0
 41
1.0
 10
40.99999999999986
 20
13.50000000239922
 30
0.0
 41
1.0
 10
40.99999999999969
 20
14.12500000239922
 30
0.0
 41
1.0
 10
40.99999999999969
 20
14.37500000239921
 30
0.0
 41
0.7071067811865476
 10
40.74999999999969
 20
14.37500000239922
 30
0.0
 41
1.0
 10
9.249999999999744
 20
14.37500000239922
 30
0.0
 41
1.0
 10
-40.75006577884965
 20
14.37500000239922
 30
0.0
 41
1.0
 10
-41.00006577884965
 20
14.37500000239922
 30
0.0
 41
0.7071067811865426
 10
-41.00006577884965
 20
14.12500000239922
 30
0.0
 41
1.0
 10
-41.00006577884976
 20
13.50000000239922
 30
0.0
 41
1.0
 10
-41.00006577884987
 20
12.87500000239922
 30
0.0
 41
1.0
 10
-41.0000657788499
 20
12.62500000239901
 30
0.0
 41
0.7071067811861858
 10
-40.75006577884965
 20
12.62500000239922
 30
0.0
 41
1.0
 10
9.249999999999915
 20
12.62500000239922
 30
0.0
 41
1.0
 10
40.75000000000003
 20
12.62500000239922
 30
0.0
 41
1.0
 10
41.00000000000003
 20
12.62500000239921
 30
0.0
 41
0.707106781186545
 10
41.00000000000003
 20
12.87500000239922
 30
0.0
 41
1.0
  0
LINE
  5
42
330
1F
100
AcDbEntity
  8
Layer 01
100
AcDbLine
 10
-40.76551393596364
 20
14.37545611202293
 30
0.0
 11
-39.73254846436377
 21
14.37545611202293
 31
0.0
  0
POLYLINE
  5
43
330
1F
100
AcDbEntity
  8
Layer 01
100
AcDb2dPolyline
 66
     1
 10
0.0
 20
0.0
 30
0.0
  0
VERTEX
  5
44
330
43
100
AcDbEntity
  8
Layer 01
100
AcDbVertex
100
AcDb2dVertex
 10
-39.73254846436377
 20
14.37545611202293
 30
0.0
  0
VERTEX
  5
45
330
43
100
AcDbEntity
  8
Layer 01
100
AcDbVertex
100
AcDb2dVertex
 10
-34.9371498108287
 20
14.37545611202293
 30
0.0
  0
SEQEND
  5
46
330
43
100
AcDbEntity
  8
Layer 01
  0
SPLINE
  5
47
330
1F
100
AcDbEntity
  8
Layer 01
100
AcDbSpline
210
0.0
220
0.0
230
1.0
 70
    12
 71
     2
 72
     6
 73
     3
 74
     0
 42
0.0000000001
 43
0.0000000001
 40
0.0
 40
0.0
 40
0.0
 40
0.3786001376135906
 40
0.3786001376135906
 40
0.3786001376135906
 10
-34.9371498108287
 20
14.37545611202293
 30
0.0
 41
1.0
 10
-34.70129257994548
 20
14.38973549156171
 30
0.0
 41
0.7267410359880693
 10
-34.70226565015489
 20
14.62602989259349
 30
0.0
 41
1.0
  0
SPLINE
  5
48
330
1F
100
AcDbEntity
  8
Layer 01
100
AcDbSpline
210
0.0
220
0.0
230
1.0
 70
    12
 71
     2
 72
     6
 73
     3
 74
     0
 42
0.0000000001
 43
0.0000000001
 40
-0.0017423404607927
 40
-0.0017423404607927
 40
-0.0017423404607927
 40
0.0
 40
0.0
 40
0.0
 10
-34.70226565015489
 20
14.62602989259349
 30
0.0
 41
1.0
 10
-34.70139253586495
 20
14.62609694569448
 30
0.0
 41
0.9994397703759269
 10
-34.70052101134687
 20
14.62606046766773
 30
0.0
 41
0.9999999586676036
  0
LINE
  5
49
330
1F
100
AcDbEntity
  8
Layer 01
100
AcDbLine
 10
-34.70052101134688
 20
14.62606046766771
 30
0.0
 11
-34.70052101354392
 21
17.31204279852409
 31
0.0
  0
SPLINE
  5
4A
330
1F
100
AcDbEntity
  8
Layer 01
100
AcDbSpline
210
0.0
220
0.0
230
1.0
 70
     8
 71
     3
 72
    14
 73
    10
 74
     0
 42
0.0000000001
 43
0.0000000001
 40
-12.26203533468478
 40
-12.26203533468478
 40
-12.26203533468478
 40
-12.26203533468478
 40
-10.74358193232705
 40
-8.947613819412345
 40
-7.141201977474322
 40
-5.367291970666196
 40
-2.433620593354017
 40
-1.183560743342271
 40
0.0
 40
0.0
 40
0.0
 40
0.0
 10
-34.70052101354392
 20
17.31204279852409
 30
0.0
 10
-34.70961366946143
 20
17.81810309965229
 30
0.0
 10
-34.75957612161052
 20
18.92216990831389
 30
0.0
 10
-34.91346585812866
 20
20.62237700370653
 30
0.0
 10
-35.13281911488981
 20
22.40137396940457
 30
0.0
 10
-35.47969440501332
 20
24.54498231654537
 30
0.0
 10
-35.91687901797022
 20
26.48463194259193
 30
0.0
 10
-36.46616952979626
 20
28.18873419825314
 30
0.0
 10
-36.77178738001923
 20
28.94065262540022
 30
0.0
 10
-36.93566486054965
 20
29.2996036780699
 30
0.0
  0
LINE
  5
4B
330
1F
100
AcDbEntity
  8
Layer 01
100
AcDbLine
 10
-36.93566486054965
 20
29.2996036780699
 30
0.0
 11
-36.94651403252581
 21
29.32336729518696
 31
0.0
  0
ARC
  5
4C
330
1F
100
AcDbEntity
  8
Layer 01
100
AcDbCircle
 10
-37.40135395497097
 20
29.11571218460674
 30
0.0
 40
0.5
100
AcDbArc
 50
24.5388541044486
 51
80.9991774031581
  0
SPLINE
  5
4D
330
1F
100
AcDbEntity
  8
Layer 01
100
AcDbSpline
210
0.0
220
0.0
230
1.0
 70
    12
 71
     2
 72
     6
 73
     3
 74
     0
 42
0.0000000001
 43
0.0000000001
 40
-1.629194543905347
 40
-1.629194543905347
 40
-1.629194543905347
 40
0.0
 40
0.0
 40
0.0
 10
-37.32312963232665
 20
29.60955523188677
 30
0.0
 41
0.9999618433163424
 10
-38.12959345481178
 20
29.7372984219519
 30
0.0
 41
0.9964642919834154
 10
-38.94606518966439
 20
29.72857341280999
 30
0.0
 41
0.999999996566831
  0
SPLINE
  5
4E
330
1F
100
AcDbEntity
  8
Layer 01
100
AcDbSpline
210
0.0
220
0.0
230
1.0
 70
    12
 71
     2
 72
     6
 73
     3
 74
     0
 42
0.0000000001
 43
0.0000000001
 40
0.0
 40
0.0
 40
0.0
 40
1.638033214271802
 40
1.638033214271802
 40
1.638033214271802
 10
-38.94606518966439
 20
29.72857341280999
 30
0.0
 41
0.999999996566831
 10
-39.76698223155671
 20
29.73734592554927
 30
0.0
 41
0.9964451101567618
 10
-40.57771996394627
 20
29.60817005210225
 30
0.0
 41
1.0
  0
SPLINE
  5
4F
330
1F
100
AcDbEntity
  8
Layer 01
100
AcDbSpline
210
0.0
220
0.0
230
1.0
 70
    12
 71
     2
 72
     6
 73
     3
 74
     0
 42
0.0000000001
 43
0.0000000001
 40
0.0
 40
0.0
 40
0.0
 40
0.7070700636718217
 40
0.7070700636718217
 40
0.7070700636718217
 10
-40.57771996394627
 20
29.60817005210225
 30
0.0
 41
1.0
 10
-40.99971619381751
 20
29.54153760536835
 30
0.0
 41
0.760266553890503
 10
-40.99973546303062
 20
29.11431336992175
 30
0.0
 41
1.0
  0
SPLINE
  5
50
330
1F
100
AcDbEntity
  8
Layer 01
100
AcDbSpline
210
0.0
220
0.0
230
1.0
 70
    24
 71
     2
 72
     6
 73
     3
 74
     0
 42
0.0000000001
 43
0.0000000001
 40
-14.4893020002786
 40
-14.4893020002786
 40
-14.4893020002786
 40
0.0
 40
0.0
 40
0.0
 10
-40.99973546303062
 20
29.11431336992175
 30
0.0
 10
-41.0000743282943
 20
21.86966207059062
 30
0.0
 10
-41.00041319355797
 20
14.6250107712595
 30
0.0
  0
SPLINE
  5
51
330
1F
100
AcDbEntity
  8
Layer 01
100
AcDbSpline
210
0.0
220
0.0
230
1.0
 70
    12
 71
     2
 72
     6
 73
     3
 74
     0
 42
0.0000000001
 43
0.0000000001
 40
0.0
 40
0.0
 40
0.0
 40
0.3761352932874497
 40
0.3761352932874497
 40
0.3761352932874497
 10
-41.00041319355797
 20
14.6250107712595
 30
0.0
 41
1.0
 10
-41.00042571442427
 20
14.38966848030078
 30
0.0
 41
0.7194662149251728
 10
-40.76551393596365
 20
14.37545611202294
 30
0.0
 41
0.9763257704015883
  0
POLYLINE
  5
52
330
1F
100
AcDbEntity
  8
Layer 01
100
AcDb2dPolyline
 66
     1
 10
0.0
 20
0.0
 30
0.0
  0
VERTEX
  5
53
330
52
100
AcDbEntity
  8
Layer 01
100
AcDbVertex
100
AcDb2dVertex
 10
-34.0160654582525
 20
12.62500000235801
 30
0.0
  0
VERTEX
  5
54
330
52
100
AcDbEntity
  8
Layer 01
100
AcDbVertex
100
AcDb2dVertex
 10
-27.79606577885083
 20
12.62500000235801
 30
0.0
  0
SEQEND
  5
55
330
52
100
AcDbEntity
  8
Layer 01
  0
SPLINE
  5
56
330
1F
100
AcDbEntity
  8
Layer 01
100
AcDbSpline
210
0.0
220
0.0
230
1.0
 70
    12
 71
     5
 72
    13
 73
     7
 74
     0
 42
0.0000000001
 43
0.0000000001
 40
-0.9999999998854913
 40
-0.9999999998854913
 40
-0.9999999998854913
 40
-0.9999999998854913
 40
-0.9999999998854913
 40
-0.9999999998854913
 40
-0.4999999999118557
 40
0.0000214316302039
 40
0.0000214316302039
 40
0.0000214316302039
 40
0.0000214316302039
 40
0.0000214316302039
 40
0.0000214316302039
 10
-27.79606577885083
 20
12.62500000235801
 30
0.0
 41
1.0
 10
-27.79606642489072
 20
12.56009560996321
 30
0.0
 41
1.0
 10
-27.815365476395
 20
12.44654867131683
 30
0.0
 41
1.0
 10
-27.87326164905896
 20
12.36553619865933
 30
0.0
 41
1.0
 10
-27.96143071648105
 20
12.3100254208467
 30
0.0
 41
1.0
 10
-28.0761147055827
 20
12.27687454006869
 30
0.0
 41
1.0
 10
-28.14008634268218
 20
12.26588517969751
 30
0.0
 41
1.0
  0
SPLINE
  5
57
330
1F
100
AcDbEntity
  8
Layer 01
100
AcDbSpline
210
0.0
220
0.0
230
1.0
 70
    12
 71
     2
 72
     6
 73
     3
 74
     0
 42
0.0000000001
 43
0.0000000001
 40
0.0
 40
0.0
 40
0.0
 40
1.843263450064862
 40
1.843263450064862
 40
1.843263450064862
 10
-28.14008634268218
 20
12.26588517969751
 30
0.0
 41
1.0
 10
-29.04840570277877
 20
12.10980514713994
 30
0.0
 41
0.9999999999936852
 10
-29.9567261060967
 20
11.95373101772142
 30
0.0
 41
1.0
  0
SPLINE
  5
58
330
1F
100
AcDbEntity
  8
Layer 01
100
AcDbSpline
210
0.0
220
0.0
230
1.0
 70
    12
 71
     2
 72
     6
 73
     3
 74
     0
 42
0.0000000001
 43
0.0000000001
 40
0.0
 40
0.0
 40
0.0
 40
0.6997662170032295
 40
0.6997662170032295
 40
0.6997662170032295
 10
-29.9567261060967
 20
11.95373101772142
 30
0.0
 41
1.0
 10
-30.37159313882493
 20
11.88244667937165
 30
0.0
 41
0.7649870492777086
 10
-30.37204971809176
 20
11.46120110138614
 30
0.0
 41
1.0
  0
SPLINE
  5
59
330
1F
100
AcDbEntity
  8
Layer 01
100
AcDbSpline
210
0.0
220
0.0
230
1.0
 70
    12
 71
     3
 72
    13
 73
     9
 74
     0
 42
0.0000000001
 43
0.0000000001
 40
1.164116092654201
 40
1.164116092654201
 40
1.164116092654201
 40
1.164116092654201
 40
1.192754371812117
 40
1.192754371812117
 40
1.839154429652598
 40
2.485554487552516
 40
2.485554487552516
 40
2.941799361814759
 40
2.941799361814759
 40
2.941799361814759
 40
2.941799361814759
 10
-30.37204971809176
 20
11.46120110138614
 30
0.0
 41
1.0
 10
-30.37204887284058
 20
11.45135583614487
 30
0.0
 41
1.0
 10
-30.37204943171416
 20
11.44180974146312
 30
0.0
 41
1.0
 10
-30.37209897626012
 20
11.21679696863649
 30
0.0
 41
1.0
 10
-30.37418263671445
 20
10.78587479042537
 30
0.0
 41
1.0
 10
-30.38137037820313
 20
10.35502399011497
 30
0.0
 41
1.0
 10
-30.38716857839783
 20
9.987521416801513
 30
0.0
 41
1.0
 10
-30.38936938365957
 20
9.835444068753105
 30
0.0
 41
1.0
 10
-30.39113608372035
 20
9.682909845823787
 30
0.0
 41
1.0
  0
SPLINE
  5
5A
330
1F
100
AcDbEntity
  8
Layer 01
100
AcDbSpline
210
0.0
220
0.0
230
1.0
 70
    12
 71
     2
 72
     6
 73
     3
 74
     0
 42
0.0000000001
 43
0.0000000001
 40
0.0
 40
0.0
 40
0.0
 40
0.0011199978112541
 40
0.0011199978112541
 40
0.0011199978112541
 10
-30.39113608372035
 20
9.682909845823787
 30
0.0
 41
1.0
 10
-30.39115379182115
 20
9.681893448860665
 30
0.0
 41
0.9999999565253123
 10
-30.39115379107618
 20
9.681333409514053
 30
0.0
 41
1.0
  0
SPLINE
  5
5B
330
1F
100
AcDbEntity
  8
Layer 01
100
AcDbSpline
210
0.0
220
0.0
230
1.0
 70
    12
 71
     2
 72
     6
 73
     3
 74
     0
 42
0.0000000001
 43
0.0000000001
 40
0.0
 40
0.0
 40
0.0
 40
1.157563000328597
 40
1.157563000328597
 40
1.157563000328597
 10
-30.39115379107618
 20
9.681333409514053
 30
0.0
 41
1.0
 10
-30.39672950937535
 20
9.102576156243122
 30
0.0
 41
0.9999932729902123
 10
-30.39806554450062
 20
8.523792488378916
 30
0.0
 41
1.0
  0
SPLINE
  5
5C
330
1F
100
AcDbEntity
  8
Layer 01
100
AcDbSpline
210
0.0
220
0.0
230
1.0
 70
    12
 71
     3
 72
    12
 73
     8
 74
     0
 42
0.0000000001
 43
0.0000000001
 40
0.0000022290245399
 40
0.0000022290245399
 40
0.0000022290245399
 40
0.0000022290245399
 40
2.973330383277389
 40
2.973330383277389
 40
5.533332299297856
 40
5.533332299297856
 40
8.0907540207247
 40
8.0907540207247
 40
8.0907540207247
 40
8.0907540207247
 10
-30.39806554450062
 20
8.523792488378916
 30
0.0
 41
1.0
 10
-30.4018087543764
 20
7.533012356544731
 30
0.0
 41
1.0
 10
-30.41194533159528
 20
6.542166505228721
 30
0.0
 41
1.0
 10
-30.43688936849155
 20
4.69854680284098
 30
0.0
 41
1.0
 10
-30.45074864456051
 20
3.846004306662195
 30
0.0
 41
1.0
 10
-30.47809910591961
 20
2.140986238235968
 30
0.0
 41
1.0
 10
-30.4915080192897
 20
1.289616091246245
 30
0.0
 41
1.0
 10
-30.50274559868312
 20
0.4374291487058883
 30
0.0
 41
1.0
  0
SPLINE
  5
5D
330
1F
100
AcDbEntity
  8
Layer 01
100
AcDbSpline
210
0.0
220
0.0
230
1.0
 70
    12
 71
     2
 72
     6
 73
     3
 74
     0
 42
0.0000000001
 43
0.0000000001
 40
0.0
 40
0.0
 40
0.0
 40
0.0970316672143772
 40
0.0970316672143772
 40
0.0970316672143772
 10
-30.50274559868312
 20
0.4374291487058883
 30
0.0
 41
1.0
 10
-30.50332419541789
 20
0.3763075181237371
 30
0.0
 41
0.717857630247824
 10
-30.56441022276526
 20
0.3750140462357479
 30
0.0
 41
1.0
  0
POLYLINE
  5
5E
330
1F
100
AcDbEntity
  8
Layer 01
100
AcDb2dPolyline
 66
     1
 10
0.0
 20
0.0
 30
0.0
  0
VERTEX
  5
5F
330
5E
100
AcDbEntity
  8
Layer 01
100
AcDbVertex
100
AcDb2dVertex
 10
-30.56441022276526
 20
0.3750140462357479
 30
0.0
  0
VERTEX
  5
60
330
5E
100
AcDbEntity
  8
Layer 01
100
AcDbVertex
100
AcDb2dVertex
 10
-31.24639025133767
 20
0.3750000024412827
 30
0.0
  0
SEQEND
  5
61
330
5E
100
AcDbEntity
  8
Layer 01
  0
SPLINE
  5
62
330
1F
100
AcDbEntity
  8
Layer 01
100
AcDbSpline
210
0.0
220
0.0
230
1.0
 70
    12
 71
     2
 72
     6
 73
     3
 74
     0
 42
0.0000000001
 43
0.0000000001
 40
0.0
 40
0.0
 40
0.0
 40
0.0983105351425802
 40
0.0983105351425802
 40
0.0983105351425802
 10
-31.24639025133767
 20
0.3750000024412827
 30
0.0
 41
1.0
 10
-31.30874608776379
 20
0.374998070860046
 30
0.0
 41
0.7107094273922171
 10
-31.30938500137488
 20
0.4373708929652764
 30
0.0
 41
1.0
  0
SPLINE
  5
63
330
1F
100
AcDbEntity
  8
Layer 01
100
AcDbSpline
210
0.0
220
0.0
230
1.0
 70
    12
 71
     3
 72
    12
 73
     8
 74
     0
 42
0.0000000001
 43
0.0000000001
 40
0.0025122088885125
 40
0.0025122088885125
 40
0.0025122088885125
 40
0.0025122088885125
 40
2.559996601448771
 40
2.559996601448771
 40
5.119998517672128
 40
5.119998517672128
 40
8.093326489272172
 40
8.093326489272172
 40
8.093326489272172
 40
8.093326489272172
 10
-31.30938500137488
 20
0.4373708929652764
 30
0.0
 41
1.0
 10
-31.32062288122658
 20
1.289574364790354
 30
0.0
 41
1.0
 10
-31.33403211683269
 20
2.140965357733336
 30
0.0
 41
1.0
 10
-31.36138291314357
 20
3.846004306932485
 30
0.0
 41
1.0
 10
-31.37524218921344
 20
4.698546803178857
 30
0.0
 41
1.0
 10
-31.40018622528571
 20
6.542166444777109
 30
0.0
 41
1.0
 10
-31.41032280208121
 20
7.533012235214215
 30
0.0
 41
1.0
 10
-31.414066012855
 20
8.523792397285803
 30
0.0
 41
1.0
  0
SPLINE
  5
64
330
1F
100
AcDbEntity
  8
Layer 01
100
AcDbSpline
210
0.0
220
0.0
230
1.0
 70
    12
 71
     2
 72
     6
 73
     3
 74
     0
 42
0.0000000001
 43
0.0000000001
 40
0.0
 40
0.0
 40
0.0
 40
1.157566753814006
 40
1.157566753814006
 40
1.157566753814006
 10
-31.414066012855
 20
8.523792397285803
 30
0.0
 41
1.0
 10
-31.41541387631059
 20
9.10257794411945
 30
0.0
 41
0.9999934222404667
 10
-31.42096593934846
 20
9.681337225291168
 30
0.0
 41
0.9999999999999121
  0
SPLINE
  5
65
330
1F
100
AcDbEntity
  8
Layer 01
100
AcDbSpline
210
0.0
220
0.0
230
1.0
 70
    12
 71
     2
 72
     6
 73
     3
 74
     0
 42
0.0000000001
 43
0.0000000001
 40
0.0
 40
0.0
 40
0.0
 40
0.0011163185374098
 40
0.0011163185374098
 40
0.0011163185374098
 10
-31.42096593934836
 20
9.681337225291173
 30
0.0
 41
1.0
 10
-31.42097778501857
 20
9.6818952883992
 30
0.0
 41
0.9999999568108967
 10
-31.42098343309208
 20
9.68290997984164
 30
0.0
 41
1.0
  0
SPLINE
  5
66
330
1F
100
AcDbEntity
  8
Layer 01
100
AcDbSpline
210
0.0
220
0.0
230
1.0
 70
    12
 71
     3
 72
    13
 73
     9
 74
     0
 42
0.0000000001
 43
0.0000000001
 40
1.159780968969077
 40
1.159780968969077
 40
1.159780968969077
 40
1.159780968969077
 40
1.219999999483621
 40
1.219999999483621
 40
1.859999999216523
 40
1.859999999216523
 40
2.49999999917158
 40
2.937447200127758
 40
2.937447200127758
 40
2.937447200127758
 40
2.937447200127758
 10
-31.42098343309208
 20
9.68290997984164
 30
0.0
 41
1.0
 10
-31.42121149844336
 20
9.703438966347761
 30
0.0
 41
1.0
 10
-31.42144797563792
 20
9.723511031694585
 30
0.0
 41
1.0
 10
-31.42429518440944
 20
9.956899993741246
 30
0.0
 41
1.0
 10
-31.42791020397242
 20
10.17023320478077
 30
0.0
 41
1.0
 10
-31.43454247753282
 20
10.59684831315664
 30
0.0
 41
1.0
 10
-31.43922721108065
 20
10.95596334870564
 30
0.0
 41
1.0
 10
-31.44007739046371
 20
11.31509077060551
 30
0.0
 41
1.0
 10
-31.44007675501773
 20
11.46118232485989
 30
0.0
 41
1.0
  0
SPLINE
  5
67
330
1F
100
AcDbEntity
  8
Layer 01
100
AcDbSpline
210
0.0
220
0.0
230
1.0
 70
    12
 71
     2
 72
     6
 73
     3
 74
     0
 42
0.0000000001
 43
0.0000000001
 40
0.0
 40
0.0
 40
0.0
 40
0.6998000892342029
 40
0.6998000892342029
 40
0.6998000892342029
 10
-31.44007675501773
 20
11.46118232485989
 30
0.0
 41
1.0
 10
-31.44051585531425
 20
11.88243362283063
 30
0.0
 41
0.764976675619346
 10
-31.85540544659902
 20
11.95373104660413
 30
0.0
 41
1.0
  0
SPLINE
  5
68
330
1F
100
AcDbEntity
  8
Layer 01
100
AcDbSpline
210
0.0
220
0.0
230
1.0
 70
    12
 71
     2
 72
     6
 73
     3
 74
     0
 42
0.0000000001
 43
0.0000000001
 40
0.0
 40
0.0
 40
0.0
 40
1.843263134159366
 40
1.843263134159366
 40
1.843263134159366
 10
-31.85540544659902
 20
11.95373104660413
 30
0.0
 41
1.0
 10
-32.76372569918512
 20
12.10980512042273
 30
0.0
 41
0.999999999993685
 10
-33.67204489901489
 20
12.26588515296336
 30
0.0
 41
1.0
  0
SPLINE
  5
69
330
1F
100
AcDbEntity
  8
Layer 01
100
AcDbSpline
210
0.0
220
0.0
230
1.0
 70
    12
 71
     5
 72
    13
 73
     7
 74
     0
 42
0.0000000001
 43
0.0000000001
 40
-0.0000214316302125
 40
-0.0000214316302125
 40
-0.0000214316302125
 40
-0.0000214316302125
 40
-0.0000214316302125
 40
-0.0000214316302125
 40
0.4999999999109885
 40
0.9999999998854894
 40
0.9999999998854894
 40
0.9999999998854894
 40
0.9999999998854894
 40
0.9999999998854894
 40
0.9999999998854894
 10
-33.67204489901489
 20
12.26588515296336
 30
0.0
 41
1.0
 10
-33.73601653152154
 20
12.27687454006892
 30
0.0
 41
1.0
 10
-33.85070052062285
 20
12.31002542084698
 30
0.0
 41
1.0
 10
-33.93886958804471
 20
12.36553619865961
 30
0.0
 41
1.0
 10
-33.99676576070844
 20
12.446548671317
 30
0.0
 41
1.0
 10
-34.01606481221272
 20
12.56009560996321
 30
0.0
 41
1.0
 10
-34.0160654582525
 20
12.62500000235801
 30
0.0
 41
1.0
  0
POLYLINE
  5
6A
330
1F
100
AcDbEntity
  8
Layer 01
100
AcDb2dPolyline
 66
     1
 10
0.0
 20
0.0
 30
0.0
  0
VERTEX
  5
6B
330
6A
100
AcDbEntity
  8
Layer 01
100
AcDbVertex
100
AcDb2dVertex
 10
-30.66397701737439
 20
-0.0000000002170566
 30
0.0
  0
VERTEX
  5
6C
330
6A
100
AcDbEntity
  8
Layer 01
100
AcDbVertex
100
AcDb2dVertex
 10
-31.14815454478178
 20
0.0000000002172271
 30
0.0
  0
SEQEND
  5
6D
330
6A
100
AcDbEntity
  8
Layer 01
  0
SPLINE
  5
6E
330
1F
100
AcDbEntity
  8
Layer 01
100
AcDbSpline
210
0.0
220
0.0
230
1.0
 70
    12
 71
     2
 72
     6
 73
     3
 74
     0
 42
0.0000000001
 43
0.0000000001
 40
0.0
 40
0.0
 40
0.0
 40
0.241924443334512
 40
0.241924443334512
 40
0.241924443334512
 10
-31.14815454478178
 20
0.0000000002172271
 30
0.0
 41
1.0
 10
-31.30106555894912
 20
0.0000000303541481
 30
0.0
 41
0.7141418074729331
 10
-31.30403688311951
 20
0.1529065059711741
 30
0.0
 41
1.0
  0
LINE
  5
6F
330
1F
100
AcDbEntity
  8
Layer 01
100
AcDbLine
 10
-31.30403688311951
 20
0.1529065059711741
 30
0.0
 11
-31.30873548021025
 21
0.3750000023996733
 31
0.0
  0
LINE
  5
70
330
1F
100
AcDbEntity
  8
Layer 01
100
AcDbLine
 10
-31.30873548021025
 20
0.3750000023996733
 30
0.0
 11
-30.50392636423514
 21
0.3750000023996733
 31
0.0
  0
LINE
  5
71
330
1F
100
AcDbEntity
  8
Layer 01
100
AcDbLine
 10
-30.50392636423514
 20
0.3750000023996733
 30
0.0
 11
-30.50835982277776
 21
0.152906503777416
 31
0.0
  0
SPLINE
  5
72
330
1F
100
AcDbEntity
  8
Layer 01
100
AcDbSpline
210
0.0
220
0.0
230
1.0
 70
    12
 71
     2
 72
     6
 73
     3
 74
     0
 42
0.0000000001
 43
0.0000000001
 40
0.0
 40
0.0
 40
0.0
 40
0.2419244355107725
 40
0.2419244355107725
 40
0.2419244355107725
 10
-30.50835982277776
 20
0.152906503777416
 30
0.0
 41
1.0
 10
-30.51106600937681
 20
0.0000000321588865
 30
0.0
 41
0.7141418153608741
 10
-30.66397701737439
 20
-0.0000000002170566
 30
0.0
 41
1.0
  0
SPLINE
  5
73
330
1F
100
AcDbEntity
  8
Layer 01
100
AcDbSpline
210
0.0
220
0.0
230
1.0
 70
    15
 71
     2
 72
    20
 73
    17
 74
     0
 42
0.0000000001
 43
0.0000000001
 40
100.35
 40
100.35
 40
100.35
 40
123.75
 40
123.75
 40
124.9280972450962
 40
124.9280972450962
 40
148.3280972450962
 40
148.3280972450962
 40
149.5061944901923
 40
149.5061944901923
 40
172.9061944901923
 40
172.9061944901923
 40
174.0842917352885
 40
174.0842917352885
 40
197.4842917352885
 40
197.4842917352885
 40
198.6623889803847
 40
198.6623889803847
 40
198.6623889803847
 10
29.25211795890132
 20
40.18795852298584
 30
0.0
 41
1.0
 10
32.2226186863376
 20
40.18795852298584
 30
0.0
 41
1.0
 10
40.20211795890137
 20
40.18795852298584
 30
0.0
 41
1.0
 10
40.95211795890133
 20
40.18795852298584
 30
0.0
 41
0.7071067811865458
 10
40.95211795890137
 20
40.93795852298584
 30
0.0
 41
1.0
 10
40.95211795890137
 20
52.63795852298583
 30
0.0
 41
1.0
 10
40.95211795890137
 20
64.33795852298582
 30
0.0
 41
1.0
 10
40.95211795890133
 20
65.08795852298579
 30
0.0
 41
0.7071067811865458
 10
40.20211795890137
 20
65.08795852298582
 30
0.0
 41
1.0
 10
32.2226186863376
 20
65.08795852298582
 30
0.0
 41
1.0
 10
29.25211795890132
 20
65.08795852298582
 30
0.0
 41
1.0
 10
28.50211795890128
 20
65.08795852298582
 30
0.0
 41
0.7071067811865483
 10
28.50211795890132
 20
64.33795852298582
 30
0.0
 41
1.0
 10
28.50211795890132
 20
52.63795852298583
 30
0.0
 41
1.0
 10
28.50211795890132
 20
40.93795852298584
 30
0.0
 41
1.0
 10
28.50211795890144
 20
40.18795852298584
 30
0.0
 41
0.7071067811865476
 10
29.25211795890132
 20
40.18795852298584
 30
0.0
 41
1.0
  0
SPLINE
  5
74
330
1F
100
AcDbEntity
  8
Layer 01
100
AcDbSpline
210
0.0
220
0.0
230
1.0
 70
    11
 71
     2
 72
    12
 73
     9
 74
     0
 42
0.0000000001
 43
0.0000000001
 40
0.0
 40
0.0
 40
0.0
 40
24.90000000000001
 40
24.90000000000001
 40
25.65000000000001
 40
25.65000000000001
 40
50.55000000000001
 40
50.55000000000001
 40
51.30000000000001
 40
51.30000000000001
 40
51.30000000000001
 10
28.50212657539888
 20
14.62500000239922
 30
0.0
 10
34.7271265753989
 20
14.62500000239922
 30
0.0
 10
40.95212657539892
 20
14.62500000239922
 30
0.0
 10
40.95212657539892
 20
15.00000000239922
 30
0.0
 10
40.95212657539892
 20
15.37500000239922
 30
0.0
 10
34.7271265753989
 20
15.37500000239922
 30
0.0
 10
28.50212657539888
 20
15.37500000239922
 30
0.0
 10
28.50212657539888
 20
15.00000000239922
 30
0.0
 10
28.50212657539888
 20
14.62500000239922
 30
0.0
  0
POLYLINE
  5
75
330
1F
100
AcDbEntity
  8
Layer 01
100
AcDb2dPolyline
 66
     1
 10
0.0
 20
0.0
 30
0.0
  0
VERTEX
  5
76
330
75
100
AcDbEntity
  8
Layer 01
100
AcDbVertex
100
AcDb2dVertex
 10
30.66390664184954
 20
-0.0000000002170566
 30
0.0
  0
VERTEX
  5
77
330
75
100
AcDbEntity
  8
Layer 01
100
AcDbVertex
100
AcDb2dVertex
 10
31.14808416925692
 20
0.0000000002172271
 30
0.0
  0
SEQEND
  5
78
330
75
100
AcDbEntity
  8
Layer 01
  0
SPLINE
  5
79
330
1F
100
AcDbEntity
  8
Layer 01
100
AcDbSpline
210
0.0
220
0.0
230
1.0
 70
    12
 71
     2
 72
     6
 73
     3
 74
     0
 42
0.0000000001
 43
0.0000000001
 40
0.0
 40
0.0
 40
0.0
 40
0.241924443334512
 40
0.241924443334512
 40
0.241924443334512
 10
31.14808416925692
 20
0.0000000002172271
 30
0.0
 41
1.0
 10
31.3009951834242
 20
0.0000000303541481
 30
0.0
 41
0.7141418074729331
 10
31.30396650759465
 20
0.1529065059711741
 30
0.0
 41
1.0
  0
LINE
  5
7A
330
1F
100
AcDbEntity
  8
Layer 01
100
AcDbLine
 10
31.30396650759465
 20
0.1529065059711741
 30
0.0
 11
31.30866510468528
 21
0.3750000023996733
 31
0.0
  0
LINE
  5
7B
330
1F
100
AcDbEntity
  8
Layer 01
100
AcDbLine
 10
31.30866510468528
 20
0.3750000023996733
 30
0.0
 11
30.50385598871017
 21
0.3750000023996733
 31
0.0
  0
LINE
  5
7C
330
1F
100
AcDbEntity
  8
Layer 01
100
AcDbLine
 10
30.50385598871017
 20
0.3750000023996733
 30
0.0
 11
30.50828944725279
 21
0.152906503777416
 31
0.0
  0
SPLINE
  5
7D
330
1F
100
AcDbEntity
  8
Layer 01
100
AcDbSpline
210
0.0
220
0.0
230
1.0
 70
    12
 71
     2
 72
     6
 73
     3
 74
     0
 42
0.0000000001
 43
0.0000000001
 40
0.0
 40
0.0
 40
0.0
 40
0.2419244355107725
 40
0.2419244355107725
 40
0.2419244355107725
 10
30.50828944725279
 20
0.152906503777416
 30
0.0
 41
1.0
 10
30.5109956338518
 20
0.0000000321588865
 30
0.0
 41
0.7141418153608741
 10
30.66390664184954
 20
-0.0000000002170566
 30
0.0
 41
1.0
  0
SPLINE
  5
7E
330
1F
100
AcDbEntity
  8
Layer 01
100
AcDbSpline
210
0.0
220
0.0
230
1.0
 70
    11
 71
     2
 72
    12
 73
     9
 74
     0
 42
0.0000000001
 43
0.0000000001
 40
0.0
 40
0.0
 40
0.0
 40
21.89999999999998
 40
21.89999999999998
 40
22.14999999999998
 40
22.14999999999998
 40
44.04999999999995
 40
44.04999999999995
 40
44.29999999999995
 40
44.29999999999995
 40
44.29999999999995
 10
30.00212657539888
 20
14.37500000239922
 30
0.0
 10
34.7271265753989
 20
14.37500000239922
 30
0.0
 10
39.45212657539892
 20
14.37500000239922
 30
0.0
 10
39.45212657539892
 20
14.50000000239922
 30
0.0
 10
39.45212657539892
 20
14.62500000239922
 30
0.0
 10
34.7271265753989
 20
14.62500000239922
 30
0.0
 10
30.00212657539888
 20
14.62500000239922
 30
0.0
 10
30.00212657539888
 20
14.50000000239922
 30
0.0
 10
30.00212657539888
 20
14.37500000239922
 30
0.0
  0
POLYLINE
  5
7F
330
1F
100
AcDbEntity
  8
Layer 01
100
AcDb2dPolyline
 66
     1
 10
0.0
 20
0.0
 30
0.0
  0
VERTEX
  5
80
330
7F
100
AcDbEntity
  8
Layer 01
100
AcDbVertex
100
AcDb2dVertex
 10
34.01599508272764
 20
12.62500000235801
 30
0.0
  0
VERTEX
  5
81
330
7F
100
AcDbEntity
  8
Layer 01
100
AcDbVertex
100
AcDb2dVertex
 10
27.79599540332597
 20
12.62500000235801
 30
0.0
  0
SEQEND
  5
82
330
7F
100
AcDbEntity
  8
Layer 01
  0
SPLINE
  5
83
330
1F
100
AcDbEntity
  8
Layer 01
100
AcDbSpline
210
0.0
220
0.0
230
1.0
 70
    12
 71
     5
 72
    13
 73
     7
 74
     0
 42
0.0000000001
 43
0.0000000001
 40
-0.9999999998854913
 40
-0.9999999998854913
 40
-0.9999999998854913
 40
-0.9999999998854913
 40
-0.9999999998854913
 40
-0.9999999998854913
 40
-0.4999999999118557
 40
0.0000214316302039
 40
0.0000214316302039
 40
0.0000214316302039
 40
0.0000214316302039
 40
0.0000214316302039
 40
0.0000214316302039
 10
27.79599540332597
 20
12.62500000235801
 30
0.0
 41
1.0
 10
27.79599604936575
 20
12.56009560996321
 30
0.0
 41
1.0
 10
27.81529510087003
 20
12.44654867131683
 30
0.0
 41
1.0
 10
27.87319127353399
 20
12.36553619865933
 30
0.0
 41
1.0
 10
27.96136034095608
 20
12.3100254208467
 30
0.0
 41
1.0
 10
28.07604433005773
 20
12.27687454006869
 30
0.0
 41
1.0
 10
28.14001596715721
 20
12.26588517969751
 30
0.0
 41
1.0
  0
SPLINE
  5
84
330
1F
100
AcDbEntity
  8
Layer 01
100
AcDbSpline
210
0.0
220
0.0
230
1.0
 70
    12
 71
     2
 72
     6
 73
     3
 74
     0
 42
0.0000000001
 43
0.0000000001
 40
0.0
 40
0.0
 40
0.0
 40
1.843263450064862
 40
1.843263450064862
 40
1.843263450064862
 10
28.14001596715721
 20
12.26588517969751
 30
0.0
 41
1.0
 10
29.04833532725385
 20
12.10980514713994
 30
0.0
 41
0.9999999999936852
 10
29.95665573057184
 20
11.95373101772142
 30
0.0
 41
1.0
  0
SPLINE
  5
85
330
1F
100
AcDbEntity
  8
Layer 01
100
AcDbSpline
210
0.0
220
0.0
230
1.0
 70
    12
 71
     2
 72
     6
 73
     3
 74
     0
 42
0.0000000001
 43
0.0000000001
 40
0.0
 40
0.0
 40
0.0
 40
0.6997662170032295
 40
0.6997662170032295
 40
0.6997662170032295
 10
29.95665573057184
 20
11.95373101772142
 30
0.0
 41
1.0
 10
30.37152276330008
 20
11.88244667937165
 30
0.0
 41
0.7649870492777086
 10
30.3719793425669
 20
11.46120110138614
 30
0.0
 41
1.0
  0
SPLINE
  5
86
330
1F
100
AcDbEntity
  8
Layer 01
100
AcDbSpline
210
0.0
220
0.0
230
1.0
 70
    12
 71
     3
 72
    13
 73
     9
 74
     0
 42
0.0000000001
 43
0.0000000001
 40
1.164116092654201
 40
1.164116092654201
 40
1.164116092654201
 40
1.164116092654201
 40
1.192754371812117
 40
1.192754371812117
 40
1.839154429652598
 40
2.485554487552516
 40
2.485554487552516
 40
2.941799361814759
 40
2.941799361814759
 40
2.941799361814759
 40
2.941799361814759
 10
30.3719793425669
 20
11.46120110138614
 30
0.0
 41
1.0
 10
30.37197849731572
 20
11.45135583614487
 30
0.0
 41
1.0
 10
30.3719790561893
 20
11.44180974146312
 30
0.0
 41
1.0
 10
30.37202860073526
 20
11.21679696863649
 30
0.0
 41
1.0
 10
30.37411226118959
 20
10.78587479042537
 30
0.0
 41
1.0
 10
30.38130000267816
 20
10.35502399011497
 30
0.0
 41
1.0
 10
30.38709820287286
 20
9.987521416801513
 30
0.0
 41
1.0
 10
30.3892990081346
 20
9.835444068753105
 30
0.0
 41
1.0
 10
30.39106570819538
 20
9.682909845823787
 30
0.0
 41
1.0
  0
SPLINE
  5
87
330
1F
100
AcDbEntity
  8
Layer 01
100
AcDbSpline
210
0.0
220
0.0
230
1.0
 70
    12
 71
     2
 72
     6
 73
     3
 74
     0
 42
0.0000000001
 43
0.0000000001
 40
0.0
 40
0.0
 40
0.0
 40
0.0011199978112541
 40
0.0011199978112541
 40
0.0011199978112541
 10
30.39106570819538
 20
9.682909845823787
 30
0.0
 41
1.0
 10
30.39108341629623
 20
9.681893448860665
 30
0.0
 41
0.9999999565253123
 10
30.39108341555121
 20
9.681333409514053
 30
0.0
 41
1.0
  0
SPLINE
  5
88
330
1F
100
AcDbEntity
  8
Layer 01
100
AcDbSpline
210
0.0
220
0.0
230
1.0
 70
    12
 71
     2
 72
     6
 73
     3
 74
     0
 42
0.0000000001
 43
0.0000000001
 40
0.0
 40
0.0
 40
0.0
 40
1.157563000328597
 40
1.157563000328597
 40
1.157563000328597
 10
30.39108341555121
 20
9.681333409514053
 30
0.0
 41
1.0
 10
30.39665913385041
 20
9.102576156243122
 30
0.0
 41
0.9999932729902123
 10
30.39799516897565
 20
8.523792488378916
 30
0.0
 41
1.0
  0
SPLINE
  5
89
330
1F
100
AcDbEntity
  8
Layer 01
100
AcDbSpline
210
0.0
220
0.0
230
1.0
 70
    12
 71
     3
 72
    12
 73
     8
 74
     0
 42
0.0000000001
 43
0.0000000001
 40
0.0000022290245399
 40
0.0000022290245399
 40
0.0000022290245399
 40
0.0000022290245399
 40
2.973330383277389
 40
2.973330383277389
 40
5.533332299297856
 40
5.533332299297856
 40
8.0907540207247
 40
8.0907540207247
 40
8.0907540207247
 40
8.0907540207247
 10
30.39799516897565
 20
8.523792488378916
 30
0.0
 41
1.0
 10
30.40173837885143
 20
7.533012356544731
 30
0.0
 41
1.0
 10
30.41187495607042
 20
6.542166505228721
 30
0.0
 41
1.0
 10
30.43681899296669
 20
4.69854680284098
 30
0.0
 41
1.0
 10
30.45067826903565
 20
3.846004306662195
 30
0.0
 41
1.0
 10
30.47802873039475
 20
2.140986238235968
 30
0.0
 41
1.0
 10
30.49143764376473
 20
1.289616091246245
 30
0.0
 41
1.0
 10
30.50267522315815
 20
0.4374291487058883
 30
0.0
 41
1.0
  0
SPLINE
  5
8A
330
1F
100
AcDbEntity
  8
Layer 01
100
AcDbSpline
210
0.0
220
0.0
230
1.0
 70
    12
 71
     2
 72
     6
 73
     3
 74
     0
 42
0.0000000001
 43
0.0000000001
 40
0.0
 40
0.0
 40
0.0
 40
0.0970316672143772
 40
0.0970316672143772
 40
0.0970316672143772
 10
30.50267522315815
 20
0.4374291487058883
 30
0.0
 41
1.0
 10
30.50325381989306
 20
0.3763075181237371
 30
0.0
 41
0.717857630247824
 10
30.56433984724029
 20
0.3750140462357479
 30
0.0
 41
1.0
  0
POLYLINE
  5
8B
330
1F
100
AcDbEntity
  8
Layer 01
100
AcDb2dPolyline
 66
     1
 10
0.0
 20
0.0
 30
0.0
  0
VERTEX
  5
8C
330
8B
100
AcDbEntity
  8
Layer 01
100
AcDbVertex
100
AcDb2dVertex
 10
30.56433984724029
 20
0.3750140462357479
 30
0.0
  0
VERTEX
  5
8D
330
8B
100
AcDbEntity
  8
Layer 01
100
AcDbVertex
100
AcDb2dVertex
 10
31.2463198758127
 20
0.3750000024412827
 30
0.0
  0
SEQEND
  5
8E
330
8B
100
AcDbEntity
  8
Layer 01
  0
SPLINE
  5
8F
330
1F
100
AcDbEntity
  8
Layer 01
100
AcDbSpline
210
0.0
220
0.0
230
1.0
 70
    12
 71
     2
 72
     6
 73
     3
 74
     0
 42
0.0000000001
 43
0.0000000001
 40
0.0
 40
0.0
 40
0.0
 40
0.0983105351425802
 40
0.0983105351425802
 40
0.0983105351425802
 10
31.2463198758127
 20
0.3750000024412827
 30
0.0
 41
1.0
 10
31.30867571223884
 20
0.374998070860046
 30
0.0
 41
0.7107094273922171
 10
31.30931462585002
 20
0.4373708929652764
 30
0.0
 41
1.0
  0
SPLINE
  5
90
330
1F
100
AcDbEntity
  8
Layer 01
100
AcDbSpline
210
0.0
220
0.0
230
1.0
 70
    12
 71
     3
 72
    12
 73
     8
 74
     0
 42
0.0000000001
 43
0.0000000001
 40
0.0025122088885125
 40
0.0025122088885125
 40
0.0025122088885125
 40
0.0025122088885125
 40
2.559996601448771
 40
2.559996601448771
 40
5.119998517672128
 40
5.119998517672128
 40
8.093326489272172
 40
8.093326489272172
 40
8.093326489272172
 40
8.093326489272172
 10
31.30931462585002
 20
0.4373708929652764
 30
0.0
 41
1.0
 10
31.32055250570161
 20
1.289574364790354
 30
0.0
 41
1.0
 10
31.33396174130772
 20
2.140965357733336
 30
0.0
 41
1.0
 10
31.3613125376186
 20
3.846004306932485
 30
0.0
 41
1.0
 10
31.37517181368847
 20
4.698546803178857
 30
0.0
 41
1.0
 10
31.40011584976074
 20
6.542166444777109
 30
0.0
 41
1.0
 10
31.41025242655624
 20
7.533012235214215
 30
0.0
 41
1.0
 10
31.41399563733003
 20
8.523792397285803
 30
0.0
 41
1.0
  0
SPLINE
  5
91
330
1F
100
AcDbEntity
  8
Layer 01
100
AcDbSpline
210
0.0
220
0.0
230
1.0
 70
    12
 71
     2
 72
     6
 73
     3
 74
     0
 42
0.0000000001
 43
0.0000000001
 40
0.0
 40
0.0
 40
0.0
 40
1.157566753814006
 40
1.157566753814006
 40
1.157566753814006
 10
31.41399563733003
 20
8.523792397285803
 30
0.0
 41
1.0
 10
31.41534350078572
 20
9.10257794411945
 30
0.0
 41
0.9999934222404667
 10
31.42089556382356
 20
9.681337225291168
 30
0.0
 41
0.9999999999999121
  0
SPLINE
  5
92
330
1F
100
AcDbEntity
  8
Layer 01
100
AcDbSpline
210
0.0
220
0.0
230
1.0
 70
    12
 71
     2
 72
     6
 73
     3
 74
     0
 42
0.0000000001
 43
0.0000000001
 40
0.0
 40
0.0
 40
0.0
 40
0.0011163185374098
 40
0.0011163185374098
 40
0.0011163185374098
 10
31.42089556382351
 20
9.681337225291173
 30
0.0
 41
1.0
 10
31.42090740949369
 20
9.6818952883992
 30
0.0
 41
0.9999999568108967
 10
31.42091305756711
 20
9.68290997984164
 30
0.0
 41
1.0
  0
SPLINE
  5
93
330
1F
100
AcDbEntity
  8
Layer 01
100
AcDbSpline
210
0.0
220
0.0
230
1.0
 70
    12
 71
     3
 72
    13
 73
     9
 74
     0
 42
0.0000000001
 43
0.0000000001
 40
1.159780968969077
 40
1.159780968969077
 40
1.159780968969077
 40
1.159780968969077
 40
1.219999999483621
 40
1.219999999483621
 40
1.859999999216523
 40
1.859999999216523
 40
2.49999999917158
 40
2.937447200127758
 40
2.937447200127758
 40
2.937447200127758
 40
2.937447200127758
 10
31.42091305756711
 20
9.68290997984164
 30
0.0
 41
1.0
 10
31.42114112291839
 20
9.703438966347761
 30
0.0
 41
1.0
 10
31.42137760011306
 20
9.723511031694585
 30
0.0
 41
1.0
 10
31.42422480888447
 20
9.956899993741246
 30
0.0
 41
1.0
 10
31.42783982844756
 20
10.17023320478077
 30
0.0
 41
1.0
 10
31.43447210200796
 20
10.59684831315664
 30
0.0
 41
1.0
 10
31.43915683555579
 20
10.95596334870564
 30
0.0
 41
1.0
 10
31.44000701493874
 20
11.31509077060551
 30
0.0
 41
1.0
 10
31.44000637949276
 20
11.46118232485989
 30
0.0
 41
1.0
  0
SPLINE
  5
94
330
1F
100
AcDbEntity
  8
Layer 01
100
AcDbSpline
210
0.0
220
0.0
230
1.0
 70
    12
 71
     2
 72
     6
 73
     3
 74
     0
 42
0.0000000001
 43
0.0000000001
 40
0.0
 40
0.0
 40
0.0
 40
0.6998000892342029
 40
0.6998000892342029
 40
0.6998000892342029
 10
31.44000637949276
 20
11.46118232485989
 30
0.0
 41
1.0
 10
31.44044547978943
 20
11.88243362283063
 30
0.0
 41
0.764976675619346
 10
31.85533507107405
 20
11.95373104660413
 30
0.0
 41
1.0
  0
SPLINE
  5
95
330
1F
100
AcDbEntity
  8
Layer 01
100
AcDbSpline
210
0.0
220
0.0
230
1.0
 70
    12
 71
     2
 72
     6
 73
     3
 74
     0
 42
0.0000000001
 43
0.0000000001
 40
0.0
 40
0.0
 40
0.0
 40
1.843263134159366
 40
1.843263134159366
 40
1.843263134159366
 10
31.85533507107405
 20
11.95373104660413
 30
0.0
 41
1.0
 10
32.76365532366023
 20
12.10980512042273
 30
0.0
 41
0.999999999993685
 10
33.67197452349004
 20
12.26588515296336
 30
0.0
 41
1.0
  0
SPLINE
  5
96
330
1F
100
AcDbEntity
  8
Layer 01
100
AcDbSpline
210
0.0
220
0.0
230
1.0
 70
    12
 71
     5
 72
    13
 73
     7
 74
     0
 42
0.0000000001
 43
0.0000000001
 40
-0.0000214316302125
 40
-0.0000214316302125
 40
-0.0000214316302125
 40
-0.0000214316302125
 40
-0.0000214316302125
 40
-0.0000214316302125
 40
0.4999999999109885
 40
0.9999999998854894
 40
0.9999999998854894
 40
0.9999999998854894
 40
0.9999999998854894
 40
0.9999999998854894
 40
0.9999999998854894
 10
33.67197452349004
 20
12.26588515296336
 30
0.0
 41
1.0
 10
33.73594615599669
 20
12.27687454006892
 30
0.0
 41
1.0
 10
33.85063014509788
 20
12.31002542084698
 30
0.0
 41
1.0
 10
33.93879921251974
 20
12.36553619865961
 30
0.0
 41
1.0
 10
33.99669538518359
 20
12.446548671317
 30
0.0
 41
1.0
 10
34.01599443668775
 20
12.56009560996321
 30
0.0
 41
1.0
 10
34.01599508272764
 20
12.62500000235801
 30
0.0
 41
1.0
  0
SPLINE
  5
97
330
1F
100
AcDbEntity
  8
Layer 01
100
AcDbSpline
210
0.0
220
0.0
230
1.0
 70
    12
 71
     2
 72
     6
 73
     3
 74
     0
 42
0.0000000001
 43
0.0000000001
 40
0.0
 40
0.0
 40
0.0
 40
0.3775088600025234
 40
0.3775088600025234
 40
0.3775088600025234
 10
62.51406112696195
 20
14.37545611180579
 30
0.0
 41
1.0
 10
62.7489839132512
 20
14.38967891775996
 30
0.0
 41
0.7275286780405241
 10
62.74894740443246
 20
14.62503914794
 30
0.0
 41
0.9984292564963844
  0
POLYLINE
  5
98
330
1F
100
AcDbEntity
  8
Layer 01
100
AcDb2dPolyline
 66
     1
 10
0.0
 20
0.0
 30
0.0
  0
VERTEX
  5
99
330
98
100
AcDbEntity
  8
Layer 01
100
AcDbVertex
100
AcDb2dVertex
 10
57.99967899943299
 20
14.37545611180579
 30
0.0
  0
VERTEX
  5
9A
330
98
100
AcDbEntity
  8
Layer 01
100
AcDbVertex
100
AcDb2dVertex
 10
62.51406112696195
 20
14.37545611180579
 30
0.0
  0
SEQEND
  5
9B
330
98
100
AcDbEntity
  8
Layer 01
  0
SPLINE
  5
9C
330
1F
100
AcDbEntity
  8
Layer 01
100
AcDbSpline
210
0.0
220
0.0
230
1.0
 70
    12
 71
     2
 72
     6
 73
     3
 74
     0
 42
0.0000000001
 43
0.0000000001
 40
-2524.803469941329
 40
-2524.803469941329
 40
-2524.803469941329
 40
-2524.41077085963
 40
-2524.41077085963
 40
-2524.41077085963
 10
63.00072100689844
 20
14.37503914793999
 30
0.0
 41
1.0
 10
62.75072100689848
 20
14.37503914793996
 30
0.0
 41
0.707106781186427
 10
62.75072100689833
 20
14.62503914793999
 30
0.0
 41
1.0
  0
SPLINE
  5
9D
330
1F
100
AcDbEntity
  8
Layer 01
100
AcDbSpline
210
0.0
220
0.0
230
1.0
 70
    28
 71
     2
 72
     8
 73
     5
 74
     0
 42
0.0000000001
 43
0.0000000001
 40
-2547.981775971362
 40
-2547.981775971362
 40
-2547.981775971362
 40
-2526.10221994133
 40
-2526.10221994133
 40
-2524.803469941329
 40
-2524.803469941329
 40
-2524.803469941329
 10
79.89967899943314
 20
14.37503914793999
 30
0.0
 41
1.0
 10
69.29833409452958
 20
14.37503914793999
 30
0.0
 41
1.0
 10
64.29947100689928
 20
14.37503914793999
 30
0.0
 41
1.0
 10
63.65009600689886
 20
14.37503914793999
 30
0.0
 41
1.0
 10
63.00072100689844
 20
14.37503914793999
 30
0.0
 41
1.0
  0
LINE
  5
9E
330
1F
100
AcDbEntity
  8
Layer 01
100
AcDbLine
 10
80.93021546501355
 20
14.37379146592616
 30
0.0
 11
65.32961961829872
 21
14.37503914815713
 31
0.0
  0
LINE
  5
9F
330
1F
100
AcDbEntity
  8
Layer 01
100
AcDbLine
 10
65.32961961829872
 20
14.37503914815713
 30
0.0
 11
56.95045240933626
 21
14.37570928525565
 31
0.0
  0
ARC
  5
A0
330
1F
100
AcDbEntity
  8
Layer 01
100
AcDbCircle
 10
56.95049239762382
 20
14.87570928365659
 30
0.0
 40
0.5
100
AcDbArc
 50
179.9973200160203
 51
269.9954176797815
  0
LINE
  5
A1
330
1F
100
AcDbEntity
  8
Layer 01
100
AcDbLine
 10
56.45049239817078
 20
14.87573267092876
 30
0.0
 11
56.45116377278248
 21
29.22915119347792
 31
0.0
  0
ARC
  5
A2
330
1F
100
AcDbEntity
  8
Layer 01
100
AcDbCircle
 10
56.95116377223552
 20
29.22912780620555
 30
0.0
 40
0.5
100
AcDbArc
 50
90.0
 51
179.9973200159954
  0
LINE
  5
A3
330
1F
100
AcDbEntity
  8
Layer 01
100
AcDbLine
 10
56.95116377223552
 20
29.72912780620555
 30
0.0
 11
80.93025545330146
 21
29.72912780620555
 31
0.0
  0
ARC
  5
A4
330
1F
100
AcDbEntity
  8
Layer 01
100
AcDbCircle
 10
80.93025545330134
 20
29.22912780620555
 30
0.0
 40
0.5
100
AcDbArc
 50
359.9999999999874
 51
89.99999999998697
  0
POLYLINE
  5
A5
330
1F
100
AcDbEntity
  8
Layer 01
100
AcDb2dPolyline
 66
     1
 10
0.0
 20
0.0
 30
0.0
  0
VERTEX
  5
A6
330
A5
100
AcDbEntity
  8
Layer 01
100
AcDbVertex
100
AcDb2dVertex
 10
81.43025545330134
 20
29.22912780620544
 30
0.0
  0
VERTEX
  5
A7
330
A5
100
AcDbEntity
  8
Layer 01
100
AcDbVertex
100
AcDb2dVertex
 10
81.43025545330134
 20
17.63785867086574
 30
0.0
  0
SEQEND
  5
A8
330
A5
100
AcDbEntity
  8
Layer 01
  0
LINE
  5
A9
330
1F
100
AcDbEntity
  8
Layer 01
100
AcDbLine
 10
81.43025545330134
 20
17.63785867086574
 30
0.0
 11
81.43025545330134
 21
14.87379146432721
 31
0.0
  0
ARC
  5
AA
330
1F
100
AcDbEntity
  8
Layer 01
100
AcDbCircle
 10
80.93025545330134
 20
14.8737914643271
 30
0.0
 40
0.5
100
AcDbArc
 50
269.9954176797538
 51
0.0000000000130276
  0
SPLINE
  5
AB
330
1F
100
AcDbEntity
  8
Layer 01
100
AcDbSpline
210
0.0
220
0.0
230
1.0
 70
    12
 71
     2
 72
     6
 73
     3
 74
     0
 42
0.0000000001
 43
0.0000000001
 40
0.0
 40
0.0
 40
0.0
 40
0.0051272633192371
 40
0.0051272633192371
 40
0.0051272633192371
 10
58.65090834401353
 20
12.61991732659052
 30
0.0
 41
1.0
 10
58.65092938714852
 20
12.62248088681033
 30
0.0
 41
0.9999912669693292
 10
58.65092900230688
 20
12.62504453336672
 30
0.0
 41
1.0
  0
SPLINE
  5
AC
330
1F
100
AcDbEntity
  8
Layer 01
100
AcDbSpline
210
0.0
220
0.0
230
1.0
 70
    24
 71
     2
 72
     6
 73
     3
 74
     0
 42
0.0000000001
 43
0.0000000001
 40
0.0
 40
0.0
 40
0.0
 40
0.003885868834095
 40
0.003885868834095
 40
0.003885868834095
 10
58.65092900463291
 20
12.62106376877145
 30
0.0
 10
58.65092900841039
 20
12.61912083435439
 30
0.0
 10
58.65092901218786
 20
12.61717789993733
 30
0.0
  0
ARC
  5
AD
330
1F
100
AcDbEntity
  8
Layer 01
100
AcDbCircle
 10
10318.87799517642
 20
-414.3754196209939
 30
0.0
 40
10246.45187490584
100
AcDbArc
 50
177.6801779751895
 51
177.6814389168758
  0
LINE
  5
AE
330
1F
100
AcDbEntity
  8
Layer 01
100
AcDbLine
 10
80.8235861730963
 20
0.3750391479404414
 30
0.0
 11
79.6985808989214
 21
0.3750391479404414
 31
0.0
  0
LINE
  5
AF
330
1F
100
AcDbEntity
  8
Layer 01
100
AcDbLine
 10
79.6985808989214
 20
0.3750391479404414
 30
0.0
 11
79.70993682095882
 21
0.1496421885582606
 31
0.0
  0
SPLINE
  5
B0
330
1F
100
AcDbEntity
  8
Layer 01
100
AcDbSpline
210
0.0
220
0.0
230
1.0
 70
    12
 71
     2
 72
     6
 73
     3
 74
     0
 42
0.0000000001
 43
0.0000000001
 40
-0.2387149143318927
 40
-0.2387149143318927
 40
-0.2387149143318927
 40
0.0
 40
0.0
 40
0.0
 10
79.70993682095882
 20
0.1496421885582606
 30
0.0
 41
1.0
 10
79.71602876319253
 20
-0.0000384788826209
 30
0.0
 41
0.7212476062221478
 10
79.86630882308786
 20
0.0000003945673086
 30
0.0
 41
1.0
  0
SPLINE
  5
B1
330
1F
100
AcDbEntity
  8
Layer 01
100
AcDbSpline
210
0.0
220
0.0
230
1.0
 70
    12
 71
     2
 72
     6
 73
     3
 74
     0
 42
0.0000000001
 43
0.0000000001
 40
0.0
 40
0.0
 40
0.0
 40
0.3954244124017839
 40
0.3954244124017839
 40
0.3954244124017839
 10
79.86630882308786
 20
0.0000003945673086
 30
0.0
 41
1.0
 10
80.06449679273834
 20
0.0000274211329497
 30
0.0
 41
0.999999999289049
 10
80.26220899868535
 20
0.0000391457583362
 30
0.0
 41
1.0
  0
SPLINE
  5
B2
330
1F
100
AcDbEntity
  8
Layer 01
100
AcDbSpline
210
0.0
220
0.0
230
1.0
 70
    24
 71
     2
 72
     6
 73
     3
 74
     0
 42
0.0000000001
 43
0.0000000001
 40
0.0
 40
0.0
 40
0.0
 40
0.3954243890795226
 40
0.3954243890795226
 40
0.3954243890795226
 10
80.26220899868535
 20
0.0000391457583362
 30
0.0
 10
80.46015908222925
 20
0.0000391464778318
 30
0.0
 10
80.65810916577315
 20
0.0000391471973273
 30
0.0
  0
SPLINE
  5
B3
330
1F
100
AcDbEntity
  8
Layer 01
100
AcDbSpline
210
0.0
220
0.0
230
1.0
 70
    12
 71
     2
 72
     6
 73
     3
 74
     0
 42
0.0000000001
 43
0.0000000001
 40
-0.2387271341672585
 40
-0.2387271341672585
 40
-0.2387271341672585
 40
0.0
 40
0.0
 40
0.0
 10
80.65810916577315
 20
0.0000391471973273
 30
0.0
 41
1.0
 10
80.80839239304603
 20
0.0000391477218665
 30
0.0
 41
0.7212776802320741
 10
80.81446099681266
 20
0.1497242040884714
 30
0.0
 41
1.0
  0
SPLINE
  5
B4
330
1F
100
AcDbEntity
  8
Layer 01
100
AcDbSpline
210
0.0
220
0.0
230
1.0
 70
    24
 71
     2
 72
     6
 73
     3
 74
     0
 42
0.0000000001
 43
0.0000000001
 40
0.0
 40
0.0
 40
0.0
 40
1.250000000000004
 40
1.250000000000004
 40
1.250000000000004
 10
56.45092899943249
 20
14.12503914793999
 30
0.0
 10
56.45092899943232
 20
13.50003914793999
 30
0.0
 10
56.45092899943215
 20
12.87503914793999
 30
0.0
  0
ARC
  5
B5
330
1F
100
AcDbEntity
  8
Layer 01
100
AcDbCircle
 10
56.70092899943215
 20
12.87503914793999
 30
0.0
 40
0.25
100
AcDbArc
 50
180.0
 51
270.0
  0
LINE
  5
B6
330
1F
100
AcDbEntity
  8
Layer 01
100
AcDbLine
 10
56.70092899943215
 20
12.62503914793999
 30
0.0
 11
81.20092899943397
 21
12.62503914794004
 31
0.0
  0
ARC
  5
B7
330
1F
100
AcDbEntity
  8
Layer 01
100
AcDbCircle
 10
81.20092899943386
 20
12.87503914794004
 30
0.0
 40
0.25
100
AcDbArc
 50
270.000000000013
 51
359.9999999999935
  0
SPLINE
  5
B8
330
1F
100
AcDbEntity
  8
Layer 01
100
AcDbSpline
210
0.0
220
0.0
230
1.0
 70
    24
 71
     2
 72
     6
 73
     3
 74
     0
 42
0.0000000001
 43
0.0000000001
 40
0.0
 40
0.0
 40
0.0
 40
1.250000000000004
 40
1.250000000000004
 40
1.250000000000004
 10
81.45092899943386
 20
12.87503914793999
 30
0.0
 10
81.45092899943397
 20
13.50003914793999
 30
0.0
 10
81.45092899943408
 20
14.12503914793999
 30
0.0
  0
ARC
  5
B9
330
1F
100
AcDbEntity
  8
Layer 01
100
AcDbCircle
 10
81.20092899943408
 20
14.12503914793999
 30
0.0
 40
0.25
100
AcDbArc
 50
359.9999999999992
 51
90.0
  0
LINE
  5
BA
330
1F
100
AcDbEntity
  8
Layer 01
100
AcDbLine
 10
81.20092899943408
 20
14.37503914793999
 30
0.0
 11
56.95092899943261
 21
14.37503914793999
 31
0.0
  0
LINE
  5
BB
330
1F
100
AcDbEntity
  8
Layer 01
100
AcDbLine
 10
56.95092899943261
 20
14.37503914793999
 30
0.0
 11
56.70092899943226
 21
14.37503914793999
 31
0.0
  0
ARC
  5
BC
330
1F
100
AcDbEntity
  8
Layer 01
100
AcDbCircle
 10
56.70092899943249
 20
14.12503914793999
 30
0.0
 40
0.25
100
AcDbArc
 50
90.00000000006514
 51
179.9999999999992
  0
SPLINE
  5
BD
330
1F
100
AcDbEntity
  8
Layer 01
100
AcDbSpline
210
0.0
220
0.0
230
1.0
 70
    12
 71
     2
 72
     6
 73
     3
 74
     0
 42
0.0000000001
 43
0.0000000001
 40
0.0
 40
0.0
 40
0.0
 40
0.0026344063336084
 40
0.0026344063336084
 40
0.0026344063336084
 10
58.65092529779831
 20
12.62369822161142
 30
0.0
 41
1.0
 10
58.65091120053767
 20
12.62238109374755
 30
0.0
 41
0.9999998444549029
 10
58.65089563401789
 20
12.62106398242886
 30
0.0
 41
1.0
  0
SPLINE
  5
BE
330
1F
100
AcDbEntity
  8
Layer 01
100
AcDbSpline
210
0.0
220
0.0
230
1.0
 70
     8
 71
     3
 72
    12
 73
     8
 74
     0
 42
0.0000000001
 43
0.0000000001
 40
0.0
 40
0.0
 40
0.0
 40
0.0
 40
1.0
 40
2.0
 40
3.0
 40
4.0
 40
5.0
 40
5.0
 40
5.0
 40
5.0
 10
58.65091341026032
 20
12.62503918825038
 30
0.0
 10
58.6345165154958
 20
12.49412383179853
 30
0.0
 10
58.41246459567928
 20
12.34303393060625
 30
0.0
 10
58.05144748833156
 20
12.26271800020518
 30
0.0
 10
57.6757139507959
 20
12.26322850250838
 30
0.0
 10
57.31441966329184
 20
12.34265459674319
 30
0.0
 10
57.09274169221514
 20
12.49439055061364
 30
0.0
 10
57.07591355194067
 20
12.62498982757828
 30
0.0
  0
SPLINE
  5
BF
330
1F
100
AcDbEntity
  8
Layer 01
100
AcDbSpline
210
0.0
220
0.0
230
1.0
 70
     8
 71
     3
 72
    12
 73
     8
 74
     0
 42
0.0000000001
 43
0.0000000001
 40
0.0
 40
0.0
 40
0.0
 40
0.0
 40
1.0
 40
2.0
 40
3.0
 40
4.0
 40
5.0
 40
5.0
 40
5.0
 40
5.0
 10
79.24844458860564
 20
12.62503918825038
 30
0.0
 10
79.26484148337015
 20
12.49412383179853
 30
0.0
 10
79.48689340318667
 20
12.34303393060625
 30
0.0
 10
79.84791051053439
 20
12.26271800020518
 30
0.0
 10
80.22364404807006
 20
12.26322850250838
 30
0.0
 10
80.584938335574
 20
12.34265459674319
 30
0.0
 10
80.80661630665081
 20
12.49439055061364
 30
0.0
 10
80.82344444692528
 20
12.62498982757828
 30
0.0
  0
ARC
  5
C0
330
1F
100
AcDbEntity
  8
Layer 01
100
AcDbCircle
 10
-10180.97863717756
 20
-414.3754196209939
 30
0.0
 40
10246.45187490584
100
AcDbArc
 50
2.318561083130736
 51
2.319822024816971
  0
LINE
  5
C1
330
1F
100
AcDbEntity
  8
Layer 01
100
AcDbLine
 10
57.07577182576965
 20
0.3750391479404414
 30
0.0
 11
58.20077709994455
 21
0.3750391479404414
 31
0.0
  0
LINE
  5
C2
330
1F
100
AcDbEntity
  8
Layer 01
100
AcDbLine
 10
58.20077709994455
 20
0.3750391479404414
 30
0.0
 11
58.18942117790714
 21
0.1496421885582606
 31
0.0
  0
SPLINE
  5
C3
330
1F
100
AcDbEntity
  8
Layer 01
100
AcDbSpline
210
0.0
220
0.0
230
1.0
 70
    12
 71
     2
 72
     6
 73
     3
 74
     0
 42
0.0000000001
 43
0.0000000001
 40
-0.2387149143318927
 40
-0.2387149143318927
 40
-0.2387149143318927
 40
0.0
 40
0.0
 40
0.0
 10
58.18942117790714
 20
0.1496421885582606
 30
0.0
 41
1.0
 10
58.18332923567342
 20
-0.0000384788826209
 30
0.0
 41
0.7212476062221478
 10
58.03304917577809
 20
0.0000003945673086
 30
0.0
 41
1.0
  0
SPLINE
  5
C4
330
1F
100
AcDbEntity
  8
Layer 01
100
AcDbSpline
210
0.0
220
0.0
230
1.0
 70
    12
 71
     2
 72
     6
 73
     3
 74
     0
 42
0.0000000001
 43
0.0000000001
 40
0.0
 40
0.0
 40
0.0
 40
0.3954244124017839
 40
0.3954244124017839
 40
0.3954244124017839
 10
58.03304917577809
 20
0.0000003945673086
 30
0.0
 41
1.0
 10
57.83486120612763
 20
0.0000274211329497
 30
0.0
 41
0.999999999289049
 10
57.6371490001806
 20
0.0000391457583362
 30
0.0
 41
1.0
  0
SPLINE
  5
C5
330
1F
100
AcDbEntity
  8
Layer 01
100
AcDbSpline
210
0.0
220
0.0
230
1.0
 70
    24
 71
     2
 72
     6
 73
     3
 74
     0
 42
0.0000000001
 43
0.0000000001
 40
0.0
 40
0.0
 40
0.0
 40
0.3954243890795226
 40
0.3954243890795226
 40
0.3954243890795226
 10
57.6371490001806
 20
0.0000391457583362
 30
0.0
 10
57.4391989166367
 20
0.0000391464778318
 30
0.0
 10
57.2412488330928
 20
0.0000391471973273
 30
0.0
  0
SPLINE
  5
C6
330
1F
100
AcDbEntity
  8
Layer 01
100
AcDbSpline
210
0.0
220
0.0
230
1.0
 70
    12
 71
     2
 72
     6
 73
     3
 74
     0
 42
0.0000000001
 43
0.0000000001
 40
-0.2387271341672585
 40
-0.2387271341672585
 40
-0.2387271341672585
 40
0.0
 40
0.0
 40
0.0
 10
57.2412488330928
 20
0.0000391471973273
 30
0.0
 41
1.0
 10
57.09096560581981
 20
0.0000391477218665
 30
0.0
 41
0.7212776802320741
 10
57.0848970020533
 20
0.1497242040884714
 30
0.0
 41
1.0
  0
SPLINE
  5
C7
330
1F
100
AcDbEntity
  8
Layer 01
100
AcDbSpline
210
0.0
220
0.0
230
1.0
 70
    12
 71
     2
 72
     6
 73
     3
 74
     0
 42
0.0000000001
 43
0.0000000001
 40
-0.7825548902353026
 40
-0.7825548902353026
 40
-0.7825548902353026
 40
0.0
 40
0.0
 40
0.0
 10
78.74914637124213
 20
10.3007158620222
 30
0.0
 41
1.0
 10
79.24705446555934
 20
10.30219105879816
 30
0.0
 41
0.7091100515193309
 10
79.2484023274731
 20
10.79994551539298
 30
0.0
 41
1.0
  0
LINE
  5
C8
330
1F
100
AcDbEntity
  8
Layer 01
100
AcDbLine
 10
79.2484023274731
 20
10.79994551539298
 30
0.0
 11
79.24842839311366
 21
12.62503914793999
 31
0.0
  0
POLYLINE
  5
C9
330
1F
100
AcDbEntity
  8
Layer 01
100
AcDb2dPolyline
 66
     1
 10
0.0
 20
0.0
 30
0.0
  0
VERTEX
  5
CA
330
C9
100
AcDbEntity
  8
Layer 01
100
AcDbVertex
100
AcDb2dVertex
 10
79.24842839311366
 20
12.62503914793999
 30
0.0
  0
VERTEX
  5
CB
330
C9
100
AcDbEntity
  8
Layer 01
100
AcDbVertex
100
AcDb2dVertex
 10
80.82342890319039
 20
12.62503914793999
 30
0.0
  0
SEQEND
  5
CC
330
C9
100
AcDbEntity
  8
Layer 01
  0
LINE
  5
CD
330
1F
100
AcDbEntity
  8
Layer 01
100
AcDbLine
 10
80.82342890319039
 20
12.62503914793999
 30
0.0
 11
80.82342894559649
 21
8.523832748022159
 31
0.0
  0
SPLINE
  5
CE
330
1F
100
AcDbEntity
  8
Layer 01
100
AcDbSpline
210
0.0
220
0.0
230
1.0
 70
    12
 71
     5
 72
    12
 73
     6
 74
     0
 42
0.0000000001
 43
0.0000000001
 40
-0.0000000000115655
 40
-0.0000000000115655
 40
-0.0000000000115655
 40
-0.0000000000115655
 40
-0.0000000000115655
 40
-0.0000000000115655
 40
0.9922383364707964
 40
0.9922383364707964
 40
0.9922383364707964
 40
0.9922383364707964
 40
0.9922383364707964
 40
0.9922383364707964
 10
80.82342894559649
 20
8.523832748022159
 30
0.0
 41
1.0
 10
80.82342884255779
 20
6.906723733638415
 30
0.0
 41
1.0
 10
80.82496889341262
 20
5.289998742616518
 30
0.0
 41
1.0
 10
80.82799388942333
 20
3.673665990484125
 30
0.0
 41
1.0
 10
80.82757670929588
 20
2.056446236198752
 30
0.0
 41
1.0
 10
80.82358646334687
 20
0.4383277096823974
 30
0.0
 41
1.0
  0
SPLINE
  5
CF
330
1F
100
AcDbEntity
  8
Layer 01
100
AcDbSpline
210
0.0
220
0.0
230
1.0
 70
    12
 71
     2
 72
     6
 73
     3
 74
     0
 42
0.0000000001
 43
0.0000000001
 40
0.0
 40
0.0
 40
0.0
 40
0.0876876088231114
 40
0.0876876088231114
 40
0.0876876088231114
 10
80.82358646334687
 20
0.4383277096823974
 30
0.0
 41
1.0
 10
80.8238272572275
 20
0.3857006415267787
 30
0.0
 41
0.7674574304402552
 10
80.77208330153057
 20
0.3760970311024323
 30
0.0
 41
1.0
  0
POLYLINE
  5
D0
330
1F
100
AcDbEntity
  8
Layer 01
100
AcDb2dPolyline
 66
     1
 10
0.0
 20
0.0
 30
0.0
  0
VERTEX
  5
D1
330
D0
100
AcDbEntity
  8
Layer 01
100
AcDbVertex
100
AcDb2dVertex
 10
80.77208330153057
 20
0.3760970311024323
 30
0.0
  0
VERTEX
  5
D2
330
D0
100
AcDbEntity
  8
Layer 01
100
AcDbVertex
100
AcDb2dVertex
 10
79.74725912529634
 20
0.376029193806545
 30
0.0
  0
SEQEND
  5
D3
330
D0
100
AcDbEntity
  8
Layer 01
  0
SPLINE
  5
D4
330
1F
100
AcDbEntity
  8
Layer 01
100
AcDbSpline
210
0.0
220
0.0
230
1.0
 70
    12
 71
     2
 72
     6
 73
     3
 74
     0
 42
0.0000000001
 43
0.0000000001
 40
0.0
 40
0.0
 40
0.0
 40
0.0846250291315599
 40
0.0846250291315599
 40
0.0846250291315599
 10
79.74725912529634
 20
0.376029193806545
 30
0.0
 41
1.0
 10
79.69796703076393
 20
0.3848725235290222
 30
0.0
 41
0.7828101505964009
 10
79.69546218291366
 20
0.4349040010502847
 30
0.0
 41
1.0
  0
SPLINE
  5
D5
330
1F
100
AcDbEntity
  8
Layer 01
100
AcDbSpline
210
0.0
220
0.0
230
1.0
 70
    12
 71
     5
 72
    12
 73
     6
 74
     0
 42
0.0000000001
 43
0.0000000001
 40
-0.9926563385080105
 40
-0.9926563385080105
 40
-0.9926563385080105
 40
-0.9926563385080105
 40
-0.9926563385080105
 40
-0.9926563385080105
 40
0.0000000000115655
 40
0.0000000000115655
 40
0.0000000000115655
 40
0.0000000000115655
 40
0.0000000000115655
 40
0.0000000000115655
 10
79.69546218291366
 20
0.4349040010502847
 30
0.0
 41
1.0
 10
79.61519081597639
 20
2.053720817427887
 30
0.0
 41
1.0
 10
79.53192356743834
 20
3.671623239166451
 30
0.0
 41
1.0
 10
79.44576503488013
 20
5.288636897332395
 30
0.0
 41
1.0
 10
79.36084688119585
 20
6.906042847420878
 30
0.0
 41
1.0
 10
79.27721443578598
 20
8.523832748022159
 30
0.0
 41
1.0
  0
SPLINE
  5
D6
330
1F
100
AcDbEntity
  8
Layer 01
100
AcDbSpline
210
0.0
220
0.0
230
1.0
 70
    12
 71
     2
 72
     6
 73
     3
 74
     0
 42
0.0000000001
 43
0.0000000001
 40
-0.082649365308941
 40
-0.082649365308941
 40
-0.082649365308941
 40
0.0
 40
0.0
 40
0.0
 10
79.27721443578598
 20
8.523832748022159
 30
0.0
 41
1.0
 10
79.27509400588798
 20
8.565102993962592
 30
0.0
 41
0.9999999883852876
 10
79.27296308570457
 20
8.606814936585039
 30
0.0
 41
1.0
  0
SPLINE
  5
D7
330
1F
100
AcDbEntity
  8
Layer 01
100
AcDbSpline
210
0.0
220
0.0
230
1.0
 70
    12
 71
     2
 72
     6
 73
     3
 74
     0
 42
0.0000000001
 43
0.0000000001
 40
0.0
 40
0.0
 40
0.0
 40
0.7576113662501209
 40
0.7576113662501209
 40
0.7576113662501209
 10
79.27296308570457
 20
8.606814936585039
 30
0.0
 41
1.0
 10
79.24782360000019
 20
9.079543739913632
 30
0.0
 41
0.72648491075732
 10
78.77425681039271
 20
9.080707515794955
 30
0.0
 41
1.0
  0
SPLINE
  5
D8
330
1F
100
AcDbEntity
  8
Layer 01
100
AcDbSpline
210
0.0
220
0.0
230
1.0
 70
    24
 71
     2
 72
     6
 73
     3
 74
     0
 42
0.0000000001
 43
0.0000000001
 40
0.0
 40
0.0
 40
0.0
 40
19.64792944108129
 40
19.64792944108129
 40
19.64792944108129
 10
78.77425681039271
 20
9.080707515794955
 30
0.0
 10
68.94967899943298
 20
9.080707515794955
 30
0.0
 10
59.12510118847324
 20
9.080707515794955
 30
0.0
  0
SPLINE
  5
D9
330
1F
100
AcDbEntity
  8
Layer 01
100
AcDbSpline
210
0.0
220
0.0
230
1.0
 70
    12
 71
     2
 72
     6
 73
     3
 74
     0
 42
0.0000000001
 43
0.0000000001
 40
-0.7576113662501209
 40
-0.7576113662501209
 40
-0.7576113662501209
 40
0.0
 40
0.0
 40
0.0
 10
59.12510118847324
 20
9.080707515794955
 30
0.0
 41
1.0
 10
58.65153439886581
 20
9.079543739913632
 30
0.0
 41
0.72648491075732
 10
58.62639491316138
 20
8.606814936585039
 30
0.0
 41
1.0
  0
SPLINE
  5
DA
330
1F
100
AcDbEntity
  8
Layer 01
100
AcDbSpline
210
0.0
220
0.0
230
1.0
 70
    12
 71
     2
 72
     6
 73
     3
 74
     0
 42
0.0000000001
 43
0.0000000001
 40
0.0
 40
0.0
 40
0.0
 40
0.082649365308941
 40
0.082649365308941
 40
0.082649365308941
 10
58.62639491316138
 20
8.606814936585039
 30
0.0
 41
1.0
 10
58.62426399297808
 20
8.565102993962592
 30
0.0
 41
0.9999999883852876
 10
58.62214356307986
 20
8.523832748022159
 30
0.0
 41
1.0
  0
SPLINE
  5
DB
330
1F
100
AcDbEntity
  8
Layer 01
100
AcDbSpline
210
0.0
220
0.0
230
1.0
 70
    12
 71
     5
 72
    12
 73
     6
 74
     0
 42
0.0000000001
 43
0.0000000001
 40
-0.0000000000115655
 40
-0.0000000000115655
 40
-0.0000000000115655
 40
-0.0000000000115655
 40
-0.0000000000115655
 40
-0.0000000000115655
 40
0.9926563385080105
 40
0.9926563385080105
 40
0.9926563385080105
 40
0.9926563385080105
 40
0.9926563385080105
 40
0.9926563385080105
 10
58.62214356307986
 20
8.523832748022159
 30
0.0
 41
1.0
 10
58.5385111176701
 20
6.906042847420878
 30
0.0
 41
1.0
 10
58.45359296398583
 20
5.288636897332395
 30
0.0
 41
1.0
 10
58.36743443142761
 20
3.671623239166451
 30
0.0
 41
1.0
 10
58.28416718288956
 20
2.053720817427887
 30
0.0
 41
1.0
 10
58.20389581595229
 20
0.4349040010502847
 30
0.0
 41
1.0
  0
SPLINE
  5
DC
330
1F
100
AcDbEntity
  8
Layer 01
100
AcDbSpline
210
0.0
220
0.0
230
1.0
 70
    12
 71
     2
 72
     6
 73
     3
 74
     0
 42
0.0000000001
 43
0.0000000001
 40
-0.0846250291315599
 40
-0.0846250291315599
 40
-0.0846250291315599
 40
0.0
 40
0.0
 40
0.0
 10
58.20389581595229
 20
0.4349040010502847
 30
0.0
 41
1.0
 10
58.20139096810201
 20
0.3848725235290222
 30
0.0
 41
0.7828101505964009
 10
58.15209887356961
 20
0.376029193806545
 30
0.0
 41
1.0
  0
POLYLINE
  5
DD
330
1F
100
AcDbEntity
  8
Layer 01
100
AcDb2dPolyline
 66
     1
 10
0.0
 20
0.0
 30
0.0
  0
VERTEX
  5
DE
330
DD
100
AcDbEntity
  8
Layer 01
100
AcDbVertex
100
AcDb2dVertex
 10
58.15209887356961
 20
0.376029193806545
 30
0.0
  0
VERTEX
  5
DF
330
DD
100
AcDbEntity
  8
Layer 01
100
AcDbVertex
100
AcDb2dVertex
 10
57.12727469733538
 20
0.3760970311024323
 30
0.0
  0
SEQEND
  5
E0
330
DD
100
AcDbEntity
  8
Layer 01
  0
SPLINE
  5
E1
330
1F
100
AcDbEntity
  8
Layer 01
100
AcDbSpline
210
0.0
220
0.0
230
1.0
 70
    12
 71
     2
 72
     6
 73
     3
 74
     0
 42
0.0000000001
 43
0.0000000001
 40
-0.0876876088231114
 40
-0.0876876088231114
 40
-0.0876876088231114
 40
0.0
 40
0.0
 40
0.0
 10
57.12727469733538
 20
0.3760970311024323
 30
0.0
 41
1.0
 10
57.07553074163837
 20
0.3857006415267787
 30
0.0
 41
0.7674574304402552
 10
57.07577153551908
 20
0.4383277096823974
 30
0.0
 41
1.0
  0
SPLINE
  5
E2
330
1F
100
AcDbEntity
  8
Layer 01
100
AcDbSpline
210
0.0
220
0.0
230
1.0
 70
    12
 71
     5
 72
    12
 73
     6
 74
     0
 42
0.0000000001
 43
0.0000000001
 40
-0.9922383364707964
 40
-0.9922383364707964
 40
-0.9922383364707964
 40
-0.9922383364707964
 40
-0.9922383364707964
 40
-0.9922383364707964
 40
0.0000000000115655
 40
0.0000000000115655
 40
0.0000000000115655
 40
0.0000000000115655
 40
0.0000000000115655
 40
0.0000000000115655
 10
57.07577153551908
 20
0.4383277096823974
 30
0.0
 41
1.0
 10
57.07178128957007
 20
2.056446236198752
 30
0.0
 41
1.0
 10
57.07136410944263
 20
3.673665990484125
 30
0.0
 41
1.0
 10
57.07438910545333
 20
5.289998742616518
 30
0.0
 41
1.0
 10
57.07592915630816
 20
6.906723733638415
 30
0.0
 41
1.0
 10
57.07592905326946
 20
8.523832748022159
 30
0.0
 41
1.0
  0
LINE
  5
E3
330
1F
100
AcDbEntity
  8
Layer 01
100
AcDbLine
 10
57.07592905326946
 20
8.523832748022159
 30
0.0
 11
57.07592909567556
 21
12.62503914793999
 31
0.0
  0
POLYLINE
  5
E4
330
1F
100
AcDbEntity
  8
Layer 01
100
AcDb2dPolyline
 66
     1
 10
0.0
 20
0.0
 30
0.0
  0
VERTEX
  5
E5
330
E4
100
AcDbEntity
  8
Layer 01
100
AcDbVertex
100
AcDb2dVertex
 10
57.07592909567556
 20
12.62503914793999
 30
0.0
  0
VERTEX
  5
E6
330
E4
100
AcDbEntity
  8
Layer 01
100
AcDbVertex
100
AcDb2dVertex
 10
58.6509296057523
 20
12.62503914793999
 30
0.0
  0
SEQEND
  5
E7
330
E4
100
AcDbEntity
  8
Layer 01
  0
LINE
  5
E8
330
1F
100
AcDbEntity
  8
Layer 01
100
AcDbLine
 10
58.6509296057523
 20
12.62503914793999
 30
0.0
 11
58.65095567139285
 21
10.79994551539298
 31
0.0
  0
SPLINE
  5
E9
330
1F
100
AcDbEntity
  8
Layer 01
100
AcDbSpline
210
0.0
220
0.0
230
1.0
 70
    12
 71
     2
 72
     6
 73
     3
 74
     0
 42
0.0000000001
 43
0.0000000001
 40
0.0
 40
0.0
 40
0.0
 40
0.7825548902353026
 40
0.7825548902353026
 40
0.7825548902353026
 10
58.65095567139285
 20
10.79994551539298
 30
0.0
 41
1.0
 10
58.65230353330652
 20
10.30219105879816
 30
0.0
 41
0.7091100515193309
 10
59.1502116276237
 20
10.3007158620222
 30
0.0
 41
1.0
  0
SPLINE
  5
EA
330
1F
100
AcDbEntity
  8
Layer 01
100
AcDbSpline
210
0.0
220
0.0
230
1.0
 70
    24
 71
     2
 72
     6
 73
     3
 74
     0
 42
0.0000000001
 43
0.0000000001
 40
0.0
 40
0.0
 40
0.0
 40
19.59744819239467
 40
19.59744819239467
 40
19.59744819239467
 10
59.1502116276237
 20
10.3007158620222
 30
0.0
 10
68.94967899943292
 20
10.3007158620222
 30
0.0
 10
78.74914637124213
 20
10.3007158620222
 30
0.0
  0
ENDSEC
  0
SECTION
  2
OBJECTS
  0
DICTIONARY
  5
C
330
0
100
AcDbDictionary
281
     1
  3
ACAD_GROUP
350
D
  3
ACAD_LAYOUT
350
1A
  3
ACAD_MLEADERSTYLE
350
EC
  3
ACAD_MLINESTYLE
350
17
  3
ACAD_PLOTSETTINGS
350
19
  3
ACAD_PLOTSTYLENAME
350
E
  3
ACAD_TABLESTYLE
350
EB
  3
ACAD_VISUALSTYLE
350
2A
  0
DICTIONARY
  5
D
102
{ACAD_REACTORS
330
C
102
}
330
C
100
AcDbDictionary
281
     1
  0
DICTIONARY
  5
1A
102
{ACAD_REACTORS
330
C
102
}
330
C
100
AcDbDictionary
281
     1
  3
Layout1
350
1E
  3
Layout2
350
26
  3
Model
350
22
  0
DICTIONARY
  5
EC
102
{ACAD_REACTORS
330
C
102
}
330
C
100
AcDbDictionary
281
     1
  0
DICTIONARY
  5
17
102
{ACAD_REACTORS
330
C
102
}
330
C
100
AcDbDictionary
281
     1
  3
Standard
350
18
  0
DICTIONARY
  5
19
102
{ACAD_REACTORS
330
C
102
}
330
C
100
AcDbDictionary
281
     1
  0
ACDBDICTIONARYWDFLT
  5
E
102
{ACAD_REACTORS
330
C
102
}
330
C
100
AcDbDictionary
281
     1
  3
Normal
350
F
100
AcDbDictionaryWithDefault
340
F
  0
DICTIONARY
  5
EB
102
{ACAD_REACTORS
330
C
102
}
330
C
100
AcDbDictionary
281
     1
  0
DICTIONARY
  5
2A
102
{ACAD_REACTORS
330
C
102
}
330
C
100
AcDbDictionary
281
     1
  3
2dWireframe
350
2F
  3
3D Hidden
350
31
  3
3dWireframe
350
30
  3
Basic
350
32
  3
Brighten
350
36
  3
ColorChange
350
3A
  3
Conceptual
350
34
  3
Dim
350
35
  3
Facepattern
350
39
  3
Flat
350
2B
  3
FlatWithEdges
350
2C
  3
Gouraud
350
2D
  3
GouraudWithEdges
350
2E
  3
Linepattern
350
38
  3
Realistic
350
33
  3
Thicken
350
37
  0
LAYOUT
  5
1E
102
{ACAD_REACTORS
330
1A
102
}
330
1A
100
AcDbPlotSettings
  1

  2
none_device
  4

  6

 40
0.0
 41
0.0
 42
0.0
 43
0.0
 44
0.0
 45
0.0
 46
0.0
 47
0.0
 48
0.0
 49
0.0
140
0.0
141
0.0
142
1.0
143
1.0
 70
   688
 72
     0
 73
     0
 74
     5
  7

 75
    16
 76
     0
 77
     2
 78
   300
147
1.0
148
0.0
149
0.0
100
AcDbLayout
  1
Layout1
 70
     1
 71
     1
 10
0.0
 20
0.0
 11
12.0
 21
9.0
 12
0.0
 22
0.0
 32
0.0
 14
1.000000000000000E+20
 24
1.000000000000000E+20
 34
1.000000000000000E+20
 15
-1.000000000000000E+20
 25
-1.000000000000000E+20
 35
-1.000000000000000E+20
146
0.0
 13
0.0
 23
0.0
 33
0.0
 16
1.0
 26
0.0
 36
0.0
 17
0.0
 27
1.0
 37
0.0
 76
     0
330
1B
  0
LAYOUT
  5
26
102
{ACAD_REACTORS
330
1A
102
}
330
1A
100
AcDbPlotSettings
  1

  2
none_device
  4

  6

 40
0.0
 41
0.0
 42
0.0
 43
0.0
 44
0.0
 45
0.0
 46
0.0
 47
0.0
 48
0.0
 49
0.0
140
0.0
141
0.0
142
1.0
143
1.0
 70
   688
 72
     0
 73
     0
 74
     5
  7

 75
    16
 76
     0
 77
     2
 78
   300
147
1.0
148
0.0
149
0.0
100
AcDbLayout
  1
Layout2
 70
     1
 71
     2
 10
0.0
 20
0.0
 11
0.0
 21
0.0
 12
0.0
 22
0.0
 32
0.0
 14
0.0
 24
0.0
 34
0.0
 15
0.0
 25
0.0
 35
0.0
146
0.0
 13
0.0
 23
0.0
 33
0.0
 16
1.0
 26
0.0
 36
0.0
 17
0.0
 27
1.0
 37
0.0
 76
     0
330
23
  0
LAYOUT
  5
22
102
{ACAD_REACTORS
330
1A
102
}
330
1A
100
AcDbPlotSettings
  1

  2
none_device
  4

  6

 40
0.0
 41
0.0
 42
0.0
 43
0.0
 44
0.0
 45
0.0
 46
0.0
 47
0.0
 48
0.0
 49
0.0
140
0.0
141
0.0
142
1.0
143
1.0
 70
  1712
 72
     0
 73
     0
 74
     0
  7

 75
     0
 76
     0
 77
     2
 78
   300
147
1.0
148
0.0
149
0.0
100
AcDbLayout
  1
Model
 70
     1
 71
     0
 10
0.0
 20
0.0
 11
12.0
 21
9.0
 12
0.0
 22
0.0
 32
0.0
 14
-41.00041319355797
 24
-0.0000000002170566
 34
0.0
 15
81.45092899943408
 25
65.13727764025566
 35
0.0
146
0.0
 13
0.0
 23
0.0
 33
0.0
 16
1.0
 26
0.0
 36
0.0
 17
0.0
 27
1.0
 37
0.0
 76
     0
330
1F
331
29
  0
MLINESTYLE
  5
18
102
{ACAD_REACTORS
330
17
102
}
330
17
100
AcDbMlineStyle
  2
Standard
 70
     0
  3

 62
   256
 51
90.0
 52
90.0
 71
     2
 49
0.5
 62
   256
  6
BYLAYER
 49
-0.5
 62
   256
  6
BYLAYER
  0
ACDBPLACEHOLDER
  5
F
102
{ACAD_REACTORS
330
E
102
}
330
E
  0
VISUALSTYLE
  5
2F
102
{ACAD_REACTORS
330
2A
102
}
330
2A
100
AcDbVisualStyle
  2
2dWireframe
 70
     4
 71
     0
 72
     2
 73
     0
 90
        0
 40
-0.6
 41
-30.0
 62
     5
 63
     7
421
 16777215
 74
     1
 91
        4
 64
     7
 65
   257
 75
     1
175
     1
 42
1.0
 92
        0
 66
   257
 43
1.0
 76
     1
 77
     6
 78
     2
 67
     7
 79
     5
170
     0
171
     0
290
     0
174
     0
 93
        1
 44
0.0
173
     0
291
     0
 45
0.0
1001
ACAD
1000
AcDbSavedByObjectVersion
1070
     0
  0
VISUALSTYLE
  5
31
102
{ACAD_REACTORS
330
2A
102
}
330
2A
100
AcDbVisualStyle
  2
3D Hidden
 70
     6
 71
     1
 72
     2
 73
     2
 90
        0
 40
-0.6
 41
-30.0
 62
     5
 63
     7
421
 16777215
 74
     2
 91
        2
 64
     7
 65
   257
 75
     2
175
     1
 42
40.0
 92
        0
 66
   257
 43
1.0
 76
     1
 77
     6
 78
     2
 67
     7
 79
     3
170
     0
171
     0
290
     0
174
     0
 93
        1
 44
0.0
173
     0
291
     0
 45
0.0
1001
ACAD
1000
AcDbSavedByObjectVersion
1070
     0
  0
VISUALSTYLE
  5
30
102
{ACAD_REACTORS
330
2A
102
}
330
2A
100
AcDbVisualStyle
  2
3dWireframe
 70
     5
 71
     0
 72
     2
 73
     0
 90
        0
 40
-0.6
 41
-30.0
 62
     5
 63
     7
421
 16777215
 74
     1
 91
        4
 64
     7
 65
   257
 75
     1
175
     1
 42
1.0
 92
        0
 66
   257
 43
1.0
 76
     1
 77
     6
 78
     2
 67
     7
 79
     5
170
     0
171
     0
290
     0
174
     0
 93
        1
 44
0.0
173
     0
291
     0
 45
0.0
1001
ACAD
1000
AcDbSavedByObjectVersion
1070
     0
  0
VISUALSTYLE
  5
32
102
{ACAD_REACTORS
330
2A
102
}
330
2A
100
AcDbVisualStyle
  2
Basic
 70
     7
 71
     1
 72
     0
 73
     1
 90
        0
 40
-0.6
 41
-30.0
 62
     5
 63
     7
421
 16777215
 74
     0
 91
        4
 64
     7
 65
   257
 75
     1
175
     1
 42
1.0
 92
        8
 66
     7
 43
1.0
 76
     1
 77
     6
 78
     2
 67
     7
 79
     5
170
     0
171
     0
290
     0
174
     0
 93
        1
 44
0.0
173
     0
291
     1
 45
0.0
1001
ACAD
1000
AcDbSavedByObjectVersion
1070
     0
  0
VISUALSTYLE
  5
36
102
{ACAD_REACTORS
330
2A
102
}
330
2A
100
AcDbVisualStyle
  2
Brighten
 70
    12
 71
     2
 72
     2
 73
     0
 90
        0
 40
-0.6
 41
-30.0
 62
     5
 63
     7
421
 16777215
 74
     1
 91
        4
 64
     7
 65
   257
 75
     1
175
     1
 42
1.0
 92
        8
 66
     7
 43
1.0
 76
     1
 77
     6
 78
     2
 67
     7
 79
     5
170
     0
171
     0
290
     0
174
     0
 93
        1
 44
50.0
173
     0
291
     1
 45
0.0
1001
ACAD
1000
AcDbSavedByObjectVersion
1070
     0
  0
VISUALSTYLE
  5
3A
102
{ACAD_REACTORS
330
2A
102
}
330
2A
100
AcDbVisualStyle
  2
ColorChange
 70
    16
 71
     2
 72
     2
 73
     3
 90
        0
 40
-0.6
 41
-30.0
 62
     5
 63
     8
421
  8421504
 74
     1
 91
        4
 64
     7
 65
   257
 75
     1
175
     1
 42
1.0
 92
        8
 66
     8
424
  8421504
 43
1.0
 76
     1
 77
     6
 78
     2
 67
     7
 79
     5
170
     0
171
     0
290
     0
174
     0
 93
        1
 44
0.0
173
     0
291
     1
 45
0.0
1001
ACAD
1000
AcDbSavedByObjectVersion
1070
     0
  0
VISUALSTYLE
  5
34
102
{ACAD_REACTORS
330
2A
102
}
330
2A
100
AcDbVisualStyle
  2
Conceptual
 70
     9
 71
     3
 72
     2
 73
     0
 90
        0
 40
-0.6
 41
-30.0
 62
     5
 63
     7
421
 16777215
 74
     2
 91
        2
 64
     7
 65
   257
 75
     1
175
     1
 42
40.0
 92
        8
 66
     7
 43
1.0
 76
     1
 77
     6
 78
     2
 67
     7
 79
     3
170
     0
171
     0
290
     0
174
     0
 93
        1
 44
0.0
173
     0
291
     0
 45
0.0
1001
ACAD
1000
AcDbSavedByObjectVersion
1070
     0
  0
VISUALSTYLE
  5
35
102
{ACAD_REACTORS
330
2A
102
}
330
2A
100
AcDbVisualStyle
  2
Dim
 70
    11
 71
     2
 72
     2
 73
     0
 90
        0
 40
-0.6
 41
-30.0
 62
     5
 63
     7
421
 16777215
 74
     1
 91
        4
 64
     7
 65
   257
 75
     1
175
     1
 42
1.0
 92
        8
 66
     7
 43
1.0
 76
     1
 77
     6
 78
     2
 67
     7
 79
     5
170
     0
171
     0
290
     0
174
     0
 93
        1
 44
-50.0
173
     0
291
     1
 45
0.0
1001
ACAD
1000
AcDbSavedByObjectVersion
1070
     0
  0
VISUALSTYLE
  5
39
102
{ACAD_REACTORS
330
2A
102
}
330
2A
100
AcDbVisualStyle
  2
Facepattern
 70
    15
 71
     2
 72
     2
 73
     0
 90
        0
 40
-0.6
 41
-30.0
 62
     5
 63
     7
421
 16777215
 74
     1
 91
        4
 64
     7
 65
   257
 75
     1
175
     1
 42
1.0
 92
        8
 66
     7
 43
1.0
 76
     1
 77
     6
 78
     2
 67
     7
 79
     5
170
     0
171
     0
290
     0
174
     0
 93
        1
 44
0.0
173
     0
291
     1
 45
0.0
1001
ACAD
1000
AcDbSavedByObjectVersion
1070
     0
  0
VISUALSTYLE
  5
2B
102
{ACAD_REACTORS
330
2A
102
}
330
2A
100
AcDbVisualStyle
  2
Flat
 70
     0
 71
     2
 72
     1
 73
     1
 90
        2
 40
-0.6
 41
30.0
 62
     5
 63
     7
421
 16777215
 74
     0
 91
        4
 64
     7
 65
   257
 75
     1
175
     1
 42
1.0
 92
        8
 66
     7
 43
1.0
 76
     1
 77
     6
 78
     2
 67
     7
 79
     5
170
     0
171
     0
290
     0
174
     0
 93
       13
 44
0.0
173
     0
291
     1
 45
0.0
1001
ACAD
1000
AcDbSavedByObjectVersion
1070
     0
  0
VISUALSTYLE
  5
2C
102
{ACAD_REACTORS
330
2A
102
}
330
2A
100
AcDbVisualStyle
  2
FlatWithEdges
 70
     1
 71
     2
 72
     1
 73
     1
 90
        2
 40
-0.6
 41
30.0
 62
     5
 63
     7
421
 16777215
 74
     1
 91
        4
 64
     7
 65
   257
 75
     1
175
     1
 42
1.0
 92
        0
 66
   257
 43
1.0
 76
     1
 77
     6
 78
     2
 67
     7
 79
     5
170
     0
171
     0
290
     0
174
     0
 93
       13
 44
0.0
173
     0
291
     1
 45
0.0
1001
ACAD
1000
AcDbSavedByObjectVersion
1070
     0
  0
VISUALSTYLE
  5
2D
102
{ACAD_REACTORS
330
2A
102
}
330
2A
100
AcDbVisualStyle
  2
Gouraud
 70
     2
 71
     2
 72
     2
 73
     1
 90
        2
 40
-0.6
 41
30.0
 62
     5
 63
     7
421
 16777215
 74
     0
 91
        4
 64
     7
 65
   257
 75
     1
175
     1
 42
1.0
 92
        0
 66
     7
 43
1.0
 76
     1
 77
     6
 78
     2
 67
     7
 79
     5
170
     0
171
     0
290
     0
174
     0
 93
       13
 44
0.0
173
     0
291
     1
 45
0.0
1001
ACAD
1000
AcDbSavedByObjectVersion
1070
     0
  0
VISUALSTYLE
  5
2E
102
{ACAD_REACTORS
330
2A
102
}
330
2A
100
AcDbVisualStyle
  2
GouraudWithEdges
 70
     3
 71
     2
 72
     2
 73
     1
 90
        2
 40
-0.6
 41
30.0
 62
     5
 63
     7
421
 16777215
 74
     1
 91
        4
 64
     7
 65
   257
 75
     1
175
     1
 42
1.0
 92
        0
 66
   257
 43
1.0
 76
     1
 77
     6
 78
     2
 67
     7
 79
     5
170
     0
171
     0
290
     0
174
     0
 93
       13
 44
0.0
173
     0
291
     1
 45
0.0
1001
ACAD
1000
AcDbSavedByObjectVersion
1070
     0
  0
VISUALSTYLE
  5
38
102
{ACAD_REACTORS
330
2A
102
}
330
2A
100
AcDbVisualStyle
  2
Linepattern
 70
    14
 71
     2
 72
     2
 73
     0
 90
        0
 40
-0.6
 41
-30.0
 62
     5
 63
     7
421
 16777215
 74
     1
 91
        4
 64
     7
 65
   257
 75
     7
175
     7
 42
1.0
 92
        8
 66
     7
 43
1.0
 76
     1
 77
     6
 78
     2
 67
     7
 79
     5
170
     0
171
     0
290
     0
174
     0
 93
        1
 44
0.0
173
     0
291
     1
 45
0.0
1001
ACAD
1000
AcDbSavedByObjectVersion
1070
     0
  0
VISUALSTYLE
  5
33
102
{ACAD_REACTORS
330
2A
102
}
330
2A
100
AcDbVisualStyle
  2
Realistic
 70
     8
 71
     2
 72
     2
 73
     0
 90
        0
 40
-0.6
 41
-30.0
 62
     5
 63
     7
421
 16777215
 74
     1
 91
        0
 64
     7
 65
   257
 75
     1
175
     1
 42
1.0
 92
        8
 66
     8
424
  7895160
 43
1.0
 76
     1
 77
     6
 78
     2
 67
     7
 79
     5
170
     0
171
     0
290
     0
174
     0
 93
       13
 44
0.0
173
     0
291
     0
 45
0.0
1001
ACAD
1000
AcDbSavedByObjectVersion
1070
     0
  0
VISUALSTYLE
  5
37
102
{ACAD_REACTORS
330
2A
102
}
330
2A
100
AcDbVisualStyle
  2
Thicken
 70
    13
 71
     2
 72
     2
 73
     0
 90
        0
 40
-0.6
 41
-30.0
 62
     5
 63
     7
421
 16777215
 74
     1
 91
        4
 64
     7
 65
   257
 75
     1
175
     1
 42
1.0
 92
       12
 66
     7
 43
1.0
 76
     1
 77
     6
 78
     2
 67
     7
 79
     5
170
     0
171
     0
290
     0
174
     0
 93
        1
 44
0.0
173
     0
291
     1
 45
0.0
1001
ACAD
1000
AcDbSavedByObjectVersion
1070
     0
  0
ENDSEC
  0
EOF
