  0
SECTION
  2
HEADER
  9
$ACADVER
  1
AC1018
  9
$ACADMAINTVER
 70
     0
  9
$DWGCODEPAGE
  3
ANSI_1252
  9
$INSBASE
 10
0.0
 20
0.0
 30
0.0
  9
$EXTMIN
 10
-47.25000000000003
 20
-0.0000000002171134
 30
0.0
  9
$EXTMAX
 10
93.95088699468587
 20
65.1372776402556
 30
0.0
  9
$LIMMIN
 10
0.0
 20
0.0
  9
$LIMMAX
 10
12.0
 20
9.0
  9
$ORTHOMODE
 70
     0
  9
$REGENMODE
 70
     1
  9
$FILLMODE
 70
     1
  9
$QTEXTMODE
 70
     0
  9
$MIRRTEXT
 70
     1
  9
$LTSCALE
 40
0.0393700787401575
  9
$ATTMODE
 70
     1
  9
$TEXTSIZE
 40
0.2
  9
$TRACEWID
 40
0.05
  9
$TEXTSTYLE
  7
Standard
  9
$CLAYER
  8
0
  9
$CELTYPE
  6
ByLayer
  9
$CECOLOR
 62
   256
  9
$CELTSCALE
 40
1.0
  9
$DISPSILH
 70
     0
  9
$DIMSCALE
 40
1.0
  9
$DIMASZ
 40
0.18
  9
$DIMEXO
 40
0.0625
  9
$DIMDLI
 40
0.38
  9
$DIMRND
 40
0.0
  9
$DIMDLE
 40
0.0
  9
$DIMEXE
 40
0.18
  9
$DIMTP
 40
0.0
  9
$DIMTM
 40
0.0
  9
$DIMTXT
 40
0.18
  9
$DIMCEN
 40
0.09
  9
$DIMTSZ
 40
0.0
  9
$DIMTOL
 70
     0
  9
$DIMLIM
 70
     0
  9
$DIMTIH
 70
     1
  9
$DIMTOH
 70
     1
  9
$DIMSE1
 70
     0
  9
$DIMSE2
 70
     0
  9
$DIMTAD
 70
     0
  9
$DIMZIN
 70
     0
  9
$DIMBLK
  1

  9
$DIMASO
 70
     1
  9
$DIMSHO
 70
     1
  9
$DIMPOST
  1

  9
$DIMAPOST
  1

  9
$DIMALT
 70
     0
  9
$DIMALTD
 70
     2
  9
$DIMALTF
 40
25.4
  9
$DIMLFAC
 40
1.0
  9
$DIMTOFL
 70
     0
  9
$DIMTVP
 40
0.0
  9
$DIMTIX
 70
     0
  9
$DIMSOXD
 70
     0
  9
$DIMSAH
 70
     0
  9
$DIMBLK1
  1

  9
$DIMBLK2
  1

  9
$DIMSTYLE
  2
Standard
  9
$DIMCLRD
 70
     0
  9
$DIMCLRE
 70
     0
  9
$DIMCLRT
 70
     0
  9
$DIMTFAC
 40
1.0
  9
$DIMGAP
 40
0.09
  9
$DIMJUST
 70
     0
  9
$DIMSD1
 70
     0
  9
$DIMSD2
 70
     0
  9
$DIMTOLJ
 70
     1
  9
$DIMTZIN
 70
     0
  9
$DIMALTZ
 70
     0
  9
$DIMALTTZ
 70
     0
  9
$DIMUPT
 70
     0
  9
$DIMDEC
 70
     4
  9
$DIMTDEC
 70
     4
  9
$DIMALTU
 70
     2
  9
$DIMALTTD
 70
     2
  9
$DIMTXSTY
  7
Standard
  9
$DIMAUNIT
 70
     0
  9
$DIMADEC
 70
     0
  9
$DIMALTRND
 40
0.0
  9
$DIMAZIN
 70
     0
  9
$DIMDSEP
 70
    46
  9
$DIMATFIT
 70
     3
  9
$DIMFRAC
 70
     0
  9
$DIMLDRBLK
  1

  9
$DIMLUNIT
 70
     2
  9
$DIMLWD
 70
    -2
  9
$DIMLWE
 70
    -2
  9
$DIMTMOVE
 70
     2
  9
$LUNITS
 70
     2
  9
$LUPREC
 70
     3
  9
$SKETCHINC
 40
0.1
  9
$FILLETRAD
 40
0.5
  9
$AUNITS
 70
     0
  9
$AUPREC
 70
     0
  9
$MENU
  1
.
  9
$ELEVATION
 40
0.0
  9
$PELEVATION
 40
0.0
  9
$THICKNESS
 40
0.0
  9
$LIMCHECK
 70
     0
  9
$CHAMFERA
 40
0.5
  9
$CHAMFERB
 40
0.5
  9
$CHAMFERC
 40
1.0
  9
$CHAMFERD
 40
0.0
  9
$SKPOLY
 70
     0
  9
$TDCREATE
 40
2458148.973127141
  9
$TDUCREATE
 40
2458149.181460475
  9
$TDUPDATE
 40
2458148.973127153
  9
$TDUUPDATE
 40
2458149.181460486
  9
$TDINDWG
 40
0.0000000116
  9
$TDUSRTIMER
 40
0.0000000116
  9
$USRTIMER
 70
     1
  9
$ANGBASE
 50
0.0
  9
$ANGDIR
 70
     0
  9
$PDMODE
 70
     0
  9
$PDSIZE
 40
0.0
  9
$PLINEWID
 40
0.0
  9
$SPLFRAME
 70
     0
  9
$SPLINETYPE
 70
     6
  9
$SPLINESEGS
 70
     8
  9
$HANDSEED
  5
126
  9
$SURFTAB1
 70
     6
  9
$SURFTAB2
 70
     6
  9
$SURFTYPE
 70
     6
  9
$SURFU
 70
     6
  9
$SURFV
 70
     6
  9
$UCSBASE
  2

  9
$UCSNAME
  2

  9
$UCSORG
 10
0.0
 20
0.0
 30
0.0
  9
$UCSXDIR
 10
1.0
 20
0.0
 30
0.0
  9
$UCSYDIR
 10
0.0
 20
1.0
 30
0.0
  9
$UCSORTHOREF
  2

  9
$UCSORTHOVIEW
 70
     0
  9
$UCSORGTOP
 10
0.0
 20
0.0
 30
0.0
  9
$UCSORGBOTTOM
 10
0.0
 20
0.0
 30
0.0
  9
$UCSORGLEFT
 10
0.0
 20
0.0
 30
0.0
  9
$UCSORGRIGHT
 10
0.0
 20
0.0
 30
0.0
  9
$UCSORGFRONT
 10
0.0
 20
0.0
 30
0.0
  9
$UCSORGBACK
 10
0.0
 20
0.0
 30
0.0
  9
$PUCSBASE
  2

  9
$PUCSNAME
  2

  9
$PUCSORG
 10
0.0
 20
0.0
 30
0.0
  9
$PUCSXDIR
 10
1.0
 20
0.0
 30
0.0
  9
$PUCSYDIR
 10
0.0
 20
1.0
 30
0.0
  9
$PUCSORTHOREF
  2

  9
$PUCSORTHOVIEW
 70
     0
  9
$PUCSORGTOP
 10
0.0
 20
0.0
 30
0.0
  9
$PUCSORGBOTTOM
 10
0.0
 20
0.0
 30
0.0
  9
$PUCSORGLEFT
 10
0.0
 20
0.0
 30
0.0
  9
$PUCSORGRIGHT
 10
0.0
 20
0.0
 30
0.0
  9
$PUCSORGFRONT
 10
0.0
 20
0.0
 30
0.0
  9
$PUCSORGBACK
 10
0.0
 20
0.0
 30
0.0
  9
$USERI1
 70
     0
  9
$USERI2
 70
     0
  9
$USERI3
 70
     0
  9
$USERI4
 70
     0
  9
$USERI5
 70
     0
  9
$USERR1
 40
0.0
  9
$USERR2
 40
0.0
  9
$USERR3
 40
0.0
  9
$USERR4
 40
0.0
  9
$USERR5
 40
0.0
  9
$WORLDVIEW
 70
     1
  9
$SHADEDGE
 70
     3
  9
$SHADEDIF
 70
    70
  9
$TILEMODE
 70
     1
  9
$MAXACTVP
 70
    64
  9
$PINSBASE
 10
0.0
 20
0.0
 30
0.0
  9
$PLIMCHECK
 70
     0
  9
$PEXTMIN
 10
1.000000000000000E+20
 20
1.000000000000000E+20
 30
1.000000000000000E+20
  9
$PEXTMAX
 10
-1.000000000000000E+20
 20
-1.000000000000000E+20
 30
-1.000000000000000E+20
  9
$PLIMMIN
 10
0.0
 20
0.0
  9
$PLIMMAX
 10
12.0
 20
9.0
  9
$UNITMODE
 70
     0
  9
$VISRETAIN
 70
     1
  9
$PLINEGEN
 70
     0
  9
$PSLTSCALE
 70
     1
  9
$TREEDEPTH
 70
  3020
  9
$CMLSTYLE
  2
Standard
  9
$CMLJUST
 70
     0
  9
$CMLSCALE
 40
1.0
  9
$PROXYGRAPHICS
 70
     1
  9
$MEASUREMENT
 70
     0
  9
$CELWEIGHT
370
    -1
  9
$ENDCAPS
280
     0
  9
$JOINSTYLE
280
     0
  9
$LWDISPLAY
290
     0
  9
$INSUNITS
 70
     1
  9
$HYPERLINKBASE
  1

  9
$STYLESHEET
  1

  9
$XEDIT
290
     1
  9
$CEPSNTYPE
380
     0
  9
$PSTYLEMODE
290
     1
  9
$FINGERPRINTGUID
  2
{21EFFF37-27CB-4D57-ABDF-23CB7563B97E}
  9
$VERSIONGUID
  2
{FAEB1C32-E019-11D5-929B-00C0DF256EC4}
  9
$EXTNAMES
290
     1
  9
$PSVPSCALE
 40
0.0
  9
$OLESTARTUP
290
     0
  9
$SORTENTS
280
   127
  9
$INDEXCTL
280
     0
  9
$HIDETEXT
280
     1
  9
$XCLIPFRAME
290
     0
  9
$HALOGAP
280
     0
  9
$OBSCOLOR
 70
   257
  9
$OBSLTYPE
280
     0
  9
$INTERSECTIONDISPLAY
280
     0
  9
$INTERSECTIONCOLOR
 70
   257
  9
$DIMASSOC
280
     2
  9
$PROJECTNAME
  1

  0
ENDSEC
  0
SECTION
  2
CLASSES
  0
CLASS
  1
ACDBDICTIONARYWDFLT
  2
AcDbDictionaryWithDefault
  3
ObjectDBX Classes
 90
        0
 91
        4
280
     0
281
     0
  0
CLASS
  1
VISUALSTYLE
  2
AcDbVisualStyle
  3
ObjectDBX Classes
 90
     4095
 91
        4
280
     0
281
     0
  0
ENDSEC
  0
SECTION
  2
TABLES
  0
TABLE
  2
VPORT
  5
8
330
0
100
AcDbSymbolTable
 70
     1
  0
VPORT
  5
29
330
8
100
AcDbSymbolTableRecord
100
AcDbViewportTableRecord
  2
*Active
 70
     0
 10
0.0
 20
0.0
 11
1.0
 21
1.0
 12
23.35044349734292
 22
32.56863882001925
 13
0.0
 23
0.0
 14
0.5
 24
0.5
 15
0.5
 25
0.5
 16
0.0
 26
0.0
 36
1.0
 17
0.0
 27
0.0
 37
0.0
 40
66.44002319328217
 41
2.16774314355059
 42
50.0
 43
0.0
 44
0.0
 50
0.0
 51
0.0
 71
     0
 72
   100
 73
     1
 74
     3
 75
     0
 76
     0
 77
     0
 78
     0
281
     0
 65
     1
110
0.0
120
0.0
130
0.0
111
1.0
121
0.0
131
0.0
112
0.0
122
1.0
132
0.0
 79
     0
146
0.0
  0
ENDTAB
  0
TABLE
  2
LTYPE
  5
5
330
0
100
AcDbSymbolTable
 70
     1
  0
LTYPE
  5
14
330
5
100
AcDbSymbolTableRecord
100
AcDbLinetypeTableRecord
  2
ByBlock
 70
     0
  3

 72
    65
 73
     0
 40
0.0
  0
LTYPE
  5
15
330
5
100
AcDbSymbolTableRecord
100
AcDbLinetypeTableRecord
  2
ByLayer
 70
     0
  3

 72
    65
 73
     0
 40
0.0
  0
LTYPE
  5
16
330
5
100
AcDbSymbolTableRecord
100
AcDbLinetypeTableRecord
  2
Continuous
 70
     0
  3
Solid line
 72
    65
 73
     0
 40
0.0
  0
ENDTAB
  0
TABLE
  2
LAYER
  5
2
330
0
100
AcDbSymbolTable
 70
     2
  0
LAYER
  5
10
330
2
100
AcDbSymbolTableRecord
100
AcDbLayerTableRecord
  2
0
 70
     0
 62
     7
  6
Continuous
370
    -3
390
F
  0
LAYER
  5
3B
330
2
100
AcDbSymbolTableRecord
100
AcDbLayerTableRecord
  2
Layer 01
 70
     0
 62
     7
  6
Continuous
370
    -3
390
F
  0
ENDTAB
  0
TABLE
  2
STYLE
  5
3
330
0
100
AcDbSymbolTable
 70
     1
  0
STYLE
  5
11
330
3
100
AcDbSymbolTableRecord
100
AcDbTextStyleTableRecord
  2
Standard
 70
     0
 40
0.0
 41
1.0
 50
0.0
 71
     0
 42
0.2
  3
txt
  4

  0
ENDTAB
  0
TABLE
  2
VIEW
  5
6
330
0
100
AcDbSymbolTable
 70
     0
  0
ENDTAB
  0
TABLE
  2
UCS
  5
7
330
0
100
AcDbSymbolTable
 70
     0
  0
ENDTAB
  0
TABLE
  2
APPID
  5
9
330
0
100
AcDbSymbolTable
 70
     1
  0
APPID
  5
12
330
9
100
AcDbSymbolTableRecord
100
AcDbRegAppTableRecord
  2
ACAD
 70
     0
  0
ENDTAB
  0
TABLE
  2
DIMSTYLE
  5
A
330
0
100
AcDbSymbolTable
 70
     1
100
AcDbDimStyleTable
  0
DIMSTYLE
105
27
330
A
100
AcDbSymbolTableRecord
100
AcDbDimStyleTableRecord
  2
Standard
 70
     0
340
11
  0
ENDTAB
  0
TABLE
  2
BLOCK_RECORD
  5
1
330
0
100
AcDbSymbolTable
 70
     1
  0
BLOCK_RECORD
  5
1F
330
1
100
AcDbSymbolTableRecord
100
AcDbBlockTableRecord
  2
*Model_Space
340
22
  0
BLOCK_RECORD
  5
1B
330
1
100
AcDbSymbolTableRecord
100
AcDbBlockTableRecord
  2
*Paper_Space
340
1E
  0
BLOCK_RECORD
  5
23
330
1
100
AcDbSymbolTableRecord
100
AcDbBlockTableRecord
  2
*Paper_Space0
340
26
  0
ENDTAB
  0
ENDSEC
  0
SECTION
  2
BLOCKS
  0
BLOCK
  5
20
330
1F
100
AcDbEntity
  8
0
100
AcDbBlockBegin
  2
*Model_Space
 70
     0
 10
0.0
 20
0.0
 30
0.0
  3
*Model_Space
  1

  0
ENDBLK
  5
21
330
1F
100
AcDbEntity
  8
0
100
AcDbBlockEnd
  0
BLOCK
  5
1C
330
1B
100
AcDbEntity
 67
     1
  8
0
100
AcDbBlockBegin
  2
*Paper_Space
 70
     0
 10
0.0
 20
0.0
 30
0.0
  3
*Paper_Space
  1

  0
ENDBLK
  5
1D
330
1B
100
AcDbEntity
 67
     1
  8
0
100
AcDbBlockEnd
  0
BLOCK
  5
24
330
23
100
AcDbEntity
  8
0
100
AcDbBlockBegin
  2
*Paper_Space0
 70
     0
 10
0.0
 20
0.0
 30
0.0
  3
*Paper_Space0
  1

  0
ENDBLK
  5
25
330
23
100
AcDbEntity
  8
0
100
AcDbBlockEnd
  0
ENDSEC
  0
SECTION
  2
ENTITIES
  0
SPLINE
  5
3C
330
1F
100
AcDbEntity
  8
Layer 01
100
AcDbSpline
210
0.0
220
0.0
230
1.0
 70
    28
 71
     2
 72
     8
 73
     5
 74
     0
 42
0.0000000001
 43
0.0000000001
 40
-2547.981775971362
 40
-2547.981775971362
 40
-2547.981775971362
 40
-2526.10221994133
 40
-2526.10221994133
 40
-2524.803469941329
 40
-2524.803469941329
 40
-2524.803469941329
 10
92.39963699468493
 20
14.37503914793996
 30
0.0
 41
1.0
 10
81.79829208978137
 20
14.37503914793996
 30
0.0
 41
1.0
 10
76.79942900215107
 20
14.37503914793996
 30
0.0
 41
1.0
 10
76.15005400215065
 20
14.37503914793996
 30
0.0
 41
1.0
 10
75.50067900215024
 20
14.37503914793996
 30
0.0
 41
1.0
  0
SPLINE
  5
3D
330
1F
100
AcDbEntity
  8
Layer 01
100
AcDbSpline
210
0.0
220
0.0
230
1.0
 70
    12
 71
     2
 72
    18
 73
    15
 74
     0
 42
0.0000000001
 43
0.0000000001
 40
-2580.261064848845
 40
-2580.261064848845
 40
-2580.261064848845
 40
-2578.139015056563
 40
-2578.139015056563
 40
-2577.353616893166
 40
-2577.353616893166
 40
-2553.353616935937
 40
-2553.353616935937
 40
-2552.568218772539
 40
-2552.568218772539
 40
-2549.696168980258
 40
-2549.696168980258
 40
-2549.303469898559
 40
-2549.303469898559
 40
-2547.981775971362
 40
-2547.981775971362
 40
-2547.981775971362
 10
75.25067900215018
 20
15.3750391479399
 30
0.0
 41
1.0
 10
75.25067900215024
 20
16.43606404408072
 30
0.0
 41
1.0
 10
75.25067900215024
 20
17.49708894022154
 30
0.0
 41
1.0
 10
75.25067900215018
 20
17.99708894022156
 30
0.0
 41
0.7071067811865426
 10
75.75067900215024
 20
17.99708894022154
 30
0.0
 41
1.0
 10
81.45088697329865
 20
17.99708894022154
 30
0.0
 41
1.0
 10
93.45088695191347
 20
17.99708894022154
 30
0.0
 41
1.0
 10
93.95088695191347
 20
17.99708894022156
 30
0.0
 41
0.7071067811865627
 10
93.95088695191347
 20
17.49708894022154
 30
0.0
 41
1.0
 10
93.95088695191359
 20
16.06106404408075
 30
0.0
 41
1.0
 10
93.95088695191359
 20
14.62503914793996
 30
0.0
 41
1.0
 10
93.95088695191366
 20
14.37503914793995
 30
0.0
 41
0.7071067811865426
 10
93.70088695191359
 20
14.37503914793996
 30
0.0
 41
1.0
 10
93.0400399883151
 20
14.37503914793996
 30
0.0
 41
1.0
 10
92.39963699468493
 20
14.37503914793996
 30
0.0
 41
1.0
  0
LINE
  5
3E
330
1F
100
AcDbEntity
  8
Layer 01
100
AcDbLine
 10
75.25064792108287
 20
15.37503914794005
 30
0.0
 11
75.2506479194985
 21
17.31204279830686
 31
0.0
  0
SPLINE
  5
3F
330
1F
100
AcDbEntity
  8
Layer 01
100
AcDbSpline
210
0.0
220
0.0
230
1.0
 70
     8
 71
     3
 72
     8
 73
     4
 74
     0
 42
0.0000000001
 43
0.0000000001
 40
-12.26203533468478
 40
-12.26203533468478
 40
-12.26203533468478
 40
-12.26203533468478
 40
-11.57666737507756
 40
-11.57666737507756
 40
-11.57666737507756
 40
-11.57666737507756
 10
75.2506479194985
 20
17.31204279830686
 30
0.0
 10
75.24654386531813
 20
17.54045778653364
 30
0.0
 10
75.23962903438581
 20
17.7688221789138
 30
0.0
 10
75.23021402129943
 20
17.99708894022156
 30
0.0
  0
POLYLINE
  5
40
330
1F
100
AcDbEntity
  8
Layer 01
100
AcDb2dPolyline
 66
     1
 10
0.0
 20
0.0
 30
0.0
  0
VERTEX
  5
41
330
40
100
AcDbEntity
  8
Layer 01
100
AcDbVertex
100
AcDb2dVertex
 10
70.49963699468478
 20
14.3754561118057
 30
0.0
  0
VERTEX
  5
42
330
40
100
AcDbEntity
  8
Layer 01
100
AcDbVertex
100
AcDb2dVertex
 10
75.01401912221374
 20
14.3754561118057
 30
0.0
  0
SEQEND
  5
43
330
40
100
AcDbEntity
  8
Layer 01
  0
LINE
  5
44
330
1F
100
AcDbEntity
  8
Layer 01
100
AcDbLine
 10
69.18639002852737
 20
14.3754561118057
 30
0.0
 11
70.21862046867861
 21
14.3754561118057
 31
0.0
  0
POLYLINE
  5
45
330
1F
100
AcDbEntity
  8
Layer 01
100
AcDb2dPolyline
 66
     1
 10
0.0
 20
0.0
 30
0.0
  0
VERTEX
  5
46
330
45
100
AcDbEntity
  8
Layer 01
100
AcDbVertex
100
AcDb2dVertex
 10
70.21862046867861
 20
14.3754561118057
 30
0.0
  0
VERTEX
  5
47
330
45
100
AcDbEntity
  8
Layer 01
100
AcDbVertex
100
AcDb2dVertex
 10
70.49963699468478
 20
14.3754561118057
 30
0.0
  0
SEQEND
  5
48
330
45
100
AcDbEntity
  8
Layer 01
  0
SPLINE
  5
49
330
1F
100
AcDbEntity
  8
Layer 01
100
AcDbSpline
210
0.0
220
0.0
230
1.0
 70
    24
 71
     2
 72
     6
 73
     3
 74
     0
 42
0.0000000001
 43
0.0000000001
 40
-2.880296887072769
 40
-2.880296887072769
 40
-2.880296887072769
 40
0.0
 40
0.0
 40
0.0
 10
68.95089046406451
 20
17.50530777706642
 30
0.0
 10
68.95082310177445
 20
16.06515927405434
 30
0.0
 10
68.95075573948438
 20
14.62501077104227
 30
0.0
  0
SPLINE
  5
4A
330
1F
100
AcDbEntity
  8
Layer 01
100
AcDbSpline
210
0.0
220
0.0
230
1.0
 70
    12
 71
     2
 72
     6
 73
     3
 74
     0
 42
0.0000000001
 43
0.0000000001
 40
0.0
 40
0.0
 40
0.0
 40
0.3761352932874497
 40
0.3761352932874497
 40
0.3761352932874497
 10
68.95075573948438
 20
14.62501077104227
 30
0.0
 41
1.0
 10
68.95074321861804
 20
14.38966848008356
 30
0.0
 41
0.7194662149251728
 10
69.18565499707874
 20
14.37545611180571
 30
0.0
 41
0.9763257704015883
  0
LINE
  5
4B
330
1F
100
AcDbEntity
  8
Layer 01
100
AcDbLine
 10
69.18565499707879
 20
14.3754561118057
 30
0.0
 11
69.18639002852737
 21
14.3754561118057
 31
0.0
  0
SPLINE
  5
4C
330
1F
100
AcDbEntity
  8
Layer 01
100
AcDbSpline
210
0.0
220
0.0
230
1.0
 70
     8
 71
     3
 72
    14
 73
    10
 74
     0
 42
0.0000000001
 43
0.0000000001
 40
-11.57666737507756
 40
-11.57666737507756
 40
-11.57666737507756
 40
-11.57666737507756
 40
-10.74358193232705
 40
-8.947613819412345
 40
-7.141201977474322
 40
-5.367291970666196
 40
-2.433620593354017
 40
-1.183560743342271
 40
0.0
 40
0.0
 40
0.0
 40
0.0
 10
75.23021402129943
 20
17.99708894022156
 30
0.0
 10
75.21876978870054
 20
18.27455407882868
 30
0.0
 10
75.17099634063018
 20
19.14972417252869
 30
0.0
 10
75.03770307491376
 20
20.62237700348933
 30
0.0
 10
74.81834981815254
 20
22.40137396918735
 30
0.0
 10
74.47147452802912
 20
24.54498231632815
 30
0.0
 10
74.03428991507221
 20
26.4846319423747
 30
0.0
 10
73.48499940324618
 20
28.18873419803592
 30
0.0
 10
73.17938155302315
 20
28.94065262518299
 30
0.0
 10
73.01550407249269
 20
29.29960367785267
 30
0.0
  0
LINE
  5
4D
330
1F
100
AcDbEntity
  8
Layer 01
100
AcDbLine
 10
73.01550407249269
 20
29.29960367785267
 30
0.0
 11
73.00465490051656
 21
29.32336729496973
 31
0.0
  0
ARC
  5
4E
330
1F
100
AcDbEntity
  8
Layer 01
100
AcDbCircle
 10
72.54981497807145
 20
29.11571218438951
 30
0.0
 40
0.5
100
AcDbArc
 50
24.53885410444971
 51
80.99917740315979
  0
SPLINE
  5
4F
330
1F
100
AcDbEntity
  8
Layer 01
100
AcDbSpline
210
0.0
220
0.0
230
1.0
 70
    12
 71
     2
 72
     6
 73
     3
 74
     0
 42
0.0000000001
 43
0.0000000001
 40
-1.629194543905347
 40
-1.629194543905347
 40
-1.629194543905347
 40
0.0
 40
0.0
 40
0.0
 10
72.6280393007157
 20
29.60955523166956
 30
0.0
 41
0.9999618433163424
 10
71.82157547823059
 20
29.73729842173467
 30
0.0
 41
0.9964642919834154
 10
71.00510374337804
 20
29.72857341259278
 30
0.0
 41
0.999999996566831
  0
SPLINE
  5
50
330
1F
100
AcDbEntity
  8
Layer 01
100
AcDbSpline
210
0.0
220
0.0
230
1.0
 70
    12
 71
     2
 72
     6
 73
     3
 74
     0
 42
0.0000000001
 43
0.0000000001
 40
0.0
 40
0.0
 40
0.0
 40
1.638033214271802
 40
1.638033214271802
 40
1.638033214271802
 10
71.00510374337804
 20
29.72857341259278
 30
0.0
 41
0.999999996566831
 10
70.18418670148566
 20
29.73734592533205
 30
0.0
 41
0.9964451101567618
 10
69.37344896909607
 20
29.60817005188503
 30
0.0
 41
1.0
  0
SPLINE
  5
51
330
1F
100
AcDbEntity
  8
Layer 01
100
AcDbSpline
210
0.0
220
0.0
230
1.0
 70
    12
 71
     2
 72
     6
 73
     3
 74
     0
 42
0.0000000001
 43
0.0000000001
 40
0.0
 40
0.0
 40
0.0
 40
0.7070700636718217
 40
0.7070700636718217
 40
0.7070700636718217
 10
69.37344896909607
 20
29.60817005188503
 30
0.0
 41
1.0
 10
68.95145273922485
 20
29.54153760515111
 30
0.0
 41
0.760266553890503
 10
68.95143347001178
 20
29.11431336970452
 30
0.0
 41
1.0
  0
SPLINE
  5
52
330
1F
100
AcDbEntity
  8
Layer 01
100
AcDbSpline
210
0.0
220
0.0
230
1.0
 70
    24
 71
     2
 72
     6
 73
     3
 74
     0
 42
0.0000000001
 43
0.0000000001
 40
-14.4893020002786
 40
-14.4893020002786
 40
-14.4893020002786
 40
-2.880296887072769
 40
-2.880296887072769
 40
-2.880296887072769
 10
68.95143347001178
 20
29.11431336970452
 30
0.0
 10
68.95116196703815
 20
23.30981057338547
 30
0.0
 10
68.95089046406451
 20
17.50530777706642
 30
0.0
  0
POLYLINE
  5
53
330
1F
100
AcDbEntity
  8
Layer 01
100
AcDb2dPolyline
 66
     1
 10
0.0
 20
0.0
 30
0.0
  0
VERTEX
  5
54
330
53
100
AcDbEntity
  8
Layer 01
100
AcDbVertex
100
AcDb2dVertex
 10
-40.26599508272764
 20
12.62500000235795
 30
0.0
  0
VERTEX
  5
55
330
53
100
AcDbEntity
  8
Layer 01
100
AcDbVertex
100
AcDb2dVertex
 10
-34.04599540332597
 20
12.62500000235795
 30
0.0
  0
SEQEND
  5
56
330
53
100
AcDbEntity
  8
Layer 01
  0
SPLINE
  5
57
330
1F
100
AcDbEntity
  8
Layer 01
100
AcDbSpline
210
0.0
220
0.0
230
1.0
 70
    12
 71
     5
 72
    13
 73
     7
 74
     0
 42
0.0000000001
 43
0.0000000001
 40
-0.9999999998854913
 40
-0.9999999998854913
 40
-0.9999999998854913
 40
-0.9999999998854913
 40
-0.9999999998854913
 40
-0.9999999998854913
 40
-0.4999999999118557
 40
0.0000214316302039
 40
0.0000214316302039
 40
0.0000214316302039
 40
0.0000214316302039
 40
0.0000214316302039
 40
0.0000214316302039
 10
-34.04599540332597
 20
12.62500000235795
 30
0.0
 41
1.0
 10
-34.04599604936575
 20
12.56009560996313
 30
0.0
 41
1.0
 10
-34.06529510087003
 20
12.44654867131678
 30
0.0
 41
1.0
 10
-34.12319127353399
 20
12.3655361986593
 30
0.0
 41
1.0
 10
-34.21136034095608
 20
12.31002542084664
 30
0.0
 41
1.0
 10
-34.32604433005773
 20
12.27687454006866
 30
0.0
 41
1.0
 10
-34.39001596715721
 20
12.26588517969745
 30
0.0
 41
1.0
  0
SPLINE
  5
58
330
1F
100
AcDbEntity
  8
Layer 01
100
AcDbSpline
210
0.0
220
0.0
230
1.0
 70
    12
 71
     2
 72
     6
 73
     3
 74
     0
 42
0.0000000001
 43
0.0000000001
 40
0.0
 40
0.0
 40
0.0
 40
1.843263450064862
 40
1.843263450064862
 40
1.843263450064862
 10
-34.39001596715721
 20
12.26588517969745
 30
0.0
 41
1.0
 10
-35.29833532725385
 20
12.10980514713988
 30
0.0
 41
0.9999999999936852
 10
-36.20665573057184
 20
11.9537310177214
 30
0.0
 41
1.0
  0
SPLINE
  5
59
330
1F
100
AcDbEntity
  8
Layer 01
100
AcDbSpline
210
0.0
220
0.0
230
1.0
 70
    12
 71
     2
 72
     6
 73
     3
 74
     0
 42
0.0000000001
 43
0.0000000001
 40
0.0
 40
0.0
 40
0.0
 40
0.6997662170032295
 40
0.6997662170032295
 40
0.6997662170032295
 10
-36.20665573057184
 20
11.9537310177214
 30
0.0
 41
1.0
 10
-36.62152276330008
 20
11.88244667937159
 30
0.0
 41
0.7649870492777086
 10
-36.6219793425669
 20
11.46120110138611
 30
0.0
 41
1.0
  0
SPLINE
  5
5A
330
1F
100
AcDbEntity
  8
Layer 01
100
AcDbSpline
210
0.0
220
0.0
230
1.0
 70
    12
 71
     3
 72
    13
 73
     9
 74
     0
 42
0.0000000001
 43
0.0000000001
 40
1.164116092654201
 40
1.164116092654201
 40
1.164116092654201
 40
1.164116092654201
 40
1.192754371812117
 40
1.192754371812117
 40
1.839154429652598
 40
2.485554487552516
 40
2.485554487552516
 40
2.941799361814759
 40
2.941799361814759
 40
2.941799361814759
 40
2.941799361814759
 10
-36.6219793425669
 20
11.46120110138611
 30
0.0
 41
1.0
 10
-36.62197849731572
 20
11.45135583614481
 30
0.0
 41
1.0
 10
-36.6219790561893
 20
11.44180974146306
 30
0.0
 41
1.0
 10
-36.62202860073526
 20
11.2167969686364
 30
0.0
 41
1.0
 10
-36.62411226118959
 20
10.78587479042528
 30
0.0
 41
1.0
 10
-36.63130000267816
 20
10.35502399011492
 30
0.0
 41
1.0
 10
-36.63709820287286
 20
9.987521416801457
 30
0.0
 41
1.0
 10
-36.6392990081346
 20
9.83544406875302
 30
0.0
 41
1.0
 10
-36.64106570819538
 20
9.682909845823701
 30
0.0
 41
1.0
  0
SPLINE
  5
5B
330
1F
100
AcDbEntity
  8
Layer 01
100
AcDbSpline
210
0.0
220
0.0
230
1.0
 70
    12
 71
     2
 72
     6
 73
     3
 74
     0
 42
0.0000000001
 43
0.0000000001
 40
0.0
 40
0.0
 40
0.0
 40
0.0011199978112541
 40
0.0011199978112541
 40
0.0011199978112541
 10
-36.64106570819538
 20
9.682909845823701
 30
0.0
 41
1.0
 10
-36.64108341629623
 20
9.68189344886065
 30
0.0
 41
0.9999999565253123
 10
-36.64108341555121
 20
9.681333409514025
 30
0.0
 41
1.0
  0
SPLINE
  5
5C
330
1F
100
AcDbEntity
  8
Layer 01
100
AcDbSpline
210
0.0
220
0.0
230
1.0
 70
    12
 71
     2
 72
     6
 73
     3
 74
     0
 42
0.0000000001
 43
0.0000000001
 40
0.0
 40
0.0
 40
0.0
 40
1.157563000328597
 40
1.157563000328597
 40
1.157563000328597
 10
-36.64108341555121
 20
9.681333409514025
 30
0.0
 41
1.0
 10
-36.64665913385041
 20
9.102576156243066
 30
0.0
 41
0.9999932729902123
 10
-36.64799516897565
 20
8.523792488378888
 30
0.0
 41
1.0
  0
SPLINE
  5
5D
330
1F
100
AcDbEntity
  8
Layer 01
100
AcDbSpline
210
0.0
220
0.0
230
1.0
 70
    12
 71
     3
 72
    12
 73
     8
 74
     0
 42
0.0000000001
 43
0.0000000001
 40
0.0000022290245399
 40
0.0000022290245399
 40
0.0000022290245399
 40
0.0000022290245399
 40
2.973330383277389
 40
2.973330383277389
 40
5.533332299297856
 40
5.533332299297856
 40
8.0907540207247
 40
8.0907540207247
 40
8.0907540207247
 40
8.0907540207247
 10
-36.64799516897565
 20
8.523792488378888
 30
0.0
 41
1.0
 10
-36.65173837885143
 20
7.533012356544702
 30
0.0
 41
1.0
 10
-36.66187495607042
 20
6.542166505228664
 30
0.0
 41
1.0
 10
-36.68681899296669
 20
4.698546802840923
 30
0.0
 41
1.0
 10
-36.70067826903565
 20
3.846004306662138
 30
0.0
 41
1.0
 10
-36.72802873039475
 20
2.140986238235911
 30
0.0
 41
1.0
 10
-36.74143764376473
 20
1.289616091246216
 30
0.0
 41
1.0
 10
-36.75267522315815
 20
0.4374291487058031
 30
0.0
 41
1.0
  0
SPLINE
  5
5E
330
1F
100
AcDbEntity
  8
Layer 01
100
AcDbSpline
210
0.0
220
0.0
230
1.0
 70
    12
 71
     2
 72
     6
 73
     3
 74
     0
 42
0.0000000001
 43
0.0000000001
 40
0.0
 40
0.0
 40
0.0
 40
0.0970316672143772
 40
0.0970316672143772
 40
0.0970316672143772
 10
-36.75267522315815
 20
0.4374291487058031
 30
0.0
 41
1.0
 10
-36.75325381989306
 20
0.3763075181237174
 30
0.0
 41
0.717857630247824
 10
-36.81433984724029
 20
0.3750140462356626
 30
0.0
 41
1.0
  0
POLYLINE
  5
5F
330
1F
100
AcDbEntity
  8
Layer 01
100
AcDb2dPolyline
 66
     1
 10
0.0
 20
0.0
 30
0.0
  0
VERTEX
  5
60
330
5F
100
AcDbEntity
  8
Layer 01
100
AcDbVertex
100
AcDb2dVertex
 10
-36.81433984724029
 20
0.3750140462356626
 30
0.0
  0
VERTEX
  5
61
330
5F
100
AcDbEntity
  8
Layer 01
100
AcDbVertex
100
AcDb2dVertex
 10
-37.4963198758127
 20
0.3750000024411975
 30
0.0
  0
SEQEND
  5
62
330
5F
100
AcDbEntity
  8
Layer 01
  0
SPLINE
  5
63
330
1F
100
AcDbEntity
  8
Layer 01
100
AcDbSpline
210
0.0
220
0.0
230
1.0
 70
    12
 71
     2
 72
     6
 73
     3
 74
     0
 42
0.0000000001
 43
0.0000000001
 40
0.0
 40
0.0
 40
0.0
 40
0.0983105351425802
 40
0.0983105351425802
 40
0.0983105351425802
 10
-37.4963198758127
 20
0.3750000024411975
 30
0.0
 41
1.0
 10
-37.55867571223884
 20
0.374998070860026
 30
0.0
 41
0.7107094273922171
 10
-37.55931462585002
 20
0.4373708929651912
 30
0.0
 41
1.0
  0
SPLINE
  5
64
330
1F
100
AcDbEntity
  8
Layer 01
100
AcDbSpline
210
0.0
220
0.0
230
1.0
 70
    12
 71
     3
 72
    12
 73
     8
 74
     0
 42
0.0000000001
 43
0.0000000001
 40
0.0025122088885125
 40
0.0025122088885125
 40
0.0025122088885125
 40
0.0025122088885125
 40
2.559996601448771
 40
2.559996601448771
 40
5.119998517672128
 40
5.119998517672128
 40
8.093326489272172
 40
8.093326489272172
 40
8.093326489272172
 40
8.093326489272172
 10
-37.55931462585002
 20
0.4373708929651912
 30
0.0
 41
1.0
 10
-37.57055250570161
 20
1.289574364790269
 30
0.0
 41
1.0
 10
-37.58396174130772
 20
2.140965357733307
 30
0.0
 41
1.0
 10
-37.6113125376186
 20
3.8460043069324
 30
0.0
 41
1.0
 10
-37.62517181368847
 20
4.6985468031788
 30
0.0
 41
1.0
 10
-37.65011584976074
 20
6.542166444777081
 30
0.0
 41
1.0
 10
-37.66025242655624
 20
7.53301223521413
 30
0.0
 41
1.0
 10
-37.66399563733003
 20
8.523792397285746
 30
0.0
 41
1.0
  0
SPLINE
  5
65
330
1F
100
AcDbEntity
  8
Layer 01
100
AcDbSpline
210
0.0
220
0.0
230
1.0
 70
    12
 71
     2
 72
     6
 73
     3
 74
     0
 42
0.0000000001
 43
0.0000000001
 40
0.0
 40
0.0
 40
0.0
 40
1.157566753814006
 40
1.157566753814006
 40
1.157566753814006
 10
-37.66399563733003
 20
8.523792397285746
 30
0.0
 41
1.0
 10
-37.66534350078572
 20
9.102577944119421
 30
0.0
 41
0.9999934222404667
 10
-37.67089556382356
 20
9.681337225291125
 30
0.0
 41
0.9999999999999121
  0
SPLINE
  5
66
330
1F
100
AcDbEntity
  8
Layer 01
100
AcDbSpline
210
0.0
220
0.0
230
1.0
 70
    12
 71
     2
 72
     6
 73
     3
 74
     0
 42
0.0000000001
 43
0.0000000001
 40
0.0
 40
0.0
 40
0.0
 40
0.0011163185374098
 40
0.0011163185374098
 40
0.0011163185374098
 10
-37.67089556382351
 20
9.681337225291117
 30
0.0
 41
1.0
 10
-37.67090740949369
 20
9.681895288399144
 30
0.0
 41
0.9999999568108967
 10
-37.67091305756711
 20
9.682909979841583
 30
0.0
 41
1.0
  0
SPLINE
  5
67
330
1F
100
AcDbEntity
  8
Layer 01
100
AcDbSpline
210
0.0
220
0.0
230
1.0
 70
    12
 71
     3
 72
    13
 73
     9
 74
     0
 42
0.0000000001
 43
0.0000000001
 40
1.159780968969077
 40
1.159780968969077
 40
1.159780968969077
 40
1.159780968969077
 40
1.219999999483621
 40
1.219999999483621
 40
1.859999999216523
 40
1.859999999216523
 40
2.49999999917158
 40
2.937447200127758
 40
2.937447200127758
 40
2.937447200127758
 40
2.937447200127758
 10
-37.67091305756711
 20
9.682909979841583
 30
0.0
 41
1.0
 10
-37.67114112291839
 20
9.703438966347733
 30
0.0
 41
1.0
 10
-37.67137760011306
 20
9.723511031694557
 30
0.0
 41
1.0
 10
-37.67422480888447
 20
9.95689999374116
 30
0.0
 41
1.0
 10
-37.67783982844756
 20
10.17023320478074
 30
0.0
 41
1.0
 10
-37.68447210200796
 20
10.59684831315658
 30
0.0
 41
1.0
 10
-37.68915683555579
 20
10.95596334870555
 30
0.0
 41
1.0
 10
-37.69000701493874
 20
11.31509077060545
 30
0.0
 41
1.0
 10
-37.69000637949276
 20
11.46118232485981
 30
0.0
 41
1.0
  0
SPLINE
  5
68
330
1F
100
AcDbEntity
  8
Layer 01
100
AcDbSpline
210
0.0
220
0.0
230
1.0
 70
    12
 71
     2
 72
     6
 73
     3
 74
     0
 42
0.0000000001
 43
0.0000000001
 40
0.0
 40
0.0
 40
0.0
 40
0.6998000892342029
 40
0.6998000892342029
 40
0.6998000892342029
 10
-37.69000637949276
 20
11.46118232485981
 30
0.0
 41
1.0
 10
-37.69044547978943
 20
11.88243362283056
 30
0.0
 41
0.764976675619346
 10
-38.10533507107405
 20
11.9537310466041
 30
0.0
 41
1.0
  0
SPLINE
  5
69
330
1F
100
AcDbEntity
  8
Layer 01
100
AcDbSpline
210
0.0
220
0.0
230
1.0
 70
    12
 71
     2
 72
     6
 73
     3
 74
     0
 42
0.0000000001
 43
0.0000000001
 40
0.0
 40
0.0
 40
0.0
 40
1.843263134159366
 40
1.843263134159366
 40
1.843263134159366
 10
-38.10533507107405
 20
11.9537310466041
 30
0.0
 41
1.0
 10
-39.01365532366022
 20
12.10980512042263
 30
0.0
 41
0.999999999993685
 10
-39.92197452349004
 20
12.26588515296334
 30
0.0
 41
1.0
  0
SPLINE
  5
6A
330
1F
100
AcDbEntity
  8
Layer 01
100
AcDbSpline
210
0.0
220
0.0
230
1.0
 70
    12
 71
     5
 72
    13
 73
     7
 74
     0
 42
0.0000000001
 43
0.0000000001
 40
-0.0000214316302125
 40
-0.0000214316302125
 40
-0.0000214316302125
 40
-0.0000214316302125
 40
-0.0000214316302125
 40
-0.0000214316302125
 40
0.4999999999109885
 40
0.9999999998854894
 40
0.9999999998854894
 40
0.9999999998854894
 40
0.9999999998854894
 40
0.9999999998854894
 40
0.9999999998854894
 10
-39.92197452349004
 20
12.26588515296334
 30
0.0
 41
1.0
 10
-39.98594615599669
 20
12.27687454006889
 30
0.0
 41
1.0
 10
-40.10063014509788
 20
12.31002542084693
 30
0.0
 41
1.0
 10
-40.18879921251974
 20
12.36553619865956
 30
0.0
 41
1.0
 10
-40.24669538518359
 20
12.44654867131698
 30
0.0
 41
1.0
 10
-40.26599443668775
 20
12.56009560996313
 30
0.0
 41
1.0
 10
-40.26599508272764
 20
12.62500000235795
 30
0.0
 41
1.0
  0
POLYLINE
  5
6B
330
1F
100
AcDbEntity
  8
Layer 01
100
AcDb2dPolyline
 66
     1
 10
0.0
 20
0.0
 30
0.0
  0
VERTEX
  5
6C
330
6B
100
AcDbEntity
  8
Layer 01
100
AcDbVertex
100
AcDb2dVertex
 10
-36.91390664184954
 20
-0.0000000002171134
 30
0.0
  0
VERTEX
  5
6D
330
6B
100
AcDbEntity
  8
Layer 01
100
AcDbVertex
100
AcDb2dVertex
 10
-37.39808416925692
 20
0.0000000002171703
 30
0.0
  0
SEQEND
  5
6E
330
6B
100
AcDbEntity
  8
Layer 01
  0
SPLINE
  5
6F
330
1F
100
AcDbEntity
  8
Layer 01
100
AcDbSpline
210
0.0
220
0.0
230
1.0
 70
    12
 71
     2
 72
     6
 73
     3
 74
     0
 42
0.0000000001
 43
0.0000000001
 40
0.0
 40
0.0
 40
0.0
 40
0.241924443334512
 40
0.241924443334512
 40
0.241924443334512
 10
-37.39808416925692
 20
0.0000000002171703
 30
0.0
 41
1.0
 10
-37.5509951834242
 20
0.0000000303540784
 30
0.0
 41
0.7141418074729331
 10
-37.55396650759465
 20
0.1529065059711456
 30
0.0
 41
1.0
  0
LINE
  5
70
330
1F
100
AcDbEntity
  8
Layer 01
100
AcDbLine
 10
-37.55396650759465
 20
0.1529065059711456
 30
0.0
 11
-37.55866510468528
 21
0.3750000023996165
 31
0.0
  0
LINE
  5
71
330
1F
100
AcDbEntity
  8
Layer 01
100
AcDbLine
 10
-37.55866510468528
 20
0.3750000023996165
 30
0.0
 11
-36.75385598871017
 21
0.3750000023996165
 31
0.0
  0
LINE
  5
72
330
1F
100
AcDbEntity
  8
Layer 01
100
AcDbLine
 10
-36.75385598871017
 20
0.3750000023996165
 30
0.0
 11
-36.75828944725279
 21
0.1529065037773307
 31
0.0
  0
SPLINE
  5
73
330
1F
100
AcDbEntity
  8
Layer 01
100
AcDbSpline
210
0.0
220
0.0
230
1.0
 70
    12
 71
     2
 72
     6
 73
     3
 74
     0
 42
0.0000000001
 43
0.0000000001
 40
0.0
 40
0.0
 40
0.0
 40
0.2419244355107725
 40
0.2419244355107725
 40
0.2419244355107725
 10
-36.75828944725279
 20
0.1529065037773307
 30
0.0
 41
1.0
 10
-36.76099563385181
 20
0.0000000321588069
 30
0.0
 41
0.7141418153608741
 10
-36.91390664184954
 20
-0.0000000002171134
 30
0.0
 41
1.0
  0
POLYLINE
  5
74
330
1F
100
AcDbEntity
  8
Layer 01
100
AcDb2dPolyline
 66
     1
 10
0.0
 20
0.0
 30
0.0
  0
VERTEX
  5
75
330
74
100
AcDbEntity
  8
Layer 01
100
AcDbVertex
100
AcDb2dVertex
 10
-23.80212657539894
 20
14.37500000239919
 30
0.0
  0
VERTEX
  5
76
330
74
100
AcDbEntity
  8
Layer 01
100
AcDbVertex
100
AcDb2dVertex
 10
-45.70212657539892
 20
14.37500000239919
 30
0.0
  0
VERTEX
  5
77
330
74
100
AcDbEntity
  8
Layer 01
100
AcDbVertex
100
AcDb2dVertex
 10
-45.70212657539892
 20
14.62500000239919
 30
0.0
  0
VERTEX
  5
78
330
74
100
AcDbEntity
  8
Layer 01
100
AcDbVertex
100
AcDb2dVertex
 10
-23.80212657539894
 20
14.62500000239919
 30
0.0
  0
VERTEX
  5
79
330
74
100
AcDbEntity
  8
Layer 01
100
AcDbVertex
100
AcDb2dVertex
 10
-23.80212657539894
 20
14.37500000239919
 30
0.0
  0
SEQEND
  5
7A
330
74
100
AcDbEntity
  8
Layer 01
  0
POLYLINE
  5
7B
330
1F
100
AcDbEntity
  8
Layer 01
100
AcDb2dPolyline
 66
     1
 10
0.0
 20
0.0
 30
0.0
  0
VERTEX
  5
7C
330
7B
100
AcDbEntity
  8
Layer 01
100
AcDbVertex
100
AcDb2dVertex
 10
-23.05211795890128
 20
40.18795852298581
 30
0.0
  0
VERTEX
  5
7D
330
7B
100
AcDbEntity
  8
Layer 01
100
AcDbVertex
100
AcDb2dVertex
 10
-46.45211795890137
 20
40.18795852298581
 30
0.0
  0
SEQEND
  5
7E
330
7B
100
AcDbEntity
  8
Layer 01
  0
ARC
  5
7F
330
1F
100
AcDbEntity
  8
Layer 01
100
AcDbCircle
 10
-46.45211795890137
 20
40.93795852298581
 30
0.0
 40
0.75
100
AcDbArc
 50
179.9999999999995
 51
270.0
  0
POLYLINE
  5
80
330
1F
100
AcDbEntity
  8
Layer 01
100
AcDb2dPolyline
 66
     1
 10
0.0
 20
0.0
 30
0.0
  0
VERTEX
  5
81
330
80
100
AcDbEntity
  8
Layer 01
100
AcDbVertex
100
AcDb2dVertex
 10
-47.20211795890137
 20
40.93795852298581
 30
0.0
  0
VERTEX
  5
82
330
80
100
AcDbEntity
  8
Layer 01
100
AcDbVertex
100
AcDb2dVertex
 10
-47.20211795890137
 20
64.33795852298579
 30
0.0
  0
SEQEND
  5
83
330
80
100
AcDbEntity
  8
Layer 01
  0
ARC
  5
84
330
1F
100
AcDbEntity
  8
Layer 01
100
AcDbCircle
 10
-46.45211795890137
 20
64.33795852298579
 30
0.0
 40
0.75
100
AcDbArc
 50
89.99999999999946
 51
180.0
  0
POLYLINE
  5
85
330
1F
100
AcDbEntity
  8
Layer 01
100
AcDb2dPolyline
 66
     1
 10
0.0
 20
0.0
 30
0.0
  0
VERTEX
  5
86
330
85
100
AcDbEntity
  8
Layer 01
100
AcDbVertex
100
AcDb2dVertex
 10
-46.45211795890137
 20
65.08795852298579
 30
0.0
  0
VERTEX
  5
87
330
85
100
AcDbEntity
  8
Layer 01
100
AcDbVertex
100
AcDb2dVertex
 10
-23.05211795890128
 20
65.08795852298579
 30
0.0
  0
SEQEND
  5
88
330
85
100
AcDbEntity
  8
Layer 01
  0
ARC
  5
89
330
1F
100
AcDbEntity
  8
Layer 01
100
AcDbCircle
 10
-23.05211795890128
 20
64.33795852298579
 30
0.0
 40
0.75
100
AcDbArc
 50
0.0
 51
90.0
  0
POLYLINE
  5
8A
330
1F
100
AcDbEntity
  8
Layer 01
100
AcDb2dPolyline
 66
     1
 10
0.0
 20
0.0
 30
0.0
  0
VERTEX
  5
8B
330
8A
100
AcDbEntity
  8
Layer 01
100
AcDbVertex
100
AcDb2dVertex
 10
-22.30211795890128
 20
64.33795852298579
 30
0.0
  0
VERTEX
  5
8C
330
8A
100
AcDbEntity
  8
Layer 01
100
AcDbVertex
100
AcDb2dVertex
 10
-22.30211795890128
 20
40.93795852298581
 30
0.0
  0
SEQEND
  5
8D
330
8A
100
AcDbEntity
  8
Layer 01
  0
ARC
  5
8E
330
1F
100
AcDbEntity
  8
Layer 01
100
AcDbCircle
 10
-23.05211795890128
 20
40.93795852298581
 30
0.0
 40
0.75
100
AcDbArc
 50
270.0
 51
0.0
  0
POLYLINE
  5
8F
330
1F
100
AcDbEntity
  8
Layer 01
100
AcDb2dPolyline
 66
     1
 10
0.0
 20
0.0
 30
0.0
  0
VERTEX
  5
90
330
8F
100
AcDbEntity
  8
Layer 01
100
AcDbVertex
100
AcDb2dVertex
 10
-22.30212657539883
 20
14.62500000239919
 30
0.0
  0
VERTEX
  5
91
330
8F
100
AcDbEntity
  8
Layer 01
100
AcDbVertex
100
AcDb2dVertex
 10
-47.20212657539892
 20
14.62500000239919
 30
0.0
  0
VERTEX
  5
92
330
8F
100
AcDbEntity
  8
Layer 01
100
AcDbVertex
100
AcDb2dVertex
 10
-47.20212657539892
 20
15.37500000239919
 30
0.0
  0
VERTEX
  5
93
330
8F
100
AcDbEntity
  8
Layer 01
100
AcDbVertex
100
AcDb2dVertex
 10
-22.30212657539883
 20
15.37500000239919
 30
0.0
  0
VERTEX
  5
94
330
8F
100
AcDbEntity
  8
Layer 01
100
AcDbVertex
100
AcDb2dVertex
 10
-22.30212657539883
 20
14.62500000239919
 30
0.0
  0
SEQEND
  5
95
330
8F
100
AcDbEntity
  8
Layer 01
  0
POLYLINE
  5
96
330
1F
100
AcDbEntity
  8
Layer 01
100
AcDb2dPolyline
 66
     1
 10
0.0
 20
0.0
 30
0.0
  0
VERTEX
  5
97
330
96
100
AcDbEntity
  8
Layer 01
100
AcDbVertex
100
AcDb2dVertex
 10
40.26602345350428
 20
12.62500000235795
 30
0.0
  0
VERTEX
  5
98
330
96
100
AcDbEntity
  8
Layer 01
100
AcDbVertex
100
AcDb2dVertex
 10
34.04602377410261
 20
12.62500000235795
 30
0.0
  0
SEQEND
  5
99
330
96
100
AcDbEntity
  8
Layer 01
  0
SPLINE
  5
9A
330
1F
100
AcDbEntity
  8
Layer 01
100
AcDbSpline
210
0.0
220
0.0
230
1.0
 70
    12
 71
     5
 72
    13
 73
     7
 74
     0
 42
0.0000000001
 43
0.0000000001
 40
-0.9999999998854913
 40
-0.9999999998854913
 40
-0.9999999998854913
 40
-0.9999999998854913
 40
-0.9999999998854913
 40
-0.9999999998854913
 40
-0.4999999999118557
 40
0.0000214316302039
 40
0.0000214316302039
 40
0.0000214316302039
 40
0.0000214316302039
 40
0.0000214316302039
 40
0.0000214316302039
 10
34.04602377410261
 20
12.62500000235795
 30
0.0
 41
1.0
 10
34.04602442014251
 20
12.56009560996313
 30
0.0
 41
1.0
 10
34.06532347164678
 20
12.44654867131678
 30
0.0
 41
1.0
 10
34.12321964431074
 20
12.3655361986593
 30
0.0
 41
1.0
 10
34.21138871173283
 20
12.31002542084664
 30
0.0
 41
1.0
 10
34.32607270083448
 20
12.27687454006866
 30
0.0
 41
1.0
 10
34.39004433793396
 20
12.26588517969745
 30
0.0
 41
1.0
  0
SPLINE
  5
9B
330
1F
100
AcDbEntity
  8
Layer 01
100
AcDbSpline
210
0.0
220
0.0
230
1.0
 70
    12
 71
     2
 72
     6
 73
     3
 74
     0
 42
0.0000000001
 43
0.0000000001
 40
0.0
 40
0.0
 40
0.0
 40
1.843263450064862
 40
1.843263450064862
 40
1.843263450064862
 10
34.39004433793396
 20
12.26588517969745
 30
0.0
 41
1.0
 10
35.29836369803055
 20
12.10980514713988
 30
0.0
 41
0.9999999999936852
 10
36.20668410134848
 20
11.9537310177214
 30
0.0
 41
1.0
  0
SPLINE
  5
9C
330
1F
100
AcDbEntity
  8
Layer 01
100
AcDbSpline
210
0.0
220
0.0
230
1.0
 70
    12
 71
     2
 72
     6
 73
     3
 74
     0
 42
0.0000000001
 43
0.0000000001
 40
0.0
 40
0.0
 40
0.0
 40
0.6997662170032295
 40
0.6997662170032295
 40
0.6997662170032295
 10
36.20668410134848
 20
11.9537310177214
 30
0.0
 41
1.0
 10
36.62155113407672
 20
11.88244667937159
 30
0.0
 41
0.7649870492777086
 10
36.62200771334354
 20
11.46120110138611
 30
0.0
 41
1.0
  0
SPLINE
  5
9D
330
1F
100
AcDbEntity
  8
Layer 01
100
AcDbSpline
210
0.0
220
0.0
230
1.0
 70
    12
 71
     3
 72
    13
 73
     9
 74
     0
 42
0.0000000001
 43
0.0000000001
 40
1.164116092654201
 40
1.164116092654201
 40
1.164116092654201
 40
1.164116092654201
 40
1.192754371812117
 40
1.192754371812117
 40
1.839154429652598
 40
2.485554487552516
 40
2.485554487552516
 40
2.941799361814759
 40
2.941799361814759
 40
2.941799361814759
 40
2.941799361814759
 10
36.62200771334354
 20
11.46120110138611
 30
0.0
 41
1.0
 10
36.62200686809236
 20
11.45135583614481
 30
0.0
 41
1.0
 10
36.62200742696594
 20
11.44180974146306
 30
0.0
 41
1.0
 10
36.6220569715119
 20
11.2167969686364
 30
0.0
 41
1.0
 10
36.62414063196623
 20
10.78587479042528
 30
0.0
 41
1.0
 10
36.63132837345491
 20
10.35502399011492
 30
0.0
 41
1.0
 10
36.63712657364962
 20
9.987521416801457
 30
0.0
 41
1.0
 10
36.63932737891135
 20
9.83544406875302
 30
0.0
 41
1.0
 10
36.64109407897214
 20
9.682909845823701
 30
0.0
 41
1.0
  0
SPLINE
  5
9E
330
1F
100
AcDbEntity
  8
Layer 01
100
AcDbSpline
210
0.0
220
0.0
230
1.0
 70
    12
 71
     2
 72
     6
 73
     3
 74
     0
 42
0.0000000001
 43
0.0000000001
 40
0.0
 40
0.0
 40
0.0
 40
0.0011199978112541
 40
0.0011199978112541
 40
0.0011199978112541
 10
36.64109407897214
 20
9.682909845823701
 30
0.0
 41
1.0
 10
36.64111178707294
 20
9.68189344886065
 30
0.0
 41
0.9999999565253123
 10
36.64111178632796
 20
9.681333409514025
 30
0.0
 41
1.0
  0
SPLINE
  5
9F
330
1F
100
AcDbEntity
  8
Layer 01
100
AcDbSpline
210
0.0
220
0.0
230
1.0
 70
    12
 71
     2
 72
     6
 73
     3
 74
     0
 42
0.0000000001
 43
0.0000000001
 40
0.0
 40
0.0
 40
0.0
 40
1.157563000328597
 40
1.157563000328597
 40
1.157563000328597
 10
36.64111178632796
 20
9.681333409514025
 30
0.0
 41
1.0
 10
36.64668750462713
 20
9.102576156243066
 30
0.0
 41
0.9999932729902123
 10
36.64802353975241
 20
8.523792488378888
 30
0.0
 41
1.0
  0
SPLINE
  5
A0
330
1F
100
AcDbEntity
  8
Layer 01
100
AcDbSpline
210
0.0
220
0.0
230
1.0
 70
    12
 71
     3
 72
    12
 73
     8
 74
     0
 42
0.0000000001
 43
0.0000000001
 40
0.0000022290245399
 40
0.0000022290245399
 40
0.0000022290245399
 40
0.0000022290245399
 40
2.973330383277389
 40
2.973330383277389
 40
5.533332299297856
 40
5.533332299297856
 40
8.0907540207247
 40
8.0907540207247
 40
8.0907540207247
 40
8.0907540207247
 10
36.64802353975241
 20
8.523792488378888
 30
0.0
 41
1.0
 10
36.65176674962819
 20
7.533012356544702
 30
0.0
 41
1.0
 10
36.66190332684706
 20
6.542166505228664
 30
0.0
 41
1.0
 10
36.68684736374333
 20
4.698546802840923
 30
0.0
 41
1.0
 10
36.70070663981229
 20
3.846004306662138
 30
0.0
 41
1.0
 10
36.72805710117139
 20
2.140986238235911
 30
0.0
 41
1.0
 10
36.74146601454148
 20
1.289616091246216
 30
0.0
 41
1.0
 10
36.7527035939349
 20
0.4374291487058031
 30
0.0
 41
1.0
  0
SPLINE
  5
A1
330
1F
100
AcDbEntity
  8
Layer 01
100
AcDbSpline
210
0.0
220
0.0
230
1.0
 70
    12
 71
     2
 72
     6
 73
     3
 74
     0
 42
0.0000000001
 43
0.0000000001
 40
0.0
 40
0.0
 40
0.0
 40
0.0970316672143772
 40
0.0970316672143772
 40
0.0970316672143772
 10
36.7527035939349
 20
0.4374291487058031
 30
0.0
 41
1.0
 10
36.75328219066967
 20
0.3763075181237174
 30
0.0
 41
0.717857630247824
 10
36.81436821801704
 20
0.3750140462356626
 30
0.0
 41
1.0
  0
POLYLINE
  5
A2
330
1F
100
AcDbEntity
  8
Layer 01
100
AcDb2dPolyline
 66
     1
 10
0.0
 20
0.0
 30
0.0
  0
VERTEX
  5
A3
330
A2
100
AcDbEntity
  8
Layer 01
100
AcDbVertex
100
AcDb2dVertex
 10
36.81436821801704
 20
0.3750140462356626
 30
0.0
  0
VERTEX
  5
A4
330
A2
100
AcDbEntity
  8
Layer 01
100
AcDbVertex
100
AcDb2dVertex
 10
37.49634824658946
 20
0.3750000024411975
 30
0.0
  0
SEQEND
  5
A5
330
A2
100
AcDbEntity
  8
Layer 01
  0
SPLINE
  5
A6
330
1F
100
AcDbEntity
  8
Layer 01
100
AcDbSpline
210
0.0
220
0.0
230
1.0
 70
    12
 71
     2
 72
     6
 73
     3
 74
     0
 42
0.0000000001
 43
0.0000000001
 40
0.0
 40
0.0
 40
0.0
 40
0.0983105351425802
 40
0.0983105351425802
 40
0.0983105351425802
 10
37.49634824658946
 20
0.3750000024411975
 30
0.0
 41
1.0
 10
37.55870408301557
 20
0.374998070860026
 30
0.0
 41
0.7107094273922171
 10
37.55934299662666
 20
0.4373708929651912
 30
0.0
 41
1.0
  0
SPLINE
  5
A7
330
1F
100
AcDbEntity
  8
Layer 01
100
AcDbSpline
210
0.0
220
0.0
230
1.0
 70
    12
 71
     3
 72
    12
 73
     8
 74
     0
 42
0.0000000001
 43
0.0000000001
 40
0.0025122088885125
 40
0.0025122088885125
 40
0.0025122088885125
 40
0.0025122088885125
 40
2.559996601448771
 40
2.559996601448771
 40
5.119998517672128
 40
5.119998517672128
 40
8.093326489272172
 40
8.093326489272172
 40
8.093326489272172
 40
8.093326489272172
 10
37.55934299662666
 20
0.4373708929651912
 30
0.0
 41
1.0
 10
37.57058087647837
 20
1.289574364790269
 30
0.0
 41
1.0
 10
37.58399011208447
 20
2.140965357733307
 30
0.0
 41
1.0
 10
37.61134090839536
 20
3.8460043069324
 30
0.0
 41
1.0
 10
37.62520018446522
 20
4.6985468031788
 30
0.0
 41
1.0
 10
37.65014422053749
 20
6.542166444777081
 30
0.0
 41
1.0
 10
37.66028079733299
 20
7.53301223521413
 30
0.0
 41
1.0
 10
37.66402400810679
 20
8.523792397285746
 30
0.0
 41
1.0
  0
SPLINE
  5
A8
330
1F
100
AcDbEntity
  8
Layer 01
100
AcDbSpline
210
0.0
220
0.0
230
1.0
 70
    12
 71
     2
 72
     6
 73
     3
 74
     0
 42
0.0000000001
 43
0.0000000001
 40
0.0
 40
0.0
 40
0.0
 40
1.157566753814006
 40
1.157566753814006
 40
1.157566753814006
 10
37.66402400810679
 20
8.523792397285746
 30
0.0
 41
1.0
 10
37.66537187156237
 20
9.102577944119421
 30
0.0
 41
0.9999934222404667
 10
37.67092393460025
 20
9.681337225291125
 30
0.0
 41
0.9999999999999121
  0
SPLINE
  5
A9
330
1F
100
AcDbEntity
  8
Layer 01
100
AcDbSpline
210
0.0
220
0.0
230
1.0
 70
    12
 71
     2
 72
     6
 73
     3
 74
     0
 42
0.0000000001
 43
0.0000000001
 40
0.0
 40
0.0
 40
0.0
 40
0.0011163185374098
 40
0.0011163185374098
 40
0.0011163185374098
 10
37.67092393460015
 20
9.681337225291117
 30
0.0
 41
1.0
 10
37.67093578027036
 20
9.681895288399144
 30
0.0
 41
0.9999999568108967
 10
37.67094142834386
 20
9.682909979841583
 30
0.0
 41
1.0
  0
SPLINE
  5
AA
330
1F
100
AcDbEntity
  8
Layer 01
100
AcDbSpline
210
0.0
220
0.0
230
1.0
 70
    12
 71
     3
 72
    13
 73
     9
 74
     0
 42
0.0000000001
 43
0.0000000001
 40
1.159780968969077
 40
1.159780968969077
 40
1.159780968969077
 40
1.159780968969077
 40
1.219999999483621
 40
1.219999999483621
 40
1.859999999216523
 40
1.859999999216523
 40
2.49999999917158
 40
2.937447200127758
 40
2.937447200127758
 40
2.937447200127758
 40
2.937447200127758
 10
37.67094142834386
 20
9.682909979841583
 30
0.0
 41
1.0
 10
37.67116949369514
 20
9.703438966347733
 30
0.0
 41
1.0
 10
37.6714059708897
 20
9.723511031694557
 30
0.0
 41
1.0
 10
37.67425317966123
 20
9.95689999374116
 30
0.0
 41
1.0
 10
37.6778681992242
 20
10.17023320478074
 30
0.0
 41
1.0
 10
37.6845004727846
 20
10.59684831315658
 30
0.0
 41
1.0
 10
37.68918520633243
 20
10.95596334870555
 30
0.0
 41
1.0
 10
37.6900353857155
 20
11.31509077060545
 30
0.0
 41
1.0
 10
37.69003475026951
 20
11.46118232485981
 30
0.0
 41
1.0
  0
SPLINE
  5
AB
330
1F
100
AcDbEntity
  8
Layer 01
100
AcDbSpline
210
0.0
220
0.0
230
1.0
 70
    12
 71
     2
 72
     6
 73
     3
 74
     0
 42
0.0000000001
 43
0.0000000001
 40
0.0
 40
0.0
 40
0.0
 40
0.6998000892342029
 40
0.6998000892342029
 40
0.6998000892342029
 10
37.69003475026951
 20
11.46118232485981
 30
0.0
 41
1.0
 10
37.69047385056604
 20
11.88243362283056
 30
0.0
 41
0.764976675619346
 10
38.10536344185081
 20
11.9537310466041
 30
0.0
 41
1.0
  0
SPLINE
  5
AC
330
1F
100
AcDbEntity
  8
Layer 01
100
AcDbSpline
210
0.0
220
0.0
230
1.0
 70
    12
 71
     2
 72
     6
 73
     3
 74
     0
 42
0.0000000001
 43
0.0000000001
 40
0.0
 40
0.0
 40
0.0
 40
1.843263134159366
 40
1.843263134159366
 40
1.843263134159366
 10
38.10536344185081
 20
11.9537310466041
 30
0.0
 41
1.0
 10
39.01368369443689
 20
12.10980512042263
 30
0.0
 41
0.999999999993685
 10
39.92200289426668
 20
12.26588515296334
 30
0.0
 41
1.0
  0
SPLINE
  5
AD
330
1F
100
AcDbEntity
  8
Layer 01
100
AcDbSpline
210
0.0
220
0.0
230
1.0
 70
    12
 71
     5
 72
    13
 73
     7
 74
     0
 42
0.0000000001
 43
0.0000000001
 40
-0.0000214316302125
 40
-0.0000214316302125
 40
-0.0000214316302125
 40
-0.0000214316302125
 40
-0.0000214316302125
 40
-0.0000214316302125
 40
0.4999999999109885
 40
0.9999999998854894
 40
0.9999999998854894
 40
0.9999999998854894
 40
0.9999999998854894
 40
0.9999999998854894
 40
0.9999999998854894
 10
39.92200289426668
 20
12.26588515296334
 30
0.0
 41
1.0
 10
39.98597452677333
 20
12.27687454006889
 30
0.0
 41
1.0
 10
40.10065851587463
 20
12.31002542084693
 30
0.0
 41
1.0
 10
40.18882758329649
 20
12.36553619865956
 30
0.0
 41
1.0
 10
40.24672375596023
 20
12.44654867131698
 30
0.0
 41
1.0
 10
40.2660228074645
 20
12.56009560996313
 30
0.0
 41
1.0
 10
40.26602345350428
 20
12.62500000235795
 30
0.0
 41
1.0
  0
POLYLINE
  5
AE
330
1F
100
AcDbEntity
  8
Layer 01
100
AcDb2dPolyline
 66
     1
 10
0.0
 20
0.0
 30
0.0
  0
VERTEX
  5
AF
330
AE
100
AcDbEntity
  8
Layer 01
100
AcDbVertex
100
AcDb2dVertex
 10
36.91393501262618
 20
-0.0000000002171134
 30
0.0
  0
VERTEX
  5
B0
330
AE
100
AcDbEntity
  8
Layer 01
100
AcDbVertex
100
AcDb2dVertex
 10
37.39811254003356
 20
0.0000000002171703
 30
0.0
  0
SEQEND
  5
B1
330
AE
100
AcDbEntity
  8
Layer 01
  0
SPLINE
  5
B2
330
1F
100
AcDbEntity
  8
Layer 01
100
AcDbSpline
210
0.0
220
0.0
230
1.0
 70
    12
 71
     2
 72
     6
 73
     3
 74
     0
 42
0.0000000001
 43
0.0000000001
 40
0.0
 40
0.0
 40
0.0
 40
0.241924443334512
 40
0.241924443334512
 40
0.241924443334512
 10
37.39811254003356
 20
0.0000000002171703
 30
0.0
 41
1.0
 10
37.55102355420091
 20
0.0000000303540784
 30
0.0
 41
0.7141418074729331
 10
37.55399487837129
 20
0.1529065059711456
 30
0.0
 41
1.0
  0
LINE
  5
B3
330
1F
100
AcDbEntity
  8
Layer 01
100
AcDbLine
 10
37.55399487837129
 20
0.1529065059711456
 30
0.0
 11
37.55869347546203
 21
0.3750000023996165
 31
0.0
  0
LINE
  5
B4
330
1F
100
AcDbEntity
  8
Layer 01
100
AcDbLine
 10
37.55869347546203
 20
0.3750000023996165
 30
0.0
 11
36.75388435948692
 21
0.3750000023996165
 31
0.0
  0
LINE
  5
B5
330
1F
100
AcDbEntity
  8
Layer 01
100
AcDbLine
 10
36.75388435948692
 20
0.3750000023996165
 30
0.0
 11
36.75831781802955
 21
0.1529065037773307
 31
0.0
  0
SPLINE
  5
B6
330
1F
100
AcDbEntity
  8
Layer 01
100
AcDbSpline
210
0.0
220
0.0
230
1.0
 70
    12
 71
     2
 72
     6
 73
     3
 74
     0
 42
0.0000000001
 43
0.0000000001
 40
0.0
 40
0.0
 40
0.0
 40
0.2419244355107725
 40
0.2419244355107725
 40
0.2419244355107725
 10
36.75831781802955
 20
0.1529065037773307
 30
0.0
 41
1.0
 10
36.76102400462859
 20
0.0000000321588069
 30
0.0
 41
0.7141418153608741
 10
36.91393501262618
 20
-0.0000000002171134
 30
0.0
 41
1.0
  0
LINE
  5
B7
330
1F
100
AcDbEntity
  8
Layer 01
100
AcDbLine
 10
47.01547193121542
 20
14.37545611202286
 30
0.0
 11
45.98250645961556
 21
14.37545611202286
 31
0.0
  0
POLYLINE
  5
B8
330
1F
100
AcDbEntity
  8
Layer 01
100
AcDb2dPolyline
 66
     1
 10
0.0
 20
0.0
 30
0.0
  0
VERTEX
  5
B9
330
B8
100
AcDbEntity
  8
Layer 01
100
AcDbVertex
100
AcDb2dVertex
 10
45.98250645961556
 20
14.37545611202286
 30
0.0
  0
VERTEX
  5
BA
330
B8
100
AcDbEntity
  8
Layer 01
100
AcDbVertex
100
AcDb2dVertex
 10
41.18710780608048
 20
14.37545611202286
 30
0.0
  0
SEQEND
  5
BB
330
B8
100
AcDbEntity
  8
Layer 01
  0
SPLINE
  5
BC
330
1F
100
AcDbEntity
  8
Layer 01
100
AcDbSpline
210
0.0
220
0.0
230
1.0
 70
    12
 71
     2
 72
     6
 73
     3
 74
     0
 42
0.0000000001
 43
0.0000000001
 40
0.0
 40
0.0
 40
0.0
 40
0.3786001376135906
 40
0.3786001376135906
 40
0.3786001376135906
 10
41.18710780608048
 20
14.37545611202286
 30
0.0
 41
1.0
 10
40.95125057519726
 20
14.38973549156165
 30
0.0
 41
0.7267410359880693
 10
40.95222364540667
 20
14.62602989259342
 30
0.0
 41
1.0
  0
SPLINE
  5
BD
330
1F
100
AcDbEntity
  8
Layer 01
100
AcDbSpline
210
0.0
220
0.0
230
1.0
 70
    12
 71
     2
 72
     6
 73
     3
 74
     0
 42
0.0000000001
 43
0.0000000001
 40
-0.0017423404607927
 40
-0.0017423404607927
 40
-0.0017423404607927
 40
0.0
 40
0.0
 40
0.0
 10
40.95222364540667
 20
14.62602989259342
 30
0.0
 41
1.0
 10
40.95135053111673
 20
14.62609694569442
 30
0.0
 41
0.9994397703759269
 10
40.95047900659866
 20
14.62606046766765
 30
0.0
 41
0.9999999586676036
  0
LINE
  5
BE
330
1F
100
AcDbEntity
  8
Layer 01
100
AcDbLine
 10
40.95047900659866
 20
14.62606046766766
 30
0.0
 11
40.9504790087957
 21
17.31204279852403
 31
0.0
  0
SPLINE
  5
BF
330
1F
100
AcDbEntity
  8
Layer 01
100
AcDbSpline
210
0.0
220
0.0
230
1.0
 70
     8
 71
     3
 72
    14
 73
    10
 74
     0
 42
0.0000000001
 43
0.0000000001
 40
-12.26203533468478
 40
-12.26203533468478
 40
-12.26203533468478
 40
-12.26203533468478
 40
-10.74358193232705
 40
-8.947613819412345
 40
-7.141201977474322
 40
-5.367291970666196
 40
-2.433620593354017
 40
-1.183560743342271
 40
0.0
 40
0.0
 40
0.0
 40
0.0
 10
40.9504790087957
 20
17.31204279852403
 30
0.0
 10
40.95957166471322
 20
17.81810309965221
 30
0.0
 10
41.00953411686231
 20
18.9221699083138
 30
0.0
 10
41.16342385338044
 20
20.62237700370648
 30
0.0
 10
41.3827771101416
 20
22.40137396940449
 30
0.0
 10
41.7296524002651
 20
24.54498231654529
 30
0.0
 10
42.166837013222
 20
26.48463194259186
 30
0.0
 10
42.71612752504804
 20
28.18873419825306
 30
0.0
 10
43.02174537527102
 20
28.94065262540015
 30
0.0
 10
43.18562285580143
 20
29.29960367806984
 30
0.0
  0
LINE
  5
C0
330
1F
100
AcDbEntity
  8
Layer 01
100
AcDbLine
 10
43.18562285580143
 20
29.29960367806984
 30
0.0
 11
43.1964720277776
 21
29.32336729518688
 31
0.0
  0
ARC
  5
C1
330
1F
100
AcDbEntity
  8
Layer 01
100
AcDbCircle
 10
43.65131195022276
 20
29.11571218460666
 30
0.0
 40
0.5
100
AcDbArc
 50
99.0008225968419
 51
155.4611458955514
  0
SPLINE
  5
C2
330
1F
100
AcDbEntity
  8
Layer 01
100
AcDbSpline
210
0.0
220
0.0
230
1.0
 70
    12
 71
     2
 72
     6
 73
     3
 74
     0
 42
0.0000000001
 43
0.0000000001
 40
-1.629194543905347
 40
-1.629194543905347
 40
-1.629194543905347
 40
0.0
 40
0.0
 40
0.0
 10
43.57308762757844
 20
29.60955523188671
 30
0.0
 41
0.9999618433163424
 10
44.37955145006357
 20
29.73729842195183
 30
0.0
 41
0.9964642919834154
 10
45.19602318491617
 20
29.72857341280992
 30
0.0
 41
0.999999996566831
  0
SPLINE
  5
C3
330
1F
100
AcDbEntity
  8
Layer 01
100
AcDbSpline
210
0.0
220
0.0
230
1.0
 70
    12
 71
     2
 72
     6
 73
     3
 74
     0
 42
0.0000000001
 43
0.0000000001
 40
0.0
 40
0.0
 40
0.0
 40
1.638033214271802
 40
1.638033214271802
 40
1.638033214271802
 10
45.19602318491617
 20
29.72857341280992
 30
0.0
 41
0.999999996566831
 10
46.01694022680849
 20
29.7373459255492
 30
0.0
 41
0.9964451101567618
 10
46.82767795919805
 20
29.60817005210218
 30
0.0
 41
1.0
  0
SPLINE
  5
C4
330
1F
100
AcDbEntity
  8
Layer 01
100
AcDbSpline
210
0.0
220
0.0
230
1.0
 70
    12
 71
     2
 72
     6
 73
     3
 74
     0
 42
0.0000000001
 43
0.0000000001
 40
0.0
 40
0.0
 40
0.0
 40
0.7070700636718217
 40
0.7070700636718217
 40
0.7070700636718217
 10
46.82767795919805
 20
29.60817005210218
 30
0.0
 41
1.0
 10
47.24967418906929
 20
29.54153760536829
 30
0.0
 41
0.760266553890503
 10
47.2496934582824
 20
29.11431336992169
 30
0.0
 41
1.0
  0
SPLINE
  5
C5
330
1F
100
AcDbEntity
  8
Layer 01
100
AcDbSpline
210
0.0
220
0.0
230
1.0
 70
    24
 71
     2
 72
     6
 73
     3
 74
     0
 42
0.0000000001
 43
0.0000000001
 40
-14.4893020002786
 40
-14.4893020002786
 40
-14.4893020002786
 40
0.0
 40
0.0
 40
0.0
 10
47.2496934582824
 20
29.11431336992169
 30
0.0
 10
47.25003232354608
 20
21.86966207059056
 30
0.0
 10
47.25037118880976
 20
14.62501077125943
 30
0.0
  0
SPLINE
  5
C6
330
1F
100
AcDbEntity
  8
Layer 01
100
AcDbSpline
210
0.0
220
0.0
230
1.0
 70
    12
 71
     2
 72
     6
 73
     3
 74
     0
 42
0.0000000001
 43
0.0000000001
 40
0.0
 40
0.0
 40
0.0
 40
0.3761352932874497
 40
0.3761352932874497
 40
0.3761352932874497
 10
47.25037118880976
 20
14.62501077125943
 30
0.0
 41
1.0
 10
47.25038370967605
 20
14.3896684803007
 30
0.0
 41
0.7194662149251728
 10
47.01547193121543
 20
14.37545611202286
 30
0.0
 41
0.9763257704015883
  0
SPLINE
  5
C7
330
1F
100
AcDbEntity
  8
Layer 01
100
AcDbSpline
210
0.0
220
0.0
230
1.0
 70
    15
 71
     2
 72
    20
 73
    17
 74
     0
 42
0.0000000001
 43
0.0000000001
 40
-6482.241760176043
 40
-6482.241760176043
 40
-6482.241760176043
 40
-6480.991760176043
 40
-6480.991760176043
 40
-6480.599061094345
 40
-6480.599061094345
 40
-6417.599061094345
 40
-6417.599061094345
 40
-6417.206362012646
 40
-6417.206362012646
 40
-6415.956362012646
 40
-6415.956362012646
 40
-6415.563662930947
 40
-6415.563662930947
 40
-6352.563662930947
 40
-6352.563662930947
 40
-6352.170963849248
 40
-6352.170963849248
 40
-6352.170963849248
 10
-47.25000000000003
 20
12.87500000239919
 30
0.0
 41
1.0
 10
-47.24999999999986
 20
13.50000000239919
 30
0.0
 41
1.0
 10
-47.24999999999969
 20
14.12500000239919
 30
0.0
 41
1.0
 10
-47.24999999999969
 20
14.37500000239919
 30
0.0
 41
0.7071067811865476
 10
-46.99999999999969
 20
14.37500000239919
 30
0.0
 41
1.0
 10
-15.49999999999974
 20
14.37500000239919
 30
0.0
 41
1.0
 10
47.00002377410143
 20
14.37500000239919
 30
0.0
 41
1.0
 10
47.25002377410142
 20
14.37500000239918
 30
0.0
 41
0.7071067811865426
 10
47.25002377410143
 20
14.12500000239919
 30
0.0
 41
1.0
 10
47.25002377410154
 20
13.50000000239919
 30
0.0
 41
1.0
 10
47.25002377410166
 20
12.87500000239919
 30
0.0
 41
1.0
 10
47.25002377410168
 20
12.62500000239892
 30
0.0
 41
0.7071067811861858
 10
47.00002377410144
 20
12.62500000239913
 30
0.0
 41
1.0
 10
-15.49999999999991
 20
12.62500000239916
 30
0.0
 41
1.0
 10
-47.00000000000003
 20
12.62500000239919
 30
0.0
 41
1.0
 10
-47.25000000000003
 20
12.62500000239919
 30
0.0
 41
0.707106781186545
 10
-47.25000000000003
 20
12.87500000239919
 30
0.0
 41
1.0
  0
SPLINE
  5
C8
330
1F
100
AcDbEntity
  8
Layer 01
100
AcDbSpline
210
0.0
220
0.0
230
1.0
 70
    12
 71
     2
 72
    30
 73
    27
 74
     0
 42
0.0000000001
 43
0.0000000001
 40
-3.109438420000032
 40
-3.109438420000032
 40
-3.109438420000032
 40
2.189757698527387
 40
2.189757698527387
 40
2.975155860225331
 40
2.975155860225331
 40
20.67737962423837
 40
20.67737962423837
 40
21.46277778763555
 40
21.46277778763555
 40
83.66358166906649
 40
83.66358166906649
 40
84.44897983297616
 40
84.44897983297616
 40
89.7460741863537
 40
89.7460741863537
 40
90.53147234259009
 40
90.53147234259009
 40
159.0314723425979
 40
159.0314723425979
 40
159.4241714380999
 40
159.4241714380999
 40
159.8168705336019
 40
159.8168705336019
 40
183.8161896302306
 40
183.8161896302306
 40
184.5980979430872
 40
184.5980979430872
 40
184.5980979430872
 10
49.75002377410129
 20
40.13795852326487
 30
0.0
 41
1.0
 10
47.10042571483758
 20
40.13795853226981
 30
0.0
 41
1.0
 10
44.45082765557387
 20
40.13795854127474
 30
0.0
 41
1.0
 10
43.95082765727337
 20
40.13795854297403
 30
0.0
 41
0.7071067823882787
 10
43.95082765727317
 20
40.63795854127454
 30
0.0
 41
1.0
 10
43.95082765727317
 20
49.48907042328105
 30
0.0
 41
1.0
 10
43.95082765727316
 20
58.34018230528756
 30
0.0
 41
1.0
 10
43.95082765727291
 20
58.84018230528733
 30
0.0
 41
0.7071067811867284
 10
43.45082765727316
 20
58.84018230528733
 30
0.0
 41
1.0
 10
37.88267672079725
 20
58.84018230528733
 30
0.0
 41
1.0
 10
-21.80211795716037
 20
58.84018230528733
 30
0.0
 41
1.0
 10
-22.30211795767261
 20
58.84018230528729
 30
0.0
 41
0.707106780824336
 10
-22.30211795716037
 20
59.34018230579957
 30
0.0
 41
1.0
 10
-22.30211795444928
 20
61.98872948248831
 30
0.0
 41
1.0
 10
-22.30211795173819
 20
64.63727665917708
 30
0.0
 41
1.0
 10
-22.30211795173831
 20
65.13727665201604
 30
0.0
 41
0.7071067862501635
 10
-21.80211795889935
 20
65.13727665917719
 30
0.0
 41
1.0
 10
41.03228443362567
 20
65.1372771497164
 30
0.0
 41
1.0
 10
49.75004308466898
 20
65.1372776402556
 30
0.0
 41
1.0
 10
49.95714987394131
 20
65.13727764322188
 30
0.0
 41
0.9238795272289946
 10
50.10359648712011
 20
64.9908310261522
 30
0.0
 41
1.0
 10
50.25004310029892
 20
64.84438440908254
 30
0.0
 41
0.9238795272289946
 10
50.25004309183016
 20
64.63727761981022
 30
0.0
 41
1.0
 10
50.25004260116165
 20
52.63761807149587
 30
0.0
 41
1.0
 10
50.25004211049313
 20
40.63795852318152
 30
0.0
 41
1.0
 10
50.25004900909835
 20
40.14143236599887
 30
0.0
 41
0.7095625215404059
 10
49.75353491921775
 20
40.13797066638946
 30
0.0
 41
1.0
  0
SPLINE
  5
C9
330
1F
100
AcDbEntity
  8
Layer 01
100
AcDbSpline
210
0.0
220
0.0
230
1.0
 70
     8
 71
     3
 72
    18
 73
    14
 74
     0
 42
0.0000000001
 43
0.0000000001
 40
-64.98114690944844
 40
-64.98114690944844
 40
-64.98114690944844
 40
-64.98114690944844
 40
0.0000000000000009
 40
0.0000000000000009
 40
0.0000000000000009
 40
0.1164268758845156
 40
0.2328537517690304
 40
0.4657075035380599
 40
0.5821343794225746
 40
0.6985612553070895
 40
0.6985612553070895
 40
0.6985612553070895
 40
21.1790944341214
 40
21.1790944341214
 40
21.1790944341214
 40
21.1790944341214
 10
-22.3021179553864
 20
61.07320902585263
 30
0.0
 10
-3.880987689232745
 20
61.07320883994302
 30
0.0
 10
37.52326471948225
 20
61.07320865403338
 30
0.0
 10
45.73117068706465
 20
61.07320846812377
 30
0.0
 10
45.76676351262267
 20
61.06715281675548
 30
0.0
 10
45.83846682848407
 20
61.0465447271776
 30
0.0
 10
45.97493153932218
 20
60.97476334876785
 30
0.0
 10
46.08746449903401
 20
60.86226709364439
 30
0.0
 10
46.15928850807459
 20
60.72579928949153
 30
0.0
 10
46.17991300874035
 20
60.65408821177977
 30
0.0
 10
46.18597391970192
 20
60.61849171419198
 30
0.0
 10
46.18597410870992
 20
53.79164732125388
 30
0.0
 10
46.18597429771791
 20
46.96480292831576
 30
0.0
 10
46.18597448672592
 20
40.13795853537766
 30
0.0
  0
SPLINE
  5
CA
330
1F
100
AcDbEntity
  8
Layer 01
100
AcDbSpline
210
0.0
220
0.0
230
1.0
 70
    15
 71
     2
 72
    20
 73
    17
 74
     0
 42
0.0000000001
 43
0.0000000001
 40
201.8561944901975
 40
201.8561944901975
 40
201.8561944901975
 40
264.3561944901974
 40
264.3561944901974
 40
265.1415926535949
 40
265.1415926535949
 40
289.1415926535967
 40
289.1415926535967
 40
289.9269908169941
 40
289.9269908169941
 40
352.4269908169941
 40
352.4269908169941
 40
353.2123889803915
 40
353.2123889803915
 40
377.2123889803932
 40
377.2123889803932
 40
377.9977871437907
 40
377.9977871437907
 40
377.9977871437907
 10
-21.80211795890128
 20
58.84018230528733
 30
0.0
 41
1.0
 10
-3.575987477521821
 20
58.84018230528733
 30
0.0
 41
1.0
 10
43.45082765727336
 20
58.84018230528733
 30
0.0
 41
1.0
 10
43.95082765727339
 20
58.84018230528732
 30
0.0
 41
0.7071067811865375
 10
43.95082765727336
 20
58.3401823052873
 30
0.0
 41
1.0
 10
43.95082765727336
 20
50.21525599047285
 30
0.0
 41
1.0
 10
43.95082765727336
 20
40.63795852298492
 30
0.0
 41
1.0
 10
43.95082765727334
 20
40.1379585229849
 30
0.0
 41
0.7071067811865551
 10
43.45082765727336
 20
40.13795852298493
 30
0.0
 41
1.0
 10
-5.085959311105881
 20
40.13795852298493
 30
0.0
 41
1.0
 10
-21.80211795890128
 20
40.13795852298493
 30
0.0
 41
1.0
 10
-22.30211795890128
 20
40.13795852298492
 30
0.0
 41
0.7071067811865476
 10
-22.30211795890128
 20
40.63795852298493
 30
0.0
 41
1.0
 10
-22.30211795890128
 20
50.21525599047288
 30
0.0
 41
1.0
 10
-22.30211795890128
 20
58.34018230528733
 30
0.0
 41
1.0
 10
-22.30211795890127
 20
58.84018230528729
 30
0.0
 41
0.707106781186545
 10
-21.80211795890128
 20
58.84018230528733
 30
0.0
 41
1.0
  0
SPLINE
  5
CB
330
1F
100
AcDbEntity
  8
Layer 01
100
AcDbSpline
210
0.0
220
0.0
230
1.0
 70
    12
 71
     2
 72
    10
 73
     7
 74
     0
 42
0.0000000001
 43
0.0000000001
 40
0.0
 40
0.0
 40
0.0
 40
22.32166540663653
 40
22.32166540663653
 40
23.10706357003397
 40
23.10706357003397
 40
34.69833270537369
 40
34.69833270537369
 40
34.69833270537369
 10
45.09226181291302
 20
29.7291278062055
 30
0.0
 41
1.0
 10
8.93141510429787
 20
29.7291278062055
 30
0.0
 41
1.0
 10
-21.80211044250654
 20
29.7291278062055
 30
0.0
 41
1.0
 10
-22.30211044250654
 20
29.72912780620539
 30
0.0
 41
0.70710678118655
 10
-22.30211044250643
 20
29.22912780620538
 30
0.0
 41
1.0
 10
-22.30211044250643
 20
23.43349323853553
 30
0.0
 41
1.0
 10
-22.30211044250643
 20
17.63785867086568
 30
0.0
 41
1.0
  0
SPLINE
  5
CC
330
1F
100
AcDbEntity
  8
Layer 01
100
AcDbSpline
210
0.0
220
0.0
230
1.0
 70
    15
 71
     2
 72
    22
 73
    19
 74
     0
 42
0.0000000001
 43
0.0000000001
 40
-2581.011064848845
 40
-2581.011064848845
 40
-2581.011064848845
 40
-2578.139015056563
 40
-2578.139015056563
 40
-2577.353616893166
 40
-2577.353616893166
 40
-2553.353616935937
 40
-2553.353616935937
 40
-2552.568218772539
 40
-2552.568218772539
 40
-2549.696168980258
 40
-2549.696168980258
 40
-2549.303469898559
 40
-2549.303469898559
 40
-2526.10221994133
 40
-2526.10221994133
 40
-2524.803469941329
 40
-2524.803469941329
 40
-2524.41077085963
 40
-2524.41077085963
 40
-2524.41077085963
 10
40.95058442687347
 20
14.62503914815707
 30
0.0
 41
1.0
 10
40.95058442687341
 20
16.06106404429788
 30
0.0
 41
1.0
 10
40.95058442687336
 20
17.49708894043869
 30
0.0
 41
1.0
 10
40.95058442687338
 20
17.99708894043869
 30
0.0
 41
0.7071067811865426
 10
40.45058442687336
 20
17.99708894043869
 30
0.0
 41
1.0
 10
9.750357204898478
 20
17.99708894043869
 30
0.0
 41
1.0
 10
-21.80211044250638
 20
17.99708894043869
 30
0.0
 41
1.0
 10
-22.30211044250635
 20
17.99708894043867
 30
0.0
 41
0.7071067811865627
 10
-22.30211044250638
 20
17.49708894043869
 30
0.0
 41
1.0
 10
-22.30211044250648
 20
16.06106404429788
 30
0.0
 41
1.0
 10
-22.30211044250658
 20
14.62503914815709
 30
0.0
 41
1.0
 10
-22.30211044250658
 20
14.37503914815708
 30
0.0
 41
0.7071067811865426
 10
-22.05211044250658
 20
14.37503914815707
 30
0.0
 41
1.0
 10
9.10098220489796
 20
14.37503914815707
 30
0.0
 41
1.0
 10
39.40183442687252
 20
14.37503914815707
 30
0.0
 41
1.0
 10
40.05120942687295
 20
14.37503914815707
 30
0.0
 41
1.0
 10
40.70058442687338
 20
14.37503914815707
 30
0.0
 41
1.0
 10
40.95058442687347
 20
14.37503914815701
 30
0.0
 41
0.707106781186427
 10
40.95058442687347
 20
14.62503914815707
 30
0.0
 41
1.0
  0
POLYLINE
  5
CD
330
1F
100
AcDbEntity
  8
Layer 01
100
AcDb2dPolyline
 66
     1
 10
0.0
 20
0.0
 30
0.0
  0
VERTEX
  5
CE
330
CD
100
AcDbEntity
  8
Layer 01
100
AcDbVertex
100
AcDb2dVertex
 10
71.10886511538115
 20
29.72912780620545
 30
0.0
  0
VERTEX
  5
CF
330
CD
100
AcDbEntity
  8
Layer 01
100
AcDbVertex
100
AcDb2dVertex
 10
93.43053052201768
 20
29.72912780620545
 30
0.0
  0
SEQEND
  5
D0
330
CD
100
AcDbEntity
  8
Layer 01
  0
ARC
  5
D1
330
1F
100
AcDbEntity
  8
Layer 01
100
AcDbCircle
 10
93.43053052201756
 20
29.22912780620545
 30
0.0
 40
0.5
100
AcDbArc
 50
359.9999999999874
 51
89.99999999998697
  0
POLYLINE
  5
D2
330
1F
100
AcDbEntity
  8
Layer 01
100
AcDb2dPolyline
 66
     1
 10
0.0
 20
0.0
 30
0.0
  0
VERTEX
  5
D3
330
D2
100
AcDbEntity
  8
Layer 01
100
AcDbVertex
100
AcDb2dVertex
 10
93.93053052201756
 20
29.22912780620536
 30
0.0
  0
VERTEX
  5
D4
330
D2
100
AcDbEntity
  8
Layer 01
100
AcDbVertex
100
AcDb2dVertex
 10
93.93053052201756
 20
17.63785867086564
 30
0.0
  0
SEQEND
  5
D5
330
D2
100
AcDbEntity
  8
Layer 01
  0
ARC
  5
D6
330
1F
100
AcDbEntity
  8
Layer 01
100
AcDbCircle
 10
10331.37795317167
 20
-414.3754196209939
 30
0.0
 40
10246.45187490584
100
AcDbArc
 50
177.680177975196
 51
177.6814389168823
  0
LINE
  5
D7
330
1F
100
AcDbEntity
  8
Layer 01
100
AcDbLine
 10
93.32354416834809
 20
0.3750391479403845
 30
0.0
 11
92.1985388941732
 21
0.3750391479403845
 31
0.0
  0
LINE
  5
D8
330
1F
100
AcDbEntity
  8
Layer 01
100
AcDbLine
 10
92.1985388941732
 20
0.3750391479403845
 30
0.0
 11
92.2098948162106
 21
0.1496421885582038
 31
0.0
  0
SPLINE
  5
D9
330
1F
100
AcDbEntity
  8
Layer 01
100
AcDbSpline
210
0.0
220
0.0
230
1.0
 70
    12
 71
     2
 72
     6
 73
     3
 74
     0
 42
0.0000000001
 43
0.0000000001
 40
-0.2387149143318927
 40
-0.2387149143318927
 40
-0.2387149143318927
 40
0.0
 40
0.0
 40
0.0
 10
92.2098948162106
 20
0.1496421885582038
 30
0.0
 41
1.0
 10
92.2159867584443
 20
-0.0000384788826997
 30
0.0
 41
0.7212476062221478
 10
92.36626681833965
 20
0.0000003945672802
 30
0.0
 41
1.0
  0
SPLINE
  5
DA
330
1F
100
AcDbEntity
  8
Layer 01
100
AcDbSpline
210
0.0
220
0.0
230
1.0
 70
    12
 71
     2
 72
     6
 73
     3
 74
     0
 42
0.0000000001
 43
0.0000000001
 40
0.0
 40
0.0
 40
0.0
 40
0.3954244124017839
 40
0.3954244124017839
 40
0.3954244124017839
 10
92.36626681833965
 20
0.0000003945672802
 30
0.0
 41
1.0
 10
92.56445478799014
 20
0.0000274211329213
 30
0.0
 41
0.999999999289049
 10
92.76216699393714
 20
0.0000391457582793
 30
0.0
 41
1.0
  0
SPLINE
  5
DB
330
1F
100
AcDbEntity
  8
Layer 01
100
AcDbSpline
210
0.0
220
0.0
230
1.0
 70
    24
 71
     2
 72
     6
 73
     3
 74
     0
 42
0.0000000001
 43
0.0000000001
 40
0.0
 40
0.0
 40
0.0
 40
0.3954243890795226
 40
0.3954243890795226
 40
0.3954243890795226
 10
92.76216699393714
 20
0.0000391457582793
 30
0.0
 10
92.96011707748104
 20
0.0000391464777749
 30
0.0
 10
93.15806716102495
 20
0.0000391471972705
 30
0.0
  0
SPLINE
  5
DC
330
1F
100
AcDbEntity
  8
Layer 01
100
AcDbSpline
210
0.0
220
0.0
230
1.0
 70
    12
 71
     2
 72
     6
 73
     3
 74
     0
 42
0.0000000001
 43
0.0000000001
 40
-0.2387271341672585
 40
-0.2387271341672585
 40
-0.2387271341672585
 40
0.0
 40
0.0
 40
0.0
 10
93.15806716102495
 20
0.0000391471972705
 30
0.0
 41
1.0
 10
93.30835038829781
 20
0.0000391477218172
 30
0.0
 41
0.7212776802320741
 10
93.31441899206445
 20
0.1497242040884146
 30
0.0
 41
1.0
  0
SPLINE
  5
DD
330
1F
100
AcDbEntity
  8
Layer 01
100
AcDbSpline
210
0.0
220
0.0
230
1.0
 70
    12
 71
     2
 72
     6
 73
     3
 74
     0
 42
0.0000000001
 43
0.0000000001
 40
-0.7825548902353026
 40
-0.7825548902353026
 40
-0.7825548902353026
 40
0.0
 40
0.0
 40
0.0
 10
91.24910436649392
 20
10.30071586202212
 30
0.0
 41
1.0
 10
91.74701246081113
 20
10.30219105879809
 30
0.0
 41
0.7091100515193309
 10
91.74836032272489
 20
10.79994551539292
 30
0.0
 41
1.0
  0
LINE
  5
DE
330
1F
100
AcDbEntity
  8
Layer 01
100
AcDbLine
 10
91.74836032272489
 20
10.79994551539292
 30
0.0
 11
91.74838638836545
 21
12.62503914793996
 31
0.0
  0
POLYLINE
  5
DF
330
1F
100
AcDbEntity
  8
Layer 01
100
AcDb2dPolyline
 66
     1
 10
0.0
 20
0.0
 30
0.0
  0
VERTEX
  5
E0
330
DF
100
AcDbEntity
  8
Layer 01
100
AcDbVertex
100
AcDb2dVertex
 10
91.74838638836545
 20
12.62503914793996
 30
0.0
  0
VERTEX
  5
E1
330
DF
100
AcDbEntity
  8
Layer 01
100
AcDbVertex
100
AcDb2dVertex
 10
93.32338689844218
 20
12.62503914793996
 30
0.0
  0
SEQEND
  5
E2
330
DF
100
AcDbEntity
  8
Layer 01
  0
LINE
  5
E3
330
1F
100
AcDbEntity
  8
Layer 01
100
AcDbLine
 10
93.32338689844218
 20
12.62503914793996
 30
0.0
 11
93.32338694084828
 21
8.523832748022102
 31
0.0
  0
SPLINE
  5
E4
330
1F
100
AcDbEntity
  8
Layer 01
100
AcDbSpline
210
0.0
220
0.0
230
1.0
 70
    12
 71
     5
 72
    12
 73
     6
 74
     0
 42
0.0000000001
 43
0.0000000001
 40
-0.0000000000115655
 40
-0.0000000000115655
 40
-0.0000000000115655
 40
-0.0000000000115655
 40
-0.0000000000115655
 40
-0.0000000000115655
 40
0.9922383364707964
 40
0.9922383364707964
 40
0.9922383364707964
 40
0.9922383364707964
 40
0.9922383364707964
 40
0.9922383364707964
 10
93.32338694084828
 20
8.523832748022102
 30
0.0
 41
1.0
 10
93.32338683780958
 20
6.906723733638387
 30
0.0
 41
1.0
 10
93.32492688866441
 20
5.28999874261649
 30
0.0
 41
1.0
 10
93.32795188467512
 20
3.673665990484096
 30
0.0
 41
1.0
 10
93.32753470454767
 20
2.056446236198724
 30
0.0
 41
1.0
 10
93.32354445859866
 20
0.438327709682369
 30
0.0
 41
1.0
  0
SPLINE
  5
E5
330
1F
100
AcDbEntity
  8
Layer 01
100
AcDbSpline
210
0.0
220
0.0
230
1.0
 70
    12
 71
     2
 72
     6
 73
     3
 74
     0
 42
0.0000000001
 43
0.0000000001
 40
0.0
 40
0.0
 40
0.0
 40
0.0876876088231114
 40
0.0876876088231114
 40
0.0876876088231114
 10
93.32354445859866
 20
0.438327709682369
 30
0.0
 41
1.0
 10
93.32378525247928
 20
0.3857006415266861
 30
0.0
 41
0.7674574304402552
 10
93.27204129678236
 20
0.376097031102347
 30
0.0
 41
1.0
  0
POLYLINE
  5
E6
330
1F
100
AcDbEntity
  8
Layer 01
100
AcDb2dPolyline
 66
     1
 10
0.0
 20
0.0
 30
0.0
  0
VERTEX
  5
E7
330
E6
100
AcDbEntity
  8
Layer 01
100
AcDbVertex
100
AcDb2dVertex
 10
93.27204129678236
 20
0.376097031102347
 30
0.0
  0
VERTEX
  5
E8
330
E6
100
AcDbEntity
  8
Layer 01
100
AcDbVertex
100
AcDb2dVertex
 10
92.24721712054813
 20
0.3760291938065166
 30
0.0
  0
SEQEND
  5
E9
330
E6
100
AcDbEntity
  8
Layer 01
  0
SPLINE
  5
EA
330
1F
100
AcDbEntity
  8
Layer 01
100
AcDbSpline
210
0.0
220
0.0
230
1.0
 70
    12
 71
     2
 72
     6
 73
     3
 74
     0
 42
0.0000000001
 43
0.0000000001
 40
0.0
 40
0.0
 40
0.0
 40
0.0846250291315599
 40
0.0846250291315599
 40
0.0846250291315599
 10
92.24721712054813
 20
0.3760291938065166
 30
0.0
 41
1.0
 10
92.19792502601571
 20
0.3848725235289587
 30
0.0
 41
0.7828101505964009
 10
92.19542017816545
 20
0.4349040010501994
 30
0.0
 41
1.0
  0
SPLINE
  5
EB
330
1F
100
AcDbEntity
  8
Layer 01
100
AcDbSpline
210
0.0
220
0.0
230
1.0
 70
    12
 71
     5
 72
    12
 73
     6
 74
     0
 42
0.0000000001
 43
0.0000000001
 40
-0.9926563385080105
 40
-0.9926563385080105
 40
-0.9926563385080105
 40
-0.9926563385080105
 40
-0.9926563385080105
 40
-0.9926563385080105
 40
0.0000000000115655
 40
0.0000000000115655
 40
0.0000000000115655
 40
0.0000000000115655
 40
0.0000000000115655
 40
0.0000000000115655
 10
92.19542017816545
 20
0.4349040010501994
 30
0.0
 41
1.0
 10
92.11514881122818
 20
2.053720817427831
 30
0.0
 41
1.0
 10
92.03188156269013
 20
3.671623239166394
 30
0.0
 41
1.0
 10
91.94572303013192
 20
5.288636897332367
 30
0.0
 41
1.0
 10
91.86080487644765
 20
6.906042847420849
 30
0.0
 41
1.0
 10
91.77717243103777
 20
8.523832748022102
 30
0.0
 41
1.0
  0
SPLINE
  5
EC
330
1F
100
AcDbEntity
  8
Layer 01
100
AcDbSpline
210
0.0
220
0.0
230
1.0
 70
    12
 71
     2
 72
     6
 73
     3
 74
     0
 42
0.0000000001
 43
0.0000000001
 40
-0.082649365308941
 40
-0.082649365308941
 40
-0.082649365308941
 40
0.0
 40
0.0
 40
0.0
 10
91.77717243103777
 20
8.523832748022102
 30
0.0
 41
1.0
 10
91.77505200113977
 20
8.565102993962563
 30
0.0
 41
0.9999999883852876
 10
91.77292108095637
 20
8.606814936584982
 30
0.0
 41
1.0
  0
SPLINE
  5
ED
330
1F
100
AcDbEntity
  8
Layer 01
100
AcDbSpline
210
0.0
220
0.0
230
1.0
 70
    12
 71
     2
 72
     6
 73
     3
 74
     0
 42
0.0000000001
 43
0.0000000001
 40
0.0
 40
0.0
 40
0.0
 40
0.7576113662501209
 40
0.7576113662501209
 40
0.7576113662501209
 10
91.77292108095637
 20
8.606814936584982
 30
0.0
 41
1.0
 10
91.74778159525196
 20
9.079543739913554
 30
0.0
 41
0.72648491075732
 10
91.2742148056445
 20
9.080707515794899
 30
0.0
 41
1.0
  0
SPLINE
  5
EE
330
1F
100
AcDbEntity
  8
Layer 01
100
AcDbSpline
210
0.0
220
0.0
230
1.0
 70
    24
 71
     2
 72
     6
 73
     3
 74
     0
 42
0.0000000001
 43
0.0000000001
 40
0.0
 40
0.0
 40
0.0
 40
19.64792944108129
 40
19.64792944108129
 40
19.64792944108129
 10
91.2742148056445
 20
9.080707515794899
 30
0.0
 10
81.44963699468477
 20
9.080707515794899
 30
0.0
 10
71.62505918372503
 20
9.080707515794899
 30
0.0
  0
SPLINE
  5
EF
330
1F
100
AcDbEntity
  8
Layer 01
100
AcDbSpline
210
0.0
220
0.0
230
1.0
 70
    12
 71
     2
 72
     6
 73
     3
 74
     0
 42
0.0000000001
 43
0.0000000001
 40
-0.7576113662501209
 40
-0.7576113662501209
 40
-0.7576113662501209
 40
0.0
 40
0.0
 40
0.0
 10
71.62505918372503
 20
9.080707515794899
 30
0.0
 41
1.0
 10
71.1514923941176
 20
9.079543739913554
 30
0.0
 41
0.72648491075732
 10
71.12635290841317
 20
8.606814936584982
 30
0.0
 41
1.0
  0
SPLINE
  5
F0
330
1F
100
AcDbEntity
  8
Layer 01
100
AcDbSpline
210
0.0
220
0.0
230
1.0
 70
    12
 71
     2
 72
     6
 73
     3
 74
     0
 42
0.0000000001
 43
0.0000000001
 40
0.0
 40
0.0
 40
0.0
 40
0.082649365308941
 40
0.082649365308941
 40
0.082649365308941
 10
71.12635290841317
 20
8.606814936584982
 30
0.0
 41
1.0
 10
71.12422198822986
 20
8.565102993962563
 30
0.0
 41
0.9999999883852876
 10
71.12210155833165
 20
8.523832748022102
 30
0.0
 41
1.0
  0
SPLINE
  5
F1
330
1F
100
AcDbEntity
  8
Layer 01
100
AcDbSpline
210
0.0
220
0.0
230
1.0
 70
    12
 71
     5
 72
    12
 73
     6
 74
     0
 42
0.0000000001
 43
0.0000000001
 40
-0.0000000000115655
 40
-0.0000000000115655
 40
-0.0000000000115655
 40
-0.0000000000115655
 40
-0.0000000000115655
 40
-0.0000000000115655
 40
0.9926563385080105
 40
0.9926563385080105
 40
0.9926563385080105
 40
0.9926563385080105
 40
0.9926563385080105
 40
0.9926563385080105
 10
71.12210155833165
 20
8.523832748022102
 30
0.0
 41
1.0
 10
71.03846911292189
 20
6.906042847420849
 30
0.0
 41
1.0
 10
70.95355095923762
 20
5.288636897332367
 30
0.0
 41
1.0
 10
70.8673924266794
 20
3.671623239166394
 30
0.0
 41
1.0
 10
70.78412517814135
 20
2.053720817427831
 30
0.0
 41
1.0
 10
70.70385381120408
 20
0.4349040010501994
 30
0.0
 41
1.0
  0
SPLINE
  5
F2
330
1F
100
AcDbEntity
  8
Layer 01
100
AcDbSpline
210
0.0
220
0.0
230
1.0
 70
    12
 71
     2
 72
     6
 73
     3
 74
     0
 42
0.0000000001
 43
0.0000000001
 40
-0.0846250291315599
 40
-0.0846250291315599
 40
-0.0846250291315599
 40
0.0
 40
0.0
 40
0.0
 10
70.70385381120408
 20
0.4349040010501994
 30
0.0
 41
1.0
 10
70.7013489633538
 20
0.3848725235289587
 30
0.0
 41
0.7828101505964009
 10
70.6520568688214
 20
0.3760291938065166
 30
0.0
 41
1.0
  0
POLYLINE
  5
F3
330
1F
100
AcDbEntity
  8
Layer 01
100
AcDb2dPolyline
 66
     1
 10
0.0
 20
0.0
 30
0.0
  0
VERTEX
  5
F4
330
F3
100
AcDbEntity
  8
Layer 01
100
AcDbVertex
100
AcDb2dVertex
 10
70.6520568688214
 20
0.3760291938065166
 30
0.0
  0
VERTEX
  5
F5
330
F3
100
AcDbEntity
  8
Layer 01
100
AcDbVertex
100
AcDb2dVertex
 10
69.62723269258717
 20
0.376097031102347
 30
0.0
  0
SEQEND
  5
F6
330
F3
100
AcDbEntity
  8
Layer 01
  0
SPLINE
  5
F7
330
1F
100
AcDbEntity
  8
Layer 01
100
AcDbSpline
210
0.0
220
0.0
230
1.0
 70
    12
 71
     2
 72
     6
 73
     3
 74
     0
 42
0.0000000001
 43
0.0000000001
 40
-0.0876876088231114
 40
-0.0876876088231114
 40
-0.0876876088231114
 40
0.0
 40
0.0
 40
0.0
 10
69.62723269258717
 20
0.376097031102347
 30
0.0
 41
1.0
 10
69.57548873689015
 20
0.3857006415266861
 30
0.0
 41
0.7674574304402552
 10
69.57572953077087
 20
0.438327709682369
 30
0.0
 41
1.0
  0
SPLINE
  5
F8
330
1F
100
AcDbEntity
  8
Layer 01
100
AcDbSpline
210
0.0
220
0.0
230
1.0
 70
    12
 71
     5
 72
    12
 73
     6
 74
     0
 42
0.0000000001
 43
0.0000000001
 40
-0.9922383364707964
 40
-0.9922383364707964
 40
-0.9922383364707964
 40
-0.9922383364707964
 40
-0.9922383364707964
 40
-0.9922383364707964
 40
0.0000000000115655
 40
0.0000000000115655
 40
0.0000000000115655
 40
0.0000000000115655
 40
0.0000000000115655
 40
0.0000000000115655
 10
69.57572953077087
 20
0.438327709682369
 30
0.0
 41
1.0
 10
69.57173928482186
 20
2.056446236198724
 30
0.0
 41
1.0
 10
69.57132210469442
 20
3.673665990484096
 30
0.0
 41
1.0
 10
69.57434710070513
 20
5.28999874261649
 30
0.0
 41
1.0
 10
69.57588715155995
 20
6.906723733638387
 30
0.0
 41
1.0
 10
69.57588704852125
 20
8.523832748022102
 30
0.0
 41
1.0
  0
LINE
  5
F9
330
1F
100
AcDbEntity
  8
Layer 01
100
AcDbLine
 10
69.57588704852125
 20
8.523832748022102
 30
0.0
 11
69.57588709092735
 21
12.62503914793996
 31
0.0
  0
POLYLINE
  5
FA
330
1F
100
AcDbEntity
  8
Layer 01
100
AcDb2dPolyline
 66
     1
 10
0.0
 20
0.0
 30
0.0
  0
VERTEX
  5
FB
330
FA
100
AcDbEntity
  8
Layer 01
100
AcDbVertex
100
AcDb2dVertex
 10
69.57588709092735
 20
12.62503914793996
 30
0.0
  0
VERTEX
  5
FC
330
FA
100
AcDbEntity
  8
Layer 01
100
AcDbVertex
100
AcDb2dVertex
 10
71.15088760100409
 20
12.62503914793996
 30
0.0
  0
SEQEND
  5
FD
330
FA
100
AcDbEntity
  8
Layer 01
  0
LINE
  5
FE
330
1F
100
AcDbEntity
  8
Layer 01
100
AcDbLine
 10
71.15088760100409
 20
12.62503914793996
 30
0.0
 11
71.15091366664464
 21
10.79994551539292
 31
0.0
  0
SPLINE
  5
FF
330
1F
100
AcDbEntity
  8
Layer 01
100
AcDbSpline
210
0.0
220
0.0
230
1.0
 70
    12
 71
     2
 72
     6
 73
     3
 74
     0
 42
0.0000000001
 43
0.0000000001
 40
0.0
 40
0.0
 40
0.0
 40
0.7825548902353026
 40
0.7825548902353026
 40
0.7825548902353026
 10
71.15091366664464
 20
10.79994551539292
 30
0.0
 41
1.0
 10
71.15226152855831
 20
10.30219105879809
 30
0.0
 41
0.7091100515193309
 10
71.6501696228755
 20
10.30071586202212
 30
0.0
 41
1.0
  0
SPLINE
  5
100
330
1F
100
AcDbEntity
  8
Layer 01
100
AcDbSpline
210
0.0
220
0.0
230
1.0
 70
    24
 71
     2
 72
     6
 73
     3
 74
     0
 42
0.0000000001
 43
0.0000000001
 40
0.0
 40
0.0
 40
0.0
 40
19.59744819239467
 40
19.59744819239467
 40
19.59744819239467
 10
71.6501696228755
 20
10.30071586202212
 30
0.0
 10
81.44963699468471
 20
10.30071586202212
 30
0.0
 10
91.24910436649392
 20
10.30071586202212
 30
0.0
  0
SPLINE
  5
101
330
1F
100
AcDbEntity
  8
Layer 01
100
AcDbSpline
210
0.0
220
0.0
230
1.0
 70
     8
 71
     3
 72
    12
 73
     8
 74
     0
 42
0.0000000001
 43
0.0000000001
 40
0.0
 40
0.0
 40
0.0
 40
0.0
 40
1.0
 40
2.0
 40
3.0
 40
4.0
 40
5.0
 40
5.0
 40
5.0
 40
5.0
 10
71.1508714055121
 20
12.62503918825035
 30
0.0
 10
71.1344745107476
 20
12.49412383179848
 30
0.0
 10
70.91242259093107
 20
12.34303393060617
 30
0.0
 10
70.55140548358335
 20
12.2627180002051
 30
0.0
 10
70.17567194604769
 20
12.26322850250835
 30
0.0
 10
69.81437765854363
 20
12.34265459674313
 30
0.0
 10
69.59269968746693
 20
12.49439055061359
 30
0.0
 10
69.57587154719246
 20
12.62498982757822
 30
0.0
  0
POLYLINE
  5
102
330
1F
100
AcDbEntity
  8
Layer 01
100
AcDb2dPolyline
 66
     1
 10
0.0
 20
0.0
 30
0.0
  0
VERTEX
  5
103
330
102
100
AcDbEntity
  8
Layer 01
100
AcDbVertex
100
AcDb2dVertex
 10
68.99963699468478
 20
14.62503914793996
 30
0.0
  0
VERTEX
  5
104
330
102
100
AcDbEntity
  8
Layer 01
100
AcDbVertex
100
AcDb2dVertex
 10
93.89963699468487
 20
14.62503914793996
 30
0.0
  0
VERTEX
  5
105
330
102
100
AcDbEntity
  8
Layer 01
100
AcDbVertex
100
AcDb2dVertex
 10
93.89963699468487
 20
15.37503914793996
 30
0.0
  0
VERTEX
  5
106
330
102
100
AcDbEntity
  8
Layer 01
100
AcDbVertex
100
AcDb2dVertex
 10
68.99963699468478
 20
15.37503914793996
 30
0.0
  0
VERTEX
  5
107
330
102
100
AcDbEntity
  8
Layer 01
100
AcDbVertex
100
AcDb2dVertex
 10
68.99963699468478
 20
14.62503914793996
 30
0.0
  0
SEQEND
  5
108
330
102
100
AcDbEntity
  8
Layer 01
  0
POLYLINE
  5
109
330
1F
100
AcDbEntity
  8
Layer 01
100
AcDb2dPolyline
 66
     1
 10
0.0
 20
0.0
 30
0.0
  0
VERTEX
  5
10A
330
109
100
AcDbEntity
  8
Layer 01
100
AcDbVertex
100
AcDb2dVertex
 10
70.49963699468478
 20
14.37503914793996
 30
0.0
  0
VERTEX
  5
10B
330
109
100
AcDbEntity
  8
Layer 01
100
AcDbVertex
100
AcDb2dVertex
 10
92.39963699468476
 20
14.37503914793996
 30
0.0
  0
VERTEX
  5
10C
330
109
100
AcDbEntity
  8
Layer 01
100
AcDbVertex
100
AcDb2dVertex
 10
92.39963699468476
 20
14.62503914793996
 30
0.0
  0
VERTEX
  5
10D
330
109
100
AcDbEntity
  8
Layer 01
100
AcDbVertex
100
AcDb2dVertex
 10
70.49963699468478
 20
14.62503914793996
 30
0.0
  0
VERTEX
  5
10E
330
109
100
AcDbEntity
  8
Layer 01
100
AcDbVertex
100
AcDb2dVertex
 10
70.49963699468478
 20
14.37503914793996
 30
0.0
  0
SEQEND
  5
10F
330
109
100
AcDbEntity
  8
Layer 01
  0
SPLINE
  5
110
330
1F
100
AcDbEntity
  8
Layer 01
100
AcDbSpline
210
0.0
220
0.0
230
1.0
 70
    12
 71
     2
 72
     6
 73
     3
 74
     0
 42
0.0000000001
 43
0.0000000001
 40
0.0
 40
0.0
 40
0.0
 40
0.0026344063336084
 40
0.0026344063336084
 40
0.0026344063336084
 10
71.1508832930501
 20
12.62369822161139
 30
0.0
 41
1.0
 10
71.15086919578945
 20
12.62238109374752
 30
0.0
 41
0.9999998444549029
 10
71.15085362926968
 20
12.62106398242881
 30
0.0
 41
1.0
  0
SPLINE
  5
111
330
1F
100
AcDbEntity
  8
Layer 01
100
AcDbSpline
210
0.0
220
0.0
230
1.0
 70
    24
 71
     2
 72
     6
 73
     3
 74
     0
 42
0.0000000001
 43
0.0000000001
 40
0.0
 40
0.0
 40
0.0
 40
0.003885868834095
 40
0.003885868834095
 40
0.003885868834095
 10
71.1508869998847
 20
12.62106376877136
 30
0.0
 10
71.15088700366218
 20
12.61912083435432
 30
0.0
 10
71.15088700743965
 20
12.61717789993727
 30
0.0
  0
SPLINE
  5
112
330
1F
100
AcDbEntity
  8
Layer 01
100
AcDbSpline
210
0.0
220
0.0
230
1.0
 70
     8
 71
     3
 72
    12
 73
     8
 74
     0
 42
0.0000000001
 43
0.0000000001
 40
0.0
 40
0.0
 40
0.0
 40
0.0
 40
1.0
 40
2.0
 40
3.0
 40
4.0
 40
5.0
 40
5.0
 40
5.0
 40
5.0
 10
91.74840258385743
 20
12.62503918825035
 30
0.0
 10
91.76479947862194
 20
12.49412383179848
 30
0.0
 10
91.98685139843846
 20
12.34303393060617
 30
0.0
 10
92.34786850578618
 20
12.2627180002051
 30
0.0
 10
92.72360204332185
 20
12.26322850250835
 30
0.0
 10
93.08489633082579
 20
12.34265459674313
 30
0.0
 10
93.3065743019026
 20
12.49439055061359
 30
0.0
 10
93.32340244217707
 20
12.62498982757822
 30
0.0
  0
SPLINE
  5
113
330
1F
100
AcDbEntity
  8
Layer 01
100
AcDbSpline
210
0.0
220
0.0
230
1.0
 70
    24
 71
     2
 72
     6
 73
     3
 74
     0
 42
0.0000000001
 43
0.0000000001
 40
0.0
 40
0.0
 40
0.0
 40
1.250000000000004
 40
1.250000000000004
 40
1.250000000000004
 10
68.95088699468428
 20
14.12503914793996
 30
0.0
 10
68.95088699468411
 20
13.50003914793996
 30
0.0
 10
68.95088699468394
 20
12.87503914793996
 30
0.0
  0
ARC
  5
114
330
1F
100
AcDbEntity
  8
Layer 01
100
AcDbCircle
 10
69.20088699468394
 20
12.87503914793996
 30
0.0
 40
0.25
100
AcDbArc
 50
180.0
 51
270.0
  0
LINE
  5
115
330
1F
100
AcDbEntity
  8
Layer 01
100
AcDbLine
 10
69.20088699468394
 20
12.62503914793996
 30
0.0
 11
93.70088699468576
 21
12.62503914793996
 31
0.0
  0
ARC
  5
116
330
1F
100
AcDbEntity
  8
Layer 01
100
AcDbCircle
 10
93.70088699468565
 20
12.87503914793996
 30
0.0
 40
0.25
100
AcDbArc
 50
270.000000000013
 51
359.9999999999935
  0
SPLINE
  5
117
330
1F
100
AcDbEntity
  8
Layer 01
100
AcDbSpline
210
0.0
220
0.0
230
1.0
 70
    24
 71
     2
 72
     6
 73
     3
 74
     0
 42
0.0000000001
 43
0.0000000001
 40
0.0
 40
0.0
 40
0.0
 40
1.250000000000004
 40
1.250000000000004
 40
1.250000000000004
 10
93.95088699468565
 20
12.87503914793996
 30
0.0
 10
93.95088699468576
 20
13.50003914793996
 30
0.0
 10
93.95088699468587
 20
14.12503914793996
 30
0.0
  0
ARC
  5
118
330
1F
100
AcDbEntity
  8
Layer 01
100
AcDbCircle
 10
93.70088699468587
 20
14.12503914793996
 30
0.0
 40
0.25
100
AcDbArc
 50
359.9999999999992
 51
90.0
  0
LINE
  5
119
330
1F
100
AcDbEntity
  8
Layer 01
100
AcDbLine
 10
93.70088699468587
 20
14.37503914793996
 30
0.0
 11
69.4508869946844
 21
14.37503914793996
 31
0.0
  0
LINE
  5
11A
330
1F
100
AcDbEntity
  8
Layer 01
100
AcDbLine
 10
69.4508869946844
 20
14.37503914793996
 30
0.0
 11
69.20088699468405
 21
14.37503914793996
 31
0.0
  0
ARC
  5
11B
330
1F
100
AcDbEntity
  8
Layer 01
100
AcDbCircle
 10
69.20088699468428
 20
14.12503914793996
 30
0.0
 40
0.25
100
AcDbArc
 50
90.00000000006514
 51
179.9999999999992
  0
ARC
  5
11C
330
1F
100
AcDbEntity
  8
Layer 01
100
AcDbCircle
 10
-10168.47867918231
 20
-414.3754196209939
 30
0.0
 40
10246.45187490584
100
AcDbArc
 50
2.318561083130736
 51
2.319822024816971
  0
LINE
  5
11D
330
1F
100
AcDbEntity
  8
Layer 01
100
AcDbLine
 10
69.57572982102144
 20
0.3750391479403845
 30
0.0
 11
70.70073509519634
 21
0.3750391479403845
 31
0.0
  0
LINE
  5
11E
330
1F
100
AcDbEntity
  8
Layer 01
100
AcDbLine
 10
70.70073509519634
 20
0.3750391479403845
 30
0.0
 11
70.68937917315893
 21
0.1496421885582038
 31
0.0
  0
SPLINE
  5
11F
330
1F
100
AcDbEntity
  8
Layer 01
100
AcDbSpline
210
0.0
220
0.0
230
1.0
 70
    12
 71
     2
 72
     6
 73
     3
 74
     0
 42
0.0000000001
 43
0.0000000001
 40
-0.2387149143318927
 40
-0.2387149143318927
 40
-0.2387149143318927
 40
0.0
 40
0.0
 40
0.0
 10
70.68937917315893
 20
0.1496421885582038
 30
0.0
 41
1.0
 10
70.6832872309252
 20
-0.0000384788826997
 30
0.0
 41
0.7212476062221478
 10
70.53300717102988
 20
0.0000003945672802
 30
0.0
 41
1.0
  0
SPLINE
  5
120
330
1F
100
AcDbEntity
  8
Layer 01
100
AcDbSpline
210
0.0
220
0.0
230
1.0
 70
    12
 71
     2
 72
     6
 73
     3
 74
     0
 42
0.0000000001
 43
0.0000000001
 40
0.0
 40
0.0
 40
0.0
 40
0.3954244124017839
 40
0.3954244124017839
 40
0.3954244124017839
 10
70.53300717102988
 20
0.0000003945672802
 30
0.0
 41
1.0
 10
70.33481920137942
 20
0.0000274211329213
 30
0.0
 41
0.999999999289049
 10
70.13710699543239
 20
0.0000391457582793
 30
0.0
 41
1.0
  0
SPLINE
  5
121
330
1F
100
AcDbEntity
  8
Layer 01
100
AcDbSpline
210
0.0
220
0.0
230
1.0
 70
    24
 71
     2
 72
     6
 73
     3
 74
     0
 42
0.0000000001
 43
0.0000000001
 40
0.0
 40
0.0
 40
0.0
 40
0.3954243890795226
 40
0.3954243890795226
 40
0.3954243890795226
 10
70.13710699543239
 20
0.0000391457582793
 30
0.0
 10
69.93915691188849
 20
0.0000391464777749
 30
0.0
 10
69.74120682834459
 20
0.0000391471972705
 30
0.0
  0
SPLINE
  5
122
330
1F
100
AcDbEntity
  8
Layer 01
100
AcDbSpline
210
0.0
220
0.0
230
1.0
 70
    12
 71
     2
 72
     6
 73
     3
 74
     0
 42
0.0000000001
 43
0.0000000001
 40
-0.2387271341672585
 40
-0.2387271341672585
 40
-0.2387271341672585
 40
0.0
 40
0.0
 40
0.0
 10
69.74120682834459
 20
0.0000391471972705
 30
0.0
 41
1.0
 10
69.5909236010716
 20
0.0000391477218172
 30
0.0
 41
0.7212776802320741
 10
69.58485499730509
 20
0.1497242040884146
 30
0.0
 41
1.0
  0
SPLINE
  5
123
330
1F
100
AcDbEntity
  8
Layer 01
100
AcDbSpline
210
0.0
220
0.0
230
1.0
 70
    12
 71
     2
 72
     6
 73
     3
 74
     0
 42
0.0000000001
 43
0.0000000001
 40
0.0
 40
0.0
 40
0.0
 40
0.0051272633192371
 40
0.0051272633192371
 40
0.0051272633192371
 10
71.15086633926532
 20
12.61991732659044
 30
0.0
 41
1.0
 10
71.15088738240031
 20
12.62248088681026
 30
0.0
 41
0.9999912669693292
 10
71.15088699755867
 20
12.62504453336663
 30
0.0
 41
1.0
  0
ENDSEC
  0
SECTION
  2
OBJECTS
  0
DICTIONARY
  5
C
330
0
100
AcDbDictionary
281
     1
  3
ACAD_GROUP
350
D
  3
ACAD_LAYOUT
350
1A
  3
ACAD_MLEADERSTYLE
350
125
  3
ACAD_MLINESTYLE
350
17
  3
ACAD_PLOTSETTINGS
350
19
  3
ACAD_PLOTSTYLENAME
350
E
  3
ACAD_TABLESTYLE
350
124
  3
ACAD_VISUALSTYLE
350
2A
  0
DICTIONARY
  5
D
102
{ACAD_REACTORS
330
C
102
}
330
C
100
AcDbDictionary
281
     1
  0
DICTIONARY
  5
1A
102
{ACAD_REACTORS
330
C
102
}
330
C
100
AcDbDictionary
281
     1
  3
Layout1
350
1E
  3
Layout2
350
26
  3
Model
350
22
  0
DICTIONARY
  5
125
102
{ACAD_REACTORS
330
C
102
}
330
C
100
AcDbDictionary
281
     1
  0
DICTIONARY
  5
17
102
{ACAD_REACTORS
330
C
102
}
330
C
100
AcDbDictionary
281
     1
  3
Standard
350
18
  0
DICTIONARY
  5
19
102
{ACAD_REACTORS
330
C
102
}
330
C
100
AcDbDictionary
281
     1
  0
ACDBDICTIONARYWDFLT
  5
E
102
{ACAD_REACTORS
330
C
102
}
330
C
100
AcDbDictionary
281
     1
  3
Normal
350
F
100
AcDbDictionaryWithDefault
340
F
  0
DICTIONARY
  5
124
102
{ACAD_REACTORS
330
C
102
}
330
C
100
AcDbDictionary
281
     1
  0
DICTIONARY
  5
2A
102
{ACAD_REACTORS
330
C
102
}
330
C
100
AcDbDictionary
281
     1
  3
2dWireframe
350
2F
  3
3D Hidden
350
31
  3
3dWireframe
350
30
  3
Basic
350
32
  3
Brighten
350
36
  3
ColorChange
350
3A
  3
Conceptual
350
34
  3
Dim
350
35
  3
Facepattern
350
39
  3
Flat
350
2B
  3
FlatWithEdges
350
2C
  3
Gouraud
350
2D
  3
GouraudWithEdges
350
2E
  3
Linepattern
350
38
  3
Realistic
350
33
  3
Thicken
350
37
  0
LAYOUT
  5
1E
102
{ACAD_REACTORS
330
1A
102
}
330
1A
100
AcDbPlotSettings
  1

  2
none_device
  4

  6

 40
0.0
 41
0.0
 42
0.0
 43
0.0
 44
0.0
 45
0.0
 46
0.0
 47
0.0
 48
0.0
 49
0.0
140
0.0
141
0.0
142
1.0
143
1.0
 70
   688
 72
     0
 73
     0
 74
     5
  7

 75
    16
 76
     0
 77
     2
 78
   300
147
1.0
148
0.0
149
0.0
100
AcDbLayout
  1
Layout1
 70
     1
 71
     1
 10
0.0
 20
0.0
 11
12.0
 21
9.0
 12
0.0
 22
0.0
 32
0.0
 14
1.000000000000000E+20
 24
1.000000000000000E+20
 34
1.000000000000000E+20
 15
-1.000000000000000E+20
 25
-1.000000000000000E+20
 35
-1.000000000000000E+20
146
0.0
 13
0.0
 23
0.0
 33
0.0
 16
1.0
 26
0.0
 36
0.0
 17
0.0
 27
1.0
 37
0.0
 76
     0
330
1B
  0
LAYOUT
  5
26
102
{ACAD_REACTORS
330
1A
102
}
330
1A
100
AcDbPlotSettings
  1

  2
none_device
  4

  6

 40
0.0
 41
0.0
 42
0.0
 43
0.0
 44
0.0
 45
0.0
 46
0.0
 47
0.0
 48
0.0
 49
0.0
140
0.0
141
0.0
142
1.0
143
1.0
 70
   688
 72
     0
 73
     0
 74
     5
  7

 75
    16
 76
     0
 77
     2
 78
   300
147
1.0
148
0.0
149
0.0
100
AcDbLayout
  1
Layout2
 70
     1
 71
     2
 10
0.0
 20
0.0
 11
0.0
 21
0.0
 12
0.0
 22
0.0
 32
0.0
 14
0.0
 24
0.0
 34
0.0
 15
0.0
 25
0.0
 35
0.0
146
0.0
 13
0.0
 23
0.0
 33
0.0
 16
1.0
 26
0.0
 36
0.0
 17
0.0
 27
1.0
 37
0.0
 76
     0
330
23
  0
LAYOUT
  5
22
102
{ACAD_REACTORS
330
1A
102
}
330
1A
100
AcDbPlotSettings
  1

  2
none_device
  4

  6

 40
0.0
 41
0.0
 42
0.0
 43
0.0
 44
0.0
 45
0.0
 46
0.0
 47
0.0
 48
0.0
 49
0.0
140
0.0
141
0.0
142
1.0
143
1.0
 70
  1712
 72
     0
 73
     0
 74
     0
  7

 75
     0
 76
     0
 77
     2
 78
   300
147
1.0
148
0.0
149
0.0
100
AcDbLayout
  1
Model
 70
     1
 71
     0
 10
0.0
 20
0.0
 11
12.0
 21
9.0
 12
0.0
 22
0.0
 32
0.0
 14
-47.25000000000003
 24
-0.0000000002171134
 34
0.0
 15
93.95088699468587
 25
65.1372776402556
 35
0.0
146
0.0
 13
0.0
 23
0.0
 33
0.0
 16
1.0
 26
0.0
 36
0.0
 17
0.0
 27
1.0
 37
0.0
 76
     0
330
1F
331
29
  0
MLINESTYLE
  5
18
102
{ACAD_REACTORS
330
17
102
}
330
17
100
AcDbMlineStyle
  2
Standard
 70
     0
  3

 62
   256
 51
90.0
 52
90.0
 71
     2
 49
0.5
 62
   256
  6
BYLAYER
 49
-0.5
 62
   256
  6
BYLAYER
  0
ACDBPLACEHOLDER
  5
F
102
{ACAD_REACTORS
330
E
102
}
330
E
  0
VISUALSTYLE
  5
2F
102
{ACAD_REACTORS
330
2A
102
}
330
2A
100
AcDbVisualStyle
  2
2dWireframe
 70
     4
 71
     0
 72
     2
 73
     0
 90
        0
 40
-0.6
 41
-30.0
 62
     5
 63
     7
421
 16777215
 74
     1
 91
        4
 64
     7
 65
   257
 75
     1
175
     1
 42
1.0
 92
        0
 66
   257
 43
1.0
 76
     1
 77
     6
 78
     2
 67
     7
 79
     5
170
     0
171
     0
290
     0
174
     0
 93
        1
 44
0.0
173
     0
291
     0
 45
0.0
1001
ACAD
1000
AcDbSavedByObjectVersion
1070
     0
  0
VISUALSTYLE
  5
31
102
{ACAD_REACTORS
330
2A
102
}
330
2A
100
AcDbVisualStyle
  2
3D Hidden
 70
     6
 71
     1
 72
     2
 73
     2
 90
        0
 40
-0.6
 41
-30.0
 62
     5
 63
     7
421
 16777215
 74
     2
 91
        2
 64
     7
 65
   257
 75
     2
175
     1
 42
40.0
 92
        0
 66
   257
 43
1.0
 76
     1
 77
     6
 78
     2
 67
     7
 79
     3
170
     0
171
     0
290
     0
174
     0
 93
        1
 44
0.0
173
     0
291
     0
 45
0.0
1001
ACAD
1000
AcDbSavedByObjectVersion
1070
     0
  0
VISUALSTYLE
  5
30
102
{ACAD_REACTORS
330
2A
102
}
330
2A
100
AcDbVisualStyle
  2
3dWireframe
 70
     5
 71
     0
 72
     2
 73
     0
 90
        0
 40
-0.6
 41
-30.0
 62
     5
 63
     7
421
 16777215
 74
     1
 91
        4
 64
     7
 65
   257
 75
     1
175
     1
 42
1.0
 92
        0
 66
   257
 43
1.0
 76
     1
 77
     6
 78
     2
 67
     7
 79
     5
170
     0
171
     0
290
     0
174
     0
 93
        1
 44
0.0
173
     0
291
     0
 45
0.0
1001
ACAD
1000
AcDbSavedByObjectVersion
1070
     0
  0
VISUALSTYLE
  5
32
102
{ACAD_REACTORS
330
2A
102
}
330
2A
100
AcDbVisualStyle
  2
Basic
 70
     7
 71
     1
 72
     0
 73
     1
 90
        0
 40
-0.6
 41
-30.0
 62
     5
 63
     7
421
 16777215
 74
     0
 91
        4
 64
     7
 65
   257
 75
     1
175
     1
 42
1.0
 92
        8
 66
     7
 43
1.0
 76
     1
 77
     6
 78
     2
 67
     7
 79
     5
170
     0
171
     0
290
     0
174
     0
 93
        1
 44
0.0
173
     0
291
     1
 45
0.0
1001
ACAD
1000
AcDbSavedByObjectVersion
1070
     0
  0
VISUALSTYLE
  5
36
102
{ACAD_REACTORS
330
2A
102
}
330
2A
100
AcDbVisualStyle
  2
Brighten
 70
    12
 71
     2
 72
     2
 73
     0
 90
        0
 40
-0.6
 41
-30.0
 62
     5
 63
     7
421
 16777215
 74
     1
 91
        4
 64
     7
 65
   257
 75
     1
175
     1
 42
1.0
 92
        8
 66
     7
 43
1.0
 76
     1
 77
     6
 78
     2
 67
     7
 79
     5
170
     0
171
     0
290
     0
174
     0
 93
        1
 44
50.0
173
     0
291
     1
 45
0.0
1001
ACAD
1000
AcDbSavedByObjectVersion
1070
     0
  0
VISUALSTYLE
  5
3A
102
{ACAD_REACTORS
330
2A
102
}
330
2A
100
AcDbVisualStyle
  2
ColorChange
 70
    16
 71
     2
 72
     2
 73
     3
 90
        0
 40
-0.6
 41
-30.0
 62
     5
 63
     8
421
  8421504
 74
     1
 91
        4
 64
     7
 65
   257
 75
     1
175
     1
 42
1.0
 92
        8
 66
     8
424
  8421504
 43
1.0
 76
     1
 77
     6
 78
     2
 67
     7
 79
     5
170
     0
171
     0
290
     0
174
     0
 93
        1
 44
0.0
173
     0
291
     1
 45
0.0
1001
ACAD
1000
AcDbSavedByObjectVersion
1070
     0
  0
VISUALSTYLE
  5
34
102
{ACAD_REACTORS
330
2A
102
}
330
2A
100
AcDbVisualStyle
  2
Conceptual
 70
     9
 71
     3
 72
     2
 73
     0
 90
        0
 40
-0.6
 41
-30.0
 62
     5
 63
     7
421
 16777215
 74
     2
 91
        2
 64
     7
 65
   257
 75
     1
175
     1
 42
40.0
 92
        8
 66
     7
 43
1.0
 76
     1
 77
     6
 78
     2
 67
     7
 79
     3
170
     0
171
     0
290
     0
174
     0
 93
        1
 44
0.0
173
     0
291
     0
 45
0.0
1001
ACAD
1000
AcDbSavedByObjectVersion
1070
     0
  0
VISUALSTYLE
  5
35
102
{ACAD_REACTORS
330
2A
102
}
330
2A
100
AcDbVisualStyle
  2
Dim
 70
    11
 71
     2
 72
     2
 73
     0
 90
        0
 40
-0.6
 41
-30.0
 62
     5
 63
     7
421
 16777215
 74
     1
 91
        4
 64
     7
 65
   257
 75
     1
175
     1
 42
1.0
 92
        8
 66
     7
 43
1.0
 76
     1
 77
     6
 78
     2
 67
     7
 79
     5
170
     0
171
     0
290
     0
174
     0
 93
        1
 44
-50.0
173
     0
291
     1
 45
0.0
1001
ACAD
1000
AcDbSavedByObjectVersion
1070
     0
  0
VISUALSTYLE
  5
39
102
{ACAD_REACTORS
330
2A
102
}
330
2A
100
AcDbVisualStyle
  2
Facepattern
 70
    15
 71
     2
 72
     2
 73
     0
 90
        0
 40
-0.6
 41
-30.0
 62
     5
 63
     7
421
 16777215
 74
     1
 91
        4
 64
     7
 65
   257
 75
     1
175
     1
 42
1.0
 92
        8
 66
     7
 43
1.0
 76
     1
 77
     6
 78
     2
 67
     7
 79
     5
170
     0
171
     0
290
     0
174
     0
 93
        1
 44
0.0
173
     0
291
     1
 45
0.0
1001
ACAD
1000
AcDbSavedByObjectVersion
1070
     0
  0
VISUALSTYLE
  5
2B
102
{ACAD_REACTORS
330
2A
102
}
330
2A
100
AcDbVisualStyle
  2
Flat
 70
     0
 71
     2
 72
     1
 73
     1
 90
        2
 40
-0.6
 41
30.0
 62
     5
 63
     7
421
 16777215
 74
     0
 91
        4
 64
     7
 65
   257
 75
     1
175
     1
 42
1.0
 92
        8
 66
     7
 43
1.0
 76
     1
 77
     6
 78
     2
 67
     7
 79
     5
170
     0
171
     0
290
     0
174
     0
 93
       13
 44
0.0
173
     0
291
     1
 45
0.0
1001
ACAD
1000
AcDbSavedByObjectVersion
1070
     0
  0
VISUALSTYLE
  5
2C
102
{ACAD_REACTORS
330
2A
102
}
330
2A
100
AcDbVisualStyle
  2
FlatWithEdges
 70
     1
 71
     2
 72
     1
 73
     1
 90
        2
 40
-0.6
 41
30.0
 62
     5
 63
     7
421
 16777215
 74
     1
 91
        4
 64
     7
 65
   257
 75
     1
175
     1
 42
1.0
 92
        0
 66
   257
 43
1.0
 76
     1
 77
     6
 78
     2
 67
     7
 79
     5
170
     0
171
     0
290
     0
174
     0
 93
       13
 44
0.0
173
     0
291
     1
 45
0.0
1001
ACAD
1000
AcDbSavedByObjectVersion
1070
     0
  0
VISUALSTYLE
  5
2D
102
{ACAD_REACTORS
330
2A
102
}
330
2A
100
AcDbVisualStyle
  2
Gouraud
 70
     2
 71
     2
 72
     2
 73
     1
 90
        2
 40
-0.6
 41
30.0
 62
     5
 63
     7
421
 16777215
 74
     0
 91
        4
 64
     7
 65
   257
 75
     1
175
     1
 42
1.0
 92
        0
 66
     7
 43
1.0
 76
     1
 77
     6
 78
     2
 67
     7
 79
     5
170
     0
171
     0
290
     0
174
     0
 93
       13
 44
0.0
173
     0
291
     1
 45
0.0
1001
ACAD
1000
AcDbSavedByObjectVersion
1070
     0
  0
VISUALSTYLE
  5
2E
102
{ACAD_REACTORS
330
2A
102
}
330
2A
100
AcDbVisualStyle
  2
GouraudWithEdges
 70
     3
 71
     2
 72
     2
 73
     1
 90
        2
 40
-0.6
 41
30.0
 62
     5
 63
     7
421
 16777215
 74
     1
 91
        4
 64
     7
 65
   257
 75
     1
175
     1
 42
1.0
 92
        0
 66
   257
 43
1.0
 76
     1
 77
     6
 78
     2
 67
     7
 79
     5
170
     0
171
     0
290
     0
174
     0
 93
       13
 44
0.0
173
     0
291
     1
 45
0.0
1001
ACAD
1000
AcDbSavedByObjectVersion
1070
     0
  0
VISUALSTYLE
  5
38
102
{ACAD_REACTORS
330
2A
102
}
330
2A
100
AcDbVisualStyle
  2
Linepattern
 70
    14
 71
     2
 72
     2
 73
     0
 90
        0
 40
-0.6
 41
-30.0
 62
     5
 63
     7
421
 16777215
 74
     1
 91
        4
 64
     7
 65
   257
 75
     7
175
     7
 42
1.0
 92
        8
 66
     7
 43
1.0
 76
     1
 77
     6
 78
     2
 67
     7
 79
     5
170
     0
171
     0
290
     0
174
     0
 93
        1
 44
0.0
173
     0
291
     1
 45
0.0
1001
ACAD
1000
AcDbSavedByObjectVersion
1070
     0
  0
VISUALSTYLE
  5
33
102
{ACAD_REACTORS
330
2A
102
}
330
2A
100
AcDbVisualStyle
  2
Realistic
 70
     8
 71
     2
 72
     2
 73
     0
 90
        0
 40
-0.6
 41
-30.0
 62
     5
 63
     7
421
 16777215
 74
     1
 91
        0
 64
     7
 65
   257
 75
     1
175
     1
 42
1.0
 92
        8
 66
     8
424
  7895160
 43
1.0
 76
     1
 77
     6
 78
     2
 67
     7
 79
     5
170
     0
171
     0
290
     0
174
     0
 93
       13
 44
0.0
173
     0
291
     0
 45
0.0
1001
ACAD
1000
AcDbSavedByObjectVersion
1070
     0
  0
VISUALSTYLE
  5
37
102
{ACAD_REACTORS
330
2A
102
}
330
2A
100
AcDbVisualStyle
  2
Thicken
 70
    13
 71
     2
 72
     2
 73
     0
 90
        0
 40
-0.6
 41
-30.0
 62
     5
 63
     7
421
 16777215
 74
     1
 91
        4
 64
     7
 65
   257
 75
     1
175
     1
 42
1.0
 92
       12
 66
     7
 43
1.0
 76
     1
 77
     6
 78
     2
 67
     7
 79
     5
170
     0
171
     0
290
     0
174
     0
 93
        1
 44
0.0
173
     0
291
     1
 45
0.0
1001
ACAD
1000
AcDbSavedByObjectVersion
1070
     0
  0
ENDSEC
  0
EOF
