  0
SECTION
  2
HEADER
  9
$ACADVER
  1
AC1018
  9
$ACADMAINTVER
 70
     0
  9
$DWGCODEPAGE
  3
ANSI_1252
  9
$INSBASE
 10
0.0
 20
0.0
 30
0.0
  9
$EXTMIN
 10
-15.01184679216666
 20
0.000000003227864
 30
0.0
  9
$EXTMAX
 10
54.0815236897519
 20
71.68426288798452
 30
0.0
  9
$LIMMIN
 10
0.0
 20
0.0
  9
$LIMMAX
 10
12.0
 20
9.0
  9
$ORTHOMODE
 70
     0
  9
$REGENMODE
 70
     1
  9
$FILLMODE
 70
     1
  9
$QTEXTMODE
 70
     0
  9
$MIRRTEXT
 70
     1
  9
$LTSCALE
 40
0.0393700787401575
  9
$ATTMODE
 70
     1
  9
$TEXTSIZE
 40
0.2
  9
$TRACEWID
 40
0.05
  9
$TEXTSTYLE
  7
Standard
  9
$CLAYER
  8
Default
  9
$CELTYPE
  6
ByLayer
  9
$CECOLOR
 62
   256
  9
$CELTSCALE
 40
1.0
  9
$DISPSILH
 70
     0
  9
$DIMSCALE
 40
1.0
  9
$DIMASZ
 40
0.18
  9
$DIMEXO
 40
0.0625
  9
$DIMDLI
 40
0.38
  9
$DIMRND
 40
0.0
  9
$DIMDLE
 40
0.0
  9
$DIMEXE
 40
0.18
  9
$DIMTP
 40
0.0
  9
$DIMTM
 40
0.0
  9
$DIMTXT
 40
0.18
  9
$DIMCEN
 40
0.09
  9
$DIMTSZ
 40
0.0
  9
$DIMTOL
 70
     0
  9
$DIMLIM
 70
     0
  9
$DIMTIH
 70
     1
  9
$DIMTOH
 70
     1
  9
$DIMSE1
 70
     0
  9
$DIMSE2
 70
     0
  9
$DIMTAD
 70
     0
  9
$DIMZIN
 70
     0
  9
$DIMBLK
  1

  9
$DIMASO
 70
     1
  9
$DIMSHO
 70
     1
  9
$DIMPOST
  1

  9
$DIMAPOST
  1

  9
$DIMALT
 70
     0
  9
$DIMALTD
 70
     2
  9
$DIMALTF
 40
25.4
  9
$DIMLFAC
 40
1.0
  9
$DIMTOFL
 70
     0
  9
$DIMTVP
 40
0.0
  9
$DIMTIX
 70
     0
  9
$DIMSOXD
 70
     0
  9
$DIMSAH
 70
     0
  9
$DIMBLK1
  1

  9
$DIMBLK2
  1

  9
$DIMSTYLE
  2
Standard
  9
$DIMCLRD
 70
     0
  9
$DIMCLRE
 70
     0
  9
$DIMCLRT
 70
     0
  9
$DIMTFAC
 40
1.0
  9
$DIMGAP
 40
0.09
  9
$DIMJUST
 70
     0
  9
$DIMSD1
 70
     0
  9
$DIMSD2
 70
     0
  9
$DIMTOLJ
 70
     1
  9
$DIMTZIN
 70
     0
  9
$DIMALTZ
 70
     0
  9
$DIMALTTZ
 70
     0
  9
$DIMUPT
 70
     0
  9
$DIMDEC
 70
     4
  9
$DIMTDEC
 70
     4
  9
$DIMALTU
 70
     2
  9
$DIMALTTD
 70
     2
  9
$DIMTXSTY
  7
Standard
  9
$DIMAUNIT
 70
     0
  9
$DIMADEC
 70
     0
  9
$DIMALTRND
 40
0.0
  9
$DIMAZIN
 70
     0
  9
$DIMDSEP
 70
    46
  9
$DIMATFIT
 70
     3
  9
$DIMFRAC
 70
     0
  9
$DIMLDRBLK
  1

  9
$DIMLUNIT
 70
     2
  9
$DIMLWD
 70
    -2
  9
$DIMLWE
 70
    -2
  9
$DIMTMOVE
 70
     2
  9
$LUNITS
 70
     2
  9
$LUPREC
 70
     3
  9
$SKETCHINC
 40
0.1
  9
$FILLETRAD
 40
0.5
  9
$AUNITS
 70
     0
  9
$AUPREC
 70
     0
  9
$MENU
  1
.
  9
$ELEVATION
 40
0.0
  9
$PELEVATION
 40
0.0
  9
$THICKNESS
 40
0.0
  9
$LIMCHECK
 70
     0
  9
$CHAMFERA
 40
0.5
  9
$CHAMFERB
 40
0.5
  9
$CHAMFERC
 40
1.0
  9
$CHAMFERD
 40
0.0
  9
$SKPOLY
 70
     0
  9
$TDCREATE
 40
2457528.361357442
  9
$TDUCREATE
 40
2457528.528024109
  9
$TDUPDATE
 40
2457528.361357454
  9
$TDUUPDATE
 40
2457528.52802412
  9
$TDINDWG
 40
0.0000000116
  9
$TDUSRTIMER
 40
0.0000000116
  9
$USRTIMER
 70
     1
  9
$ANGBASE
 50
0.0
  9
$ANGDIR
 70
     0
  9
$PDMODE
 70
     0
  9
$PDSIZE
 40
0.0
  9
$PLINEWID
 40
0.0
  9
$SPLFRAME
 70
     0
  9
$SPLINETYPE
 70
     6
  9
$SPLINESEGS
 70
     8
  9
$HANDSEED
  5
BE
  9
$SURFTAB1
 70
     6
  9
$SURFTAB2
 70
     6
  9
$SURFTYPE
 70
     6
  9
$SURFU
 70
     6
  9
$SURFV
 70
     6
  9
$UCSBASE
  2

  9
$UCSNAME
  2

  9
$UCSORG
 10
0.0
 20
0.0
 30
0.0
  9
$UCSXDIR
 10
1.0
 20
0.0
 30
0.0
  9
$UCSYDIR
 10
0.0
 20
1.0
 30
0.0
  9
$UCSORTHOREF
  2

  9
$UCSORTHOVIEW
 70
     0
  9
$UCSORGTOP
 10
0.0
 20
0.0
 30
0.0
  9
$UCSORGBOTTOM
 10
0.0
 20
0.0
 30
0.0
  9
$UCSORGLEFT
 10
0.0
 20
0.0
 30
0.0
  9
$UCSORGRIGHT
 10
0.0
 20
0.0
 30
0.0
  9
$UCSORGFRONT
 10
0.0
 20
0.0
 30
0.0
  9
$UCSORGBACK
 10
0.0
 20
0.0
 30
0.0
  9
$PUCSBASE
  2

  9
$PUCSNAME
  2

  9
$PUCSORG
 10
0.0
 20
0.0
 30
0.0
  9
$PUCSXDIR
 10
1.0
 20
0.0
 30
0.0
  9
$PUCSYDIR
 10
0.0
 20
1.0
 30
0.0
  9
$PUCSORTHOREF
  2

  9
$PUCSORTHOVIEW
 70
     0
  9
$PUCSORGTOP
 10
0.0
 20
0.0
 30
0.0
  9
$PUCSORGBOTTOM
 10
0.0
 20
0.0
 30
0.0
  9
$PUCSORGLEFT
 10
0.0
 20
0.0
 30
0.0
  9
$PUCSORGRIGHT
 10
0.0
 20
0.0
 30
0.0
  9
$PUCSORGFRONT
 10
0.0
 20
0.0
 30
0.0
  9
$PUCSORGBACK
 10
0.0
 20
0.0
 30
0.0
  9
$USERI1
 70
     0
  9
$USERI2
 70
     0
  9
$USERI3
 70
     0
  9
$USERI4
 70
     0
  9
$USERI5
 70
     0
  9
$USERR1
 40
0.0
  9
$USERR2
 40
0.0
  9
$USERR3
 40
0.0
  9
$USERR4
 40
0.0
  9
$USERR5
 40
0.0
  9
$WORLDVIEW
 70
     1
  9
$SHADEDGE
 70
     3
  9
$SHADEDIF
 70
    70
  9
$TILEMODE
 70
     1
  9
$MAXACTVP
 70
    64
  9
$PINSBASE
 10
0.0
 20
0.0
 30
0.0
  9
$PLIMCHECK
 70
     0
  9
$PEXTMIN
 10
1.000000000000000E+20
 20
1.000000000000000E+20
 30
1.000000000000000E+20
  9
$PEXTMAX
 10
-1.000000000000000E+20
 20
-1.000000000000000E+20
 30
-1.000000000000000E+20
  9
$PLIMMIN
 10
0.0
 20
0.0
  9
$PLIMMAX
 10
12.0
 20
9.0
  9
$UNITMODE
 70
     0
  9
$VISRETAIN
 70
     1
  9
$PLINEGEN
 70
     0
  9
$PSLTSCALE
 70
     1
  9
$TREEDEPTH
 70
  3020
  9
$CMLSTYLE
  2
Standard
  9
$CMLJUST
 70
     0
  9
$CMLSCALE
 40
1.0
  9
$PROXYGRAPHICS
 70
     1
  9
$MEASUREMENT
 70
     0
  9
$CELWEIGHT
370
    -1
  9
$ENDCAPS
280
     0
  9
$JOINSTYLE
280
     0
  9
$LWDISPLAY
290
     0
  9
$INSUNITS
 70
     1
  9
$HYPERLINKBASE
  1

  9
$STYLESHEET
  1

  9
$XEDIT
290
     1
  9
$CEPSNTYPE
380
     0
  9
$PSTYLEMODE
290
     1
  9
$FINGERPRINTGUID
  2
{6E066BBF-42DC-4105-9AC5-782A13A99E64}
  9
$VERSIONGUID
  2
{FAEB1C32-E019-11D5-929B-00C0DF256EC4}
  9
$EXTNAMES
290
     1
  9
$PSVPSCALE
 40
0.0
  9
$OLESTARTUP
290
     0
  9
$SORTENTS
280
   127
  9
$INDEXCTL
280
     0
  9
$HIDETEXT
280
     1
  9
$XCLIPFRAME
290
     0
  9
$HALOGAP
280
     0
  9
$OBSCOLOR
 70
   257
  9
$OBSLTYPE
280
     0
  9
$INTERSECTIONDISPLAY
280
     0
  9
$INTERSECTIONCOLOR
 70
   257
  9
$DIMASSOC
280
     2
  9
$PROJECTNAME
  1

  0
ENDSEC
  0
SECTION
  2
CLASSES
  0
CLASS
  1
ACDBDICTIONARYWDFLT
  2
AcDbDictionaryWithDefault
  3
ObjectDBX Classes
 90
        0
 91
        4
280
     0
281
     0
  0
CLASS
  1
VISUALSTYLE
  2
AcDbVisualStyle
  3
ObjectDBX Classes
 90
     4095
 91
        4
280
     0
281
     0
  0
ENDSEC
  0
SECTION
  2
TABLES
  0
TABLE
  2
VPORT
  5
8
330
0
100
AcDbSymbolTable
 70
     1
  0
VPORT
  5
29
330
8
100
AcDbSymbolTableRecord
100
AcDbViewportTableRecord
  2
*Active
 70
     0
 10
0.0
 20
0.0
 11
1.0
 21
1.0
 12
19.53483844879262
 22
35.84213144560619
 13
0.0
 23
0.0
 14
0.5
 24
0.5
 15
0.5
 25
0.5
 16
0.0
 26
0.0
 36
1.0
 17
0.0
 27
0.0
 37
0.0
 40
73.11794814245178
 41
0.9638568871524376
 42
50.0
 43
0.0
 44
0.0
 50
0.0
 51
0.0
 71
     0
 72
   100
 73
     1
 74
     3
 75
     0
 76
     0
 77
     0
 78
     0
281
     0
 65
     1
110
0.0
120
0.0
130
0.0
111
1.0
121
0.0
131
0.0
112
0.0
122
1.0
132
0.0
 79
     0
146
0.0
  0
ENDTAB
  0
TABLE
  2
LTYPE
  5
5
330
0
100
AcDbSymbolTable
 70
     1
  0
LTYPE
  5
14
330
5
100
AcDbSymbolTableRecord
100
AcDbLinetypeTableRecord
  2
ByBlock
 70
     0
  3

 72
    65
 73
     0
 40
0.0
  0
LTYPE
  5
15
330
5
100
AcDbSymbolTableRecord
100
AcDbLinetypeTableRecord
  2
ByLayer
 70
     0
  3

 72
    65
 73
     0
 40
0.0
  0
LTYPE
  5
16
330
5
100
AcDbSymbolTableRecord
100
AcDbLinetypeTableRecord
  2
Continuous
 70
     0
  3
Solid line
 72
    65
 73
     0
 40
0.0
  0
ENDTAB
  0
TABLE
  2
LAYER
  5
2
330
0
100
AcDbSymbolTable
 70
     3
  0
LAYER
  5
10
330
2
100
AcDbSymbolTableRecord
100
AcDbLayerTableRecord
  2
0
 70
     0
 62
     7
  6
Continuous
370
    -3
390
F
  0
LAYER
  5
3B
330
2
100
AcDbSymbolTableRecord
100
AcDbLayerTableRecord
  2
Default
 70
     0
 62
     7
  6
Continuous
370
    -3
390
F
  0
LAYER
  5
49
330
2
100
AcDbSymbolTableRecord
100
AcDbLayerTableRecord
  2
Default - Tangent
 70
     0
 62
     7
  6
Continuous
370
    -3
390
F
  0
ENDTAB
  0
TABLE
  2
STYLE
  5
3
330
0
100
AcDbSymbolTable
 70
     1
  0
STYLE
  5
11
330
3
100
AcDbSymbolTableRecord
100
AcDbTextStyleTableRecord
  2
Standard
 70
     0
 40
0.0
 41
1.0
 50
0.0
 71
     0
 42
0.2
  3
txt
  4

  0
ENDTAB
  0
TABLE
  2
VIEW
  5
6
330
0
100
AcDbSymbolTable
 70
     0
  0
ENDTAB
  0
TABLE
  2
UCS
  5
7
330
0
100
AcDbSymbolTable
 70
     0
  0
ENDTAB
  0
TABLE
  2
APPID
  5
9
330
0
100
AcDbSymbolTable
 70
     1
  0
APPID
  5
12
330
9
100
AcDbSymbolTableRecord
100
AcDbRegAppTableRecord
  2
ACAD
 70
     0
  0
ENDTAB
  0
TABLE
  2
DIMSTYLE
  5
A
330
0
100
AcDbSymbolTable
 70
     1
100
AcDbDimStyleTable
  0
DIMSTYLE
105
27
330
A
100
AcDbSymbolTableRecord
100
AcDbDimStyleTableRecord
  2
Standard
 70
     0
340
11
  0
ENDTAB
  0
TABLE
  2
BLOCK_RECORD
  5
1
330
0
100
AcDbSymbolTable
 70
     1
  0
BLOCK_RECORD
  5
1F
330
1
100
AcDbSymbolTableRecord
100
AcDbBlockTableRecord
  2
*Model_Space
340
22
  0
BLOCK_RECORD
  5
1B
330
1
100
AcDbSymbolTableRecord
100
AcDbBlockTableRecord
  2
*Paper_Space
340
1E
  0
BLOCK_RECORD
  5
23
330
1
100
AcDbSymbolTableRecord
100
AcDbBlockTableRecord
  2
*Paper_Space0
340
26
  0
ENDTAB
  0
ENDSEC
  0
SECTION
  2
BLOCKS
  0
BLOCK
  5
20
330
1F
100
AcDbEntity
  8
0
100
AcDbBlockBegin
  2
*Model_Space
 70
     0
 10
0.0
 20
0.0
 30
0.0
  3
*Model_Space
  1

  0
ENDBLK
  5
21
330
1F
100
AcDbEntity
  8
0
100
AcDbBlockEnd
  0
BLOCK
  5
1C
330
1B
100
AcDbEntity
 67
     1
  8
0
100
AcDbBlockBegin
  2
*Paper_Space
 70
     0
 10
0.0
 20
0.0
 30
0.0
  3
*Paper_Space
  1

  0
ENDBLK
  5
1D
330
1B
100
AcDbEntity
 67
     1
  8
0
100
AcDbBlockEnd
  0
BLOCK
  5
24
330
23
100
AcDbEntity
  8
0
100
AcDbBlockBegin
  2
*Paper_Space0
 70
     0
 10
0.0
 20
0.0
 30
0.0
  3
*Paper_Space0
  1

  0
ENDBLK
  5
25
330
23
100
AcDbEntity
  8
0
100
AcDbBlockEnd
  0
ENDSEC
  0
SECTION
  2
ENTITIES
  0
SPLINE
  5
3C
330
1F
100
AcDbEntity
  8
Default
100
AcDbSpline
210
0.0
220
0.0
230
1.0
 70
     8
 71
     3
 72
    54
 73
    50
 74
     0
 42
0.0000000001
 43
0.0000000001
 40
-47.0
 40
-47.0
 40
-47.0
 40
-47.0
 40
-46.0
 40
-45.0
 40
-44.0
 40
-43.0
 40
-42.0
 40
-41.0
 40
-40.0
 40
-39.0
 40
-38.0
 40
-37.0
 40
-36.0
 40
-35.0
 40
-34.0
 40
-33.0
 40
-32.0
 40
-31.0
 40
-30.0
 40
-29.0
 40
-28.0
 40
-27.0
 40
-26.0
 40
-25.0
 40
-24.0
 40
-23.0
 40
-22.0
 40
-21.0
 40
-20.0
 40
-19.0
 40
-18.0
 40
-17.0
 40
-16.0
 40
-15.0
 40
-14.0
 40
-13.0
 40
-12.0
 40
-11.0
 40
-10.0
 40
-9.0
 40
-8.0
 40
-7.0
 40
-6.0
 40
-5.0
 40
-4.0
 40
-3.0
 40
-2.0
 40
-1.0
 40
0.0
 40
0.0
 40
0.0
 40
0.0
 10
-8.582628398274778
 20
11.9767353549589
 30
0.0
 10
-8.772363656126913
 20
12.09529681850095
 30
0.0
 10
-9.147039326139634
 20
12.34009506010645
 30
0.0
 10
-9.693714013871897
 20
12.72976086941776
 30
0.0
 10
-10.2241311192293
 20
13.14128673361863
 30
0.0
 10
-10.73735914954307
 20
13.57404880755039
 30
0.0
 10
-11.23350979362829
 20
14.02628265015726
 30
0.0
 10
-11.71061241200135
 20
14.4985911754451
 30
0.0
 10
-12.16804985284756
 20
14.9899653510558
 30
0.0
 10
-12.60460374457386
 20
15.49999321215759
 30
0.0
 10
-13.01902977841911
 20
16.02817075989404
 30
0.0
 10
-13.41027124697189
 20
16.57372573216326
 30
0.0
 10
-13.77830620809101
 20
17.13524088267208
 30
0.0
 10
-14.12232491405939
 20
17.71160589993498
 30
0.0
 10
-14.44482366412547
 20
18.30081778754973
 30
0.0
 10
-14.74664218978847
 20
18.89878557941464
 30
0.0
 10
-15.04145883747788
 20
19.50769989398298
 30
0.0
 10
-15.01112432931512
 20
20.20817195316637
 30
0.0
 10
-14.61259099797223
 20
20.79070688875229
 30
0.0
 10
-13.94603456874756
 20
20.9797517370591
 30
0.0
 10
-13.29326928420284
 20
21.14162512581114
 30
0.0
 10
-12.7460017401753
 20
21.54916775223757
 30
0.0
 10
-12.29490202463455
 20
22.04953512067581
 30
0.0
 10
-11.97212069591467
 20
22.64142643597762
 30
0.0
 10
-11.68271763611779
 20
23.24671270867083
 30
0.0
 10
-11.44802570862743
 20
23.87630800871219
 30
0.0
 10
-11.24786793226724
 20
24.51708315603656
 30
0.0
 10
-11.07819411403062
 20
25.166685840532
 30
0.0
 10
-10.93758391942566
 20
25.82310550382627
 30
0.0
 10
-10.80434690246483
 20
26.4808097298553
 30
0.0
 10
-10.67509924139267
 20
27.13993472218354
 30
0.0
 10
-10.49310622161147
 20
27.7858869176344
 30
0.0
 10
-10.267482733419
 20
28.42058570975517
 30
0.0
 10
-9.895010215371883
 20
28.98757668779618
 30
0.0
 10
-9.343692574169665
 20
29.38707254323368
 30
0.0
 10
-8.720831680305537
 20
29.64596741795336
 30
0.0
 10
-8.054043037072404
 20
29.7512693888748
 30
0.0
 10
-7.382918238345951
 20
29.76657432028393
 30
0.0
 10
-6.711860089147365
 20
29.77921971271364
 30
0.0
 10
-6.040662319798855
 20
29.78425399983552
 30
0.0
 10
-5.369464662783855
 20
29.78405221154664
 30
0.0
 10
-4.698268667396803
 20
29.78176332383183
 30
0.0
 10
-4.027070313897525
 20
29.78017607471231
 30
0.0
 10
-3.355872525399889
 20
29.78281169044625
 30
0.0
 10
-2.684711546071867
 20
29.79016588494095
 30
0.0
 10
-2.0135667996596
 20
29.79862235856698
 30
0.0
 10
-1.342397272275264
 20
29.80513675072408
 30
0.0
 10
-0.6712000870148813
 20
29.8073672493596
 30
0.0
 10
-0.2237345294532815
 20
29.80801457189989
 30
0.0
 10
0.0000000000000568
 20
29.80852188620929
 30
0.0
  0
SPLINE
  5
3D
330
1F
100
AcDbEntity
  8
Default
100
AcDbSpline
210
0.0
220
0.0
230
1.0
 70
     8
 71
     3
 72
    54
 73
    50
 74
     0
 42
0.0000000001
 43
0.0000000001
 40
0.0
 40
0.0
 40
0.0
 40
0.0
 40
1.0
 40
2.0
 40
3.0
 40
4.0
 40
5.0
 40
6.0
 40
7.0
 40
8.0
 40
9.0
 40
10.0
 40
11.0
 40
12.0
 40
13.0
 40
14.0
 40
15.0
 40
16.0
 40
17.0
 40
18.0
 40
19.0
 40
20.0
 40
21.0
 40
22.0
 40
23.0
 40
24.0
 40
25.0
 40
26.0
 40
27.0
 40
28.0
 40
29.0
 40
30.0
 40
31.0
 40
32.0
 40
33.0
 40
34.0
 40
35.0
 40
36.0
 40
37.0
 40
38.0
 40
39.0
 40
40.0
 40
41.0
 40
42.0
 40
43.0
 40
44.0
 40
45.0
 40
46.0
 40
47.0
 40
47.0
 40
47.0
 40
47.0
 10
0.0000000000000568
 20
29.80852188620929
 30
0.0
 10
0.2237345294533384
 20
29.80801457189989
 30
0.0
 10
0.6712000870149382
 20
29.8073672493596
 30
0.0
 10
1.342397272275321
 20
29.80513675072408
 30
0.0
 10
2.013566799659714
 20
29.79862235856698
 30
0.0
 10
2.684711546071924
 20
29.79016588494095
 30
0.0
 10
3.355872525399946
 20
29.78281169044625
 30
0.0
 10
4.027070313897582
 20
29.78017607471231
 30
0.0
 10
4.69826866739686
 20
29.78176332383183
 30
0.0
 10
5.369464662783912
 20
29.78405221154664
 30
0.0
 10
6.040662319798912
 20
29.78425399983552
 30
0.0
 10
6.711860089147478
 20
29.77921971271364
 30
0.0
 10
7.382918238346008
 20
29.76657432028393
 30
0.0
 10
8.05404303707246
 20
29.7512693888748
 30
0.0
 10
8.720831680305594
 20
29.64596741795336
 30
0.0
 10
9.343692574169722
 20
29.38707254323368
 30
0.0
 10
9.89501021537194
 20
28.98757668779618
 30
0.0
 10
10.26748273341906
 20
28.42058570975517
 30
0.0
 10
10.49310622161153
 20
27.7858869176344
 30
0.0
 10
10.67509924139273
 20
27.13993472218354
 30
0.0
 10
10.80434690246489
 20
26.4808097298553
 30
0.0
 10
10.93758391942572
 20
25.82310550382627
 30
0.0
 10
11.07819411403068
 20
25.166685840532
 30
0.0
 10
11.24786793226735
 20
24.51708315603656
 30
0.0
 10
11.44802570862748
 20
23.87630800871219
 30
0.0
 10
11.68271763611784
 20
23.24671270867083
 30
0.0
 10
11.97212069591478
 20
22.64142643597762
 30
0.0
 10
12.29490202463467
 20
22.04953512067581
 30
0.0
 10
12.74600174017536
 20
21.54916775223757
 30
0.0
 10
13.29326928420289
 20
21.14162512581114
 30
0.0
 10
13.94603456874762
 20
20.9797517370591
 30
0.0
 10
14.61259099797229
 20
20.79070688875229
 30
0.0
 10
15.01112432931518
 20
20.20817195316637
 30
0.0
 10
15.04145883747799
 20
19.50769989398298
 30
0.0
 10
14.74664218978853
 20
18.89878557941464
 30
0.0
 10
14.44482366412558
 20
18.30081778754973
 30
0.0
 10
14.12232491405945
 20
17.71160589993498
 30
0.0
 10
13.77830620809107
 20
17.13524088267208
 30
0.0
 10
13.41027124697194
 20
16.57372573216326
 30
0.0
 10
13.01902977841922
 20
16.02817075989404
 30
0.0
 10
12.60460374457398
 20
15.49999321215759
 30
0.0
 10
12.16804985284762
 20
14.9899653510558
 30
0.0
 10
11.71061241200141
 20
14.4985911754451
 30
0.0
 10
11.23350979362834
 20
14.02628265015726
 30
0.0
 10
10.73735914954312
 20
13.57404880755039
 30
0.0
 10
10.22413111922936
 20
13.14128673361863
 30
0.0
 10
9.693714013871954
 20
12.72976086941776
 30
0.0
 10
9.147039326139748
 20
12.34009506010645
 30
0.0
 10
8.77236365612697
 20
12.09529681850095
 30
0.0
 10
8.582628398274835
 20
11.9767353549589
 30
0.0
  0
SPLINE
  5
3E
330
1F
100
AcDbEntity
  8
Default
100
AcDbSpline
210
0.0
220
0.0
230
1.0
 70
    24
 71
     2
 72
     6
 73
     3
 74
     0
 42
0.0000000001
 43
0.0000000001
 40
0.0
 40
0.0
 40
0.0
 40
2.201146945755387
 40
2.201146945755387
 40
2.201146945755387
 10
-8.69890850746549
 20
2.396743218887003
 30
0.0
 10
-8.813604447731791
 20
1.302162563801001
 30
0.0
 10
-8.928300387998036
 20
0.2075819087149986
 30
0.0
  0
SPLINE
  5
3F
330
1F
100
AcDbEntity
  8
Default
100
AcDbSpline
210
0.0
220
0.0
230
1.0
 70
    12
 71
     2
 72
     8
 73
     5
 74
     0
 42
0.0000000001
 43
0.0000000001
 40
-0.3149620417233434
 40
-0.3149620417233434
 40
-0.3149620417233434
 40
-0.1574810208616717
 40
-0.1574810208616717
 40
0.0
 40
0.0
 40
0.0
 10
-8.928300387998036
 20
0.2075819087149986
 30
0.0
 41
1.0
 10
-8.937017724355774
 20
0.1243446276420911
 30
0.0
 41
0.9135643766743925
 10
-8.880999190775128
 20
0.0621645600234536
 30
0.0
 41
1.0
 10
-8.824980657194452
 20
-0.000015507595184
 30
0.0
 41
0.9135643766743925
 10
-8.741288144548491
 20
0.000000003227882
 30
0.0
 41
1.0
  0
SPLINE
  5
40
330
1F
100
AcDbEntity
  8
Default
100
AcDbSpline
210
0.0
220
0.0
230
1.0
 70
    12
 71
     2
 72
     6
 73
     3
 74
     0
 42
0.0000000001
 43
0.0000000001
 40
-0.2677333291544088
 40
-0.2677333291544088
 40
-0.2677333291544088
 40
0.0
 40
0.0
 40
0.0
 10
-7.940217706480894
 20
0.0001482542063195
 30
0.0
 41
1.0
 10
-7.777952799480366
 20
0.0001783284172676
 30
0.0
 41
0.7570196239544809
 10
-7.754266330229029
 20
0.1607051240707067
 30
0.0
 41
1.0
  0
POLYLINE
  5
41
330
1F
100
AcDbEntity
  8
Default
100
AcDb2dPolyline
 66
     1
 10
0.0
 20
0.0
 30
0.0
  0
VERTEX
  5
42
330
41
100
AcDbEntity
  8
Default
100
AcDbVertex
100
AcDb2dVertex
 10
-1.951462879158669
 20
6.409777512516227
 30
0.0
  0
VERTEX
  5
43
330
41
100
AcDbEntity
  8
Default
100
AcDbVertex
100
AcDb2dVertex
 10
1.951462879158726
 20
6.409777512516227
 30
0.0
  0
SEQEND
  5
44
330
41
100
AcDbEntity
  8
Default
  0
SPLINE
  5
45
330
1F
100
AcDbEntity
  8
Default
100
AcDbSpline
210
0.0
220
0.0
230
1.0
 70
    12
 71
     2
 72
     6
 73
     3
 74
     0
 42
0.0000000001
 43
0.0000000001
 40
0.0
 40
0.0
 40
0.0
 40
0.4002222356920559
 40
0.4002222356920559
 40
0.4002222356920559
 10
6.912474192795116
 20
6.368829693226644
 30
0.0
 41
1.0
 10
6.884495198629613
 20
6.566975183658066
 30
0.0
 41
0.9999999998631137
 10
6.856522761541157
 20
6.765121599866508
 30
0.0
 41
1.0
  0
SPLINE
  5
46
330
1F
100
AcDbEntity
  8
Default
100
AcDbSpline
210
0.0
220
0.0
230
1.0
 70
    24
 71
     2
 72
     6
 73
     3
 74
     0
 42
0.0000000001
 43
0.0000000001
 40
0.0
 40
0.0
 40
0.0
 40
3.647625187282489
 40
3.647625187282489
 40
3.647625187282489
 10
6.725411471650375
 20
7.130746672792809
 30
0.0
 10
6.459082542724161
 20
8.935008648876503
 30
0.0
 10
6.192753613798004
 20
10.7392706249602
 30
0.0
  0
SPLINE
  5
47
330
1F
100
AcDbEntity
  8
Default
100
AcDbSpline
210
0.0
220
0.0
230
1.0
 70
    12
 71
     2
 72
     6
 73
     3
 74
     0
 42
0.0000000001
 43
0.0000000001
 40
0.0
 40
0.0
 40
0.0
 40
0.8010704518778793
 40
0.8010704518778793
 40
0.8010704518778793
 10
-8.741288144548491
 20
0.000000003227882
 30
0.0
 41
1.0
 10
-8.340752927462505
 20
0.0000846535314002
 30
0.0
 41
0.9999999996547628
 10
-7.940217706480894
 20
0.0001482542063195
 30
0.0
 41
1.0
  0
SPLINE
  5
48
330
1F
100
AcDbEntity
  8
Default
100
AcDbSpline
210
0.0
220
0.0
230
1.0
 70
    24
 71
     2
 72
     6
 73
     3
 74
     0
 42
0.0000000001
 43
0.0000000001
 40
0.0
 40
0.0
 40
0.0
 40
5.897490400714366
 40
5.897490400714366
 40
5.897490400714366
 10
-7.754266330229029
 20
0.1607051240707067
 30
0.0
 10
-7.323664987949883
 20
3.077840832373789
 30
0.0
 10
-6.893063645670736
 20
5.994976540676871
 30
0.0
  0
SPLINE
  5
4A
330
1F
100
AcDbEntity
  8
Default - Tangent
100
AcDbSpline
210
0.0
220
0.0
230
1.0
 70
    24
 71
     2
 72
     6
 73
     3
 74
     0
 42
0.0000000001
 43
0.0000000001
 40
0.0
 40
0.0
 40
0.0
 40
4.59447787015285
 40
4.59447787015285
 40
4.59447787015285
 10
2.600432462148376
 20
6.380775001852589
 30
0.0
 10
4.888449321121129
 20
6.17514042818501
 30
0.0
 10
7.176466180093882
 20
5.969505854517431
 30
0.0
  0
SPLINE
  5
4B
330
1F
100
AcDbEntity
  8
Default - Tangent
100
AcDbSpline
210
0.0
220
0.0
230
1.0
 70
    12
 71
     2
 72
    18
 73
    15
 74
     0
 42
0.0000000001
 43
0.0000000001
 40
-0.6498325998099508
 40
-0.6498325998099508
 40
-0.6498325998099508
 40
-0.5403545249793968
 40
-0.5403545249793968
 40
-0.4327828494438037
 40
-0.4327828494438037
 40
-0.329402535053353
 40
-0.329402535053353
 40
-0.2323242310219129
 40
-0.2323242310219129
 40
-0.1436785442332995
 40
-0.1436785442332995
 40
-0.0655626786909288
 40
-0.0655626786909288
 40
0.0
 40
0.0
 40
0.0
 10
1.951462879158726
 20
6.409777512516227
 30
0.0
 41
1.0
 10
2.00620298119222
 20
6.409788945007642
 30
0.0
 41
0.9999707946466081
 10
2.060936863246582
 20
6.408963683474688
 30
0.0
 41
1.0
 10
2.114717552193332
 20
6.408151446804649
 30
0.0
 41
0.9999725491976074
 10
2.168480299706403
 20
6.406542343999232
 30
0.0
 41
1.0
 10
2.220148129342788
 20
6.404993749215105
 30
0.0
 41
0.9999746213684672
 10
2.271788649052269
 20
6.402709129056412
 30
0.0
 41
1.0
 10
2.320281051133092
 20
6.400563225207216
 30
0.0
 41
0.999978136320884
 10
2.368740832853632
 20
6.397776198387124
 30
0.0
 41
1.0
 10
2.412991055976617
 20
6.395230683559991
 30
0.0
 41
0.9999818869363485
 10
2.45720743183125
 20
6.392152697455639
 30
0.0
 41
1.0
 10
2.496171410836904
 20
6.389439975790995
 30
0.0
 41
0.9999860346607979
 10
2.535104540590225
 20
6.386315567622776
 30
0.0
 41
1.0
 10
2.567781099880158
 20
6.38369383175735
 30
0.0
 41
0.9999896592160917
 10
2.600432462148376
 20
6.380775001852589
 30
0.0
 41
1.0
  0
SPLINE
  5
4C
330
1F
100
AcDbEntity
  8
Default
100
AcDbSpline
210
0.0
220
0.0
230
1.0
 70
    24
 71
     2
 72
     6
 73
     3
 74
     0
 42
0.0000000001
 43
0.0000000001
 40
0.0
 40
0.0
 40
0.0
 40
12.55982116868081
 40
12.55982116868081
 40
12.55982116868081
 10
-8.487560303642795
 20
12.6511055280817
 30
0.0
 10
-9.364191168018579
 20
6.432681670307579
 30
0.0
 10
-10.24082203239442
 20
0.2142578125334618
 30
0.0
  0
SPLINE
  5
4D
330
1F
100
AcDbEntity
  8
Default
100
AcDbSpline
210
0.0
220
0.0
230
1.0
 70
    12
 71
     2
 72
     8
 73
     5
 74
     0
 42
0.0000000001
 43
0.0000000001
 40
-0.3216793721171242
 40
-0.3216793721171242
 40
-0.3216793721171242
 40
-0.1608396860585621
 40
-0.1608396860585621
 40
0.0
 40
0.0
 40
0.0
 10
-10.24082203239442
 20
0.2142578125334618
 30
0.0
 41
1.0
 10
-10.25278934668928
 20
0.1293846271913562
 30
0.0
 41
0.9098951334489137
 10
-10.19656536993068
 20
0.0646888882358797
 30
0.0
 41
1.0
 10
-10.14034139317211
 20
-0.0000068507195968
 30
0.0
 41
0.9098951334489137
 10
-10.0546286522918
 20
0.0000090345419741
 30
0.0
 41
1.0
  0
SPLINE
  5
4E
330
1F
100
AcDbEntity
  8
Default
100
AcDbSpline
210
0.0
220
0.0
230
1.0
 70
    24
 71
     2
 72
     6
 73
     3
 74
     0
 42
0.0000000001
 43
0.0000000001
 40
0.0
 40
0.0
 40
0.0
 40
11.96926077877293
 40
11.96926077877293
 40
11.96926077877293
 10
-9.11226508375671
 20
0.154067336916218
 30
0.0
 10
-8.027485866534732
 20
6.039562638711237
 30
0.0
 10
-6.942706649312754
 20
11.92505794050625
 30
0.0
  0
SPLINE
  5
4F
330
1F
100
AcDbEntity
  8
Default
100
AcDbSpline
210
0.0
220
0.0
230
1.0
 70
    24
 71
     2
 72
     6
 73
     3
 74
     0
 42
0.0000000001
 43
0.0000000001
 40
0.0
 40
0.0
 40
0.0
 40
0.387988006853346
 40
0.387988006853346
 40
0.387988006853346
 10
-6.836875881615981
 20
6.375624060320887
 30
0.0
 10
-6.808547195142978
 20
6.567538517536136
 30
0.0
 10
-6.780218508669975
 20
6.759452974751383
 30
0.0
  0
SPLINE
  5
50
330
1F
100
AcDbEntity
  8
Default
100
AcDbSpline
210
0.0
220
0.0
230
1.0
 70
    12
 71
     2
 72
     6
 73
     3
 74
     0
 42
0.0000000001
 43
0.0000000001
 40
0.0
 40
0.0
 40
0.0
 40
0.4002222356920559
 40
0.4002222356920559
 40
0.4002222356920559
 10
-6.912474192795059
 20
6.368829693226644
 30
0.0
 41
1.0
 10
-6.884495198629547
 20
6.566975183658066
 30
0.0
 41
0.9999999998631137
 10
-6.8565227615411
 20
6.765121599866508
 30
0.0
 41
1.0
  0
SPLINE
  5
51
330
1F
100
AcDbEntity
  8
Default
100
AcDbSpline
210
0.0
220
0.0
230
1.0
 70
    12
 71
     2
 72
     6
 73
     3
 74
     0
 42
0.0000000001
 43
0.0000000001
 40
-0.2610031414318769
 40
-0.2610031414318769
 40
-0.2610031414318769
 40
0.0
 40
0.0
 40
0.0
 10
-9.297115073481962
 20
0.0001495586675658
 30
0.0
 41
1.0
 10
-9.140633395257456
 20
0.0001785609652241
 30
0.0
 41
0.7685930823651149
 10
-9.11226508375671
 20
0.154067336916218
 30
0.0
 41
1.0
  0
SPLINE
  5
52
330
1F
100
AcDbEntity
  8
Default - Tangent
100
AcDbSpline
210
0.0
220
0.0
230
1.0
 70
    24
 71
     2
 72
     6
 73
     3
 74
     0
 42
0.0000000001
 43
0.0000000001
 40
0.0
 40
0.0
 40
0.0
 40
0.0158596048860038
 40
0.0158596048860038
 40
0.0158596048860038
 10
-7.165057719744027
 20
7.162739827827013
 30
0.0
 10
-7.172965730151816
 20
7.16332731244425
 30
0.0
 10
-7.180873740559605
 20
7.163914797061486
 30
0.0
  0
SPLINE
  5
53
330
1F
100
AcDbEntity
  8
Default
100
AcDbSpline
210
0.0
220
0.0
230
1.0
 70
    24
 71
     2
 72
     6
 73
     3
 74
     0
 42
0.0000000001
 43
0.0000000001
 40
0.0
 40
0.0
 40
0.0
 40
3.647625187282489
 40
3.647625187282489
 40
3.647625187282489
 10
-6.725411471650261
 20
7.130746672792809
 30
0.0
 10
-6.459082542724104
 20
8.935008648876503
 30
0.0
 10
-6.19275361379789
 20
10.7392706249602
 30
0.0
  0
SPLINE
  5
54
330
1F
100
AcDbEntity
  8
Default
100
AcDbSpline
210
0.0
220
0.0
230
1.0
 70
     8
 71
     3
 72
    11
 73
     7
 74
     0
 42
0.0000000001
 43
0.0000000001
 40
0.0
 40
0.0
 40
0.0
 40
0.0
 40
1.0
 40
2.0
 40
3.0
 40
4.0
 40
4.0
 40
4.0
 40
4.0
 10
-6.942706649312754
 20
11.92505794050625
 30
0.0
 10
-7.010111404630834
 20
12.05480499090373
 30
0.0
 10
-7.279914319062073
 20
12.19734381505383
 30
0.0
 10
-7.66695711107468
 20
12.40301287966177
 30
0.0
 10
-8.068635319913824
 20
12.56691120270672
 30
0.0
 10
-8.355343832503593
 20
12.69523892576263
 30
0.0
 10
-8.487560303642795
 20
12.6511055280817
 30
0.0
  0
SPLINE
  5
55
330
1F
100
AcDbEntity
  8
Default
100
AcDbSpline
210
0.0
220
0.0
230
1.0
 70
    12
 71
     2
 72
     6
 73
     3
 74
     0
 42
0.0000000001
 43
0.0000000001
 40
0.0
 40
0.0
 40
0.0
 40
0.757513591920224
 40
0.757513591920224
 40
0.757513591920224
 10
-10.0546286522918
 20
0.0000090345419741
 30
0.0
 41
1.0
 10
-9.675871864613905
 20
0.0000886064020861
 30
0.0
 41
0.9999999996979148
 10
-9.297115073481962
 20
0.0001495586675658
 30
0.0
 41
1.0
  0
SPLINE
  5
56
330
1F
100
AcDbEntity
  8
Default - Tangent
100
AcDbSpline
210
0.0
220
0.0
230
1.0
 70
    24
 71
     2
 72
     6
 73
     3
 74
     0
 42
0.0000000001
 43
0.0000000001
 40
0.0
 40
0.0
 40
0.0
 40
4.59447787015285
 40
4.59447787015285
 40
4.59447787015285
 10
-2.600432462148319
 20
6.380775001852589
 30
0.0
 10
-4.888449321121072
 20
6.17514042818501
 30
0.0
 10
-7.176466180093826
 20
5.969505854517431
 30
0.0
  0
SPLINE
  5
57
330
1F
100
AcDbEntity
  8
Default - Tangent
100
AcDbSpline
210
0.0
220
0.0
230
1.0
 70
     8
 71
     3
 72
    12
 73
     8
 74
     0
 42
0.0000000001
 43
0.0000000001
 40
-0.5143832258818922
 40
-0.5143832258818922
 40
-0.5143832258818922
 40
-0.5143832258818922
 40
-0.4040865554038572
 40
-0.2722064057398136
 40
-0.1269457878060257
 40
-0.0584839501974893
 40
0.0
 40
0.0
 40
0.0
 40
0.0
 10
-7.176466180093826
 20
5.969505854517431
 30
0.0
 10
-7.215341650417372
 20
5.969568753587255
 30
0.0
 10
-7.281466710710447
 20
6.030514917562109
 30
0.0
 10
-7.284898341375367
 20
6.1661142736428
 30
0.0
 10
-7.23687845620691
 20
6.27289606049171
 30
0.0
 10
-7.167733424099765
 20
6.335048150103057
 30
0.0
 10
-7.127162589872796
 20
6.349060706013304
 30
0.0
 10
-7.107713820984259
 20
6.351266140690463
 30
0.0
  0
SPLINE
  5
58
330
1F
100
AcDbEntity
  8
Default
100
AcDbSpline
210
0.0
220
0.0
230
1.0
 70
    12
 71
     2
 72
     6
 73
     3
 74
     0
 42
0.0000000001
 43
0.0000000001
 40
0.0
 40
0.0
 40
0.0
 40
1.26205715921452
 40
1.26205715921452
 40
1.26205715921452
 10
-7.221212723996075
 20
6.792214332004733
 30
0.0
 41
1.0
 10
-7.309035882221878
 20
6.167327013116567
 30
0.0
 41
0.9999999997230192
 10
-7.396900119977317
 20
5.542360861621122
 30
0.0
 41
1.0
  0
SPLINE
  5
59
330
1F
100
AcDbEntity
  8
Default - Tangent
100
AcDbSpline
210
0.0
220
0.0
230
1.0
 70
    12
 71
     2
 72
    18
 73
    15
 74
     0
 42
0.0000000001
 43
0.0000000001
 40
-0.6498325998099508
 40
-0.6498325998099508
 40
-0.6498325998099508
 40
-0.5403545249793968
 40
-0.5403545249793968
 40
-0.4327828494438037
 40
-0.4327828494438037
 40
-0.329402535053353
 40
-0.329402535053353
 40
-0.2323242310219129
 40
-0.2323242310219129
 40
-0.1436785442332995
 40
-0.1436785442332995
 40
-0.0655626786909288
 40
-0.0655626786909288
 40
0.0
 40
0.0
 40
0.0
 10
-1.951462879158669
 20
6.409777512516227
 30
0.0
 41
1.0
 10
-2.006202981192179
 20
6.409788945007642
 30
0.0
 41
0.9999707946466081
 10
-2.060936863246525
 20
6.408963683474688
 30
0.0
 41
1.0
 10
-2.11471755219327
 20
6.408151446804649
 30
0.0
 41
0.9999725491976074
 10
-2.168480299706346
 20
6.406542343999232
 30
0.0
 41
1.0
 10
-2.220148129342706
 20
6.404993749215105
 30
0.0
 41
0.9999746213684672
 10
-2.271788649052212
 20
6.402709129056412
 30
0.0
 41
1.0
 10
-2.320281051133019
 20
6.400563225207216
 30
0.0
 41
0.999978136320884
 10
-2.368740832853518
 20
6.397776198387124
 30
0.0
 41
1.0
 10
-2.412991055976556
 20
6.395230683559991
 30
0.0
 41
0.9999818869363485
 10
-2.457207431831193
 20
6.392152697455639
 30
0.0
 41
1.0
 10
-2.496171410836885
 20
6.389439975790995
 30
0.0
 41
0.9999860346607979
 10
-2.535104540590112
 20
6.386315567622776
 30
0.0
 41
1.0
 10
-2.567781099880098
 20
6.38369383175735
 30
0.0
 41
0.9999896592160917
 10
-2.600432462148319
 20
6.380775001852589
 30
0.0
 41
1.0
  0
SPLINE
  5
5A
330
1F
100
AcDbEntity
  8
Default - Tangent
100
AcDbSpline
210
0.0
220
0.0
230
1.0
 70
     8
 71
     2
 72
     6
 73
     3
 74
     0
 42
0.0000000001
 43
0.0000000001
 40
0.0
 40
0.0
 40
0.0
 40
2.645173735971417
 40
2.645173735971417
 40
2.645173735971417
 10
-7.107713820984259
 20
6.351266140690463
 30
0.0
 10
-5.790436935953664
 20
6.469672329946428
 30
0.0
 10
-4.473159483790596
 20
6.588062098892065
 30
0.0
  0
SPLINE
  5
5B
330
1F
100
AcDbEntity
  8
Default
100
AcDbSpline
210
0.0
220
0.0
230
1.0
 70
    12
 71
     2
 72
     6
 73
     3
 74
     0
 42
0.0000000001
 43
0.0000000001
 40
0.0
 40
0.0
 40
0.0
 40
0.3778268243756051
 40
0.3778268243756051
 40
0.3778268243756051
 10
7.019044156084419
 20
5.614290701413776
 30
0.0
 41
1.0
 10
6.992618097691583
 20
5.801346684342113
 30
0.0
 41
0.9999999998517104
 10
6.966198482072627
 20
5.988403577350623
 30
0.0
 41
1.0
  0
SPLINE
  5
5C
330
1F
100
AcDbEntity
  8
Default
100
AcDbSpline
210
0.0
220
0.0
230
1.0
 70
    12
 71
     2
 72
     6
 73
     3
 74
     0
 42
0.0000000001
 43
0.0000000001
 40
0.0
 40
0.0
 40
0.0
 40
1.5565317031037
 40
1.5565317031037
 40
1.5565317031037
 10
6.526393094243531
 20
10.88259040844969
 30
0.0
 41
1.0
 10
6.620793807172284
 20
10.11007099671018
 30
0.0
 41
0.9999999994751744
 10
6.715144463240392
 20
9.33754546974402
 30
0.0
 41
1.0
  0
SPLINE
  5
5D
330
1F
100
AcDbEntity
  8
Default
100
AcDbSpline
210
0.0
220
0.0
230
1.0
 70
     8
 71
     3
 72
    11
 73
     7
 74
     0
 42
0.0000000001
 43
0.0000000001
 40
0.0
 40
0.0
 40
0.0
 40
0.0
 40
1.0
 40
2.0
 40
3.0
 40
4.0
 40
4.0
 40
4.0
 40
4.0
 10
6.942706649312811
 20
11.92505794050625
 30
0.0
 10
7.010111404630891
 20
12.05480499090373
 30
0.0
 10
7.279914319062129
 20
12.19734381505383
 30
0.0
 10
7.666957111074737
 20
12.40301287966177
 30
0.0
 10
8.06863531991388
 20
12.56691120270672
 30
0.0
 10
8.35534383250365
 20
12.69523892576263
 30
0.0
 10
8.487560303642852
 20
12.6511055280817
 30
0.0
  0
SPLINE
  5
5E
330
1F
100
AcDbEntity
  8
Default
100
AcDbSpline
210
0.0
220
0.0
230
1.0
 70
     8
 71
     3
 72
    13
 73
     9
 74
     0
 42
0.0000000001
 43
0.0000000001
 40
0.0
 40
0.0
 40
0.0
 40
0.0
 40
0.0659403231465319
 40
0.1339151955238136
 40
0.2573848639912312
 40
0.3771184892071823
 40
0.5081105643064359
 40
0.6902159716558347
 40
0.6902159716558347
 40
0.6902159716558347
 40
0.6902159716558347
 10
7.396900119977374
 20
5.542360861621122
 30
0.0
 10
7.400149043035697
 20
5.520712535491276
 30
0.0
 10
7.400254000717609
 20
5.47495934546817
 30
0.0
 10
7.371125884080641
 20
5.393871194654018
 30
0.0
 10
7.287963999136878
 20
5.319056874779339
 30
0.0
 10
7.151588381142517
 20
5.335884969644897
 30
0.0
 10
7.0586844924552
 20
5.454145705051813
 30
0.0
 10
7.027434284619915
 20
5.553626753614765
 30
0.0
 10
7.019044156084419
 20
5.614290701413776
 30
0.0
  0
SPLINE
  5
5F
330
1F
100
AcDbEntity
  8
Default
100
AcDbSpline
210
0.0
220
0.0
230
1.0
 70
     8
 71
     3
 72
    13
 73
     9
 74
     0
 42
0.0000000001
 43
0.0000000001
 40
0.0
 40
0.0
 40
0.0
 40
0.0
 40
0.0527988964564631
 40
0.0914000315304187
 40
0.1600512542202194
 40
0.2540278845990126
 40
0.3796332324843674
 40
0.6416550723218502
 40
0.6416550723218502
 40
0.6416550723218502
 40
0.6416550723218502
 10
6.790981185402813
 20
7.229455398617631
 30
0.0
 10
6.788549628010117
 20
7.245534649171679
 30
0.0
 10
6.785241380219247
 20
7.279616711553726
 30
0.0
 10
6.788564008257424
 20
7.327474120776842
 30
0.0
 10
6.812274046748655
 20
7.401489501875727
 30
0.0
 10
6.915517210597784
 20
7.421857085932874
 30
0.0
 10
7.063864577562981
 20
7.356767842950066
 30
0.0
 10
7.154625185027498
 20
7.252894410137452
 30
0.0
 10
7.168825650843928
 20
7.164451609521173
 30
0.0
  0
SPLINE
  5
60
330
1F
100
AcDbEntity
  8
Default
100
AcDbSpline
210
0.0
220
0.0
230
1.0
 70
    12
 71
     2
 72
     8
 73
     5
 74
     0
 42
0.0000000001
 43
0.0000000001
 40
-0.3216793721171242
 40
-0.3216793721171242
 40
-0.3216793721171242
 40
-0.1608396860585621
 40
-0.1608396860585621
 40
0.0
 40
0.0
 40
0.0
 10
10.24082203239448
 20
0.2142578125334618
 30
0.0
 41
1.0
 10
10.25278934668932
 20
0.1293846271913562
 30
0.0
 41
0.9098951334489137
 10
10.19656536993074
 20
0.0646888882358797
 30
0.0
 41
1.0
 10
10.14034139317214
 20
-0.0000068507195968
 30
0.0
 41
0.9098951334489137
 10
10.05462865229191
 20
0.0000090345419741
 30
0.0
 41
1.0
  0
SPLINE
  5
61
330
1F
100
AcDbEntity
  8
Default
100
AcDbSpline
210
0.0
220
0.0
230
1.0
 70
    12
 71
     2
 72
     6
 73
     3
 74
     0
 42
0.0000000001
 43
0.0000000001
 40
-0.2707325155269124
 40
-0.2707325155269124
 40
-0.2707325155269124
 40
0.0
 40
0.0
 40
0.0
 10
48.97272541300987
 20
0.0000564493420223
 30
0.0
 41
1.0
 10
48.80852956429094
 20
-0.0093331421432359
 30
0.0
 41
0.7545666710984448
 10
48.77636283458497
 20
0.1522307843721825
 30
0.0
 41
1.0
  0
SPLINE
  5
62
330
1F
100
AcDbEntity
  8
Default
100
AcDbSpline
210
0.0
220
0.0
230
1.0
 70
    24
 71
     2
 72
     6
 73
     3
 74
     0
 42
0.0000000001
 43
0.0000000001
 40
0.0
 40
0.0
 40
0.0
 40
5.213253124058671
 40
5.213253124058671
 40
5.213253124058671
 10
-7.8114940189256
 20
7.211431516864348
 30
0.0
 10
-5.212030770519846
 20
7.018317938717375
 30
0.0
 10
-2.612567522114091
 20
6.825204360570401
 30
0.0
  0
ARC
  5
63
330
1F
100
AcDbEntity
  8
Default
100
AcDbCircle
 10
-6.916464616536189
 20
9.362332688285816
 30
0.0
 40
0.2028403567491482
100
AcDbArc
 50
257.7166040932474
 51
352.9808759773761
  0
SPLINE
  5
64
330
1F
100
AcDbEntity
  8
Default
100
AcDbSpline
210
0.0
220
0.0
230
1.0
 70
     8
 71
     3
 72
    89
 73
    85
 74
     0
 42
0.0000000001
 43
0.0000000001
 40
0.0
 40
0.0
 40
0.0
 40
0.0
 40
1.0
 40
2.0
 40
3.0
 40
4.0
 40
5.0
 40
6.0
 40
7.0
 40
8.0
 40
9.0
 40
10.0
 40
11.0
 40
12.0
 40
13.0
 40
14.0
 40
15.0
 40
16.0
 40
17.0
 40
18.0
 40
19.0
 40
20.0
 40
21.0
 40
22.0
 40
23.0
 40
24.0
 40
25.0
 40
26.0
 40
27.0
 40
28.0
 40
29.0
 40
30.0
 40
31.0
 40
32.0
 40
33.0
 40
34.0
 40
35.0
 40
36.0
 40
37.0
 40
38.0
 40
39.0
 40
40.0
 40
41.0
 40
42.0
 40
43.0
 40
44.0
 40
45.0
 40
46.0
 40
47.0
 40
48.0
 40
49.0
 40
50.0
 40
51.0
 40
52.0
 40
53.0
 40
54.0
 40
55.0
 40
56.0
 40
57.0
 40
58.0
 40
59.0
 40
60.0
 40
61.0
 40
62.0
 40
63.0
 40
64.0
 40
65.0
 40
66.0
 40
67.0
 40
68.0
 40
69.0
 40
70.0
 40
71.0
 40
72.0
 40
73.0
 40
74.0
 40
75.0
 40
76.0
 40
77.0
 40
78.0
 40
79.0
 40
80.0
 40
81.0
 40
82.0
 40
82.0
 40
82.0
 40
82.0
 10
48.2661060056173
 20
10.9649821216838
 30
0.0
 10
48.51326308488234
 20
11.02445589619064
 30
0.0
 10
49.00702649210911
 20
11.14568022991556
 30
0.0
 10
49.74583756805305
 20
11.33489969861403
 30
0.0
 10
50.48288444350334
 20
11.53063953021546
 30
0.0
 10
51.21812619403545
 20
11.73392312533935
 30
0.0
 10
51.95138620623118
 20
11.94102059221997
 30
0.0
 10
52.68304298417036
 20
12.1657264591789
 30
0.0
 10
53.41138060741827
 20
12.35648437099024
 30
0.0
 10
54.14252442948225
 20
12.70561885898357
 30
0.0
 10
54.08573529778181
 20
13.67556878697679
 30
0.0
 10
53.25178277359947
 20
13.79719431884255
 30
0.0
 10
52.64450370674138
 20
14.25930877358945
 30
0.0
 10
51.98794460489205
 20
14.64936366344531
 30
0.0
 10
51.37852924347237
 20
15.11046216374852
 30
0.0
 10
50.83132162131795
 20
15.64285456399926
 30
0.0
 10
50.2458156960837
 20
16.13185177733169
 30
0.0
 10
49.6677145217451
 20
16.62927331787386
 30
0.0
 10
49.06692941424609
 20
17.09937521297067
 30
0.0
 10
48.45263064439069
 20
17.55142336304345
 30
0.0
 10
47.82382701212236
 20
17.98307923638818
 30
0.0
 10
47.19100618606615
 20
18.40868420193761
 30
0.0
 10
46.54761044261454
 20
18.8184325396344
 30
0.0
 10
45.88496497730756
 20
19.19642752484119
 30
0.0
 10
45.19955269496995
 20
19.53230264430747
 30
0.0
 10
44.48912295972548
 20
19.81047105602489
 30
0.0
 10
43.77217378197918
 20
20.07072359921636
 30
0.0
 10
43.04211651762546
 20
20.29224265133073
 30
0.0
 10
42.30025628736831
 20
20.47127447918652
 30
0.0
 10
41.5474872868906
 20
20.59491754496578
 30
0.0
 10
40.79337256194748
 20
20.70857221259507
 30
0.0
 10
40.03616286301337
 20
20.80014217020548
 30
0.0
 10
39.27732150545899
 20
20.87620856979527
 30
0.0
 10
38.5177953874238
 20
20.94511827037324
 30
0.0
 10
37.75772800513994
 20
21.00765489458771
 30
0.0
 10
36.99731916887242
 20
21.06609248344764
 30
0.0
 10
36.23740684211748
 20
21.12995054761116
 30
0.0
 10
35.47781688497685
 20
21.20023478363148
 30
0.0
 10
34.72454246306819
 20
21.32258358173302
 30
0.0
 10
33.98776715454431
 20
21.53091209186954
 30
0.0
 10
33.30890264428405
 20
21.88565242009313
 30
0.0
 10
32.69821683863773
 20
22.34582881675466
 30
0.0
 10
32.14834481817866
 20
22.87536081635506
 30
0.0
 10
31.62069200846821
 20
23.4258524346904
 30
0.0
 10
31.11418596879469
 20
23.99652663612295
 30
0.0
 10
30.650687947037
 20
24.60274307521035
 30
0.0
 10
30.22157062768343
 20
25.23338357091746
 30
0.0
 10
29.81478714798578
 20
25.87854945342937
 30
0.0
 10
29.4178959772521
 20
26.52978680596375
 30
0.0
 10
29.0342753742529
 20
27.18899321366822
 30
0.0
 10
28.64951525178253
 20
27.84724869982641
 30
0.0
 10
28.25682280815687
 20
28.50178859763385
 30
0.0
 10
27.77917209506109
 20
29.09975762446372
 30
0.0
 10
27.16402713558017
 20
29.56834734389234
 30
0.0
 10
26.42482676301256
 20
29.79755983692642
 30
0.0
 10
25.662097899179
 20
29.76122532641374
 30
0.0
 10
24.88171831606502
 20
29.85557956199565
 30
0.0
 10
24.19829344706648
 20
29.34847935209608
 30
0.0
 10
24.55206882422181
 20
28.53803286813381
 30
0.0
 10
24.71902577114776
 20
27.82430982386854
 30
0.0
 10
24.93968019776986
 20
27.08569712174967
 30
0.0
 10
25.1495802463557
 20
26.35480116085285
 30
0.0
 10
25.36599285840998
 20
25.62289534735654
 30
0.0
 10
25.58428625938018
 20
24.89233419054283
 30
0.0
 10
25.80569857903026
 20
24.16250100232336
 30
0.0
 10
26.02988974814417
 20
23.43357257175381
 30
0.0
 10
26.25696269626633
 20
22.70552184369335
 30
0.0
 10
26.48682426478808
 20
21.97835024295021
 30
0.0
 10
26.71972304146072
 20
21.25214681646632
 30
0.0
 10
26.95473698348314
 20
20.52661987768386
 30
0.0
 10
27.19571332840502
 20
19.80304884096568
 30
0.0
 10
27.44472204319447
 20
19.0821956326403
 30
0.0
 10
27.70237085134789
 20
18.3643859046804
 30
0.0
 10
27.97023983630839
 20
17.65030947859512
 30
0.0
 10
28.25327372383663
 20
16.94207912246259
 30
0.0
 10
28.55604046798732
 20
16.24201448036951
 30
0.0
 10
28.88299790014094
 20
15.55286963960226
 30
0.0
 10
29.23825139408547
 20
14.87781403535858
 30
0.0
 10
29.62535640140987
 20
14.220444654608
 30
0.0
 10
30.04706559828713
 20
13.58464533691033
 30
0.0
 10
30.50661393843643
 20
12.97551930003659
 30
0.0
 10
31.00696627314727
 20
12.39929273444422
 30
0.0
 10
31.55038836003916
 20
11.86332877351342
 30
0.0
 10
31.94130801028848
 20
11.53751202980859
 30
0.0
 10
32.14373610652081
 20
11.38372819124809
 30
0.0
  0
SPLINE
  5
65
330
1F
100
AcDbEntity
  8
Default
100
AcDbSpline
210
0.0
220
0.0
230
1.0
 70
    12
 71
     2
 72
     6
 73
     3
 74
     0
 42
0.0000000001
 43
0.0000000001
 40
-0.6438897882869967
 40
-0.6438897882869967
 40
-0.6438897882869967
 40
0.0
 40
0.0
 40
0.0
 10
1.951446883447431
 20
6.800617553810579
 30
0.0
 41
1.0
 10
2.291368948037768
 20
6.801342586039203
 30
0.0
 41
0.9993536933267371
 10
2.612567522114205
 20
6.825204360570401
 30
0.0
 41
1.0
  0
POLYLINE
  5
66
330
1F
100
AcDbEntity
  8
Default
100
AcDb2dPolyline
 66
     1
 10
0.0
 20
0.0
 30
0.0
  0
VERTEX
  5
67
330
66
100
AcDbEntity
  8
Default
100
AcDbVertex
100
AcDb2dVertex
 10
29.17994077955876
 20
0.0000367665145418
 30
0.0
  0
VERTEX
  5
68
330
66
100
AcDbEntity
  8
Default
100
AcDbVertex
100
AcDb2dVertex
 10
28.43601727834869
 20
0.0000367665145418
 30
0.0
  0
SEQEND
  5
69
330
66
100
AcDbEntity
  8
Default
  0
SPLINE
  5
6A
330
1F
100
AcDbEntity
  8
Default
100
AcDbSpline
210
0.0
220
0.0
230
1.0
 70
     8
 71
     3
 72
     8
 73
     4
 74
     0
 42
0.0000000001
 43
0.0000000001
 40
-1.0
 40
-1.0
 40
-1.0
 40
-1.0
 40
0.0
 40
0.0
 40
0.0
 40
0.0
 10
7.060891519751237
 20
11.2838431304644
 30
0.0
 10
7.028977680588071
 20
11.2052243438398
 30
0.0
 10
7.007080339652134
 20
11.10539139887994
 30
0.0
 10
6.926716801985549
 20
11.06665917739507
 30
0.0
  0
SPLINE
  5
6B
330
1F
100
AcDbEntity
  8
Default
100
AcDbSpline
210
0.0
220
0.0
230
1.0
 70
    12
 71
     2
 72
     6
 73
     3
 74
     0
 42
0.0000000001
 43
0.0000000001
 40
0.0
 40
0.0
 40
0.0
 40
1.5565317031037
 40
1.5565317031037
 40
1.5565317031037
 10
-6.526393094243474
 20
10.88259040844969
 30
0.0
 41
1.0
 10
-6.620793807172174
 20
10.11007099671018
 30
0.0
 41
0.9999999994751744
 10
-6.715144463240335
 20
9.33754546974402
 30
0.0
 41
1.0
  0
SPLINE
  5
6C
330
1F
100
AcDbEntity
  8
Default
100
AcDbSpline
210
0.0
220
0.0
230
1.0
 70
     8
 71
     2
 72
     6
 73
     3
 74
     0
 42
0.0000000001
 43
0.0000000001
 40
-13.47192895172027
 40
-13.47192895172027
 40
-13.47192895172027
 40
0.0
 40
0.0
 40
0.0
 10
28.21291052033968
 20
0.2506702883927218
 30
0.0
 10
30.45554158746205
 20
6.602349067804287
 30
0.0
 10
32.69816234641644
 20
12.95403199273179
 30
0.0
  0
LINE
  5
6D
330
1F
100
AcDbEntity
  8
Default
100
AcDbLine
 10
31.66207176346865
 20
5.975147283382157
 30
0.0
 11
39.46186139753735
 21
6.404372643063714
 31
0.0
  0
LINE
  5
6E
330
1F
100
AcDbEntity
  8
Default
100
AcDbLine
 10
47.46670190483019
 20
6.844882029479181
 30
0.0
 11
39.83621106947652
 21
6.424973246428591
 31
0.0
  0
SPLINE
  5
6F
330
1F
100
AcDbEntity
  8
Default
100
AcDbSpline
210
0.0
220
0.0
230
1.0
 70
     8
 71
     3
 72
    14
 73
    10
 74
     0
 42
0.0000000001
 43
0.0000000001
 40
0.0
 40
0.0
 40
0.0
 40
0.0
 40
1.0
 40
2.0
 40
3.0
 40
4.0
 40
5.0
 40
6.0
 40
7.0
 40
7.0
 40
7.0
 40
7.0
 10
53.29693065743055
 20
13.85056946788274
 30
0.0
 10
53.3747373432592
 20
14.05282196903395
 30
0.0
 10
53.50360063216988
 20
14.47927865792471
 30
0.0
 10
53.38802523210506
 20
15.13981798329047
 30
0.0
 10
53.01346091159735
 20
15.69480230635042
 30
0.0
 10
52.42623493670811
 20
16.02242716186929
 30
0.0
 10
51.7674883676799
 20
16.07721767675627
 30
0.0
 10
51.11598324595116
 20
16.0276445899774
 30
0.0
 10
50.68326013313902
 20
15.97390093717321
 30
0.0
 10
50.46813555865242
 20
15.93932587293011
 30
0.0
  0
LINE
  5
70
330
1F
100
AcDbEntity
  8
Default
100
AcDbLine
 10
39.44125927509202
 20
6.778724374675464
 30
0.0
 11
31.81403861136818
 21
6.358995550397954
 31
0.0
  0
LINE
  5
71
330
1F
100
AcDbEntity
  8
Default
100
AcDbLine
 10
39.81561243283386
 20
6.799325169863016
 30
0.0
 11
47.39400732437963
 21
7.216367093522328
 31
0.0
  0
SPLINE
  5
72
330
1F
100
AcDbEntity
  8
Default
100
AcDbSpline
210
0.0
220
0.0
230
1.0
 70
    24
 71
     2
 72
     6
 73
     3
 74
     0
 42
0.0000000001
 43
0.0000000001
 40
-5.213253124058671
 40
-5.213253124058671
 40
-5.213253124058671
 40
0.0
 40
0.0
 40
0.0
 10
2.612567522114205
 20
6.825204360570401
 30
0.0
 10
5.212030770519959
 20
7.018317938717375
 30
0.0
 10
7.811494018925657
 20
7.211431516864348
 30
0.0
  0
SPLINE
  5
73
330
1F
100
AcDbEntity
  8
Default
100
AcDbSpline
210
0.0
220
0.0
230
1.0
 70
     8
 71
     3
 72
    12
 73
     8
 74
     0
 42
0.0000000001
 43
0.0000000001
 40
0.0
 40
0.0
 40
0.0
 40
0.0
 40
1.0
 40
2.0
 40
3.0
 40
4.0
 40
5.0
 40
5.0
 40
5.0
 40
5.0
 10
8.542835924405324
 20
15.37318761552088
 30
0.0
 10
8.064876433265397
 20
15.72294995068247
 30
0.0
 10
6.912256224381281
 20
15.91152246182107
 30
0.0
 10
5.187456849912564
 20
15.97829216880462
 30
0.0
 10
3.458491254741318
 20
16.04428669480031
 30
0.0
 10
1.729345735805282
 20
16.06040884094098
 30
0.0
 10
0.5764323879099038
 20
16.06039611453338
 30
0.0
 10
0.0000000000000568
 20
16.05935594400294
 30
0.0
  0
SPLINE
  5
74
330
1F
100
AcDbEntity
  8
Default
100
AcDbSpline
210
0.0
220
0.0
230
1.0
 70
     8
 71
     3
 72
    12
 73
     8
 74
     0
 42
0.0000000001
 43
0.0000000001
 40
-5.0
 40
-5.0
 40
-5.0
 40
-5.0
 40
-4.0
 40
-3.0
 40
-2.0
 40
-1.0
 40
0.0
 40
0.0
 40
0.0
 40
0.0
 10
0.0000000000000568
 20
16.05935594400294
 30
0.0
 10
-0.576432387909847
 20
16.06039611453338
 30
0.0
 10
-1.729345735805225
 20
16.06040884094098
 30
0.0
 10
-3.458491254741261
 20
16.04428669480031
 30
0.0
 10
-5.187456849912508
 20
15.97829216880462
 30
0.0
 10
-6.912256224381224
 20
15.91152246182107
 30
0.0
 10
-8.06487643326534
 20
15.72294995068247
 30
0.0
 10
-8.542835924405267
 20
15.37318761552088
 30
0.0
  0
SPLINE
  5
75
330
1F
100
AcDbEntity
  8
Default
100
AcDbSpline
210
0.0
220
0.0
230
1.0
 70
     8
 71
     3
 72
    13
 73
     9
 74
     0
 42
0.0000000001
 43
0.0000000001
 40
0.0
 40
0.0
 40
0.0
 40
0.0
 40
1.0
 40
2.0
 40
3.0
 40
4.0
 40
5.0
 40
6.0
 40
6.0
 40
6.0
 40
6.0
 10
14.8400302263845
 20
19.12813319036653
 30
0.0
 10
14.23670429918837
 20
18.3967311991393
 30
0.0
 10
12.99494645363598
 20
16.95654285553644
 30
0.0
 10
10.84942842324699
 20
15.08084688352674
 30
0.0
 10
8.446139612511217
 20
13.51672314050488
 30
0.0
 10
5.684520554540313
 20
12.73058815857673
 30
0.0
 10
2.845832940971945
 20
12.47139764321346
 30
0.0
 10
0.9487175012801004
 20
12.43287749257664
 30
0.0
 10
0.0000000000000568
 20
12.43381533452966
 30
0.0
  0
SPLINE
  5
76
330
1F
100
AcDbEntity
  8
Default
100
AcDbSpline
210
0.0
220
0.0
230
1.0
 70
     8
 71
     3
 72
    13
 73
     9
 74
     0
 42
0.0000000001
 43
0.0000000001
 40
-6.0
 40
-6.0
 40
-6.0
 40
-6.0
 40
-5.0
 40
-4.0
 40
-3.0
 40
-2.0
 40
-1.0
 40
0.0
 40
0.0
 40
0.0
 40
0.0
 10
0.0000000000000568
 20
12.43381533452966
 30
0.0
 10
-0.9487175012800435
 20
12.43287749257664
 30
0.0
 10
-2.845832940971889
 20
12.47139764321346
 30
0.0
 10
-5.684520554540256
 20
12.73058815857673
 30
0.0
 10
-8.44613961251116
 20
13.51672314050488
 30
0.0
 10
-10.84942842324693
 20
15.08084688352674
 30
0.0
 10
-12.99494645363592
 20
16.95654285553644
 30
0.0
 10
-14.23670429918826
 20
18.3967311991393
 30
0.0
 10
-14.84003022638444
 20
19.12813319036653
 30
0.0
  0
SPLINE
  5
77
330
1F
100
AcDbEntity
  8
Default
100
AcDbSpline
210
0.0
220
0.0
230
1.0
 70
     8
 71
     3
 72
    13
 73
     9
 74
     0
 42
0.0000000001
 43
0.0000000001
 40
-6.0
 40
-6.0
 40
-6.0
 40
-6.0
 40
-5.0
 40
-4.0
 40
-3.0
 40
-2.0
 40
-1.0
 40
0.0
 40
0.0
 40
0.0
 40
0.0
 10
-10.55640285671467
 20
17.7281215403718
 30
0.0
 10
-10.16725934581973
 20
17.19292290710426
 30
0.0
 10
-9.497553653268596
 20
16.01787045817647
 30
0.0
 10
-7.845544445243036
 20
14.83243322878327
 30
0.0
 10
-5.969020014820956
 20
14.13820297921356
 30
0.0
 10
-3.986042293352739
 20
13.85936029619237
 30
0.0
 10
-1.99361715211154
 20
13.79556617012441
 30
0.0
 10
-0.6644651943259987
 20
13.79252498470432
 30
0.0
 10
0.0000000000000568
 20
13.7934067691719
 30
0.0
  0
SPLINE
  5
78
330
1F
100
AcDbEntity
  8
Default
100
AcDbSpline
210
0.0
220
0.0
230
1.0
 70
     8
 71
     3
 72
    13
 73
     9
 74
     0
 42
0.0000000001
 43
0.0000000001
 40
0.0
 40
0.0
 40
0.0
 40
0.0
 40
1.0
 40
2.0
 40
3.0
 40
4.0
 40
5.0
 40
6.0
 40
6.0
 40
6.0
 40
6.0
 10
0.0000000000000568
 20
13.7934067691719
 30
0.0
 10
0.6644651943260556
 20
13.79252498470432
 30
0.0
 10
1.993617152111597
 20
13.79556617012441
 30
0.0
 10
3.986042293352796
 20
13.85936029619237
 30
0.0
 10
5.969020014821012
 20
14.13820297921356
 30
0.0
 10
7.845544445243092
 20
14.83243322878327
 30
0.0
 10
9.497553653268653
 20
16.01787045817647
 30
0.0
 10
10.16725934581979
 20
17.19292290710426
 30
0.0
 10
10.55640285671478
 20
17.7281215403718
 30
0.0
  0
SPLINE
  5
79
330
1F
100
AcDbEntity
  8
Default
100
AcDbSpline
210
0.0
220
0.0
230
1.0
 70
     8
 71
     3
 72
    12
 73
     8
 74
     0
 42
0.0000000001
 43
0.0000000001
 40
0.0
 40
0.0
 40
0.0
 40
0.0
 40
1.0
 40
2.0
 40
3.0
 40
4.0
 40
5.0
 40
5.0
 40
5.0
 40
5.0
 10
6.926716801985549
 20
11.06665917739507
 30
0.0
 10
6.497705652817217
 20
10.85989183823184
 30
0.0
 10
5.616482482055915
 20
10.49938068827763
 30
0.0
 10
4.26605788583845
 20
10.02961063829981
 30
0.0
 10
2.858934748455056
 20
9.756391634662744
 30
0.0
 10
1.427066862366075
 20
9.753861028314594
 30
0.0
 10
0.4761855852411827
 20
9.75148436719542
 30
0.0
 10
0.0000000000000568
 20
9.75248807770663
 30
0.0
  0
SPLINE
  5
7A
330
1F
100
AcDbEntity
  8
Default
100
AcDbSpline
210
0.0
220
0.0
230
1.0
 70
     8
 71
     3
 72
    12
 73
     8
 74
     0
 42
0.0000000001
 43
0.0000000001
 40
-5.0
 40
-5.0
 40
-5.0
 40
-5.0
 40
-4.0
 40
-3.0
 40
-2.0
 40
-1.0
 40
0.0
 40
0.0
 40
0.0
 40
0.0
 10
0.0000000000000568
 20
9.75248807770663
 30
0.0
 10
-0.4761855852411259
 20
9.75148436719542
 30
0.0
 10
-1.427066862366019
 20
9.753861028314594
 30
0.0
 10
-2.858934748454999
 20
9.756391634662744
 30
0.0
 10
-4.266057885838336
 20
10.02961063829981
 30
0.0
 10
-5.616482482055801
 20
10.49938068827763
 30
0.0
 10
-6.49770565281716
 20
10.85989183823184
 30
0.0
 10
-6.926716801985435
 20
11.06665917739507
 30
0.0
  0
SPLINE
  5
7B
330
1F
100
AcDbEntity
  8
Default
100
AcDbSpline
210
0.0
220
0.0
230
1.0
 70
     8
 71
     3
 72
    10
 73
     6
 74
     0
 42
0.0000000001
 43
0.0000000001
 40
0.0
 40
0.0
 40
0.0
 40
0.0
 40
0.9999996357532034
 40
1.999999817876602
 40
3.0
 40
3.0
 40
3.0
 40
3.0
 10
32.69816234641644
 20
12.95403199273179
 30
0.0
 10
32.78051503731547
 20
13.14216271056203
 30
0.0
 10
33.19716715991581
 20
13.15133613853558
 30
0.0
 10
33.67933887303951
 20
12.89840229969943
 30
0.0
 10
33.93935760997033
 20
12.63287693553652
 30
0.0
 10
34.03480268709785
 20
12.47753754174479
 30
0.0
  0
SPLINE
  5
7C
330
1F
100
AcDbEntity
  8
Default - Tangent
100
AcDbSpline
210
0.0
220
0.0
230
1.0
 70
    24
 71
     2
 72
     6
 73
     3
 74
     0
 42
0.0000000001
 43
0.0000000001
 40
0.0
 40
0.0
 40
0.0
 40
0.0158596048860038
 40
0.0158596048860038
 40
0.0158596048860038
 10
7.165057719744084
 20
7.162739827827013
 30
0.0
 10
7.172965730151873
 20
7.16332731244425
 30
0.0
 10
7.180873740559662
 20
7.163914797061486
 30
0.0
  0
SPLINE
  5
7D
330
1F
100
AcDbEntity
  8
Default
100
AcDbSpline
210
0.0
220
0.0
230
1.0
 70
    12
 71
     2
 72
     6
 73
     3
 74
     0
 42
0.0000000001
 43
0.0000000001
 40
-0.2610031414318769
 40
-0.2610031414318769
 40
-0.2610031414318769
 40
0.0
 40
0.0
 40
0.0
 10
9.297115073482075
 20
0.0001495586675658
 30
0.0
 41
1.0
 10
9.140633395257547
 20
0.0001785609652241
 30
0.0
 41
0.7685930823651149
 10
9.112265083756824
 20
0.154067336916218
 30
0.0
 41
1.0
  0
SPLINE
  5
7E
330
1F
100
AcDbEntity
  8
Default
100
AcDbSpline
210
0.0
220
0.0
230
1.0
 70
    12
 71
     2
 72
     8
 73
     5
 74
     0
 42
0.0000000001
 43
0.0000000001
 40
-0.3258744925669179
 40
-0.3258744925669179
 40
-0.3258744925669179
 40
-0.1629372462834589
 40
-0.1629372462834589
 40
0.0
 40
0.0
 40
0.0
 10
49.90356062011506
 20
0.2162151133958377
 30
0.0
 41
1.0
 10
49.91648721700084
 20
0.1300264522959743
 30
0.0
 41
0.9076172033999765
 10
49.85930577598191
 20
0.064484789491017
 30
0.0
 41
1.0
 10
49.80212433496298
 20
-0.0010568733139404
 30
0.0
 41
0.9076172033999765
 10
49.71515225855597
 20
0.0000765664505792
 30
0.0
 41
1.0
  0
ARC
  5
7F
330
1F
100
AcDbEntity
  8
Default
100
AcDbCircle
 10
39.45155994264059
 20
6.591548487204077
 30
0.0
 40
0.1874591064809801
100
AcDbArc
 50
273.1501662983839
 51
93.14992528586133
  0
ARC
  5
80
330
1F
100
AcDbEntity
  8
Default
100
AcDbCircle
 10
39.82591175138037
 20
6.612149208158195
 30
0.0
 40
0.1874591064809801
100
AcDbArc
 50
93.14951234748129
 51
273.1495122096091
  0
SPLINE
  5
81
330
1F
100
AcDbEntity
  8
Default
100
AcDbSpline
210
0.0
220
0.0
230
1.0
 70
     8
 71
     3
 72
     8
 73
     4
 74
     0
 42
0.0000000001
 43
0.0000000001
 40
0.0
 40
0.0
 40
0.0
 40
0.0
 40
1.0
 40
1.0
 40
1.0
 40
1.0
 10
-6.926716801985435
 20
11.06665917739507
 30
0.0
 10
-7.00708033965202
 20
11.10539139887994
 30
0.0
 10
-7.028977680588014
 20
11.2052243438398
 30
0.0
 10
-7.060891519751181
 20
11.2838431304644
 30
0.0
  0
SPLINE
  5
82
330
1F
100
AcDbEntity
  8
Default
100
AcDbSpline
210
0.0
220
0.0
230
1.0
 70
    12
 71
     2
 72
     6
 73
     3
 74
     0
 42
0.0000000001
 43
0.0000000001
 40
0.0
 40
0.0
 40
0.0
 40
0.6438897882869967
 40
0.6438897882869967
 40
0.6438897882869967
 10
-2.612567522114091
 20
6.825204360570401
 30
0.0
 41
1.0
 10
-2.291368948037746
 20
6.801342586039203
 30
0.0
 41
0.9993536933267371
 10
-1.951446883447375
 20
6.800617553810579
 30
0.0
 41
1.0
  0
SPLINE
  5
83
330
1F
100
AcDbEntity
  8
Default
100
AcDbSpline
210
0.0
220
0.0
230
1.0
 70
     8
 71
     3
 72
    12
 73
     8
 74
     0
 42
0.0000000001
 43
0.0000000001
 40
0.0
 40
0.0
 40
0.0
 40
0.0
 40
1.0
 40
2.0
 40
3.0
 40
4.0
 40
5.0
 40
5.0
 40
5.0
 40
5.0
 10
10.25829184497576
 20
66.72895731490952
 30
0.0
 10
10.01052377854256
 20
67.46707210977577
 30
0.0
 10
8.767855580842195
 20
68.37104746411067
 30
0.0
 10
6.621396007209569
 20
69.00580885167604
 30
0.0
 10
4.450134504971516
 20
69.51320867561982
 30
0.0
 10
2.229171760534143
 20
69.7531104773495
 30
0.0
 10
0.743385919642833
 20
69.80531412235597
 30
0.0
 10
0.0
 20
69.79927563796558
 30
0.0
  0
SPLINE
  5
84
330
1F
100
AcDbEntity
  8
Default
100
AcDbSpline
210
0.0
220
0.0
230
1.0
 70
     8
 71
     3
 72
    12
 73
     8
 74
     0
 42
0.0000000001
 43
0.0000000001
 40
0.0
 40
0.0
 40
0.0
 40
0.0
 40
1.0
 40
2.0
 40
3.0
 40
4.0
 40
5.0
 40
5.0
 40
5.0
 40
5.0
 10
8.827900292593313
 20
45.23292397573724
 30
0.0
 10
9.675978075779199
 20
45.89545268569383
 30
0.0
 10
11.16815206190961
 20
47.4777760119027
 30
0.0
 10
12.6599511708983
 20
50.3700774497477
 30
0.0
 10
13.5003168693882
 20
53.50161545112935
 30
0.0
 10
13.71705409638258
 20
56.7409381808444
 30
0.0
 10
13.35153509079765
 20
58.87727588763276
 30
0.0
 10
13.06493318473252
 20
59.91365529769929
 30
0.0
  0
LINE
  5
85
330
1F
100
AcDbEntity
  8
Default
100
AcDbLine
 10
6.959618341244379
 20
9.164135901303938
 30
0.0
 11
7.433184869546608
 21
9.267246349785571
 31
0.0
  0
SPLINE
  5
86
330
1F
100
AcDbEntity
  8
Default
100
AcDbSpline
210
0.0
220
0.0
230
1.0
 70
    24
 71
     2
 72
     6
 73
     3
 74
     0
 42
0.0000000001
 43
0.0000000001
 40
0.0
 40
0.0
 40
0.0
 40
12.55982116868081
 40
12.55982116868081
 40
12.55982116868081
 10
8.487560303642852
 20
12.6511055280817
 30
0.0
 10
9.364191168018692
 20
6.432681670307579
 30
0.0
 10
10.24082203239448
 20
0.2142578125334618
 30
0.0
  0
SPLINE
  5
87
330
1F
100
AcDbEntity
  8
Default
100
AcDbSpline
210
0.0
220
0.0
230
1.0
 70
    12
 71
     2
 72
     6
 73
     3
 74
     0
 42
0.0000000001
 43
0.0000000001
 40
0.0
 40
0.0
 40
0.0
 40
0.757513591920224
 40
0.757513591920224
 40
0.757513591920224
 10
10.05462865229191
 20
0.0000090345419741
 30
0.0
 41
1.0
 10
9.675871864613987
 20
0.0000886064020861
 30
0.0
 41
0.9999999996979148
 10
9.297115073482075
 20
0.0001495586675658
 30
0.0
 41
1.0
  0
SPLINE
  5
88
330
1F
100
AcDbEntity
  8
Default
100
AcDbSpline
210
0.0
220
0.0
230
1.0
 70
    24
 71
     2
 72
     6
 73
     3
 74
     0
 42
0.0000000001
 43
0.0000000001
 40
0.0
 40
0.0
 40
0.0
 40
11.96926077877293
 40
11.96926077877293
 40
11.96926077877293
 10
9.112265083756824
 20
0.154067336916218
 30
0.0
 10
8.02748586653479
 20
6.039562638711237
 30
0.0
 10
6.942706649312811
 20
11.92505794050625
 30
0.0
  0
SPLINE
  5
89
330
1F
100
AcDbEntity
  8
Default
100
AcDbSpline
210
0.0
220
0.0
230
1.0
 70
    24
 71
     2
 72
     6
 73
     3
 74
     0
 42
0.0000000001
 43
0.0000000001
 40
0.0
 40
0.0
 40
0.0
 40
14.02248916983605
 40
14.02248916983605
 40
14.02248916983605
 10
46.88628337500688
 20
10.02975783858273
 30
0.0
 10
39.88563260888111
 20
9.644479393448858
 30
0.0
 10
32.88498184275534
 20
9.259200948314982
 30
0.0
  0
SPLINE
  5
8A
330
1F
100
AcDbEntity
  8
Default
100
AcDbSpline
210
0.0
220
0.0
230
1.0
 70
    12
 71
     2
 72
     6
 73
     3
 74
     0
 42
0.0000000001
 43
0.0000000001
 40
0.0
 40
0.0
 40
0.0
 40
0.3778268243756051
 40
0.3778268243756051
 40
0.3778268243756051
 10
-7.019044156084306
 20
5.614290701413776
 30
0.0
 41
1.0
 10
-6.992618097691501
 20
5.801346684342113
 30
0.0
 41
0.9999999998517104
 10
-6.966198482072571
 20
5.988403577350623
 30
0.0
 41
1.0
  0
SPLINE
  5
8B
330
1F
100
AcDbEntity
  8
Default - Tangent
100
AcDbSpline
210
0.0
220
0.0
230
1.0
 70
     8
 71
     2
 72
     6
 73
     3
 74
     0
 42
0.0000000001
 43
0.0000000001
 40
0.0
 40
0.0
 40
0.0
 40
2.645173735971417
 40
2.645173735971417
 40
2.645173735971417
 10
7.107713820984316
 20
6.351266140690463
 30
0.0
 10
5.790436935953721
 20
6.469672329946428
 30
0.0
 10
4.473159483790653
 20
6.588062098892065
 30
0.0
  0
LINE
  5
8C
330
1F
100
AcDbEntity
  8
Default
100
AcDbLine
 10
-6.959618341244322
 20
9.164135901303938
 30
0.0
 11
-7.433184869546494
 21
9.267246349785571
 31
0.0
  0
SPLINE
  5
8D
330
1F
100
AcDbEntity
  8
Default
100
AcDbSpline
210
0.0
220
0.0
230
1.0
 70
    12
 71
     2
 72
     6
 73
     3
 74
     0
 42
0.0000000001
 43
0.0000000001
 40
0.0
 40
0.0
 40
0.0
 40
0.0081684778857442
 40
0.0081684778857442
 40
0.0081684778857442
 10
51.93904739949915
 20
16.05656698306375
 30
0.0
 41
1.0
 10
51.93496785257073
 20
16.05676279007014
 30
0.0
 41
0.9999983911753368
 10
51.93088762942716
 20
16.05694396022051
 30
0.0
 41
1.0
  0
SPLINE
  5
8E
330
1F
100
AcDbEntity
  8
Default
100
AcDbSpline
210
0.0
220
0.0
230
1.0
 70
    12
 71
     2
 72
     6
 73
     3
 74
     0
 42
0.0000000001
 43
0.0000000001
 40
0.0
 40
0.0
 40
0.0
 40
3.211051664354447
 40
3.211051664354447
 40
3.211051664354447
 10
32.84295360299603
 20
9.495868877977728
 30
0.0
 41
1.0
 10
33.43946434947977
 20
10.98646888898437
 30
0.0
 41
0.9999999226946805
 10
34.03480268709802
 20
12.47753754174467
 30
0.0
 41
1.0
  0
SPLINE
  5
8F
330
1F
100
AcDbEntity
  8
Default
100
AcDbSpline
210
0.0
220
0.0
230
1.0
 70
     8
 71
     5
 72
    12
 73
     6
 74
     0
 42
0.0000000001
 43
0.0000000001
 40
0.0
 40
0.0
 40
0.0
 40
0.0
 40
0.0
 40
0.0
 40
1.0
 40
1.0
 40
1.0
 40
1.0
 40
1.0
 40
1.0
 10
32.88498184275534
 20
9.259200948314982
 30
0.0
 10
32.8369803380931
 20
9.256559201754815
 30
0.0
 10
32.78897883343092
 20
9.253917455194648
 30
0.0
 10
32.80723039195459
 20
9.406603289466322
 30
0.0
 10
32.82509232591019
 20
9.451235952288403
 30
0.0
 10
32.84295360299603
 20
9.495868877977728
 30
0.0
  0
SPLINE
  5
90
330
1F
100
AcDbEntity
  8
Default
100
AcDbSpline
210
0.0
220
0.0
230
1.0
 70
    12
 71
     2
 72
     6
 73
     3
 74
     0
 42
0.0000000001
 43
0.0000000001
 40
-0.6767837654293626
 40
-0.6767837654293626
 40
-0.6767837654293626
 40
0.0
 40
0.0
 40
0.0
 10
-2.627676575192311
 20
6.450961604855928
 30
0.0
 41
1.0
 10
-2.290065628768823
 20
6.425789359207773
 30
0.0
 41
0.9993081439452777
 10
-1.951517562693027
 20
6.425782126315481
 30
0.0
 41
1.0
  0
SPLINE
  5
91
330
1F
100
AcDbEntity
  8
Default
100
AcDbSpline
210
0.0
220
0.0
230
1.0
 70
     8
 71
     3
 72
    13
 73
     9
 74
     0
 42
0.0000000001
 43
0.0000000001
 40
0.0
 40
0.0
 40
0.0
 40
0.0
 40
1.0
 40
2.0
 40
3.0
 40
4.0
 40
5.0
 40
6.0
 40
6.0
 40
6.0
 40
6.0
 10
34.03480268709802
 20
12.47753754174467
 30
0.0
 10
34.67212056289355
 20
12.17700445045394
 30
0.0
 10
36.01210567093563
 20
11.69860042986032
 30
0.0
 10
38.12571454176555
 20
11.48438745212895
 30
0.0
 10
40.2434852941243
 20
11.542456047152
 30
0.0
 10
42.35416350840592
 20
11.69943815990285
 30
0.0
 10
44.45116975378909
 20
11.99159499795388
 30
0.0
 10
45.84248900149771
 20
12.2253601528876
 30
0.0
 10
46.53525233993412
 20
12.35879817785314
 30
0.0
  0
SPLINE
  5
92
330
1F
100
AcDbEntity
  8
Default
100
AcDbSpline
210
0.0
220
0.0
230
1.0
 70
    12
 71
     2
 72
     6
 73
     3
 74
     0
 42
0.0000000001
 43
0.0000000001
 40
0.0
 40
0.0
 40
0.0
 40
0.0937842320006875
 40
0.0937842320006875
 40
0.0937842320006875
 10
-6.804087719499591
 20
7.136591514702104
 30
0.0
 41
1.0
 10
-6.797534287274249
 20
7.183023433347139
 30
0.0
 41
0.9999999999936724
 10
-6.790981185402757
 20
7.229455398617631
 30
0.0
 41
1.0
  0
SPLINE
  5
93
330
1F
100
AcDbEntity
  8
Default
100
AcDbSpline
210
0.0
220
0.0
230
1.0
 70
     8
 71
     3
 72
    13
 73
     9
 74
     0
 42
0.0000000001
 43
0.0000000001
 40
0.0
 40
0.0
 40
0.0
 40
0.0
 40
0.0659403231465319
 40
0.1339151955238136
 40
0.2573848639912312
 40
0.3771184892071823
 40
0.5081105643064359
 40
0.6902159716558347
 40
0.6902159716558347
 40
0.6902159716558347
 40
0.6902159716558347
 10
-7.396900119977317
 20
5.542360861621122
 30
0.0
 10
-7.400149043035583
 20
5.520712535491276
 30
0.0
 10
-7.400254000717553
 20
5.47495934546817
 30
0.0
 10
-7.371125884080584
 20
5.393871194654018
 30
0.0
 10
-7.287963999136821
 20
5.319056874779339
 30
0.0
 10
-7.151588381142403
 20
5.335884969644897
 30
0.0
 10
-7.058684492455143
 20
5.454145705051813
 30
0.0
 10
-7.027434284619858
 20
5.553626753614765
 30
0.0
 10
-7.019044156084306
 20
5.614290701413776
 30
0.0
  0
SPLINE
  5
94
330
1F
100
AcDbEntity
  8
Default
100
AcDbSpline
210
0.0
220
0.0
230
1.0
 70
    24
 71
     2
 72
     6
 73
     3
 74
     0
 42
0.0000000001
 43
0.0000000001
 40
0.0
 40
0.0
 40
0.0
 40
5.266541059653923
 40
5.266541059653923
 40
5.266541059653923
 10
-7.879744575224038
 20
6.841136509306753
 30
0.0
 10
-5.253710575208174
 20
6.64604905708134
 30
0.0
 10
-2.627676575192311
 20
6.450961604855928
 30
0.0
  0
SPLINE
  5
95
330
1F
100
AcDbEntity
  8
Default
100
AcDbSpline
210
0.0
220
0.0
230
1.0
 70
    12
 71
     2
 72
     6
 73
     3
 74
     0
 42
0.0000000001
 43
0.0000000001
 40
0.0
 40
0.0
 40
0.0
 40
0.6767837654293626
 40
0.6767837654293626
 40
0.6767837654293626
 10
1.951517562693084
 20
6.425782126315481
 30
0.0
 41
1.0
 10
2.290065628768861
 20
6.425789359207773
 30
0.0
 41
0.9993081439452777
 10
2.627676575192368
 20
6.450961604855928
 30
0.0
 41
1.0
  0
SPLINE
  5
96
330
1F
100
AcDbEntity
  8
Default
100
AcDbSpline
210
0.0
220
0.0
230
1.0
 70
     8
 71
     3
 72
    13
 73
     9
 74
     0
 42
0.0000000001
 43
0.0000000001
 40
0.0
 40
0.0
 40
0.0
 40
0.0
 40
0.0527988964564631
 40
0.0914000315304187
 40
0.1600512542202194
 40
0.2540278845990126
 40
0.3796332324843674
 40
0.6416550723218502
 40
0.6416550723218502
 40
0.6416550723218502
 40
0.6416550723218502
 10
-6.790981185402757
 20
7.229455398617631
 30
0.0
 10
-6.788549628010003
 20
7.245534649171679
 30
0.0
 10
-6.78524138021919
 20
7.279616711553726
 30
0.0
 10
-6.788564008257367
 20
7.327474120776842
 30
0.0
 10
-6.812274046748598
 20
7.401489501875727
 30
0.0
 10
-6.915517210597727
 20
7.421857085932874
 30
0.0
 10
-7.063864577562924
 20
7.356767842950066
 30
0.0
 10
-7.154625185027442
 20
7.252894410137452
 30
0.0
 10
-7.168825650843871
 20
7.164451609521173
 30
0.0
  0
POLYLINE
  5
97
330
1F
100
AcDbEntity
  8
Default
100
AcDb2dPolyline
 66
     1
 10
0.0
 20
0.0
 30
0.0
  0
VERTEX
  5
98
330
97
100
AcDbEntity
  8
Default
100
AcDbVertex
100
AcDb2dVertex
 10
-1.951517562693027
 20
6.425782126315481
 30
0.0
  0
VERTEX
  5
99
330
97
100
AcDbEntity
  8
Default
100
AcDbVertex
100
AcDb2dVertex
 10
1.951517562693084
 20
6.425782126315481
 30
0.0
  0
SEQEND
  5
9A
330
97
100
AcDbEntity
  8
Default
  0
SPLINE
  5
9B
330
1F
100
AcDbEntity
  8
Default
100
AcDbSpline
210
0.0
220
0.0
230
1.0
 70
    12
 71
     2
 72
     6
 73
     3
 74
     0
 42
0.0000000001
 43
0.0000000001
 40
0.0
 40
0.0
 40
0.0
 40
2.127669139521617
 40
2.127669139521617
 40
2.127669139521617
 10
46.53525233993361
 20
12.35879817785326
 30
0.0
 41
1.0
 10
46.74358625764698
 20
11.31556235814167
 30
0.0
 41
0.9999999966990948
 10
46.9520897016169
 20
10.27236040710253
 30
0.0
 41
1.0
  0
SPLINE
  5
9C
330
1F
100
AcDbEntity
  8
Default
100
AcDbSpline
210
0.0
220
0.0
230
1.0
 70
     8
 71
     5
 72
    12
 73
     6
 74
     0
 42
0.0000000001
 43
0.0000000001
 40
0.0
 40
0.0
 40
0.0
 40
0.0
 40
0.0
 40
0.0
 40
1.0
 40
1.0
 40
1.0
 40
1.0
 40
1.0
 40
1.0
 10
46.9520897016169
 20
10.27236040710253
 30
0.0
 10
46.96194299027849
 20
10.22306160531665
 30
0.0
 10
46.97179651555712
 20
10.17376285082311
 30
0.0
 10
46.98667913323521
 20
10.03528308515201
 30
0.0
 10
46.93648125412108
 20
10.03252046186737
 30
0.0
 10
46.88628337500688
 20
10.02975783858273
 30
0.0
  0
SPLINE
  5
9D
330
1F
100
AcDbEntity
  8
Default
100
AcDbSpline
210
0.0
220
0.0
230
1.0
 70
    24
 71
     2
 72
     6
 73
     3
 74
     0
 42
0.0000000001
 43
0.0000000001
 40
-5.266541059653923
 40
-5.266541059653923
 40
-5.266541059653923
 40
0.0
 40
0.0
 40
0.0
 10
2.627676575192368
 20
6.450961604855928
 30
0.0
 10
5.253710575208231
 20
6.64604905708134
 30
0.0
 10
7.879744575224152
 20
6.841136509306753
 30
0.0
  0
SPLINE
  5
9E
330
1F
100
AcDbEntity
  8
Default
100
AcDbSpline
210
0.0
220
0.0
230
1.0
 70
    24
 71
     2
 72
     6
 73
     3
 74
     0
 42
0.0000000001
 43
0.0000000001
 40
0.0
 40
0.0
 40
0.0
 40
2.201146945755387
 40
2.201146945755387
 40
2.201146945755387
 10
8.698908507465546
 20
2.396743218887003
 30
0.0
 10
8.813604447731848
 20
1.302162563801001
 30
0.0
 10
8.928300387998092
 20
0.2075819087149986
 30
0.0
  0
SPLINE
  5
9F
330
1F
100
AcDbEntity
  8
Default
100
AcDbSpline
210
0.0
220
0.0
230
1.0
 70
    12
 71
     2
 72
     8
 73
     5
 74
     0
 42
0.0000000001
 43
0.0000000001
 40
-0.3149620417233434
 40
-0.3149620417233434
 40
-0.3149620417233434
 40
-0.1574810208616717
 40
-0.1574810208616717
 40
0.0
 40
0.0
 40
0.0
 10
8.928300387998092
 20
0.2075819087149986
 30
0.0
 41
1.0
 10
8.937017724355824
 20
0.1243446276420911
 30
0.0
 41
0.9135643766743925
 10
8.880999190775185
 20
0.0621645600234536
 30
0.0
 41
1.0
 10
8.824980657194502
 20
-0.000015507595184
 30
0.0
 41
0.9135643766743925
 10
8.741288144548548
 20
0.000000003227882
 30
0.0
 41
1.0
  0
SPLINE
  5
A0
330
1F
100
AcDbEntity
  8
Default
100
AcDbSpline
210
0.0
220
0.0
230
1.0
 70
    12
 71
     2
 72
     6
 73
     3
 74
     0
 42
0.0000000001
 43
0.0000000001
 40
-0.2677333291544088
 40
-0.2677333291544088
 40
-0.2677333291544088
 40
0.0
 40
0.0
 40
0.0
 10
7.940217706480951
 20
0.0001482542063195
 30
0.0
 41
1.0
 10
7.777952799480422
 20
0.0001783284172676
 30
0.0
 41
0.7570196239544809
 10
7.754266330229086
 20
0.1607051240707067
 30
0.0
 41
1.0
  0
SPLINE
  5
A1
330
1F
100
AcDbEntity
  8
Default
100
AcDbSpline
210
0.0
220
0.0
230
1.0
 70
    12
 71
     2
 72
     6
 73
     3
 74
     0
 42
0.0000000001
 43
0.0000000001
 40
0.0
 40
0.0
 40
0.0
 40
1.26205715921452
 40
1.26205715921452
 40
1.26205715921452
 10
7.221212723996132
 20
6.792214332004733
 30
0.0
 41
1.0
 10
7.309035882221904
 20
6.167327013116567
 30
0.0
 41
0.9999999997230192
 10
7.396900119977374
 20
5.542360861621122
 30
0.0
 41
1.0
  0
SPLINE
  5
A2
330
1F
100
AcDbEntity
  8
Default
100
AcDbSpline
210
0.0
220
0.0
230
1.0
 70
    12
 71
     2
 72
     6
 73
     3
 74
     0
 42
0.0000000001
 43
0.0000000001
 40
0.0
 40
0.0
 40
0.0
 40
0.8010704518778793
 40
0.8010704518778793
 40
0.8010704518778793
 10
8.741288144548548
 20
0.000000003227882
 30
0.0
 41
1.0
 10
8.340752927462573
 20
0.0000846535314002
 30
0.0
 41
0.9999999996547628
 10
7.940217706480951
 20
0.0001482542063195
 30
0.0
 41
1.0
  0
SPLINE
  5
A3
330
1F
100
AcDbEntity
  8
Default
100
AcDbSpline
210
0.0
220
0.0
230
1.0
 70
    24
 71
     2
 72
     6
 73
     3
 74
     0
 42
0.0000000001
 43
0.0000000001
 40
0.0
 40
0.0
 40
0.0
 40
5.897490400714366
 40
5.897490400714366
 40
5.897490400714366
 10
7.754266330229086
 20
0.1607051240707067
 30
0.0
 10
7.32366498794994
 20
3.077840832373789
 30
0.0
 10
6.89306364567085
 20
5.994976540676871
 30
0.0
  0
SPLINE
  5
A4
330
1F
100
AcDbEntity
  8
Default - Tangent
100
AcDbSpline
210
0.0
220
0.0
230
1.0
 70
     8
 71
     3
 72
    12
 73
     8
 74
     0
 42
0.0000000001
 43
0.0000000001
 40
-0.5143832258818922
 40
-0.5143832258818922
 40
-0.5143832258818922
 40
-0.5143832258818922
 40
-0.4040865554038572
 40
-0.2722064057398136
 40
-0.1269457878060257
 40
-0.0584839501974893
 40
0.0
 40
0.0
 40
0.0
 40
0.0
 10
7.176466180093882
 20
5.969505854517431
 30
0.0
 10
7.215341650417429
 20
5.969568753587255
 30
0.0
 10
7.281466710710561
 20
6.030514917562109
 30
0.0
 10
7.284898341375424
 20
6.1661142736428
 30
0.0
 10
7.236878456206966
 20
6.27289606049171
 30
0.0
 10
7.167733424099822
 20
6.335048150103057
 30
0.0
 10
7.127162589872853
 20
6.349060706013304
 30
0.0
 10
7.107713820984316
 20
6.351266140690463
 30
0.0
  0
SPLINE
  5
A5
330
1F
100
AcDbEntity
  8
Default
100
AcDbSpline
210
0.0
220
0.0
230
1.0
 70
     8
 71
     3
 72
    11
 73
     7
 74
     0
 42
0.0000000001
 43
0.0000000001
 40
0.0
 40
0.0
 40
0.0
 40
0.0
 40
1.0
 40
2.0
 40
3.0
 40
4.0
 40
4.0
 40
4.0
 40
4.0
 10
46.53525233993412
 20
12.35879817785314
 30
0.0
 10
46.63618545044466
 20
12.45830374114195
 30
0.0
 10
46.88769200168497
 20
12.5940271328815
 30
0.0
 10
47.30460519486184
 20
12.68728756787011
 30
0.0
 10
47.72420474754387
 20
12.67116055810263
 30
0.0
 10
48.00754391269663
 20
12.55070536329401
 30
0.0
 10
48.04666037520059
 20
12.40526137761801
 30
0.0
  0
SPLINE
  5
A6
330
1F
100
AcDbEntity
  8
Default
100
AcDbSpline
210
0.0
220
0.0
230
1.0
 70
    24
 71
     2
 72
     6
 73
     3
 74
     0
 42
0.0000000001
 43
0.0000000001
 40
0.0
 40
0.0
 40
0.0
 40
0.0006577261265931
 40
0.0006577261265931
 40
0.0006577261265931
 10
51.34276120976483
 20
16.04211377251131
 30
0.0
 10
51.34243289893021
 20
16.04209472230686
 30
0.0
 10
51.34210458809559
 20
16.04207567210242
 30
0.0
  0
LINE
  5
A7
330
1F
100
AcDbEntity
  8
Default
100
AcDbLine
 10
48.77636283458497
 20
0.1522307843721825
 30
0.0
 11
46.8439211961612
 21
10.02742645040991
 31
0.0
  0
SPLINE
  5
A8
330
1F
100
AcDbEntity
  8
Default
100
AcDbSpline
210
0.0
220
0.0
230
1.0
 70
     8
 71
     3
 72
    44
 73
    40
 74
     0
 42
0.0000000001
 43
0.0000000001
 40
0.0
 40
0.0
 40
0.0
 40
0.0
 40
1.0
 40
2.0
 40
3.0
 40
4.0
 40
5.0
 40
6.0
 40
7.0
 40
8.0
 40
9.0
 40
10.0
 40
11.0
 40
12.0
 40
13.0
 40
14.0
 40
15.0
 40
16.0
 40
17.0
 40
18.0
 40
19.0
 40
20.0
 40
21.0
 40
22.0
 40
23.0
 40
24.0
 40
25.0
 40
26.0
 40
27.0
 40
28.0
 40
29.0
 40
30.0
 40
31.0
 40
32.0
 40
33.0
 40
34.0
 40
35.0
 40
36.0
 40
37.0
 40
37.0
 40
37.0
 40
37.0
 10
0.0
 20
71.68426288798358
 30
0.0
 10
0.429093954392556
 20
71.68732471037913
 30
0.0
 10
1.28755119730846
 20
71.67864522524593
 30
0.0
 10
2.572731190308957
 20
71.59335937396253
 30
0.0
 10
3.849271973372709
 20
71.42127393586392
 30
0.0
 10
5.112123746167526
 20
71.16765586472297
 30
0.0
 10
6.353786050884025
 20
70.82423076897744
 30
0.0
 10
7.562621098481429
 20
70.37677458217051
 30
0.0
 10
8.722984895481886
 20
69.81891396084579
 30
0.0
 10
9.798944348470513
 20
69.0888012169312
 30
0.0
 10
10.59720075155087
 20
68.06449462177916
 30
0.0
 10
10.93480136855806
 20
66.8041858758529
 30
0.0
 10
11.43489953697167
 20
65.62039344451767
 30
0.0
 10
11.96757167116101
 20
64.44737372455319
 30
0.0
 10
12.54764715017347
 20
63.29851809616346
 30
0.0
 10
13.11301219537114
 20
62.14153205443885
 30
0.0
 10
13.60592864353708
 20
60.95158452001638
 30
0.0
 10
14.04430261248092
 20
59.7410658176376
 30
0.0
 10
14.44971371825346
 20
58.51883331195262
 30
0.0
 10
14.77494662774876
 20
57.2722444548906
 30
0.0
 10
14.96868256743613
 20
55.99726787890332
 30
0.0
 10
15.02619526785423
 20
54.70963148525155
 30
0.0
 10
14.93797045139303
 20
53.42333358034971
 30
0.0
 10
14.68389960725119
 20
52.1581830896373
 30
0.0
 10
14.30001872194407
 20
50.92863121606155
 30
0.0
 10
13.7847939810232
 20
49.74653392296113
 30
0.0
 10
13.16684202598952
 20
48.61570439485211
 30
0.0
 10
12.42646677894339
 20
47.56023474436464
 30
0.0
 10
11.60703088889272
 20
46.56639814275431
 30
0.0
 10
10.70125109717611
 20
45.64909708657178
 30
0.0
 10
9.705009805406178
 20
44.83126430911771
 30
0.0
 10
8.632299681535358
 20
44.11664514160841
 30
0.0
 10
7.502657276430682
 20
43.49727744879428
 30
0.0
 10
6.323239685342685
 20
42.97758674121817
 30
0.0
 10
5.098922952184751
 20
42.57499926483982
 30
0.0
 10
3.843840645725436
 20
42.28336520247505
 30
0.0
 10
2.570368398483993
 20
42.0900244270503
 30
0.0
 10
1.287572925177187
 20
41.97389042388411
 30
0.0
 10
0.4290842566572906
 20
41.95512574334926
 30
0.0
 10
0.0
 20
41.95436709580071
 30
0.0
  0
SPLINE
  5
A9
330
1F
100
AcDbEntity
  8
Default
100
AcDbSpline
210
0.0
220
0.0
230
1.0
 70
     8
 71
     3
 72
    47
 73
    43
 74
     0
 42
0.0000000001
 43
0.0000000001
 40
-3.0
 40
-2.0
 40
-1.0
 40
0.0
 40
1.0
 40
2.0
 40
3.0
 40
4.0
 40
5.0
 40
6.0
 40
7.0
 40
8.0
 40
9.0
 40
10.0
 40
11.0
 40
12.0
 40
13.0
 40
14.0
 40
15.0
 40
16.0
 40
17.0
 40
18.0
 40
19.0
 40
20.0
 40
21.0
 40
22.0
 40
23.0
 40
24.0
 40
25.0
 40
26.0
 40
27.0
 40
28.0
 40
29.0
 40
30.0
 40
31.0
 40
32.0
 40
33.0
 40
34.0
 40
35.0
 40
36.0
 40
37.0
 40
38.0
 40
39.0
 40
40.0
 40
41.0
 40
42.0
 40
43.0
 10
-1.572421837347406
 20
61.32110433484615
 30
0.0
 10
0.0000002670995514
 20
61.33642514550175
 30
0.0
 10
1.572420768949428
 20
61.3211043339447
 30
0.0
 10
3.144484390901596
 20
61.25421543922105
 30
0.0
 10
4.703643045553747
 20
61.03536488441317
 30
0.0
 10
6.221079576650368
 20
60.58954959332423
 30
0.0
 10
7.5638200649189
 20
59.72683326243313
 30
0.0
 10
8.471732954743402
 20
58.39354811605362
 30
0.0
 10
8.743367979121786
 20
56.82809213899458
 30
0.0
 10
8.9259116784296
 20
55.26983928191536
 30
0.0
 10
9.009765356230389
 20
53.69780082450374
 30
0.0
 10
9.019716600451716
 20
52.12517924474193
 30
0.0
 10
8.96496025121769
 20
50.553600701593
 30
0.0
 10
8.866902661199788
 20
48.98330526486308
 30
0.0
 10
8.688227829628488
 20
47.42246249757711
 30
0.0
 10
8.378863211605335
 20
45.87005508901041
 30
0.0
 10
7.54295890808578
 20
44.4919857751024
 30
0.0
 10
6.143630292877219
 20
43.70049147528812
 30
0.0
 10
4.683257496836632
 20
43.126132481448
 30
0.0
 10
3.132934532665388
 20
42.82621013820991
 30
0.0
 10
1.572102860002303
 20
42.63994970437246
 30
0.0
 10
0.000000090592664
 20
42.55592581203412
 30
0.0
 10
-1.572103222372789
 20
42.63994972876397
 30
0.0
 10
-3.132933383264856
 20
42.82621005132611
 30
0.0
 10
-4.683256491192992
 20
43.1261319992215
 30
0.0
 10
-6.143631919994448
 20
43.70049247305469
 30
0.0
 10
-7.542957557078068
 20
44.49198433915072
 30
0.0
 10
-8.378864148896923
 20
45.87005725001139
 30
0.0
 10
-8.688227354393916
 20
47.42246052288099
 30
0.0
 10
-8.866902773067352
 20
48.98330579385941
 30
0.0
 10
-8.964960148516127
 20
50.55359911008492
 30
0.0
 10
-9.01971661561413
 20
52.12517963001223
 30
0.0
 10
-9.009765380515603
 20
53.69779941462885
 30
0.0
 10
-8.925911703165582
 20
55.26983972403717
 30
0.0
 10
-8.74336779033274
 20
56.82809256144276
 30
0.0
 10
-8.47173356805689
 20
58.39354675933097
 30
0.0
 10
-7.563819654091333
 20
59.72683376677575
 30
0.0
 10
-6.221080413069728
 20
60.58954912076945
 30
0.0
 10
-4.703643027972305
 20
61.0353649464494
 30
0.0
 10
-3.144485147395869
 20
61.25421533044223
 30
0.0
 10
-1.572421837347406
 20
61.32110433484615
 30
0.0
 10
0.0000002670995514
 20
61.33642514550175
 30
0.0
 10
1.572420768949428
 20
61.3211043339447
 30
0.0
  0
SPLINE
  5
AA
330
1F
100
AcDbEntity
  8
Default
100
AcDbSpline
210
0.0
220
0.0
230
1.0
 70
     8
 71
     3
 72
    12
 73
     8
 74
     0
 42
0.0000000001
 43
0.0000000001
 40
-5.0
 40
-5.0
 40
-5.0
 40
-5.0
 40
-4.0
 40
-3.0
 40
-2.0
 40
-1.0
 40
0.0
 40
0.0
 40
0.0
 40
0.0
 10
0.0
 20
69.79927563796558
 30
0.0
 10
-0.743385919642833
 20
69.80531412235597
 30
0.0
 10
-2.229171760534143
 20
69.7531104773495
 30
0.0
 10
-4.450134504971459
 20
69.51320867561982
 30
0.0
 10
-6.621396007209512
 20
69.00580885167604
 30
0.0
 10
-8.767855580842195
 20
68.37104746411067
 30
0.0
 10
-10.01052377854256
 20
67.46707210977577
 30
0.0
 10
-10.2582918449757
 20
66.72895731490952
 30
0.0
  0
SPLINE
  5
AB
330
1F
100
AcDbEntity
  8
Default
100
AcDbSpline
210
0.0
220
0.0
230
1.0
 70
     8
 71
     3
 72
    12
 73
     8
 74
     0
 42
0.0000000001
 43
0.0000000001
 40
0.0
 40
0.0
 40
0.0
 40
0.0
 40
1.0
 40
2.0
 40
3.0
 40
4.0
 40
5.0
 40
5.0
 40
5.0
 40
5.0
 10
-8.827900292593313
 20
45.23292397573724
 30
0.0
 10
-9.675978075779199
 20
45.89545268569383
 30
0.0
 10
-11.16815206190961
 20
47.4777760119027
 30
0.0
 10
-12.65995117089824
 20
50.3700774497477
 30
0.0
 10
-13.5003168693882
 20
53.50161545112935
 30
0.0
 10
-13.71705409638253
 20
56.7409381808444
 30
0.0
 10
-13.3515350907976
 20
58.87727588763276
 30
0.0
 10
-13.06493318473247
 20
59.91365529769929
 30
0.0
  0
SPLINE
  5
AC
330
1F
100
AcDbEntity
  8
Default
100
AcDbSpline
210
0.0
220
0.0
230
1.0
 70
     8
 71
     3
 72
    44
 73
    40
 74
     0
 42
0.0000000001
 43
0.0000000001
 40
-37.0
 40
-37.0
 40
-37.0
 40
-37.0
 40
-36.0
 40
-35.0
 40
-34.0
 40
-33.0
 40
-32.0
 40
-31.0
 40
-30.0
 40
-29.0
 40
-28.0
 40
-27.0
 40
-26.0
 40
-25.0
 40
-24.0
 40
-23.0
 40
-22.0
 40
-21.0
 40
-20.0
 40
-19.0
 40
-18.0
 40
-17.0
 40
-16.0
 40
-15.0
 40
-14.0
 40
-13.0
 40
-12.0
 40
-11.0
 40
-10.0
 40
-9.0
 40
-8.0
 40
-7.0
 40
-6.0
 40
-5.0
 40
-4.0
 40
-3.0
 40
-2.0
 40
-1.0
 40
0.0
 40
0.0
 40
0.0
 40
0.0
 10
0.0
 20
41.95436709580071
 30
0.0
 10
-0.4290842566572337
 20
41.95512574334926
 30
0.0
 10
-1.28757292517713
 20
41.97389042388411
 30
0.0
 10
-2.570368398483936
 20
42.0900244270503
 30
0.0
 10
-3.843840645725436
 20
42.28336520247505
 30
0.0
 10
-5.098922952184751
 20
42.57499926483982
 30
0.0
 10
-6.323239685342628
 20
42.97758674121817
 30
0.0
 10
-7.502657276430682
 20
43.49727744879428
 30
0.0
 10
-8.6322996815353
 20
44.11664514160841
 30
0.0
 10
-9.705009805406178
 20
44.83126430911771
 30
0.0
 10
-10.70125109717605
 20
45.64909708657178
 30
0.0
 10
-11.60703088889272
 20
46.56639814275431
 30
0.0
 10
-12.42646677894334
 20
47.56023474436464
 30
0.0
 10
-13.16684202598952
 20
48.61570439485211
 30
0.0
 10
-13.7847939810232
 20
49.74653392296113
 30
0.0
 10
-14.30001872194407
 20
50.92863121606155
 30
0.0
 10
-14.68389960725119
 20
52.1581830896373
 30
0.0
 10
-14.93797045139303
 20
53.42333358034971
 30
0.0
 10
-15.02619526785418
 20
54.70963148525155
 30
0.0
 10
-14.96868256743613
 20
55.99726787890332
 30
0.0
 10
-14.77494662774876
 20
57.2722444548906
 30
0.0
 10
-14.44971371825346
 20
58.51883331195262
 30
0.0
 10
-14.04430261248086
 20
59.7410658176376
 30
0.0
 10
-13.60592864353708
 20
60.95158452001638
 30
0.0
 10
-13.11301219537108
 20
62.14153205443885
 30
0.0
 10
-12.54764715017342
 20
63.29851809616346
 30
0.0
 10
-11.96757167116095
 20
64.44737372455319
 30
0.0
 10
-11.43489953697167
 20
65.62039344451767
 30
0.0
 10
-10.934801368558
 20
66.8041858758529
 30
0.0
 10
-10.59720075155082
 20
68.06449462177916
 30
0.0
 10
-9.798944348470457
 20
69.0888012169312
 30
0.0
 10
-8.722984895481886
 20
69.81891396084579
 30
0.0
 10
-7.562621098481429
 20
70.37677458217051
 30
0.0
 10
-6.353786050883969
 20
70.82423076897744
 30
0.0
 10
-5.11212374616747
 20
71.16765586472297
 30
0.0
 10
-3.849271973372652
 20
71.42127393586392
 30
0.0
 10
-2.572731190308957
 20
71.59335937396253
 30
0.0
 10
-1.287551197308403
 20
71.67864522524593
 30
0.0
 10
-0.429093954392556
 20
71.68732471037913
 30
0.0
 10
0.0
 20
71.68426288798358
 30
0.0
  0
SPLINE
  5
AD
330
1F
100
AcDbEntity
  8
Default
100
AcDbSpline
210
0.0
220
0.0
230
1.0
 70
    24
 71
     2
 72
     6
 73
     3
 74
     0
 42
0.0000000001
 43
0.0000000001
 40
0.0
 40
0.0
 40
0.0
 40
0.387988006853346
 40
0.387988006853346
 40
0.387988006853346
 10
6.836875881616038
 20
6.375624060320887
 30
0.0
 10
6.808547195143035
 20
6.567538517536136
 30
0.0
 10
6.780218508670032
 20
6.759452974751383
 30
0.0
  0
SPLINE
  5
AE
330
1F
100
AcDbEntity
  8
Default
100
AcDbSpline
210
0.0
220
0.0
230
1.0
 70
    12
 71
     2
 72
     6
 73
     3
 74
     0
 42
0.0000000001
 43
0.0000000001
 40
0.0
 40
0.0
 40
0.0
 40
0.0937842320006875
 40
0.0937842320006875
 40
0.0937842320006875
 10
6.804087719499648
 20
7.136591514702104
 30
0.0
 41
1.0
 10
6.797534287274291
 20
7.183023433347139
 30
0.0
 41
0.9999999999936724
 10
6.790981185402813
 20
7.229455398617631
 30
0.0
 41
1.0
  0
ARC
  5
AF
330
1F
100
AcDbEntity
  8
Default
100
AcDbCircle
 10
6.916464616536302
 20
9.362332688285816
 30
0.0
 40
0.2028403567491482
100
AcDbArc
 50
187.0191240226239
 51
282.2833959067524
  0
SPLINE
  5
B0
330
1F
100
AcDbEntity
  8
Default
100
AcDbSpline
210
0.0
220
0.0
230
1.0
 70
     8
 71
     3
 72
     8
 73
     4
 74
     0
 42
0.0000000001
 43
0.0000000001
 40
0.0
 40
0.0
 40
0.0
 40
0.0
 40
1.0
 40
1.0
 40
1.0
 40
1.0
 10
28.43601727834869
 20
0.0000367665145418
 30
0.0
 10
28.2495364349337
 20
0.0000367665145418
 30
0.0
 10
28.16286084344637
 20
0.1089173824868483
 30
0.0
 10
28.21291052033968
 20
0.2506702883927218
 30
0.0
  0
POLYLINE
  5
B1
330
1F
100
AcDbEntity
  8
Default
100
AcDb2dPolyline
 66
     1
 10
0.0
 20
0.0
 30
0.0
  0
VERTEX
  5
B2
330
B1
100
AcDbEntity
  8
Default
100
AcDbVertex
100
AcDb2dVertex
 10
-1.951446883447375
 20
6.800617553810579
 30
0.0
  0
VERTEX
  5
B3
330
B1
100
AcDbEntity
  8
Default
100
AcDbVertex
100
AcDb2dVertex
 10
1.951446883447431
 20
6.800617553810579
 30
0.0
  0
SEQEND
  5
B4
330
B1
100
AcDbEntity
  8
Default
  0
SPLINE
  5
B5
330
1F
100
AcDbEntity
  8
Default
100
AcDbSpline
210
0.0
220
0.0
230
1.0
 70
     8
 71
     2
 72
     6
 73
     3
 74
     0
 42
0.0000000001
 43
0.0000000001
 40
-12.3295063139149
 40
-12.3295063139149
 40
-12.3295063139149
 40
0.0
 40
0.0
 40
0.0
 10
48.04666037520059
 20
12.40526137761801
 30
0.0
 10
48.97512211362181
 20
6.310827582606991
 30
0.0
 10
49.90356062011506
 20
0.2162151133958377
 30
0.0
  0
POLYLINE
  5
B6
330
1F
100
AcDbEntity
  8
Default
100
AcDb2dPolyline
 66
     1
 10
0.0
 20
0.0
 30
0.0
  0
VERTEX
  5
B7
330
B6
100
AcDbEntity
  8
Default
100
AcDbVertex
100
AcDb2dVertex
 10
49.71515225855597
 20
0.0000765664505792
 30
0.0
  0
VERTEX
  5
B8
330
B6
100
AcDbEntity
  8
Default
100
AcDbVertex
100
AcDb2dVertex
 10
48.97272541300987
 20
0.0000564493420223
 30
0.0
  0
SEQEND
  5
B9
330
B6
100
AcDbEntity
  8
Default
  0
LINE
  5
BA
330
1F
100
AcDbEntity
  8
Default
100
AcDbLine
 10
32.96396071840411
 20
9.26354752400129
 30
0.0
 11
29.34375468045062
 21
0.1193832992671644
 31
0.0
  0
SPLINE
  5
BB
330
1F
100
AcDbEntity
  8
Default
100
AcDbSpline
210
0.0
220
0.0
230
1.0
 70
     8
 71
     5
 72
    12
 73
     6
 74
     0
 42
0.0000000001
 43
0.0000000001
 40
0.0
 40
0.0
 40
0.0
 40
0.0
 40
0.0
 40
0.0
 40
1.0
 40
1.0
 40
1.0
 40
1.0
 40
1.0
 40
1.0
 10
29.34375468045062
 20
0.1193832992671644
 30
0.0
 10
29.32883329198654
 20
0.0816938348702953
 30
0.0
 10
29.31391190352241
 20
0.0440043704734261
 30
0.0
 10
29.26101219400846
 20
0.0000367665145418
 30
0.0
 10
29.22047648678358
 20
0.0000367665145418
 30
0.0
 10
29.17994077955876
 20
0.0000367665145418
 30
0.0
  0
ENDSEC
  0
SECTION
  2
OBJECTS
  0
DICTIONARY
  5
C
330
0
100
AcDbDictionary
281
     1
  3
ACAD_GROUP
350
D
  3
ACAD_LAYOUT
350
1A
  3
ACAD_MLEADERSTYLE
350
BD
  3
ACAD_MLINESTYLE
350
17
  3
ACAD_PLOTSETTINGS
350
19
  3
ACAD_PLOTSTYLENAME
350
E
  3
ACAD_TABLESTYLE
350
BC
  3
ACAD_VISUALSTYLE
350
2A
  0
DICTIONARY
  5
D
102
{ACAD_REACTORS
330
C
102
}
330
C
100
AcDbDictionary
281
     1
  0
DICTIONARY
  5
1A
102
{ACAD_REACTORS
330
C
102
}
330
C
100
AcDbDictionary
281
     1
  3
Layout1
350
1E
  3
Layout2
350
26
  3
Model
350
22
  0
DICTIONARY
  5
BD
102
{ACAD_REACTORS
330
C
102
}
330
C
100
AcDbDictionary
281
     1
  0
DICTIONARY
  5
17
102
{ACAD_REACTORS
330
C
102
}
330
C
100
AcDbDictionary
281
     1
  3
Standard
350
18
  0
DICTIONARY
  5
19
102
{ACAD_REACTORS
330
C
102
}
330
C
100
AcDbDictionary
281
     1
  0
ACDBDICTIONARYWDFLT
  5
E
102
{ACAD_REACTORS
330
C
102
}
330
C
100
AcDbDictionary
281
     1
  3
Normal
350
F
100
AcDbDictionaryWithDefault
340
F
  0
DICTIONARY
  5
BC
102
{ACAD_REACTORS
330
C
102
}
330
C
100
AcDbDictionary
281
     1
  0
DICTIONARY
  5
2A
102
{ACAD_REACTORS
330
C
102
}
330
C
100
AcDbDictionary
281
     1
  3
2dWireframe
350
2F
  3
3D Hidden
350
31
  3
3dWireframe
350
30
  3
Basic
350
32
  3
Brighten
350
36
  3
ColorChange
350
3A
  3
Conceptual
350
34
  3
Dim
350
35
  3
Facepattern
350
39
  3
Flat
350
2B
  3
FlatWithEdges
350
2C
  3
Gouraud
350
2D
  3
GouraudWithEdges
350
2E
  3
Linepattern
350
38
  3
Realistic
350
33
  3
Thicken
350
37
  0
LAYOUT
  5
1E
102
{ACAD_REACTORS
330
1A
102
}
330
1A
100
AcDbPlotSettings
  1

  2
none_device
  4

  6

 40
0.0
 41
0.0
 42
0.0
 43
0.0
 44
0.0
 45
0.0
 46
0.0
 47
0.0
 48
0.0
 49
0.0
140
0.0
141
0.0
142
1.0
143
1.0
 70
   688
 72
     0
 73
     0
 74
     5
  7

 75
    16
 76
     0
 77
     2
 78
   300
147
1.0
148
0.0
149
0.0
100
AcDbLayout
  1
Layout1
 70
     1
 71
     1
 10
0.0
 20
0.0
 11
12.0
 21
9.0
 12
0.0
 22
0.0
 32
0.0
 14
1.000000000000000E+20
 24
1.000000000000000E+20
 34
1.000000000000000E+20
 15
-1.000000000000000E+20
 25
-1.000000000000000E+20
 35
-1.000000000000000E+20
146
0.0
 13
0.0
 23
0.0
 33
0.0
 16
1.0
 26
0.0
 36
0.0
 17
0.0
 27
1.0
 37
0.0
 76
     0
330
1B
  0
LAYOUT
  5
26
102
{ACAD_REACTORS
330
1A
102
}
330
1A
100
AcDbPlotSettings
  1

  2
none_device
  4

  6

 40
0.0
 41
0.0
 42
0.0
 43
0.0
 44
0.0
 45
0.0
 46
0.0
 47
0.0
 48
0.0
 49
0.0
140
0.0
141
0.0
142
1.0
143
1.0
 70
   688
 72
     0
 73
     0
 74
     5
  7

 75
    16
 76
     0
 77
     2
 78
   300
147
1.0
148
0.0
149
0.0
100
AcDbLayout
  1
Layout2
 70
     1
 71
     2
 10
0.0
 20
0.0
 11
0.0
 21
0.0
 12
0.0
 22
0.0
 32
0.0
 14
0.0
 24
0.0
 34
0.0
 15
0.0
 25
0.0
 35
0.0
146
0.0
 13
0.0
 23
0.0
 33
0.0
 16
1.0
 26
0.0
 36
0.0
 17
0.0
 27
1.0
 37
0.0
 76
     0
330
23
  0
LAYOUT
  5
22
102
{ACAD_REACTORS
330
1A
102
}
330
1A
100
AcDbPlotSettings
  1

  2
none_device
  4

  6

 40
0.0
 41
0.0
 42
0.0
 43
0.0
 44
0.0
 45
0.0
 46
0.0
 47
0.0
 48
0.0
 49
0.0
140
0.0
141
0.0
142
1.0
143
1.0
 70
  1712
 72
     0
 73
     0
 74
     0
  7

 75
     0
 76
     0
 77
     2
 78
   300
147
1.0
148
0.0
149
0.0
100
AcDbLayout
  1
Model
 70
     1
 71
     0
 10
0.0
 20
0.0
 11
12.0
 21
9.0
 12
0.0
 22
0.0
 32
0.0
 14
-15.01184679216666
 24
0.000000003227864
 34
0.0
 15
54.0815236897519
 25
71.68426288798452
 35
0.0
146
0.0
 13
0.0
 23
0.0
 33
0.0
 16
1.0
 26
0.0
 36
0.0
 17
0.0
 27
1.0
 37
0.0
 76
     0
330
1F
331
29
  0
MLINESTYLE
  5
18
102
{ACAD_REACTORS
330
17
102
}
330
17
100
AcDbMlineStyle
  2
Standard
 70
     0
  3

 62
   256
 51
90.0
 52
90.0
 71
     2
 49
0.5
 62
   256
  6
BYLAYER
 49
-0.5
 62
   256
  6
BYLAYER
  0
ACDBPLACEHOLDER
  5
F
102
{ACAD_REACTORS
330
E
102
}
330
E
  0
VISUALSTYLE
  5
2F
102
{ACAD_REACTORS
330
2A
102
}
330
2A
100
AcDbVisualStyle
  2
2dWireframe
 70
     4
 71
     0
 72
     2
 73
     0
 90
        0
 40
-0.6
 41
-30.0
 62
     5
 63
     7
421
 16777215
 74
     1
 91
        4
 64
     7
 65
   257
 75
     1
175
     1
 42
1.0
 92
        0
 66
   257
 43
1.0
 76
     1
 77
     6
 78
     2
 67
     7
 79
     5
170
     0
171
     0
290
     0
174
     0
 93
        1
 44
0.0
173
     0
291
     0
 45
0.0
1001
ACAD
1000
AcDbSavedByObjectVersion
1070
     0
  0
VISUALSTYLE
  5
31
102
{ACAD_REACTORS
330
2A
102
}
330
2A
100
AcDbVisualStyle
  2
3D Hidden
 70
     6
 71
     1
 72
     2
 73
     2
 90
        0
 40
-0.6
 41
-30.0
 62
     5
 63
     7
421
 16777215
 74
     2
 91
        2
 64
     7
 65
   257
 75
     2
175
     1
 42
40.0
 92
        0
 66
   257
 43
1.0
 76
     1
 77
     6
 78
     2
 67
     7
 79
     3
170
     0
171
     0
290
     0
174
     0
 93
        1
 44
0.0
173
     0
291
     0
 45
0.0
1001
ACAD
1000
AcDbSavedByObjectVersion
1070
     0
  0
VISUALSTYLE
  5
30
102
{ACAD_REACTORS
330
2A
102
}
330
2A
100
AcDbVisualStyle
  2
3dWireframe
 70
     5
 71
     0
 72
     2
 73
     0
 90
        0
 40
-0.6
 41
-30.0
 62
     5
 63
     7
421
 16777215
 74
     1
 91
        4
 64
     7
 65
   257
 75
     1
175
     1
 42
1.0
 92
        0
 66
   257
 43
1.0
 76
     1
 77
     6
 78
     2
 67
     7
 79
     5
170
     0
171
     0
290
     0
174
     0
 93
        1
 44
0.0
173
     0
291
     0
 45
0.0
1001
ACAD
1000
AcDbSavedByObjectVersion
1070
     0
  0
VISUALSTYLE
  5
32
102
{ACAD_REACTORS
330
2A
102
}
330
2A
100
AcDbVisualStyle
  2
Basic
 70
     7
 71
     1
 72
     0
 73
     1
 90
        0
 40
-0.6
 41
-30.0
 62
     5
 63
     7
421
 16777215
 74
     0
 91
        4
 64
     7
 65
   257
 75
     1
175
     1
 42
1.0
 92
        8
 66
     7
 43
1.0
 76
     1
 77
     6
 78
     2
 67
     7
 79
     5
170
     0
171
     0
290
     0
174
     0
 93
        1
 44
0.0
173
     0
291
     1
 45
0.0
1001
ACAD
1000
AcDbSavedByObjectVersion
1070
     0
  0
VISUALSTYLE
  5
36
102
{ACAD_REACTORS
330
2A
102
}
330
2A
100
AcDbVisualStyle
  2
Brighten
 70
    12
 71
     2
 72
     2
 73
     0
 90
        0
 40
-0.6
 41
-30.0
 62
     5
 63
     7
421
 16777215
 74
     1
 91
        4
 64
     7
 65
   257
 75
     1
175
     1
 42
1.0
 92
        8
 66
     7
 43
1.0
 76
     1
 77
     6
 78
     2
 67
     7
 79
     5
170
     0
171
     0
290
     0
174
     0
 93
        1
 44
50.0
173
     0
291
     1
 45
0.0
1001
ACAD
1000
AcDbSavedByObjectVersion
1070
     0
  0
VISUALSTYLE
  5
3A
102
{ACAD_REACTORS
330
2A
102
}
330
2A
100
AcDbVisualStyle
  2
ColorChange
 70
    16
 71
     2
 72
     2
 73
     3
 90
        0
 40
-0.6
 41
-30.0
 62
     5
 63
     8
421
  8421504
 74
     1
 91
        4
 64
     7
 65
   257
 75
     1
175
     1
 42
1.0
 92
        8
 66
     8
424
  8421504
 43
1.0
 76
     1
 77
     6
 78
     2
 67
     7
 79
     5
170
     0
171
     0
290
     0
174
     0
 93
        1
 44
0.0
173
     0
291
     1
 45
0.0
1001
ACAD
1000
AcDbSavedByObjectVersion
1070
     0
  0
VISUALSTYLE
  5
34
102
{ACAD_REACTORS
330
2A
102
}
330
2A
100
AcDbVisualStyle
  2
Conceptual
 70
     9
 71
     3
 72
     2
 73
     0
 90
        0
 40
-0.6
 41
-30.0
 62
     5
 63
     7
421
 16777215
 74
     2
 91
        2
 64
     7
 65
   257
 75
     1
175
     1
 42
40.0
 92
        8
 66
     7
 43
1.0
 76
     1
 77
     6
 78
     2
 67
     7
 79
     3
170
     0
171
     0
290
     0
174
     0
 93
        1
 44
0.0
173
     0
291
     0
 45
0.0
1001
ACAD
1000
AcDbSavedByObjectVersion
1070
     0
  0
VISUALSTYLE
  5
35
102
{ACAD_REACTORS
330
2A
102
}
330
2A
100
AcDbVisualStyle
  2
Dim
 70
    11
 71
     2
 72
     2
 73
     0
 90
        0
 40
-0.6
 41
-30.0
 62
     5
 63
     7
421
 16777215
 74
     1
 91
        4
 64
     7
 65
   257
 75
     1
175
     1
 42
1.0
 92
        8
 66
     7
 43
1.0
 76
     1
 77
     6
 78
     2
 67
     7
 79
     5
170
     0
171
     0
290
     0
174
     0
 93
        1
 44
-50.0
173
     0
291
     1
 45
0.0
1001
ACAD
1000
AcDbSavedByObjectVersion
1070
     0
  0
VISUALSTYLE
  5
39
102
{ACAD_REACTORS
330
2A
102
}
330
2A
100
AcDbVisualStyle
  2
Facepattern
 70
    15
 71
     2
 72
     2
 73
     0
 90
        0
 40
-0.6
 41
-30.0
 62
     5
 63
     7
421
 16777215
 74
     1
 91
        4
 64
     7
 65
   257
 75
     1
175
     1
 42
1.0
 92
        8
 66
     7
 43
1.0
 76
     1
 77
     6
 78
     2
 67
     7
 79
     5
170
     0
171
     0
290
     0
174
     0
 93
        1
 44
0.0
173
     0
291
     1
 45
0.0
1001
ACAD
1000
AcDbSavedByObjectVersion
1070
     0
  0
VISUALSTYLE
  5
2B
102
{ACAD_REACTORS
330
2A
102
}
330
2A
100
AcDbVisualStyle
  2
Flat
 70
     0
 71
     2
 72
     1
 73
     1
 90
        2
 40
-0.6
 41
30.0
 62
     5
 63
     7
421
 16777215
 74
     0
 91
        4
 64
     7
 65
   257
 75
     1
175
     1
 42
1.0
 92
        8
 66
     7
 43
1.0
 76
     1
 77
     6
 78
     2
 67
     7
 79
     5
170
     0
171
     0
290
     0
174
     0
 93
       13
 44
0.0
173
     0
291
     1
 45
0.0
1001
ACAD
1000
AcDbSavedByObjectVersion
1070
     0
  0
VISUALSTYLE
  5
2C
102
{ACAD_REACTORS
330
2A
102
}
330
2A
100
AcDbVisualStyle
  2
FlatWithEdges
 70
     1
 71
     2
 72
     1
 73
     1
 90
        2
 40
-0.6
 41
30.0
 62
     5
 63
     7
421
 16777215
 74
     1
 91
        4
 64
     7
 65
   257
 75
     1
175
     1
 42
1.0
 92
        0
 66
   257
 43
1.0
 76
     1
 77
     6
 78
     2
 67
     7
 79
     5
170
     0
171
     0
290
     0
174
     0
 93
       13
 44
0.0
173
     0
291
     1
 45
0.0
1001
ACAD
1000
AcDbSavedByObjectVersion
1070
     0
  0
VISUALSTYLE
  5
2D
102
{ACAD_REACTORS
330
2A
102
}
330
2A
100
AcDbVisualStyle
  2
Gouraud
 70
     2
 71
     2
 72
     2
 73
     1
 90
        2
 40
-0.6
 41
30.0
 62
     5
 63
     7
421
 16777215
 74
     0
 91
        4
 64
     7
 65
   257
 75
     1
175
     1
 42
1.0
 92
        0
 66
     7
 43
1.0
 76
     1
 77
     6
 78
     2
 67
     7
 79
     5
170
     0
171
     0
290
     0
174
     0
 93
       13
 44
0.0
173
     0
291
     1
 45
0.0
1001
ACAD
1000
AcDbSavedByObjectVersion
1070
     0
  0
VISUALSTYLE
  5
2E
102
{ACAD_REACTORS
330
2A
102
}
330
2A
100
AcDbVisualStyle
  2
GouraudWithEdges
 70
     3
 71
     2
 72
     2
 73
     1
 90
        2
 40
-0.6
 41
30.0
 62
     5
 63
     7
421
 16777215
 74
     1
 91
        4
 64
     7
 65
   257
 75
     1
175
     1
 42
1.0
 92
        0
 66
   257
 43
1.0
 76
     1
 77
     6
 78
     2
 67
     7
 79
     5
170
     0
171
     0
290
     0
174
     0
 93
       13
 44
0.0
173
     0
291
     1
 45
0.0
1001
ACAD
1000
AcDbSavedByObjectVersion
1070
     0
  0
VISUALSTYLE
  5
38
102
{ACAD_REACTORS
330
2A
102
}
330
2A
100
AcDbVisualStyle
  2
Linepattern
 70
    14
 71
     2
 72
     2
 73
     0
 90
        0
 40
-0.6
 41
-30.0
 62
     5
 63
     7
421
 16777215
 74
     1
 91
        4
 64
     7
 65
   257
 75
     7
175
     7
 42
1.0
 92
        8
 66
     7
 43
1.0
 76
     1
 77
     6
 78
     2
 67
     7
 79
     5
170
     0
171
     0
290
     0
174
     0
 93
        1
 44
0.0
173
     0
291
     1
 45
0.0
1001
ACAD
1000
AcDbSavedByObjectVersion
1070
     0
  0
VISUALSTYLE
  5
33
102
{ACAD_REACTORS
330
2A
102
}
330
2A
100
AcDbVisualStyle
  2
Realistic
 70
     8
 71
     2
 72
     2
 73
     0
 90
        0
 40
-0.6
 41
-30.0
 62
     5
 63
     7
421
 16777215
 74
     1
 91
        0
 64
     7
 65
   257
 75
     1
175
     1
 42
1.0
 92
        8
 66
     8
424
  7895160
 43
1.0
 76
     1
 77
     6
 78
     2
 67
     7
 79
     5
170
     0
171
     0
290
     0
174
     0
 93
       13
 44
0.0
173
     0
291
     0
 45
0.0
1001
ACAD
1000
AcDbSavedByObjectVersion
1070
     0
  0
VISUALSTYLE
  5
37
102
{ACAD_REACTORS
330
2A
102
}
330
2A
100
AcDbVisualStyle
  2
Thicken
 70
    13
 71
     2
 72
     2
 73
     0
 90
        0
 40
-0.6
 41
-30.0
 62
     5
 63
     7
421
 16777215
 74
     1
 91
        4
 64
     7
 65
   257
 75
     1
175
     1
 42
1.0
 92
       12
 66
     7
 43
1.0
 76
     1
 77
     6
 78
     2
 67
     7
 79
     5
170
     0
171
     0
290
     0
174
     0
 93
        1
 44
0.0
173
     0
291
     1
 45
0.0
1001
ACAD
1000
AcDbSavedByObjectVersion
1070
     0
  0
ENDSEC
  0
EOF
