  0
SECTION
  2
HEADER
  9
$ACADVER
  1
AC1018
  9
$ACADMAINTVER
 70
     0
  9
$DWGCODEPAGE
  3
ANSI_1252
  9
$INSBASE
 10
0.0
 20
0.0
 30
0.0
  9
$EXTMIN
 10
-15.00190568170768
 20
0.0
 30
0.0
  9
$EXTMAX
 10
58.58642542332201
 20
71.68426288798452
 30
0.0
  9
$LIMMIN
 10
0.0
 20
0.0
  9
$LIMMAX
 10
12.0
 20
9.0
  9
$ORTHOMODE
 70
     0
  9
$REGENMODE
 70
     1
  9
$FILLMODE
 70
     1
  9
$QTEXTMODE
 70
     0
  9
$MIRRTEXT
 70
     1
  9
$LTSCALE
 40
0.0393700787401575
  9
$ATTMODE
 70
     1
  9
$TEXTSIZE
 40
0.2
  9
$TRACEWID
 40
0.05
  9
$TEXTSTYLE
  7
Standard
  9
$CLAYER
  8
Default
  9
$CELTYPE
  6
ByLayer
  9
$CECOLOR
 62
   256
  9
$CELTSCALE
 40
1.0
  9
$DISPSILH
 70
     0
  9
$DIMSCALE
 40
1.0
  9
$DIMASZ
 40
0.18
  9
$DIMEXO
 40
0.0625
  9
$DIMDLI
 40
0.38
  9
$DIMRND
 40
0.0
  9
$DIMDLE
 40
0.0
  9
$DIMEXE
 40
0.18
  9
$DIMTP
 40
0.0
  9
$DIMTM
 40
0.0
  9
$DIMTXT
 40
0.18
  9
$DIMCEN
 40
0.09
  9
$DIMTSZ
 40
0.0
  9
$DIMTOL
 70
     0
  9
$DIMLIM
 70
     0
  9
$DIMTIH
 70
     1
  9
$DIMTOH
 70
     1
  9
$DIMSE1
 70
     0
  9
$DIMSE2
 70
     0
  9
$DIMTAD
 70
     0
  9
$DIMZIN
 70
     0
  9
$DIMBLK
  1

  9
$DIMASO
 70
     1
  9
$DIMSHO
 70
     1
  9
$DIMPOST
  1

  9
$DIMAPOST
  1

  9
$DIMALT
 70
     0
  9
$DIMALTD
 70
     2
  9
$DIMALTF
 40
25.4
  9
$DIMLFAC
 40
1.0
  9
$DIMTOFL
 70
     0
  9
$DIMTVP
 40
0.0
  9
$DIMTIX
 70
     0
  9
$DIMSOXD
 70
     0
  9
$DIMSAH
 70
     0
  9
$DIMBLK1
  1

  9
$DIMBLK2
  1

  9
$DIMSTYLE
  2
Standard
  9
$DIMCLRD
 70
     0
  9
$DIMCLRE
 70
     0
  9
$DIMCLRT
 70
     0
  9
$DIMTFAC
 40
1.0
  9
$DIMGAP
 40
0.09
  9
$DIMJUST
 70
     0
  9
$DIMSD1
 70
     0
  9
$DIMSD2
 70
     0
  9
$DIMTOLJ
 70
     1
  9
$DIMTZIN
 70
     0
  9
$DIMALTZ
 70
     0
  9
$DIMALTTZ
 70
     0
  9
$DIMUPT
 70
     0
  9
$DIMDEC
 70
     4
  9
$DIMTDEC
 70
     4
  9
$DIMALTU
 70
     2
  9
$DIMALTTD
 70
     2
  9
$DIMTXSTY
  7
Standard
  9
$DIMAUNIT
 70
     0
  9
$DIMADEC
 70
     0
  9
$DIMALTRND
 40
0.0
  9
$DIMAZIN
 70
     0
  9
$DIMDSEP
 70
    46
  9
$DIMATFIT
 70
     3
  9
$DIMFRAC
 70
     0
  9
$DIMLDRBLK
  1

  9
$DIMLUNIT
 70
     2
  9
$DIMLWD
 70
    -2
  9
$DIMLWE
 70
    -2
  9
$DIMTMOVE
 70
     2
  9
$LUNITS
 70
     2
  9
$LUPREC
 70
     3
  9
$SKETCHINC
 40
0.1
  9
$FILLETRAD
 40
0.5
  9
$AUNITS
 70
     0
  9
$AUPREC
 70
     0
  9
$MENU
  1
.
  9
$ELEVATION
 40
0.0
  9
$PELEVATION
 40
0.0
  9
$THICKNESS
 40
0.0
  9
$LIMCHECK
 70
     0
  9
$CHAMFERA
 40
0.5
  9
$CHAMFERB
 40
0.5
  9
$CHAMFERC
 40
1.0
  9
$CHAMFERD
 40
0.0
  9
$SKPOLY
 70
     0
  9
$TDCREATE
 40
2457528.361612754
  9
$TDUCREATE
 40
2457528.528279421
  9
$TDUPDATE
 40
2457528.361612766
  9
$TDUUPDATE
 40
2457528.528279433
  9
$TDINDWG
 40
0.0000000116
  9
$TDUSRTIMER
 40
0.0000000116
  9
$USRTIMER
 70
     1
  9
$ANGBASE
 50
0.0
  9
$ANGDIR
 70
     0
  9
$PDMODE
 70
     0
  9
$PDSIZE
 40
0.0
  9
$PLINEWID
 40
0.0
  9
$SPLFRAME
 70
     0
  9
$SPLINETYPE
 70
     6
  9
$SPLINESEGS
 70
     8
  9
$HANDSEED
  5
F0
  9
$SURFTAB1
 70
     6
  9
$SURFTAB2
 70
     6
  9
$SURFTYPE
 70
     6
  9
$SURFU
 70
     6
  9
$SURFV
 70
     6
  9
$UCSBASE
  2

  9
$UCSNAME
  2

  9
$UCSORG
 10
0.0
 20
0.0
 30
0.0
  9
$UCSXDIR
 10
1.0
 20
0.0
 30
0.0
  9
$UCSYDIR
 10
0.0
 20
1.0
 30
0.0
  9
$UCSORTHOREF
  2

  9
$UCSORTHOVIEW
 70
     0
  9
$UCSORGTOP
 10
0.0
 20
0.0
 30
0.0
  9
$UCSORGBOTTOM
 10
0.0
 20
0.0
 30
0.0
  9
$UCSORGLEFT
 10
0.0
 20
0.0
 30
0.0
  9
$UCSORGRIGHT
 10
0.0
 20
0.0
 30
0.0
  9
$UCSORGFRONT
 10
0.0
 20
0.0
 30
0.0
  9
$UCSORGBACK
 10
0.0
 20
0.0
 30
0.0
  9
$PUCSBASE
  2

  9
$PUCSNAME
  2

  9
$PUCSORG
 10
0.0
 20
0.0
 30
0.0
  9
$PUCSXDIR
 10
1.0
 20
0.0
 30
0.0
  9
$PUCSYDIR
 10
0.0
 20
1.0
 30
0.0
  9
$PUCSORTHOREF
  2

  9
$PUCSORTHOVIEW
 70
     0
  9
$PUCSORGTOP
 10
0.0
 20
0.0
 30
0.0
  9
$PUCSORGBOTTOM
 10
0.0
 20
0.0
 30
0.0
  9
$PUCSORGLEFT
 10
0.0
 20
0.0
 30
0.0
  9
$PUCSORGRIGHT
 10
0.0
 20
0.0
 30
0.0
  9
$PUCSORGFRONT
 10
0.0
 20
0.0
 30
0.0
  9
$PUCSORGBACK
 10
0.0
 20
0.0
 30
0.0
  9
$USERI1
 70
     0
  9
$USERI2
 70
     0
  9
$USERI3
 70
     0
  9
$USERI4
 70
     0
  9
$USERI5
 70
     0
  9
$USERR1
 40
0.0
  9
$USERR2
 40
0.0
  9
$USERR3
 40
0.0
  9
$USERR4
 40
0.0
  9
$USERR5
 40
0.0
  9
$WORLDVIEW
 70
     1
  9
$SHADEDGE
 70
     3
  9
$SHADEDIF
 70
    70
  9
$TILEMODE
 70
     1
  9
$MAXACTVP
 70
    64
  9
$PINSBASE
 10
0.0
 20
0.0
 30
0.0
  9
$PLIMCHECK
 70
     0
  9
$PEXTMIN
 10
1.000000000000000E+20
 20
1.000000000000000E+20
 30
1.000000000000000E+20
  9
$PEXTMAX
 10
-1.000000000000000E+20
 20
-1.000000000000000E+20
 30
-1.000000000000000E+20
  9
$PLIMMIN
 10
0.0
 20
0.0
  9
$PLIMMAX
 10
12.0
 20
9.0
  9
$UNITMODE
 70
     0
  9
$VISRETAIN
 70
     1
  9
$PLINEGEN
 70
     0
  9
$PSLTSCALE
 70
     1
  9
$TREEDEPTH
 70
  3020
  9
$CMLSTYLE
  2
Standard
  9
$CMLJUST
 70
     0
  9
$CMLSCALE
 40
1.0
  9
$PROXYGRAPHICS
 70
     1
  9
$MEASUREMENT
 70
     0
  9
$CELWEIGHT
370
    -1
  9
$ENDCAPS
280
     0
  9
$JOINSTYLE
280
     0
  9
$LWDISPLAY
290
     0
  9
$INSUNITS
 70
     1
  9
$HYPERLINKBASE
  1

  9
$STYLESHEET
  1

  9
$XEDIT
290
     1
  9
$CEPSNTYPE
380
     0
  9
$PSTYLEMODE
290
     1
  9
$FINGERPRINTGUID
  2
{5C333AA5-285C-4400-BFA7-8FE8229E0248}
  9
$VERSIONGUID
  2
{FAEB1C32-E019-11D5-929B-00C0DF256EC4}
  9
$EXTNAMES
290
     1
  9
$PSVPSCALE
 40
0.0
  9
$OLESTARTUP
290
     0
  9
$SORTENTS
280
   127
  9
$INDEXCTL
280
     0
  9
$HIDETEXT
280
     1
  9
$XCLIPFRAME
290
     0
  9
$HALOGAP
280
     0
  9
$OBSCOLOR
 70
   257
  9
$OBSLTYPE
280
     0
  9
$INTERSECTIONDISPLAY
280
     0
  9
$INTERSECTIONCOLOR
 70
   257
  9
$DIMASSOC
280
     2
  9
$PROJECTNAME
  1

  0
ENDSEC
  0
SECTION
  2
CLASSES
  0
CLASS
  1
ACDBDICTIONARYWDFLT
  2
AcDbDictionaryWithDefault
  3
ObjectDBX Classes
 90
        0
 91
        4
280
     0
281
     0
  0
CLASS
  1
VISUALSTYLE
  2
AcDbVisualStyle
  3
ObjectDBX Classes
 90
     4095
 91
        4
280
     0
281
     0
  0
ENDSEC
  0
SECTION
  2
TABLES
  0
TABLE
  2
VPORT
  5
8
330
0
100
AcDbSymbolTable
 70
     1
  0
VPORT
  5
29
330
8
100
AcDbSymbolTableRecord
100
AcDbViewportTableRecord
  2
*Active
 70
     0
 10
0.0
 20
0.0
 11
1.0
 21
1.0
 12
21.79225987080716
 22
35.84213144399226
 13
0.0
 23
0.0
 14
0.5
 24
0.5
 15
0.5
 25
0.5
 16
0.0
 26
0.0
 36
1.0
 17
0.0
 27
0.0
 37
0.0
 40
73.11794814574421
 41
1.026561872025113
 42
50.0
 43
0.0
 44
0.0
 50
0.0
 51
0.0
 71
     0
 72
   100
 73
     1
 74
     3
 75
     0
 76
     0
 77
     0
 78
     0
281
     0
 65
     1
110
0.0
120
0.0
130
0.0
111
1.0
121
0.0
131
0.0
112
0.0
122
1.0
132
0.0
 79
     0
146
0.0
  0
ENDTAB
  0
TABLE
  2
LTYPE
  5
5
330
0
100
AcDbSymbolTable
 70
     1
  0
LTYPE
  5
14
330
5
100
AcDbSymbolTableRecord
100
AcDbLinetypeTableRecord
  2
ByBlock
 70
     0
  3

 72
    65
 73
     0
 40
0.0
  0
LTYPE
  5
15
330
5
100
AcDbSymbolTableRecord
100
AcDbLinetypeTableRecord
  2
ByLayer
 70
     0
  3

 72
    65
 73
     0
 40
0.0
  0
LTYPE
  5
16
330
5
100
AcDbSymbolTableRecord
100
AcDbLinetypeTableRecord
  2
Continuous
 70
     0
  3
Solid line
 72
    65
 73
     0
 40
0.0
  0
ENDTAB
  0
TABLE
  2
LAYER
  5
2
330
0
100
AcDbSymbolTable
 70
     3
  0
LAYER
  5
10
330
2
100
AcDbSymbolTableRecord
100
AcDbLayerTableRecord
  2
0
 70
     0
 62
     7
  6
Continuous
370
    -3
390
F
  0
LAYER
  5
3B
330
2
100
AcDbSymbolTableRecord
100
AcDbLayerTableRecord
  2
Default
 70
     0
 62
     7
  6
Continuous
370
    -3
390
F
  0
LAYER
  5
4C
330
2
100
AcDbSymbolTableRecord
100
AcDbLayerTableRecord
  2
Default - Tangent
 70
     0
 62
     7
  6
Continuous
370
    -3
390
F
  0
ENDTAB
  0
TABLE
  2
STYLE
  5
3
330
0
100
AcDbSymbolTable
 70
     1
  0
STYLE
  5
11
330
3
100
AcDbSymbolTableRecord
100
AcDbTextStyleTableRecord
  2
Standard
 70
     0
 40
0.0
 41
1.0
 50
0.0
 71
     0
 42
0.2
  3
txt
  4

  0
ENDTAB
  0
TABLE
  2
VIEW
  5
6
330
0
100
AcDbSymbolTable
 70
     0
  0
ENDTAB
  0
TABLE
  2
UCS
  5
7
330
0
100
AcDbSymbolTable
 70
     0
  0
ENDTAB
  0
TABLE
  2
APPID
  5
9
330
0
100
AcDbSymbolTable
 70
     1
  0
APPID
  5
12
330
9
100
AcDbSymbolTableRecord
100
AcDbRegAppTableRecord
  2
ACAD
 70
     0
  0
ENDTAB
  0
TABLE
  2
DIMSTYLE
  5
A
330
0
100
AcDbSymbolTable
 70
     1
100
AcDbDimStyleTable
  0
DIMSTYLE
105
27
330
A
100
AcDbSymbolTableRecord
100
AcDbDimStyleTableRecord
  2
Standard
 70
     0
340
11
  0
ENDTAB
  0
TABLE
  2
BLOCK_RECORD
  5
1
330
0
100
AcDbSymbolTable
 70
     1
  0
BLOCK_RECORD
  5
1F
330
1
100
AcDbSymbolTableRecord
100
AcDbBlockTableRecord
  2
*Model_Space
340
22
  0
BLOCK_RECORD
  5
1B
330
1
100
AcDbSymbolTableRecord
100
AcDbBlockTableRecord
  2
*Paper_Space
340
1E
  0
BLOCK_RECORD
  5
23
330
1
100
AcDbSymbolTableRecord
100
AcDbBlockTableRecord
  2
*Paper_Space0
340
26
  0
ENDTAB
  0
ENDSEC
  0
SECTION
  2
BLOCKS
  0
BLOCK
  5
20
330
1F
100
AcDbEntity
  8
0
100
AcDbBlockBegin
  2
*Model_Space
 70
     0
 10
0.0
 20
0.0
 30
0.0
  3
*Model_Space
  1

  0
ENDBLK
  5
21
330
1F
100
AcDbEntity
  8
0
100
AcDbBlockEnd
  0
BLOCK
  5
1C
330
1B
100
AcDbEntity
 67
     1
  8
0
100
AcDbBlockBegin
  2
*Paper_Space
 70
     0
 10
0.0
 20
0.0
 30
0.0
  3
*Paper_Space
  1

  0
ENDBLK
  5
1D
330
1B
100
AcDbEntity
 67
     1
  8
0
100
AcDbBlockEnd
  0
BLOCK
  5
24
330
23
100
AcDbEntity
  8
0
100
AcDbBlockBegin
  2
*Paper_Space0
 70
     0
 10
0.0
 20
0.0
 30
0.0
  3
*Paper_Space0
  1

  0
ENDBLK
  5
25
330
23
100
AcDbEntity
  8
0
100
AcDbBlockEnd
  0
ENDSEC
  0
SECTION
  2
ENTITIES
  0
SPLINE
  5
3C
330
1F
100
AcDbEntity
  8
Default
100
AcDbSpline
210
0.0
220
0.0
230
1.0
 70
     8
 71
     3
 72
    10
 73
     6
 74
     0
 42
0.0000000001
 43
0.0000000001
 40
0.0
 40
0.0
 40
0.0
 40
0.0
 40
1.00000002935038
 40
2.00000005870076
 40
3.0
 40
3.0
 40
3.0
 40
3.0
 10
-8.244529398830025
 20
0.594299430140967
 30
0.0
 10
-8.38614791731095
 20
0.6259281741506038
 30
0.0
 10
-8.535584575632413
 20
0.8814936107017785
 30
0.0
 10
-8.568411963579535
 20
1.290157818710709
 30
0.0
 10
-8.528629244749027
 20
1.562156230297923
 30
0.0
 10
-8.496205058117937
 20
1.694485934407024
 30
0.0
  0
SPLINE
  5
3D
330
1F
100
AcDbEntity
  8
Default
100
AcDbSpline
210
0.0
220
0.0
230
1.0
 70
    12
 71
     2
 72
     6
 73
     3
 74
     0
 42
0.0000000001
 43
0.0000000001
 40
0.0
 40
0.0
 40
0.0
 40
9.117615625072572
 40
9.117615625072572
 40
9.117615625072572
 10
-8.496205058117992
 20
1.694485934407024
 30
0.0
 41
0.9999999999999998
 10
-7.34356330965635
 20
6.105171412441547
 30
0.0
 41
0.9999999696346801
 10
-6.188786089859521
 20
10.51529827672655
 30
0.0
 41
0.9999999979189897
  0
SPLINE
  5
3E
330
1F
100
AcDbEntity
  8
Default
100
AcDbSpline
210
0.0
220
0.0
230
1.0
 70
     8
 71
     3
 72
     9
 73
     5
 74
     0
 42
0.0000000001
 43
0.0000000001
 40
0.4326326075120363
 40
0.4326326075120363
 40
0.4326326075120363
 40
0.4326326075120363
 40
1.0
 40
1.987996263805257
 40
1.987996263805257
 40
1.987996263805257
 40
1.987996263805257
 10
7.449761444246633
 20
11.07095628617381
 30
0.0
 10
6.94513364765811
 20
10.81545736395161
 30
0.0
 10
5.528109522084975
 20
10.20350182048342
 30
0.0
 10
4.020452063601624
 20
9.914369992172642
 30
0.0
 10
3.043343348953783
 20
9.808345316161772
 30
0.0
  0
SPLINE
  5
3F
330
1F
100
AcDbEntity
  8
Default
100
AcDbSpline
210
0.0
220
0.0
230
1.0
 70
     8
 71
     3
 72
     9
 73
     5
 74
     0
 42
0.0000000001
 43
0.0000000001
 40
4.012003734037991
 40
4.012003734037991
 40
4.012003734037991
 40
4.012003734037991
 40
5.0
 40
5.567367446723184
 40
5.567367446723184
 40
5.567367446723184
 40
5.567367446723184
 10
-3.043343343436391
 20
9.808345314888614
 30
0.0
 10
-4.020451995140689
 20
9.914369964121823
 30
0.0
 10
-5.528109213363052
 20
10.20350170183892
 30
0.0
 10
-6.94513353692372
 20
10.81545730944597
 30
0.0
 10
-7.449761444298929
 20
11.07095628589911
 30
0.0
  0
SPLINE
  5
40
330
1F
100
AcDbEntity
  8
Default
100
AcDbSpline
210
0.0
220
0.0
230
1.0
 70
    12
 71
     2
 72
     6
 73
     3
 74
     0
 42
0.0000000001
 43
0.0000000001
 40
0.3387995255958137
 40
0.3387995255958137
 40
0.3387995255958137
 40
9.448384306007876
 40
9.448384306007876
 40
9.448384306007876
 10
6.598629136425756
 20
10.67735537102073
 30
0.0
 41
0.9999999998947299
 10
7.751920119305491
 20
6.270990240543595
 30
0.0
 41
0.9999999985321213
 10
8.904742137812576
 20
1.864502393295843
 30
0.0
 41
1.0
  0
SPLINE
  5
41
330
1F
100
AcDbEntity
  8
Default
100
AcDbSpline
210
0.0
220
0.0
230
1.0
 70
     8
 71
     3
 72
    10
 73
     6
 74
     0
 42
0.0000000001
 43
0.0000000001
 40
0.0
 40
0.0
 40
0.0
 40
0.0
 40
0.9999999989318519
 40
1.999999999465926
 40
3.0
 40
3.0
 40
3.0
 40
3.0
 10
8.904742137812576
 20
1.864502393295843
 30
0.0
 10
8.941309041754721
 20
1.724392901539549
 30
0.0
 10
8.995958405830834
 20
1.438944010062621
 30
0.0
 10
8.994219870823912
 20
1.00169792439588
 30
0.0
 10
8.918834587784403
 20
0.7187584439538509
 30
0.0
 10
8.853861244792228
 20
0.5888731306876938
 30
0.0
  0
SPLINE
  5
42
330
1F
100
AcDbEntity
  8
Default
100
AcDbSpline
210
0.0
220
0.0
230
1.0
 70
     8
 71
     3
 72
   109
 73
   105
 74
     0
 42
0.0000000001
 43
0.0000000001
 40
5.7200318967572
 40
5.7200318967572
 40
5.7200318967572
 40
5.7200318967572
 40
6.0
 40
6.0
 40
6.0
 40
7.0
 40
8.0
 40
9.0
 40
10.0
 40
11.0
 40
12.0
 40
13.0
 40
14.0
 40
15.0
 40
16.0
 40
17.0
 40
18.0
 40
19.0
 40
20.0
 40
21.0
 40
22.0
 40
23.0
 40
24.0
 40
25.0
 40
26.0
 40
27.0
 40
28.0
 40
29.0
 40
30.0
 40
31.0
 40
32.0
 40
33.0
 40
34.0
 40
35.0
 40
36.0
 40
37.0
 40
38.0
 40
39.0
 40
40.0
 40
41.0
 40
42.0
 40
43.0
 40
44.0
 40
45.0
 40
46.0
 40
47.0
 40
48.0
 40
49.0
 40
50.0
 40
51.0
 40
52.0
 40
53.0
 40
53.0
 40
53.0
 40
54.0
 40
55.0
 40
56.0
 40
57.0
 40
58.0
 40
59.0
 40
60.0
 40
61.0
 40
62.0
 40
63.0
 40
64.0
 40
65.0
 40
66.0
 40
67.0
 40
68.0
 40
69.0
 40
70.0
 40
71.0
 40
72.0
 40
73.0
 40
74.0
 40
75.0
 40
76.0
 40
77.0
 40
78.0
 40
79.0
 40
80.0
 40
81.0
 40
82.0
 40
83.0
 40
84.0
 40
85.0
 40
86.0
 40
87.0
 40
88.0
 40
89.0
 40
90.0
 40
91.0
 40
92.0
 40
93.0
 40
94.0
 40
95.0
 40
96.0
 40
97.0
 40
98.0
 40
99.0
 40
100.0
 40
100.0
 40
100.0
 40
100.2799681379412
 40
100.2799681379412
 40
100.2799681379412
 40
100.2799681379412
 10
-7.854439263037648
 20
11.28400229014162
 30
0.0
 10
-8.100180875789533
 20
11.41826579479554
 30
0.0
 10
-8.342919231891699
 20
11.55968639417417
 30
0.0
 10
-8.582628398274835
 20
11.70697994876294
 30
0.0
 10
-8.77236365612697
 20
11.82554141230499
 30
0.0
 10
-9.14703932613969
 20
12.07033965391049
 30
0.0
 10
-9.693714013871897
 20
12.4600054632218
 30
0.0
 10
-10.22413111922936
 20
12.87153132742267
 30
0.0
 10
-10.73735914954312
 20
13.30429340135443
 30
0.0
 10
-11.23350979362834
 20
13.7565272439613
 30
0.0
 10
-11.71061241200141
 20
14.22883576924914
 30
0.0
 10
-12.16804985284756
 20
14.72020994485984
 30
0.0
 10
-12.60460374457392
 20
15.23023780596163
 30
0.0
 10
-13.01902977841917
 20
15.75841535369808
 30
0.0
 10
-13.41027124697194
 20
16.3039703259673
 30
0.0
 10
-13.77830620809101
 20
16.86548547647612
 30
0.0
 10
-14.12232491405945
 20
17.44185049373902
 30
0.0
 10
-14.44482366412552
 20
18.03106238135377
 30
0.0
 10
-14.74664218978853
 20
18.62903017321868
 30
0.0
 10
-15.04145883747793
 20
19.23794448778702
 30
0.0
 10
-15.01112432931512
 20
19.93841654697041
 30
0.0
 10
-14.61259099797229
 20
20.52095148255633
 30
0.0
 10
-13.94603456874762
 20
20.70999633086314
 30
0.0
 10
-13.29326928420289
 20
20.87186971961518
 30
0.0
 10
-12.74600174017536
 20
21.27941234604161
 30
0.0
 10
-12.29490202463461
 20
21.77977971447985
 30
0.0
 10
-11.97212069591473
 20
22.37167102978166
 30
0.0
 10
-11.68271763611784
 20
22.97695730247487
 30
0.0
 10
-11.44802570862748
 20
23.60655260251623
 30
0.0
 10
-11.2478679322673
 20
24.2473277498406
 30
0.0
 10
-11.07819411403062
 20
24.89693043433604
 30
0.0
 10
-10.93758391942566
 20
25.55335009763031
 30
0.0
 10
-10.80434690246483
 20
26.21105432365934
 30
0.0
 10
-10.67509924139273
 20
26.87017931598758
 30
0.0
 10
-10.49310622161153
 20
27.51613151143844
 30
0.0
 10
-10.26748273341906
 20
28.15083030355921
 30
0.0
 10
-9.89501021537194
 20
28.71782128160022
 30
0.0
 10
-9.343692574169665
 20
29.11731713703772
 30
0.0
 10
-8.720831680305594
 20
29.3762120117574
 30
0.0
 10
-8.05404303707246
 20
29.48151398267884
 30
0.0
 10
-7.382918238346008
 20
29.49681891408797
 30
0.0
 10
-6.711860089147422
 20
29.50946430651768
 30
0.0
 10
-6.040662319798912
 20
29.51449859363956
 30
0.0
 10
-5.369464662783912
 20
29.51429680535068
 30
0.0
 10
-4.698268667396832
 20
29.51200791763587
 30
0.0
 10
-4.027070313897582
 20
29.51042066851635
 30
0.0
 10
-3.355872525399946
 20
29.51305628425029
 30
0.0
 10
-2.684711546071895
 20
29.52041047874499
 30
0.0
 10
-2.013566799659657
 20
29.52886695237102
 30
0.0
 10
-1.342397272275292
 20
29.53538134452812
 30
0.0
 10
-0.6712000870149382
 20
29.53761184316364
 30
0.0
 10
-0.2237345294533384
 20
29.53825916570393
 30
0.0
 10
0.0
 20
29.53876648001333
 30
0.0
 10
0.22373452945331
 20
29.53825916570393
 30
0.0
 10
0.6712000870148813
 20
29.53761184316364
 30
0.0
 10
1.342397272275264
 20
29.53538134452812
 30
0.0
 10
2.013566799659657
 20
29.52886695237102
 30
0.0
 10
2.684711546071867
 20
29.52041047874499
 30
0.0
 10
3.355872525399917
 20
29.51305628425029
 30
0.0
 10
4.027070313897525
 20
29.51042066851635
 30
0.0
 10
4.698268667396803
 20
29.51200791763587
 30
0.0
 10
5.369464662783884
 20
29.51429680535068
 30
0.0
 10
6.040662319798855
 20
29.51449859363956
 30
0.0
 10
6.711860089147422
 20
29.50946430651768
 30
0.0
 10
7.382918238345979
 20
29.49681891408797
 30
0.0
 10
8.054043037072432
 20
29.48151398267884
 30
0.0
 10
8.720831680305537
 20
29.3762120117574
 30
0.0
 10
9.343692574169665
 20
29.11731713703772
 30
0.0
 10
9.895010215371911
 20
28.71782128160022
 30
0.0
 10
10.267482733419
 20
28.15083030355921
 30
0.0
 10
10.4931062216115
 20
27.51613151143844
 30
0.0
 10
10.6750992413927
 20
26.87017931598758
 30
0.0
 10
10.80434690246483
 20
26.21105432365934
 30
0.0
 10
10.93758391942566
 20
25.55335009763031
 30
0.0
 10
11.07819411403062
 20
24.89693043433604
 30
0.0
 10
11.2478679322673
 20
24.2473277498406
 30
0.0
 10
11.44802570862745
 20
23.60655260251623
 30
0.0
 10
11.68271763611779
 20
22.97695730247487
 30
0.0
 10
11.97212069591473
 20
22.37167102978166
 30
0.0
 10
12.29490202463461
 20
21.77977971447985
 30
0.0
 10
12.7460017401753
 20
21.27941234604161
 30
0.0
 10
13.29326928420284
 20
20.87186971961518
 30
0.0
 10
13.94603456874759
 20
20.70999633086314
 30
0.0
 10
14.61259099797226
 20
20.52095148255633
 30
0.0
 10
15.01112432931512
 20
19.93841654697041
 30
0.0
 10
15.04145883747793
 20
19.23794448778702
 30
0.0
 10
14.7466421897885
 20
18.62903017321868
 30
0.0
 10
14.44482366412552
 20
18.03106238135377
 30
0.0
 10
14.12232491405939
 20
17.44185049373902
 30
0.0
 10
13.77830620809101
 20
16.86548547647612
 30
0.0
 10
13.41027124697189
 20
16.3039703259673
 30
0.0
 10
13.01902977841917
 20
15.75841535369808
 30
0.0
 10
12.60460374457392
 20
15.23023780596163
 30
0.0
 10
12.16804985284756
 20
14.72020994485984
 30
0.0
 10
11.71061241200138
 20
14.22883576924914
 30
0.0
 10
11.23350979362829
 20
13.7565272439613
 30
0.0
 10
10.73735914954307
 20
13.30429340135443
 30
0.0
 10
10.22413111922933
 20
12.87153132742267
 30
0.0
 10
9.693714013871897
 20
12.4600054632218
 30
0.0
 10
9.14703932613969
 20
12.07033965391049
 30
0.0
 10
8.772363656126913
 20
11.82554141230499
 30
0.0
 10
8.582628398274778
 20
11.70697994876294
 30
0.0
 10
8.342919227889979
 20
11.55968639550194
 30
0.0
 10
8.100180873621156
 20
11.41826579681195
 30
0.0
 10
7.854439262668336
 20
11.28400229208023
 30
0.0
  0
SPLINE
  5
43
330
1F
100
AcDbEntity
  8
Default
100
AcDbSpline
210
0.0
220
0.0
230
1.0
 70
     8
 71
     3
 72
    10
 73
     6
 74
     0
 42
0.0000000001
 43
0.0000000001
 40
0.0
 40
0.0
 40
0.0
 40
0.0
 40
1.00000002935038
 40
2.00000005870076
 40
3.0
 40
3.0
 40
3.0
 40
3.0
 10
8.244529398829968
 20
0.594299430140967
 30
0.0
 10
8.386147917310893
 20
0.6259281741506038
 30
0.0
 10
8.535584575632384
 20
0.8814936107017785
 30
0.0
 10
8.568411963579535
 20
1.290157818710709
 30
0.0
 10
8.52862924474897
 20
1.562156230297923
 30
0.0
 10
8.496205058117937
 20
1.694485934407024
 30
0.0
  0
SPLINE
  5
44
330
1F
100
AcDbEntity
  8
Default
100
AcDbSpline
210
0.0
220
0.0
230
1.0
 70
    12
 71
     2
 72
     6
 73
     3
 74
     0
 42
0.0000000001
 43
0.0000000001
 40
0.0
 40
0.0
 40
0.0
 40
9.117615625072572
 40
9.117615625072572
 40
9.117615625072572
 10
8.496205058117942
 20
1.694485934407024
 30
0.0
 41
0.9999999999999998
 10
7.343563309656275
 20
6.105171412441547
 30
0.0
 41
0.9999999696346801
 10
6.188786089859459
 20
10.51529827672655
 30
0.0
 41
0.9999999979189897
  0
SPLINE
  5
45
330
1F
100
AcDbEntity
  8
Default
100
AcDbSpline
210
0.0
220
0.0
230
1.0
 70
    12
 71
     2
 72
     6
 73
     3
 74
     0
 42
0.0000000001
 43
0.0000000001
 40
0.3387995255958137
 40
0.3387995255958137
 40
0.3387995255958137
 40
9.448384306007876
 40
9.448384306007876
 40
9.448384306007876
 10
-6.598629136425781
 20
10.67735537102073
 30
0.0
 41
0.9999999998947299
 10
-7.751920119305511
 20
6.270990240543595
 30
0.0
 41
0.9999999985321213
 10
-8.904742137812605
 20
1.864502393295843
 30
0.0
 41
1.0
  0
SPLINE
  5
46
330
1F
100
AcDbEntity
  8
Default
100
AcDbSpline
210
0.0
220
0.0
230
1.0
 70
     8
 71
     3
 72
    10
 73
     6
 74
     0
 42
0.0000000001
 43
0.0000000001
 40
0.0
 40
0.0
 40
0.0
 40
0.0
 40
0.9999999989318519
 40
1.999999999465926
 40
3.0
 40
3.0
 40
3.0
 40
3.0
 10
-8.904742137812605
 20
1.864502393295843
 30
0.0
 10
-8.941309041754778
 20
1.724392901539549
 30
0.0
 10
-8.995958405830834
 20
1.438944010062621
 30
0.0
 10
-8.99421987082394
 20
1.00169792439588
 30
0.0
 10
-8.918834587784431
 20
0.7187584439538509
 30
0.0
 10
-8.853861244792256
 20
0.5888731306876938
 30
0.0
  0
POLYLINE
  5
47
330
1F
100
AcDbEntity
  8
Default
100
AcDb2dPolyline
 66
     1
 10
0.0
 20
0.0
 30
0.0
  0
VERTEX
  5
48
330
47
100
AcDbEntity
  8
Default
100
AcDbVertex
100
AcDb2dVertex
 10
40.49882053990856
 20
9.964777109197785
 30
0.0
  0
VERTEX
  5
49
330
47
100
AcDbEntity
  8
Default
100
AcDbVertex
100
AcDb2dVertex
 10
39.67643468674322
 20
9.965763510961734
 30
0.0
  0
SEQEND
  5
4A
330
47
100
AcDbEntity
  8
Default
  0
SPLINE
  5
4B
330
1F
100
AcDbEntity
  8
Default
100
AcDbSpline
210
0.0
220
0.0
230
1.0
 70
     8
 71
     3
 72
    10
 73
     6
 74
     0
 42
0.0000000001
 43
0.0000000001
 40
-3.0
 40
-3.0
 40
-3.0
 40
-3.0
 40
-2.0
 40
-1.0
 40
-0.7370194021478085
 40
-0.7370194021478085
 40
-0.7370194021478085
 40
-0.7370194021478085
 10
39.67643468674322
 20
9.965763510961734
 30
0.0
 10
39.32050471198704
 20
10.05260274336804
 30
0.0
 10
38.62114434325284
 20
10.27329474044553
 30
0.0
 10
37.86214401851288
 20
10.61218294034294
 30
0.0
 10
37.46082894399919
 20
10.84180926018744
 30
0.0
 10
37.37820567664832
 20
10.89121811851598
 30
0.0
  0
SPLINE
  5
4D
330
1F
100
AcDbEntity
  8
Default - Tangent
100
AcDbSpline
210
0.0
220
0.0
230
1.0
 70
    12
 71
     2
 72
     6
 73
     3
 74
     0
 42
0.0000000001
 43
0.0000000001
 40
0.0
 40
0.0
 40
0.0
 40
0.2475642236874568
 40
0.2475642236874568
 40
0.2475642236874568
 10
8.927153913934177
 20
0.1529962105609592
 30
0.0
 41
1.0
 10
8.889767344440212
 20
0.017802616897597
 30
0.0
 41
0.8326791077797836
 10
8.750633846756358
 20
0.0000000000000069
 30
0.0
 41
1.0
  0
POLYLINE
  5
4E
330
1F
100
AcDbEntity
  8
Default - Tangent
100
AcDb2dPolyline
 66
     1
 10
0.0
 20
0.0
 30
0.0
  0
VERTEX
  5
4F
330
4E
100
AcDbEntity
  8
Default - Tangent
100
AcDbVertex
100
AcDb2dVertex
 10
8.750633846756358
 20
0.0000000000000069
 30
0.0
  0
VERTEX
  5
50
330
4E
100
AcDbEntity
  8
Default - Tangent
100
AcDbVertex
100
AcDb2dVertex
 10
7.578260739937264
 20
0.0000000000000061
 30
0.0
  0
SEQEND
  5
51
330
4E
100
AcDbEntity
  8
Default - Tangent
  0
SPLINE
  5
52
330
1F
100
AcDbEntity
  8
Default - Tangent
100
AcDbSpline
210
0.0
220
0.0
230
1.0
 70
     8
 71
     3
 72
     8
 73
     4
 74
     0
 42
0.0000000001
 43
0.0000000001
 40
-1.0
 40
-1.0
 40
-1.0
 40
-1.0
 40
0.0
 40
0.0
 40
0.0
 40
0.0
 10
7.578260739937264
 20
0.0000000000000061
 30
0.0
 10
7.467093555745407
 20
0.000000000000006
 30
0.0
 10
7.400817330532789
 20
0.0876852517350812
 30
0.0
 10
7.391300915043189
 20
0.1753086976115538
 30
0.0
  0
SPLINE
  5
53
330
1F
100
AcDbEntity
  8
Default - Tangent
100
AcDbSpline
210
0.0
220
0.0
230
1.0
 70
    12
 71
     2
 72
     6
 73
     3
 74
     0
 42
0.0000000001
 43
0.0000000001
 40
0.0
 40
0.0
 40
0.0
 40
0.1701793295661373
 40
0.1701793295661373
 40
0.1701793295661373
 10
7.391300915043189
 20
0.1753086976115538
 30
0.0
 41
1.0
 10
7.382111112850922
 20
0.2599248155066877
 30
0.0
 41
0.9995766822534313
 10
7.37785841339263
 20
0.3449321941234456
 30
0.0
 41
1.0
  0
SPLINE
  5
54
330
1F
100
AcDbEntity
  8
Default - Tangent
100
AcDbSpline
210
0.0
220
0.0
230
1.0
 70
     8
 71
     3
 72
     8
 73
     4
 74
     0
 42
0.0000000001
 43
0.0000000001
 40
0.0
 40
0.0
 40
0.0
 40
0.0
 40
1.0
 40
1.0
 40
1.0
 40
1.0
 10
7.37785841339263
 20
0.3449321941234456
 30
0.0
 10
7.371897859150266
 20
0.4640779499452108
 30
0.0
 10
7.413605810189921
 20
0.5400000000000063
 30
0.0
 10
7.525303421879187
 20
0.5400000000000065
 30
0.0
  0
SPLINE
  5
55
330
1F
100
AcDbEntity
  8
Default - Tangent
100
AcDbSpline
210
0.0
220
0.0
230
1.0
 70
    24
 71
     2
 72
     6
 73
     3
 74
     0
 42
0.0000000001
 43
0.0000000001
 40
0.0
 40
0.0
 40
0.0
 40
0.9334968628012206
 40
0.9334968628012206
 40
0.9334968628012206
 10
7.525303421879187
 20
0.5400000000000065
 30
0.0
 10
7.992051853279804
 20
0.5400000000000073
 30
0.0
 10
8.458800284680422
 20
0.540000000000008
 30
0.0
  0
SPLINE
  5
56
330
1F
100
AcDbEntity
  8
Default - Tangent
100
AcDbSpline
210
0.0
220
0.0
230
1.0
 70
     8
 71
     3
 72
     8
 73
     4
 74
     0
 42
0.0000000001
 43
0.0000000001
 40
0.0
 40
0.0
 40
0.0
 40
0.0
 40
1.0
 40
1.0
 40
1.0
 40
1.0
 10
8.458800284680422
 20
0.540000000000008
 30
0.0
 10
8.512584335501174
 20
0.5400000000000081
 30
0.0
 10
8.555100555694821
 20
0.5312409634984734
 30
0.0
 10
8.560706679098644
 20
0.4855682454472924
 30
0.0
  0
SPLINE
  5
57
330
1F
100
AcDbEntity
  8
Default - Tangent
100
AcDbSpline
210
0.0
220
0.0
230
1.0
 70
    12
 71
     2
 72
     6
 73
     3
 74
     0
 42
0.0000000001
 43
0.0000000001
 40
-0.1353640360023174
 40
-0.1353640360023174
 40
-0.1353640360023174
 40
0.0
 40
0.0
 40
0.0
 10
8.560706679098644
 20
0.4855682454472924
 30
0.0
 41
1.0
 10
8.568956642619709
 20
0.4183563361316898
 30
0.0
 41
0.9992399073397645
 10
8.57199303162679
 20
0.3499999998191763
 30
0.0
 41
1.0
  0
ARC
  5
58
330
1F
100
AcDbEntity
  8
Default - Tangent
100
AcDbCircle
 10
8.81910655271011
 20
0.3631661525031643
 30
0.0
 40
0.2474640173413086
100
AcDbArc
 50
183.0498225160508
 51
224.951295362994
  0
ARC
  5
59
330
1F
100
AcDbEntity
  8
Default - Tangent
100
AcDbCircle
 10
8.796026670841457
 20
0.3401254757143067
 30
0.0
 40
0.2148518457797491
100
AcDbArc
 50
224.951295362994
 51
241.572960103333
  0
POLYLINE
  5
5A
330
1F
100
AcDbEntity
  8
Default
100
AcDb2dPolyline
 66
     1
 10
0.0
 20
0.0
 30
0.0
  0
VERTEX
  5
5B
330
5A
100
AcDbEntity
  8
Default
100
AcDbVertex
100
AcDb2dVertex
 10
-8.693748750025804
 20
0.1511796037070169
 30
0.0
  0
VERTEX
  5
5C
330
5A
100
AcDbEntity
  8
Default
100
AcDbVertex
100
AcDb2dVertex
 10
-8.927153873857435
 20
0.1511796037070169
 30
0.0
  0
SEQEND
  5
5D
330
5A
100
AcDbEntity
  8
Default
  0
SPLINE
  5
5E
330
1F
100
AcDbEntity
  8
Default
100
AcDbSpline
210
0.0
220
0.0
230
1.0
 70
     8
 71
     3
 72
     8
 73
     4
 74
     0
 42
0.0000000001
 43
0.0000000001
 40
-1.0
 40
-1.0
 40
-1.0
 40
-1.0
 40
0.0
 40
0.0
 40
0.0
 40
0.0
 10
-8.927153873857435
 20
0.1511796037070169
 30
0.0
 10
-9.402472603940112
 20
0.1511748537013773
 30
0.0
 10
-9.840232132165738
 20
0.8188297088605779
 30
0.0
 10
-9.671760437652381
 20
1.709055947393175
 30
0.0
  0
ARC
  5
5F
330
1F
100
AcDbEntity
  8
Default
100
AcDbCircle
 10
8948.337661336729
 20
-1693.557789074648
 30
0.0
 40
9117.009513893776
100
AcDbArc
 50
169.2210739419721
 51
169.2837382116858
  0
LINE
  5
60
330
1F
100
AcDbEntity
  8
Default
100
AcDbLine
 10
-7.812293465185348
 20
11.50539554087482
 30
0.0
 11
-7.800292464570703
 21
11.56843294739578
 31
0.0
  0
SPLINE
  5
61
330
1F
100
AcDbEntity
  8
Default
100
AcDbSpline
210
0.0
220
0.0
230
1.0
 70
     8
 71
     3
 72
     8
 73
     4
 74
     0
 42
0.0000000001
 43
0.0000000001
 40
0.0
 40
0.0
 40
0.0
 40
0.0
 40
1.0
 40
1.0
 40
1.0
 40
1.0
 10
-7.800292464570703
 20
11.56843294739578
 30
0.0
 10
-7.67025391073679
 20
12.25148375662705
 30
0.0
 10
-7.214870216362556
 20
12.53763810826845
 30
0.0
 10
-6.795220313729089
 20
12.24586552543102
 30
0.0
  0
SPLINE
  5
62
330
1F
100
AcDbEntity
  8
Default
100
AcDbSpline
210
0.0
220
0.0
230
1.0
 70
     8
 71
     3
 72
     8
 73
     4
 74
     0
 42
0.0000000001
 43
0.0000000001
 40
-6.352908225503882
 40
-6.352908225503882
 40
-6.352908225503882
 40
-6.352908225503882
 40
0.0
 40
0.0
 40
0.0
 40
0.0
 10
-6.795220313729089
 20
12.24586552543102
 30
0.0
 10
-5.669720241323887
 20
11.46333213021607
 30
0.0
 10
-4.511167662422736
 20
10.8304428616653
 30
0.0
 10
-3.333148710672674
 20
10.35388867296036
 30
0.0
  0
SPLINE
  5
63
330
1F
100
AcDbEntity
  8
Default
100
AcDbSpline
210
0.0
220
0.0
230
1.0
 70
     8
 71
     3
 72
     9
 73
     5
 74
     0
 42
0.0000000001
 43
0.0000000001
 40
-2.0
 40
-2.0
 40
-2.0
 40
-2.0
 40
-1.000247652302237
 40
0.0
 40
0.0
 40
0.0
 40
0.0
 10
-3.333148710672674
 20
10.35388867296036
 30
0.0
 10
-3.159786692316743
 20
10.28536995852981
 30
0.0
 10
-2.798285952706578
 20
10.18945806779063
 30
0.0
 10
-2.426459524802283
 20
10.15091193261329
 30
0.0
 10
-2.2400000025998
 20
10.15074999838901
 30
0.0
  0
POLYLINE
  5
64
330
1F
100
AcDbEntity
  8
Default
100
AcDb2dPolyline
 66
     1
 10
0.0
 20
0.0
 30
0.0
  0
VERTEX
  5
65
330
64
100
AcDbEntity
  8
Default
100
AcDbVertex
100
AcDb2dVertex
 10
-2.2400000025998
 20
10.15074999838901
 30
0.0
  0
VERTEX
  5
66
330
64
100
AcDbEntity
  8
Default
100
AcDbVertex
100
AcDb2dVertex
 10
2.240000002599771
 20
10.15074999838901
 30
0.0
  0
SEQEND
  5
67
330
64
100
AcDbEntity
  8
Default
  0
SPLINE
  5
68
330
1F
100
AcDbEntity
  8
Default
100
AcDbSpline
210
0.0
220
0.0
230
1.0
 70
     8
 71
     3
 72
     9
 73
     5
 74
     0
 42
0.0000000001
 43
0.0000000001
 40
0.0
 40
0.0
 40
0.0
 40
0.0
 40
1.000247652302237
 40
2.0
 40
2.0
 40
2.0
 40
2.0
 10
2.240000002599771
 20
10.15074999838901
 30
0.0
 10
2.426459524802254
 20
10.15091193261329
 30
0.0
 10
2.798285952706522
 20
10.18945806779063
 30
0.0
 10
3.159786692316686
 20
10.28536995852981
 30
0.0
 10
3.333148710672617
 20
10.35388867296036
 30
0.0
  0
SPLINE
  5
69
330
1F
100
AcDbEntity
  8
Default
100
AcDbSpline
210
0.0
220
0.0
230
1.0
 70
     8
 71
     3
 72
     8
 73
     4
 74
     0
 42
0.0000000001
 43
0.0000000001
 40
0.0
 40
0.0
 40
0.0
 40
0.0
 40
6.352908225503882
 40
6.352908225503882
 40
6.352908225503882
 40
6.352908225503882
 10
3.333148710672617
 20
10.35388867296036
 30
0.0
 10
4.511167662422707
 20
10.8304428616653
 30
0.0
 10
5.669720241323887
 20
11.46333213021607
 30
0.0
 10
6.795220313729089
 20
12.24586552543102
 30
0.0
  0
SPLINE
  5
6A
330
1F
100
AcDbEntity
  8
Default
100
AcDbSpline
210
0.0
220
0.0
230
1.0
 70
     8
 71
     3
 72
     8
 73
     4
 74
     0
 42
0.0000000001
 43
0.0000000001
 40
-1.0
 40
-1.0
 40
-1.0
 40
-1.0
 40
0.0
 40
0.0
 40
0.0
 40
0.0
 10
6.795220313729089
 20
12.24586552543102
 30
0.0
 10
7.214870216362556
 20
12.53763810826845
 30
0.0
 10
7.670253910736733
 20
12.25148375662705
 30
0.0
 10
7.800292464570646
 20
11.56843294739578
 30
0.0
  0
LINE
  5
6B
330
1F
100
AcDbEntity
  8
Default
100
AcDbLine
 10
7.800292464570646
 20
11.56843294739578
 30
0.0
 11
7.81229346518532
 21
11.50539554087482
 31
0.0
  0
ARC
  5
6C
330
1F
100
AcDbEntity
  8
Default
100
AcDbCircle
 10
-8948.337661336736
 20
-1693.557789074648
 30
0.0
 40
9117.009513893776
100
AcDbArc
 50
10.71626178827586
 51
10.7789260579895
  0
SPLINE
  5
6D
330
1F
100
AcDbEntity
  8
Default
100
AcDbSpline
210
0.0
220
0.0
230
1.0
 70
     8
 71
     3
 72
     8
 73
     4
 74
     0
 42
0.0000000001
 43
0.0000000001
 40
0.0
 40
0.0
 40
0.0
 40
0.0
 40
1.0
 40
1.0
 40
1.0
 40
1.0
 10
9.671760437652324
 20
1.709055947393175
 30
0.0
 10
9.840232132165681
 20
0.8188297088605779
 30
0.0
 10
9.402472603940055
 20
0.1511748537013773
 30
0.0
 10
8.927153873857378
 20
0.1511796037070169
 30
0.0
  0
POLYLINE
  5
6E
330
1F
100
AcDbEntity
  8
Default
100
AcDb2dPolyline
 66
     1
 10
0.0
 20
0.0
 30
0.0
  0
VERTEX
  5
6F
330
6E
100
AcDbEntity
  8
Default
100
AcDbVertex
100
AcDb2dVertex
 10
8.927153873857378
 20
0.1511796037070169
 30
0.0
  0
VERTEX
  5
70
330
6E
100
AcDbEntity
  8
Default
100
AcDbVertex
100
AcDb2dVertex
 10
8.693748750025804
 20
0.1511796037070169
 30
0.0
  0
SEQEND
  5
71
330
6E
100
AcDbEntity
  8
Default
  0
SPLINE
  5
72
330
1F
100
AcDbEntity
  8
Default
100
AcDbSpline
210
0.0
220
0.0
230
1.0
 70
     8
 71
     3
 72
    44
 73
    40
 74
     0
 42
0.0000000001
 43
0.0000000001
 40
0.0
 40
0.0
 40
0.0
 40
0.0
 40
1.0
 40
2.0
 40
3.0
 40
4.0
 40
5.0
 40
6.0
 40
7.0
 40
8.0
 40
9.0
 40
10.0
 40
11.0
 40
12.0
 40
13.0
 40
14.0
 40
15.0
 40
16.0
 40
17.0
 40
18.0
 40
19.0
 40
20.0
 40
21.0
 40
22.0
 40
23.0
 40
24.0
 40
25.0
 40
26.0
 40
27.0
 40
28.0
 40
29.0
 40
30.0
 40
31.0
 40
32.0
 40
33.0
 40
34.0
 40
35.0
 40
36.0
 40
37.0
 40
37.0
 40
37.0
 40
37.0
 10
0.0
 20
71.68426288798358
 30
0.0
 10
0.429093954392556
 20
71.68732471037913
 30
0.0
 10
1.287551197308403
 20
71.67864522524593
 30
0.0
 10
2.572731190308957
 20
71.59335937396253
 30
0.0
 10
3.849271973372652
 20
71.42127393586392
 30
0.0
 10
5.11212374616747
 20
71.16765586472297
 30
0.0
 10
6.353786050883969
 20
70.82423076897744
 30
0.0
 10
7.562621098481429
 20
70.37677458217051
 30
0.0
 10
8.722984895481886
 20
69.81891396084579
 30
0.0
 10
9.798944348470457
 20
69.0888012169312
 30
0.0
 10
10.59720075155082
 20
68.06449462177916
 30
0.0
 10
10.934801368558
 20
66.8041858758529
 30
0.0
 10
11.43489953697167
 20
65.62039344451767
 30
0.0
 10
11.96757167116095
 20
64.44737372455319
 30
0.0
 10
12.54764715017342
 20
63.29851809616346
 30
0.0
 10
13.11301219537108
 20
62.14153205443885
 30
0.0
 10
13.60592864353708
 20
60.95158452001638
 30
0.0
 10
14.04430261248086
 20
59.7410658176376
 30
0.0
 10
14.44971371825346
 20
58.51883331195262
 30
0.0
 10
14.77494662774876
 20
57.2722444548906
 30
0.0
 10
14.96868256743613
 20
55.99726787890332
 30
0.0
 10
15.02619526785418
 20
54.70963148525155
 30
0.0
 10
14.93797045139303
 20
53.42333358034971
 30
0.0
 10
14.68389960725119
 20
52.1581830896373
 30
0.0
 10
14.30001872194407
 20
50.92863121606155
 30
0.0
 10
13.7847939810232
 20
49.74653392296113
 30
0.0
 10
13.16684202598952
 20
48.61570439485211
 30
0.0
 10
12.42646677894334
 20
47.56023474436464
 30
0.0
 10
11.60703088889272
 20
46.56639814275431
 30
0.0
 10
10.70125109717605
 20
45.64909708657178
 30
0.0
 10
9.705009805406178
 20
44.83126430911771
 30
0.0
 10
8.6322996815353
 20
44.11664514160841
 30
0.0
 10
7.502657276430682
 20
43.49727744879428
 30
0.0
 10
6.323239685342628
 20
42.97758674121817
 30
0.0
 10
5.098922952184751
 20
42.57499926483982
 30
0.0
 10
3.843840645725436
 20
42.28336520247505
 30
0.0
 10
2.570368398483936
 20
42.0900244270503
 30
0.0
 10
1.28757292517713
 20
41.97389042388411
 30
0.0
 10
0.4290842566572337
 20
41.95512574334926
 30
0.0
 10
0.0
 20
41.95436709580071
 30
0.0
  0
SPLINE
  5
73
330
1F
100
AcDbEntity
  8
Default
100
AcDbSpline
210
0.0
220
0.0
230
1.0
 70
     8
 71
     3
 72
    44
 73
    40
 74
     0
 42
0.0000000001
 43
0.0000000001
 40
-37.0
 40
-37.0
 40
-37.0
 40
-37.0
 40
-36.0
 40
-35.0
 40
-34.0
 40
-33.0
 40
-32.0
 40
-31.0
 40
-30.0
 40
-29.0
 40
-28.0
 40
-27.0
 40
-26.0
 40
-25.0
 40
-24.0
 40
-23.0
 40
-22.0
 40
-21.0
 40
-20.0
 40
-19.0
 40
-18.0
 40
-17.0
 40
-16.0
 40
-15.0
 40
-14.0
 40
-13.0
 40
-12.0
 40
-11.0
 40
-10.0
 40
-9.0
 40
-8.0
 40
-7.0
 40
-6.0
 40
-5.0
 40
-4.0
 40
-3.0
 40
-2.0
 40
-1.0
 40
0.0
 40
0.0
 40
0.0
 40
0.0
 10
0.0
 20
41.95436709580071
 30
0.0
 10
-0.4290842566572906
 20
41.95512574334926
 30
0.0
 10
-1.287572925177187
 20
41.97389042388411
 30
0.0
 10
-2.570368398483993
 20
42.0900244270503
 30
0.0
 10
-3.843840645725436
 20
42.28336520247505
 30
0.0
 10
-5.098922952184751
 20
42.57499926483982
 30
0.0
 10
-6.323239685342685
 20
42.97758674121817
 30
0.0
 10
-7.502657276430682
 20
43.49727744879428
 30
0.0
 10
-8.632299681535358
 20
44.11664514160841
 30
0.0
 10
-9.705009805406178
 20
44.83126430911771
 30
0.0
 10
-10.70125109717611
 20
45.64909708657178
 30
0.0
 10
-11.60703088889272
 20
46.56639814275431
 30
0.0
 10
-12.42646677894339
 20
47.56023474436464
 30
0.0
 10
-13.16684202598952
 20
48.61570439485211
 30
0.0
 10
-13.7847939810232
 20
49.74653392296113
 30
0.0
 10
-14.30001872194407
 20
50.92863121606155
 30
0.0
 10
-14.68389960725119
 20
52.1581830896373
 30
0.0
 10
-14.93797045139303
 20
53.42333358034971
 30
0.0
 10
-15.02619526785423
 20
54.70963148525155
 30
0.0
 10
-14.96868256743613
 20
55.99726787890332
 30
0.0
 10
-14.77494662774876
 20
57.2722444548906
 30
0.0
 10
-14.44971371825346
 20
58.51883331195262
 30
0.0
 10
-14.04430261248092
 20
59.7410658176376
 30
0.0
 10
-13.60592864353708
 20
60.95158452001638
 30
0.0
 10
-13.11301219537114
 20
62.14153205443885
 30
0.0
 10
-12.54764715017347
 20
63.29851809616346
 30
0.0
 10
-11.96757167116101
 20
64.44737372455319
 30
0.0
 10
-11.43489953697167
 20
65.62039344451767
 30
0.0
 10
-10.93480136855806
 20
66.8041858758529
 30
0.0
 10
-10.59720075155087
 20
68.06449462177916
 30
0.0
 10
-9.798944348470513
 20
69.0888012169312
 30
0.0
 10
-8.722984895481886
 20
69.81891396084579
 30
0.0
 10
-7.562621098481429
 20
70.37677458217051
 30
0.0
 10
-6.353786050884025
 20
70.82423076897744
 30
0.0
 10
-5.112123746167526
 20
71.16765586472297
 30
0.0
 10
-3.849271973372709
 20
71.42127393586392
 30
0.0
 10
-2.572731190308957
 20
71.59335937396253
 30
0.0
 10
-1.28755119730846
 20
71.67864522524593
 30
0.0
 10
-0.429093954392556
 20
71.68732471037913
 30
0.0
 10
0.0
 20
71.68426288798358
 30
0.0
  0
SPLINE
  5
74
330
1F
100
AcDbEntity
  8
Default
100
AcDbSpline
210
0.0
220
0.0
230
1.0
 70
     8
 71
     3
 72
    12
 73
     8
 74
     0
 42
0.0000000001
 43
0.0000000001
 40
0.0
 40
0.0
 40
0.0
 40
0.0
 40
1.0
 40
2.0
 40
3.0
 40
4.0
 40
5.0
 40
5.0
 40
5.0
 40
5.0
 10
8.827900292593313
 20
45.23292397573724
 30
0.0
 10
9.675978075779199
 20
45.89545268569383
 30
0.0
 10
11.16815206190961
 20
47.4777760119027
 30
0.0
 10
12.65995117089824
 20
50.3700774497477
 30
0.0
 10
13.5003168693882
 20
53.50161545112935
 30
0.0
 10
13.71705409638253
 20
56.7409381808444
 30
0.0
 10
13.3515350907976
 20
58.87727588763276
 30
0.0
 10
13.06493318473247
 20
59.91365529769929
 30
0.0
  0
SPLINE
  5
75
330
1F
100
AcDbEntity
  8
Default
100
AcDbSpline
210
0.0
220
0.0
230
1.0
 70
     8
 71
     3
 72
    12
 73
     8
 74
     0
 42
0.0000000001
 43
0.0000000001
 40
0.0
 40
0.0
 40
0.0
 40
0.0
 40
1.0
 40
2.0
 40
3.0
 40
4.0
 40
5.0
 40
5.0
 40
5.0
 40
5.0
 10
10.2582918449757
 20
66.72895731490952
 30
0.0
 10
10.01052377854256
 20
67.46707210977577
 30
0.0
 10
8.767855580842195
 20
68.37104746411067
 30
0.0
 10
6.621396007209512
 20
69.00580885167604
 30
0.0
 10
4.450134504971459
 20
69.51320867561982
 30
0.0
 10
2.229171760534143
 20
69.7531104773495
 30
0.0
 10
0.743385919642833
 20
69.80531412235597
 30
0.0
 10
0.0
 20
69.79927563796558
 30
0.0
  0
LINE
  5
76
330
1F
100
AcDbEntity
  8
Default
100
AcDbLine
 10
36.07439319220214
 20
0.1511976621986832
 30
0.0
 11
43.05824399598976
 21
0.1512500000968566
 31
0.0
  0
ARC
  5
77
330
1F
100
AcDbEntity
  8
Default
100
AcDbCircle
 10
43.05824399598976
 20
0.3700000000478317
 30
0.0
 40
0.2187499999509751
100
AcDbArc
 50
269.9999999999981
 51
90.45123877002257
  0
POLYLINE
  5
78
330
1F
100
AcDbEntity
  8
Default
100
AcDb2dPolyline
 66
     1
 10
0.0
 20
0.0
 30
0.0
  0
VERTEX
  5
79
330
78
100
AcDbEntity
  8
Default
100
AcDbVertex
100
AcDb2dVertex
 10
43.05652122580736
 20
0.5887432160373801
 30
0.0
  0
VERTEX
  5
7A
330
78
100
AcDbEntity
  8
Default
100
AcDbVertex
100
AcDb2dVertex
 10
34.22251871777831
 20
0.5882906944269995
 30
0.0
  0
SEQEND
  5
7B
330
78
100
AcDbEntity
  8
Default
  0
SPLINE
  5
7C
330
1F
100
AcDbEntity
  8
Default
100
AcDbSpline
210
0.0
220
0.0
230
1.0
 70
     8
 71
     3
 72
     8
 73
     4
 74
     0
 42
0.0000000001
 43
0.0000000001
 40
-1.0
 40
-1.0
 40
-1.0
 40
-1.0
 40
0.0
 40
0.0
 40
0.0
 40
0.0
 10
34.22251871777831
 20
0.5882906944269995
 30
0.0
 10
33.49253434444105
 20
0.5882533009913655
 30
0.0
 10
33.46008623310846
 20
1.171399746480533
 30
0.0
 10
33.75321937850322
 20
1.898585574558886
 30
0.0
  0
POLYLINE
  5
7D
330
1F
100
AcDbEntity
  8
Default
100
AcDb2dPolyline
 66
     1
 10
0.0
 20
0.0
 30
0.0
  0
VERTEX
  5
7E
330
7D
100
AcDbEntity
  8
Default
100
AcDbVertex
100
AcDb2dVertex
 10
33.75321937850322
 20
1.898585574558886
 30
0.0
  0
VERTEX
  5
7F
330
7D
100
AcDbEntity
  8
Default
100
AcDbVertex
100
AcDb2dVertex
 10
37.52634429032204
 20
11.25871085056323
 30
0.0
  0
SEQEND
  5
80
330
7D
100
AcDbEntity
  8
Default
  0
SPLINE
  5
81
330
1F
100
AcDbEntity
  8
Default
100
AcDbSpline
210
0.0
220
0.0
230
1.0
 70
     8
 71
     3
 72
     8
 73
     4
 74
     0
 42
0.0000000001
 43
0.0000000001
 40
0.0
 40
0.0
 40
0.0
 40
0.0
 40
1.0
 40
1.0
 40
1.0
 40
1.0
 10
37.52634429032204
 20
11.25871085056323
 30
0.0
 10
37.63360754812504
 20
11.52480263231246
 30
0.0
 10
37.89221419861752
 20
11.59703549689422
 30
0.0
 10
38.08482060462654
 20
11.45797602757458
 30
0.0
  0
SPLINE
  5
82
330
1F
100
AcDbEntity
  8
Default
100
AcDbSpline
210
0.0
220
0.0
230
1.0
 70
     8
 71
     3
 72
    16
 73
    12
 74
     0
 42
0.0000000001
 43
0.0000000001
 40
21.39020699258313
 40
21.39020699258313
 40
21.39020699258313
 40
21.39020699258313
 40
21.98962994366451
 40
22.53776525680815
 40
23.04328092050556
 40
23.31141580182457
 40
23.70694091831498
 40
23.92135653807644
 40
24.16975828264415
 40
24.27310163592854
 40
24.35935845482197
 40
24.35935845482197
 40
24.35935845482197
 40
24.35935845482197
 10
38.08482060462654
 20
11.45797602757458
 30
0.0
 10
38.24683237172661
 20
11.34100551333623
 30
0.0
 10
38.54397742203605
 20
11.0994857503336
 30
0.0
 10
39.01728974562837
 20
10.81392712632007
 30
0.0
 10
39.39645423024916
 20
10.59145440259508
 30
0.0
 10
39.74668924946252
 20
10.41869468606136
 30
0.0
 10
40.01455004060017
 20
10.30125505391005
 30
0.0
 10
40.26678266302127
 20
10.16565309523044
 30
0.0
 10
40.41789888252487
 20
10.05025764202013
 30
0.0
 10
40.51874179533314
 20
9.9456017007131
 30
0.0
 10
40.555490385746
 20
9.891902216637204
 30
0.0
 10
40.56617282102786
 20
9.867201210219106
 30
0.0
  0
ARC
  5
83
330
1F
100
AcDbEntity
  8
Default
100
AcDbCircle
 10
40.76734242483451
 20
9.954200955775006
 30
0.0
 40
0.2191761055008369
100
AcDbArc
 50
203.3870168837235
 51
23.3870168837227
  0
SPLINE
  5
84
330
1F
100
AcDbEntity
  8
Default
100
AcDbSpline
210
0.0
220
0.0
230
1.0
 70
     8
 71
     3
 72
    28
 73
    24
 74
     0
 42
0.0000000001
 43
0.0000000001
 40
-4.690488588204551
 40
-4.690488588204551
 40
-4.690488588204551
 40
-4.690488588204551
 40
-4.5345877985773
 40
-4.354314075194374
 40
-3.931022841021979
 40
-3.709181392052761
 40
-3.55824425169844
 40
-3.290709695089834
 40
-3.108114146928662
 40
-2.784957537369123
 40
-2.551373716641246
 40
-2.195245765802403
 40
-2.005521030699025
 40
-1.783926830519386
 40
-1.676810703641201
 40
-1.553465743330039
 40
-1.384097820455926
 40
-1.316153290621159
 40
-1.088913352989394
 40
-0.8162809425247717
 40
-0.5450981294575681
 40
-0.2732980734260584
 40
0.0
 40
0.0
 40
0.0
 40
0.0
 10
40.96851202864116
 20
10.0412007013309
 30
0.0
 10
40.94788427970758
 20
10.08889826704074
 30
0.0
 10
40.89059656555082
 20
10.18599177630195
 30
0.0
 10
40.72121975183518
 20
10.3753111761998
 30
0.0
 10
40.49877393700297
 20
10.54061668101478
 30
0.0
 10
40.26371726752151
 20
10.66395996033237
 30
0.0
 10
40.07087812303712
 20
10.75550099640164
 30
0.0
 10
39.88821534929949
 20
10.83782223170677
 30
0.0
 10
39.65703095075273
 20
10.95198732534312
 30
0.0
 10
39.44207781465383
 20
11.07268461412662
 30
0.0
 10
39.1804043896534
 20
11.22792912666291
 30
0.0
 10
38.95796480957594
 20
11.36231869152791
 30
0.0
 10
38.74712313295771
 20
11.50739525664465
 30
0.0
 10
38.61010318399701
 20
11.61271416556363
 30
0.0
 10
38.48958614881317
 20
11.70323736404751
 30
0.0
 10
38.38378167378971
 20
11.78407549831264
 30
0.0
 10
38.28556963013773
 20
11.85396361480145
 30
0.0
 10
38.14647045376762
 20
11.92274304368515
 30
0.0
 10
37.96255069521408
 20
11.9746248930572
 30
0.0
 10
37.70158533136265
 20
11.96163750473916
 30
0.0
 10
37.44781792000646
 20
11.8532556801562
 30
0.0
 10
37.24473065210793
 20
11.66658329002822
 30
0.0
 10
37.15384099811001
 20
11.50709170967761
 30
0.0
 10
37.11978141268833
 20
11.42259888374513
 30
0.0
  0
SPLINE
  5
85
330
1F
100
AcDbEntity
  8
Default
100
AcDbSpline
210
0.0
220
0.0
230
1.0
 70
    24
 71
     2
 72
     6
 73
     3
 74
     0
 42
0.0000000001
 43
0.0000000001
 40
-10.09199766065585
 40
-10.09199766065585
 40
-10.09199766065585
 40
0.0
 40
0.0
 40
0.0
 10
37.11978141268833
 20
11.42259888374513
 30
0.0
 10
35.2332189567789
 20
6.742536245742961
 30
0.0
 10
33.34665650086947
 20
2.062473607740792
 30
0.0
  0
SPLINE
  5
86
330
1F
100
AcDbEntity
  8
Default
100
AcDbSpline
210
0.0
220
0.0
230
1.0
 70
     8
 71
     3
 72
    14
 73
    10
 74
     0
 42
0.0000000001
 43
0.0000000001
 40
0.0
 40
0.0
 40
0.0
 40
0.0
 40
0.6282299185720308
 40
0.9867876206995004
 40
1.327280175912062
 40
1.541879378287683
 40
1.91784505963265
 40
2.219137669204828
 40
2.601539789090733
 40
2.601539789090733
 40
2.601539789090733
 40
2.601539789090733
 10
33.34665650086947
 20
2.062473607740792
 30
0.0
 10
33.26836377707588
 20
1.868250060936874
 30
0.0
 10
33.16648094702737
 20
1.553530625272719
 30
0.0
 10
33.12784287992309
 20
1.109989504342206
 30
0.0
 10
33.18166383188367
 20
0.8067976495174018
 30
0.0
 10
33.31989554776413
 20
0.5260960812448349
 30
0.0
 10
33.53708308436211
 20
0.3134143436940719
 30
0.0
 10
33.86643266076834
 20
0.1738989000749842
 30
0.0
 10
34.09507379923389
 20
0.1499319544866792
 30
0.0
 10
34.22254117236196
 20
0.1499384840004421
 30
0.0
  0
POLYLINE
  5
87
330
1F
100
AcDbEntity
  8
Default
100
AcDb2dPolyline
 66
     1
 10
0.0
 20
0.0
 30
0.0
  0
VERTEX
  5
88
330
87
100
AcDbEntity
  8
Default
100
AcDbVertex
100
AcDb2dVertex
 10
34.22254117236196
 20
0.1499384840004421
 30
0.0
  0
VERTEX
  5
89
330
87
100
AcDbEntity
  8
Default
100
AcDbVertex
100
AcDb2dVertex
 10
34.36513357234267
 20
0.1499384840004421
 30
0.0
  0
SEQEND
  5
8A
330
87
100
AcDbEntity
  8
Default
  0
POLYLINE
  5
8B
330
1F
100
AcDbEntity
  8
Default
100
AcDb2dPolyline
 66
     1
 10
0.0
 20
0.0
 30
0.0
  0
VERTEX
  5
8C
330
8B
100
AcDbEntity
  8
Default
100
AcDbVertex
100
AcDb2dVertex
 10
53.53087790886534
 20
0.151235554316292
 30
0.0
  0
VERTEX
  5
8D
330
8B
100
AcDbEntity
  8
Default
100
AcDbVertex
100
AcDb2dVertex
 10
53.80680861472138
 20
0.151235554316292
 30
0.0
  0
SEQEND
  5
8E
330
8B
100
AcDbEntity
  8
Default
  0
SPLINE
  5
8F
330
1F
100
AcDbEntity
  8
Default
100
AcDbSpline
210
0.0
220
0.0
230
1.0
 70
     8
 71
     3
 72
     8
 73
     4
 74
     0
 42
0.0000000001
 43
0.0000000001
 40
-1.0
 40
-1.0
 40
-1.0
 40
-1.0
 40
0.0
 40
0.0
 40
0.0
 40
0.0
 10
53.80680861472138
 20
0.151235554316292
 30
0.0
 10
54.47320959162485
 20
0.151235554316292
 30
0.0
 10
54.97971527979917
 20
0.9424741786463033
 30
0.0
 10
54.76589289043142
 20
1.743371412511064
 30
0.0
  0
SPLINE
  5
90
330
1F
100
AcDbEntity
  8
Default
100
AcDbSpline
210
0.0
220
0.0
230
1.0
 70
     8
 71
     3
 72
     9
 73
     5
 74
     0
 42
0.0000000001
 43
0.0000000001
 40
-10.30881102633332
 40
-10.30881102633332
 40
-10.30881102633332
 40
-10.30881102633332
 40
-0.5747967592041898
 40
0.0
 40
0.0
 40
0.0
 40
0.0
 10
54.76589289043142
 20
1.743371412511064
 30
0.0
 10
53.92894834992063
 20
4.878246901347057
 30
0.0
 10
53.0265945895691
 20
8.19391996163411
 30
0.0
 10
52.1383435671143
 20
11.51343122143903
 30
0.0
 10
52.08207609253785
 20
11.69661715880756
 30
0.0
  0
SPLINE
  5
91
330
1F
100
AcDbEntity
  8
Default
100
AcDbSpline
210
0.0
220
0.0
230
1.0
 70
     8
 71
     3
 72
    11
 73
     7
 74
     0
 42
0.0000000001
 43
0.0000000001
 40
-1.579931172434228
 40
-1.579931172434228
 40
-1.579931172434228
 40
-1.579931172434228
 40
-1.218453692140129
 40
-0.83416166837227
 40
-0.4228009884516073
 40
0.0
 40
0.0
 40
0.0
 40
0.0
 10
52.08207609253785
 20
11.69661715880756
 30
0.0
 10
52.04669692167241
 20
11.8117985602671
 30
0.0
 10
51.93257348969573
 20
12.03722113003639
 30
0.0
 10
51.62925359207938
 20
12.29122731902624
 30
0.0
 10
51.21890265952791
 20
12.37888542312031
 30
0.0
 10
50.94470187916025
 20
12.30245967163923
 30
0.0
 10
50.81808738747634
 20
12.24056405135233
 30
0.0
  0
SPLINE
  5
92
330
1F
100
AcDbEntity
  8
Default
100
AcDbSpline
210
0.0
220
0.0
230
1.0
 70
     8
 71
     3
 72
    11
 73
     7
 74
     0
 42
0.0000000001
 43
0.0000000001
 40
0.0
 40
0.0
 40
0.0
 40
0.0
 40
1.866730390514334
 40
3.359374854141925
 40
4.290701212822334
 40
5.995814462492632
 40
5.995814462492632
 40
5.995814462492632
 40
5.995814462492632
 10
50.81808738747634
 20
12.24056405135233
 30
0.0
 10
50.25906523293634
 20
11.96728551467616
 30
0.0
 10
49.23685170158643
 20
11.50907121707827
 30
0.0
 10
47.90396742752878
 20
10.98901328811896
 30
0.0
 10
46.5977774343425
 20
10.55429333847389
 30
0.0
 10
45.75220109324255
 20
10.31401840781828
 30
0.0
 10
45.21050732657019
 20
10.1419325240464
 30
0.0
  0
ARC
  5
93
330
1F
100
AcDbEntity
  8
Default
100
AcDbCircle
 10
45.27686732568887
 20
9.933043814716552
 30
0.0
 40
0.2191760533646885
100
AcDbArc
 50
107.6240699042417
 51
287.6240701584551
  0
SPLINE
  5
94
330
1F
100
AcDbEntity
  8
Default
100
AcDbSpline
210
0.0
220
0.0
230
1.0
 70
     8
 71
     3
 72
    10
 73
     6
 74
     0
 42
0.0000000001
 43
0.0000000001
 40
-3.0
 40
-3.0
 40
-3.0
 40
-3.0
 40
-2.000000000000189
 40
-1.000000000000094
 40
0.0
 40
0.0
 40
0.0
 40
0.0
 10
45.34322732573435
 20
9.72415510568113
 30
0.0
 10
45.98492321532802
 20
9.928009666693514
 30
0.0
 10
47.28273831309252
 20
10.29082090156779
 30
0.0
 10
49.17549245722242
 20
11.00177017439094
 30
0.0
 10
50.40559235065405
 20
11.5509888083553
 30
0.0
 10
51.01060407555303
 20
11.84674939227773
 30
0.0
  0
SPLINE
  5
95
330
1F
100
AcDbEntity
  8
Default
100
AcDbSpline
210
0.0
220
0.0
230
1.0
 70
     8
 71
     3
 72
     8
 73
     4
 74
     0
 42
0.0000000001
 43
0.0000000001
 40
0.0
 40
0.0
 40
0.0
 40
0.0
 40
1.0
 40
1.0
 40
1.0
 40
1.0
 10
51.01060407555303
 20
11.84674939227773
 30
0.0
 10
51.33193177857834
 20
12.00383075973896
 30
0.0
 10
51.58165672697245
 20
11.83287962117291
 30
0.0
 10
51.66304565704587
 20
11.56790758254586
 30
0.0
  0
SPLINE
  5
96
330
1F
100
AcDbEntity
  8
Default
100
AcDbSpline
210
0.0
220
0.0
230
1.0
 70
     8
 71
     3
 72
    11
 73
     7
 74
     0
 42
0.0000000001
 43
0.0000000001
 40
0.0
 40
0.0
 40
0.0
 40
0.0
 40
0.5747967592041898
 40
0.5747967592041898
 40
0.5747967592041898
 40
10.30881102633332
 40
10.30881102633332
 40
10.30881102633332
 40
10.30881102633332
 10
51.66304565704587
 20
11.56790758254586
 30
0.0
 10
51.71617783064914
 20
11.39492901723427
 30
0.0
 10
51.76442519045113
 20
11.21499909850343
 30
0.0
 10
51.8140139000223
 20
11.0298553973788
 30
0.0
 10
52.65370822030397
 20
7.89478461988387
 30
0.0
 10
53.50570248858588
 20
4.764156071540648
 30
0.0
 10
54.34237457226291
 20
1.630301102235657
 30
0.0
  0
SPLINE
  5
97
330
1F
100
AcDbEntity
  8
Default
100
AcDbSpline
210
0.0
220
0.0
230
1.0
 70
     8
 71
     3
 72
    14
 73
    10
 74
     0
 42
0.0000000001
 43
0.0000000001
 40
0.0
 40
0.0
 40
0.0
 40
0.0
 40
0.4454312728580785
 40
0.6807967204497608
 40
0.8659818928362262
 40
0.9885775063987309
 40
1.121397320551404
 40
1.198330988817915
 40
1.326593334391568
 40
1.326593334391568
 40
1.326593334391568
 40
1.326593334391568
 10
54.34237457226291
 20
1.630301102235657
 30
0.0
 10
54.38067334279827
 20
1.48684849433585
 30
0.0
 10
54.39153457525484
 20
1.254605196788452
 30
0.0
 10
54.30474014990085
 20
0.9768190700443916
 30
0.0
 10
54.21155461975772
 20
0.8202929777249575
 30
0.0
 10
54.11197498099054
 20
0.7115500966351141
 30
0.0
 10
54.02157684050837
 20
0.6461601051254957
 30
0.0
 10
53.91791554228595
 20
0.6008321885475794
 30
0.0
 10
53.84956272991258
 20
0.5895877653179672
 30
0.0
 10
53.80680861472135
 20
0.5895877653179672
 30
0.0
  0
SPLINE
  5
98
330
1F
100
AcDbEntity
  8
Default
100
AcDbSpline
210
0.0
220
0.0
230
1.0
 70
    12
 71
     2
 72
    18
 73
    15
 74
     0
 42
0.0000000001
 43
0.0000000001
 40
-9.91533634008129
 40
-9.91533634008129
 40
-9.91533634008129
 40
0.0
 40
0.0
 40
0.4125221906589727
 40
0.4125221906589727
 40
0.5882902329714816
 40
0.5882902329714816
 40
0.7640582752839906
 40
0.7640582752839906
 40
0.9398263175964995
 40
0.9398263175964995
 40
1.115594359909009
 40
1.115594359909009
 40
9.416285221359296
 40
9.416285221359296
 40
9.416285221359296
 10
53.80680861472135
 20
0.5895877653179672
 30
0.0
 41
1.0
 10
48.8646406138089
 20
0.5877063501650069
 30
0.0
 41
0.9999999152992597
 10
43.90697227366189
 20
0.5887499457057856
 30
0.0
 41
1.0
 10
43.70071118872204
 20
0.5887499728527389
 30
0.0
 41
1.0
 10
43.49445010378224
 20
0.5887499999996921
 30
0.0
 41
1.0
 10
43.40151108397331
 20
0.5887500077579292
 30
0.0
 41
0.920375941313133
 10
43.33699432140372
 20
0.521852707733309
 30
0.0
 41
1.0
 10
43.27247755883415
 20
0.4549554077086889
 30
0.0
 41
0.920375941313133
 10
43.27584360271257
 20
0.3620773632005678
 30
0.0
 41
1.0
 10
43.27920964659098
 20
0.2691993186924467
 30
0.0
 41
0.920375941313133
 10
43.3483997150627
 20
0.207147760872163
 30
0.0
 41
1.0
 10
43.4175897835344
 20
0.1450962030518793
 30
0.0
 41
0.920375941313133
 10
43.51028498158769
 20
0.1518238817679753
 30
0.0
 41
1.0
 10
47.66063039505212
 20
0.1515297180421336
 30
0.0
 41
1.0
 10
51.81097580851653
 20
0.151235554316292
 30
0.0
 41
1.0
  0
SPLINE
  5
99
330
1F
100
AcDbEntity
  8
Default
100
AcDbSpline
210
0.0
220
0.0
230
1.0
 70
     8
 71
     3
 72
    14
 73
    10
 74
     0
 42
0.0000000001
 43
0.0000000001
 40
0.0
 40
0.0
 40
0.0
 40
0.0
 40
1.0
 40
2.0
 40
3.0
 40
4.0
 40
5.0
 40
6.0
 40
7.0
 40
7.0
 40
7.0
 40
7.0
 10
57.78422821930417
 20
14.3759137628314
 30
0.0
 10
57.85656385559099
 20
14.58018688956258
 30
0.0
 10
57.97390398600618
 20
15.00995700081126
 30
0.0
 10
57.8405944975629
 20
15.66714681642452
 30
0.0
 10
57.45123050592915
 20
16.21185014031628
 30
0.0
 10
56.85540041051033
 20
16.52355334679893
 30
0.0
 10
56.19541794020085
 20
16.56059631660739
 30
0.0
 10
55.54548285074017
 20
16.49350835897476
 30
0.0
 10
55.1143627683245
 20
16.4281390457121
 30
0.0
 10
54.90024656488438
 20
16.38778722989339
 30
0.0
  0
SPLINE
  5
9A
330
1F
100
AcDbEntity
  8
Default
100
AcDbSpline
210
0.0
220
0.0
230
1.0
 70
     8
 71
     3
 72
     8
 73
     4
 74
     0
 42
0.0000000001
 43
0.0000000001
 40
-0.3310481806608827
 40
-0.3310481806608827
 40
-0.3310481806608827
 40
-0.3310481806608827
 40
0.0
 40
0.0
 40
0.0
 40
0.0
 10
37.00217908547205
 20
11.13085860447534
 30
0.0
 10
36.90174105847262
 20
11.1987773454895
 30
0.0
 10
36.802726076055
 20
11.26883311397592
 30
0.0
 10
36.70508060833535
 20
11.3407067537897
 30
0.0
  0
SPLINE
  5
9B
330
1F
100
AcDbEntity
  8
Default
100
AcDbSpline
210
0.0
220
0.0
230
1.0
 70
     8
 71
     3
 72
    89
 73
    85
 74
     0
 42
0.0000000001
 43
0.0000000001
 40
-82.0
 40
-82.0
 40
-82.0
 40
-82.0
 40
-81.0
 40
-80.0
 40
-79.0
 40
-78.0
 40
-77.0
 40
-76.0
 40
-75.0
 40
-74.0
 40
-73.0
 40
-72.0
 40
-71.0
 40
-70.0
 40
-69.0
 40
-68.0
 40
-67.0
 40
-66.0
 40
-65.0
 40
-64.0
 40
-63.0
 40
-62.0
 40
-61.0
 40
-60.0
 40
-59.0
 40
-58.0
 40
-57.0
 40
-56.0
 40
-55.0
 40
-54.0
 40
-53.0
 40
-52.0
 40
-51.0
 40
-50.0
 40
-49.0
 40
-48.0
 40
-47.0
 40
-46.0
 40
-45.0
 40
-44.0
 40
-43.0
 40
-42.0
 40
-41.0
 40
-40.0
 40
-39.0
 40
-38.0
 40
-37.0
 40
-36.0
 40
-35.0
 40
-34.0
 40
-33.0
 40
-32.0
 40
-31.0
 40
-30.0
 40
-29.0
 40
-28.0
 40
-27.0
 40
-26.0
 40
-25.0
 40
-24.0
 40
-23.0
 40
-22.0
 40
-21.0
 40
-20.0
 40
-19.0
 40
-18.0
 40
-17.0
 40
-16.0
 40
-15.0
 40
-14.0
 40
-13.0
 40
-12.0
 40
-11.0
 40
-10.0
 40
-9.0
 40
-8.0
 40
-7.0
 40
-6.0
 40
-5.0
 40
-4.0
 40
-3.0
 40
-2.0
 40
-1.0
 40
0.0
 40
0.0
 40
0.0
 40
0.0
 10
36.70508060833535
 20
11.3407067537897
 30
0.0
 10
36.49858730906843
 20
11.48898730040492
 30
0.0
 10
36.09904109989333
 20
11.80416590082581
 30
0.0
 10
35.54139235964456
 20
12.32531157569753
 30
0.0
 10
35.02571425535382
 20
12.88786433455672
 30
0.0
 10
34.54994000120951
 20
13.4844027363591
 30
0.0
 10
34.11127337435465
 20
14.10862305771964
 30
0.0
 10
33.70661792671447
 20
14.75533687243147
 30
0.0
 10
33.33332649808585
 20
15.42058766956967
 30
0.0
 10
32.9879417240287
 20
16.10068408320976
 30
0.0
 10
32.66644501111352
 20
16.79234734525079
 30
0.0
 10
32.3644542584326
 20
17.49270439999657
 30
0.0
 10
32.07746559087306
 20
18.19931351406663
 30
0.0
 10
31.80059293077818
 20
18.90992961576201
 30
0.0
 10
31.53227533093661
 20
19.62382061136942
 30
0.0
 10
31.27191405165888
 20
20.34064461225262
 30
0.0
 10
31.01746038006317
 20
21.05958426260961
 30
0.0
 10
30.76510290262254
 20
21.77925707743059
 30
0.0
 10
30.5157554785452
 20
22.49997945096747
 30
0.0
 10
30.26917200647742
 20
23.2216556787187
 30
0.0
 10
30.02544564963154
 20
23.94428684340778
 30
0.0
 10
29.78447278765367
 20
24.66789722041297
 30
0.0
 10
29.54659812421221
 20
25.39231923639863
 30
0.0
 10
29.31056738210648
 20
26.11813603647073
 30
0.0
 10
29.08107402119848
 20
26.84311861098598
 30
0.0
 10
28.84062250996237
 20
27.5755257180402
 30
0.0
 10
28.65451884271278
 20
28.28449724855351
 30
0.0
 10
28.27906145612457
 20
29.08512966839706
 30
0.0
 10
28.94859210015935
 20
29.61043804558538
 30
0.0
 10
29.73122824193572
 20
29.53711898190646
 30
0.0
 10
30.49270305799129
 20
29.59396632918148
 30
0.0
 10
31.23780410912059
 20
29.38472966563274
 30
0.0
 10
31.86533661997416
 20
28.93286398409587
 30
0.0
 10
32.3589064416449
 20
28.34796570926113
 30
0.0
 10
32.7690711570082
 20
27.70423071768971
 30
0.0
 10
33.17140641526436
 20
27.05656801468398
 30
0.0
 10
33.57262815725193
 20
26.40792406862377
 30
0.0
 10
33.98690120339455
 20
25.76760341927531
 30
0.0
 10
34.41089958484861
 20
25.13361825553988
 30
0.0
 10
34.85683282074419
 20
24.51475424970446
 30
0.0
 10
35.33647702507858
 20
23.92123068282487
 30
0.0
 10
35.85815718449689
 20
23.36439388117132
 30
0.0
 10
36.40043331637222
 20
22.82830143928177
 30
0.0
 10
36.96435656199716
 20
22.31375897210496
 30
0.0
 10
37.587205120872
 20
21.87018356479545
 30
0.0
 10
38.2753702741901
 20
21.53384081473562
 30
0.0
 10
39.0174851252379
 20
21.3454153089239
 30
0.0
 10
39.77377929158445
 20
21.24338238752637
 30
0.0
 10
40.53498558278051
 20
21.19356513082287
 30
0.0
 10
41.29634119044363
 20
21.15018039395952
 30
0.0
 10
42.05804725596658
 20
21.11222753094425
 30
0.0
 10
42.81952230138515
 20
21.07016792817923
 30
0.0
 10
43.58062778611335
 20
21.02172299110675
 30
0.0
 10
44.34124135416388
 20
20.96610551922125
 30
0.0
 10
45.10064107484709
 20
20.89494619430206
 30
0.0
 10
45.85754126987101
 20
20.80162686820731
 30
0.0
 10
46.61336502821322
 20
20.69828654635316
 30
0.0
 10
47.35977454868225
 20
20.53928395399771
 30
0.0
 10
48.09552876278698
 20
20.33749189242843
 30
0.0
 10
48.81922200480724
 20
20.09662761287881
 30
0.0
 10
49.53688030412445
 20
19.83767850703352
 30
0.0
 10
50.23108317151733
 20
19.52037034205938
 30
0.0
 10
50.9036609661548
 20
19.16034488227357
 30
0.0
 10
51.55785053346071
 20
18.7680595359184
 30
0.0
 10
52.20189573519104
 20
18.35963872019156
 30
0.0
 10
52.84208803561893
 20
17.94506108039457
 30
0.0
 10
53.46832950881048
 20
17.50970820526338
 30
0.0
 10
54.08154806299666
 20
17.05594445399183
 30
0.0
 10
54.67282610567574
 20
16.57426049846434
 30
0.0
 10
55.27127950816993
 20
16.10119709026792
 30
0.0
 10
55.83261629745573
 20
15.58372355608194
 30
0.0
 10
56.45421968719785
 20
15.13919218983511
 30
0.0
 10
57.12103786994948
 20
14.76694740145858
 30
0.0
 10
57.7405330794555
 20
14.32134295833764
 30
0.0
 10
58.57745666459064
 20
14.22220419076247
 30
0.0
 10
58.66032780524478
 20
13.25413382021081
 30
0.0
 10
57.93884443378627
 20
12.88544977667552
 30
0.0
 10
57.21590413130278
 20
12.67516046785989
 30
0.0
 10
56.49055945854786
 20
12.43084617630855
 30
0.0
 10
55.7631382679206
 20
12.20409076248117
 30
0.0
 10
55.03363342058879
 20
11.98109450804763
 30
0.0
 10
54.30212108991202
 20
11.76559070679531
 30
0.0
 10
53.56866972649505
 20
11.55655743008128
 30
0.0
 10
53.07834744712031
 20
11.42208920427307
 30
0.0
 10
52.83288039594032
 20
11.35598566072267
 30
0.0
  0
SPLINE
  5
9C
330
1F
100
AcDbEntity
  8
Default
100
AcDbSpline
210
0.0
220
0.0
230
1.0
 70
     8
 71
     3
 72
     8
 73
     4
 74
     0
 42
0.0000000001
 43
0.0000000001
 40
-3.0
 40
-3.0
 40
-3.0
 40
-3.0
 40
-2.713975909307351
 40
-2.713975909307351
 40
-2.713975909307351
 40
-2.713975909307351
 10
52.83288039594032
 20
11.35598566072267
 30
0.0
 10
52.63048656306972
 20
11.29969423591881
 30
0.0
 10
52.42775758041421
 20
11.24463602563295
 30
0.0
 10
52.22472192652398
 20
11.19074139584232
 30
0.0
  0
POLYLINE
  5
9D
330
1F
100
AcDbEntity
  8
Default
100
AcDb2dPolyline
 66
     1
 10
0.0
 20
0.0
 30
0.0
  0
VERTEX
  5
9E
330
9D
100
AcDbEntity
  8
Default
100
AcDbVertex
100
AcDb2dVertex
 10
-7.396402854310622
 20
0.1514367784247185
 30
0.0
  0
VERTEX
  5
9F
330
9D
100
AcDbEntity
  8
Default
100
AcDbVertex
100
AcDb2dVertex
 10
7.397185596956405
 20
0.1511948931485723
 30
0.0
  0
SEQEND
  5
A0
330
9D
100
AcDbEntity
  8
Default
  0
SPLINE
  5
A1
330
1F
100
AcDbEntity
  8
Default
100
AcDbSpline
210
0.0
220
0.0
230
1.0
 70
     8
 71
     3
 72
     8
 73
     4
 74
     0
 42
0.0000000001
 43
0.0000000001
 40
-1.0
 40
-1.0
 40
-1.0
 40
-1.0
 40
0.0
 40
0.0
 40
0.0
 40
0.0
 10
-6.658646388563909
 20
0.1512112460377754
 30
0.0
 10
-6.692348526139085
 20
0.0535612204840141
 30
0.0
 10
-6.77316053699758
 20
0.0000000000000095
 30
0.0
 10
-6.877757746046541
 20
0.0000000000000062
 30
0.0
  0
SPLINE
  5
A2
330
1F
100
AcDbEntity
  8
Default
100
AcDbSpline
210
0.0
220
0.0
230
1.0
 70
    24
 71
     2
 72
     6
 73
     3
 74
     0
 42
0.0000000001
 43
0.0000000001
 40
0.0
 40
0.0
 40
0.0
 40
0.1971495316711156
 40
0.1971495316711156
 40
0.1971495316711156
 10
-6.877757746046541
 20
0.0000000000000062
 30
0.0
 10
-6.976332511882106
 20
0.0000000000000031
 30
0.0
 10
-7.578260739937321
 20
0.0000000000000061
 30
0.0
  0
POLYLINE
  5
A3
330
1F
100
AcDbEntity
  8
Default
100
AcDb2dPolyline
 66
     1
 10
0.0
 20
0.0
 30
0.0
  0
VERTEX
  5
A4
330
A3
100
AcDbEntity
  8
Default
100
AcDbVertex
100
AcDb2dVertex
 10
8.851983122869456
 20
0.5892848948340285
 30
0.0
  0
VERTEX
  5
A5
330
A3
100
AcDbEntity
  8
Default
100
AcDbVertex
100
AcDb2dVertex
 10
-8.851983122869456
 20
0.5892848948340285
 30
0.0
  0
SEQEND
  5
A6
330
A3
100
AcDbEntity
  8
Default
  0
SPLINE
  5
A7
330
1F
100
AcDbEntity
  8
Default
100
AcDbSpline
210
0.0
220
0.0
230
1.0
 70
     8
 71
     3
 72
     8
 73
     4
 74
     0
 42
0.0000000001
 43
0.0000000001
 40
0.0
 40
0.0
 40
0.0
 40
0.0
 40
1.0
 40
1.0
 40
1.0
 40
1.0
 10
-8.851983122869456
 20
0.5892848948340285
 30
0.0
 10
-9.16145484877569
 20
0.5894574963371564
 30
0.0
 10
-9.347647742730942
 20
1.069557293874124
 30
0.0
 10
-9.238225235090567
 20
1.648639019901609
 30
0.0
  0
SPLINE
  5
A8
330
1F
100
AcDbEntity
  8
Default
100
AcDbSpline
210
0.0
220
0.0
230
1.0
 70
     8
 71
     3
 72
     8
 73
     4
 74
     0
 42
0.0000000001
 43
0.0000000001
 40
0.3578052224224721
 40
0.3578052224224721
 40
0.3578052224224721
 40
0.3578052224224721
 40
10.31585142357921
 40
10.31585142357921
 40
10.31585142357921
 40
10.31585142357921
 10
-9.238225235090567
 20
1.648639019901609
 30
0.0
 10
-8.621902372135764
 20
4.910319957091799
 30
0.0
 10
-8.001616222384996
 20
8.171150055238774
 30
0.0
 10
-7.381056223097914
 20
11.43198621859615
 30
0.0
  0
SPLINE
  5
A9
330
1F
100
AcDbEntity
  8
Default
100
AcDbSpline
210
0.0
220
0.0
230
1.0
 70
     8
 71
     3
 72
     8
 73
     4
 74
     0
 42
0.0000000001
 43
0.0000000001
 40
-1.0
 40
-1.0
 40
-1.0
 40
-1.0
 40
0.0
 40
0.0
 40
0.0
 40
0.0
 10
-7.381056223097914
 20
11.43198621859615
 30
0.0
 10
-7.326571523891744
 20
11.71828517071254
 30
0.0
 10
-7.204461016257028
 20
11.99754649868794
 30
0.0
 10
-7.044963285723782
 20
11.88665152535802
 30
0.0
  0
SPLINE
  5
AA
330
1F
100
AcDbEntity
  8
Default
100
AcDbSpline
210
0.0
220
0.0
230
1.0
 70
     8
 71
     3
 72
     8
 73
     4
 74
     0
 42
0.0000000001
 43
0.0000000001
 40
0.0
 40
0.0
 40
0.0
 40
0.0
 40
6.414193327741259
 40
6.414193327741259
 40
6.414193327741259
 40
6.414193327741259
 10
-7.044963285723782
 20
11.88665152535802
 30
0.0
 10
-5.894199878611801
 20
11.08655313578167
 30
0.0
 10
-4.707049374887134
 20
10.43771707561077
 30
0.0
 10
-3.496555901605575
 20
9.948052314493864
 30
0.0
  0
SPLINE
  5
AB
330
1F
100
AcDbEntity
  8
Default
100
AcDbSpline
210
0.0
220
0.0
230
1.0
 70
     8
 71
     3
 72
     9
 73
     5
 74
     0
 42
0.0000000001
 43
0.0000000001
 40
0.0
 40
0.0
 40
0.0
 40
0.0
 40
1.0
 40
2.0
 40
2.0
 40
2.0
 40
2.0
 10
-3.496555901605575
 20
9.948052314493864
 30
0.0
 10
-3.296933929059321
 20
9.86887624980993
 30
0.0
 10
-2.881742620743921
 20
9.757358574643611
 30
0.0
 10
-2.454257897237767
 20
9.71334386717927
 30
0.0
 10
-2.239999997400218
 20
9.71324999838901
 30
0.0
  0
POLYLINE
  5
AC
330
1F
100
AcDbEntity
  8
Default
100
AcDb2dPolyline
 66
     1
 10
0.0
 20
0.0
 30
0.0
  0
VERTEX
  5
AD
330
AC
100
AcDbEntity
  8
Default
100
AcDbVertex
100
AcDb2dVertex
 10
-2.239999997400218
 20
9.71324999838901
 30
0.0
  0
VERTEX
  5
AE
330
AC
100
AcDbEntity
  8
Default
100
AcDbVertex
100
AcDb2dVertex
 10
2.23999999740019
 20
9.71324999838901
 30
0.0
  0
SEQEND
  5
AF
330
AC
100
AcDbEntity
  8
Default
  0
SPLINE
  5
B0
330
1F
100
AcDbEntity
  8
Default
100
AcDbSpline
210
0.0
220
0.0
230
1.0
 70
     8
 71
     3
 72
     9
 73
     5
 74
     0
 42
0.0000000001
 43
0.0000000001
 40
-2.0
 40
-2.0
 40
-2.0
 40
-2.0
 40
-1.0
 40
0.0
 40
0.0
 40
0.0
 40
0.0
 10
2.23999999740019
 20
9.71324999838901
 30
0.0
 10
2.454257897237767
 20
9.71334386717927
 30
0.0
 10
2.881742620743893
 20
9.757358574643611
 30
0.0
 10
3.296933929059264
 20
9.86887624980993
 30
0.0
 10
3.496555901605518
 20
9.948052314493864
 30
0.0
  0
SPLINE
  5
B1
330
1F
100
AcDbEntity
  8
Default
100
AcDbSpline
210
0.0
220
0.0
230
1.0
 70
     8
 71
     3
 72
     8
 73
     4
 74
     0
 42
0.0000000001
 43
0.0000000001
 40
-6.414193327741259
 40
-6.414193327741259
 40
-6.414193327741259
 40
-6.414193327741259
 40
0.0
 40
0.0
 40
0.0
 40
0.0
 10
3.496555901605518
 20
9.948052314493864
 30
0.0
 10
4.707049374887106
 20
10.43771707561077
 30
0.0
 10
5.894199878611744
 20
11.08655313578167
 30
0.0
 10
7.044963285723782
 20
11.88665152535802
 30
0.0
  0
SPLINE
  5
B2
330
1F
100
AcDbEntity
  8
Default
100
AcDbSpline
210
0.0
220
0.0
230
1.0
 70
     8
 71
     3
 72
     8
 73
     4
 74
     0
 42
0.0000000001
 43
0.0000000001
 40
0.0
 40
0.0
 40
0.0
 40
0.0
 40
1.0
 40
1.0
 40
1.0
 40
1.0
 10
7.044963285723782
 20
11.88665152535802
 30
0.0
 10
7.204461016257
 20
11.99754649868794
 30
0.0
 10
7.326571523891715
 20
11.71828517071254
 30
0.0
 10
7.381056223097914
 20
11.43198621859615
 30
0.0
  0
SPLINE
  5
B3
330
1F
100
AcDbEntity
  8
Default
100
AcDbSpline
210
0.0
220
0.0
230
1.0
 70
     8
 71
     3
 72
     8
 73
     4
 74
     0
 42
0.0000000001
 43
0.0000000001
 40
-10.31585142357921
 40
-10.31585142357921
 40
-10.31585142357921
 40
-10.31585142357921
 40
-0.3578052224224721
 40
-0.3578052224224721
 40
-0.3578052224224721
 40
-0.3578052224224721
 10
7.381056223097914
 20
11.43198621859615
 30
0.0
 10
8.001616222384996
 20
8.171150055238774
 30
0.0
 10
8.621902372135708
 20
4.910319957091799
 30
0.0
 10
9.238225235090567
 20
1.648639019901609
 30
0.0
  0
SPLINE
  5
B4
330
1F
100
AcDbEntity
  8
Default
100
AcDbSpline
210
0.0
220
0.0
230
1.0
 70
     8
 71
     3
 72
     8
 73
     4
 74
     0
 42
0.0000000001
 43
0.0000000001
 40
-1.0
 40
-1.0
 40
-1.0
 40
-1.0
 40
0.0
 40
0.0
 40
0.0
 40
0.0
 10
9.238225235090567
 20
1.648639019901609
 30
0.0
 10
9.347647742730885
 20
1.069557293874124
 30
0.0
 10
9.161454848775634
 20
0.5894574963371564
 30
0.0
 10
8.851983122869456
 20
0.5892848948340285
 30
0.0
  0
SPLINE
  5
B5
330
1F
100
AcDbEntity
  8
Default - Tangent
100
AcDbSpline
210
0.0
220
0.0
230
1.0
 70
    12
 71
     2
 72
     6
 73
     3
 74
     0
 42
0.0000000001
 43
0.0000000001
 40
0.0
 40
0.0
 40
0.0
 40
0.2475642236874568
 40
0.2475642236874568
 40
0.2475642236874568
 10
-8.927153913934205
 20
0.1529962105609592
 30
0.0
 41
1.0
 10
-8.889767344440234
 20
0.017802616897597
 30
0.0
 41
0.8326791077797836
 10
-8.750633846756386
 20
0.0000000000000069
 30
0.0
 41
1.0
  0
POLYLINE
  5
B6
330
1F
100
AcDbEntity
  8
Default - Tangent
100
AcDb2dPolyline
 66
     1
 10
0.0
 20
0.0
 30
0.0
  0
VERTEX
  5
B7
330
B6
100
AcDbEntity
  8
Default - Tangent
100
AcDbVertex
100
AcDb2dVertex
 10
-8.750633846756386
 20
0.0000000000000069
 30
0.0
  0
VERTEX
  5
B8
330
B6
100
AcDbEntity
  8
Default - Tangent
100
AcDbVertex
100
AcDb2dVertex
 10
-7.578260739937321
 20
0.0000000000000061
 30
0.0
  0
SEQEND
  5
B9
330
B6
100
AcDbEntity
  8
Default - Tangent
  0
SPLINE
  5
BA
330
1F
100
AcDbEntity
  8
Default - Tangent
100
AcDbSpline
210
0.0
220
0.0
230
1.0
 70
     8
 71
     3
 72
     8
 73
     4
 74
     0
 42
0.0000000001
 43
0.0000000001
 40
-1.0
 40
-1.0
 40
-1.0
 40
-1.0
 40
0.0
 40
0.0
 40
0.0
 40
0.0
 10
-7.578260739937321
 20
0.0000000000000061
 30
0.0
 10
-7.467093555745407
 20
0.000000000000006
 30
0.0
 10
-7.400817330532789
 20
0.0876852517350812
 30
0.0
 10
-7.391300915043246
 20
0.1753086976115538
 30
0.0
  0
SPLINE
  5
BB
330
1F
100
AcDbEntity
  8
Default - Tangent
100
AcDbSpline
210
0.0
220
0.0
230
1.0
 70
    12
 71
     2
 72
     6
 73
     3
 74
     0
 42
0.0000000001
 43
0.0000000001
 40
0.0
 40
0.0
 40
0.0
 40
0.1701793295661373
 40
0.1701793295661373
 40
0.1701793295661373
 10
-7.391300915043246
 20
0.1753086976115538
 30
0.0
 41
1.0
 10
-7.382111112850952
 20
0.2599248155066877
 30
0.0
 41
0.9995766822534313
 10
-7.37785841339263
 20
0.3449321941234456
 30
0.0
 41
1.0
  0
SPLINE
  5
BC
330
1F
100
AcDbEntity
  8
Default - Tangent
100
AcDbSpline
210
0.0
220
0.0
230
1.0
 70
     8
 71
     3
 72
     8
 73
     4
 74
     0
 42
0.0000000001
 43
0.0000000001
 40
0.0
 40
0.0
 40
0.0
 40
0.0
 40
1.0
 40
1.0
 40
1.0
 40
1.0
 10
-7.37785841339263
 20
0.3449321941234456
 30
0.0
 10
-7.371897859150295
 20
0.4640779499452108
 30
0.0
 10
-7.413605810189949
 20
0.5400000000000063
 30
0.0
 10
-7.525303421879244
 20
0.5400000000000065
 30
0.0
  0
SPLINE
  5
BD
330
1F
100
AcDbEntity
  8
Default - Tangent
100
AcDbSpline
210
0.0
220
0.0
230
1.0
 70
    24
 71
     2
 72
     6
 73
     3
 74
     0
 42
0.0000000001
 43
0.0000000001
 40
0.0
 40
0.0
 40
0.0
 40
0.9334968628012206
 40
0.9334968628012206
 40
0.9334968628012206
 10
-7.525303421879244
 20
0.5400000000000065
 30
0.0
 10
-7.992051853279861
 20
0.5400000000000073
 30
0.0
 10
-8.458800284680422
 20
0.540000000000008
 30
0.0
  0
SPLINE
  5
BE
330
1F
100
AcDbEntity
  8
Default - Tangent
100
AcDbSpline
210
0.0
220
0.0
230
1.0
 70
     8
 71
     3
 72
     8
 73
     4
 74
     0
 42
0.0000000001
 43
0.0000000001
 40
0.0
 40
0.0
 40
0.0
 40
0.0
 40
1.0
 40
1.0
 40
1.0
 40
1.0
 10
-8.458800284680422
 20
0.540000000000008
 30
0.0
 10
-8.51258433550123
 20
0.5400000000000081
 30
0.0
 10
-8.555100555694878
 20
0.5312409634984734
 30
0.0
 10
-8.5607066790987
 20
0.4855682454472924
 30
0.0
  0
SPLINE
  5
BF
330
1F
100
AcDbEntity
  8
Default - Tangent
100
AcDbSpline
210
0.0
220
0.0
230
1.0
 70
    12
 71
     2
 72
     6
 73
     3
 74
     0
 42
0.0000000001
 43
0.0000000001
 40
-0.1353640360023174
 40
-0.1353640360023174
 40
-0.1353640360023174
 40
0.0
 40
0.0
 40
0.0
 10
-8.5607066790987
 20
0.4855682454472924
 30
0.0
 41
1.0
 10
-8.568956642619751
 20
0.4183563361316898
 30
0.0
 41
0.9992399073397645
 10
-8.571993031626846
 20
0.3499999998191763
 30
0.0
 41
1.0
  0
ARC
  5
C0
330
1F
100
AcDbEntity
  8
Default - Tangent
100
AcDbCircle
 10
-8.819106552710139
 20
0.3631661525031643
 30
0.0
 40
0.2474640173413086
100
AcDbArc
 50
315.048704637006
 51
356.9501774839492
  0
ARC
  5
C1
330
1F
100
AcDbEntity
  8
Default - Tangent
100
AcDbCircle
 10
-8.796026670841457
 20
0.3401254757143067
 30
0.0
 40
0.2148518457797491
100
AcDbArc
 50
298.427039896667
 51
315.048704637006
  0
SPLINE
  5
C2
330
1F
100
AcDbEntity
  8
Default
100
AcDbSpline
210
0.0
220
0.0
230
1.0
 70
     8
 71
     3
 72
     8
 73
     4
 74
     0
 42
0.0000000001
 43
0.0000000001
 40
-1.0
 40
-1.0
 40
-1.0
 40
-1.0
 40
0.0
 40
0.0
 40
0.0
 40
0.0
 10
6.658646388563909
 20
0.1512112460377754
 30
0.0
 10
6.692348526139057
 20
0.0535612204840141
 30
0.0
 10
6.77316053699758
 20
0.0000000000000095
 30
0.0
 10
6.877757746046512
 20
0.0000000000000062
 30
0.0
  0
SPLINE
  5
C3
330
1F
100
AcDbEntity
  8
Default
100
AcDbSpline
210
0.0
220
0.0
230
1.0
 70
    24
 71
     2
 72
     6
 73
     3
 74
     0
 42
0.0000000001
 43
0.0000000001
 40
0.0
 40
0.0
 40
0.0
 40
0.1971495316711156
 40
0.1971495316711156
 40
0.1971495316711156
 10
6.877757746046512
 20
0.0000000000000062
 30
0.0
 10
6.976332511882077
 20
0.0000000000000031
 30
0.0
 10
7.578260739937264
 20
0.0000000000000061
 30
0.0
  0
SPLINE
  5
C4
330
1F
100
AcDbEntity
  8
Default
100
AcDbSpline
210
0.0
220
0.0
230
1.0
 70
     8
 71
     3
 72
    10
 73
     6
 74
     0
 42
0.0000000001
 43
0.0000000001
 40
-2.515018222087249
 40
-2.515018222087249
 40
-2.515018222087249
 40
-2.515018222087249
 40
-2.0
 40
-1.0
 40
0.0
 40
0.0
 40
0.0
 40
0.0
 10
51.80059298211967
 20
11.07994004117927
 30
0.0
 10
51.43426128016634
 20
10.98575086326595
 30
0.0
 10
50.35389510579563
 20
10.71931224379399
 30
0.0
 10
48.54945222942166
 20
10.32310680476297
 30
0.0
 10
47.10304545497326
 20
10.06495557248087
 30
0.0
 10
46.37643468674298
 20
9.957727268858312
 30
0.0
  0
POLYLINE
  5
C5
330
1F
100
AcDbEntity
  8
Default
100
AcDb2dPolyline
 66
     1
 10
0.0
 20
0.0
 30
0.0
  0
VERTEX
  5
C6
330
C5
100
AcDbEntity
  8
Default
100
AcDbVertex
100
AcDb2dVertex
 10
46.37643468674298
 20
9.957727268858312
 30
0.0
  0
VERTEX
  5
C7
330
C5
100
AcDbEntity
  8
Default
100
AcDbVertex
100
AcDb2dVertex
 10
46.10515444097109
 20
9.95805265299755
 30
0.0
  0
SEQEND
  5
C8
330
C5
100
AcDbEntity
  8
Default
  0
SPLINE
  5
C9
330
1F
100
AcDbEntity
  8
Default
100
AcDbSpline
210
0.0
220
0.0
230
1.0
 70
     8
 71
     3
 72
    12
 73
     8
 74
     0
 42
0.0000000001
 43
0.0000000001
 40
0.0
 40
0.0
 40
0.0
 40
0.0
 40
1.0
 40
2.0
 40
3.0
 40
4.0
 40
5.0
 40
5.0
 40
5.0
 40
5.0
 10
8.542835924405296
 20
15.10343220932492
 30
0.0
 10
8.06487643326534
 20
15.45319454448651
 30
0.0
 10
6.912256224381224
 20
15.64176705562511
 30
0.0
 10
5.187456849912508
 20
15.70853676260866
 30
0.0
 10
3.458491254741261
 20
15.77453128860435
 30
0.0
 10
1.729345735805225
 20
15.79065343474502
 30
0.0
 10
0.5764323879098754
 20
15.79064070833742
 30
0.0
 10
0.0
 20
15.78960053780698
 30
0.0
  0
SPLINE
  5
CA
330
1F
100
AcDbEntity
  8
Default
100
AcDbSpline
210
0.0
220
0.0
230
1.0
 70
     8
 71
     3
 72
    12
 73
     8
 74
     0
 42
0.0000000001
 43
0.0000000001
 40
-5.0
 40
-5.0
 40
-5.0
 40
-5.0
 40
-4.0
 40
-3.0
 40
-2.0
 40
-1.0
 40
0.0
 40
0.0
 40
0.0
 40
0.0
 10
0.0
 20
15.78960053780698
 30
0.0
 10
-0.5764323879099038
 20
15.79064070833742
 30
0.0
 10
-1.729345735805282
 20
15.79065343474502
 30
0.0
 10
-3.458491254741318
 20
15.77453128860435
 30
0.0
 10
-5.187456849912564
 20
15.70853676260866
 30
0.0
 10
-6.912256224381281
 20
15.64176705562511
 30
0.0
 10
-8.064876433265397
 20
15.45319454448651
 30
0.0
 10
-8.542835924405324
 20
15.10343220932492
 30
0.0
  0
SPLINE
  5
CB
330
1F
100
AcDbEntity
  8
Default
100
AcDbSpline
210
0.0
220
0.0
230
1.0
 70
     8
 71
     3
 72
    13
 73
     9
 74
     0
 42
0.0000000001
 43
0.0000000001
 40
0.0
 40
0.0
 40
0.0
 40
0.0
 40
1.0
 40
2.0
 40
3.0
 40
4.0
 40
5.0
 40
6.0
 40
6.0
 40
6.0
 40
6.0
 10
14.84003022638444
 20
18.85837778417057
 30
0.0
 10
14.23670429918832
 20
18.12697579294334
 30
0.0
 10
12.99494645363595
 20
16.68678744934048
 30
0.0
 10
10.84942842324696
 20
14.81109147733078
 30
0.0
 10
8.446139612511189
 20
13.24696773430892
 30
0.0
 10
5.684520554540285
 20
12.46083275238077
 30
0.0
 10
2.845832940971917
 20
12.2016422370175
 30
0.0
 10
0.9487175012800435
 20
12.16312208638068
 30
0.0
 10
0.0
 20
12.1640599283337
 30
0.0
  0
SPLINE
  5
CC
330
1F
100
AcDbEntity
  8
Default
100
AcDbSpline
210
0.0
220
0.0
230
1.0
 70
     8
 71
     3
 72
    13
 73
     9
 74
     0
 42
0.0000000001
 43
0.0000000001
 40
-6.0
 40
-6.0
 40
-6.0
 40
-6.0
 40
-5.0
 40
-4.0
 40
-3.0
 40
-2.0
 40
-1.0
 40
0.0
 40
0.0
 40
0.0
 40
0.0
 10
0.0
 20
12.1640599283337
 30
0.0
 10
-0.9487175012801004
 20
12.16312208638068
 30
0.0
 10
-2.845832940971945
 20
12.2016422370175
 30
0.0
 10
-5.684520554540313
 20
12.46083275238077
 30
0.0
 10
-8.446139612511217
 20
13.24696773430892
 30
0.0
 10
-10.84942842324699
 20
14.81109147733078
 30
0.0
 10
-12.99494645363598
 20
16.68678744934048
 30
0.0
 10
-14.23670429918832
 20
18.12697579294334
 30
0.0
 10
-14.8400302263845
 20
18.85837778417057
 30
0.0
  0
SPLINE
  5
CD
330
1F
100
AcDbEntity
  8
Default
100
AcDbSpline
210
0.0
220
0.0
230
1.0
 70
     8
 71
     3
 72
    13
 73
     9
 74
     0
 42
0.0000000001
 43
0.0000000001
 40
-6.0
 40
-6.0
 40
-6.0
 40
-6.0
 40
-5.0
 40
-4.0
 40
-3.0
 40
-2.0
 40
-1.0
 40
0.0
 40
0.0
 40
0.0
 40
0.0
 10
-10.55640285671473
 20
17.45836613417584
 30
0.0
 10
-10.16725934581979
 20
16.9231675009083
 30
0.0
 10
-9.497553653268653
 20
15.74811505198051
 30
0.0
 10
-7.845544445243092
 20
14.56267782258731
 30
0.0
 10
-5.969020014820956
 20
13.8684475730176
 30
0.0
 10
-3.986042293352796
 20
13.58960488999641
 30
0.0
 10
-1.993617152111597
 20
13.52581076392845
 30
0.0
 10
-0.6644651943260271
 20
13.52276957850836
 30
0.0
 10
0.0
 20
13.52365136297594
 30
0.0
  0
SPLINE
  5
CE
330
1F
100
AcDbEntity
  8
Default
100
AcDbSpline
210
0.0
220
0.0
230
1.0
 70
     8
 71
     3
 72
    13
 73
     9
 74
     0
 42
0.0000000001
 43
0.0000000001
 40
0.0
 40
0.0
 40
0.0
 40
0.0
 40
1.0
 40
2.0
 40
3.0
 40
4.0
 40
5.0
 40
6.0
 40
6.0
 40
6.0
 40
6.0
 10
0.0
 20
13.52365136297594
 30
0.0
 10
0.6644651943259987
 20
13.52276957850836
 30
0.0
 10
1.993617152111568
 20
13.52581076392845
 30
0.0
 10
3.986042293352739
 20
13.58960488999641
 30
0.0
 10
5.969020014820956
 20
13.8684475730176
 30
0.0
 10
7.845544445243036
 20
14.56267782258731
 30
0.0
 10
9.497553653268596
 20
15.74811505198051
 30
0.0
 10
10.16725934581976
 20
16.9231675009083
 30
0.0
 10
10.55640285671473
 20
17.45836613417584
 30
0.0
  0
SPLINE
  5
CF
330
1F
100
AcDbEntity
  8
Default
100
AcDbSpline
210
0.0
220
0.0
230
1.0
 70
    12
 71
     2
 72
     7
 73
     4
 74
     0
 42
0.0000000001
 43
0.0000000001
 40
-0.2280612143019154
 40
-0.2280612143019154
 40
-0.2280612143019154
 40
-0.1724164515628274
 40
0.0
 40
0.0
 40
0.0
 10
53.5322068229018
 20
0.1499384840004421
 30
0.0
 41
1.0
 10
53.51048600509505
 20
0.1657970706614961
 30
0.0
 41
1.013403876308458
 10
53.4448062743824
 20
0.2613207077158305
 30
0.0
 41
0.9584678112273103
 10
53.44312826047442
 20
0.3504894505336337
 30
0.0
 41
1.0
  0
ARC
  5
D0
330
1F
100
AcDbEntity
  8
Default
100
AcDbCircle
 10
53.09956848103337
 20
0.3440242019508628
 30
0.0
 40
0.3436206069036254
100
AcDbArc
 50
1.078088185731258
 51
24.33657921688687
  0
SPLINE
  5
D1
330
1F
100
AcDbEntity
  8
Default
100
AcDbSpline
210
0.0
220
0.0
230
1.0
 70
     8
 71
     3
 72
     8
 73
     4
 74
     0
 42
0.0000000001
 43
0.0000000001
 40
0.0
 40
0.0
 40
0.0
 40
0.0
 40
1.0
 40
1.0
 40
1.0
 40
1.0
 10
53.41265508750683
 20
0.4856289276338269
 30
0.0
 10
53.39287291020398
 20
0.5292837499822057
 30
0.0
 10
53.34183790391333
 20
0.5400000000000134
 30
0.0
 10
53.28696092563089
 20
0.5400000000000134
 30
0.0
  0
SPLINE
  5
D2
330
1F
100
AcDbEntity
  8
Default
100
AcDbSpline
210
0.0
220
0.0
230
1.0
 70
    24
 71
     2
 72
     6
 73
     3
 74
     0
 42
0.0000000001
 43
0.0000000001
 40
-1.308943608644313
 40
-1.308943608644313
 40
-1.308943608644313
 40
0.0
 40
0.0
 40
0.0
 10
53.28696092563089
 20
0.5400000000000134
 30
0.0
 10
52.63248912130874
 20
0.5400000000000134
 30
0.0
 10
51.97801731698658
 20
0.5400000000000134
 30
0.0
  0
SPLINE
  5
D3
330
1F
100
AcDbEntity
  8
Default
100
AcDbSpline
210
0.0
220
0.0
230
1.0
 70
     8
 71
     3
 72
     8
 73
     4
 74
     0
 42
0.0000000001
 43
0.0000000001
 40
0.0
 40
0.0
 40
0.0
 40
0.0
 40
1.0
 40
1.0
 40
1.0
 40
1.0
 10
51.97801731698658
 20
0.5400000000000134
 30
0.0
 10
51.8552405707963
 20
0.5400000000000134
 30
0.0
 10
51.79778463359654
 20
0.4696048983162123
 30
0.0
 10
51.80420211365961
 20
0.3446072931190189
 30
0.0
  0
SPLINE
  5
D4
330
1F
100
AcDbEntity
  8
Default
100
AcDbSpline
210
0.0
220
0.0
230
1.0
 70
    12
 71
     2
 72
     6
 73
     3
 74
     0
 42
0.0000000001
 43
0.0000000001
 40
-0.1670989126407748
 40
-0.1670989126407748
 40
-0.1670989126407748
 40
0.0
 40
0.0
 40
0.0
 10
51.80420211365961
 20
0.3446072931190189
 30
0.0
 41
1.0
 10
51.8084870551753
 20
0.2611465853949972
 30
0.0
 41
0.9996199714926403
 10
51.81736517687995
 20
0.178048875362865
 30
0.0
 41
1.0
  0
SPLINE
  5
D5
330
1F
100
AcDbEntity
  8
Default
100
AcDbSpline
210
0.0
220
0.0
230
1.0
 70
     8
 71
     3
 72
     8
 73
     4
 74
     0
 42
0.0000000001
 43
0.0000000001
 40
-1.0
 40
-1.0
 40
-1.0
 40
-1.0
 40
0.0
 40
0.0
 40
0.0
 40
0.0
 10
51.81736517687995
 20
0.178048875362865
 30
0.0
 10
51.82907003526708
 20
0.0684933904780897
 30
0.0
 10
51.88168731993312
 20
-0.000000000000001
 30
0.0
 10
51.98584618595999
 20
0.0
 30
0.0
  0
POLYLINE
  5
D6
330
1F
100
AcDbEntity
  8
Default
100
AcDb2dPolyline
 66
     1
 10
0.0
 20
0.0
 30
0.0
  0
VERTEX
  5
D7
330
D6
100
AcDbEntity
  8
Default
100
AcDbVertex
100
AcDb2dVertex
 10
51.98584618595999
 20
0.0
 30
0.0
  0
VERTEX
  5
D8
330
D6
100
AcDbEntity
  8
Default
100
AcDbVertex
100
AcDb2dVertex
 10
53.49813427302331
 20
0.0000000000000142
 30
0.0
  0
SEQEND
  5
D9
330
D6
100
AcDbEntity
  8
Default
  0
SPLINE
  5
DA
330
1F
100
AcDbEntity
  8
Default
100
AcDbSpline
210
0.0
220
0.0
230
1.0
 70
    12
 71
     2
 72
     6
 73
     3
 74
     0
 42
0.0000000001
 43
0.0000000001
 40
-0.2658620701031969
 40
-0.2658620701031969
 40
-0.2658620701031969
 40
0.0
 40
0.0
 40
0.0
 10
53.49813427302331
 20
0.0000000000000142
 30
0.0
 41
1.0
 10
53.64980228476641
 20
0.0069319958477196
 30
0.0
 41
0.8233604460347794
 10
53.69729430299819
 20
0.1511392999512733
 30
0.0
 41
1.0
  0
SPLINE
  5
DB
330
1F
100
AcDbEntity
  8
Default
100
AcDbSpline
210
0.0
220
0.0
230
1.0
 70
    12
 71
     2
 72
     7
 73
     4
 74
     0
 42
0.0000000001
 43
0.0000000001
 40
-0.2280612143019154
 40
-0.2280612143019154
 40
-0.2280612143019154
 40
-0.1724164515628274
 40
0.0
 40
0.0
 40
0.0
 10
34.36513357234267
 20
0.1499384840004421
 30
0.0
 41
1.0
 10
34.38685439014943
 20
0.1657970706614961
 30
0.0
 41
1.013403876308458
 10
34.45253412086203
 20
0.2613207077158305
 30
0.0
 41
0.9584678112273103
 10
34.45421213477005
 20
0.3504894505336337
 30
0.0
 41
1.0
  0
ARC
  5
DC
330
1F
100
AcDbEntity
  8
Default
100
AcDbCircle
 10
34.79777191421107
 20
0.3440242019508628
 30
0.0
 40
0.3436206069036254
100
AcDbArc
 50
155.6634207831131
 51
178.9219118142687
  0
SPLINE
  5
DD
330
1F
100
AcDbEntity
  8
Default
100
AcDbSpline
210
0.0
220
0.0
230
1.0
 70
     8
 71
     3
 72
     8
 73
     4
 74
     0
 42
0.0000000001
 43
0.0000000001
 40
0.0
 40
0.0
 40
0.0
 40
0.0
 40
1.0
 40
1.0
 40
1.0
 40
1.0
 10
34.48468530773761
 20
0.4856289276338269
 30
0.0
 10
34.50446748504049
 20
0.5292837499822057
 30
0.0
 10
34.55550249133111
 20
0.5400000000000134
 30
0.0
 10
34.61037946961358
 20
0.5400000000000134
 30
0.0
  0
SPLINE
  5
DE
330
1F
100
AcDbEntity
  8
Default
100
AcDbSpline
210
0.0
220
0.0
230
1.0
 70
    24
 71
     2
 72
     6
 73
     3
 74
     0
 42
0.0000000001
 43
0.0000000001
 40
-1.308943608644313
 40
-1.308943608644313
 40
-1.308943608644313
 40
0.0
 40
0.0
 40
0.0
 10
34.61037946961358
 20
0.5400000000000134
 30
0.0
 10
35.26485127393573
 20
0.5400000000000134
 30
0.0
 10
35.91932307825789
 20
0.5400000000000134
 30
0.0
  0
SPLINE
  5
DF
330
1F
100
AcDbEntity
  8
Default
100
AcDbSpline
210
0.0
220
0.0
230
1.0
 70
     8
 71
     3
 72
     8
 73
     4
 74
     0
 42
0.0000000001
 43
0.0000000001
 40
0.0
 40
0.0
 40
0.0
 40
0.0
 40
1.0
 40
1.0
 40
1.0
 40
1.0
 10
35.91932307825789
 20
0.5400000000000134
 30
0.0
 10
36.04209982444814
 20
0.5400000000000134
 30
0.0
 10
36.09955576164793
 20
0.4696048983162123
 30
0.0
 10
36.09313828158486
 20
0.3446072931190189
 30
0.0
  0
SPLINE
  5
E0
330
1F
100
AcDbEntity
  8
Default
100
AcDbSpline
210
0.0
220
0.0
230
1.0
 70
    12
 71
     2
 72
     6
 73
     3
 74
     0
 42
0.0000000001
 43
0.0000000001
 40
-0.1670989126407748
 40
-0.1670989126407748
 40
-0.1670989126407748
 40
0.0
 40
0.0
 40
0.0
 10
36.09313828158486
 20
0.3446072931190189
 30
0.0
 41
1.0
 10
36.08885334006917
 20
0.2611465853949972
 30
0.0
 41
0.9996199714926403
 10
36.0799752183645
 20
0.178048875362865
 30
0.0
 41
1.0
  0
SPLINE
  5
E1
330
1F
100
AcDbEntity
  8
Default
100
AcDbSpline
210
0.0
220
0.0
230
1.0
 70
     8
 71
     3
 72
     8
 73
     4
 74
     0
 42
0.0000000001
 43
0.0000000001
 40
-1.0
 40
-1.0
 40
-1.0
 40
-1.0
 40
0.0
 40
0.0
 40
0.0
 40
0.0
 10
36.0799752183645
 20
0.178048875362865
 30
0.0
 10
36.06827035997736
 20
0.0684933904780897
 30
0.0
 10
36.01565307531132
 20
-0.000000000000001
 30
0.0
 10
35.91149420928446
 20
0.0
 30
0.0
  0
POLYLINE
  5
E2
330
1F
100
AcDbEntity
  8
Default
100
AcDb2dPolyline
 66
     1
 10
0.0
 20
0.0
 30
0.0
  0
VERTEX
  5
E3
330
E2
100
AcDbEntity
  8
Default
100
AcDbVertex
100
AcDb2dVertex
 10
35.91149420928446
 20
0.0
 30
0.0
  0
VERTEX
  5
E4
330
E2
100
AcDbEntity
  8
Default
100
AcDbVertex
100
AcDb2dVertex
 10
34.39920612222113
 20
0.0000000000000142
 30
0.0
  0
SEQEND
  5
E5
330
E2
100
AcDbEntity
  8
Default
  0
SPLINE
  5
E6
330
1F
100
AcDbEntity
  8
Default
100
AcDbSpline
210
0.0
220
0.0
230
1.0
 70
    12
 71
     2
 72
     6
 73
     3
 74
     0
 42
0.0000000001
 43
0.0000000001
 40
-0.2658620701031969
 40
-0.2658620701031969
 40
-0.2658620701031969
 40
0.0
 40
0.0
 40
0.0
 10
34.39920612222113
 20
0.0000000000000142
 30
0.0
 41
1.0
 10
34.24753811047803
 20
0.0069319958477196
 30
0.0
 41
0.8233604460347794
 10
34.20004609224628
 20
0.1511392999512733
 30
0.0
 41
1.0
  0
POLYLINE
  5
E7
330
1F
100
AcDbEntity
  8
Default
100
AcDb2dPolyline
 66
     1
 10
0.0
 20
0.0
 30
0.0
  0
VERTEX
  5
E8
330
E7
100
AcDbEntity
  8
Default
100
AcDbVertex
100
AcDb2dVertex
 10
45.05927049485197
 20
9.959307127117414
 30
0.0
  0
VERTEX
  5
E9
330
E7
100
AcDbEntity
  8
Default
100
AcDbVertex
100
AcDb2dVertex
 10
40.98629067419074
 20
9.964192418448937
 30
0.0
  0
SEQEND
  5
EA
330
E7
100
AcDbEntity
  8
Default
  0
SPLINE
  5
EB
330
1F
100
AcDbEntity
  8
Default
100
AcDbSpline
210
0.0
220
0.0
230
1.0
 70
     8
 71
     3
 72
    47
 73
    43
 74
     0
 42
0.0000000001
 43
0.0000000001
 40
-3.0
 40
-2.0
 40
-1.0
 40
0.0
 40
1.0
 40
2.0
 40
3.0
 40
4.0
 40
5.0
 40
6.0
 40
7.0
 40
8.0
 40
9.0
 40
10.0
 40
11.0
 40
12.0
 40
13.0
 40
14.0
 40
15.0
 40
16.0
 40
17.0
 40
18.0
 40
19.0
 40
20.0
 40
21.0
 40
22.0
 40
23.0
 40
24.0
 40
25.0
 40
26.0
 40
27.0
 40
28.0
 40
29.0
 40
30.0
 40
31.0
 40
32.0
 40
33.0
 40
34.0
 40
35.0
 40
36.0
 40
37.0
 40
38.0
 40
39.0
 40
40.0
 40
41.0
 40
42.0
 40
43.0
 10
-1.572421837347463
 20
61.32110433484615
 30
0.0
 10
0.0000002670994945
 20
61.33642514550175
 30
0.0
 10
1.572420768949371
 20
61.3211043339447
 30
0.0
 10
3.144484390901596
 20
61.25421543922105
 30
0.0
 10
4.703643045553747
 20
61.03536488441317
 30
0.0
 10
6.221079576650368
 20
60.58954959332423
 30
0.0
 10
7.5638200649189
 20
59.72683326243313
 30
0.0
 10
8.471732954743402
 20
58.39354811605362
 30
0.0
 10
8.743367979121729
 20
56.82809213899458
 30
0.0
 10
8.9259116784296
 20
55.26983928191536
 30
0.0
 10
9.009765356230389
 20
53.69780082450374
 30
0.0
 10
9.019716600451659
 20
52.12517924474193
 30
0.0
 10
8.96496025121769
 20
50.553600701593
 30
0.0
 10
8.866902661199788
 20
48.98330526486308
 30
0.0
 10
8.688227829628431
 20
47.42246249757711
 30
0.0
 10
8.378863211605278
 20
45.87005508901041
 30
0.0
 10
7.54295890808578
 20
44.4919857751024
 30
0.0
 10
6.143630292877219
 20
43.70049147528812
 30
0.0
 10
4.683257496836575
 20
43.126132481448
 30
0.0
 10
3.132934532665331
 20
42.82621013820991
 30
0.0
 10
1.572102860002303
 20
42.63994970437246
 30
0.0
 10
0.0000000905926072
 20
42.55592581203412
 30
0.0
 10
-1.572103222372846
 20
42.63994972876397
 30
0.0
 10
-3.132933383264856
 20
42.82621005132611
 30
0.0
 10
-4.683256491193049
 20
43.1261319992215
 30
0.0
 10
-6.143631919994505
 20
43.70049247305469
 30
0.0
 10
-7.542957557078068
 20
44.49198433915072
 30
0.0
 10
-8.378864148896923
 20
45.87005725001139
 30
0.0
 10
-8.688227354393973
 20
47.42246052288099
 30
0.0
 10
-8.866902773067352
 20
48.98330579385941
 30
0.0
 10
-8.964960148516127
 20
50.55359911008492
 30
0.0
 10
-9.01971661561413
 20
52.12517963001223
 30
0.0
 10
-9.00976538051566
 20
53.69779941462885
 30
0.0
 10
-8.925911703165582
 20
55.26983972403717
 30
0.0
 10
-8.743367790332798
 20
56.82809256144276
 30
0.0
 10
-8.471733568056948
 20
58.39354675933097
 30
0.0
 10
-7.56381965409139
 20
59.72683376677575
 30
0.0
 10
-6.221080413069728
 20
60.58954912076945
 30
0.0
 10
-4.703643027972305
 20
61.0353649464494
 30
0.0
 10
-3.144485147395926
 20
61.25421533044223
 30
0.0
 10
-1.572421837347463
 20
61.32110433484615
 30
0.0
 10
0.0000002670994945
 20
61.33642514550175
 30
0.0
 10
1.572420768949371
 20
61.3211043339447
 30
0.0
  0
SPLINE
  5
EC
330
1F
100
AcDbEntity
  8
Default
100
AcDbSpline
210
0.0
220
0.0
230
1.0
 70
     8
 71
     3
 72
    12
 73
     8
 74
     0
 42
0.0000000001
 43
0.0000000001
 40
-5.0
 40
-5.0
 40
-5.0
 40
-5.0
 40
-4.0
 40
-3.0
 40
-2.0
 40
-1.0
 40
0.0
 40
0.0
 40
0.0
 40
0.0
 10
0.0
 20
69.79927563796558
 30
0.0
 10
-0.743385919642833
 20
69.80531412235597
 30
0.0
 10
-2.229171760534143
 20
69.7531104773495
 30
0.0
 10
-4.450134504971516
 20
69.51320867561982
 30
0.0
 10
-6.621396007209569
 20
69.00580885167604
 30
0.0
 10
-8.767855580842195
 20
68.37104746411067
 30
0.0
 10
-10.01052377854256
 20
67.46707210977577
 30
0.0
 10
-10.25829184497576
 20
66.72895731490952
 30
0.0
  0
SPLINE
  5
ED
330
1F
100
AcDbEntity
  8
Default
100
AcDbSpline
210
0.0
220
0.0
230
1.0
 70
     8
 71
     3
 72
    12
 73
     8
 74
     0
 42
0.0000000001
 43
0.0000000001
 40
0.0
 40
0.0
 40
0.0
 40
0.0
 40
1.0
 40
2.0
 40
3.0
 40
4.0
 40
5.0
 40
5.0
 40
5.0
 40
5.0
 10
-8.827900292593313
 20
45.23292397573724
 30
0.0
 10
-9.675978075779199
 20
45.89545268569383
 30
0.0
 10
-11.16815206190961
 20
47.4777760119027
 30
0.0
 10
-12.6599511708983
 20
50.3700774497477
 30
0.0
 10
-13.5003168693882
 20
53.50161545112935
 30
0.0
 10
-13.71705409638258
 20
56.7409381808444
 30
0.0
 10
-13.35153509079765
 20
58.87727588763276
 30
0.0
 10
-13.06493318473252
 20
59.91365529769929
 30
0.0
  0
ENDSEC
  0
SECTION
  2
OBJECTS
  0
DICTIONARY
  5
C
330
0
100
AcDbDictionary
281
     1
  3
ACAD_GROUP
350
D
  3
ACAD_LAYOUT
350
1A
  3
ACAD_MLEADERSTYLE
350
EF
  3
ACAD_MLINESTYLE
350
17
  3
ACAD_PLOTSETTINGS
350
19
  3
ACAD_PLOTSTYLENAME
350
E
  3
ACAD_TABLESTYLE
350
EE
  3
ACAD_VISUALSTYLE
350
2A
  0
DICTIONARY
  5
D
102
{ACAD_REACTORS
330
C
102
}
330
C
100
AcDbDictionary
281
     1
  0
DICTIONARY
  5
1A
102
{ACAD_REACTORS
330
C
102
}
330
C
100
AcDbDictionary
281
     1
  3
Layout1
350
1E
  3
Layout2
350
26
  3
Model
350
22
  0
DICTIONARY
  5
EF
102
{ACAD_REACTORS
330
C
102
}
330
C
100
AcDbDictionary
281
     1
  0
DICTIONARY
  5
17
102
{ACAD_REACTORS
330
C
102
}
330
C
100
AcDbDictionary
281
     1
  3
Standard
350
18
  0
DICTIONARY
  5
19
102
{ACAD_REACTORS
330
C
102
}
330
C
100
AcDbDictionary
281
     1
  0
ACDBDICTIONARYWDFLT
  5
E
102
{ACAD_REACTORS
330
C
102
}
330
C
100
AcDbDictionary
281
     1
  3
Normal
350
F
100
AcDbDictionaryWithDefault
340
F
  0
DICTIONARY
  5
EE
102
{ACAD_REACTORS
330
C
102
}
330
C
100
AcDbDictionary
281
     1
  0
DICTIONARY
  5
2A
102
{ACAD_REACTORS
330
C
102
}
330
C
100
AcDbDictionary
281
     1
  3
2dWireframe
350
2F
  3
3D Hidden
350
31
  3
3dWireframe
350
30
  3
Basic
350
32
  3
Brighten
350
36
  3
ColorChange
350
3A
  3
Conceptual
350
34
  3
Dim
350
35
  3
Facepattern
350
39
  3
Flat
350
2B
  3
FlatWithEdges
350
2C
  3
Gouraud
350
2D
  3
GouraudWithEdges
350
2E
  3
Linepattern
350
38
  3
Realistic
350
33
  3
Thicken
350
37
  0
LAYOUT
  5
1E
102
{ACAD_REACTORS
330
1A
102
}
330
1A
100
AcDbPlotSettings
  1

  2
none_device
  4

  6

 40
0.0
 41
0.0
 42
0.0
 43
0.0
 44
0.0
 45
0.0
 46
0.0
 47
0.0
 48
0.0
 49
0.0
140
0.0
141
0.0
142
1.0
143
1.0
 70
   688
 72
     0
 73
     0
 74
     5
  7

 75
    16
 76
     0
 77
     2
 78
   300
147
1.0
148
0.0
149
0.0
100
AcDbLayout
  1
Layout1
 70
     1
 71
     1
 10
0.0
 20
0.0
 11
12.0
 21
9.0
 12
0.0
 22
0.0
 32
0.0
 14
1.000000000000000E+20
 24
1.000000000000000E+20
 34
1.000000000000000E+20
 15
-1.000000000000000E+20
 25
-1.000000000000000E+20
 35
-1.000000000000000E+20
146
0.0
 13
0.0
 23
0.0
 33
0.0
 16
1.0
 26
0.0
 36
0.0
 17
0.0
 27
1.0
 37
0.0
 76
     0
330
1B
  0
LAYOUT
  5
26
102
{ACAD_REACTORS
330
1A
102
}
330
1A
100
AcDbPlotSettings
  1

  2
none_device
  4

  6

 40
0.0
 41
0.0
 42
0.0
 43
0.0
 44
0.0
 45
0.0
 46
0.0
 47
0.0
 48
0.0
 49
0.0
140
0.0
141
0.0
142
1.0
143
1.0
 70
   688
 72
     0
 73
     0
 74
     5
  7

 75
    16
 76
     0
 77
     2
 78
   300
147
1.0
148
0.0
149
0.0
100
AcDbLayout
  1
Layout2
 70
     1
 71
     2
 10
0.0
 20
0.0
 11
0.0
 21
0.0
 12
0.0
 22
0.0
 32
0.0
 14
0.0
 24
0.0
 34
0.0
 15
0.0
 25
0.0
 35
0.0
146
0.0
 13
0.0
 23
0.0
 33
0.0
 16
1.0
 26
0.0
 36
0.0
 17
0.0
 27
1.0
 37
0.0
 76
     0
330
23
  0
LAYOUT
  5
22
102
{ACAD_REACTORS
330
1A
102
}
330
1A
100
AcDbPlotSettings
  1

  2
none_device
  4

  6

 40
0.0
 41
0.0
 42
0.0
 43
0.0
 44
0.0
 45
0.0
 46
0.0
 47
0.0
 48
0.0
 49
0.0
140
0.0
141
0.0
142
1.0
143
1.0
 70
  1712
 72
     0
 73
     0
 74
     0
  7

 75
     0
 76
     0
 77
     2
 78
   300
147
1.0
148
0.0
149
0.0
100
AcDbLayout
  1
Model
 70
     1
 71
     0
 10
0.0
 20
0.0
 11
12.0
 21
9.0
 12
0.0
 22
0.0
 32
0.0
 14
-15.00190568170768
 24
0.0
 34
0.0
 15
58.58642542332201
 25
71.68426288798452
 35
0.0
146
0.0
 13
0.0
 23
0.0
 33
0.0
 16
1.0
 26
0.0
 36
0.0
 17
0.0
 27
1.0
 37
0.0
 76
     0
330
1F
331
29
  0
MLINESTYLE
  5
18
102
{ACAD_REACTORS
330
17
102
}
330
17
100
AcDbMlineStyle
  2
Standard
 70
     0
  3

 62
   256
 51
90.0
 52
90.0
 71
     2
 49
0.5
 62
   256
  6
BYLAYER
 49
-0.5
 62
   256
  6
BYLAYER
  0
ACDBPLACEHOLDER
  5
F
102
{ACAD_REACTORS
330
E
102
}
330
E
  0
VISUALSTYLE
  5
2F
102
{ACAD_REACTORS
330
2A
102
}
330
2A
100
AcDbVisualStyle
  2
2dWireframe
 70
     4
 71
     0
 72
     2
 73
     0
 90
        0
 40
-0.6
 41
-30.0
 62
     5
 63
     7
421
 16777215
 74
     1
 91
        4
 64
     7
 65
   257
 75
     1
175
     1
 42
1.0
 92
        0
 66
   257
 43
1.0
 76
     1
 77
     6
 78
     2
 67
     7
 79
     5
170
     0
171
     0
290
     0
174
     0
 93
        1
 44
0.0
173
     0
291
     0
 45
0.0
1001
ACAD
1000
AcDbSavedByObjectVersion
1070
     0
  0
VISUALSTYLE
  5
31
102
{ACAD_REACTORS
330
2A
102
}
330
2A
100
AcDbVisualStyle
  2
3D Hidden
 70
     6
 71
     1
 72
     2
 73
     2
 90
        0
 40
-0.6
 41
-30.0
 62
     5
 63
     7
421
 16777215
 74
     2
 91
        2
 64
     7
 65
   257
 75
     2
175
     1
 42
40.0
 92
        0
 66
   257
 43
1.0
 76
     1
 77
     6
 78
     2
 67
     7
 79
     3
170
     0
171
     0
290
     0
174
     0
 93
        1
 44
0.0
173
     0
291
     0
 45
0.0
1001
ACAD
1000
AcDbSavedByObjectVersion
1070
     0
  0
VISUALSTYLE
  5
30
102
{ACAD_REACTORS
330
2A
102
}
330
2A
100
AcDbVisualStyle
  2
3dWireframe
 70
     5
 71
     0
 72
     2
 73
     0
 90
        0
 40
-0.6
 41
-30.0
 62
     5
 63
     7
421
 16777215
 74
     1
 91
        4
 64
     7
 65
   257
 75
     1
175
     1
 42
1.0
 92
        0
 66
   257
 43
1.0
 76
     1
 77
     6
 78
     2
 67
     7
 79
     5
170
     0
171
     0
290
     0
174
     0
 93
        1
 44
0.0
173
     0
291
     0
 45
0.0
1001
ACAD
1000
AcDbSavedByObjectVersion
1070
     0
  0
VISUALSTYLE
  5
32
102
{ACAD_REACTORS
330
2A
102
}
330
2A
100
AcDbVisualStyle
  2
Basic
 70
     7
 71
     1
 72
     0
 73
     1
 90
        0
 40
-0.6
 41
-30.0
 62
     5
 63
     7
421
 16777215
 74
     0
 91
        4
 64
     7
 65
   257
 75
     1
175
     1
 42
1.0
 92
        8
 66
     7
 43
1.0
 76
     1
 77
     6
 78
     2
 67
     7
 79
     5
170
     0
171
     0
290
     0
174
     0
 93
        1
 44
0.0
173
     0
291
     1
 45
0.0
1001
ACAD
1000
AcDbSavedByObjectVersion
1070
     0
  0
VISUALSTYLE
  5
36
102
{ACAD_REACTORS
330
2A
102
}
330
2A
100
AcDbVisualStyle
  2
Brighten
 70
    12
 71
     2
 72
     2
 73
     0
 90
        0
 40
-0.6
 41
-30.0
 62
     5
 63
     7
421
 16777215
 74
     1
 91
        4
 64
     7
 65
   257
 75
     1
175
     1
 42
1.0
 92
        8
 66
     7
 43
1.0
 76
     1
 77
     6
 78
     2
 67
     7
 79
     5
170
     0
171
     0
290
     0
174
     0
 93
        1
 44
50.0
173
     0
291
     1
 45
0.0
1001
ACAD
1000
AcDbSavedByObjectVersion
1070
     0
  0
VISUALSTYLE
  5
3A
102
{ACAD_REACTORS
330
2A
102
}
330
2A
100
AcDbVisualStyle
  2
ColorChange
 70
    16
 71
     2
 72
     2
 73
     3
 90
        0
 40
-0.6
 41
-30.0
 62
     5
 63
     8
421
  8421504
 74
     1
 91
        4
 64
     7
 65
   257
 75
     1
175
     1
 42
1.0
 92
        8
 66
     8
424
  8421504
 43
1.0
 76
     1
 77
     6
 78
     2
 67
     7
 79
     5
170
     0
171
     0
290
     0
174
     0
 93
        1
 44
0.0
173
     0
291
     1
 45
0.0
1001
ACAD
1000
AcDbSavedByObjectVersion
1070
     0
  0
VISUALSTYLE
  5
34
102
{ACAD_REACTORS
330
2A
102
}
330
2A
100
AcDbVisualStyle
  2
Conceptual
 70
     9
 71
     3
 72
     2
 73
     0
 90
        0
 40
-0.6
 41
-30.0
 62
     5
 63
     7
421
 16777215
 74
     2
 91
        2
 64
     7
 65
   257
 75
     1
175
     1
 42
40.0
 92
        8
 66
     7
 43
1.0
 76
     1
 77
     6
 78
     2
 67
     7
 79
     3
170
     0
171
     0
290
     0
174
     0
 93
        1
 44
0.0
173
     0
291
     0
 45
0.0
1001
ACAD
1000
AcDbSavedByObjectVersion
1070
     0
  0
VISUALSTYLE
  5
35
102
{ACAD_REACTORS
330
2A
102
}
330
2A
100
AcDbVisualStyle
  2
Dim
 70
    11
 71
     2
 72
     2
 73
     0
 90
        0
 40
-0.6
 41
-30.0
 62
     5
 63
     7
421
 16777215
 74
     1
 91
        4
 64
     7
 65
   257
 75
     1
175
     1
 42
1.0
 92
        8
 66
     7
 43
1.0
 76
     1
 77
     6
 78
     2
 67
     7
 79
     5
170
     0
171
     0
290
     0
174
     0
 93
        1
 44
-50.0
173
     0
291
     1
 45
0.0
1001
ACAD
1000
AcDbSavedByObjectVersion
1070
     0
  0
VISUALSTYLE
  5
39
102
{ACAD_REACTORS
330
2A
102
}
330
2A
100
AcDbVisualStyle
  2
Facepattern
 70
    15
 71
     2
 72
     2
 73
     0
 90
        0
 40
-0.6
 41
-30.0
 62
     5
 63
     7
421
 16777215
 74
     1
 91
        4
 64
     7
 65
   257
 75
     1
175
     1
 42
1.0
 92
        8
 66
     7
 43
1.0
 76
     1
 77
     6
 78
     2
 67
     7
 79
     5
170
     0
171
     0
290
     0
174
     0
 93
        1
 44
0.0
173
     0
291
     1
 45
0.0
1001
ACAD
1000
AcDbSavedByObjectVersion
1070
     0
  0
VISUALSTYLE
  5
2B
102
{ACAD_REACTORS
330
2A
102
}
330
2A
100
AcDbVisualStyle
  2
Flat
 70
     0
 71
     2
 72
     1
 73
     1
 90
        2
 40
-0.6
 41
30.0
 62
     5
 63
     7
421
 16777215
 74
     0
 91
        4
 64
     7
 65
   257
 75
     1
175
     1
 42
1.0
 92
        8
 66
     7
 43
1.0
 76
     1
 77
     6
 78
     2
 67
     7
 79
     5
170
     0
171
     0
290
     0
174
     0
 93
       13
 44
0.0
173
     0
291
     1
 45
0.0
1001
ACAD
1000
AcDbSavedByObjectVersion
1070
     0
  0
VISUALSTYLE
  5
2C
102
{ACAD_REACTORS
330
2A
102
}
330
2A
100
AcDbVisualStyle
  2
FlatWithEdges
 70
     1
 71
     2
 72
     1
 73
     1
 90
        2
 40
-0.6
 41
30.0
 62
     5
 63
     7
421
 16777215
 74
     1
 91
        4
 64
     7
 65
   257
 75
     1
175
     1
 42
1.0
 92
        0
 66
   257
 43
1.0
 76
     1
 77
     6
 78
     2
 67
     7
 79
     5
170
     0
171
     0
290
     0
174
     0
 93
       13
 44
0.0
173
     0
291
     1
 45
0.0
1001
ACAD
1000
AcDbSavedByObjectVersion
1070
     0
  0
VISUALSTYLE
  5
2D
102
{ACAD_REACTORS
330
2A
102
}
330
2A
100
AcDbVisualStyle
  2
Gouraud
 70
     2
 71
     2
 72
     2
 73
     1
 90
        2
 40
-0.6
 41
30.0
 62
     5
 63
     7
421
 16777215
 74
     0
 91
        4
 64
     7
 65
   257
 75
     1
175
     1
 42
1.0
 92
        0
 66
     7
 43
1.0
 76
     1
 77
     6
 78
     2
 67
     7
 79
     5
170
     0
171
     0
290
     0
174
     0
 93
       13
 44
0.0
173
     0
291
     1
 45
0.0
1001
ACAD
1000
AcDbSavedByObjectVersion
1070
     0
  0
VISUALSTYLE
  5
2E
102
{ACAD_REACTORS
330
2A
102
}
330
2A
100
AcDbVisualStyle
  2
GouraudWithEdges
 70
     3
 71
     2
 72
     2
 73
     1
 90
        2
 40
-0.6
 41
30.0
 62
     5
 63
     7
421
 16777215
 74
     1
 91
        4
 64
     7
 65
   257
 75
     1
175
     1
 42
1.0
 92
        0
 66
   257
 43
1.0
 76
     1
 77
     6
 78
     2
 67
     7
 79
     5
170
     0
171
     0
290
     0
174
     0
 93
       13
 44
0.0
173
     0
291
     1
 45
0.0
1001
ACAD
1000
AcDbSavedByObjectVersion
1070
     0
  0
VISUALSTYLE
  5
38
102
{ACAD_REACTORS
330
2A
102
}
330
2A
100
AcDbVisualStyle
  2
Linepattern
 70
    14
 71
     2
 72
     2
 73
     0
 90
        0
 40
-0.6
 41
-30.0
 62
     5
 63
     7
421
 16777215
 74
     1
 91
        4
 64
     7
 65
   257
 75
     7
175
     7
 42
1.0
 92
        8
 66
     7
 43
1.0
 76
     1
 77
     6
 78
     2
 67
     7
 79
     5
170
     0
171
     0
290
     0
174
     0
 93
        1
 44
0.0
173
     0
291
     1
 45
0.0
1001
ACAD
1000
AcDbSavedByObjectVersion
1070
     0
  0
VISUALSTYLE
  5
33
102
{ACAD_REACTORS
330
2A
102
}
330
2A
100
AcDbVisualStyle
  2
Realistic
 70
     8
 71
     2
 72
     2
 73
     0
 90
        0
 40
-0.6
 41
-30.0
 62
     5
 63
     7
421
 16777215
 74
     1
 91
        0
 64
     7
 65
   257
 75
     1
175
     1
 42
1.0
 92
        8
 66
     8
424
  7895160
 43
1.0
 76
     1
 77
     6
 78
     2
 67
     7
 79
     5
170
     0
171
     0
290
     0
174
     0
 93
       13
 44
0.0
173
     0
291
     0
 45
0.0
1001
ACAD
1000
AcDbSavedByObjectVersion
1070
     0
  0
VISUALSTYLE
  5
37
102
{ACAD_REACTORS
330
2A
102
}
330
2A
100
AcDbVisualStyle
  2
Thicken
 70
    13
 71
     2
 72
     2
 73
     0
 90
        0
 40
-0.6
 41
-30.0
 62
     5
 63
     7
421
 16777215
 74
     1
 91
        4
 64
     7
 65
   257
 75
     1
175
     1
 42
1.0
 92
       12
 66
     7
 43
1.0
 76
     1
 77
     6
 78
     2
 67
     7
 79
     5
170
     0
171
     0
290
     0
174
     0
 93
        1
 44
0.0
173
     0
291
     1
 45
0.0
1001
ACAD
1000
AcDbSavedByObjectVersion
1070
     0
  0
ENDSEC
  0
EOF
