  0
SECTION
  2
HEADER
  9
$ACADVER
  1
AC1018
  9
$ACADMAINTVER
 70
     0
  9
$DWGCODEPAGE
  3
ANSI_1252
  9
$INSBASE
 10
0.0
 20
0.0
 30
0.0
  9
$EXTMIN
 10
-15.00190568170765
 20
0.0000000000000009
 30
0.0
  9
$EXTMAX
 10
56.05099917070888
 20
71.68426288798452
 30
0.0
  9
$LIMMIN
 10
0.0
 20
0.0
  9
$LIMMAX
 10
12.0
 20
9.0
  9
$ORTHOMODE
 70
     0
  9
$REGENMODE
 70
     1
  9
$FILLMODE
 70
     1
  9
$QTEXTMODE
 70
     0
  9
$MIRRTEXT
 70
     1
  9
$LTSCALE
 40
0.0393700787401575
  9
$ATTMODE
 70
     1
  9
$TEXTSIZE
 40
0.2
  9
$TRACEWID
 40
0.05
  9
$TEXTSTYLE
  7
Standard
  9
$CLAYER
  8
Default
  9
$CELTYPE
  6
ByLayer
  9
$CECOLOR
 62
   256
  9
$CELTSCALE
 40
1.0
  9
$DISPSILH
 70
     0
  9
$DIMSCALE
 40
1.0
  9
$DIMASZ
 40
0.18
  9
$DIMEXO
 40
0.0625
  9
$DIMDLI
 40
0.38
  9
$DIMRND
 40
0.0
  9
$DIMDLE
 40
0.0
  9
$DIMEXE
 40
0.18
  9
$DIMTP
 40
0.0
  9
$DIMTM
 40
0.0
  9
$DIMTXT
 40
0.18
  9
$DIMCEN
 40
0.09
  9
$DIMTSZ
 40
0.0
  9
$DIMTOL
 70
     0
  9
$DIMLIM
 70
     0
  9
$DIMTIH
 70
     1
  9
$DIMTOH
 70
     1
  9
$DIMSE1
 70
     0
  9
$DIMSE2
 70
     0
  9
$DIMTAD
 70
     0
  9
$DIMZIN
 70
     0
  9
$DIMBLK
  1

  9
$DIMASO
 70
     1
  9
$DIMSHO
 70
     1
  9
$DIMPOST
  1

  9
$DIMAPOST
  1

  9
$DIMALT
 70
     0
  9
$DIMALTD
 70
     2
  9
$DIMALTF
 40
25.4
  9
$DIMLFAC
 40
1.0
  9
$DIMTOFL
 70
     0
  9
$DIMTVP
 40
0.0
  9
$DIMTIX
 70
     0
  9
$DIMSOXD
 70
     0
  9
$DIMSAH
 70
     0
  9
$DIMBLK1
  1

  9
$DIMBLK2
  1

  9
$DIMSTYLE
  2
Standard
  9
$DIMCLRD
 70
     0
  9
$DIMCLRE
 70
     0
  9
$DIMCLRT
 70
     0
  9
$DIMTFAC
 40
1.0
  9
$DIMGAP
 40
0.09
  9
$DIMJUST
 70
     0
  9
$DIMSD1
 70
     0
  9
$DIMSD2
 70
     0
  9
$DIMTOLJ
 70
     1
  9
$DIMTZIN
 70
     0
  9
$DIMALTZ
 70
     0
  9
$DIMALTTZ
 70
     0
  9
$DIMUPT
 70
     0
  9
$DIMDEC
 70
     4
  9
$DIMTDEC
 70
     4
  9
$DIMALTU
 70
     2
  9
$DIMALTTD
 70
     2
  9
$DIMTXSTY
  7
Standard
  9
$DIMAUNIT
 70
     0
  9
$DIMADEC
 70
     0
  9
$DIMALTRND
 40
0.0
  9
$DIMAZIN
 70
     0
  9
$DIMDSEP
 70
    46
  9
$DIMATFIT
 70
     3
  9
$DIMFRAC
 70
     0
  9
$DIMLDRBLK
  1

  9
$DIMLUNIT
 70
     2
  9
$DIMLWD
 70
    -2
  9
$DIMLWE
 70
    -2
  9
$DIMTMOVE
 70
     2
  9
$LUNITS
 70
     2
  9
$LUPREC
 70
     3
  9
$SKETCHINC
 40
0.1
  9
$FILLETRAD
 40
0.5
  9
$AUNITS
 70
     0
  9
$AUPREC
 70
     0
  9
$MENU
  1
.
  9
$ELEVATION
 40
0.0
  9
$PELEVATION
 40
0.0
  9
$THICKNESS
 40
0.0
  9
$LIMCHECK
 70
     0
  9
$CHAMFERA
 40
0.5
  9
$CHAMFERB
 40
0.5
  9
$CHAMFERC
 40
1.0
  9
$CHAMFERD
 40
0.0
  9
$SKPOLY
 70
     0
  9
$TDCREATE
 40
2457528.361804352
  9
$TDUCREATE
 40
2457528.528471019
  9
$TDUPDATE
 40
2457528.361804363
  9
$TDUUPDATE
 40
2457528.52847103
  9
$TDINDWG
 40
0.0000000116
  9
$TDUSRTIMER
 40
0.0000000116
  9
$USRTIMER
 70
     1
  9
$ANGBASE
 50
0.0
  9
$ANGDIR
 70
     0
  9
$PDMODE
 70
     0
  9
$PDSIZE
 40
0.0
  9
$PLINEWID
 40
0.0
  9
$SPLFRAME
 70
     0
  9
$SPLINETYPE
 70
     6
  9
$SPLINESEGS
 70
     8
  9
$HANDSEED
  5
EC
  9
$SURFTAB1
 70
     6
  9
$SURFTAB2
 70
     6
  9
$SURFTYPE
 70
     6
  9
$SURFU
 70
     6
  9
$SURFV
 70
     6
  9
$UCSBASE
  2

  9
$UCSNAME
  2

  9
$UCSORG
 10
0.0
 20
0.0
 30
0.0
  9
$UCSXDIR
 10
1.0
 20
0.0
 30
0.0
  9
$UCSYDIR
 10
0.0
 20
1.0
 30
0.0
  9
$UCSORTHOREF
  2

  9
$UCSORTHOVIEW
 70
     0
  9
$UCSORGTOP
 10
0.0
 20
0.0
 30
0.0
  9
$UCSORGBOTTOM
 10
0.0
 20
0.0
 30
0.0
  9
$UCSORGLEFT
 10
0.0
 20
0.0
 30
0.0
  9
$UCSORGRIGHT
 10
0.0
 20
0.0
 30
0.0
  9
$UCSORGFRONT
 10
0.0
 20
0.0
 30
0.0
  9
$UCSORGBACK
 10
0.0
 20
0.0
 30
0.0
  9
$PUCSBASE
  2

  9
$PUCSNAME
  2

  9
$PUCSORG
 10
0.0
 20
0.0
 30
0.0
  9
$PUCSXDIR
 10
1.0
 20
0.0
 30
0.0
  9
$PUCSYDIR
 10
0.0
 20
1.0
 30
0.0
  9
$PUCSORTHOREF
  2

  9
$PUCSORTHOVIEW
 70
     0
  9
$PUCSORGTOP
 10
0.0
 20
0.0
 30
0.0
  9
$PUCSORGBOTTOM
 10
0.0
 20
0.0
 30
0.0
  9
$PUCSORGLEFT
 10
0.0
 20
0.0
 30
0.0
  9
$PUCSORGRIGHT
 10
0.0
 20
0.0
 30
0.0
  9
$PUCSORGFRONT
 10
0.0
 20
0.0
 30
0.0
  9
$PUCSORGBACK
 10
0.0
 20
0.0
 30
0.0
  9
$USERI1
 70
     0
  9
$USERI2
 70
     0
  9
$USERI3
 70
     0
  9
$USERI4
 70
     0
  9
$USERI5
 70
     0
  9
$USERR1
 40
0.0
  9
$USERR2
 40
0.0
  9
$USERR3
 40
0.0
  9
$USERR4
 40
0.0
  9
$USERR5
 40
0.0
  9
$WORLDVIEW
 70
     1
  9
$SHADEDGE
 70
     3
  9
$SHADEDIF
 70
    70
  9
$TILEMODE
 70
     1
  9
$MAXACTVP
 70
    64
  9
$PINSBASE
 10
0.0
 20
0.0
 30
0.0
  9
$PLIMCHECK
 70
     0
  9
$PEXTMIN
 10
1.000000000000000E+20
 20
1.000000000000000E+20
 30
1.000000000000000E+20
  9
$PEXTMAX
 10
-1.000000000000000E+20
 20
-1.000000000000000E+20
 30
-1.000000000000000E+20
  9
$PLIMMIN
 10
0.0
 20
0.0
  9
$PLIMMAX
 10
12.0
 20
9.0
  9
$UNITMODE
 70
     0
  9
$VISRETAIN
 70
     1
  9
$PLINEGEN
 70
     0
  9
$PSLTSCALE
 70
     1
  9
$TREEDEPTH
 70
  3020
  9
$CMLSTYLE
  2
Standard
  9
$CMLJUST
 70
     0
  9
$CMLSCALE
 40
1.0
  9
$PROXYGRAPHICS
 70
     1
  9
$MEASUREMENT
 70
     0
  9
$CELWEIGHT
370
    -1
  9
$ENDCAPS
280
     0
  9
$JOINSTYLE
280
     0
  9
$LWDISPLAY
290
     0
  9
$INSUNITS
 70
     1
  9
$HYPERLINKBASE
  1

  9
$STYLESHEET
  1

  9
$XEDIT
290
     1
  9
$CEPSNTYPE
380
     0
  9
$PSTYLEMODE
290
     1
  9
$FINGERPRINTGUID
  2
{C9162C8C-B3AE-481D-B66B-50BAEDC628A2}
  9
$VERSIONGUID
  2
{FAEB1C32-E019-11D5-929B-00C0DF256EC4}
  9
$EXTNAMES
290
     1
  9
$PSVPSCALE
 40
0.0
  9
$OLESTARTUP
290
     0
  9
$SORTENTS
280
   127
  9
$INDEXCTL
280
     0
  9
$HIDETEXT
280
     1
  9
$XCLIPFRAME
290
     0
  9
$HALOGAP
280
     0
  9
$OBSCOLOR
 70
   257
  9
$OBSLTYPE
280
     0
  9
$INTERSECTIONDISPLAY
280
     0
  9
$INTERSECTIONCOLOR
 70
   257
  9
$DIMASSOC
280
     2
  9
$PROJECTNAME
  1

  0
ENDSEC
  0
SECTION
  2
CLASSES
  0
CLASS
  1
ACDBDICTIONARYWDFLT
  2
AcDbDictionaryWithDefault
  3
ObjectDBX Classes
 90
        0
 91
        4
280
     0
281
     0
  0
CLASS
  1
VISUALSTYLE
  2
AcDbVisualStyle
  3
ObjectDBX Classes
 90
     4095
 91
        4
280
     0
281
     0
  0
ENDSEC
  0
SECTION
  2
TABLES
  0
TABLE
  2
VPORT
  5
8
330
0
100
AcDbSymbolTable
 70
     1
  0
VPORT
  5
29
330
8
100
AcDbSymbolTableRecord
100
AcDbViewportTableRecord
  2
*Active
 70
     0
 10
0.0
 20
0.0
 11
1.0
 21
1.0
 12
20.52454674450061
 22
35.84213144399226
 13
0.0
 23
0.0
 14
0.5
 24
0.5
 15
0.5
 25
0.5
 16
0.0
 26
0.0
 36
1.0
 17
0.0
 27
0.0
 37
0.0
 40
73.11794814574421
 41
0.9911925154820304
 42
50.0
 43
0.0
 44
0.0
 50
0.0
 51
0.0
 71
     0
 72
   100
 73
     1
 74
     3
 75
     0
 76
     0
 77
     0
 78
     0
281
     0
 65
     1
110
0.0
120
0.0
130
0.0
111
1.0
121
0.0
131
0.0
112
0.0
122
1.0
132
0.0
 79
     0
146
0.0
  0
ENDTAB
  0
TABLE
  2
LTYPE
  5
5
330
0
100
AcDbSymbolTable
 70
     1
  0
LTYPE
  5
14
330
5
100
AcDbSymbolTableRecord
100
AcDbLinetypeTableRecord
  2
ByBlock
 70
     0
  3

 72
    65
 73
     0
 40
0.0
  0
LTYPE
  5
15
330
5
100
AcDbSymbolTableRecord
100
AcDbLinetypeTableRecord
  2
ByLayer
 70
     0
  3

 72
    65
 73
     0
 40
0.0
  0
LTYPE
  5
16
330
5
100
AcDbSymbolTableRecord
100
AcDbLinetypeTableRecord
  2
Continuous
 70
     0
  3
Solid line
 72
    65
 73
     0
 40
0.0
  0
ENDTAB
  0
TABLE
  2
LAYER
  5
2
330
0
100
AcDbSymbolTable
 70
     3
  0
LAYER
  5
10
330
2
100
AcDbSymbolTableRecord
100
AcDbLayerTableRecord
  2
0
 70
     0
 62
     7
  6
Continuous
370
    -3
390
F
  0
LAYER
  5
3B
330
2
100
AcDbSymbolTableRecord
100
AcDbLayerTableRecord
  2
Default
 70
     0
 62
     7
  6
Continuous
370
    -3
390
F
  0
LAYER
  5
60
330
2
100
AcDbSymbolTableRecord
100
AcDbLayerTableRecord
  2
Default - Tangent
 70
     0
 62
     7
  6
Continuous
370
    -3
390
F
  0
ENDTAB
  0
TABLE
  2
STYLE
  5
3
330
0
100
AcDbSymbolTable
 70
     1
  0
STYLE
  5
11
330
3
100
AcDbSymbolTableRecord
100
AcDbTextStyleTableRecord
  2
Standard
 70
     0
 40
0.0
 41
1.0
 50
0.0
 71
     0
 42
0.2
  3
txt
  4

  0
ENDTAB
  0
TABLE
  2
VIEW
  5
6
330
0
100
AcDbSymbolTable
 70
     0
  0
ENDTAB
  0
TABLE
  2
UCS
  5
7
330
0
100
AcDbSymbolTable
 70
     0
  0
ENDTAB
  0
TABLE
  2
APPID
  5
9
330
0
100
AcDbSymbolTable
 70
     1
  0
APPID
  5
12
330
9
100
AcDbSymbolTableRecord
100
AcDbRegAppTableRecord
  2
ACAD
 70
     0
  0
ENDTAB
  0
TABLE
  2
DIMSTYLE
  5
A
330
0
100
AcDbSymbolTable
 70
     1
100
AcDbDimStyleTable
  0
DIMSTYLE
105
27
330
A
100
AcDbSymbolTableRecord
100
AcDbDimStyleTableRecord
  2
Standard
 70
     0
340
11
  0
ENDTAB
  0
TABLE
  2
BLOCK_RECORD
  5
1
330
0
100
AcDbSymbolTable
 70
     1
  0
BLOCK_RECORD
  5
1F
330
1
100
AcDbSymbolTableRecord
100
AcDbBlockTableRecord
  2
*Model_Space
340
22
  0
BLOCK_RECORD
  5
1B
330
1
100
AcDbSymbolTableRecord
100
AcDbBlockTableRecord
  2
*Paper_Space
340
1E
  0
BLOCK_RECORD
  5
23
330
1
100
AcDbSymbolTableRecord
100
AcDbBlockTableRecord
  2
*Paper_Space0
340
26
  0
ENDTAB
  0
ENDSEC
  0
SECTION
  2
BLOCKS
  0
BLOCK
  5
20
330
1F
100
AcDbEntity
  8
0
100
AcDbBlockBegin
  2
*Model_Space
 70
     0
 10
0.0
 20
0.0
 30
0.0
  3
*Model_Space
  1

  0
ENDBLK
  5
21
330
1F
100
AcDbEntity
  8
0
100
AcDbBlockEnd
  0
BLOCK
  5
1C
330
1B
100
AcDbEntity
 67
     1
  8
0
100
AcDbBlockBegin
  2
*Paper_Space
 70
     0
 10
0.0
 20
0.0
 30
0.0
  3
*Paper_Space
  1

  0
ENDBLK
  5
1D
330
1B
100
AcDbEntity
 67
     1
  8
0
100
AcDbBlockEnd
  0
BLOCK
  5
24
330
23
100
AcDbEntity
  8
0
100
AcDbBlockBegin
  2
*Paper_Space0
 70
     0
 10
0.0
 20
0.0
 30
0.0
  3
*Paper_Space0
  1

  0
ENDBLK
  5
25
330
23
100
AcDbEntity
  8
0
100
AcDbBlockEnd
  0
ENDSEC
  0
SECTION
  2
ENTITIES
  0
LINE
  5
3C
330
1F
100
AcDbEntity
  8
Default
100
AcDbLine
 10
0.402500392775238
 20
2.645839045006541
 30
0.0
 11
0.402500404963348
 21
1.318318645839482
 31
0.0
  0
SPLINE
  5
3D
330
1F
100
AcDbEntity
  8
Default
100
AcDbSpline
210
0.0
220
0.0
230
1.0
 70
    12
 71
     2
 72
     6
 73
     3
 74
     0
 42
0.0000000001
 43
0.0000000001
 40
0.0
 40
0.0
 40
0.0
 40
0.8883181399606292
 40
0.8883181399606292
 40
0.8883181399606292
 10
0.402500404963348
 20
1.318318645839482
 30
0.0
 41
1.0
 10
0.4025002776278416
 20
0.8741595758591811
 30
0.0
 41
0.9999999999999857
 10
0.4024992751865568
 20
0.4298637235359951
 30
0.0
 41
1.0
  0
SPLINE
  5
3E
330
1F
100
AcDbEntity
  8
Default
100
AcDbSpline
210
0.0
220
0.0
230
1.0
 70
    12
 71
     2
 72
     6
 73
     3
 74
     0
 42
0.0000000001
 43
0.0000000001
 40
0.0
 40
0.0
 40
0.0
 40
0.0370134418365288
 40
0.0370134418365288
 40
0.0370134418365288
 10
0.4024992751865568
 20
0.4298637235359951
 30
0.0
 41
1.0
 10
0.4022784584775247
 20
0.408438210824519
 30
0.0
 41
0.8149664195338971
 10
0.3820977227511833
 20
0.4016561472388268
 30
0.0
 41
1.0
  0
POLYLINE
  5
3F
330
1F
100
AcDbEntity
  8
Default
100
AcDb2dPolyline
 66
     1
 10
0.0
 20
0.0
 30
0.0
  0
VERTEX
  5
40
330
3F
100
AcDbEntity
  8
Default
100
AcDbVertex
100
AcDb2dVertex
 10
0.3820977227511833
 20
0.4016561472388268
 30
0.0
  0
VERTEX
  5
41
330
3F
100
AcDbEntity
  8
Default
100
AcDbVertex
100
AcDb2dVertex
 10
-0.3849337588291064
 20
0.4026979553860967
 30
0.0
  0
SEQEND
  5
42
330
3F
100
AcDbEntity
  8
Default
  0
SPLINE
  5
43
330
1F
100
AcDbEntity
  8
Default
100
AcDbSpline
210
0.0
220
0.0
230
1.0
 70
    12
 71
     2
 72
     6
 73
     3
 74
     0
 42
0.0000000001
 43
0.0000000001
 40
-0.0343035516322866
 40
-0.0343035516322866
 40
-0.0343035516322866
 40
0.0
 40
0.0
 40
0.0
 10
-0.3849337588291064
 20
0.4026979553860967
 30
0.0
 41
1.0
 10
-0.402500062632112
 20
0.4106979125380343
 30
0.0
 41
0.8409683921870034
 10
-0.4025000009472421
 20
0.4300445944567929
 30
0.0
 41
1.0
  0
LINE
  5
44
330
1F
100
AcDbEntity
  8
Default
100
AcDbLine
 10
-0.4025000009472421
 20
0.4300445944567929
 30
0.0
 11
-0.402499985211108
 21
2.645833298418005
 31
0.0
  0
SPLINE
  5
45
330
1F
100
AcDbEntity
  8
Default
100
AcDbSpline
210
0.0
220
0.0
230
1.0
 70
    12
 71
     2
 72
     6
 73
     3
 74
     0
 42
0.0000000001
 43
0.0000000001
 40
0.0
 40
0.0
 40
0.0
 40
1.142633473844296
 40
1.142633473844296
 40
1.142633473844296
 10
-0.402499985211108
 20
2.645833298418005
 30
0.0
 41
1.0
 10
-0.4442286991731094
 20
3.215630097155969
 30
0.0
 41
0.9999842323080803
 10
-0.4923541848441175
 20
3.784922301402296
 30
0.0
 41
1.0
  0
SPLINE
  5
46
330
1F
100
AcDbEntity
  8
Default
100
AcDbSpline
210
0.0
220
0.0
230
1.0
 70
     8
 71
     3
 72
     8
 73
     4
 74
     0
 42
0.0000000001
 43
0.0000000001
 40
-1.0
 40
-1.0
 40
-1.0
 40
-1.0
 40
0.0
 40
0.0
 40
0.0
 40
0.0
 10
-0.4923541848441175
 20
3.784922301402296
 30
0.0
 10
-0.5208179339562946
 20
4.121629354790442
 30
0.0
 10
-0.4590722902393054
 20
4.702001457415596
 30
0.0
 10
-0.4280794435127859
 20
5.042681719673671
 30
0.0
  0
SPLINE
  5
47
330
1F
100
AcDbEntity
  8
Default
100
AcDbSpline
210
0.0
220
0.0
230
1.0
 70
     8
 71
     3
 72
    12
 73
     8
 74
     0
 42
0.0000000001
 43
0.0000000001
 40
-5.0
 40
-5.0
 40
-5.0
 40
-5.0
 40
-4.0
 40
-3.0
 40
-2.0
 40
-1.0
 40
0.0
 40
0.0
 40
0.0
 40
0.0
 10
-0.4280794435127859
 20
5.042681719673671
 30
0.0
 10
-0.417652653240026
 20
5.157295316675079
 30
0.0
 10
-0.3833216944182709
 20
5.379745552997914
 30
0.0
 10
-0.2006418435773298
 20
5.704291101129162
 30
0.0
 10
0.2006664286566604
 20
5.704267248842217
 30
0.0
 10
0.3833315636453847
 20
5.379757877824668
 30
0.0
 10
0.417652982203407
 20
5.157293835798621
 30
0.0
 10
0.4280809496310667
 20
5.042682536827708
 30
0.0
  0
SPLINE
  5
48
330
1F
100
AcDbEntity
  8
Default
100
AcDbSpline
210
0.0
220
0.0
230
1.0
 70
     8
 71
     3
 72
     8
 73
     4
 74
     0
 42
0.0000000001
 43
0.0000000001
 40
0.0
 40
0.0
 40
0.0
 40
0.0
 40
1.0
 40
1.0
 40
1.0
 40
1.0
 10
0.4280809496310667
 20
5.042682536827708
 30
0.0
 10
0.4590389253945943
 20
4.702430820433111
 30
0.0
 10
0.5191371764723556
 20
4.121637737752299
 30
0.0
 10
0.4923521324612068
 20
3.784896487667917
 30
0.0
  0
SPLINE
  5
49
330
1F
100
AcDbEntity
  8
Default
100
AcDbSpline
210
0.0
220
0.0
230
1.0
 70
    12
 71
     2
 72
    28
 73
    25
 74
     0
 42
0.0000000001
 43
0.0000000001
 40
0.0
 40
0.0
 40
0.0
 40
0.1540216414111597
 40
0.1540216414111597
 40
0.2901790848036704
 40
0.2901790848036704
 40
0.4125187213470968
 40
0.4125187213470968
 40
0.5235565796151631
 40
0.5235565796151631
 40
0.6251094707772871
 40
0.6251094707772871
 40
0.7185505680812745
 40
0.7185505680812745
 40
0.804527306064451
 40
0.804527306064451
 40
0.8835369424496379
 40
0.8835369424496379
 40
0.956096405573554
 40
0.956096405573554
 40
1.022829496748906
 40
1.022829496748906
 40
1.084573035640182
 40
1.084573035640182
 40
1.142610152573474
 40
1.142610152573474
 40
1.142610152573474
 10
0.4923521324612068
 20
3.784896487667917
 30
0.0
 41
1.0
 10
0.4862458584850103
 20
3.70812848492579
 30
0.0
 41
0.9999992266822498
 10
0.4799486603694163
 20
3.631375907621956
 30
0.0
 41
1.0
 10
0.4743870072160313
 20
3.563525086088881
 30
0.0
 41
0.999999943592941
 10
0.4687797761066008
 20
3.495678015939925
 30
0.0
 41
1.0
 10
0.4637440184135316
 20
3.434716141472609
 30
0.0
 41
0.9999999896650592
 10
0.4587257899349027
 20
3.373752821541293
 30
0.0
 41
1.0
 10
0.4541724214506752
 20
3.318421206909444
 30
0.0
 41
0.9999999204687999
 10
0.4496631898144017
 20
3.263085977874307
 30
0.0
 41
1.0
 10
0.4455396716928577
 20
3.212477495132922
 30
0.0
 41
0.9999998558573179
 10
0.4414705015667835
 20
3.16186461355551
 30
0.0
 41
1.0
 10
0.4377265343055614
 20
3.115294548757072
 30
0.0
 41
0.9999998050943961
 10
0.4340407218610949
 20
3.0687198451852
 30
0.0
 41
1.0
 10
0.4306493021495132
 20
3.025865672648839
 30
0.0
 41
0.9999997586473189
 10
0.4273174332815586
 20
2.983006828972381
 30
0.0
 41
1.0
 10
0.4242553921289255
 20
2.943621051750709
 30
0.0
 41
0.9999997032638387
 10
0.4212540379526502
 20
2.904230603460748
 30
0.0
 41
1.0
 10
0.4184974792562929
 20
2.868055920441487
 30
0.0
 41
0.9999996264853681
 10
0.4158034568246194
 20
2.831876526437055
 30
0.0
 41
1.0
 10
0.4133255475787682
 20
2.798602274891143
 30
0.0
 41
0.9999995214040918
 10
0.4109127515510806
 20
2.765323238464286
 30
0.0
 41
1.0
 10
0.408680565837963
 20
2.734532418213321
 30
0.0
 41
0.9999994294407313
 10
0.4065141686205038
 20
2.703736899255506
 30
0.0
 41
1.0
 10
0.4044791644706665
 20
2.674789921291922
 30
0.0
 41
0.9999995283042846
 10
0.4025003927752343
 20
2.645839045006541
 30
0.0
 41
0.9999999999063802
  0
POLYLINE
  5
4A
330
1F
100
AcDbEntity
  8
Default
100
AcDb2dPolyline
 66
     1
 10
0.0
 20
0.0
 30
0.0
  0
VERTEX
  5
4B
330
4A
100
AcDbEntity
  8
Default
100
AcDbVertex
100
AcDb2dVertex
 10
14.62182759792191
 20
0.4000000000000013
 30
0.0
  0
VERTEX
  5
4C
330
4A
100
AcDbEntity
  8
Default
100
AcDbVertex
100
AcDb2dVertex
 10
13.23874045894672
 20
0.4000000000000012
 30
0.0
  0
SEQEND
  5
4D
330
4A
100
AcDbEntity
  8
Default
  0
SPLINE
  5
4E
330
1F
100
AcDbEntity
  8
Default
100
AcDbSpline
210
0.0
220
0.0
230
1.0
 70
    12
 71
     2
 72
     6
 73
     3
 74
     0
 42
0.0000000001
 43
0.0000000001
 40
0.0
 40
0.0
 40
0.0
 40
0.0233001455140947
 40
0.0233001455140947
 40
0.0233001455140947
 10
13.23874045894672
 20
0.4000000000000012
 30
0.0
 41
1.0
 10
13.224
 20
0.3999999999999896
 30
0.0
 41
0.7132504491537722
 10
13.22374274351941
 20
0.385261786096561
 30
0.0
 41
1.0
  0
SPLINE
  5
4F
330
1F
100
AcDbEntity
  8
Default
100
AcDbSpline
210
0.0
220
0.0
230
1.0
 70
    24
 71
     2
 72
     6
 73
     3
 74
     0
 42
0.0000000001
 43
0.0000000001
 40
-0.2265737189671924
 40
-0.2265737189671924
 40
-0.2265737189671924
 40
0.0
 40
0.0
 40
0.0
 10
13.22374274351941
 20
0.385261786096561
 30
0.0
 10
13.22176561520371
 20
0.2719921807503813
 30
0.0
 10
13.21978848688801
 20
0.1587225754042016
 30
0.0
  0
SPLINE
  5
50
330
1F
100
AcDbEntity
  8
Default
100
AcDbSpline
210
0.0
220
0.0
230
1.0
 70
    12
 71
     2
 72
     8
 73
     5
 74
     0
 42
0.0000000001
 43
0.0000000001
 40
0.0
 40
0.0
 40
0.0
 40
0.1238834703065744
 40
0.1238834703065744
 40
0.2477669406131487
 40
0.2477669406131487
 40
0.2477669406131487
 10
13.21978848688801
 20
0.1587225754042016
 30
0.0
 41
1.0
 10
13.21864681627057
 20
0.0933163095384199
 30
0.0
 41
0.9222009716703817
 10
13.26449765726434
 20
0.0466581547691941
 30
0.0
 41
1.0
 10
13.31034849825809
 20
-0.0000000000000317
 30
0.0
 41
0.9222009716703817
 10
13.37576472733244
 20
0.0000000000000009
 30
0.0
 41
1.0
  0
SPLINE
  5
51
330
1F
100
AcDbEntity
  8
Default
100
AcDbSpline
210
0.0
220
0.0
230
1.0
 70
    24
 71
     2
 72
     6
 73
     3
 74
     0
 42
0.0000000001
 43
0.0000000001
 40
-1.1178392931867
 40
-1.1178392931867
 40
-1.1178392931867
 40
0.0
 40
0.0
 40
0.0
 10
13.37576472733244
 20
0.0000000000000009
 30
0.0
 10
13.93468437392576
 20
0.0000000000000009
 30
0.0
 10
14.49360402051911
 20
0.0000000000000009
 30
0.0
  0
SPLINE
  5
52
330
1F
100
AcDbEntity
  8
Default
100
AcDbSpline
210
0.0
220
0.0
230
1.0
 70
    12
 71
     2
 72
     8
 73
     5
 74
     0
 42
0.0000000001
 43
0.0000000001
 40
0.0
 40
0.0
 40
0.0
 40
0.1269465231438404
 40
0.1269465231438404
 40
0.2538930462876808
 40
0.2538930462876808
 40
0.2538930462876808
 10
14.49360402051911
 20
0.0000000000000009
 30
0.0
 41
1.0
 10
14.56082858485449
 20
-0.0000000000000234
 30
0.0
 41
0.9183600648443049
 10
14.60699642696275
 20
0.0488638148852971
 30
0.0
 41
1.0
 10
14.65316426907103
 20
0.0977276297706175
 30
0.0
 41
0.9183600648443049
 10
14.6493531211261
 20
0.1648440748599009
 30
0.0
 41
1.0
  0
SPLINE
  5
53
330
1F
100
AcDbEntity
  8
Default
100
AcDbSpline
210
0.0
220
0.0
230
1.0
 70
     8
 71
     2
 72
     6
 73
     3
 74
     0
 42
0.0000000001
 43
0.0000000001
 40
-0.2213623405233065
 40
-0.2213623405233065
 40
-0.2213623405233065
 40
0.0
 40
0.0
 40
0.0
 10
14.6493531211261
 20
0.1648440748599009
 30
0.0
 10
14.64307829705322
 20
0.2753472333366753
 30
0.0
 10
14.63679555212642
 20
0.3859723252673241
 30
0.0
  0
SPLINE
  5
54
330
1F
100
AcDbEntity
  8
Default
100
AcDbSpline
210
0.0
220
0.0
230
1.0
 70
    12
 71
     2
 72
     6
 73
     3
 74
     0
 42
0.0000000001
 43
0.0000000001
 40
0.0
 40
0.0
 40
0.0
 40
0.0224667132803239
 40
0.0224667132803239
 40
0.0224667132803239
 10
14.63679555212642
 20
0.3859723252673241
 30
0.0
 41
1.0
 10
14.635770489244
 20
0.4000000000000027
 30
0.0
 41
0.7324447355991569
 10
14.62182759792191
 20
0.4000000000000013
 30
0.0
 41
1.0
  0
POLYLINE
  5
55
330
1F
100
AcDbEntity
  8
Default
100
AcDb2dPolyline
 66
     1
 10
0.0
 20
0.0
 30
0.0
  0
VERTEX
  5
56
330
55
100
AcDbEntity
  8
Default
100
AcDbVertex
100
AcDb2dVertex
 10
-14.62182759792191
 20
0.4000000000000013
 30
0.0
  0
VERTEX
  5
57
330
55
100
AcDbEntity
  8
Default
100
AcDbVertex
100
AcDb2dVertex
 10
-13.23874045894669
 20
0.4000000000000012
 30
0.0
  0
SEQEND
  5
58
330
55
100
AcDbEntity
  8
Default
  0
SPLINE
  5
59
330
1F
100
AcDbEntity
  8
Default
100
AcDbSpline
210
0.0
220
0.0
230
1.0
 70
    12
 71
     2
 72
     6
 73
     3
 74
     0
 42
0.0000000001
 43
0.0000000001
 40
0.0
 40
0.0
 40
0.0
 40
0.0233001455140947
 40
0.0233001455140947
 40
0.0233001455140947
 10
-13.23874045894669
 20
0.4000000000000012
 30
0.0
 41
1.0
 10
-13.22399999999996
 20
0.3999999999999896
 30
0.0
 41
0.7132504491537722
 10
-13.22374274351938
 20
0.385261786096561
 30
0.0
 41
1.0
  0
SPLINE
  5
5A
330
1F
100
AcDbEntity
  8
Default
100
AcDbSpline
210
0.0
220
0.0
230
1.0
 70
    24
 71
     2
 72
     6
 73
     3
 74
     0
 42
0.0000000001
 43
0.0000000001
 40
-0.2265737189671924
 40
-0.2265737189671924
 40
-0.2265737189671924
 40
0.0
 40
0.0
 40
0.0
 10
-13.22374274351938
 20
0.385261786096561
 30
0.0
 10
-13.22176561520368
 20
0.2719921807503813
 30
0.0
 10
-13.21978848688795
 20
0.1587225754042016
 30
0.0
  0
SPLINE
  5
5B
330
1F
100
AcDbEntity
  8
Default
100
AcDbSpline
210
0.0
220
0.0
230
1.0
 70
    12
 71
     2
 72
     8
 73
     5
 74
     0
 42
0.0000000001
 43
0.0000000001
 40
0.0
 40
0.0
 40
0.0
 40
0.1238834703065744
 40
0.1238834703065744
 40
0.2477669406131487
 40
0.2477669406131487
 40
0.2477669406131487
 10
-13.21978848688795
 20
0.1587225754042016
 30
0.0
 41
1.0
 10
-13.21864681627056
 20
0.0933163095384199
 30
0.0
 41
0.9222009716703817
 10
-13.26449765726431
 20
0.0466581547691941
 30
0.0
 41
1.0
 10
-13.31034849825808
 20
-0.0000000000000317
 30
0.0
 41
0.9222009716703817
 10
-13.37576472733238
 20
0.0000000000000009
 30
0.0
 41
1.0
  0
SPLINE
  5
5C
330
1F
100
AcDbEntity
  8
Default
100
AcDbSpline
210
0.0
220
0.0
230
1.0
 70
    24
 71
     2
 72
     6
 73
     3
 74
     0
 42
0.0000000001
 43
0.0000000001
 40
-1.1178392931867
 40
-1.1178392931867
 40
-1.1178392931867
 40
0.0
 40
0.0
 40
0.0
 10
-13.37576472733238
 20
0.0000000000000009
 30
0.0
 10
-13.93468437392573
 20
0.0000000000000009
 30
0.0
 10
-14.49360402051909
 20
0.0000000000000009
 30
0.0
  0
SPLINE
  5
5D
330
1F
100
AcDbEntity
  8
Default
100
AcDbSpline
210
0.0
220
0.0
230
1.0
 70
    12
 71
     2
 72
     8
 73
     5
 74
     0
 42
0.0000000001
 43
0.0000000001
 40
0.0
 40
0.0
 40
0.0
 40
0.1269465231438404
 40
0.1269465231438404
 40
0.2538930462876808
 40
0.2538930462876808
 40
0.2538930462876808
 10
-14.49360402051909
 20
0.0000000000000009
 30
0.0
 41
1.0
 10
-14.56082858485447
 20
-0.0000000000000234
 30
0.0
 41
0.9183600648443049
 10
-14.60699642696275
 20
0.0488638148852971
 30
0.0
 41
1.0
 10
-14.653164269071
 20
0.0977276297706175
 30
0.0
 41
0.9183600648443049
 10
-14.6493531211261
 20
0.1648440748599009
 30
0.0
 41
1.0
  0
SPLINE
  5
5E
330
1F
100
AcDbEntity
  8
Default
100
AcDbSpline
210
0.0
220
0.0
230
1.0
 70
     8
 71
     2
 72
     6
 73
     3
 74
     0
 42
0.0000000001
 43
0.0000000001
 40
-0.2213623405233065
 40
-0.2213623405233065
 40
-0.2213623405233065
 40
0.0
 40
0.0
 40
0.0
 10
-14.6493531211261
 20
0.1648440748599009
 30
0.0
 10
-14.64307829705317
 20
0.2753472333366753
 30
0.0
 10
-14.63679555212639
 20
0.3859723252673241
 30
0.0
  0
SPLINE
  5
5F
330
1F
100
AcDbEntity
  8
Default
100
AcDbSpline
210
0.0
220
0.0
230
1.0
 70
    12
 71
     2
 72
     6
 73
     3
 74
     0
 42
0.0000000001
 43
0.0000000001
 40
0.0
 40
0.0
 40
0.0
 40
0.0224667132803239
 40
0.0224667132803239
 40
0.0224667132803239
 10
-14.63679555212639
 20
0.3859723252673241
 30
0.0
 41
1.0
 10
-14.63577048924399
 20
0.4000000000000027
 30
0.0
 41
0.7324447355991569
 10
-14.62182759792191
 20
0.4000000000000013
 30
0.0
 41
1.0
  0
SPLINE
  5
61
330
1F
100
AcDbEntity
  8
Default - Tangent
100
AcDbSpline
210
0.0
220
0.0
230
1.0
 70
    12
 71
     2
 72
     6
 73
     3
 74
     0
 42
0.0000000001
 43
0.0000000001
 40
0.0
 40
0.0
 40
0.0
 40
0.0276977634380368
 40
0.0276977634380368
 40
0.0276977634380368
 10
40.98257667465253
 20
3.784896487667917
 30
0.0
 41
1.0
 10
40.9832731389054
 20
3.770987048242446
 30
0.0
 41
0.9916219010942138
 10
40.98038298252337
 20
3.757363371658137
 30
0.0
 41
1.0
  0
SPLINE
  5
62
330
1F
100
AcDbEntity
  8
Default
100
AcDbSpline
210
0.0
220
0.0
230
1.0
 70
    24
 71
     2
 72
     6
 73
     3
 74
     0
 42
0.0000000001
 43
0.0000000001
 40
0.2597920374536898
 40
0.2597920374536898
 40
0.2597920374536898
 40
3.447915344741159
 40
3.447915344741159
 40
3.447915344741159
 10
1.289999999999992
 20
9.691123307287471
 30
0.0
 10
1.289999999999992
 20
8.097061653643737
 30
0.0
 10
1.289999999999992
 20
6.503000000000002
 30
0.0
  0
SPLINE
  5
63
330
1F
100
AcDbEntity
  8
Default
100
AcDbSpline
210
0.0
220
0.0
230
1.0
 70
    24
 71
     2
 72
     6
 73
     3
 74
     0
 42
0.0000000001
 43
0.0000000001
 40
-2.579999999999998
 40
-2.579999999999998
 40
-2.579999999999998
 40
0.0
 40
0.0
 40
0.0
 10
1.289999999999992
 20
6.503000000000002
 30
0.0
 10
0.0000000000000284
 20
6.503000000000002
 30
0.0
 10
-1.289999999999992
 20
6.503000000000002
 30
0.0
  0
SPLINE
  5
64
330
1F
100
AcDbEntity
  8
Default
100
AcDbSpline
210
0.0
220
0.0
230
1.0
 70
    24
 71
     2
 72
     6
 73
     3
 74
     0
 42
0.0000000001
 43
0.0000000001
 40
0.0
 40
0.0
 40
0.0
 40
3.188123320487557
 40
3.188123320487557
 40
3.188123320487557
 10
-1.289999999999992
 20
6.503000000000002
 30
0.0
 10
-1.289999999999992
 20
8.09706166024378
 30
0.0
 10
-1.289999999999992
 20
9.691123320487558
 30
0.0
  0
POLYLINE
  5
65
330
1F
100
AcDbEntity
  8
Default
100
AcDb2dPolyline
 66
     1
 10
0.0
 20
0.0
 30
0.0
  0
VERTEX
  5
66
330
65
100
AcDbEntity
  8
Default
100
AcDbVertex
100
AcDb2dVertex
 10
-0.3878248518053908
 20
0.399999999906409
 30
0.0
  0
VERTEX
  5
67
330
65
100
AcDbEntity
  8
Default
100
AcDbVertex
100
AcDb2dVertex
 10
0.3878256930967439
 20
0.3999999998842094
 30
0.0
  0
SEQEND
  5
68
330
65
100
AcDbEntity
  8
Default
  0
SPLINE
  5
69
330
1F
100
AcDbEntity
  8
Default
100
AcDbSpline
210
0.0
220
0.0
230
1.0
 70
    12
 71
     2
 72
     6
 73
     3
 74
     0
 42
0.0000000001
 43
0.0000000001
 40
0.0
 40
0.0
 40
0.0
 40
0.0200867229109254
 40
0.0200867229109254
 40
0.0200867229109254
 10
0.3878256930967439
 20
0.3999999998842094
 30
0.0
 41
1.0
 10
0.3994953415944625
 20
0.3995431334531431
 30
0.0
 41
0.802617145546988
 10
0.4024232790152666
 20
0.3882375328297014
 30
0.0
 41
1.0
  0
SPLINE
  5
6A
330
1F
100
AcDbEntity
  8
Default
100
AcDbSpline
210
0.0
220
0.0
230
1.0
 70
    12
 71
     2
 72
    20
 73
    17
 74
     0
 42
0.0000000001
 43
0.0000000001
 40
0.0
 40
0.0
 40
0.0
 40
0.2255555232297128
 40
0.2255555232297128
 40
0.3498085556099202
 40
0.3498085556099202
 40
0.4740615879901277
 40
0.4740615879901277
 40
0.9777325427188074
 40
0.9777325427188074
 40
1.10188499768713
 40
1.10188499768713
 40
1.226037452655453
 40
1.226037452655453
 40
1.451954175298031
 40
1.451954175298031
 40
1.474961195965689
 40
1.474961195965689
 40
1.474961195965689
 10
0.4024232790152666
 20
0.3882375328297014
 30
0.0
 41
1.0
 10
0.405283827941226
 20
0.2725751527994181
 30
0.0
 41
0.9999999835043444
 10
0.4077911783920456
 20
0.1596446425376397
 30
0.0
 41
1.0
 10
0.4092518445364435
 20
0.0938466362517804
 30
0.0
 41
0.9217416924384133
 10
0.3633604495160228
 20
0.046923781041797
 30
0.0
 41
1.0
 10
0.3174690544956051
 20
0.0000009258318137
 30
0.0
 41
0.9217416924384133
 10
0.2518354161908576
 20
0.0000000000019885
 30
0.0
 41
1.0
 10
-0.0000000611734947
 20
0.0000000000020303
 30
0.0
 41
1.0
 10
-0.251835538537847
 20
0.0000000000020721
 30
0.0
 41
1.0
 10
-0.3174054276894939
 20
0.0000415045432547
 30
0.0
 41
0.9219606608938025
 10
-0.363276213749856
 20
0.046895352540922
 30
0.0
 41
1.0
 10
-0.4091469998102847
 20
0.0937492005385892
 30
0.0
 41
0.9219606608938025
 10
-0.4077972660225839
 20
0.1593847513956395
 30
0.0
 41
1.0
 10
-0.4052877691505542
 20
0.2723947785347779
 30
0.0
 41
0.9999999834523676
 10
-0.4028197969681457
 20
0.38532669748455
 30
0.0
 41
1.0
 10
-0.4019830997048546
 20
0.3994706535846757
 30
0.0
 41
0.7403604038404529
 10
-0.3878248518053908
 20
0.399999999906409
 30
0.0
 41
1.0
  0
SPLINE
  5
6B
330
1F
100
AcDbEntity
  8
Default
100
AcDbSpline
210
0.0
220
0.0
230
1.0
 70
     8
 71
     3
 72
    12
 73
     8
 74
     0
 42
0.0000000001
 43
0.0000000001
 40
0.0
 40
0.0
 40
0.0
 40
0.0
 40
1.0
 40
2.0
 40
3.0
 40
4.0
 40
5.0
 40
5.0
 40
5.0
 40
5.0
 10
-0.4025000000000034
 20
2.645833298418
 30
0.0
 10
-0.4021304638108916
 20
2.747790985019149
 30
0.0
 10
-0.3647815341290084
 20
2.947795791640983
 30
0.0
 10
-0.169890698338321
 20
3.211651080471766
 30
0.0
 10
0.1698906760683201
 20
3.211651113476493
 30
0.0
 10
0.3647815609095062
 20
2.94779573829043
 30
0.0
 10
0.4021304582370249
 20
2.747790993604342
 30
0.0
 10
0.4025000000000318
 20
2.645833298418
 30
0.0
  0
SPLINE
  5
6C
330
1F
100
AcDbEntity
  8
Default
100
AcDbSpline
210
0.0
220
0.0
230
1.0
 70
     8
 71
     3
 72
    44
 73
    40
 74
     0
 42
0.0000000001
 43
0.0000000001
 40
0.0
 40
0.0
 40
0.0
 40
0.0
 40
1.0
 40
2.0
 40
3.0
 40
4.0
 40
5.0
 40
6.0
 40
7.0
 40
8.0
 40
9.0
 40
10.0
 40
11.0
 40
12.0
 40
13.0
 40
14.0
 40
15.0
 40
16.0
 40
17.0
 40
18.0
 40
19.0
 40
20.0
 40
21.0
 40
22.0
 40
23.0
 40
24.0
 40
25.0
 40
26.0
 40
27.0
 40
28.0
 40
29.0
 40
30.0
 40
31.0
 40
32.0
 40
33.0
 40
34.0
 40
35.0
 40
36.0
 40
37.0
 40
37.0
 40
37.0
 40
37.0
 10
0.0000000000000284
 20
71.68426288798358
 30
0.0
 10
0.4290939543925845
 20
71.68732471037913
 30
0.0
 10
1.287551197308431
 20
71.67864522524593
 30
0.0
 10
2.572731190308986
 20
71.59335937396253
 30
0.0
 10
3.84927197337268
 20
71.42127393586392
 30
0.0
 10
5.112123746167498
 20
71.16765586472297
 30
0.0
 10
6.353786050883997
 20
70.82423076897744
 30
0.0
 10
7.562621098481458
 20
70.37677458217051
 30
0.0
 10
8.722984895481915
 20
69.81891396084579
 30
0.0
 10
9.798944348470485
 20
69.0888012169312
 30
0.0
 10
10.59720075155084
 20
68.06449462177916
 30
0.0
 10
10.93480136855803
 20
66.8041858758529
 30
0.0
 10
11.4348995369717
 20
65.62039344451767
 30
0.0
 10
11.96757167116098
 20
64.44737372455319
 30
0.0
 10
12.54764715017345
 20
63.29851809616346
 30
0.0
 10
13.11301219537111
 20
62.14153205443885
 30
0.0
 10
13.60592864353711
 20
60.95158452001638
 30
0.0
 10
14.04430261248089
 20
59.7410658176376
 30
0.0
 10
14.44971371825349
 20
58.51883331195262
 30
0.0
 10
14.77494662774879
 20
57.2722444548906
 30
0.0
 10
14.96868256743616
 20
55.99726787890332
 30
0.0
 10
15.02619526785421
 20
54.70963148525155
 30
0.0
 10
14.93797045139306
 20
53.42333358034971
 30
0.0
 10
14.68389960725122
 20
52.1581830896373
 30
0.0
 10
14.3000187219441
 20
50.92863121606155
 30
0.0
 10
13.78479398102323
 20
49.74653392296113
 30
0.0
 10
13.16684202598955
 20
48.61570439485211
 30
0.0
 10
12.42646677894336
 20
47.56023474436464
 30
0.0
 10
11.60703088889275
 20
46.56639814275431
 30
0.0
 10
10.70125109717608
 20
45.64909708657178
 30
0.0
 10
9.705009805406206
 20
44.83126430911771
 30
0.0
 10
8.63229968153533
 20
44.11664514160841
 30
0.0
 10
7.50265727643071
 20
43.49727744879428
 30
0.0
 10
6.323239685342656
 20
42.97758674121817
 30
0.0
 10
5.098922952184779
 20
42.57499926483982
 30
0.0
 10
3.843840645725464
 20
42.28336520247505
 30
0.0
 10
2.570368398483964
 20
42.0900244270503
 30
0.0
 10
1.287572925177159
 20
41.97389042388411
 30
0.0
 10
0.4290842566572621
 20
41.95512574334926
 30
0.0
 10
0.0000000000000284
 20
41.95436709580071
 30
0.0
  0
SPLINE
  5
6D
330
1F
100
AcDbEntity
  8
Default
100
AcDbSpline
210
0.0
220
0.0
230
1.0
 70
     8
 71
     3
 72
    44
 73
    40
 74
     0
 42
0.0000000001
 43
0.0000000001
 40
-37.0
 40
-37.0
 40
-37.0
 40
-37.0
 40
-36.0
 40
-35.0
 40
-34.0
 40
-33.0
 40
-32.0
 40
-31.0
 40
-30.0
 40
-29.0
 40
-28.0
 40
-27.0
 40
-26.0
 40
-25.0
 40
-24.0
 40
-23.0
 40
-22.0
 40
-21.0
 40
-20.0
 40
-19.0
 40
-18.0
 40
-17.0
 40
-16.0
 40
-15.0
 40
-14.0
 40
-13.0
 40
-12.0
 40
-11.0
 40
-10.0
 40
-9.0
 40
-8.0
 40
-7.0
 40
-6.0
 40
-5.0
 40
-4.0
 40
-3.0
 40
-2.0
 40
-1.0
 40
0.0
 40
0.0
 40
0.0
 40
0.0
 10
0.0000000000000284
 20
41.95436709580071
 30
0.0
 10
-0.4290842566572621
 20
41.95512574334926
 30
0.0
 10
-1.287572925177159
 20
41.97389042388411
 30
0.0
 10
-2.570368398483964
 20
42.0900244270503
 30
0.0
 10
-3.843840645725408
 20
42.28336520247505
 30
0.0
 10
-5.098922952184722
 20
42.57499926483982
 30
0.0
 10
-6.323239685342656
 20
42.97758674121817
 30
0.0
 10
-7.502657276430654
 20
43.49727744879428
 30
0.0
 10
-8.63229968153533
 20
44.11664514160841
 30
0.0
 10
-9.70500980540615
 20
44.83126430911771
 30
0.0
 10
-10.70125109717608
 20
45.64909708657178
 30
0.0
 10
-11.60703088889269
 20
46.56639814275431
 30
0.0
 10
-12.42646677894336
 20
47.56023474436464
 30
0.0
 10
-13.1668420259895
 20
48.61570439485211
 30
0.0
 10
-13.78479398102317
 20
49.74653392296113
 30
0.0
 10
-14.30001872194404
 20
50.92863121606155
 30
0.0
 10
-14.68389960725116
 20
52.1581830896373
 30
0.0
 10
-14.937970451393
 20
53.42333358034971
 30
0.0
 10
-15.02619526785421
 20
54.70963148525155
 30
0.0
 10
-14.9686825674361
 20
55.99726787890332
 30
0.0
 10
-14.77494662774873
 20
57.2722444548906
 30
0.0
 10
-14.44971371825343
 20
58.51883331195262
 30
0.0
 10
-14.04430261248089
 20
59.7410658176376
 30
0.0
 10
-13.60592864353706
 20
60.95158452001638
 30
0.0
 10
-13.11301219537111
 20
62.14153205443885
 30
0.0
 10
-12.54764715017345
 20
63.29851809616346
 30
0.0
 10
-11.96757167116098
 20
64.44737372455319
 30
0.0
 10
-11.43489953697164
 20
65.62039344451767
 30
0.0
 10
-10.93480136855803
 20
66.8041858758529
 30
0.0
 10
-10.59720075155084
 20
68.06449462177916
 30
0.0
 10
-9.798944348470485
 20
69.0888012169312
 30
0.0
 10
-8.722984895481858
 20
69.81891396084579
 30
0.0
 10
-7.562621098481401
 20
70.37677458217051
 30
0.0
 10
-6.353786050883997
 20
70.82423076897744
 30
0.0
 10
-5.112123746167498
 20
71.16765586472297
 30
0.0
 10
-3.84927197337268
 20
71.42127393586392
 30
0.0
 10
-2.572731190308929
 20
71.59335937396253
 30
0.0
 10
-1.287551197308431
 20
71.67864522524593
 30
0.0
 10
-0.4290939543925276
 20
71.68732471037913
 30
0.0
 10
0.0000000000000284
 20
71.68426288798358
 30
0.0
  0
SPLINE
  5
6E
330
1F
100
AcDbEntity
  8
Default
100
AcDbSpline
210
0.0
220
0.0
230
1.0
 70
     8
 71
     3
 72
    12
 73
     8
 74
     0
 42
0.0000000001
 43
0.0000000001
 40
0.0
 40
0.0
 40
0.0
 40
0.0
 40
1.0
 40
2.0
 40
3.0
 40
4.0
 40
5.0
 40
5.0
 40
5.0
 40
5.0
 10
8.827900292593341
 20
45.23292397573724
 30
0.0
 10
9.675978075779227
 20
45.89545268569383
 30
0.0
 10
11.16815206190964
 20
47.4777760119027
 30
0.0
 10
12.65995117089827
 20
50.3700774497477
 30
0.0
 10
13.50031686938823
 20
53.50161545112935
 30
0.0
 10
13.71705409638255
 20
56.7409381808444
 30
0.0
 10
13.35153509079763
 20
58.87727588763276
 30
0.0
 10
13.0649331847325
 20
59.91365529769929
 30
0.0
  0
SPLINE
  5
6F
330
1F
100
AcDbEntity
  8
Default
100
AcDbSpline
210
0.0
220
0.0
230
1.0
 70
     8
 71
     3
 72
    12
 73
     8
 74
     0
 42
0.0000000001
 43
0.0000000001
 40
0.0
 40
0.0
 40
0.0
 40
0.0
 40
1.0
 40
2.0
 40
3.0
 40
4.0
 40
5.0
 40
5.0
 40
5.0
 40
5.0
 10
10.25829184497573
 20
66.72895731490952
 30
0.0
 10
10.01052377854259
 20
67.46707210977577
 30
0.0
 10
8.767855580842223
 20
68.37104746411067
 30
0.0
 10
6.62139600720954
 20
69.00580885167604
 30
0.0
 10
4.450134504971487
 20
69.51320867561982
 30
0.0
 10
2.229171760534172
 20
69.7531104773495
 30
0.0
 10
0.7433859196428614
 20
69.80531412235597
 30
0.0
 10
0.0000000000000284
 20
69.79927563796558
 30
0.0
  0
SPLINE
  5
70
330
1F
100
AcDbEntity
  8
Default
100
AcDbSpline
210
0.0
220
0.0
230
1.0
 70
     8
 71
     3
 72
    14
 73
    10
 74
     0
 42
0.0000000001
 43
0.0000000001
 40
-6.989654053354371
 40
-6.989654053354371
 40
-6.989654053354371
 40
-6.989654053354371
 40
-6.0
 40
-5.0
 40
-4.0
 40
-3.0
 40
-2.0
 40
-1.0
 40
-0.0005866680957936
 40
-0.0005866680957936
 40
-0.0005866680957936
 40
-0.0005866680957936
 10
52.37146647936254
 20
16.3886776712887
 30
0.0
 10
52.58339691914972
 20
16.42845526817852
 30
0.0
 10
53.01229799604661
 20
16.49338018925048
 30
0.0
 10
53.65999168758773
 20
16.56023678407302
 30
0.0
 10
54.31997415789718
 20
16.52319381426457
 30
0.0
 10
54.91580425331603
 20
16.21149060778192
 30
0.0
 10
55.30516824494978
 20
15.66678728389015
 30
0.0
 10
55.43845166391847
 20
15.00972598570946
 30
0.0
 10
55.32120642494516
 20
14.58007949016004
 30
0.0
 10
55.24892926360315
 20
14.37591376283138
 30
0.0
  0
SPLINE
  5
71
330
1F
100
AcDbEntity
  8
Default
100
AcDbSpline
210
0.0
220
0.0
230
1.0
 70
     8
 71
     3
 72
    13
 73
     9
 74
     0
 42
0.0000000001
 43
0.0000000001
 40
-81.71040402546193
 40
-81.71040402546193
 40
-81.71040402546193
 40
-81.71040402546193
 40
-81.7000048194896
 40
-80.7000048194896
 40
-79.7000048194896
 40
-78.7000048194896
 40
-77.7000048194896
 40
-77.09129258927226
 40
-77.09129258927226
 40
-77.09129258927226
 40
-77.09129258927226
 10
55.24892926360315
 20
14.37591376283138
 30
0.0
 10
55.24639734136676
 20
14.37684565077847
 30
0.0
 10
55.00075584310119
 20
14.46797359604819
 30
0.0
 10
54.58561161733633
 20
14.76658786892421
 30
0.0
 10
53.91879343458473
 20
15.13883265730075
 30
0.0
 10
53.29719004484258
 20
15.58336402354757
 30
0.0
 10
52.80906799568231
 20
16.03334386936249
 30
0.0
 10
52.49204885524941
 20
16.29167730222105
 30
0.0
 10
52.37146647936254
 20
16.3886776712887
 30
0.0
  0
LINE
  5
72
330
1F
100
AcDbEntity
  8
Default
100
AcDbLine
 10
40.89272493496659
 20
2.645839045006541
 30
0.0
 11
40.89272494715468
 21
1.318318645839482
 31
0.0
  0
SPLINE
  5
73
330
1F
100
AcDbEntity
  8
Default
100
AcDbSpline
210
0.0
220
0.0
230
1.0
 70
    12
 71
     2
 72
     6
 73
     3
 74
     0
 42
0.0000000001
 43
0.0000000001
 40
0.0
 40
0.0
 40
0.0
 40
0.8883181399606292
 40
0.8883181399606292
 40
0.8883181399606292
 10
40.89272494715468
 20
1.318318645839482
 30
0.0
 41
1.0
 10
40.89272481981918
 20
0.8741595758591811
 30
0.0
 41
0.9999999999999857
 10
40.89272381737788
 20
0.4298637235359951
 30
0.0
 41
1.0
  0
SPLINE
  5
74
330
1F
100
AcDbEntity
  8
Default
100
AcDbSpline
210
0.0
220
0.0
230
1.0
 70
    12
 71
     2
 72
     6
 73
     3
 74
     0
 42
0.0000000001
 43
0.0000000001
 40
0.0
 40
0.0
 40
0.0
 40
0.0370134418365288
 40
0.0370134418365288
 40
0.0370134418365288
 10
40.89272381737788
 20
0.4298637235359951
 30
0.0
 41
1.0
 10
40.89250300066888
 20
0.408438210824519
 30
0.0
 41
0.8149664195338971
 10
40.87232226494251
 20
0.4016561472388268
 30
0.0
 41
1.0
  0
POLYLINE
  5
75
330
1F
100
AcDbEntity
  8
Default
100
AcDb2dPolyline
 66
     1
 10
0.0
 20
0.0
 30
0.0
  0
VERTEX
  5
76
330
75
100
AcDbEntity
  8
Default
100
AcDbVertex
100
AcDb2dVertex
 10
40.87232226494251
 20
0.4016561472388268
 30
0.0
  0
VERTEX
  5
77
330
75
100
AcDbEntity
  8
Default
100
AcDbVertex
100
AcDb2dVertex
 10
40.10529078336222
 20
0.4026979553860967
 30
0.0
  0
SEQEND
  5
78
330
75
100
AcDbEntity
  8
Default
  0
SPLINE
  5
79
330
1F
100
AcDbEntity
  8
Default
100
AcDbSpline
210
0.0
220
0.0
230
1.0
 70
    12
 71
     2
 72
     6
 73
     3
 74
     0
 42
0.0000000001
 43
0.0000000001
 40
-0.0343035516322866
 40
-0.0343035516322866
 40
-0.0343035516322866
 40
0.0
 40
0.0
 40
0.0
 10
40.10529078336222
 20
0.4026979553860967
 30
0.0
 41
1.0
 10
40.08772447955922
 20
0.4106979125380343
 30
0.0
 41
0.8409683921870034
 10
40.08772454124411
 20
0.4300445944567929
 30
0.0
 41
1.0
  0
LINE
  5
7A
330
1F
100
AcDbEntity
  8
Default
100
AcDbLine
 10
40.08772454124411
 20
0.4300445944567929
 30
0.0
 11
40.08772455698025
 21
2.645833298418005
 31
0.0
  0
SPLINE
  5
7B
330
1F
100
AcDbEntity
  8
Default
100
AcDbSpline
210
0.0
220
0.0
230
1.0
 70
    12
 71
     2
 72
     6
 73
     3
 74
     0
 42
0.0000000001
 43
0.0000000001
 40
0.0
 40
0.0
 40
0.0
 40
1.142633473844296
 40
1.142633473844296
 40
1.142633473844296
 10
40.08772455698025
 20
2.645833298418005
 30
0.0
 41
1.0
 10
40.04599584301825
 20
3.215630097155969
 30
0.0
 41
0.9999842323080803
 10
39.99787035734721
 20
3.784922301402296
 30
0.0
 41
1.0
  0
SPLINE
  5
7C
330
1F
100
AcDbEntity
  8
Default
100
AcDbSpline
210
0.0
220
0.0
230
1.0
 70
     8
 71
     3
 72
     8
 73
     4
 74
     0
 42
0.0000000001
 43
0.0000000001
 40
-1.0
 40
-1.0
 40
-1.0
 40
-1.0
 40
0.0
 40
0.0
 40
0.0
 40
0.0
 10
39.99787035734721
 20
3.784922301402296
 30
0.0
 10
39.96940660823506
 20
4.121629354790442
 30
0.0
 10
40.03115225195202
 20
4.702001457415596
 30
0.0
 10
40.06214509867854
 20
5.042681719673671
 30
0.0
  0
SPLINE
  5
7D
330
1F
100
AcDbEntity
  8
Default
100
AcDbSpline
210
0.0
220
0.0
230
1.0
 70
     8
 71
     3
 72
    12
 73
     8
 74
     0
 42
0.0000000001
 43
0.0000000001
 40
-5.0
 40
-5.0
 40
-5.0
 40
-5.0
 40
-4.0
 40
-3.0
 40
-2.0
 40
-1.0
 40
0.0
 40
0.0
 40
0.0
 40
0.0
 10
40.06214509867854
 20
5.042681719673671
 30
0.0
 10
40.07257188895133
 20
5.157295316675079
 30
0.0
 10
40.10690284777306
 20
5.379745552997914
 30
0.0
 10
40.289582698614
 20
5.704291101129162
 30
0.0
 10
40.69089097084799
 20
5.704267248842217
 30
0.0
 10
40.87355610583674
 20
5.379757877824668
 30
0.0
 10
40.90787752439476
 20
5.157293835798621
 30
0.0
 10
40.91830549182242
 20
5.042682536827708
 30
0.0
  0
SPLINE
  5
7E
330
1F
100
AcDbEntity
  8
Default
100
AcDbSpline
210
0.0
220
0.0
230
1.0
 70
     8
 71
     3
 72
     8
 73
     4
 74
     0
 42
0.0000000001
 43
0.0000000001
 40
0.0
 40
0.0
 40
0.0
 40
0.0
 40
1.0
 40
1.0
 40
1.0
 40
1.0
 10
40.91830549182242
 20
5.042682536827708
 30
0.0
 10
40.94926346758595
 20
4.702430820433111
 30
0.0
 10
41.00936171866368
 20
4.121637737752299
 30
0.0
 10
40.98257667465253
 20
3.784896487667917
 30
0.0
  0
SPLINE
  5
7F
330
1F
100
AcDbEntity
  8
Default
100
AcDbSpline
210
0.0
220
0.0
230
1.0
 70
    12
 71
     2
 72
    28
 73
    25
 74
     0
 42
0.0000000001
 43
0.0000000001
 40
0.0
 40
0.0
 40
0.0
 40
0.1540216414111597
 40
0.1540216414111597
 40
0.2901790848036704
 40
0.2901790848036704
 40
0.4125187213470968
 40
0.4125187213470968
 40
0.5235565796151631
 40
0.5235565796151631
 40
0.6251094707772871
 40
0.6251094707772871
 40
0.7185505680812745
 40
0.7185505680812745
 40
0.804527306064451
 40
0.804527306064451
 40
0.8835369424496379
 40
0.8835369424496379
 40
0.956096405573554
 40
0.956096405573554
 40
1.022829496748906
 40
1.022829496748906
 40
1.084573035640182
 40
1.084573035640182
 40
1.142610152573474
 40
1.142610152573474
 40
1.142610152573474
 10
40.98257667465253
 20
3.784896487667917
 30
0.0
 41
1.0
 10
40.97647040067636
 20
3.70812848492579
 30
0.0
 41
0.9999992266822498
 10
40.97017320256074
 20
3.631375907621956
 30
0.0
 41
1.0
 10
40.96461154940735
 20
3.563525086088881
 30
0.0
 41
0.999999943592941
 10
40.95900431829793
 20
3.495678015939925
 30
0.0
 41
1.0
 10
40.95396856060488
 20
3.434716141472609
 30
0.0
 41
0.9999999896650592
 10
40.94895033212626
 20
3.373752821541293
 30
0.0
 41
1.0
 10
40.94439696364199
 20
3.318421206909444
 30
0.0
 41
0.9999999204687999
 10
40.93988773200576
 20
3.263085977874307
 30
0.0
 41
1.0
 10
40.9357642138842
 20
3.212477495132922
 30
0.0
 41
0.9999998558573179
 10
40.93169504375814
 20
3.16186461355551
 30
0.0
 41
1.0
 10
40.9279510764969
 20
3.115294548757072
 30
0.0
 41
0.9999998050943961
 10
40.92426526405242
 20
3.0687198451852
 30
0.0
 41
1.0
 10
40.92087384434085
 20
3.025865672648839
 30
0.0
 41
0.9999997586473189
 10
40.91754197547289
 20
2.983006828972381
 30
0.0
 41
1.0
 10
40.91447993432025
 20
2.943621051750709
 30
0.0
 41
0.9999997032638387
 10
40.91147858014398
 20
2.904230603460748
 30
0.0
 41
1.0
 10
40.90872202144764
 20
2.868055920441487
 30
0.0
 41
0.9999996264853681
 10
40.90602799901595
 20
2.831876526437055
 30
0.0
 41
1.0
 10
40.9035500897701
 20
2.798602274891143
 30
0.0
 41
0.9999995214040918
 10
40.90113729374241
 20
2.765323238464286
 30
0.0
 41
1.0
 10
40.89890510802929
 20
2.734532418213321
 30
0.0
 41
0.9999994294407313
 10
40.89673871081183
 20
2.703736899255506
 30
0.0
 41
1.0
 10
40.89470370666199
 20
2.674789921291922
 30
0.0
 41
0.9999995283042846
 10
40.89272493496659
 20
2.645839045006541
 30
0.0
 41
0.9999999999063802
  0
POLYLINE
  5
80
330
1F
100
AcDbEntity
  8
Default
100
AcDb2dPolyline
 66
     1
 10
0.0
 20
0.0
 30
0.0
  0
VERTEX
  5
81
330
80
100
AcDbEntity
  8
Default
100
AcDbVertex
100
AcDb2dVertex
 10
55.11205214011326
 20
0.4000000000000013
 30
0.0
  0
VERTEX
  5
82
330
80
100
AcDbEntity
  8
Default
100
AcDbVertex
100
AcDb2dVertex
 10
53.72896500113805
 20
0.4000000000000012
 30
0.0
  0
SEQEND
  5
83
330
80
100
AcDbEntity
  8
Default
  0
SPLINE
  5
84
330
1F
100
AcDbEntity
  8
Default
100
AcDbSpline
210
0.0
220
0.0
230
1.0
 70
    12
 71
     2
 72
     6
 73
     3
 74
     0
 42
0.0000000001
 43
0.0000000001
 40
0.0
 40
0.0
 40
0.0
 40
0.0233001455140947
 40
0.0233001455140947
 40
0.0233001455140947
 10
53.72896500113805
 20
0.4000000000000012
 30
0.0
 41
1.0
 10
53.71422454219134
 20
0.3999999999999896
 30
0.0
 41
0.7132504491537722
 10
53.71396728571077
 20
0.385261786096561
 30
0.0
 41
1.0
  0
SPLINE
  5
85
330
1F
100
AcDbEntity
  8
Default
100
AcDbSpline
210
0.0
220
0.0
230
1.0
 70
    24
 71
     2
 72
     6
 73
     3
 74
     0
 42
0.0000000001
 43
0.0000000001
 40
-0.2265737189671924
 40
-0.2265737189671924
 40
-0.2265737189671924
 40
0.0
 40
0.0
 40
0.0
 10
53.71396728571077
 20
0.385261786096561
 30
0.0
 10
53.71199015739504
 20
0.2719921807503813
 30
0.0
 10
53.71001302907933
 20
0.1587225754042016
 30
0.0
  0
SPLINE
  5
86
330
1F
100
AcDbEntity
  8
Default
100
AcDbSpline
210
0.0
220
0.0
230
1.0
 70
    12
 71
     2
 72
     8
 73
     5
 74
     0
 42
0.0000000001
 43
0.0000000001
 40
0.0
 40
0.0
 40
0.0
 40
0.1238834703065744
 40
0.1238834703065744
 40
0.2477669406131487
 40
0.2477669406131487
 40
0.2477669406131487
 10
53.71001302907933
 20
0.1587225754042016
 30
0.0
 41
1.0
 10
53.70887135846193
 20
0.0933163095384199
 30
0.0
 41
0.9222009716703817
 10
53.7547221994557
 20
0.0466581547691941
 30
0.0
 41
1.0
 10
53.80057304044944
 20
-0.0000000000000317
 30
0.0
 41
0.9222009716703817
 10
53.86598926952377
 20
0.0000000000000009
 30
0.0
 41
1.0
  0
SPLINE
  5
87
330
1F
100
AcDbEntity
  8
Default
100
AcDbSpline
210
0.0
220
0.0
230
1.0
 70
    24
 71
     2
 72
     6
 73
     3
 74
     0
 42
0.0000000001
 43
0.0000000001
 40
-1.1178392931867
 40
-1.1178392931867
 40
-1.1178392931867
 40
0.0
 40
0.0
 40
0.0
 10
53.86598926952377
 20
0.0000000000000009
 30
0.0
 10
54.42490891611712
 20
0.0000000000000009
 30
0.0
 10
54.98382856271044
 20
0.0000000000000009
 30
0.0
  0
SPLINE
  5
88
330
1F
100
AcDbEntity
  8
Default
100
AcDbSpline
210
0.0
220
0.0
230
1.0
 70
    12
 71
     2
 72
     8
 73
     5
 74
     0
 42
0.0000000001
 43
0.0000000001
 40
0.0
 40
0.0
 40
0.0
 40
0.1269465231438404
 40
0.1269465231438404
 40
0.2538930462876808
 40
0.2538930462876808
 40
0.2538930462876808
 10
54.98382856271044
 20
0.0000000000000009
 30
0.0
 41
1.0
 10
55.05105312704585
 20
-0.0000000000000234
 30
0.0
 41
0.9183600648443049
 10
55.09722096915411
 20
0.0488638148852971
 30
0.0
 41
1.0
 10
55.14338881126238
 20
0.0977276297706175
 30
0.0
 41
0.9183600648443049
 10
55.13957766331745
 20
0.1648440748599009
 30
0.0
 41
1.0
  0
SPLINE
  5
89
330
1F
100
AcDbEntity
  8
Default
100
AcDbSpline
210
0.0
220
0.0
230
1.0
 70
     8
 71
     2
 72
     6
 73
     3
 74
     0
 42
0.0000000001
 43
0.0000000001
 40
-0.2213623405233065
 40
-0.2213623405233065
 40
-0.2213623405233065
 40
0.0
 40
0.0
 40
0.0
 10
55.13957766331745
 20
0.1648440748599009
 30
0.0
 10
55.13330283924455
 20
0.2753472333366753
 30
0.0
 10
55.12702009431777
 20
0.3859723252673241
 30
0.0
  0
SPLINE
  5
8A
330
1F
100
AcDbEntity
  8
Default
100
AcDbSpline
210
0.0
220
0.0
230
1.0
 70
    12
 71
     2
 72
     6
 73
     3
 74
     0
 42
0.0000000001
 43
0.0000000001
 40
0.0
 40
0.0
 40
0.0
 40
0.0224667132803239
 40
0.0224667132803239
 40
0.0224667132803239
 10
55.12702009431777
 20
0.3859723252673241
 30
0.0
 41
1.0
 10
55.12599503143533
 20
0.4000000000000027
 30
0.0
 41
0.7324447355991569
 10
55.11205214011326
 20
0.4000000000000013
 30
0.0
 41
1.0
  0
POLYLINE
  5
8B
330
1F
100
AcDbEntity
  8
Default
100
AcDb2dPolyline
 66
     1
 10
0.0
 20
0.0
 30
0.0
  0
VERTEX
  5
8C
330
8B
100
AcDbEntity
  8
Default
100
AcDbVertex
100
AcDb2dVertex
 10
25.86839694426945
 20
0.4000000000000013
 30
0.0
  0
VERTEX
  5
8D
330
8B
100
AcDbEntity
  8
Default
100
AcDbVertex
100
AcDb2dVertex
 10
27.25148408324466
 20
0.4000000000000012
 30
0.0
  0
SEQEND
  5
8E
330
8B
100
AcDbEntity
  8
Default
  0
SPLINE
  5
8F
330
1F
100
AcDbEntity
  8
Default
100
AcDbSpline
210
0.0
220
0.0
230
1.0
 70
    12
 71
     2
 72
     6
 73
     3
 74
     0
 42
0.0000000001
 43
0.0000000001
 40
0.0
 40
0.0
 40
0.0
 40
0.0233001455140947
 40
0.0233001455140947
 40
0.0233001455140947
 10
27.25148408324466
 20
0.4000000000000012
 30
0.0
 41
1.0
 10
27.26622454219135
 20
0.3999999999999896
 30
0.0
 41
0.7132504491537722
 10
27.26648179867195
 20
0.385261786096561
 30
0.0
 41
1.0
  0
SPLINE
  5
90
330
1F
100
AcDbEntity
  8
Default
100
AcDbSpline
210
0.0
220
0.0
230
1.0
 70
    24
 71
     2
 72
     6
 73
     3
 74
     0
 42
0.0000000001
 43
0.0000000001
 40
-0.2265737189671924
 40
-0.2265737189671924
 40
-0.2265737189671924
 40
0.0
 40
0.0
 40
0.0
 10
27.26648179867195
 20
0.385261786096561
 30
0.0
 10
27.26845892698768
 20
0.2719921807503813
 30
0.0
 10
27.27043605530338
 20
0.1587225754042016
 30
0.0
  0
SPLINE
  5
91
330
1F
100
AcDbEntity
  8
Default
100
AcDbSpline
210
0.0
220
0.0
230
1.0
 70
    12
 71
     2
 72
     8
 73
     5
 74
     0
 42
0.0000000001
 43
0.0000000001
 40
0.0
 40
0.0
 40
0.0
 40
0.1238834703065744
 40
0.1238834703065744
 40
0.2477669406131487
 40
0.2477669406131487
 40
0.2477669406131487
 10
27.27043605530338
 20
0.1587225754042016
 30
0.0
 41
1.0
 10
27.27157772592077
 20
0.0933163095384199
 30
0.0
 41
0.9222009716703817
 10
27.22572688492701
 20
0.0466581547691941
 30
0.0
 41
1.0
 10
27.17987604393326
 20
-0.0000000000000317
 30
0.0
 41
0.9222009716703817
 10
27.11445981485895
 20
0.0000000000000009
 30
0.0
 41
1.0
  0
SPLINE
  5
92
330
1F
100
AcDbEntity
  8
Default
100
AcDbSpline
210
0.0
220
0.0
230
1.0
 70
    24
 71
     2
 72
     6
 73
     3
 74
     0
 42
0.0000000001
 43
0.0000000001
 40
-1.1178392931867
 40
-1.1178392931867
 40
-1.1178392931867
 40
0.0
 40
0.0
 40
0.0
 10
27.11445981485895
 20
0.0000000000000009
 30
0.0
 10
26.55554016826559
 20
0.0000000000000009
 30
0.0
 10
25.99662052167227
 20
0.0000000000000009
 30
0.0
  0
SPLINE
  5
93
330
1F
100
AcDbEntity
  8
Default
100
AcDbSpline
210
0.0
220
0.0
230
1.0
 70
    12
 71
     2
 72
     8
 73
     5
 74
     0
 42
0.0000000001
 43
0.0000000001
 40
0.0
 40
0.0
 40
0.0
 40
0.1269465231438404
 40
0.1269465231438404
 40
0.2538930462876808
 40
0.2538930462876808
 40
0.2538930462876808
 10
25.99662052167227
 20
0.0000000000000009
 30
0.0
 41
1.0
 10
25.92939595733688
 20
-0.0000000000000234
 30
0.0
 41
0.9183600648443049
 10
25.8832281152286
 20
0.0488638148852971
 30
0.0
 41
1.0
 10
25.83706027312034
 20
0.0977276297706175
 30
0.0
 41
0.9183600648443049
 10
25.84087142106526
 20
0.1648440748599009
 30
0.0
 41
1.0
  0
SPLINE
  5
94
330
1F
100
AcDbEntity
  8
Default
100
AcDbSpline
210
0.0
220
0.0
230
1.0
 70
     8
 71
     2
 72
     6
 73
     3
 74
     0
 42
0.0000000001
 43
0.0000000001
 40
-0.2213623405233065
 40
-0.2213623405233065
 40
-0.2213623405233065
 40
0.0
 40
0.0
 40
0.0
 10
25.84087142106526
 20
0.1648440748599009
 30
0.0
 10
25.84714624513816
 20
0.2753472333366753
 30
0.0
 10
25.85342899006494
 20
0.3859723252673241
 30
0.0
  0
SPLINE
  5
95
330
1F
100
AcDbEntity
  8
Default
100
AcDbSpline
210
0.0
220
0.0
230
1.0
 70
    12
 71
     2
 72
     6
 73
     3
 74
     0
 42
0.0000000001
 43
0.0000000001
 40
0.0
 40
0.0
 40
0.0
 40
0.0224667132803239
 40
0.0224667132803239
 40
0.0224667132803239
 10
25.85342899006494
 20
0.3859723252673241
 30
0.0
 41
1.0
 10
25.85445405294735
 20
0.4000000000000027
 30
0.0
 41
0.7324447355991569
 10
25.86839694426945
 20
0.4000000000000013
 30
0.0
 41
1.0
  0
SPLINE
  5
96
330
1F
100
AcDbEntity
  8
Default
100
AcDbSpline
210
0.0
220
0.0
230
1.0
 70
     8
 71
     2
 72
     7
 73
     4
 74
     0
 42
0.0000000001
 43
0.0000000001
 40
-2.112820146863387
 40
-2.112820146863387
 40
-2.112820146863387
 40
0.0
 40
10.36850216633574
 40
10.36850216633574
 40
10.36850216633574
 10
40.00493723709315
 20
3.70091115472393
 30
0.0
 10
38.95684937543163
 20
3.655344771851874
 30
0.0
 10
32.77124805824334
 20
2.826461456234592
 30
0.0
 10
27.63918545077465
 20
2.085853658713474
 30
0.0
  0
SPLINE
  5
97
330
1F
100
AcDbEntity
  8
Default
100
AcDbSpline
210
0.0
220
0.0
230
1.0
 70
     8
 71
     3
 72
    14
 73
    10
 74
     0
 42
0.0000000001
 43
0.0000000001
 40
10.36850216633574
 40
10.36850216633574
 40
10.36850216633574
 40
10.36850216633574
 40
10.48392831467684
 40
10.61101647346049
 40
10.85569685307349
 40
10.94889229604513
 40
11.02462537061439
 40
11.10618719586826
 40
12.20116650812062
 40
12.20116650812062
 40
12.20116650812062
 40
12.20116650812062
 10
27.63918545077465
 20
2.085853658713474
 30
0.0
 10
27.60028774803376
 20
2.080240332423644
 30
0.0
 10
27.52142041401032
 20
2.056781907874129
 30
0.0
 10
27.38532525723133
 20
1.966156733401164
 30
0.0
 10
27.30278173202032
 20
1.825311740574662
 30
0.0
 10
27.29190716577253
 20
1.687141830407011
 30
0.0
 10
27.2917060178394
 20
1.603723456635179
 30
0.0
 10
27.28230135930937
 20
1.186363164752624
 30
0.0
 10
27.27469908154148
 20
0.7942933853839997
 30
0.0
 10
27.2668398001895
 20
0.4293717115611809
 30
0.0
  0
SPLINE
  5
98
330
1F
100
AcDbEntity
  8
Default
100
AcDbSpline
210
0.0
220
0.0
230
1.0
 70
    12
 71
     2
 72
     6
 73
     3
 74
     0
 42
0.0000000001
 43
0.0000000001
 40
0.0
 40
0.0
 40
0.0
 40
0.0328025700600773
 40
0.0328025700600773
 40
0.0328025700600773
 10
27.2668398001895
 20
0.4293717115611809
 30
0.0
 41
1.0
 10
27.26645743205621
 20
0.4111181083220299
 30
0.0
 41
0.8542398056055149
 10
27.25006884796161
 20
0.4030710872597238
 30
0.0
 41
1.0
  0
POLYLINE
  5
99
330
1F
100
AcDbEntity
  8
Default
100
AcDb2dPolyline
 66
     1
 10
0.0
 20
0.0
 30
0.0
  0
VERTEX
  5
9A
330
99
100
AcDbEntity
  8
Default
100
AcDbVertex
100
AcDb2dVertex
 10
27.25006884796161
 20
0.4030710872597238
 30
0.0
  0
VERTEX
  5
9B
330
99
100
AcDbEntity
  8
Default
100
AcDbVertex
100
AcDb2dVertex
 10
25.87629857006891
 20
0.4015944354498296
 30
0.0
  0
SEQEND
  5
9C
330
99
100
AcDbEntity
  8
Default
  0
SPLINE
  5
9D
330
1F
100
AcDbEntity
  8
Default
100
AcDbSpline
210
0.0
220
0.0
230
1.0
 70
    12
 71
     2
 72
     6
 73
     3
 74
     0
 42
0.0000000001
 43
0.0000000001
 40
-0.0389746357819461
 40
-0.0389746357819461
 40
-0.0389746357819461
 40
0.0
 40
0.0
 40
0.0
 10
25.87629857006891
 20
0.4015944354498296
 30
0.0
 41
1.0
 10
25.85472347650667
 20
0.4089240281822228
 30
0.0
 41
0.7963395613957778
 10
25.85600063209239
 20
0.4317678748060569
 30
0.0
 41
1.0
  0
SPLINE
  5
9E
330
1F
100
AcDbEntity
  8
Default
100
AcDbSpline
210
0.0
220
0.0
230
1.0
 70
     8
 71
     3
 72
    12
 73
     8
 74
     0
 42
0.0000000001
 43
0.0000000001
 40
0.0
 40
0.0
 40
0.0
 40
0.0
 40
2.02509803859557
 40
2.121481653565311
 40
2.208270161634103
 40
2.642265590548921
 40
3.0858126895768
 40
3.0858126895768
 40
3.0858126895768
 40
3.0858126895768
 10
25.85600063209239
 20
0.4317678748060569
 30
0.0
 10
25.8944555236362
 20
1.10581410256726
 30
0.0
 10
25.93211204760681
 20
1.811932359792708
 30
0.0
 10
25.97480363453181
 20
2.546824012142999
 30
0.0
 10
26.02023845376357
 20
2.748295505813291
 30
0.0
 10
26.18905146223889
 20
3.03468134273648
 30
0.0
 10
26.45990834589801
 20
3.175829891605608
 30
0.0
 10
26.60422454219139
 20
3.205665827232833
 30
0.0
  0
SPLINE
  5
9F
330
1F
100
AcDbEntity
  8
Default
100
AcDbSpline
210
0.0
220
0.0
230
1.0
 70
    24
 71
     2
 72
     6
 73
     3
 74
     0
 42
0.0000000001
 43
0.0000000001
 40
-12.29027095712029
 40
-12.29027095712029
 40
-12.29027095712029
 40
0.0
 40
0.0
 40
0.0
 10
26.60422454219139
 20
3.205665827232833
 30
0.0
 10
32.62222454219139
 20
4.449195501128345
 30
0.0
 10
38.64022454219139
 20
5.692725175023857
 30
0.0
  0
SPLINE
  5
A0
330
1F
100
AcDbEntity
  8
Default
100
AcDbSpline
210
0.0
220
0.0
230
1.0
 70
     8
 71
     3
 72
    11
 73
     7
 74
     0
 42
0.0000000001
 43
0.0000000001
 40
29.02279843217129
 40
29.02279843217129
 40
29.02279843217129
 40
29.02279843217129
 40
29.27279843217141
 40
29.52279843217158
 40
29.77279843217175
 40
30.00957021186727
 40
30.00957021186727
 40
30.00957021186727
 40
30.00957021186727
 10
38.64022454219139
 20
5.692725175023857
 30
0.0
 10
38.71269228316356
 20
5.70769954961662
 30
0.0
 10
38.85433974384142
 20
5.77196445074997
 30
0.0
 10
39.0351877957664
 20
5.941965920377478
 30
0.0
 10
39.16040543839989
 20
6.152448109995484
 30
0.0
 10
39.19565584039884
 20
6.300934325093533
 30
0.0
 10
39.19848800423941
 20
6.371234909639895
 30
0.0
  0
LINE
  5
A1
330
1F
100
AcDbEntity
  8
Default
100
AcDbLine
 10
39.19848800423941
 20
6.371234909639895
 30
0.0
 11
39.20218267348429
 21
6.462944790227148
 31
0.0
  0
POLYLINE
  5
A2
330
1F
100
AcDbEntity
  8
Default
100
AcDb2dPolyline
 66
     1
 10
0.0
 20
0.0
 30
0.0
  0
VERTEX
  5
A3
330
A2
100
AcDbEntity
  8
Default
100
AcDbVertex
100
AcDb2dVertex
 10
39.20218267348429
 20
6.462944790227148
 30
0.0
  0
VERTEX
  5
A4
330
A2
100
AcDbEntity
  8
Default
100
AcDbVertex
100
AcDb2dVertex
 10
41.77826641089842
 20
6.462944790227148
 30
0.0
  0
SEQEND
  5
A5
330
A2
100
AcDbEntity
  8
Default
  0
LINE
  5
A6
330
1F
100
AcDbEntity
  8
Default
100
AcDbLine
 10
41.77826641089842
 20
6.462944790227148
 30
0.0
 11
41.7819610801433
 21
6.371234909639895
 31
0.0
  0
SPLINE
  5
A7
330
1F
100
AcDbEntity
  8
Default
100
AcDbSpline
210
0.0
220
0.0
230
1.0
 70
     8
 71
     3
 72
    11
 73
     7
 74
     0
 42
0.0000000001
 43
0.0000000001
 40
-30.00957021186727
 40
-30.00957021186727
 40
-30.00957021186727
 40
-30.00957021186727
 40
-29.77279843217175
 40
-29.52279843217158
 40
-29.27279843217141
 40
-29.02279843217129
 40
-29.02279843217129
 40
-29.02279843217129
 40
-29.02279843217129
 10
41.7819610801433
 20
6.371234909639895
 30
0.0
 10
41.78479324398387
 20
6.300934325093533
 30
0.0
 10
41.82004364598282
 20
6.152448109995484
 30
0.0
 10
41.94526128861631
 20
5.941965920377478
 30
0.0
 10
42.12610934054129
 20
5.77196445074997
 30
0.0
 10
42.26775680121915
 20
5.70769954961662
 30
0.0
 10
42.34022454219132
 20
5.692725175023857
 30
0.0
  0
SPLINE
  5
A8
330
1F
100
AcDbEntity
  8
Default
100
AcDbSpline
210
0.0
220
0.0
230
1.0
 70
    24
 71
     2
 72
     6
 73
     3
 74
     0
 42
0.0000000001
 43
0.0000000001
 40
0.0
 40
0.0
 40
0.0
 40
12.29027095712029
 40
12.29027095712029
 40
12.29027095712029
 10
42.34022454219132
 20
5.692725175023857
 30
0.0
 10
48.35822454219132
 20
4.449195501128345
 30
0.0
 10
54.37622454219132
 20
3.205665827232833
 30
0.0
  0
SPLINE
  5
A9
330
1F
100
AcDbEntity
  8
Default
100
AcDbSpline
210
0.0
220
0.0
230
1.0
 70
     8
 71
     3
 72
    12
 73
     8
 74
     0
 42
0.0000000001
 43
0.0000000001
 40
-3.0858126895768
 40
-3.0858126895768
 40
-3.0858126895768
 40
-3.0858126895768
 40
-2.642265590548921
 40
-2.208270161634103
 40
-2.121481653565311
 40
-2.02509803859557
 40
0.0
 40
0.0
 40
0.0
 40
0.0
 10
54.37622454219132
 20
3.205665827232833
 30
0.0
 10
54.5205407384847
 20
3.175829891605608
 30
0.0
 10
54.79139762214382
 20
3.03468134273648
 30
0.0
 10
54.96021063061914
 20
2.748295505813291
 30
0.0
 10
55.0056454498509
 20
2.546824012142999
 30
0.0
 10
55.04833703677591
 20
1.811932359792708
 30
0.0
 10
55.08599356074652
 20
1.10581410256726
 30
0.0
 10
55.12444845229032
 20
0.4317678748060569
 30
0.0
  0
SPLINE
  5
AA
330
1F
100
AcDbEntity
  8
Default
100
AcDbSpline
210
0.0
220
0.0
230
1.0
 70
    12
 71
     2
 72
     6
 73
     3
 74
     0
 42
0.0000000001
 43
0.0000000001
 40
0.0
 40
0.0
 40
0.0
 40
0.0389746357819461
 40
0.0389746357819461
 40
0.0389746357819461
 10
55.12444845229032
 20
0.4317678748060569
 30
0.0
 41
1.0
 10
55.12572560787601
 20
0.4089240281822228
 30
0.0
 41
0.7963395613957778
 10
55.1041505143138
 20
0.4015944354498296
 30
0.0
 41
1.0
  0
POLYLINE
  5
AB
330
1F
100
AcDbEntity
  8
Default
100
AcDb2dPolyline
 66
     1
 10
0.0
 20
0.0
 30
0.0
  0
VERTEX
  5
AC
330
AB
100
AcDbEntity
  8
Default
100
AcDbVertex
100
AcDb2dVertex
 10
55.1041505143138
 20
0.4015944354498296
 30
0.0
  0
VERTEX
  5
AD
330
AB
100
AcDbEntity
  8
Default
100
AcDbVertex
100
AcDb2dVertex
 10
53.7303802364211
 20
0.4030710872597238
 30
0.0
  0
SEQEND
  5
AE
330
AB
100
AcDbEntity
  8
Default
  0
SPLINE
  5
AF
330
1F
100
AcDbEntity
  8
Default
100
AcDbSpline
210
0.0
220
0.0
230
1.0
 70
    12
 71
     2
 72
     6
 73
     3
 74
     0
 42
0.0000000001
 43
0.0000000001
 40
-0.0328025700600773
 40
-0.0328025700600773
 40
-0.0328025700600773
 40
0.0
 40
0.0
 40
0.0
 10
53.7303802364211
 20
0.4030710872597238
 30
0.0
 41
1.0
 10
53.71399165232654
 20
0.4111181083220299
 30
0.0
 41
0.8542398056055149
 10
53.71360928419321
 20
0.4293717115611809
 30
0.0
 41
1.0
  0
SPLINE
  5
B0
330
1F
100
AcDbEntity
  8
Default
100
AcDbSpline
210
0.0
220
0.0
230
1.0
 70
     8
 71
     3
 72
    14
 73
    10
 74
     0
 42
0.0000000001
 43
0.0000000001
 40
-12.20116650812062
 40
-12.20116650812062
 40
-12.20116650812062
 40
-12.20116650812062
 40
-11.10618719586826
 40
-11.02462537061439
 40
-10.94889229604513
 40
-10.85569685307349
 40
-10.61101647346049
 40
-10.48392831467684
 40
-10.36850216633574
 40
-10.36850216633574
 40
-10.36850216633574
 40
-10.36850216633574
 10
53.71360928419321
 20
0.4293717115611809
 30
0.0
 10
53.70575000284123
 20
0.7942933853839997
 30
0.0
 10
53.69814772507334
 20
1.186363164752624
 30
0.0
 10
53.68874306654331
 20
1.603723456635179
 30
0.0
 10
53.68854191861018
 20
1.687141830407011
 30
0.0
 10
53.67766735236239
 20
1.825311740574662
 30
0.0
 10
53.59512382715138
 20
1.966156733401164
 30
0.0
 10
53.45902867037239
 20
2.056781907874129
 30
0.0
 10
53.38016133634895
 20
2.080240332423644
 30
0.0
 10
53.34126363360807
 20
2.085853658713474
 30
0.0
  0
SPLINE
  5
B1
330
1F
100
AcDbEntity
  8
Default
100
AcDbSpline
210
0.0
220
0.0
230
1.0
 70
     8
 71
     2
 72
     7
 73
     4
 74
     0
 42
0.0000000001
 43
0.0000000001
 40
-10.36850216633574
 40
-10.36850216633574
 40
-10.36850216633574
 40
0.0
 40
2.112820146863387
 40
2.112820146863387
 40
2.112820146863387
 10
53.34126363360807
 20
2.085853658713474
 30
0.0
 10
48.20920102613937
 20
2.826461456234592
 30
0.0
 10
42.02359970895108
 20
3.655344771851874
 30
0.0
 10
40.97551184728957
 20
3.70091115472393
 30
0.0
  0
POLYLINE
  5
B2
330
1F
100
AcDbEntity
  8
Default
100
AcDb2dPolyline
 66
     1
 10
0.0
 20
0.0
 30
0.0
  0
VERTEX
  5
B3
330
B2
100
AcDbEntity
  8
Default
100
AcDbVertex
100
AcDb2dVertex
 10
40.10239969038597
 20
0.399999999906409
 30
0.0
  0
VERTEX
  5
B4
330
B2
100
AcDbEntity
  8
Default
100
AcDbVertex
100
AcDb2dVertex
 10
40.8780502352881
 20
0.3999999998842094
 30
0.0
  0
SEQEND
  5
B5
330
B2
100
AcDbEntity
  8
Default
  0
SPLINE
  5
B6
330
1F
100
AcDbEntity
  8
Default
100
AcDbSpline
210
0.0
220
0.0
230
1.0
 70
    12
 71
     2
 72
     6
 73
     3
 74
     0
 42
0.0000000001
 43
0.0000000001
 40
0.0
 40
0.0
 40
0.0
 40
0.0200867229109254
 40
0.0200867229109254
 40
0.0200867229109254
 10
40.8780502352881
 20
0.3999999998842094
 30
0.0
 41
1.0
 10
40.88971988378585
 20
0.3995431334531431
 30
0.0
 41
0.802617145546988
 10
40.89264782120662
 20
0.3882375328297014
 30
0.0
 41
1.0
  0
SPLINE
  5
B7
330
1F
100
AcDbEntity
  8
Default
100
AcDbSpline
210
0.0
220
0.0
230
1.0
 70
    12
 71
     2
 72
    20
 73
    17
 74
     0
 42
0.0000000001
 43
0.0000000001
 40
0.0
 40
0.0
 40
0.0
 40
0.2255555232297128
 40
0.2255555232297128
 40
0.3498085556099202
 40
0.3498085556099202
 40
0.4740615879901277
 40
0.4740615879901277
 40
0.9777325427188074
 40
0.9777325427188074
 40
1.10188499768713
 40
1.10188499768713
 40
1.226037452655453
 40
1.226037452655453
 40
1.451954175298031
 40
1.451954175298031
 40
1.474961195965689
 40
1.474961195965689
 40
1.474961195965689
 10
40.89264782120662
 20
0.3882375328297014
 30
0.0
 41
1.0
 10
40.89550837013257
 20
0.2725751527994181
 30
0.0
 41
0.9999999835043444
 10
40.8980157205834
 20
0.1596446425376397
 30
0.0
 41
1.0
 10
40.89947638672777
 20
0.0938466362517804
 30
0.0
 41
0.9217416924384133
 10
40.85358499170738
 20
0.046923781041797
 30
0.0
 41
1.0
 10
40.80769359668696
 20
0.0000009258318137
 30
0.0
 41
0.9217416924384133
 10
40.74205995838219
 20
0.0000000000019885
 30
0.0
 41
1.0
 10
40.49022448101786
 20
0.0000000000020303
 30
0.0
 41
1.0
 10
40.23838900365351
 20
0.0000000000020721
 30
0.0
 41
1.0
 10
40.17281911450183
 20
0.0000415045432547
 30
0.0
 41
0.9219606608938025
 10
40.12694832844147
 20
0.046895352540922
 30
0.0
 41
1.0
 10
40.08107754238107
 20
0.0937492005385892
 30
0.0
 41
0.9219606608938025
 10
40.08242727616874
 20
0.1593847513956395
 30
0.0
 41
1.0
 10
40.08493677304076
 20
0.2723947785347779
 30
0.0
 41
0.9999999834523676
 10
40.08740474522318
 20
0.38532669748455
 30
0.0
 41
1.0
 10
40.08824144248646
 20
0.3994706535846757
 30
0.0
 41
0.7403604038404529
 10
40.10239969038597
 20
0.399999999906409
 30
0.0
 41
1.0
  0
SPLINE
  5
B8
330
1F
100
AcDbEntity
  8
Default
100
AcDbSpline
210
0.0
220
0.0
230
1.0
 70
     8
 71
     3
 72
    12
 73
     8
 74
     0
 42
0.0000000001
 43
0.0000000001
 40
0.0
 40
0.0
 40
0.0
 40
0.0
 40
1.0
 40
2.0
 40
3.0
 40
4.0
 40
5.0
 40
5.0
 40
5.0
 40
5.0
 10
40.08772454219135
 20
2.645833298418
 30
0.0
 10
40.08809407838046
 20
2.747790985019149
 30
0.0
 10
40.12544300806232
 20
2.947795791640983
 30
0.0
 10
40.32033384385304
 20
3.211651080471766
 30
0.0
 10
40.66011521825968
 20
3.211651113476493
 30
0.0
 10
40.85500610310086
 20
2.94779573829043
 30
0.0
 10
40.89235500042838
 20
2.747790993604342
 30
0.0
 10
40.89272454219136
 20
2.645833298418
 30
0.0
  0
POLYLINE
  5
B9
330
1F
100
AcDbEntity
  8
Default
100
AcDb2dPolyline
 66
     1
 10
0.0
 20
0.0
 30
0.0
  0
VERTEX
  5
BA
330
B9
100
AcDbEntity
  8
Default
100
AcDbVertex
100
AcDb2dVertex
 10
43.84100843412986
 20
9.957367736323945
 30
0.0
  0
VERTEX
  5
BB
330
B9
100
AcDbEntity
  8
Default
100
AcDbVertex
100
AcDb2dVertex
 10
37.1410084341301
 20
9.965403978427368
 30
0.0
  0
SEQEND
  5
BC
330
B9
100
AcDbEntity
  8
Default
  0
SPLINE
  5
BD
330
1F
100
AcDbEntity
  8
Default
100
AcDbSpline
210
0.0
220
0.0
230
1.0
 70
     8
 71
     3
 72
    10
 73
     6
 74
     0
 42
0.0000000001
 43
0.0000000001
 40
-3.0
 40
-3.0
 40
-3.0
 40
-3.0
 40
-2.0
 40
-1.0
 40
0.0
 40
0.0
 40
0.0
 40
0.0
 10
37.1410084341301
 20
9.965403978427368
 30
0.0
 10
36.78507845937392
 20
10.05224321083367
 30
0.0
 10
36.08571809063969
 20
10.27293520791116
 30
0.0
 10
35.07952255525552
 20
10.72219429597278
 30
0.0
 10
34.46461283434817
 20
11.12323791810103
 30
0.0
 10
34.16965435572223
 20
11.34034722125534
 30
0.0
  0
SPLINE
  5
BE
330
1F
100
AcDbEntity
  8
Default
100
AcDbSpline
210
0.0
220
0.0
230
1.0
 70
     8
 71
     3
 72
    89
 73
    85
 74
     0
 42
0.0000000001
 43
0.0000000001
 40
-82.0
 40
-82.0
 40
-82.0
 40
-82.0
 40
-81.0
 40
-80.0
 40
-79.0
 40
-78.0
 40
-77.0
 40
-76.0
 40
-75.0
 40
-74.0
 40
-73.0
 40
-72.0
 40
-71.0
 40
-70.0
 40
-69.0
 40
-68.0
 40
-67.0
 40
-66.0
 40
-65.0
 40
-64.0
 40
-63.0
 40
-62.0
 40
-61.0
 40
-60.0
 40
-59.0
 40
-58.0
 40
-57.0
 40
-56.0
 40
-55.0
 40
-54.0
 40
-53.0
 40
-52.0
 40
-51.0
 40
-50.0
 40
-49.0
 40
-48.0
 40
-47.0
 40
-46.0
 40
-45.0
 40
-44.0
 40
-43.0
 40
-42.0
 40
-41.0
 40
-40.0
 40
-39.0
 40
-38.0
 40
-37.0
 40
-36.0
 40
-35.0
 40
-34.0
 40
-33.0
 40
-32.0
 40
-31.0
 40
-30.0
 40
-29.0
 40
-28.0
 40
-27.0
 40
-26.0
 40
-25.0
 40
-24.0
 40
-23.0
 40
-22.0
 40
-21.0
 40
-20.0
 40
-19.0
 40
-18.0
 40
-17.0
 40
-16.0
 40
-15.0
 40
-14.0
 40
-13.0
 40
-12.0
 40
-11.0
 40
-10.0
 40
-9.0
 40
-8.0
 40
-7.0
 40
-6.0
 40
-5.0
 40
-4.0
 40
-3.0
 40
-2.0
 40
-1.0
 40
0.0
 40
0.0
 40
0.0
 40
0.0
 10
34.16965435572223
 20
11.34034722125534
 30
0.0
 10
33.96316105645531
 20
11.48862776787055
 30
0.0
 10
33.56361484728021
 20
11.80380636829144
 30
0.0
 10
33.00596610703141
 20
12.32495204316316
 30
0.0
 10
32.4902880027407
 20
12.88750480202235
 30
0.0
 10
32.01451374859639
 20
13.48404320382473
 30
0.0
 10
31.5758471217415
 20
14.10826352518527
 30
0.0
 10
31.17119167410132
 20
14.7549773398971
 30
0.0
 10
30.79790024547273
 20
15.4202281370353
 30
0.0
 10
30.45251547141558
 20
16.10032455067539
 30
0.0
 10
30.1310187585004
 20
16.79198781271642
 30
0.0
 10
29.82902800581948
 20
17.4923448674622
 30
0.0
 10
29.54203933825991
 20
18.19895398153226
 30
0.0
 10
29.26516667816506
 20
18.90957008322764
 30
0.0
 10
28.99684907832349
 20
19.62346107883506
 30
0.0
 10
28.73648779904573
 20
20.34028507971825
 30
0.0
 10
28.48203412745002
 20
21.05922473007524
 30
0.0
 10
28.2296766500094
 20
21.77889754489623
 30
0.0
 10
27.98032922593208
 20
22.4996199184331
 30
0.0
 10
27.73374575386427
 20
23.22129614618432
 30
0.0
 10
27.49001939701841
 20
23.94392731087341
 30
0.0
 10
27.24904653504055
 20
24.6675376878786
 30
0.0
 10
27.01117187159906
 20
25.39195970386427
 30
0.0
 10
26.77514112949336
 20
26.11777650393636
 30
0.0
 10
26.54564776858533
 20
26.84275907845161
 30
0.0
 10
26.30519625734925
 20
27.57516618550584
 30
0.0
 10
26.11909259009965
 20
28.28413771601914
 30
0.0
 10
25.74363520351145
 20
29.08477013586269
 30
0.0
 10
26.4131658475462
 20
29.61007851305101
 30
0.0
 10
27.19580198932258
 20
29.53675944937209
 30
0.0
 10
27.95727680537814
 20
29.59360679664712
 30
0.0
 10
28.70237785650744
 20
29.38437013309838
 30
0.0
 10
29.32991036736101
 20
28.93250445156149
 30
0.0
 10
29.82348018903176
 20
28.34760617672676
 30
0.0
 10
30.23364490439505
 20
27.70387118515534
 30
0.0
 10
30.63598016265124
 20
27.05620848214961
 30
0.0
 10
31.03720190463881
 20
26.4075645360894
 30
0.0
 10
31.45147495078143
 20
25.76724388674094
 30
0.0
 10
31.87547333223549
 20
25.13325872300552
 30
0.0
 10
32.32140656813104
 20
24.5143947171701
 30
0.0
 10
32.80105077246546
 20
23.9208711502905
 30
0.0
 10
33.32273093188374
 20
23.36403434863694
 30
0.0
 10
33.86500706375907
 20
22.82794190674741
 30
0.0
 10
34.42893030938401
 20
22.31339943957058
 30
0.0
 10
35.05177886825885
 20
21.86982403226107
 30
0.0
 10
35.73994402157697
 20
21.53348128220124
 30
0.0
 10
36.48205887262478
 20
21.34505577638954
 30
0.0
 10
37.2383530389713
 20
21.243022854992
 30
0.0
 10
37.99955933016736
 20
21.19320559828849
 30
0.0
 10
38.76091493783051
 20
21.14982086142515
 30
0.0
 10
39.52262100335344
 20
21.11186799840987
 30
0.0
 10
40.284096048772
 20
21.06980839564486
 30
0.0
 10
41.04520153350023
 20
21.02136345857239
 30
0.0
 10
41.80581510155076
 20
20.96574598668688
 30
0.0
 10
42.56521482223397
 20
20.8945866617677
 30
0.0
 10
43.32211501725786
 20
20.80126733567294
 30
0.0
 10
44.0779387756001
 20
20.69792701381879
 30
0.0
 10
44.82434829606913
 20
20.53892442146334
 30
0.0
 10
45.56010251017383
 20
20.33713235989406
 30
0.0
 10
46.2837957521941
 20
20.09626808034445
 30
0.0
 10
47.00145405151133
 20
19.83731897449915
 30
0.0
 10
47.69565691890421
 20
19.52001080952501
 30
0.0
 10
48.36823471354165
 20
19.15998534973919
 30
0.0
 10
49.02242428084756
 20
18.76770000338404
 30
0.0
 10
49.66646948257792
 20
18.35927918765719
 30
0.0
 10
50.30666178300581
 20
17.9447015478602
 30
0.0
 10
50.93290325619736
 20
17.50934867272901
 30
0.0
 10
51.54612181038351
 20
17.05558492145746
 30
0.0
 10
52.13739985306259
 20
16.57390096592997
 30
0.0
 10
52.7358532555568
 20
16.10083755773355
 30
0.0
 10
53.29719004484258
 20
15.58336402354757
 30
0.0
 10
53.91879343458473
 20
15.13883265730075
 30
0.0
 10
54.58561161733633
 20
14.76658786892421
 30
0.0
 10
55.20510682684238
 20
14.32098342580327
 30
0.0
 10
56.04203041197749
 20
14.2218446582281
 30
0.0
 10
56.12490155263166
 20
13.25377428767644
 30
0.0
 10
55.40341818117312
 20
12.88509024414115
 30
0.0
 10
54.68047787868963
 20
12.67480093532552
 30
0.0
 10
53.95513320593474
 20
12.43048664377419
 30
0.0
 10
53.22771201530745
 20
12.2037312299468
 30
0.0
 10
52.49820716797566
 20
11.98073497551326
 30
0.0
 10
51.76669483729887
 20
11.76523117426094
 30
0.0
 10
51.03324347388192
 20
11.55619789754692
 30
0.0
 10
50.54292119450719
 20
11.4217296717387
 30
0.0
 10
50.2974541433272
 20
11.35562612818831
 30
0.0
  0
SPLINE
  5
BF
330
1F
100
AcDbEntity
  8
Default
100
AcDbSpline
210
0.0
220
0.0
230
1.0
 70
     8
 71
     3
 72
    10
 73
     6
 74
     0
 42
0.0000000001
 43
0.0000000001
 40
-3.0
 40
-3.0
 40
-3.0
 40
-3.0
 40
-2.0
 40
-1.0
 40
0.0
 40
0.0
 40
0.0
 40
0.0
 10
50.2974541433272
 20
11.35562612818831
 30
0.0
 10
49.58984300336877
 20
11.1588195421852
 30
0.0
 10
48.16642733182906
 20
10.79535470968352
 30
0.0
 10
46.01402597680854
 20
10.3227472722286
 30
0.0
 10
44.56761920236011
 20
10.0645960399465
 30
0.0
 10
43.84100843412986
 20
9.957367736323945
 30
0.0
  0
SPLINE
  5
C0
330
1F
100
AcDbEntity
  8
Default
100
AcDbSpline
210
0.0
220
0.0
230
1.0
 70
     8
 71
     3
 72
    47
 73
    43
 74
     0
 42
0.0000000001
 43
0.0000000001
 40
-3.0
 40
-2.0
 40
-1.0
 40
0.0
 40
1.0
 40
2.0
 40
3.0
 40
4.0
 40
5.0
 40
6.0
 40
7.0
 40
8.0
 40
9.0
 40
10.0
 40
11.0
 40
12.0
 40
13.0
 40
14.0
 40
15.0
 40
16.0
 40
17.0
 40
18.0
 40
19.0
 40
20.0
 40
21.0
 40
22.0
 40
23.0
 40
24.0
 40
25.0
 40
26.0
 40
27.0
 40
28.0
 40
29.0
 40
30.0
 40
31.0
 40
32.0
 40
33.0
 40
34.0
 40
35.0
 40
36.0
 40
37.0
 40
38.0
 40
39.0
 40
40.0
 40
41.0
 40
42.0
 40
43.0
 10
-1.572421837347434
 20
61.32110433484615
 30
0.0
 10
0.0000002670995229
 20
61.33642514550175
 30
0.0
 10
1.572420768949399
 20
61.3211043339447
 30
0.0
 10
3.144484390901624
 20
61.25421543922105
 30
0.0
 10
4.703643045553775
 20
61.03536488441317
 30
0.0
 10
6.221079576650396
 20
60.58954959332423
 30
0.0
 10
7.563820064918929
 20
59.72683326243313
 30
0.0
 10
8.47173295474343
 20
58.39354811605362
 30
0.0
 10
8.743367979121757
 20
56.82809213899458
 30
0.0
 10
8.925911678429628
 20
55.26983928191536
 30
0.0
 10
9.009765356230417
 20
53.69780082450374
 30
0.0
 10
9.019716600451687
 20
52.12517924474193
 30
0.0
 10
8.964960251217718
 20
50.553600701593
 30
0.0
 10
8.866902661199816
 20
48.98330526486308
 30
0.0
 10
8.68822782962846
 20
47.42246249757711
 30
0.0
 10
8.378863211605307
 20
45.87005508901041
 30
0.0
 10
7.542958908085808
 20
44.4919857751024
 30
0.0
 10
6.143630292877248
 20
43.70049147528812
 30
0.0
 10
4.683257496836603
 20
43.126132481448
 30
0.0
 10
3.132934532665359
 20
42.82621013820991
 30
0.0
 10
1.572102860002332
 20
42.63994970437246
 30
0.0
 10
0.0000000905926356
 20
42.55592581203412
 30
0.0
 10
-1.572103222372817
 20
42.63994972876397
 30
0.0
 10
-3.132933383264827
 20
42.82621005132611
 30
0.0
 10
-4.683256491193021
 20
43.1261319992215
 30
0.0
 10
-6.143631919994476
 20
43.70049247305469
 30
0.0
 10
-7.54295755707804
 20
44.49198433915072
 30
0.0
 10
-8.378864148896895
 20
45.87005725001139
 30
0.0
 10
-8.688227354393945
 20
47.42246052288099
 30
0.0
 10
-8.866902773067324
 20
48.98330579385941
 30
0.0
 10
-8.964960148516099
 20
50.55359911008492
 30
0.0
 10
-9.0197166156141
 20
52.12517963001223
 30
0.0
 10
-9.009765380515631
 20
53.69779941462885
 30
0.0
 10
-8.925911703165553
 20
55.26983972403717
 30
0.0
 10
-8.74336779033277
 20
56.82809256144276
 30
0.0
 10
-8.47173356805692
 20
58.39354675933097
 30
0.0
 10
-7.563819654091361
 20
59.72683376677575
 30
0.0
 10
-6.2210804130697
 20
60.58954912076945
 30
0.0
 10
-4.703643027972277
 20
61.0353649464494
 30
0.0
 10
-3.144485147395898
 20
61.25421533044223
 30
0.0
 10
-1.572421837347434
 20
61.32110433484615
 30
0.0
 10
0.0000002670995229
 20
61.33642514550175
 30
0.0
 10
1.572420768949399
 20
61.3211043339447
 30
0.0
  0
SPLINE
  5
C1
330
1F
100
AcDbEntity
  8
Default
100
AcDbSpline
210
0.0
220
0.0
230
1.0
 70
     8
 71
     3
 72
    12
 73
     8
 74
     0
 42
0.0000000001
 43
0.0000000001
 40
-5.0
 40
-5.0
 40
-5.0
 40
-5.0
 40
-4.0
 40
-3.0
 40
-2.0
 40
-1.0
 40
0.0
 40
0.0
 40
0.0
 40
0.0
 10
0.0000000000000284
 20
69.79927563796558
 30
0.0
 10
-0.7433859196428045
 20
69.80531412235597
 30
0.0
 10
-2.229171760534115
 20
69.7531104773495
 30
0.0
 10
-4.450134504971487
 20
69.51320867561982
 30
0.0
 10
-6.62139600720954
 20
69.00580885167604
 30
0.0
 10
-8.767855580842166
 20
68.37104746411067
 30
0.0
 10
-10.01052377854253
 20
67.46707210977577
 30
0.0
 10
-10.25829184497573
 20
66.72895731490952
 30
0.0
  0
SPLINE
  5
C2
330
1F
100
AcDbEntity
  8
Default
100
AcDbSpline
210
0.0
220
0.0
230
1.0
 70
     8
 71
     3
 72
    12
 73
     8
 74
     0
 42
0.0000000001
 43
0.0000000001
 40
0.0
 40
0.0
 40
0.0
 40
0.0
 40
1.0
 40
2.0
 40
3.0
 40
4.0
 40
5.0
 40
5.0
 40
5.0
 40
5.0
 10
-8.827900292593284
 20
45.23292397573724
 30
0.0
 10
-9.67597807577917
 20
45.89545268569383
 30
0.0
 10
-11.16815206190958
 20
47.4777760119027
 30
0.0
 10
-12.65995117089827
 20
50.3700774497477
 30
0.0
 10
-13.50031686938817
 20
53.50161545112935
 30
0.0
 10
-13.71705409638255
 20
56.7409381808444
 30
0.0
 10
-13.35153509079763
 20
58.87727588763276
 30
0.0
 10
-13.0649331847325
 20
59.91365529769929
 30
0.0
  0
SPLINE
  5
C3
330
1F
100
AcDbEntity
  8
Default
100
AcDbSpline
210
0.0
220
0.0
230
1.0
 70
     8
 71
     3
 72
    13
 73
     9
 74
     0
 42
0.0000000001
 43
0.0000000001
 40
0.0
 40
0.0
 40
0.0
 40
0.0
 40
1.0
 40
2.0
 40
3.0
 40
4.0
 40
5.0
 40
6.0
 40
6.0
 40
6.0
 40
6.0
 10
14.84003022638447
 20
18.85837778417057
 30
0.0
 10
14.23670429918835
 20
18.12697579294334
 30
0.0
 10
12.99494645363598
 20
16.68678744934049
 30
0.0
 10
10.84942842324699
 20
14.81109147733079
 30
0.0
 10
8.446139612511217
 20
13.24696773430892
 30
0.0
 10
5.684520554540313
 20
12.46083275238077
 30
0.0
 10
2.845832940971945
 20
12.20164223701751
 30
0.0
 10
0.9487175012800719
 20
12.16312208638068
 30
0.0
 10
0.0000000000000284
 20
12.16405992833371
 30
0.0
  0
SPLINE
  5
C4
330
1F
100
AcDbEntity
  8
Default
100
AcDbSpline
210
0.0
220
0.0
230
1.0
 70
     8
 71
     3
 72
    13
 73
     9
 74
     0
 42
0.0000000001
 43
0.0000000001
 40
-6.0
 40
-6.0
 40
-6.0
 40
-6.0
 40
-5.0
 40
-4.0
 40
-3.0
 40
-2.0
 40
-1.0
 40
0.0
 40
0.0
 40
0.0
 40
0.0
 10
0.0000000000000284
 20
12.16405992833371
 30
0.0
 10
-0.9487175012800719
 20
12.16312208638068
 30
0.0
 10
-2.845832940971917
 20
12.20164223701751
 30
0.0
 10
-5.684520554540285
 20
12.46083275238077
 30
0.0
 10
-8.446139612511189
 20
13.24696773430892
 30
0.0
 10
-10.84942842324696
 20
14.81109147733079
 30
0.0
 10
-12.99494645363595
 20
16.68678744934049
 30
0.0
 10
-14.23670429918829
 20
18.12697579294334
 30
0.0
 10
-14.84003022638444
 20
18.85837778417057
 30
0.0
  0
SPLINE
  5
C5
330
1F
100
AcDbEntity
  8
Default
100
AcDbSpline
210
0.0
220
0.0
230
1.0
 70
     8
 71
     3
 72
    12
 73
     8
 74
     0
 42
0.0000000001
 43
0.0000000001
 40
0.0
 40
0.0
 40
0.0
 40
0.0
 40
1.0
 40
2.0
 40
3.0
 40
4.0
 40
5.0
 40
5.0
 40
5.0
 40
5.0
 10
8.542835924405324
 20
15.10343220932492
 30
0.0
 10
8.064876433265368
 20
15.45319454448651
 30
0.0
 10
6.912256224381252
 20
15.64176705562511
 30
0.0
 10
5.187456849912536
 20
15.70853676260866
 30
0.0
 10
3.45849125474129
 20
15.77453128860435
 30
0.0
 10
1.729345735805254
 20
15.79065343474502
 30
0.0
 10
0.5764323879099038
 20
15.79064070833742
 30
0.0
 10
0.0000000000000284
 20
15.78960053780699
 30
0.0
  0
SPLINE
  5
C6
330
1F
100
AcDbEntity
  8
Default
100
AcDbSpline
210
0.0
220
0.0
230
1.0
 70
     8
 71
     3
 72
    12
 73
     8
 74
     0
 42
0.0000000001
 43
0.0000000001
 40
-5.0
 40
-5.0
 40
-5.0
 40
-5.0
 40
-4.0
 40
-3.0
 40
-2.0
 40
-1.0
 40
0.0
 40
0.0
 40
0.0
 40
0.0
 10
0.0000000000000284
 20
15.78960053780699
 30
0.0
 10
-0.5764323879098754
 20
15.79064070833742
 30
0.0
 10
-1.729345735805254
 20
15.79065343474502
 30
0.0
 10
-3.45849125474129
 20
15.77453128860435
 30
0.0
 10
-5.187456849912536
 20
15.70853676260866
 30
0.0
 10
-6.912256224381252
 20
15.64176705562511
 30
0.0
 10
-8.064876433265368
 20
15.45319454448651
 30
0.0
 10
-8.542835924405296
 20
15.10343220932492
 30
0.0
  0
SPLINE
  5
C7
330
1F
100
AcDbEntity
  8
Default
100
AcDbSpline
210
0.0
220
0.0
230
1.0
 70
    11
 71
     3
 72
   111
 73
   107
 74
     0
 42
0.0000000001
 43
0.0000000001
 40
0.0
 40
0.0
 40
0.0
 40
0.0
 40
1.0
 40
2.0
 40
3.0
 40
4.0
 40
5.0
 40
6.0
 40
6.0
 40
6.0
 40
7.0
 40
8.0
 40
9.0
 40
10.0
 40
11.0
 40
12.0
 40
13.0
 40
14.0
 40
15.0
 40
16.0
 40
17.0
 40
18.0
 40
19.0
 40
20.0
 40
21.0
 40
22.0
 40
23.0
 40
24.0
 40
25.0
 40
26.0
 40
27.0
 40
28.0
 40
29.0
 40
30.0
 40
31.0
 40
32.0
 40
33.0
 40
34.0
 40
35.0
 40
36.0
 40
37.0
 40
38.0
 40
39.0
 40
40.0
 40
41.0
 40
42.0
 40
43.0
 40
44.0
 40
45.0
 40
46.0
 40
47.0
 40
48.0
 40
49.0
 40
50.0
 40
51.0
 40
52.0
 40
53.0
 40
53.0
 40
53.0
 40
54.0
 40
55.0
 40
56.0
 40
57.0
 40
58.0
 40
59.0
 40
60.0
 40
61.0
 40
62.0
 40
63.0
 40
64.0
 40
65.0
 40
66.0
 40
67.0
 40
68.0
 40
69.0
 40
70.0
 40
71.0
 40
72.0
 40
73.0
 40
74.0
 40
75.0
 40
76.0
 40
77.0
 40
78.0
 40
79.0
 40
80.0
 40
81.0
 40
82.0
 40
83.0
 40
84.0
 40
85.0
 40
86.0
 40
87.0
 40
88.0
 40
89.0
 40
90.0
 40
91.0
 40
92.0
 40
93.0
 40
94.0
 40
95.0
 40
96.0
 40
97.0
 40
98.0
 40
99.0
 40
100.0
 40
100.0
 40
100.0
 40
100.0
 10
8.582628398274807
 20
11.70697994876294
 30
0.0
 10
7.72642678852182
 20
11.18087167678544
 30
0.0
 10
5.936730880189373
 20
10.27850950533573
 30
0.0
 10
3.027397887003559
 20
9.725634831841198
 30
0.0
 10
0.0000000330514638
 20
9.646041993435233
 30
0.0
 10
-3.027398019209301
 20
9.725634871502919
 30
0.0
 10
-5.936730436680449
 20
10.27850934894855
 30
0.0
 10
-7.726426696700031
 20
11.18087160683862
 30
0.0
 10
-8.582628398274778
 20
11.70697994876294
 30
0.0
 10
-8.772363656126913
 20
11.82554141230499
 30
0.0
 10
-9.147039326139662
 20
12.07033965391049
 30
0.0
 10
-9.693714013871897
 20
12.4600054632218
 30
0.0
 10
-10.22413111922933
 20
12.87153132742267
 30
0.0
 10
-10.7373591495431
 20
13.30429340135444
 30
0.0
 10
-11.23350979362831
 20
13.7565272439613
 30
0.0
 10
-11.71061241200138
 20
14.22883576924914
 30
0.0
 10
-12.16804985284756
 20
14.72020994485985
 30
0.0
 10
-12.60460374457389
 20
15.23023780596164
 30
0.0
 10
-13.01902977841914
 20
15.75841535369808
 30
0.0
 10
-13.41027124697189
 20
16.3039703259673
 30
0.0
 10
-13.77830620809101
 20
16.86548547647612
 30
0.0
 10
-14.12232491405939
 20
17.44185049373903
 30
0.0
 10
-14.44482366412549
 20
18.03106238135378
 30
0.0
 10
-14.7466421897885
 20
18.62903017321868
 30
0.0
 10
-15.0414588374779
 20
19.23794448778702
 30
0.0
 10
-15.01112432931512
 20
19.93841654697042
 30
0.0
 10
-14.61259099797226
 20
20.52095148255634
 30
0.0
 10
-13.94603456874759
 20
20.70999633086315
 30
0.0
 10
-13.29326928420286
 20
20.87186971961518
 30
0.0
 10
-12.7460017401753
 20
21.27941234604161
 30
0.0
 10
-12.29490202463458
 20
21.77977971447986
 30
0.0
 10
-11.9721206959147
 20
22.37167102978167
 30
0.0
 10
-11.68271763611781
 20
22.97695730247487
 30
0.0
 10
-11.44802570862745
 20
23.60655260251623
 30
0.0
 10
-11.24786793226727
 20
24.24732774984061
 30
0.0
 10
-11.07819411403062
 20
24.89693043433604
 30
0.0
 10
-10.93758391942566
 20
25.55335009763031
 30
0.0
 10
-10.80434690246483
 20
26.21105432365934
 30
0.0
 10
-10.6750992413927
 20
26.87017931598758
 30
0.0
 10
-10.4931062216115
 20
27.51613151143845
 30
0.0
 10
-10.267482733419
 20
28.15083030355922
 30
0.0
 10
-9.895010215371911
 20
28.71782128160022
 30
0.0
 10
-9.343692574169665
 20
29.11731713703773
 30
0.0
 10
-8.720831680305537
 20
29.3762120117574
 30
0.0
 10
-8.054043037072432
 20
29.48151398267885
 30
0.0
 10
-7.382918238345979
 20
29.49681891408798
 30
0.0
 10
-6.711860089147393
 20
29.50946430651769
 30
0.0
 10
-6.040662319798884
 20
29.51449859363956
 30
0.0
 10
-5.369464662783884
 20
29.51429680535068
 30
0.0
 10
-4.698268667396803
 20
29.51200791763587
 30
0.0
 10
-4.027070313897553
 20
29.51042066851636
 30
0.0
 10
-3.355872525399917
 20
29.5130562842503
 30
0.0
 10
-2.684711546071867
 20
29.52041047874499
 30
0.0
 10
-2.013566799659628
 20
29.52886695237103
 30
0.0
 10
-1.342397272275264
 20
29.53538134452813
 30
0.0
 10
-0.6712000870149097
 20
29.53761184316365
 30
0.0
 10
-0.22373452945331
 20
29.53825916570393
 30
0.0
 10
0.0000000000000284
 20
29.53876648001334
 30
0.0
 10
0.2237345294533384
 20
29.53825916570393
 30
0.0
 10
0.6712000870149097
 20
29.53761184316365
 30
0.0
 10
1.342397272275292
 20
29.53538134452813
 30
0.0
 10
2.013566799659685
 20
29.52886695237103
 30
0.0
 10
2.684711546071895
 20
29.52041047874499
 30
0.0
 10
3.355872525399946
 20
29.5130562842503
 30
0.0
 10
4.027070313897553
 20
29.51042066851636
 30
0.0
 10
4.698268667396832
 20
29.51200791763587
 30
0.0
 10
5.369464662783912
 20
29.51429680535068
 30
0.0
 10
6.040662319798884
 20
29.51449859363956
 30
0.0
 10
6.71186008914745
 20
29.50946430651769
 30
0.0
 10
7.382918238346008
 20
29.49681891408798
 30
0.0
 10
8.05404303707246
 20
29.48151398267885
 30
0.0
 10
8.720831680305565
 20
29.3762120117574
 30
0.0
 10
9.343692574169694
 20
29.11731713703773
 30
0.0
 10
9.89501021537194
 20
28.71782128160022
 30
0.0
 10
10.26748273341903
 20
28.15083030355922
 30
0.0
 10
10.49310622161153
 20
27.51613151143845
 30
0.0
 10
10.67509924139273
 20
26.87017931598758
 30
0.0
 10
10.80434690246486
 20
26.21105432365934
 30
0.0
 10
10.93758391942569
 20
25.55335009763031
 30
0.0
 10
11.07819411403065
 20
24.89693043433604
 30
0.0
 10
11.24786793226733
 20
24.24732774984061
 30
0.0
 10
11.44802570862748
 20
23.60655260251623
 30
0.0
 10
11.68271763611781
 20
22.97695730247487
 30
0.0
 10
11.97212069591475
 20
22.37167102978167
 30
0.0
 10
12.29490202463464
 20
21.77977971447986
 30
0.0
 10
12.74600174017533
 20
21.27941234604161
 30
0.0
 10
13.29326928420286
 20
20.87186971961518
 30
0.0
 10
13.94603456874762
 20
20.70999633086315
 30
0.0
 10
14.61259099797229
 20
20.52095148255634
 30
0.0
 10
15.01112432931515
 20
19.93841654697042
 30
0.0
 10
15.04145883747796
 20
19.23794448778702
 30
0.0
 10
14.74664218978853
 20
18.62903017321868
 30
0.0
 10
14.44482366412555
 20
18.03106238135378
 30
0.0
 10
14.12232491405942
 20
17.44185049373903
 30
0.0
 10
13.77830620809104
 20
16.86548547647612
 30
0.0
 10
13.41027124697192
 20
16.3039703259673
 30
0.0
 10
13.0190297784192
 20
15.75841535369808
 30
0.0
 10
12.60460374457395
 20
15.23023780596164
 30
0.0
 10
12.16804985284759
 20
14.72020994485985
 30
0.0
 10
11.71061241200141
 20
14.22883576924914
 30
0.0
 10
11.23350979362831
 20
13.7565272439613
 30
0.0
 10
10.7373591495431
 20
13.30429340135444
 30
0.0
 10
10.22413111922936
 20
12.87153132742267
 30
0.0
 10
9.693714013871926
 20
12.4600054632218
 30
0.0
 10
9.14703932613972
 20
12.07033965391049
 30
0.0
 10
8.772363656126942
 20
11.82554141230499
 30
0.0
 10
8.582628398274807
 20
11.70697994876294
 30
0.0
  0
LINE
  5
C8
330
1F
100
AcDbEntity
  8
Default
100
AcDbLine
 10
41.78022454219135
 20
9.959839521141623
 30
0.0
 11
41.78022454219135
 21
6.503000000000002
 31
0.0
  0
SPLINE
  5
C9
330
1F
100
AcDbEntity
  8
Default
100
AcDbSpline
210
0.0
220
0.0
230
1.0
 70
    24
 71
     2
 72
     6
 73
     3
 74
     0
 42
0.0000000001
 43
0.0000000001
 40
-2.579999999999998
 40
-2.579999999999998
 40
-2.579999999999998
 40
0.0
 40
0.0
 40
0.0
 10
41.78022454219135
 20
6.503000000000002
 30
0.0
 10
40.49022454219136
 20
6.503000000000002
 30
0.0
 10
39.20022454219136
 20
6.503000000000002
 30
0.0
  0
LINE
  5
CA
330
1F
100
AcDbEntity
  8
Default
100
AcDbLine
 10
39.20022454219136
 20
6.503000000000002
 30
0.0
 11
39.20022454219136
 21
9.962934074071002
 31
0.0
  0
SPLINE
  5
CB
330
1F
100
AcDbEntity
  8
Default - Tangent
100
AcDbSpline
210
0.0
220
0.0
230
1.0
 70
    12
 71
     2
 72
     6
 73
     3
 74
     0
 42
0.0000000001
 43
0.0000000001
 40
0.0
 40
0.0
 40
0.0
 40
0.0276977634380368
 40
0.0276977634380368
 40
0.0276977634380368
 10
0.4923521324612068
 20
3.784896487667917
 30
0.0
 41
1.0
 10
0.493048596714028
 20
3.770987048242446
 30
0.0
 41
0.9916219010942138
 10
0.4901584403320101
 20
3.757363371658137
 30
0.0
 41
1.0
  0
SPLINE
  5
CC
330
1F
100
AcDbEntity
  8
Default
100
AcDbSpline
210
0.0
220
0.0
230
1.0
 70
     8
 71
     3
 72
    13
 73
     9
 74
     0
 42
0.0000000001
 43
0.0000000001
 40
-6.0
 40
-6.0
 40
-6.0
 40
-6.0
 40
-5.0
 40
-4.0
 40
-3.0
 40
-2.0
 40
-1.0
 40
0.0
 40
0.0
 40
0.0
 40
0.0
 10
-10.5564028567147
 20
17.45836613417585
 30
0.0
 10
-10.16725934581976
 20
16.92316750090831
 30
0.0
 10
-9.497553653268596
 20
15.74811505198052
 30
0.0
 10
-7.845544445243064
 20
14.56267782258732
 30
0.0
 10
-5.969020014820956
 20
13.8684475730176
 30
0.0
 10
-3.986042293352767
 20
13.58960488999642
 30
0.0
 10
-1.993617152111568
 20
13.52581076392845
 30
0.0
 10
-0.6644651943259987
 20
13.52276957850837
 30
0.0
 10
0.0000000000000284
 20
13.52365136297595
 30
0.0
  0
SPLINE
  5
CD
330
1F
100
AcDbEntity
  8
Default
100
AcDbSpline
210
0.0
220
0.0
230
1.0
 70
     8
 71
     3
 72
    13
 73
     9
 74
     0
 42
0.0000000001
 43
0.0000000001
 40
0.0
 40
0.0
 40
0.0
 40
0.0
 40
1.0
 40
2.0
 40
3.0
 40
4.0
 40
5.0
 40
6.0
 40
6.0
 40
6.0
 40
6.0
 10
0.0000000000000284
 20
13.52365136297595
 30
0.0
 10
0.6644651943260271
 20
13.52276957850837
 30
0.0
 10
1.993617152111597
 20
13.52581076392845
 30
0.0
 10
3.986042293352767
 20
13.58960488999642
 30
0.0
 10
5.969020014820984
 20
13.8684475730176
 30
0.0
 10
7.845544445243064
 20
14.56267782258732
 30
0.0
 10
9.497553653268625
 20
15.74811505198052
 30
0.0
 10
10.16725934581979
 20
16.92316750090831
 30
0.0
 10
10.55640285671475
 20
17.45836613417585
 30
0.0
  0
SPLINE
  5
CE
330
1F
100
AcDbEntity
  8
Default
100
AcDbSpline
210
0.0
220
0.0
230
1.0
 70
     8
 71
     2
 72
     7
 73
     4
 74
     0
 42
0.0000000001
 43
0.0000000001
 40
-2.112820146863387
 40
-2.112820146863387
 40
-2.112820146863387
 40
0.0
 40
10.36850216633574
 40
10.36850216633574
 40
10.36850216633574
 10
-0.4852873050981827
 20
3.70091115472393
 30
0.0
 10
-1.533375166759726
 20
3.655344771851874
 30
0.0
 10
-7.718976483947984
 20
2.826461456234592
 30
0.0
 10
-12.85103909141668
 20
2.085853658713474
 30
0.0
  0
SPLINE
  5
CF
330
1F
100
AcDbEntity
  8
Default
100
AcDbSpline
210
0.0
220
0.0
230
1.0
 70
     8
 71
     3
 72
    14
 73
    10
 74
     0
 42
0.0000000001
 43
0.0000000001
 40
10.36850216633574
 40
10.36850216633574
 40
10.36850216633574
 40
10.36850216633574
 40
10.48392831467684
 40
10.61101647346049
 40
10.85569685307349
 40
10.94889229604513
 40
11.02462537061439
 40
11.10618719586826
 40
12.20116650812062
 40
12.20116650812062
 40
12.20116650812062
 40
12.20116650812062
 10
-12.85103909141668
 20
2.085853658713474
 30
0.0
 10
-12.88993679415756
 20
2.080240332423644
 30
0.0
 10
-12.96880412818101
 20
2.056781907874129
 30
0.0
 10
-13.10489928496
 20
1.966156733401164
 30
0.0
 10
-13.18744281017101
 20
1.825311740574662
 30
0.0
 10
-13.19831737641883
 20
1.687141830407011
 30
0.0
 10
-13.19851852435195
 20
1.603723456635179
 30
0.0
 10
-13.20792318288198
 20
1.186363164752624
 30
0.0
 10
-13.21552546064984
 20
0.7942933853839997
 30
0.0
 10
-13.22338474200185
 20
0.4293717115611809
 30
0.0
  0
SPLINE
  5
D0
330
1F
100
AcDbEntity
  8
Default
100
AcDbSpline
210
0.0
220
0.0
230
1.0
 70
    12
 71
     2
 72
     6
 73
     3
 74
     0
 42
0.0000000001
 43
0.0000000001
 40
0.0
 40
0.0
 40
0.0
 40
0.0328025700600773
 40
0.0328025700600773
 40
0.0328025700600773
 10
-13.22338474200185
 20
0.4293717115611809
 30
0.0
 41
1.0
 10
-13.22376711013514
 20
0.4111181083220299
 30
0.0
 41
0.8542398056055149
 10
-13.24015569422971
 20
0.4030710872597238
 30
0.0
 41
1.0
  0
POLYLINE
  5
D1
330
1F
100
AcDbEntity
  8
Default
100
AcDb2dPolyline
 66
     1
 10
0.0
 20
0.0
 30
0.0
  0
VERTEX
  5
D2
330
D1
100
AcDbEntity
  8
Default
100
AcDbVertex
100
AcDb2dVertex
 10
-13.24015569422971
 20
0.4030710872597238
 30
0.0
  0
VERTEX
  5
D3
330
D1
100
AcDbEntity
  8
Default
100
AcDbVertex
100
AcDb2dVertex
 10
-14.61392597212242
 20
0.4015944354498296
 30
0.0
  0
SEQEND
  5
D4
330
D1
100
AcDbEntity
  8
Default
  0
SPLINE
  5
D5
330
1F
100
AcDbEntity
  8
Default
100
AcDbSpline
210
0.0
220
0.0
230
1.0
 70
    12
 71
     2
 72
     6
 73
     3
 74
     0
 42
0.0000000001
 43
0.0000000001
 40
-0.0389746357819461
 40
-0.0389746357819461
 40
-0.0389746357819461
 40
0.0
 40
0.0
 40
0.0
 10
-14.61392597212242
 20
0.4015944354498296
 30
0.0
 41
1.0
 10
-14.63550106568464
 20
0.4089240281822228
 30
0.0
 41
0.7963395613957778
 10
-14.63422391009894
 20
0.4317678748060569
 30
0.0
 41
1.0
  0
SPLINE
  5
D6
330
1F
100
AcDbEntity
  8
Default
100
AcDbSpline
210
0.0
220
0.0
230
1.0
 70
     8
 71
     3
 72
    12
 73
     8
 74
     0
 42
0.0000000001
 43
0.0000000001
 40
0.0
 40
0.0
 40
0.0
 40
0.0
 40
2.02509803859557
 40
2.121481653565311
 40
2.208270161634103
 40
2.642265590548921
 40
3.0858126895768
 40
3.0858126895768
 40
3.0858126895768
 40
3.0858126895768
 10
-14.63422391009894
 20
0.4317678748060569
 30
0.0
 10
-14.59576901855516
 20
1.10581410256726
 30
0.0
 10
-14.55811249458455
 20
1.811932359792708
 30
0.0
 10
-14.51542090765955
 20
2.546824012142999
 30
0.0
 10
-14.46998608842776
 20
2.748295505813291
 30
0.0
 10
-14.30117307995246
 20
3.03468134273648
 30
0.0
 10
-14.03031619629334
 20
3.175829891605608
 30
0.0
 10
-13.88599999999994
 20
3.205665827232833
 30
0.0
  0
SPLINE
  5
D7
330
1F
100
AcDbEntity
  8
Default
100
AcDbSpline
210
0.0
220
0.0
230
1.0
 70
    24
 71
     2
 72
     6
 73
     3
 74
     0
 42
0.0000000001
 43
0.0000000001
 40
-12.29027095712029
 40
-12.29027095712029
 40
-12.29027095712029
 40
0.0
 40
0.0
 40
0.0
 10
-13.88599999999994
 20
3.205665827232833
 30
0.0
 10
-7.867999999999967
 20
4.449195501128345
 30
0.0
 10
-1.849999999999937
 20
5.692725175023857
 30
0.0
  0
SPLINE
  5
D8
330
1F
100
AcDbEntity
  8
Default
100
AcDbSpline
210
0.0
220
0.0
230
1.0
 70
     8
 71
     3
 72
    11
 73
     7
 74
     0
 42
0.0000000001
 43
0.0000000001
 40
29.02279843217129
 40
29.02279843217129
 40
29.02279843217129
 40
29.02279843217129
 40
29.27279843217141
 40
29.52279843217158
 40
29.77279843217175
 40
30.00957021186727
 40
30.00957021186727
 40
30.00957021186727
 40
30.00957021186727
 10
-1.849999999999937
 20
5.692725175023857
 30
0.0
 10
-1.777532259027794
 20
5.70769954961662
 30
0.0
 10
-1.635884798349906
 20
5.77196445074997
 30
0.0
 10
-1.455036746424923
 20
5.941965920377478
 30
0.0
 10
-1.329819103791436
 20
6.152448109995484
 30
0.0
 10
-1.294568701792514
 20
6.300934325093533
 30
0.0
 10
-1.291736537951948
 20
6.371234909639895
 30
0.0
  0
LINE
  5
D9
330
1F
100
AcDbEntity
  8
Default
100
AcDbLine
 10
-1.291736537951948
 20
6.371234909639895
 30
0.0
 11
-1.28804186870704
 21
6.462944790227148
 31
0.0
  0
POLYLINE
  5
DA
330
1F
100
AcDbEntity
  8
Default
100
AcDb2dPolyline
 66
     1
 10
0.0
 20
0.0
 30
0.0
  0
VERTEX
  5
DB
330
DA
100
AcDbEntity
  8
Default
100
AcDbVertex
100
AcDb2dVertex
 10
-1.28804186870704
 20
6.462944790227148
 30
0.0
  0
VERTEX
  5
DC
330
DA
100
AcDbEntity
  8
Default
100
AcDbVertex
100
AcDb2dVertex
 10
1.288041868707097
 20
6.462944790227148
 30
0.0
  0
SEQEND
  5
DD
330
DA
100
AcDbEntity
  8
Default
  0
LINE
  5
DE
330
1F
100
AcDbEntity
  8
Default
100
AcDbLine
 10
1.288041868707097
 20
6.462944790227148
 30
0.0
 11
1.291736537951977
 21
6.371234909639895
 31
0.0
  0
SPLINE
  5
DF
330
1F
100
AcDbEntity
  8
Default
100
AcDbSpline
210
0.0
220
0.0
230
1.0
 70
     8
 71
     3
 72
    11
 73
     7
 74
     0
 42
0.0000000001
 43
0.0000000001
 40
-30.00957021186727
 40
-30.00957021186727
 40
-30.00957021186727
 40
-30.00957021186727
 40
-29.77279843217175
 40
-29.52279843217158
 40
-29.27279843217141
 40
-29.02279843217129
 40
-29.02279843217129
 40
-29.02279843217129
 40
-29.02279843217129
 10
1.291736537951977
 20
6.371234909639895
 30
0.0
 10
1.294568701792542
 20
6.300934325093533
 30
0.0
 10
1.329819103791493
 20
6.152448109995484
 30
0.0
 10
1.455036746424952
 20
5.941965920377478
 30
0.0
 10
1.635884798349963
 20
5.77196445074997
 30
0.0
 10
1.777532259027822
 20
5.70769954961662
 30
0.0
 10
1.849999999999994
 20
5.692725175023857
 30
0.0
  0
SPLINE
  5
E0
330
1F
100
AcDbEntity
  8
Default
100
AcDbSpline
210
0.0
220
0.0
230
1.0
 70
    24
 71
     2
 72
     6
 73
     3
 74
     0
 42
0.0000000001
 43
0.0000000001
 40
0.0
 40
0.0
 40
0.0
 40
12.29027095712029
 40
12.29027095712029
 40
12.29027095712029
 10
1.849999999999994
 20
5.692725175023857
 30
0.0
 10
7.867999999999967
 20
4.449195501128345
 30
0.0
 10
13.886
 20
3.205665827232833
 30
0.0
  0
SPLINE
  5
E1
330
1F
100
AcDbEntity
  8
Default
100
AcDbSpline
210
0.0
220
0.0
230
1.0
 70
     8
 71
     3
 72
    12
 73
     8
 74
     0
 42
0.0000000001
 43
0.0000000001
 40
-3.0858126895768
 40
-3.0858126895768
 40
-3.0858126895768
 40
-3.0858126895768
 40
-2.642265590548921
 40
-2.208270161634103
 40
-2.121481653565311
 40
-2.02509803859557
 40
0.0
 40
0.0
 40
0.0
 40
0.0
 10
13.886
 20
3.205665827232833
 30
0.0
 10
14.03031619629334
 20
3.175829891605608
 30
0.0
 10
14.30117307995249
 20
3.03468134273648
 30
0.0
 10
14.46998608842779
 20
2.748295505813291
 30
0.0
 10
14.51542090765955
 20
2.546824012142999
 30
0.0
 10
14.55811249458455
 20
1.811932359792708
 30
0.0
 10
14.59576901855519
 20
1.10581410256726
 30
0.0
 10
14.634223910099
 20
0.4317678748060569
 30
0.0
  0
SPLINE
  5
E2
330
1F
100
AcDbEntity
  8
Default
100
AcDbSpline
210
0.0
220
0.0
230
1.0
 70
    12
 71
     2
 72
     6
 73
     3
 74
     0
 42
0.0000000001
 43
0.0000000001
 40
0.0
 40
0.0
 40
0.0
 40
0.0389746357819461
 40
0.0389746357819461
 40
0.0389746357819461
 10
14.634223910099
 20
0.4317678748060569
 30
0.0
 41
1.0
 10
14.63550106568468
 20
0.4089240281822228
 30
0.0
 41
0.7963395613957778
 10
14.61392597212247
 20
0.4015944354498296
 30
0.0
 41
1.0
  0
POLYLINE
  5
E3
330
1F
100
AcDbEntity
  8
Default
100
AcDb2dPolyline
 66
     1
 10
0.0
 20
0.0
 30
0.0
  0
VERTEX
  5
E4
330
E3
100
AcDbEntity
  8
Default
100
AcDbVertex
100
AcDb2dVertex
 10
14.61392597212247
 20
0.4015944354498296
 30
0.0
  0
VERTEX
  5
E5
330
E3
100
AcDbEntity
  8
Default
100
AcDbVertex
100
AcDb2dVertex
 10
13.24015569422974
 20
0.4030710872597238
 30
0.0
  0
SEQEND
  5
E6
330
E3
100
AcDbEntity
  8
Default
  0
SPLINE
  5
E7
330
1F
100
AcDbEntity
  8
Default
100
AcDbSpline
210
0.0
220
0.0
230
1.0
 70
    12
 71
     2
 72
     6
 73
     3
 74
     0
 42
0.0000000001
 43
0.0000000001
 40
-0.0328025700600773
 40
-0.0328025700600773
 40
-0.0328025700600773
 40
0.0
 40
0.0
 40
0.0
 10
13.24015569422974
 20
0.4030710872597238
 30
0.0
 41
1.0
 10
13.22376711013519
 20
0.4111181083220299
 30
0.0
 41
0.8542398056055149
 10
13.22338474200185
 20
0.4293717115611809
 30
0.0
 41
1.0
  0
SPLINE
  5
E8
330
1F
100
AcDbEntity
  8
Default
100
AcDbSpline
210
0.0
220
0.0
230
1.0
 70
     8
 71
     3
 72
    14
 73
    10
 74
     0
 42
0.0000000001
 43
0.0000000001
 40
-12.20116650812062
 40
-12.20116650812062
 40
-12.20116650812062
 40
-12.20116650812062
 40
-11.10618719586826
 40
-11.02462537061439
 40
-10.94889229604513
 40
-10.85569685307349
 40
-10.61101647346049
 40
-10.48392831467684
 40
-10.36850216633574
 40
-10.36850216633574
 40
-10.36850216633574
 40
-10.36850216633574
 10
13.22338474200185
 20
0.4293717115611809
 30
0.0
 10
13.2155254606499
 20
0.7942933853839997
 30
0.0
 10
13.20792318288201
 20
1.186363164752624
 30
0.0
 10
13.19851852435198
 20
1.603723456635179
 30
0.0
 10
13.19831737641883
 20
1.687141830407011
 30
0.0
 10
13.18744281017106
 20
1.825311740574662
 30
0.0
 10
13.10489928496006
 20
1.966156733401164
 30
0.0
 10
12.96880412818106
 20
2.056781907874129
 30
0.0
 10
12.88993679415759
 20
2.080240332423644
 30
0.0
 10
12.85103909141671
 20
2.085853658713474
 30
0.0
  0
SPLINE
  5
E9
330
1F
100
AcDbEntity
  8
Default
100
AcDbSpline
210
0.0
220
0.0
230
1.0
 70
     8
 71
     2
 72
     7
 73
     4
 74
     0
 42
0.0000000001
 43
0.0000000001
 40
-10.36850216633574
 40
-10.36850216633574
 40
-10.36850216633574
 40
0.0
 40
2.112820146863387
 40
2.112820146863387
 40
2.112820146863387
 10
12.85103909141671
 20
2.085853658713474
 30
0.0
 10
7.718976483948012
 20
2.826461456234592
 30
0.0
 10
1.533375166759754
 20
3.655344771851874
 30
0.0
 10
0.4852873050982396
 20
3.70091115472393
 30
0.0
  0
ENDSEC
  0
SECTION
  2
OBJECTS
  0
DICTIONARY
  5
C
330
0
100
AcDbDictionary
281
     1
  3
ACAD_GROUP
350
D
  3
ACAD_LAYOUT
350
1A
  3
ACAD_MLEADERSTYLE
350
EB
  3
ACAD_MLINESTYLE
350
17
  3
ACAD_PLOTSETTINGS
350
19
  3
ACAD_PLOTSTYLENAME
350
E
  3
ACAD_TABLESTYLE
350
EA
  3
ACAD_VISUALSTYLE
350
2A
  0
DICTIONARY
  5
D
102
{ACAD_REACTORS
330
C
102
}
330
C
100
AcDbDictionary
281
     1
  0
DICTIONARY
  5
1A
102
{ACAD_REACTORS
330
C
102
}
330
C
100
AcDbDictionary
281
     1
  3
Layout1
350
1E
  3
Layout2
350
26
  3
Model
350
22
  0
DICTIONARY
  5
EB
102
{ACAD_REACTORS
330
C
102
}
330
C
100
AcDbDictionary
281
     1
  0
DICTIONARY
  5
17
102
{ACAD_REACTORS
330
C
102
}
330
C
100
AcDbDictionary
281
     1
  3
Standard
350
18
  0
DICTIONARY
  5
19
102
{ACAD_REACTORS
330
C
102
}
330
C
100
AcDbDictionary
281
     1
  0
ACDBDICTIONARYWDFLT
  5
E
102
{ACAD_REACTORS
330
C
102
}
330
C
100
AcDbDictionary
281
     1
  3
Normal
350
F
100
AcDbDictionaryWithDefault
340
F
  0
DICTIONARY
  5
EA
102
{ACAD_REACTORS
330
C
102
}
330
C
100
AcDbDictionary
281
     1
  0
DICTIONARY
  5
2A
102
{ACAD_REACTORS
330
C
102
}
330
C
100
AcDbDictionary
281
     1
  3
2dWireframe
350
2F
  3
3D Hidden
350
31
  3
3dWireframe
350
30
  3
Basic
350
32
  3
Brighten
350
36
  3
ColorChange
350
3A
  3
Conceptual
350
34
  3
Dim
350
35
  3
Facepattern
350
39
  3
Flat
350
2B
  3
FlatWithEdges
350
2C
  3
Gouraud
350
2D
  3
GouraudWithEdges
350
2E
  3
Linepattern
350
38
  3
Realistic
350
33
  3
Thicken
350
37
  0
LAYOUT
  5
1E
102
{ACAD_REACTORS
330
1A
102
}
330
1A
100
AcDbPlotSettings
  1

  2
none_device
  4

  6

 40
0.0
 41
0.0
 42
0.0
 43
0.0
 44
0.0
 45
0.0
 46
0.0
 47
0.0
 48
0.0
 49
0.0
140
0.0
141
0.0
142
1.0
143
1.0
 70
   688
 72
     0
 73
     0
 74
     5
  7

 75
    16
 76
     0
 77
     2
 78
   300
147
1.0
148
0.0
149
0.0
100
AcDbLayout
  1
Layout1
 70
     1
 71
     1
 10
0.0
 20
0.0
 11
12.0
 21
9.0
 12
0.0
 22
0.0
 32
0.0
 14
1.000000000000000E+20
 24
1.000000000000000E+20
 34
1.000000000000000E+20
 15
-1.000000000000000E+20
 25
-1.000000000000000E+20
 35
-1.000000000000000E+20
146
0.0
 13
0.0
 23
0.0
 33
0.0
 16
1.0
 26
0.0
 36
0.0
 17
0.0
 27
1.0
 37
0.0
 76
     0
330
1B
  0
LAYOUT
  5
26
102
{ACAD_REACTORS
330
1A
102
}
330
1A
100
AcDbPlotSettings
  1

  2
none_device
  4

  6

 40
0.0
 41
0.0
 42
0.0
 43
0.0
 44
0.0
 45
0.0
 46
0.0
 47
0.0
 48
0.0
 49
0.0
140
0.0
141
0.0
142
1.0
143
1.0
 70
   688
 72
     0
 73
     0
 74
     5
  7

 75
    16
 76
     0
 77
     2
 78
   300
147
1.0
148
0.0
149
0.0
100
AcDbLayout
  1
Layout2
 70
     1
 71
     2
 10
0.0
 20
0.0
 11
0.0
 21
0.0
 12
0.0
 22
0.0
 32
0.0
 14
0.0
 24
0.0
 34
0.0
 15
0.0
 25
0.0
 35
0.0
146
0.0
 13
0.0
 23
0.0
 33
0.0
 16
1.0
 26
0.0
 36
0.0
 17
0.0
 27
1.0
 37
0.0
 76
     0
330
23
  0
LAYOUT
  5
22
102
{ACAD_REACTORS
330
1A
102
}
330
1A
100
AcDbPlotSettings
  1

  2
none_device
  4

  6

 40
0.0
 41
0.0
 42
0.0
 43
0.0
 44
0.0
 45
0.0
 46
0.0
 47
0.0
 48
0.0
 49
0.0
140
0.0
141
0.0
142
1.0
143
1.0
 70
  1712
 72
     0
 73
     0
 74
     0
  7

 75
     0
 76
     0
 77
     2
 78
   300
147
1.0
148
0.0
149
0.0
100
AcDbLayout
  1
Model
 70
     1
 71
     0
 10
0.0
 20
0.0
 11
12.0
 21
9.0
 12
0.0
 22
0.0
 32
0.0
 14
-15.00190568170765
 24
0.0000000000000009
 34
0.0
 15
56.05099917070888
 25
71.68426288798452
 35
0.0
146
0.0
 13
0.0
 23
0.0
 33
0.0
 16
1.0
 26
0.0
 36
0.0
 17
0.0
 27
1.0
 37
0.0
 76
     0
330
1F
331
29
  0
MLINESTYLE
  5
18
102
{ACAD_REACTORS
330
17
102
}
330
17
100
AcDbMlineStyle
  2
Standard
 70
     0
  3

 62
   256
 51
90.0
 52
90.0
 71
     2
 49
0.5
 62
   256
  6
BYLAYER
 49
-0.5
 62
   256
  6
BYLAYER
  0
ACDBPLACEHOLDER
  5
F
102
{ACAD_REACTORS
330
E
102
}
330
E
  0
VISUALSTYLE
  5
2F
102
{ACAD_REACTORS
330
2A
102
}
330
2A
100
AcDbVisualStyle
  2
2dWireframe
 70
     4
 71
     0
 72
     2
 73
     0
 90
        0
 40
-0.6
 41
-30.0
 62
     5
 63
     7
421
 16777215
 74
     1
 91
        4
 64
     7
 65
   257
 75
     1
175
     1
 42
1.0
 92
        0
 66
   257
 43
1.0
 76
     1
 77
     6
 78
     2
 67
     7
 79
     5
170
     0
171
     0
290
     0
174
     0
 93
        1
 44
0.0
173
     0
291
     0
 45
0.0
1001
ACAD
1000
AcDbSavedByObjectVersion
1070
     0
  0
VISUALSTYLE
  5
31
102
{ACAD_REACTORS
330
2A
102
}
330
2A
100
AcDbVisualStyle
  2
3D Hidden
 70
     6
 71
     1
 72
     2
 73
     2
 90
        0
 40
-0.6
 41
-30.0
 62
     5
 63
     7
421
 16777215
 74
     2
 91
        2
 64
     7
 65
   257
 75
     2
175
     1
 42
40.0
 92
        0
 66
   257
 43
1.0
 76
     1
 77
     6
 78
     2
 67
     7
 79
     3
170
     0
171
     0
290
     0
174
     0
 93
        1
 44
0.0
173
     0
291
     0
 45
0.0
1001
ACAD
1000
AcDbSavedByObjectVersion
1070
     0
  0
VISUALSTYLE
  5
30
102
{ACAD_REACTORS
330
2A
102
}
330
2A
100
AcDbVisualStyle
  2
3dWireframe
 70
     5
 71
     0
 72
     2
 73
     0
 90
        0
 40
-0.6
 41
-30.0
 62
     5
 63
     7
421
 16777215
 74
     1
 91
        4
 64
     7
 65
   257
 75
     1
175
     1
 42
1.0
 92
        0
 66
   257
 43
1.0
 76
     1
 77
     6
 78
     2
 67
     7
 79
     5
170
     0
171
     0
290
     0
174
     0
 93
        1
 44
0.0
173
     0
291
     0
 45
0.0
1001
ACAD
1000
AcDbSavedByObjectVersion
1070
     0
  0
VISUALSTYLE
  5
32
102
{ACAD_REACTORS
330
2A
102
}
330
2A
100
AcDbVisualStyle
  2
Basic
 70
     7
 71
     1
 72
     0
 73
     1
 90
        0
 40
-0.6
 41
-30.0
 62
     5
 63
     7
421
 16777215
 74
     0
 91
        4
 64
     7
 65
   257
 75
     1
175
     1
 42
1.0
 92
        8
 66
     7
 43
1.0
 76
     1
 77
     6
 78
     2
 67
     7
 79
     5
170
     0
171
     0
290
     0
174
     0
 93
        1
 44
0.0
173
     0
291
     1
 45
0.0
1001
ACAD
1000
AcDbSavedByObjectVersion
1070
     0
  0
VISUALSTYLE
  5
36
102
{ACAD_REACTORS
330
2A
102
}
330
2A
100
AcDbVisualStyle
  2
Brighten
 70
    12
 71
     2
 72
     2
 73
     0
 90
        0
 40
-0.6
 41
-30.0
 62
     5
 63
     7
421
 16777215
 74
     1
 91
        4
 64
     7
 65
   257
 75
     1
175
     1
 42
1.0
 92
        8
 66
     7
 43
1.0
 76
     1
 77
     6
 78
     2
 67
     7
 79
     5
170
     0
171
     0
290
     0
174
     0
 93
        1
 44
50.0
173
     0
291
     1
 45
0.0
1001
ACAD
1000
AcDbSavedByObjectVersion
1070
     0
  0
VISUALSTYLE
  5
3A
102
{ACAD_REACTORS
330
2A
102
}
330
2A
100
AcDbVisualStyle
  2
ColorChange
 70
    16
 71
     2
 72
     2
 73
     3
 90
        0
 40
-0.6
 41
-30.0
 62
     5
 63
     8
421
  8421504
 74
     1
 91
        4
 64
     7
 65
   257
 75
     1
175
     1
 42
1.0
 92
        8
 66
     8
424
  8421504
 43
1.0
 76
     1
 77
     6
 78
     2
 67
     7
 79
     5
170
     0
171
     0
290
     0
174
     0
 93
        1
 44
0.0
173
     0
291
     1
 45
0.0
1001
ACAD
1000
AcDbSavedByObjectVersion
1070
     0
  0
VISUALSTYLE
  5
34
102
{ACAD_REACTORS
330
2A
102
}
330
2A
100
AcDbVisualStyle
  2
Conceptual
 70
     9
 71
     3
 72
     2
 73
     0
 90
        0
 40
-0.6
 41
-30.0
 62
     5
 63
     7
421
 16777215
 74
     2
 91
        2
 64
     7
 65
   257
 75
     1
175
     1
 42
40.0
 92
        8
 66
     7
 43
1.0
 76
     1
 77
     6
 78
     2
 67
     7
 79
     3
170
     0
171
     0
290
     0
174
     0
 93
        1
 44
0.0
173
     0
291
     0
 45
0.0
1001
ACAD
1000
AcDbSavedByObjectVersion
1070
     0
  0
VISUALSTYLE
  5
35
102
{ACAD_REACTORS
330
2A
102
}
330
2A
100
AcDbVisualStyle
  2
Dim
 70
    11
 71
     2
 72
     2
 73
     0
 90
        0
 40
-0.6
 41
-30.0
 62
     5
 63
     7
421
 16777215
 74
     1
 91
        4
 64
     7
 65
   257
 75
     1
175
     1
 42
1.0
 92
        8
 66
     7
 43
1.0
 76
     1
 77
     6
 78
     2
 67
     7
 79
     5
170
     0
171
     0
290
     0
174
     0
 93
        1
 44
-50.0
173
     0
291
     1
 45
0.0
1001
ACAD
1000
AcDbSavedByObjectVersion
1070
     0
  0
VISUALSTYLE
  5
39
102
{ACAD_REACTORS
330
2A
102
}
330
2A
100
AcDbVisualStyle
  2
Facepattern
 70
    15
 71
     2
 72
     2
 73
     0
 90
        0
 40
-0.6
 41
-30.0
 62
     5
 63
     7
421
 16777215
 74
     1
 91
        4
 64
     7
 65
   257
 75
     1
175
     1
 42
1.0
 92
        8
 66
     7
 43
1.0
 76
     1
 77
     6
 78
     2
 67
     7
 79
     5
170
     0
171
     0
290
     0
174
     0
 93
        1
 44
0.0
173
     0
291
     1
 45
0.0
1001
ACAD
1000
AcDbSavedByObjectVersion
1070
     0
  0
VISUALSTYLE
  5
2B
102
{ACAD_REACTORS
330
2A
102
}
330
2A
100
AcDbVisualStyle
  2
Flat
 70
     0
 71
     2
 72
     1
 73
     1
 90
        2
 40
-0.6
 41
30.0
 62
     5
 63
     7
421
 16777215
 74
     0
 91
        4
 64
     7
 65
   257
 75
     1
175
     1
 42
1.0
 92
        8
 66
     7
 43
1.0
 76
     1
 77
     6
 78
     2
 67
     7
 79
     5
170
     0
171
     0
290
     0
174
     0
 93
       13
 44
0.0
173
     0
291
     1
 45
0.0
1001
ACAD
1000
AcDbSavedByObjectVersion
1070
     0
  0
VISUALSTYLE
  5
2C
102
{ACAD_REACTORS
330
2A
102
}
330
2A
100
AcDbVisualStyle
  2
FlatWithEdges
 70
     1
 71
     2
 72
     1
 73
     1
 90
        2
 40
-0.6
 41
30.0
 62
     5
 63
     7
421
 16777215
 74
     1
 91
        4
 64
     7
 65
   257
 75
     1
175
     1
 42
1.0
 92
        0
 66
   257
 43
1.0
 76
     1
 77
     6
 78
     2
 67
     7
 79
     5
170
     0
171
     0
290
     0
174
     0
 93
       13
 44
0.0
173
     0
291
     1
 45
0.0
1001
ACAD
1000
AcDbSavedByObjectVersion
1070
     0
  0
VISUALSTYLE
  5
2D
102
{ACAD_REACTORS
330
2A
102
}
330
2A
100
AcDbVisualStyle
  2
Gouraud
 70
     2
 71
     2
 72
     2
 73
     1
 90
        2
 40
-0.6
 41
30.0
 62
     5
 63
     7
421
 16777215
 74
     0
 91
        4
 64
     7
 65
   257
 75
     1
175
     1
 42
1.0
 92
        0
 66
     7
 43
1.0
 76
     1
 77
     6
 78
     2
 67
     7
 79
     5
170
     0
171
     0
290
     0
174
     0
 93
       13
 44
0.0
173
     0
291
     1
 45
0.0
1001
ACAD
1000
AcDbSavedByObjectVersion
1070
     0
  0
VISUALSTYLE
  5
2E
102
{ACAD_REACTORS
330
2A
102
}
330
2A
100
AcDbVisualStyle
  2
GouraudWithEdges
 70
     3
 71
     2
 72
     2
 73
     1
 90
        2
 40
-0.6
 41
30.0
 62
     5
 63
     7
421
 16777215
 74
     1
 91
        4
 64
     7
 65
   257
 75
     1
175
     1
 42
1.0
 92
        0
 66
   257
 43
1.0
 76
     1
 77
     6
 78
     2
 67
     7
 79
     5
170
     0
171
     0
290
     0
174
     0
 93
       13
 44
0.0
173
     0
291
     1
 45
0.0
1001
ACAD
1000
AcDbSavedByObjectVersion
1070
     0
  0
VISUALSTYLE
  5
38
102
{ACAD_REACTORS
330
2A
102
}
330
2A
100
AcDbVisualStyle
  2
Linepattern
 70
    14
 71
     2
 72
     2
 73
     0
 90
        0
 40
-0.6
 41
-30.0
 62
     5
 63
     7
421
 16777215
 74
     1
 91
        4
 64
     7
 65
   257
 75
     7
175
     7
 42
1.0
 92
        8
 66
     7
 43
1.0
 76
     1
 77
     6
 78
     2
 67
     7
 79
     5
170
     0
171
     0
290
     0
174
     0
 93
        1
 44
0.0
173
     0
291
     1
 45
0.0
1001
ACAD
1000
AcDbSavedByObjectVersion
1070
     0
  0
VISUALSTYLE
  5
33
102
{ACAD_REACTORS
330
2A
102
}
330
2A
100
AcDbVisualStyle
  2
Realistic
 70
     8
 71
     2
 72
     2
 73
     0
 90
        0
 40
-0.6
 41
-30.0
 62
     5
 63
     7
421
 16777215
 74
     1
 91
        0
 64
     7
 65
   257
 75
     1
175
     1
 42
1.0
 92
        8
 66
     8
424
  7895160
 43
1.0
 76
     1
 77
     6
 78
     2
 67
     7
 79
     5
170
     0
171
     0
290
     0
174
     0
 93
       13
 44
0.0
173
     0
291
     0
 45
0.0
1001
ACAD
1000
AcDbSavedByObjectVersion
1070
     0
  0
VISUALSTYLE
  5
37
102
{ACAD_REACTORS
330
2A
102
}
330
2A
100
AcDbVisualStyle
  2
Thicken
 70
    13
 71
     2
 72
     2
 73
     0
 90
        0
 40
-0.6
 41
-30.0
 62
     5
 63
     7
421
 16777215
 74
     1
 91
        4
 64
     7
 65
   257
 75
     1
175
     1
 42
1.0
 92
       12
 66
     7
 43
1.0
 76
     1
 77
     6
 78
     2
 67
     7
 79
     5
170
     0
171
     0
290
     0
174
     0
 93
        1
 44
0.0
173
     0
291
     1
 45
0.0
1001
ACAD
1000
AcDbSavedByObjectVersion
1070
     0
  0
ENDSEC
  0
EOF
