  0
SECTION
  2
HEADER
  9
$ACADVER
  1
AC1018
  9
$ACADMAINTVER
 70
     0
  9
$DWGCODEPAGE
  3
ANSI_1252
  9
$INSBASE
 10
0.0
 20
0.0
 30
0.0
  9
$EXTMIN
 10
-15.01184679216669
 20
0.000000003227864
 30
0.0
  9
$EXTMAX
 10
58.13018067394832
 20
81.34658580922898
 30
0.0
  9
$LIMMIN
 10
0.0
 20
0.0
  9
$LIMMAX
 10
12.0
 20
9.0
  9
$ORTHOMODE
 70
     0
  9
$REGENMODE
 70
     1
  9
$FILLMODE
 70
     1
  9
$QTEXTMODE
 70
     0
  9
$MIRRTEXT
 70
     1
  9
$LTSCALE
 40
0.0393700787401575
  9
$ATTMODE
 70
     1
  9
$TEXTSIZE
 40
0.2
  9
$TRACEWID
 40
0.05
  9
$TEXTSTYLE
  7
Standard
  9
$CLAYER
  8
Default
  9
$CELTYPE
  6
ByLayer
  9
$CECOLOR
 62
   256
  9
$CELTSCALE
 40
1.0
  9
$DISPSILH
 70
     0
  9
$DIMSCALE
 40
1.0
  9
$DIMASZ
 40
0.18
  9
$DIMEXO
 40
0.0625
  9
$DIMDLI
 40
0.38
  9
$DIMRND
 40
0.0
  9
$DIMDLE
 40
0.0
  9
$DIMEXE
 40
0.18
  9
$DIMTP
 40
0.0
  9
$DIMTM
 40
0.0
  9
$DIMTXT
 40
0.18
  9
$DIMCEN
 40
0.09
  9
$DIMTSZ
 40
0.0
  9
$DIMTOL
 70
     0
  9
$DIMLIM
 70
     0
  9
$DIMTIH
 70
     1
  9
$DIMTOH
 70
     1
  9
$DIMSE1
 70
     0
  9
$DIMSE2
 70
     0
  9
$DIMTAD
 70
     0
  9
$DIMZIN
 70
     0
  9
$DIMBLK
  1

  9
$DIMASO
 70
     1
  9
$DIMSHO
 70
     1
  9
$DIMPOST
  1

  9
$DIMAPOST
  1

  9
$DIMALT
 70
     0
  9
$DIMALTD
 70
     2
  9
$DIMALTF
 40
25.4
  9
$DIMLFAC
 40
1.0
  9
$DIMTOFL
 70
     0
  9
$DIMTVP
 40
0.0
  9
$DIMTIX
 70
     0
  9
$DIMSOXD
 70
     0
  9
$DIMSAH
 70
     0
  9
$DIMBLK1
  1

  9
$DIMBLK2
  1

  9
$DIMSTYLE
  2
Standard
  9
$DIMCLRD
 70
     0
  9
$DIMCLRE
 70
     0
  9
$DIMCLRT
 70
     0
  9
$DIMTFAC
 40
1.0
  9
$DIMGAP
 40
0.09
  9
$DIMJUST
 70
     0
  9
$DIMSD1
 70
     0
  9
$DIMSD2
 70
     0
  9
$DIMTOLJ
 70
     1
  9
$DIMTZIN
 70
     0
  9
$DIMALTZ
 70
     0
  9
$DIMALTTZ
 70
     0
  9
$DIMUPT
 70
     0
  9
$DIMDEC
 70
     4
  9
$DIMTDEC
 70
     4
  9
$DIMALTU
 70
     2
  9
$DIMALTTD
 70
     2
  9
$DIMTXSTY
  7
Standard
  9
$DIMAUNIT
 70
     0
  9
$DIMADEC
 70
     0
  9
$DIMALTRND
 40
0.0
  9
$DIMAZIN
 70
     0
  9
$DIMDSEP
 70
    46
  9
$DIMATFIT
 70
     3
  9
$DIMFRAC
 70
     0
  9
$DIMLDRBLK
  1

  9
$DIMLUNIT
 70
     2
  9
$DIMLWD
 70
    -2
  9
$DIMLWE
 70
    -2
  9
$DIMTMOVE
 70
     2
  9
$LUNITS
 70
     2
  9
$LUPREC
 70
     3
  9
$SKETCHINC
 40
0.1
  9
$FILLETRAD
 40
0.5
  9
$AUNITS
 70
     0
  9
$AUPREC
 70
     0
  9
$MENU
  1
.
  9
$ELEVATION
 40
0.0
  9
$PELEVATION
 40
0.0
  9
$THICKNESS
 40
0.0
  9
$LIMCHECK
 70
     0
  9
$CHAMFERA
 40
0.5
  9
$CHAMFERB
 40
0.5
  9
$CHAMFERC
 40
1.0
  9
$CHAMFERD
 40
0.0
  9
$SKPOLY
 70
     0
  9
$TDCREATE
 40
2457528.361991481
  9
$TDUCREATE
 40
2457528.528658148
  9
$TDUPDATE
 40
2457528.361991493
  9
$TDUUPDATE
 40
2457528.52865816
  9
$TDINDWG
 40
0.0000000116
  9
$TDUSRTIMER
 40
0.0000000116
  9
$USRTIMER
 70
     1
  9
$ANGBASE
 50
0.0
  9
$ANGDIR
 70
     0
  9
$PDMODE
 70
     0
  9
$PDSIZE
 40
0.0
  9
$PLINEWID
 40
0.0
  9
$SPLFRAME
 70
     0
  9
$SPLINETYPE
 70
     6
  9
$SPLINESEGS
 70
     8
  9
$HANDSEED
  5
D1
  9
$SURFTAB1
 70
     6
  9
$SURFTAB2
 70
     6
  9
$SURFTYPE
 70
     6
  9
$SURFU
 70
     6
  9
$SURFV
 70
     6
  9
$UCSBASE
  2

  9
$UCSNAME
  2

  9
$UCSORG
 10
0.0
 20
0.0
 30
0.0
  9
$UCSXDIR
 10
1.0
 20
0.0
 30
0.0
  9
$UCSYDIR
 10
0.0
 20
1.0
 30
0.0
  9
$UCSORTHOREF
  2

  9
$UCSORTHOVIEW
 70
     0
  9
$UCSORGTOP
 10
0.0
 20
0.0
 30
0.0
  9
$UCSORGBOTTOM
 10
0.0
 20
0.0
 30
0.0
  9
$UCSORGLEFT
 10
0.0
 20
0.0
 30
0.0
  9
$UCSORGRIGHT
 10
0.0
 20
0.0
 30
0.0
  9
$UCSORGFRONT
 10
0.0
 20
0.0
 30
0.0
  9
$UCSORGBACK
 10
0.0
 20
0.0
 30
0.0
  9
$PUCSBASE
  2

  9
$PUCSNAME
  2

  9
$PUCSORG
 10
0.0
 20
0.0
 30
0.0
  9
$PUCSXDIR
 10
1.0
 20
0.0
 30
0.0
  9
$PUCSYDIR
 10
0.0
 20
1.0
 30
0.0
  9
$PUCSORTHOREF
  2

  9
$PUCSORTHOVIEW
 70
     0
  9
$PUCSORGTOP
 10
0.0
 20
0.0
 30
0.0
  9
$PUCSORGBOTTOM
 10
0.0
 20
0.0
 30
0.0
  9
$PUCSORGLEFT
 10
0.0
 20
0.0
 30
0.0
  9
$PUCSORGRIGHT
 10
0.0
 20
0.0
 30
0.0
  9
$PUCSORGFRONT
 10
0.0
 20
0.0
 30
0.0
  9
$PUCSORGBACK
 10
0.0
 20
0.0
 30
0.0
  9
$USERI1
 70
     0
  9
$USERI2
 70
     0
  9
$USERI3
 70
     0
  9
$USERI4
 70
     0
  9
$USERI5
 70
     0
  9
$USERR1
 40
0.0
  9
$USERR2
 40
0.0
  9
$USERR3
 40
0.0
  9
$USERR4
 40
0.0
  9
$USERR5
 40
0.0
  9
$WORLDVIEW
 70
     1
  9
$SHADEDGE
 70
     3
  9
$SHADEDIF
 70
    70
  9
$TILEMODE
 70
     1
  9
$MAXACTVP
 70
    64
  9
$PINSBASE
 10
0.0
 20
0.0
 30
0.0
  9
$PLIMCHECK
 70
     0
  9
$PEXTMIN
 10
1.000000000000000E+20
 20
1.000000000000000E+20
 30
1.000000000000000E+20
  9
$PEXTMAX
 10
-1.000000000000000E+20
 20
-1.000000000000000E+20
 30
-1.000000000000000E+20
  9
$PLIMMIN
 10
0.0
 20
0.0
  9
$PLIMMAX
 10
12.0
 20
9.0
  9
$UNITMODE
 70
     0
  9
$VISRETAIN
 70
     1
  9
$PLINEGEN
 70
     0
  9
$PSLTSCALE
 70
     1
  9
$TREEDEPTH
 70
  3020
  9
$CMLSTYLE
  2
Standard
  9
$CMLJUST
 70
     0
  9
$CMLSCALE
 40
1.0
  9
$PROXYGRAPHICS
 70
     1
  9
$MEASUREMENT
 70
     0
  9
$CELWEIGHT
370
    -1
  9
$ENDCAPS
280
     0
  9
$JOINSTYLE
280
     0
  9
$LWDISPLAY
290
     0
  9
$INSUNITS
 70
     1
  9
$HYPERLINKBASE
  1

  9
$STYLESHEET
  1

  9
$XEDIT
290
     1
  9
$CEPSNTYPE
380
     0
  9
$PSTYLEMODE
290
     1
  9
$FINGERPRINTGUID
  2
{75290033-B355-4301-A6FA-1B51A329704C}
  9
$VERSIONGUID
  2
{FAEB1C32-E019-11D5-929B-00C0DF256EC4}
  9
$EXTNAMES
290
     1
  9
$PSVPSCALE
 40
0.0
  9
$OLESTARTUP
290
     0
  9
$SORTENTS
280
   127
  9
$INDEXCTL
280
     0
  9
$HIDETEXT
280
     1
  9
$XCLIPFRAME
290
     0
  9
$HALOGAP
280
     0
  9
$OBSCOLOR
 70
   257
  9
$OBSLTYPE
280
     0
  9
$INTERSECTIONDISPLAY
280
     0
  9
$INTERSECTIONCOLOR
 70
   257
  9
$DIMASSOC
280
     2
  9
$PROJECTNAME
  1

  0
ENDSEC
  0
SECTION
  2
CLASSES
  0
CLASS
  1
ACDBDICTIONARYWDFLT
  2
AcDbDictionaryWithDefault
  3
ObjectDBX Classes
 90
        0
 91
        4
280
     0
281
     0
  0
CLASS
  1
VISUALSTYLE
  2
AcDbVisualStyle
  3
ObjectDBX Classes
 90
     4095
 91
        4
280
     0
281
     0
  0
ENDSEC
  0
SECTION
  2
TABLES
  0
TABLE
  2
VPORT
  5
8
330
0
100
AcDbSymbolTable
 70
     1
  0
VPORT
  5
29
330
8
100
AcDbSymbolTableRecord
100
AcDbViewportTableRecord
  2
*Active
 70
     0
 10
0.0
 20
0.0
 11
1.0
 21
1.0
 12
21.55916694089081
 22
40.67329290622843
 13
0.0
 23
0.0
 14
0.5
 24
0.5
 15
0.5
 25
0.5
 16
0.0
 26
0.0
 36
1.0
 17
0.0
 27
0.0
 37
0.0
 40
82.97351752212114
 41
0.8991407167419084
 42
50.0
 43
0.0
 44
0.0
 50
0.0
 51
0.0
 71
     0
 72
   100
 73
     1
 74
     3
 75
     0
 76
     0
 77
     0
 78
     0
281
     0
 65
     1
110
0.0
120
0.0
130
0.0
111
1.0
121
0.0
131
0.0
112
0.0
122
1.0
132
0.0
 79
     0
146
0.0
  0
ENDTAB
  0
TABLE
  2
LTYPE
  5
5
330
0
100
AcDbSymbolTable
 70
     1
  0
LTYPE
  5
14
330
5
100
AcDbSymbolTableRecord
100
AcDbLinetypeTableRecord
  2
ByBlock
 70
     0
  3

 72
    65
 73
     0
 40
0.0
  0
LTYPE
  5
15
330
5
100
AcDbSymbolTableRecord
100
AcDbLinetypeTableRecord
  2
ByLayer
 70
     0
  3

 72
    65
 73
     0
 40
0.0
  0
LTYPE
  5
16
330
5
100
AcDbSymbolTableRecord
100
AcDbLinetypeTableRecord
  2
Continuous
 70
     0
  3
Solid line
 72
    65
 73
     0
 40
0.0
  0
ENDTAB
  0
TABLE
  2
LAYER
  5
2
330
0
100
AcDbSymbolTable
 70
     3
  0
LAYER
  5
10
330
2
100
AcDbSymbolTableRecord
100
AcDbLayerTableRecord
  2
0
 70
     0
 62
     7
  6
Continuous
370
    -3
390
F
  0
LAYER
  5
3B
330
2
100
AcDbSymbolTableRecord
100
AcDbLayerTableRecord
  2
Default
 70
     0
 62
     7
  6
Continuous
370
    -3
390
F
  0
LAYER
  5
48
330
2
100
AcDbSymbolTableRecord
100
AcDbLayerTableRecord
  2
Default - Tangent
 70
     0
 62
     7
  6
Continuous
370
    -3
390
F
  0
ENDTAB
  0
TABLE
  2
STYLE
  5
3
330
0
100
AcDbSymbolTable
 70
     1
  0
STYLE
  5
11
330
3
100
AcDbSymbolTableRecord
100
AcDbTextStyleTableRecord
  2
Standard
 70
     0
 40
0.0
 41
1.0
 50
0.0
 71
     0
 42
0.2
  3
txt
  4

  0
ENDTAB
  0
TABLE
  2
VIEW
  5
6
330
0
100
AcDbSymbolTable
 70
     0
  0
ENDTAB
  0
TABLE
  2
UCS
  5
7
330
0
100
AcDbSymbolTable
 70
     0
  0
ENDTAB
  0
TABLE
  2
APPID
  5
9
330
0
100
AcDbSymbolTable
 70
     1
  0
APPID
  5
12
330
9
100
AcDbSymbolTableRecord
100
AcDbRegAppTableRecord
  2
ACAD
 70
     0
  0
ENDTAB
  0
TABLE
  2
DIMSTYLE
  5
A
330
0
100
AcDbSymbolTable
 70
     1
100
AcDbDimStyleTable
  0
DIMSTYLE
105
27
330
A
100
AcDbSymbolTableRecord
100
AcDbDimStyleTableRecord
  2
Standard
 70
     0
340
11
  0
ENDTAB
  0
TABLE
  2
BLOCK_RECORD
  5
1
330
0
100
AcDbSymbolTable
 70
     1
  0
BLOCK_RECORD
  5
1F
330
1
100
AcDbSymbolTableRecord
100
AcDbBlockTableRecord
  2
*Model_Space
340
22
  0
BLOCK_RECORD
  5
1B
330
1
100
AcDbSymbolTableRecord
100
AcDbBlockTableRecord
  2
*Paper_Space
340
1E
  0
BLOCK_RECORD
  5
23
330
1
100
AcDbSymbolTableRecord
100
AcDbBlockTableRecord
  2
*Paper_Space0
340
26
  0
ENDTAB
  0
ENDSEC
  0
SECTION
  2
BLOCKS
  0
BLOCK
  5
20
330
1F
100
AcDbEntity
  8
0
100
AcDbBlockBegin
  2
*Model_Space
 70
     0
 10
0.0
 20
0.0
 30
0.0
  3
*Model_Space
  1

  0
ENDBLK
  5
21
330
1F
100
AcDbEntity
  8
0
100
AcDbBlockEnd
  0
BLOCK
  5
1C
330
1B
100
AcDbEntity
 67
     1
  8
0
100
AcDbBlockBegin
  2
*Paper_Space
 70
     0
 10
0.0
 20
0.0
 30
0.0
  3
*Paper_Space
  1

  0
ENDBLK
  5
1D
330
1B
100
AcDbEntity
 67
     1
  8
0
100
AcDbBlockEnd
  0
BLOCK
  5
24
330
23
100
AcDbEntity
  8
0
100
AcDbBlockBegin
  2
*Paper_Space0
 70
     0
 10
0.0
 20
0.0
 30
0.0
  3
*Paper_Space0
  1

  0
ENDBLK
  5
25
330
23
100
AcDbEntity
  8
0
100
AcDbBlockEnd
  0
ENDSEC
  0
SECTION
  2
ENTITIES
  0
SPLINE
  5
3C
330
1F
100
AcDbEntity
  8
Default
100
AcDbSpline
210
0.0
220
0.0
230
1.0
 70
     8
 71
     3
 72
    11
 73
     7
 74
     0
 42
0.0000000001
 43
0.0000000001
 40
0.0
 40
0.0
 40
0.0
 40
0.0
 40
1.0
 40
2.0
 40
3.0
 40
4.0
 40
4.0
 40
4.0
 40
4.0
 10
-6.942706649312782
 20
11.92505794050625
 30
0.0
 10
-7.010111404630862
 20
12.05480499090373
 30
0.0
 10
-7.279914319062101
 20
12.19734381505383
 30
0.0
 10
-7.666957111074709
 20
12.40301287966177
 30
0.0
 10
-8.068635319913852
 20
12.56691120270672
 30
0.0
 10
-8.355343832503621
 20
12.69523892576263
 30
0.0
 10
-8.487560303642823
 20
12.6511055280817
 30
0.0
  0
SPLINE
  5
3D
330
1F
100
AcDbEntity
  8
Default
100
AcDbSpline
210
0.0
220
0.0
230
1.0
 70
     8
 71
     3
 72
    12
 73
     8
 74
     0
 42
0.0000000001
 43
0.0000000001
 40
0.0
 40
0.0
 40
0.0
 40
0.0
 40
1.0
 40
2.0
 40
3.0
 40
4.0
 40
5.0
 40
5.0
 40
5.0
 40
5.0
 10
8.542835924405296
 20
15.37039850994167
 30
0.0
 10
8.064876433265368
 20
15.72016084510325
 30
0.0
 10
6.912256224381252
 20
15.90873335624185
 30
0.0
 10
5.187456849912536
 20
15.9755030632254
 30
0.0
 10
3.45849125474129
 20
16.04149758922109
 30
0.0
 10
1.729345735805254
 20
16.05761973536175
 30
0.0
 10
0.5764323879098754
 20
16.05760700895416
 30
0.0
 10
0.0000000000000284
 20
16.05656683842372
 30
0.0
  0
SPLINE
  5
3E
330
1F
100
AcDbEntity
  8
Default
100
AcDbSpline
210
0.0
220
0.0
230
1.0
 70
     8
 71
     3
 72
    12
 73
     8
 74
     0
 42
0.0000000001
 43
0.0000000001
 40
-5.0
 40
-5.0
 40
-5.0
 40
-5.0
 40
-4.0
 40
-3.0
 40
-2.0
 40
-1.0
 40
0.0
 40
0.0
 40
0.0
 40
0.0
 10
0.0000000000000284
 20
16.05656683842372
 30
0.0
 10
-0.5764323879098754
 20
16.05760700895416
 30
0.0
 10
-1.729345735805254
 20
16.05761973536175
 30
0.0
 10
-3.45849125474129
 20
16.04149758922109
 30
0.0
 10
-5.187456849912536
 20
15.9755030632254
 30
0.0
 10
-6.912256224381252
 20
15.90873335624185
 30
0.0
 10
-8.064876433265368
 20
15.72016084510325
 30
0.0
 10
-8.542835924405296
 20
15.37039850994167
 30
0.0
  0
SPLINE
  5
3F
330
1F
100
AcDbEntity
  8
Default
100
AcDbSpline
210
0.0
220
0.0
230
1.0
 70
     8
 71
     3
 72
    13
 73
     9
 74
     0
 42
0.0000000001
 43
0.0000000001
 40
0.0
 40
0.0
 40
0.0
 40
0.0
 40
1.0
 40
2.0
 40
3.0
 40
4.0
 40
5.0
 40
6.0
 40
6.0
 40
6.0
 40
6.0
 10
14.84003022638447
 20
19.12534408478732
 30
0.0
 10
14.23670429918835
 20
18.39394209356009
 30
0.0
 10
12.99494645363595
 20
16.95375374995723
 30
0.0
 10
10.84942842324696
 20
15.07805777794752
 30
0.0
 10
8.446139612511189
 20
13.51393403492565
 30
0.0
 10
5.684520554540285
 20
12.72779905299751
 30
0.0
 10
2.845832940971917
 20
12.46860853763424
 30
0.0
 10
0.9487175012800719
 20
12.43008838699743
 30
0.0
 10
0.0000000000000284
 20
12.43102622895044
 30
0.0
  0
SPLINE
  5
40
330
1F
100
AcDbEntity
  8
Default
100
AcDbSpline
210
0.0
220
0.0
230
1.0
 70
     8
 71
     3
 72
    13
 73
     9
 74
     0
 42
0.0000000001
 43
0.0000000001
 40
-6.0
 40
-6.0
 40
-6.0
 40
-6.0
 40
-5.0
 40
-4.0
 40
-3.0
 40
-2.0
 40
-1.0
 40
0.0
 40
0.0
 40
0.0
 40
0.0
 10
0.0000000000000284
 20
12.43102622895044
 30
0.0
 10
-0.9487175012800719
 20
12.43008838699743
 30
0.0
 10
-2.845832940971917
 20
12.46860853763424
 30
0.0
 10
-5.684520554540285
 20
12.72779905299751
 30
0.0
 10
-8.446139612511189
 20
13.51393403492565
 30
0.0
 10
-10.84942842324696
 20
15.07805777794752
 30
0.0
 10
-12.99494645363595
 20
16.95375374995723
 30
0.0
 10
-14.23670429918829
 20
18.39394209356009
 30
0.0
 10
-14.84003022638447
 20
19.12534408478732
 30
0.0
  0
SPLINE
  5
41
330
1F
100
AcDbEntity
  8
Default
100
AcDbSpline
210
0.0
220
0.0
230
1.0
 70
     8
 71
     3
 72
    13
 73
     9
 74
     0
 42
0.0000000001
 43
0.0000000001
 40
-6.0
 40
-6.0
 40
-6.0
 40
-6.0
 40
-5.0
 40
-4.0
 40
-3.0
 40
-2.0
 40
-1.0
 40
0.0
 40
0.0
 40
0.0
 40
0.0
 10
-10.5564028567147
 20
17.72533243479258
 30
0.0
 10
-10.16725934581976
 20
17.19013380152504
 30
0.0
 10
-9.497553653268625
 20
16.01508135259725
 30
0.0
 10
-7.845544445243064
 20
14.82964412320405
 30
0.0
 10
-5.969020014820984
 20
14.13541387363435
 30
0.0
 10
-3.986042293352767
 20
13.85657119061315
 30
0.0
 10
-1.993617152111568
 20
13.79277706454519
 30
0.0
 10
-0.6644651943260271
 20
13.7897358791251
 30
0.0
 10
0.0000000000000284
 20
13.79061766359268
 30
0.0
  0
SPLINE
  5
42
330
1F
100
AcDbEntity
  8
Default
100
AcDbSpline
210
0.0
220
0.0
230
1.0
 70
     8
 71
     3
 72
    13
 73
     9
 74
     0
 42
0.0000000001
 43
0.0000000001
 40
0.0
 40
0.0
 40
0.0
 40
0.0
 40
1.0
 40
2.0
 40
3.0
 40
4.0
 40
5.0
 40
6.0
 40
6.0
 40
6.0
 40
6.0
 10
0.0000000000000284
 20
13.79061766359268
 30
0.0
 10
0.6644651943260271
 20
13.7897358791251
 30
0.0
 10
1.993617152111568
 20
13.79277706454519
 30
0.0
 10
3.986042293352767
 20
13.85657119061315
 30
0.0
 10
5.969020014820984
 20
14.13541387363435
 30
0.0
 10
7.845544445243064
 20
14.82964412320405
 30
0.0
 10
9.497553653268625
 20
16.01508135259725
 30
0.0
 10
10.16725934581976
 20
17.19013380152504
 30
0.0
 10
10.55640285671475
 20
17.72533243479258
 30
0.0
  0
SPLINE
  5
43
330
1F
100
AcDbEntity
  8
Default
100
AcDbSpline
210
0.0
220
0.0
230
1.0
 70
    12
 71
     2
 72
     6
 73
     3
 74
     0
 42
0.0000000001
 43
0.0000000001
 40
0.0
 40
0.0
 40
0.0
 40
0.757513591920224
 40
0.757513591920224
 40
0.757513591920224
 10
-10.05462865229183
 20
0.0000090345419741
 30
0.0
 41
1.0
 10
-9.675871864613955
 20
0.0000886064020861
 30
0.0
 41
0.9999999996979148
 10
-9.29711507348199
 20
0.0001495586675658
 30
0.0
 41
1.0
  0
SPLINE
  5
44
330
1F
100
AcDbEntity
  8
Default
100
AcDbSpline
210
0.0
220
0.0
230
1.0
 70
    24
 71
     2
 72
     6
 73
     3
 74
     0
 42
0.0000000001
 43
0.0000000001
 40
0.0
 40
0.0
 40
0.0
 40
11.96926077877293
 40
11.96926077877293
 40
11.96926077877293
 10
-9.11226508375674
 20
0.154067336916218
 30
0.0
 10
-8.02748586653476
 20
6.039562638711237
 30
0.0
 10
-6.942706649312782
 20
11.92505794050625
 30
0.0
  0
SPLINE
  5
45
330
1F
100
AcDbEntity
  8
Default
100
AcDbSpline
210
0.0
220
0.0
230
1.0
 70
    24
 71
     2
 72
     6
 73
     3
 74
     0
 42
0.0000000001
 43
0.0000000001
 40
0.0
 40
0.0
 40
0.0
 40
0.387988006853346
 40
0.387988006853346
 40
0.387988006853346
 10
-6.83687588161601
 20
6.375624060320887
 30
0.0
 10
-6.808547195143007
 20
6.567538517536136
 30
0.0
 10
-6.780218508670004
 20
6.759452974751383
 30
0.0
  0
SPLINE
  5
46
330
1F
100
AcDbEntity
  8
Default
100
AcDbSpline
210
0.0
220
0.0
230
1.0
 70
    12
 71
     2
 72
     6
 73
     3
 74
     0
 42
0.0000000001
 43
0.0000000001
 40
0.0
 40
0.0
 40
0.0
 40
0.4002222356920559
 40
0.4002222356920559
 40
0.4002222356920559
 10
-6.912474192795088
 20
6.368829693226644
 30
0.0
 41
1.0
 10
-6.884495198629562
 20
6.566975183658066
 30
0.0
 41
0.9999999998631137
 10
-6.856522761541129
 20
6.765121599866508
 30
0.0
 41
1.0
  0
SPLINE
  5
47
330
1F
100
AcDbEntity
  8
Default
100
AcDbSpline
210
0.0
220
0.0
230
1.0
 70
    12
 71
     2
 72
     6
 73
     3
 74
     0
 42
0.0000000001
 43
0.0000000001
 40
-0.2610031414318769
 40
-0.2610031414318769
 40
-0.2610031414318769
 40
0.0
 40
0.0
 40
0.0
 10
-9.29711507348199
 20
0.0001495586675658
 30
0.0
 41
1.0
 10
-9.140633395257494
 20
0.0001785609652241
 30
0.0
 41
0.7685930823651149
 10
-9.11226508375674
 20
0.154067336916218
 30
0.0
 41
1.0
  0
SPLINE
  5
49
330
1F
100
AcDbEntity
  8
Default - Tangent
100
AcDbSpline
210
0.0
220
0.0
230
1.0
 70
    24
 71
     2
 72
     6
 73
     3
 74
     0
 42
0.0000000001
 43
0.0000000001
 40
0.0
 40
0.0
 40
0.0
 40
0.0158596048860038
 40
0.0158596048860038
 40
0.0158596048860038
 10
-7.165057719744055
 20
7.162739827827013
 30
0.0
 10
-7.172965730151844
 20
7.16332731244425
 30
0.0
 10
-7.180873740559633
 20
7.163914797061486
 30
0.0
  0
SPLINE
  5
4A
330
1F
100
AcDbEntity
  8
Default
100
AcDbSpline
210
0.0
220
0.0
230
1.0
 70
    24
 71
     2
 72
     6
 73
     3
 74
     0
 42
0.0000000001
 43
0.0000000001
 40
0.0
 40
0.0
 40
0.0
 40
3.647625187282489
 40
3.647625187282489
 40
3.647625187282489
 10
-6.72541147165029
 20
7.130746672792809
 30
0.0
 10
-6.459082542724133
 20
8.935008648876503
 30
0.0
 10
-6.192753613797919
 20
10.7392706249602
 30
0.0
  0
SPLINE
  5
4B
330
1F
100
AcDbEntity
  8
Default
100
AcDbSpline
210
0.0
220
0.0
230
1.0
 70
    12
 71
     2
 72
     6
 73
     3
 74
     0
 42
0.0000000001
 43
0.0000000001
 40
0.0
 40
0.0
 40
0.0
 40
1.5565317031037
 40
1.5565317031037
 40
1.5565317031037
 10
6.526393094243502
 20
10.88259040844969
 30
0.0
 41
1.0
 10
6.620793807172235
 20
10.11007099671018
 30
0.0
 41
0.9999999994751744
 10
6.715144463240364
 20
9.33754546974402
 30
0.0
 41
1.0
  0
SPLINE
  5
4C
330
1F
100
AcDbEntity
  8
Default
100
AcDbSpline
210
0.0
220
0.0
230
1.0
 70
     8
 71
     3
 72
    13
 73
     9
 74
     0
 42
0.0000000001
 43
0.0000000001
 40
0.0
 40
0.0
 40
0.0
 40
0.0
 40
0.0527988964564631
 40
0.0914000315304187
 40
0.1600512542202194
 40
0.2540278845990126
 40
0.3796332324843674
 40
0.6416550723218502
 40
0.6416550723218502
 40
0.6416550723218502
 40
0.6416550723218502
 10
6.790981185402785
 20
7.229455398617631
 30
0.0
 10
6.788549628010088
 20
7.245534649171679
 30
0.0
 10
6.785241380219219
 20
7.279616711553726
 30
0.0
 10
6.788564008257396
 20
7.327474120776842
 30
0.0
 10
6.812274046748627
 20
7.401489501875727
 30
0.0
 10
6.915517210597756
 20
7.421857085932874
 30
0.0
 10
7.063864577562953
 20
7.356767842950066
 30
0.0
 10
7.15462518502747
 20
7.252894410137452
 30
0.0
 10
7.1688256508439
 20
7.164451609521173
 30
0.0
  0
SPLINE
  5
4D
330
1F
100
AcDbEntity
  8
Default - Tangent
100
AcDbSpline
210
0.0
220
0.0
230
1.0
 70
    12
 71
     2
 72
    18
 73
    15
 74
     0
 42
0.0000000001
 43
0.0000000001
 40
-0.6498325998099508
 40
-0.6498325998099508
 40
-0.6498325998099508
 40
-0.5403545249793968
 40
-0.5403545249793968
 40
-0.4327828494438037
 40
-0.4327828494438037
 40
-0.329402535053353
 40
-0.329402535053353
 40
-0.2323242310219129
 40
-0.2323242310219129
 40
-0.1436785442332995
 40
-0.1436785442332995
 40
-0.0655626786909288
 40
-0.0655626786909288
 40
0.0
 40
0.0
 40
0.0
 10
-1.951462879158697
 20
6.409777512516227
 30
0.0
 41
1.0
 10
-2.006202981192208
 20
6.409788945007642
 30
0.0
 41
0.9999707946466081
 10
-2.060936863246553
 20
6.408963683474688
 30
0.0
 41
1.0
 10
-2.114717552193278
 20
6.408151446804649
 30
0.0
 41
0.9999725491976074
 10
-2.168480299706374
 20
6.406542343999232
 30
0.0
 41
1.0
 10
-2.220148129342752
 20
6.404993749215105
 30
0.0
 41
0.9999746213684672
 10
-2.27178864905224
 20
6.402709129056412
 30
0.0
 41
1.0
 10
-2.320281051133051
 20
6.400563225207216
 30
0.0
 41
0.999978136320884
 10
-2.368740832853547
 20
6.397776198387124
 30
0.0
 41
1.0
 10
-2.412991055976608
 20
6.395230683559991
 30
0.0
 41
0.9999818869363485
 10
-2.457207431831222
 20
6.392152697455639
 30
0.0
 41
1.0
 10
-2.496171410836915
 20
6.389439975790995
 30
0.0
 41
0.9999860346607979
 10
-2.53510454059014
 20
6.386315567622776
 30
0.0
 41
1.0
 10
-2.567781099880133
 20
6.38369383175735
 30
0.0
 41
0.9999896592160917
 10
-2.600432462148348
 20
6.380775001852589
 30
0.0
 41
1.0
  0
SPLINE
  5
4E
330
1F
100
AcDbEntity
  8
Default - Tangent
100
AcDbSpline
210
0.0
220
0.0
230
1.0
 70
     8
 71
     2
 72
     6
 73
     3
 74
     0
 42
0.0000000001
 43
0.0000000001
 40
0.0
 40
0.0
 40
0.0
 40
2.645173735971417
 40
2.645173735971417
 40
2.645173735971417
 10
-7.107713820984287
 20
6.351266140690463
 30
0.0
 10
-5.790436935953693
 20
6.469672329946428
 30
0.0
 10
-4.473159483790624
 20
6.588062098892065
 30
0.0
  0
SPLINE
  5
4F
330
1F
100
AcDbEntity
  8
Default
100
AcDbSpline
210
0.0
220
0.0
230
1.0
 70
     8
 71
     3
 72
    11
 73
     7
 74
     0
 42
0.0000000001
 43
0.0000000001
 40
0.0
 40
0.0
 40
0.0
 40
0.0
 40
1.0
 40
2.0
 40
3.0
 40
4.0
 40
4.0
 40
4.0
 40
4.0
 10
6.942706649312782
 20
11.92505794050625
 30
0.0
 10
7.010111404630862
 20
12.05480499090373
 30
0.0
 10
7.279914319062101
 20
12.19734381505383
 30
0.0
 10
7.666957111074709
 20
12.40301287966177
 30
0.0
 10
8.068635319913852
 20
12.56691120270672
 30
0.0
 10
8.355343832503621
 20
12.69523892576263
 30
0.0
 10
8.487560303642823
 20
12.6511055280817
 30
0.0
  0
SPLINE
  5
50
330
1F
100
AcDbEntity
  8
Default
100
AcDbSpline
210
0.0
220
0.0
230
1.0
 70
    12
 71
     2
 72
     8
 73
     5
 74
     0
 42
0.0000000001
 43
0.0000000001
 40
-0.3216793721171242
 40
-0.3216793721171242
 40
-0.3216793721171242
 40
-0.1608396860585621
 40
-0.1608396860585621
 40
0.0
 40
0.0
 40
0.0
 10
10.24082203239445
 20
0.2142578125334618
 30
0.0
 41
1.0
 10
10.25278934668934
 20
0.1293846271913562
 30
0.0
 41
0.9098951334489137
 10
10.19656536993071
 20
0.0646888882358797
 30
0.0
 41
1.0
 10
10.14034139317214
 20
-0.0000068507195968
 30
0.0
 41
0.9098951334489137
 10
10.05462865229188
 20
0.0000090345419741
 30
0.0
 41
1.0
  0
SPLINE
  5
51
330
1F
100
AcDbEntity
  8
Default
100
AcDbSpline
210
0.0
220
0.0
230
1.0
 70
    12
 71
     2
 72
     6
 73
     3
 74
     0
 42
0.0000000001
 43
0.0000000001
 40
0.0
 40
0.0
 40
0.0
 40
0.3778268243756051
 40
0.3778268243756051
 40
0.3778268243756051
 10
7.019044156084391
 20
5.614290701413776
 30
0.0
 41
1.0
 10
6.992618097691541
 20
5.801346684342113
 30
0.0
 41
0.9999999998517104
 10
6.966198482072599
 20
5.988403577350623
 30
0.0
 41
1.0
  0
SPLINE
  5
52
330
1F
100
AcDbEntity
  8
Default
100
AcDbSpline
210
0.0
220
0.0
230
1.0
 70
     8
 71
     3
 72
    13
 73
     9
 74
     0
 42
0.0000000001
 43
0.0000000001
 40
0.0
 40
0.0
 40
0.0
 40
0.0
 40
0.0659403231465319
 40
0.1339151955238136
 40
0.2573848639912312
 40
0.3771184892071823
 40
0.5081105643064359
 40
0.6902159716558347
 40
0.6902159716558347
 40
0.6902159716558347
 40
0.6902159716558347
 10
7.396900119977346
 20
5.542360861621122
 30
0.0
 10
7.400149043035668
 20
5.520712535491276
 30
0.0
 10
7.400254000717581
 20
5.47495934546817
 30
0.0
 10
7.371125884080612
 20
5.393871194654018
 30
0.0
 10
7.287963999136849
 20
5.319056874779339
 30
0.0
 10
7.151588381142489
 20
5.335884969644897
 30
0.0
 10
7.058684492455171
 20
5.454145705051813
 30
0.0
 10
7.027434284619886
 20
5.553626753614765
 30
0.0
 10
7.019044156084391
 20
5.614290701413776
 30
0.0
  0
SPLINE
  5
53
330
1F
100
AcDbEntity
  8
Default
100
AcDbSpline
210
0.0
220
0.0
230
1.0
 70
    24
 71
     2
 72
     6
 73
     3
 74
     0
 42
0.0000000001
 43
0.0000000001
 40
0.0
 40
0.0
 40
0.0
 40
11.96926077877293
 40
11.96926077877293
 40
11.96926077877293
 10
9.112265083756796
 20
0.154067336916218
 30
0.0
 10
8.02748586653476
 20
6.039562638711237
 30
0.0
 10
6.942706649312782
 20
11.92505794050625
 30
0.0
  0
SPLINE
  5
54
330
1F
100
AcDbEntity
  8
Default
100
AcDbSpline
210
0.0
220
0.0
230
1.0
 70
     8
 71
     3
 72
    14
 73
    10
 74
     0
 42
0.0000000001
 43
0.0000000001
 40
-6.989654053354371
 40
-6.989654053354371
 40
-6.989654053354371
 40
-6.989654053354371
 40
-6.0
 40
-5.0
 40
-4.0
 40
-3.0
 40
-2.0
 40
-1.0
 40
-0.0005866680957936
 40
-0.0005866680957936
 40
-0.0005866680957936
 40
-0.0005866680957936
 10
54.51997431007445
 20
15.93645433414291
 30
0.0
 10
54.73285502844286
 20
15.97078461625165
 30
0.0
 10
55.16327986166121
 20
16.02469047946211
 30
0.0
 10
55.812474901738
 20
16.07491718822463
 30
0.0
 10
56.47129052878782
 20
16.02096339055517
 30
0.0
 10
57.05893214587039
 20
15.69408463411644
 30
0.0
 10
57.43420104901637
 20
15.13957649227235
 30
0.0
 10
57.55059254035271
 20
14.47931363546199
 30
0.0
 10
57.42236902732415
 20
14.05281476335749
 30
0.0
 10
57.34488049446045
 20
13.8505694678821
 30
0.0
  0
SPLINE
  5
55
330
1F
100
AcDbEntity
  8
Default
100
AcDbSpline
210
0.0
220
0.0
230
1.0
 70
     8
 71
     3
 72
    13
 73
     9
 74
     0
 42
0.0000000001
 43
0.0000000001
 40
-81.71040402546193
 40
-81.71040402546193
 40
-81.71040402546193
 40
-81.71040402546193
 40
-81.7000048194896
 40
-80.7000048194896
 40
-79.7000048194896
 40
-78.7000048194896
 40
-77.7000048194896
 40
-77.09129258927226
 40
-77.09129258927226
 40
-77.09129258927226
 40
-77.09129258927226
 10
57.34488049446045
 20
13.8505694678821
 30
0.0
 10
57.34237329981934
 20
13.85156597196585
 30
0.0
 10
57.09914923492923
 20
13.94896259581667
 30
0.0
 10
56.69179845677948
 20
14.25812364719924
 30
0.0
 10
56.03474447636668
 20
14.64734432772035
 30
0.0
 10
55.42474396597586
 20
15.10766843858046
 30
0.0
 10
54.9483206152552
 20
15.57001656218874
 30
0.0
 10
54.63802979366395
 20
15.83639393354291
 30
0.0
 10
54.51997431007445
 20
15.93645433414291
 30
0.0
  0
SPLINE
  5
56
330
1F
100
AcDbEntity
  8
Default - Tangent
100
AcDbSpline
210
0.0
220
0.0
230
1.0
 70
    24
 71
     2
 72
     6
 73
     3
 74
     0
 42
0.0000000001
 43
0.0000000001
 40
0.0
 40
0.0
 40
0.0
 40
4.59447787015285
 40
4.59447787015285
 40
4.59447787015285
 10
-2.600432462148348
 20
6.380775001852589
 30
0.0
 10
-4.888449321121101
 20
6.17514042818501
 30
0.0
 10
-7.176466180093854
 20
5.969505854517431
 30
0.0
  0
SPLINE
  5
57
330
1F
100
AcDbEntity
  8
Default - Tangent
100
AcDbSpline
210
0.0
220
0.0
230
1.0
 70
     8
 71
     3
 72
    12
 73
     8
 74
     0
 42
0.0000000001
 43
0.0000000001
 40
-0.5143832258818922
 40
-0.5143832258818922
 40
-0.5143832258818922
 40
-0.5143832258818922
 40
-0.4040865554038572
 40
-0.2722064057398136
 40
-0.1269457878060257
 40
-0.0584839501974893
 40
0.0
 40
0.0
 40
0.0
 40
0.0
 10
-7.176466180093854
 20
5.969505854517431
 30
0.0
 10
-7.2153416504174
 20
5.969568753587255
 30
0.0
 10
-7.281466710710475
 20
6.030514917562109
 30
0.0
 10
-7.284898341375396
 20
6.1661142736428
 30
0.0
 10
-7.236878456206938
 20
6.27289606049171
 30
0.0
 10
-7.167733424099794
 20
6.335048150103057
 30
0.0
 10
-7.127162589872825
 20
6.349060706013304
 30
0.0
 10
-7.107713820984287
 20
6.351266140690463
 30
0.0
  0
SPLINE
  5
58
330
1F
100
AcDbEntity
  8
Default
100
AcDbSpline
210
0.0
220
0.0
230
1.0
 70
    12
 71
     2
 72
     6
 73
     3
 74
     0
 42
0.0000000001
 43
0.0000000001
 40
0.0
 40
0.0
 40
0.0
 40
1.26205715921452
 40
1.26205715921452
 40
1.26205715921452
 10
-7.221212723996103
 20
6.792214332004733
 30
0.0
 41
1.0
 10
-7.309035882221909
 20
6.167327013116567
 30
0.0
 41
0.9999999997230192
 10
-7.396900119977346
 20
5.542360861621122
 30
0.0
 41
1.0
  0
SPLINE
  5
59
330
1F
100
AcDbEntity
  8
Default
100
AcDbSpline
210
0.0
220
0.0
230
1.0
 70
     8
 71
     3
 72
    13
 73
     9
 74
     0
 42
0.0000000001
 43
0.0000000001
 40
0.0
 40
0.0
 40
0.0
 40
0.0
 40
1.0
 40
2.0
 40
3.0
 40
4.0
 40
5.0
 40
6.0
 40
6.0
 40
6.0
 40
6.0
 10
14.84003022638447
 20
19.1253440847873
 30
0.0
 10
14.23670429918835
 20
18.39394209356007
 30
0.0
 10
12.99494645363595
 20
16.95375374995722
 30
0.0
 10
10.84942842324696
 20
15.07805777794751
 30
0.0
 10
8.446139612511189
 20
13.51393403492564
 30
0.0
 10
5.684520554540285
 20
12.7277990529975
 30
0.0
 10
2.845832940971917
 20
12.46860853763422
 30
0.0
 10
0.9487175012800719
 20
12.43008838699741
 30
0.0
 10
0.0000000000000284
 20
12.43102622895043
 30
0.0
  0
SPLINE
  5
5A
330
1F
100
AcDbEntity
  8
Default
100
AcDbSpline
210
0.0
220
0.0
230
1.0
 70
     8
 71
     3
 72
    13
 73
     9
 74
     0
 42
0.0000000001
 43
0.0000000001
 40
-6.0
 40
-6.0
 40
-6.0
 40
-6.0
 40
-5.0
 40
-4.0
 40
-3.0
 40
-2.0
 40
-1.0
 40
0.0
 40
0.0
 40
0.0
 40
0.0
 10
0.0000000000000284
 20
12.43102622895043
 30
0.0
 10
-0.9487175012800719
 20
12.43008838699741
 30
0.0
 10
-2.845832940971917
 20
12.46860853763422
 30
0.0
 10
-5.684520554540285
 20
12.7277990529975
 30
0.0
 10
-8.446139612511189
 20
13.51393403492564
 30
0.0
 10
-10.84942842324696
 20
15.07805777794751
 30
0.0
 10
-12.99494645363595
 20
16.95375374995722
 30
0.0
 10
-14.23670429918829
 20
18.39394209356007
 30
0.0
 10
-14.84003022638447
 20
19.1253440847873
 30
0.0
  0
SPLINE
  5
5B
330
1F
100
AcDbEntity
  8
Default
100
AcDbSpline
210
0.0
220
0.0
230
1.0
 70
    24
 71
     2
 72
     6
 73
     3
 74
     0
 42
0.0000000001
 43
0.0000000001
 40
0.0
 40
0.0
 40
0.0
 40
2.201146945755387
 40
2.201146945755387
 40
2.201146945755387
 10
-8.698908507465518
 20
2.396743218887003
 30
0.0
 10
-8.81360444773182
 20
1.302162563801001
 30
0.0
 10
-8.928300387998064
 20
0.2075819087149986
 30
0.0
  0
SPLINE
  5
5C
330
1F
100
AcDbEntity
  8
Default
100
AcDbSpline
210
0.0
220
0.0
230
1.0
 70
    12
 71
     2
 72
     8
 73
     5
 74
     0
 42
0.0000000001
 43
0.0000000001
 40
-0.3149620417233434
 40
-0.3149620417233434
 40
-0.3149620417233434
 40
-0.1574810208616717
 40
-0.1574810208616717
 40
0.0
 40
0.0
 40
0.0
 10
-8.928300387998064
 20
0.2075819087149986
 30
0.0
 41
1.0
 10
-8.937017724355801
 20
0.1243446276420911
 30
0.0
 41
0.9135643766743925
 10
-8.880999190775157
 20
0.0621645600234536
 30
0.0
 41
1.0
 10
-8.824980657194509
 20
-0.000015507595184
 30
0.0
 41
0.9135643766743925
 10
-8.74128814454852
 20
0.000000003227882
 30
0.0
 41
1.0
  0
SPLINE
  5
5D
330
1F
100
AcDbEntity
  8
Default
100
AcDbSpline
210
0.0
220
0.0
230
1.0
 70
     8
 71
     3
 72
     8
 73
     4
 74
     0
 42
0.0000000001
 43
0.0000000001
 40
-1.0
 40
-1.0
 40
-1.0
 40
-1.0
 40
0.0
 40
0.0
 40
0.0
 40
0.0
 10
7.060891519751209
 20
11.2838431304644
 30
0.0
 10
7.028977680588042
 20
11.2052243438398
 30
0.0
 10
7.007080339652106
 20
11.10539139887994
 30
0.0
 10
6.926716801985521
 20
11.06665917739507
 30
0.0
  0
SPLINE
  5
5E
330
1F
100
AcDbEntity
  8
Default - Tangent
100
AcDbSpline
210
0.0
220
0.0
230
1.0
 70
    24
 71
     2
 72
     6
 73
     3
 74
     0
 42
0.0000000001
 43
0.0000000001
 40
0.0
 40
0.0
 40
0.0
 40
0.0158596048860038
 40
0.0158596048860038
 40
0.0158596048860038
 10
7.165057719744055
 20
7.162739827827013
 30
0.0
 10
7.172965730151844
 20
7.16332731244425
 30
0.0
 10
7.180873740559633
 20
7.163914797061486
 30
0.0
  0
SPLINE
  5
5F
330
1F
100
AcDbEntity
  8
Default
100
AcDbSpline
210
0.0
220
0.0
230
1.0
 70
    24
 71
     2
 72
     6
 73
     3
 74
     0
 42
0.0000000001
 43
0.0000000001
 40
0.0
 40
0.0
 40
0.0
 40
0.387988006853346
 40
0.387988006853346
 40
0.387988006853346
 10
6.83687588161601
 20
6.375624060320887
 30
0.0
 10
6.808547195143007
 20
6.567538517536136
 30
0.0
 10
6.780218508670004
 20
6.759452974751383
 30
0.0
  0
SPLINE
  5
60
330
1F
100
AcDbEntity
  8
Default
100
AcDbSpline
210
0.0
220
0.0
230
1.0
 70
    12
 71
     2
 72
     6
 73
     3
 74
     0
 42
0.0000000001
 43
0.0000000001
 40
0.0
 40
0.0
 40
0.0
 40
0.0937842320006875
 40
0.0937842320006875
 40
0.0937842320006875
 10
6.80408771949962
 20
7.136591514702104
 30
0.0
 41
1.0
 10
6.797534287274255
 20
7.183023433347139
 30
0.0
 41
0.9999999999936724
 10
6.790981185402785
 20
7.229455398617631
 30
0.0
 41
1.0
  0
ARC
  5
61
330
1F
100
AcDbEntity
  8
Default
100
AcDbCircle
 10
6.916464616536274
 20
9.362332688285816
 30
0.0
 40
0.2028403567491482
100
AcDbArc
 50
187.0191240226239
 51
282.2833959067524
  0
SPLINE
  5
62
330
1F
100
AcDbEntity
  8
Default
100
AcDbSpline
210
0.0
220
0.0
230
1.0
 70
     8
 71
     3
 72
     8
 73
     4
 74
     0
 42
0.0000000001
 43
0.0000000001
 40
0.0
 40
0.0
 40
0.0
 40
0.0
 40
1.0
 40
1.0
 40
1.0
 40
1.0
 10
-6.926716801985464
 20
11.06665917739507
 30
0.0
 10
-7.007080339652049
 20
11.10539139887994
 30
0.0
 10
-7.028977680588042
 20
11.2052243438398
 30
0.0
 10
-7.060891519751209
 20
11.2838431304644
 30
0.0
  0
SPLINE
  5
63
330
1F
100
AcDbEntity
  8
Default
100
AcDbSpline
210
0.0
220
0.0
230
1.0
 70
    12
 71
     2
 72
     6
 73
     3
 74
     0
 42
0.0000000001
 43
0.0000000001
 40
0.0
 40
0.0
 40
0.0
 40
0.6438897882869967
 40
0.6438897882869967
 40
0.6438897882869967
 10
-2.612567522114119
 20
6.825204360570401
 30
0.0
 41
1.0
 10
-2.291368948037763
 20
6.801342586039203
 30
0.0
 41
0.9993536933267371
 10
-1.951446883447403
 20
6.800617553810579
 30
0.0
 41
1.0
  0
SPLINE
  5
64
330
1F
100
AcDbEntity
  8
Default
100
AcDbSpline
210
0.0
220
0.0
230
1.0
 70
    12
 71
     2
 72
     6
 73
     3
 74
     0
 42
0.0000000001
 43
0.0000000001
 40
-0.2610031414318769
 40
-0.2610031414318769
 40
-0.2610031414318769
 40
0.0
 40
0.0
 40
0.0
 10
9.297115073482047
 20
0.0001495586675658
 30
0.0
 41
1.0
 10
9.1406333952575
 20
0.0001785609652241
 30
0.0
 41
0.7685930823651149
 10
9.112265083756796
 20
0.154067336916218
 30
0.0
 41
1.0
  0
POLYLINE
  5
65
330
1F
100
AcDbEntity
  8
Default
100
AcDb2dPolyline
 66
     1
 10
0.0
 20
0.0
 30
0.0
  0
VERTEX
  5
66
330
65
100
AcDbEntity
  8
Default
100
AcDbVertex
100
AcDb2dVertex
 10
-1.951446883447403
 20
6.800617553810579
 30
0.0
  0
VERTEX
  5
67
330
65
100
AcDbEntity
  8
Default
100
AcDbVertex
100
AcDb2dVertex
 10
1.951446883447403
 20
6.800617553810579
 30
0.0
  0
SEQEND
  5
68
330
65
100
AcDbEntity
  8
Default
  0
SPLINE
  5
69
330
1F
100
AcDbEntity
  8
Default
100
AcDbSpline
210
0.0
220
0.0
230
1.0
 70
    24
 71
     2
 72
     6
 73
     3
 74
     0
 42
0.0000000001
 43
0.0000000001
 40
0.0
 40
0.0
 40
0.0
 40
5.213253124058671
 40
5.213253124058671
 40
5.213253124058671
 10
-7.811494018925629
 20
7.211431516864348
 30
0.0
 10
-5.212030770519874
 20
7.018317938717375
 30
0.0
 10
-2.612567522114119
 20
6.825204360570401
 30
0.0
  0
SPLINE
  5
6A
330
1F
100
AcDbEntity
  8
Default
100
AcDbSpline
210
0.0
220
0.0
230
1.0
 70
    12
 71
     2
 72
     6
 73
     3
 74
     0
 42
0.0000000001
 43
0.0000000001
 40
0.0
 40
0.0
 40
0.0
 40
0.757513591920224
 40
0.757513591920224
 40
0.757513591920224
 10
10.05462865229188
 20
0.0000090345419741
 30
0.0
 41
1.0
 10
9.675871864613937
 20
0.0000886064020861
 30
0.0
 41
0.9999999996979148
 10
9.297115073482047
 20
0.0001495586675658
 30
0.0
 41
1.0
  0
SPLINE
  5
6B
330
1F
100
AcDbEntity
  8
Default
100
AcDbSpline
210
0.0
220
0.0
230
1.0
 70
    24
 71
     2
 72
     6
 73
     3
 74
     0
 42
0.0000000001
 43
0.0000000001
 40
0.0
 40
0.0
 40
0.0
 40
12.55982116868081
 40
12.55982116868081
 40
12.55982116868081
 10
-8.487560303642823
 20
12.6511055280817
 30
0.0
 10
-9.364191168018607
 20
6.432681670307579
 30
0.0
 10
-10.24082203239445
 20
0.2142578125334618
 30
0.0
  0
SPLINE
  5
6C
330
1F
100
AcDbEntity
  8
Default
100
AcDbSpline
210
0.0
220
0.0
230
1.0
 70
    12
 71
     2
 72
     8
 73
     5
 74
     0
 42
0.0000000001
 43
0.0000000001
 40
-0.3216793721171242
 40
-0.3216793721171242
 40
-0.3216793721171242
 40
-0.1608396860585621
 40
-0.1608396860585621
 40
0.0
 40
0.0
 40
0.0
 10
-10.24082203239445
 20
0.2142578125334618
 30
0.0
 41
1.0
 10
-10.25278934668929
 20
0.1293846271913562
 30
0.0
 41
0.9098951334489137
 10
-10.19656536993071
 20
0.0646888882358797
 30
0.0
 41
1.0
 10
-10.14034139317208
 20
-0.0000068507195968
 30
0.0
 41
0.9098951334489137
 10
-10.05462865229183
 20
0.0000090345419741
 30
0.0
 41
1.0
  0
SPLINE
  5
6D
330
1F
100
AcDbEntity
  8
Default - Tangent
100
AcDbSpline
210
0.0
220
0.0
230
1.0
 70
    12
 71
     2
 72
    18
 73
    15
 74
     0
 42
0.0000000001
 43
0.0000000001
 40
-0.6498325998099508
 40
-0.6498325998099508
 40
-0.6498325998099508
 40
-0.5403545249793968
 40
-0.5403545249793968
 40
-0.4327828494438037
 40
-0.4327828494438037
 40
-0.329402535053353
 40
-0.329402535053353
 40
-0.2323242310219129
 40
-0.2323242310219129
 40
-0.1436785442332995
 40
-0.1436785442332995
 40
-0.0655626786909288
 40
-0.0655626786909288
 40
0.0
 40
0.0
 40
0.0
 10
1.951462879158697
 20
6.409777512516227
 30
0.0
 41
1.0
 10
2.006202981192162
 20
6.409788945007642
 30
0.0
 41
0.9999707946466081
 10
2.060936863246553
 20
6.408963683474688
 30
0.0
 41
1.0
 10
2.114717552193324
 20
6.408151446804649
 30
0.0
 41
0.9999725491976074
 10
2.168480299706374
 20
6.406542343999232
 30
0.0
 41
1.0
 10
2.220148129342713
 20
6.404993749215105
 30
0.0
 41
0.9999746213684672
 10
2.27178864905224
 20
6.402709129056412
 30
0.0
 41
1.0
 10
2.320281051133031
 20
6.400563225207216
 30
0.0
 41
0.999978136320884
 10
2.368740832853604
 20
6.397776198387124
 30
0.0
 41
1.0
 10
2.412991055976594
 20
6.395230683559991
 30
0.0
 41
0.9999818869363485
 10
2.457207431831222
 20
6.392152697455639
 30
0.0
 41
1.0
 10
2.496171410836874
 20
6.389439975790995
 30
0.0
 41
0.9999860346607979
 10
2.535104540590197
 20
6.386315567622776
 30
0.0
 41
1.0
 10
2.567781099880152
 20
6.38369383175735
 30
0.0
 41
0.9999896592160917
 10
2.600432462148348
 20
6.380775001852589
 30
0.0
 41
1.0
  0
SPLINE
  5
6E
330
1F
100
AcDbEntity
  8
Default
100
AcDbSpline
210
0.0
220
0.0
230
1.0
 70
    24
 71
     2
 72
     6
 73
     3
 74
     0
 42
0.0000000001
 43
0.0000000001
 40
0.0
 40
0.0
 40
0.0
 40
12.55982116868081
 40
12.55982116868081
 40
12.55982116868081
 10
8.487560303642823
 20
12.6511055280817
 30
0.0
 10
9.364191168018664
 20
6.432681670307579
 30
0.0
 10
10.24082203239445
 20
0.2142578125334618
 30
0.0
  0
LINE
  5
6F
330
1F
100
AcDbEntity
  8
Default
100
AcDbLine
 10
6.959618341244351
 20
9.164135901303938
 30
0.0
 11
7.433184869546579
 21
9.267246349785571
 31
0.0
  0
SPLINE
  5
70
330
1F
100
AcDbEntity
  8
Default
100
AcDbSpline
210
0.0
220
0.0
230
1.0
 70
     8
 71
     3
 72
    47
 73
    43
 74
     0
 42
0.0000000001
 43
0.0000000001
 40
-3.0
 40
-2.0
 40
-1.0
 40
0.0
 40
1.0
 40
2.0
 40
3.0
 40
4.0
 40
5.0
 40
6.0
 40
7.0
 40
8.0
 40
9.0
 40
10.0
 40
11.0
 40
12.0
 40
13.0
 40
14.0
 40
15.0
 40
16.0
 40
17.0
 40
18.0
 40
19.0
 40
20.0
 40
21.0
 40
22.0
 40
23.0
 40
24.0
 40
25.0
 40
26.0
 40
27.0
 40
28.0
 40
29.0
 40
30.0
 40
31.0
 40
32.0
 40
33.0
 40
34.0
 40
35.0
 40
36.0
 40
37.0
 40
38.0
 40
39.0
 40
40.0
 40
41.0
 40
42.0
 40
43.0
 10
-1.572419278660419
 20
69.58426741189398
 30
0.0
 10
0.0000028257865381
 20
69.59958822254958
 30
0.0
 10
1.572423327636415
 20
69.58426741099254
 30
0.0
 10
3.144486949588639
 20
69.51737851626888
 30
0.0
 10
4.703645604240791
 20
69.29852796146099
 30
0.0
 10
6.221082135337412
 20
68.85271267037206
 30
0.0
 10
7.563822623605944
 20
67.98999633948095
 30
0.0
 10
8.471735513430446
 20
66.65671119310144
 30
0.0
 10
8.743370537808772
 20
65.09125521604241
 30
0.0
 10
8.925914237116643
 20
63.53300235896319
 30
0.0
 10
9.009767914917433
 20
61.96096390155157
 30
0.0
 10
9.019719159138702
 20
60.38834232178976
 30
0.0
 10
8.964962809904733
 20
58.81676377864083
 30
0.0
 10
8.866905219886831
 20
57.24646834191091
 30
0.0
 10
8.688230388315475
 20
55.68562557462494
 30
0.0
 10
8.378865770292322
 20
54.13321816605823
 30
0.0
 10
7.542961466772823
 20
52.75514885215023
 30
0.0
 10
6.143632851564263
 20
51.96365455233595
 30
0.0
 10
4.683260055523618
 20
51.38929555849583
 30
0.0
 10
3.132937091352375
 20
51.08937321525774
 30
0.0
 10
1.572105418689347
 20
50.90311278142028
 30
0.0
 10
0.0000026492796508
 20
50.81908888908195
 30
0.0
 10
-1.572100663685802
 20
50.9031128058118
 30
0.0
 10
-3.132930824577812
 20
51.08937312837394
 30
0.0
 10
-4.683253932506005
 20
51.38929507626933
 30
0.0
 10
-6.143629361307461
 20
51.96365555010252
 30
0.0
 10
-7.542954998391025
 20
52.75514741619855
 30
0.0
 10
-8.37886159020988
 20
54.13322032705921
 30
0.0
 10
-8.68822479570693
 20
55.68562359992882
 30
0.0
 10
-8.866900214380308
 20
57.24646887090724
 30
0.0
 10
-8.964957589829083
 20
58.81676218713275
 30
0.0
 10
-9.019714056927086
 20
60.38834270706006
 30
0.0
 10
-9.009762821828616
 20
61.96096249167668
 30
0.0
 10
-8.925909144478538
 20
63.533002801085
 30
0.0
 10
-8.743365231645754
 20
65.0912556384906
 30
0.0
 10
-8.471731009369904
 20
66.6567098363788
 30
0.0
 10
-7.563817095404346
 20
67.98999684382358
 30
0.0
 10
-6.221077854382685
 20
68.85271219781728
 30
0.0
 10
-4.703640469285261
 20
69.29852802349723
 30
0.0
 10
-3.144482588708883
 20
69.51737840749006
 30
0.0
 10
-1.572419278660419
 20
69.58426741189398
 30
0.0
 10
0.0000028257865381
 20
69.59958822254958
 30
0.0
 10
1.572423327636415
 20
69.58426741099254
 30
0.0
  0
SPLINE
  5
71
330
1F
100
AcDbEntity
  8
Default
100
AcDbSpline
210
0.0
220
0.0
230
1.0
 70
     8
 71
     3
 72
    12
 73
     8
 74
     0
 42
0.0000000001
 43
0.0000000001
 40
0.0
 40
0.0
 40
0.0
 40
0.0
 40
1.0
 40
2.0
 40
3.0
 40
4.0
 40
5.0
 40
5.0
 40
5.0
 40
5.0
 10
-8.82789773390627
 20
53.49608705278507
 30
0.0
 10
-9.675975517092155
 20
54.15861576274166
 30
0.0
 10
-11.16814950322257
 20
55.74093908895053
 30
0.0
 10
-12.65994861221125
 20
58.63324052679553
 30
0.0
 10
-13.50031431070116
 20
61.76477852817717
 30
0.0
 10
-13.71705153769554
 20
65.00410125789222
 30
0.0
 10
-13.35153253211061
 20
67.14043896468058
 30
0.0
 10
-13.06493062604548
 20
68.17681837474711
 30
0.0
  0
SPLINE
  5
72
330
1F
100
AcDbEntity
  8
Default
100
AcDbSpline
210
0.0
220
0.0
230
1.0
 70
    12
 71
     2
 72
     6
 73
     3
 74
     0
 42
0.0000000001
 43
0.0000000001
 40
0.0
 40
0.0
 40
0.0
 40
0.4002222356920559
 40
0.4002222356920559
 40
0.4002222356920559
 10
6.912474192795088
 20
6.368829693226644
 30
0.0
 41
1.0
 10
6.884495198629597
 20
6.566975183658066
 30
0.0
 41
0.9999999998631137
 10
6.856522761541129
 20
6.765121599866508
 30
0.0
 41
1.0
  0
SPLINE
  5
73
330
1F
100
AcDbEntity
  8
Default
100
AcDbSpline
210
0.0
220
0.0
230
1.0
 70
    24
 71
     2
 72
     6
 73
     3
 74
     0
 42
0.0000000001
 43
0.0000000001
 40
0.0
 40
0.0
 40
0.0
 40
3.647625187282489
 40
3.647625187282489
 40
3.647625187282489
 10
6.725411471650347
 20
7.130746672792809
 30
0.0
 10
6.459082542724133
 20
8.935008648876503
 30
0.0
 10
6.192753613797976
 20
10.7392706249602
 30
0.0
  0
SPLINE
  5
74
330
1F
100
AcDbEntity
  8
Default
100
AcDbSpline
210
0.0
220
0.0
230
1.0
 70
    12
 71
     2
 72
     6
 73
     3
 74
     0
 42
0.0000000001
 43
0.0000000001
 40
0.0
 40
0.0
 40
0.0
 40
0.8010704518778793
 40
0.8010704518778793
 40
0.8010704518778793
 10
-8.74128814454852
 20
0.000000003227882
 30
0.0
 41
1.0
 10
-8.340752927462548
 20
0.0000846535314002
 30
0.0
 41
0.9999999996547628
 10
-7.940217706480922
 20
0.0001482542063195
 30
0.0
 41
1.0
  0
SPLINE
  5
75
330
1F
100
AcDbEntity
  8
Default
100
AcDbSpline
210
0.0
220
0.0
230
1.0
 70
    24
 71
     2
 72
     6
 73
     3
 74
     0
 42
0.0000000001
 43
0.0000000001
 40
0.0
 40
0.0
 40
0.0
 40
5.897490400714366
 40
5.897490400714366
 40
5.897490400714366
 10
-7.754266330229058
 20
0.1607051240707067
 30
0.0
 10
-7.323664987949911
 20
3.077840832373789
 30
0.0
 10
-6.893063645670765
 20
5.994976540676871
 30
0.0
  0
SPLINE
  5
76
330
1F
100
AcDbEntity
  8
Default - Tangent
100
AcDbSpline
210
0.0
220
0.0
230
1.0
 70
    24
 71
     2
 72
     6
 73
     3
 74
     0
 42
0.0000000001
 43
0.0000000001
 40
0.0
 40
0.0
 40
0.0
 40
4.59447787015285
 40
4.59447787015285
 40
4.59447787015285
 10
2.600432462148348
 20
6.380775001852589
 30
0.0
 10
4.888449321121101
 20
6.17514042818501
 30
0.0
 10
7.176466180093854
 20
5.969505854517431
 30
0.0
  0
POLYLINE
  5
77
330
1F
100
AcDbEntity
  8
Default
100
AcDb2dPolyline
 66
     1
 10
0.0
 20
0.0
 30
0.0
  0
VERTEX
  5
78
330
77
100
AcDbEntity
  8
Default
100
AcDbVertex
100
AcDb2dVertex
 10
-1.951462879158697
 20
6.409777512516227
 30
0.0
  0
VERTEX
  5
79
330
77
100
AcDbEntity
  8
Default
100
AcDbVertex
100
AcDb2dVertex
 10
1.951462879158697
 20
6.409777512516227
 30
0.0
  0
SEQEND
  5
7A
330
77
100
AcDbEntity
  8
Default
  0
SPLINE
  5
7B
330
1F
100
AcDbEntity
  8
Default
100
AcDbSpline
210
0.0
220
0.0
230
1.0
 70
     8
 71
     3
 72
    12
 73
     8
 74
     0
 42
0.0000000001
 43
0.0000000001
 40
0.0
 40
0.0
 40
0.0
 40
0.0
 40
1.0
 40
2.0
 40
3.0
 40
4.0
 40
5.0
 40
5.0
 40
5.0
 40
5.0
 10
8.827902851280356
 20
53.49608705278507
 30
0.0
 10
9.675980634466242
 20
54.15861576274166
 30
0.0
 10
11.16815462059665
 20
55.74093908895053
 30
0.0
 10
12.65995372958528
 20
58.63324052679553
 30
0.0
 10
13.50031942807524
 20
61.76477852817717
 30
0.0
 10
13.71705665506957
 20
65.00410125789222
 30
0.0
 10
13.35153764948464
 20
67.14043896468058
 30
0.0
 10
13.06493574341951
 20
68.17681837474711
 30
0.0
  0
SPLINE
  5
7C
330
1F
100
AcDbEntity
  8
Default
100
AcDbSpline
210
0.0
220
0.0
230
1.0
 70
    12
 71
     2
 72
     6
 73
     3
 74
     0
 42
0.0000000001
 43
0.0000000001
 40
-0.2677333291544088
 40
-0.2677333291544088
 40
-0.2677333291544088
 40
0.0
 40
0.0
 40
0.0
 10
-7.940217706480922
 20
0.0001482542063195
 30
0.0
 41
1.0
 10
-7.777952799480396
 20
0.0001783284172676
 30
0.0
 41
0.7570196239544809
 10
-7.754266330229058
 20
0.1607051240707067
 30
0.0
 41
1.0
  0
SPLINE
  5
7D
330
1F
100
AcDbEntity
  8
Default
100
AcDbSpline
210
0.0
220
0.0
230
1.0
 70
    12
 71
     3
 72
    14
 73
    10
 74
     0
 42
0.0000000001
 43
0.0000000001
 40
0.0
 40
0.0
 40
0.0
 40
0.0
 40
2.272530570850037
 40
5.023967254719622
 40
6.68002001149758
 40
7.995391502034781
 40
7.995391502034781
 40
7.995391502034781
 40
12.3591975902638
 40
12.3591975902638
 40
12.3591975902638
 40
12.3591975902638
 10
9.794442124253266
 20
39.55059189330777
 30
0.0
 41
1.0
 10
9.81406761705594
 20
38.79332778147171
 30
0.0
 41
1.0
 10
9.869587103805003
 20
37.11959257450953
 30
0.0
 41
1.0
 10
9.956378196602117
 20
34.89458595781138
 30
0.0
 41
1.0
 10
10.04816997551953
 20
32.98915574434044
 30
0.0
 41
1.0
 10
10.11325931681117
 20
32.00075226951559
 30
0.0
 41
1.0
 10
10.14855689979467
 20
31.5637187716989
 30
0.0
 41
1.0
 10
10.26567438482188
 20
30.11364032976064
 30
0.0
 41
0.9997274175345053
 10
10.51780975946403
 20
27.9199050614652
 30
0.0
 41
0.9997274175345053
 10
10.80233794865276
 20
26.49167556056861
 30
0.0
 41
1.0
  0
SPLINE
  5
7E
330
1F
100
AcDbEntity
  8
Default
100
AcDbSpline
210
0.0
220
0.0
230
1.0
 70
     8
 71
     3
 72
    36
 73
    32
 74
     0
 42
0.0000000001
 43
0.0000000001
 40
18.97962094509823
 40
18.97962094509823
 40
18.97962094509823
 40
18.97962094509823
 40
19.0
 40
20.0
 40
21.0
 40
22.0
 40
23.0
 40
24.0
 40
25.0
 40
26.0
 40
27.0
 40
28.0
 40
29.0
 40
30.0
 40
31.0
 40
32.0
 40
33.0
 40
34.0
 40
35.0
 40
36.0
 40
37.0
 40
38.0
 40
39.0
 40
40.0
 40
41.0
 40
42.0
 40
43.0
 40
44.0
 40
45.0
 40
46.0
 40
46.99936515263306
 40
46.99936515263306
 40
46.99936515263306
 40
46.99936515263306
 10
10.80233794865276
 20
26.49167556056861
 30
0.0
 10
10.80322900802528
 20
26.48720276198042
 30
0.0
 10
10.84785415995728
 20
26.26325367911019
 30
0.0
 10
10.93758391942569
 20
25.82031639824704
 30
0.0
 10
11.07819411403065
 20
25.16389673495277
 30
0.0
 10
11.24786793226733
 20
24.51429405045732
 30
0.0
 10
11.44802570862745
 20
23.87351890313296
 30
0.0
 10
11.68271763611781
 20
23.2439236030916
 30
0.0
 10
11.97212069591475
 20
22.6386373303984
 30
0.0
 10
12.29490202463464
 20
22.04674601509657
 30
0.0
 10
12.74600174017533
 20
21.54637864665834
 30
0.0
 10
13.29326928420286
 20
21.13883602023191
 30
0.0
 10
13.94603456874759
 20
20.97696263147986
 30
0.0
 10
14.61259099797226
 20
20.78791778317306
 30
0.0
 10
15.01112432931515
 20
20.20538284758713
 30
0.0
 10
15.04145883747796
 20
19.50491078840375
 30
0.0
 10
14.7466421897885
 20
18.89599647383541
 30
0.0
 10
14.44482366412555
 20
18.29802868197049
 30
0.0
 10
14.12232491405942
 20
17.70881679435574
 30
0.0
 10
13.77830620809104
 20
17.13245177709284
 30
0.0
 10
13.41027124697192
 20
16.57093662658403
 30
0.0
 10
13.0190297784192
 20
16.02538165431481
 30
0.0
 10
12.60460374457395
 20
15.49720410657835
 30
0.0
 10
12.16804985284759
 20
14.98717624547656
 30
0.0
 10
11.71061241200138
 20
14.49580206986586
 30
0.0
 10
11.23350979362831
 20
14.02349354457803
 30
0.0
 10
10.7373591495431
 20
13.57125970197116
 30
0.0
 10
10.22413111922933
 20
13.13849762803939
 30
0.0
 10
9.693714013871926
 20
12.72697176383853
 30
0.0
 10
9.147155011135084
 20
12.3373884139649
 30
0.0
 10
8.772601516959156
 20
12.09266312395008
 30
0.0
 10
8.58298975416264
 20
11.97417205931858
 30
0.0
  0
SPLINE
  5
7F
330
1F
100
AcDbEntity
  8
Default
100
AcDbSpline
210
0.0
220
0.0
230
1.0
 70
     8
 71
     3
 72
    36
 73
    32
 74
     0
 42
0.0000000001
 43
0.0000000001
 40
-46.99936515263307
 40
-46.99936515263307
 40
-46.99936515263307
 40
-46.99936515263307
 40
-46.0
 40
-45.0
 40
-44.0
 40
-43.0
 40
-42.0
 40
-41.0
 40
-40.0
 40
-39.0
 40
-38.0
 40
-37.0
 40
-36.0
 40
-35.0
 40
-34.0
 40
-33.0
 40
-32.0
 40
-31.0
 40
-30.0
 40
-29.0
 40
-28.0
 40
-27.0
 40
-26.0
 40
-25.0
 40
-24.0
 40
-23.0
 40
-22.0
 40
-21.0
 40
-20.0
 40
-19.0
 40
-18.97962094509862
 40
-18.97962094509862
 40
-18.97962094509862
 40
-18.97962094509862
 10
-8.58298975416264
 20
11.97417205931858
 30
0.0
 10
-8.772601516959156
 20
12.09266312395008
 30
0.0
 10
-9.147155011135027
 20
12.3373884139649
 30
0.0
 10
-9.693714013871926
 20
12.72697176383853
 30
0.0
 10
-10.22413111922933
 20
13.13849762803939
 30
0.0
 10
-10.7373591495431
 20
13.57125970197116
 30
0.0
 10
-11.23350979362831
 20
14.02349354457803
 30
0.0
 10
-11.71061241200138
 20
14.49580206986586
 30
0.0
 10
-12.16804985284759
 20
14.98717624547656
 30
0.0
 10
-12.60460374457389
 20
15.49720410657835
 30
0.0
 10
-13.01902977841914
 20
16.02538165431481
 30
0.0
 10
-13.41027124697192
 20
16.57093662658403
 30
0.0
 10
-13.77830620809104
 20
17.13245177709284
 30
0.0
 10
-14.12232491405942
 20
17.70881679435574
 30
0.0
 10
-14.44482366412549
 20
18.29802868197049
 30
0.0
 10
-14.7466421897885
 20
18.89599647383541
 30
0.0
 10
-15.0414588374779
 20
19.50491078840375
 30
0.0
 10
-15.01112432931515
 20
20.20538284758713
 30
0.0
 10
-14.61259099797226
 20
20.78791778317306
 30
0.0
 10
-13.94603456874759
 20
20.97696263147986
 30
0.0
 10
-13.29326928420286
 20
21.13883602023191
 30
0.0
 10
-12.74600174017533
 20
21.54637864665834
 30
0.0
 10
-12.29490202463458
 20
22.04674601509657
 30
0.0
 10
-11.9721206959147
 20
22.6386373303984
 30
0.0
 10
-11.68271763611781
 20
23.2439236030916
 30
0.0
 10
-11.44802570862745
 20
23.87351890313296
 30
0.0
 10
-11.24786793226727
 20
24.51429405045732
 30
0.0
 10
-11.07819411403065
 20
25.16389673495277
 30
0.0
 10
-10.93758391942569
 20
25.82031639824704
 30
0.0
 10
-10.84785415995728
 20
26.2632536791101
 30
0.0
 10
-10.80322900802534
 20
26.48720276198025
 30
0.0
 10
-10.80233794865282
 20
26.49167556056835
 30
0.0
  0
SPLINE
  5
80
330
1F
100
AcDbEntity
  8
Default
100
AcDbSpline
210
0.0
220
0.0
230
1.0
 70
    12
 71
     3
 72
    14
 73
    10
 74
     0
 42
0.0000000001
 43
0.0000000001
 40
-4.36387859078472
 40
-4.36387859078472
 40
-4.36387859078472
 40
-4.36387859078472
 40
0.0
 40
0.0
 40
0.0
 40
0.6166140580245227
 40
1.31537414424904
 40
2.970965137522998
 40
7.997532208823502
 40
7.997532208823502
 40
7.997532208823502
 40
7.997532208823502
 10
-10.80233794865282
 20
26.49167556056835
 30
0.0
 41
1.0
 10
-10.51784415244975
 20
27.91973242100693
 30
0.0
 41
0.9997274049409776
 10
-10.26945896895382
 20
30.11392670474288
 30
0.0
 41
0.9997274049409776
 10
-10.14855689979598
 20
31.56371877169888
 30
0.0
 41
1.0
 10
-10.13147447883065
 20
31.76856190277547
 30
0.0
 41
1.0
 10
-10.10049232698702
 20
32.20589592678585
 30
0.0
 41
1.0
 10
-10.03741360084985
 20
33.19426978597038
 30
0.0
 41
1.0
 10
-9.922466576064437
 20
35.65188630537973
 30
0.0
 41
1.0
 10
-9.839812669360668
 20
37.877825704519
 30
0.0
 41
1.0
 10
-9.794379331481565
 20
39.55275448872938
 30
0.0
 41
1.0
  0
SPLINE
  5
81
330
1F
100
AcDbEntity
  8
Default
100
AcDbSpline
210
0.0
220
0.0
230
1.0
 70
     8
 71
     3
 72
    12
 73
     8
 74
     0
 42
0.0000000001
 43
0.0000000001
 40
0.0
 40
0.0
 40
0.0
 40
0.0
 40
0.4799243607303058
 40
0.9499896771204523
 40
1.805716767132695
 40
2.611606334304326
 40
3.377181149938189
 40
3.377181149938189
 40
3.377181149938189
 40
3.377181149938189
 10
-9.794379331481565
 20
39.55275448872938
 30
0.0
 10
-9.79020858300467
 20
39.71265599870994
 30
0.0
 10
-9.762788665133485
 20
40.02886784718482
 30
0.0
 10
-9.633825010274393
 20
40.61795676236592
 30
0.0
 10
-9.335500657432789
 20
41.27208404236659
 30
0.0
 10
-8.75661892905785
 20
41.85958072702361
 30
0.0
 10
-8.25804076564549
 20
42.05658742160821
 30
0.0
 10
-8.005544078551793
 20
42.09450678662773
 30
0.0
  0
SPLINE
  5
82
330
1F
100
AcDbEntity
  8
Default
100
AcDbSpline
210
0.0
220
0.0
230
1.0
 70
     8
 71
     3
 72
    12
 73
     8
 74
     0
 42
0.0000000001
 43
0.0000000001
 40
0.0
 40
0.0
 40
0.0
 40
0.0
 40
0.999999999112639
 40
1.999999999710156
 40
3.000000000307672
 40
4.000000000905188
 40
5.0
 40
5.0
 40
5.0
 40
5.0
 10
-8.005544078551793
 20
42.09450678662773
 30
0.0
 10
-6.948022941880453
 20
42.25741999665691
 30
0.0
 10
-4.811334752009401
 20
42.38933513468229
 30
0.0
 10
-1.603769938059912
 20
42.41029081284194
 30
0.0
 10
1.603768057921144
 20
42.40968377424867
 30
0.0
 10
4.811325118978544
 20
42.38932119846838
 30
0.0
 10
6.948025102177809
 20
42.25748668357276
 30
0.0
 10
8.005543028725299
 20
42.09450903668046
 30
0.0
  0
SPLINE
  5
83
330
1F
100
AcDbEntity
  8
Default
100
AcDbSpline
210
0.0
220
0.0
230
1.0
 70
     8
 71
     3
 72
    12
 73
     8
 74
     0
 42
0.0000000001
 43
0.0000000001
 40
0.0
 40
0.0
 40
0.0
 40
0.0
 40
0.3681735974468679
 40
0.7558963010621398
 40
1.565710918587365
 40
2.427222010208526
 40
3.377193793628841
 40
3.377193793628841
 40
3.377193793628841
 40
3.377193793628841
 10
8.005543028725299
 20
42.09450903668046
 30
0.0
 10
8.126830985435873
 20
42.07573083287802
 30
0.0
 10
8.37189115306083
 20
42.01177400260597
 30
0.0
 10
8.839940304220733
 20
41.77323137749569
 30
0.0
 10
9.333297824195967
 20
41.27703758405398
 30
0.0
 10
9.700464362490862
 20
40.47235293990643
 30
0.0
 10
9.785564439927924
 20
39.86914646837214
 30
0.0
 10
9.79437361176528
 20
39.55277675872458
 30
0.0
  0
SPLINE
  5
84
330
1F
100
AcDbEntity
  8
Default
100
AcDbSpline
210
0.0
220
0.0
230
1.0
 70
     8
 71
     3
 72
    12
 73
     8
 74
     0
 42
0.0000000001
 43
0.0000000001
 40
0.0
 40
0.0
 40
0.0
 40
0.0
 40
1.0
 40
2.0
 40
3.0
 40
4.0
 40
5.0
 40
5.0
 40
5.0
 40
5.0
 10
8.005546094599538
 20
76.76004908969347
 30
0.0
 10
6.970922116648694
 20
77.07258474720894
 30
0.0
 10
4.870098620533383
 20
77.56282799182372
 30
0.0
 10
1.615797268316982
 20
77.6769616124117
 30
0.0
 10
-1.615794623132473
 20
77.67685896499688
 30
0.0
 10
-4.87010440275364
 20
77.56286888476978
 30
0.0
 10
-6.970914469529674
 20
77.07257624102711
 30
0.0
 10
-8.005540977225479
 20
76.76004908969347
 30
0.0
  0
SPLINE
  5
85
330
1F
100
AcDbEntity
  8
Default
100
AcDbSpline
210
0.0
220
0.0
230
1.0
 70
    12
 71
     2
 72
     6
 73
     3
 74
     0
 42
0.0000000001
 43
0.0000000001
 40
-0.6438897882869967
 40
-0.6438897882869967
 40
-0.6438897882869967
 40
0.0
 40
0.0
 40
0.0
 10
1.951446883447403
 20
6.800617553810579
 30
0.0
 41
1.0
 10
2.291368948037751
 20
6.801342586039203
 30
0.0
 41
0.9993536933267371
 10
2.612567522114176
 20
6.825204360570401
 30
0.0
 41
1.0
  0
SPLINE
  5
86
330
1F
100
AcDbEntity
  8
Default
100
AcDbSpline
210
0.0
220
0.0
230
1.0
 70
    24
 71
     2
 72
     6
 73
     3
 74
     0
 42
0.0000000001
 43
0.0000000001
 40
-5.213253124058671
 40
-5.213253124058671
 40
-5.213253124058671
 40
0.0
 40
0.0
 40
0.0
 10
2.612567522114176
 20
6.825204360570401
 30
0.0
 10
5.212030770519931
 20
7.018317938717375
 30
0.0
 10
7.811494018925629
 20
7.211431516864348
 30
0.0
  0
SPLINE
  5
87
330
1F
100
AcDbEntity
  8
Default
100
AcDbSpline
210
0.0
220
0.0
230
1.0
 70
    12
 71
     2
 72
     6
 73
     3
 74
     0
 42
0.0000000001
 43
0.0000000001
 40
0.0
 40
0.0
 40
0.0
 40
1.5565317031037
 40
1.5565317031037
 40
1.5565317031037
 10
-6.526393094243502
 20
10.88259040844969
 30
0.0
 41
1.0
 10
-6.620793807172253
 20
10.11007099671018
 30
0.0
 41
0.9999999994751744
 10
-6.715144463240364
 20
9.33754546974402
 30
0.0
 41
1.0
  0
LINE
  5
88
330
1F
100
AcDbEntity
  8
Default
100
AcDbLine
 10
-6.959618341244351
 20
9.164135901303938
 30
0.0
 11
-7.433184869546523
 21
9.267246349785571
 31
0.0
  0
ARC
  5
89
330
1F
100
AcDbEntity
  8
Default
100
AcDbCircle
 10
-6.916464616536217
 20
9.362332688285816
 30
0.0
 40
0.2028403567491482
100
AcDbArc
 50
257.7166040932474
 51
352.9808759773761
  0
SPLINE
  5
8A
330
1F
100
AcDbEntity
  8
Default
100
AcDbSpline
210
0.0
220
0.0
230
1.0
 70
    12
 71
     2
 72
     6
 73
     3
 74
     0
 42
0.0000000001
 43
0.0000000001
 40
0.0
 40
0.0
 40
0.0
 40
0.3778268243756051
 40
0.3778268243756051
 40
0.3778268243756051
 10
-7.019044156084334
 20
5.614290701413776
 30
0.0
 41
1.0
 10
-6.992618097691543
 20
5.801346684342113
 30
0.0
 41
0.9999999998517104
 10
-6.966198482072599
 20
5.988403577350623
 30
0.0
 41
1.0
  0
SPLINE
  5
8B
330
1F
100
AcDbEntity
  8
Default
100
AcDbSpline
210
0.0
220
0.0
230
1.0
 70
    12
 71
     2
 72
     6
 73
     3
 74
     0
 42
0.0000000001
 43
0.0000000001
 40
-0.6767837654293626
 40
-0.6767837654293626
 40
-0.6767837654293626
 40
0.0
 40
0.0
 40
0.0
 10
-2.627676575192339
 20
6.450961604855928
 30
0.0
 41
1.0
 10
-2.290065628768817
 20
6.425789359207773
 30
0.0
 41
0.9993081439452777
 10
-1.951517562693056
 20
6.425782126315481
 30
0.0
 41
1.0
  0
SPLINE
  5
8C
330
1F
100
AcDbEntity
  8
Default
100
AcDbSpline
210
0.0
220
0.0
230
1.0
 70
    12
 71
     2
 72
     6
 73
     3
 74
     0
 42
0.0000000001
 43
0.0000000001
 40
0.0
 40
0.0
 40
0.0
 40
0.0937842320006875
 40
0.0937842320006875
 40
0.0937842320006875
 10
-6.80408771949962
 20
7.136591514702104
 30
0.0
 41
1.0
 10
-6.797534287274285
 20
7.183023433347139
 30
0.0
 41
0.9999999999936724
 10
-6.790981185402785
 20
7.229455398617631
 30
0.0
 41
1.0
  0
SPLINE
  5
8D
330
1F
100
AcDbEntity
  8
Default
100
AcDbSpline
210
0.0
220
0.0
230
1.0
 70
     8
 71
     3
 72
    13
 73
     9
 74
     0
 42
0.0000000001
 43
0.0000000001
 40
0.0
 40
0.0
 40
0.0
 40
0.0
 40
0.0659403231465319
 40
0.1339151955238136
 40
0.2573848639912312
 40
0.3771184892071823
 40
0.5081105643064359
 40
0.6902159716558347
 40
0.6902159716558347
 40
0.6902159716558347
 40
0.6902159716558347
 10
-7.396900119977346
 20
5.542360861621122
 30
0.0
 10
-7.400149043035611
 20
5.520712535491276
 30
0.0
 10
-7.400254000717581
 20
5.47495934546817
 30
0.0
 10
-7.371125884080612
 20
5.393871194654018
 30
0.0
 10
-7.287963999136849
 20
5.319056874779339
 30
0.0
 10
-7.151588381142432
 20
5.335884969644897
 30
0.0
 10
-7.058684492455171
 20
5.454145705051813
 30
0.0
 10
-7.027434284619886
 20
5.553626753614765
 30
0.0
 10
-7.019044156084334
 20
5.614290701413776
 30
0.0
  0
SPLINE
  5
8E
330
1F
100
AcDbEntity
  8
Default
100
AcDbSpline
210
0.0
220
0.0
230
1.0
 70
    24
 71
     2
 72
     6
 73
     3
 74
     0
 42
0.0000000001
 43
0.0000000001
 40
0.0
 40
0.0
 40
0.0
 40
5.266541059653923
 40
5.266541059653923
 40
5.266541059653923
 10
-7.879744575224066
 20
6.841136509306753
 30
0.0
 10
-5.253710575208203
 20
6.64604905708134
 30
0.0
 10
-2.627676575192339
 20
6.450961604855928
 30
0.0
  0
SPLINE
  5
8F
330
1F
100
AcDbEntity
  8
Default
100
AcDbSpline
210
0.0
220
0.0
230
1.0
 70
    12
 71
     2
 72
     6
 73
     3
 74
     0
 42
0.0000000001
 43
0.0000000001
 40
0.0
 40
0.0
 40
0.0
 40
0.6767837654293626
 40
0.6767837654293626
 40
0.6767837654293626
 10
1.951517562693056
 20
6.425782126315481
 30
0.0
 41
1.0
 10
2.290065628768839
 20
6.425789359207773
 30
0.0
 41
0.9993081439452777
 10
2.627676575192339
 20
6.450961604855928
 30
0.0
 41
1.0
  0
SPLINE
  5
90
330
1F
100
AcDbEntity
  8
Default
100
AcDbSpline
210
0.0
220
0.0
230
1.0
 70
     8
 71
     3
 72
    13
 73
     9
 74
     0
 42
0.0000000001
 43
0.0000000001
 40
0.0
 40
0.0
 40
0.0
 40
0.0
 40
0.0527988964564631
 40
0.0914000315304187
 40
0.1600512542202194
 40
0.2540278845990126
 40
0.3796332324843674
 40
0.6416550723218502
 40
0.6416550723218502
 40
0.6416550723218502
 40
0.6416550723218502
 10
-6.790981185402785
 20
7.229455398617631
 30
0.0
 10
-6.788549628010031
 20
7.245534649171679
 30
0.0
 10
-6.785241380219219
 20
7.279616711553726
 30
0.0
 10
-6.788564008257396
 20
7.327474120776842
 30
0.0
 10
-6.812274046748627
 20
7.401489501875727
 30
0.0
 10
-6.915517210597756
 20
7.421857085932874
 30
0.0
 10
-7.063864577562953
 20
7.356767842950066
 30
0.0
 10
-7.15462518502747
 20
7.252894410137452
 30
0.0
 10
-7.1688256508439
 20
7.164451609521173
 30
0.0
  0
POLYLINE
  5
91
330
1F
100
AcDbEntity
  8
Default
100
AcDb2dPolyline
 66
     1
 10
0.0
 20
0.0
 30
0.0
  0
VERTEX
  5
92
330
91
100
AcDbEntity
  8
Default
100
AcDbVertex
100
AcDb2dVertex
 10
-1.951517562693056
 20
6.425782126315481
 30
0.0
  0
VERTEX
  5
93
330
91
100
AcDbEntity
  8
Default
100
AcDbVertex
100
AcDb2dVertex
 10
1.951517562693056
 20
6.425782126315481
 30
0.0
  0
SEQEND
  5
94
330
91
100
AcDbEntity
  8
Default
  0
SPLINE
  5
95
330
1F
100
AcDbEntity
  8
Default
100
AcDbSpline
210
0.0
220
0.0
230
1.0
 70
    24
 71
     2
 72
     6
 73
     3
 74
     0
 42
0.0000000001
 43
0.0000000001
 40
-5.266541059653923
 40
-5.266541059653923
 40
-5.266541059653923
 40
0.0
 40
0.0
 40
0.0
 10
2.627676575192339
 20
6.450961604855928
 30
0.0
 10
5.253710575208203
 20
6.64604905708134
 30
0.0
 10
7.879744575224123
 20
6.841136509306753
 30
0.0
  0
SPLINE
  5
96
330
1F
100
AcDbEntity
  8
Default
100
AcDbSpline
210
0.0
220
0.0
230
1.0
 70
    24
 71
     2
 72
     6
 73
     3
 74
     0
 42
0.0000000001
 43
0.0000000001
 40
0.0
 40
0.0
 40
0.0
 40
2.201146945755387
 40
2.201146945755387
 40
2.201146945755387
 10
8.698908507465518
 20
2.396743218887003
 30
0.0
 10
8.81360444773182
 20
1.302162563801001
 30
0.0
 10
8.928300387998064
 20
0.2075819087149986
 30
0.0
  0
SPLINE
  5
97
330
1F
100
AcDbEntity
  8
Default
100
AcDbSpline
210
0.0
220
0.0
230
1.0
 70
    12
 71
     2
 72
     8
 73
     5
 74
     0
 42
0.0000000001
 43
0.0000000001
 40
-0.3149620417233434
 40
-0.3149620417233434
 40
-0.3149620417233434
 40
-0.1574810208616717
 40
-0.1574810208616717
 40
0.0
 40
0.0
 40
0.0
 10
8.928300387998064
 20
0.2075819087149986
 30
0.0
 41
1.0
 10
8.937017724355766
 20
0.1243446276420911
 30
0.0
 41
0.9135643766743925
 10
8.880999190775157
 20
0.0621645600234536
 30
0.0
 41
1.0
 10
8.824980657194475
 20
-0.000015507595184
 30
0.0
 41
0.9135643766743925
 10
8.74128814454852
 20
0.000000003227882
 30
0.0
 41
1.0
  0
SPLINE
  5
98
330
1F
100
AcDbEntity
  8
Default
100
AcDbSpline
210
0.0
220
0.0
230
1.0
 70
    12
 71
     2
 72
     6
 73
     3
 74
     0
 42
0.0000000001
 43
0.0000000001
 40
-0.2677333291544088
 40
-0.2677333291544088
 40
-0.2677333291544088
 40
0.0
 40
0.0
 40
0.0
 10
7.940217706480922
 20
0.0001482542063195
 30
0.0
 41
1.0
 10
7.777952799480393
 20
0.0001783284172676
 30
0.0
 41
0.7570196239544809
 10
7.754266330229058
 20
0.1607051240707067
 30
0.0
 41
1.0
  0
SPLINE
  5
99
330
1F
100
AcDbEntity
  8
Default
100
AcDbSpline
210
0.0
220
0.0
230
1.0
 70
    12
 71
     2
 72
     6
 73
     3
 74
     0
 42
0.0000000001
 43
0.0000000001
 40
0.0
 40
0.0
 40
0.0
 40
1.26205715921452
 40
1.26205715921452
 40
1.26205715921452
 10
7.221212723996103
 20
6.792214332004733
 30
0.0
 41
1.0
 10
7.309035882221901
 20
6.167327013116567
 30
0.0
 41
0.9999999997230192
 10
7.396900119977346
 20
5.542360861621122
 30
0.0
 41
1.0
  0
SPLINE
  5
9A
330
1F
100
AcDbEntity
  8
Default
100
AcDbSpline
210
0.0
220
0.0
230
1.0
 70
    12
 71
     2
 72
     6
 73
     3
 74
     0
 42
0.0000000001
 43
0.0000000001
 40
0.0
 40
0.0
 40
0.0
 40
0.8010704518778793
 40
0.8010704518778793
 40
0.8010704518778793
 10
8.74128814454852
 20
0.000000003227882
 30
0.0
 41
1.0
 10
8.340752927462558
 20
0.0000846535314002
 30
0.0
 41
0.9999999996547628
 10
7.940217706480922
 20
0.0001482542063195
 30
0.0
 41
1.0
  0
SPLINE
  5
9B
330
1F
100
AcDbEntity
  8
Default
100
AcDbSpline
210
0.0
220
0.0
230
1.0
 70
    24
 71
     2
 72
     6
 73
     3
 74
     0
 42
0.0000000001
 43
0.0000000001
 40
0.0
 40
0.0
 40
0.0
 40
5.897490400714366
 40
5.897490400714366
 40
5.897490400714366
 10
7.754266330229058
 20
0.1607051240707067
 30
0.0
 10
7.323664987949911
 20
3.077840832373789
 30
0.0
 10
6.893063645670821
 20
5.994976540676871
 30
0.0
  0
SPLINE
  5
9C
330
1F
100
AcDbEntity
  8
Default - Tangent
100
AcDbSpline
210
0.0
220
0.0
230
1.0
 70
     8
 71
     2
 72
     6
 73
     3
 74
     0
 42
0.0000000001
 43
0.0000000001
 40
0.0
 40
0.0
 40
0.0
 40
2.645173735971417
 40
2.645173735971417
 40
2.645173735971417
 10
7.107713820984287
 20
6.351266140690463
 30
0.0
 10
5.790436935953693
 20
6.469672329946428
 30
0.0
 10
4.473159483790624
 20
6.588062098892065
 30
0.0
  0
SPLINE
  5
9D
330
1F
100
AcDbEntity
  8
Default - Tangent
100
AcDbSpline
210
0.0
220
0.0
230
1.0
 70
     8
 71
     3
 72
    12
 73
     8
 74
     0
 42
0.0000000001
 43
0.0000000001
 40
-0.5143832258818922
 40
-0.5143832258818922
 40
-0.5143832258818922
 40
-0.5143832258818922
 40
-0.4040865554038572
 40
-0.2722064057398136
 40
-0.1269457878060257
 40
-0.0584839501974893
 40
0.0
 40
0.0
 40
0.0
 40
0.0
 10
7.176466180093854
 20
5.969505854517431
 30
0.0
 10
7.2153416504174
 20
5.969568753587255
 30
0.0
 10
7.281466710710532
 20
6.030514917562109
 30
0.0
 10
7.284898341375396
 20
6.1661142736428
 30
0.0
 10
7.236878456206938
 20
6.27289606049171
 30
0.0
 10
7.167733424099794
 20
6.335048150103057
 30
0.0
 10
7.127162589872825
 20
6.349060706013304
 30
0.0
 10
7.107713820984287
 20
6.351266140690463
 30
0.0
  0
SPLINE
  5
9E
330
1F
100
AcDbEntity
  8
Default - Tangent
100
AcDbSpline
210
0.0
220
0.0
230
1.0
 70
    28
 71
     3
 72
     8
 73
     4
 74
     0
 42
0.0000000001
 43
0.0000000001
 40
-0.1045031155103866
 40
-0.1045031155103866
 40
-0.1045031155103866
 40
-0.1045031155103866
 40
-0.0143557212056612
 40
-0.0143557212056612
 40
-0.0143557212056612
 40
-0.0143557212056612
 10
0.0000025586595029
 20
81.34590928286772
 30
0.0
 41
1.0
 10
0.000002558661464
 20
81.34804127759486
 30
0.0
 41
1.0
 10
0.0000025586633967
 20
81.34514219023708
 30
0.0
 41
1.0
 10
0.0000025586786876
 20
81.33709896065747
 30
0.0
 41
1.0
  0
SPLINE
  5
9F
330
1F
100
AcDbEntity
  8
Default
100
AcDbSpline
210
0.0
220
0.0
230
1.0
 70
     8
 71
     3
 72
     8
 73
     4
 74
     0
 42
0.0000000001
 43
0.0000000001
 40
-1.0
 40
-1.0
 40
-1.0
 40
-1.0
 40
0.0
 40
0.0
 40
0.0
 40
0.0
 10
10.12033816228316
 20
77.34379691803005
 30
0.0
 10
10.44585160172599
 20
76.30650206571536
 30
0.0
 10
11.14142571792414
 20
74.5492567939664
 30
0.0
 10
11.58625252726611
 20
73.55586410871625
 30
0.0
  0
SPLINE
  5
A0
330
1F
100
AcDbEntity
  8
Default
100
AcDbSpline
210
0.0
220
0.0
230
1.0
 70
     8
 71
     3
 72
    33
 73
    29
 74
     0
 42
0.0000000001
 43
0.0000000001
 40
11.2800046375079
 40
11.2800046375079
 40
11.2800046375079
 40
11.2800046375079
 40
12.0
 40
13.0
 40
14.0
 40
15.0
 40
16.0
 40
17.0
 40
18.0
 40
19.0
 40
20.0
 40
21.0
 40
22.0
 40
23.0
 40
24.0
 40
25.0
 40
26.0
 40
27.0
 40
28.0
 40
29.0
 40
30.0
 40
31.0
 40
32.0
 40
33.0
 40
34.0
 40
35.0
 40
36.0
 40
37.0
 40
37.0
 40
37.0
 40
37.0
 10
11.58625252726611
 20
73.55586410871625
 30
0.0
 10
11.71251267650828
 20
73.27389839518086
 30
0.0
 10
12.02171550459073
 20
72.6033085003423
 30
0.0
 10
12.54764970886046
 20
71.56168117321128
 30
0.0
 10
13.11301475405813
 20
70.40469513148668
 30
0.0
 10
13.60593120222413
 20
69.2147475970642
 30
0.0
 10
14.04430517116791
 20
68.00422889468543
 30
0.0
 10
14.44971627694051
 20
66.78199638900045
 30
0.0
 10
14.7749491864358
 20
65.53540753193843
 30
0.0
 10
14.96868512612318
 20
64.26043095595114
 30
0.0
 10
15.02619782654122
 20
62.97279456229938
 30
0.0
 10
14.93797301008007
 20
61.68649665739753
 30
0.0
 10
14.68390216593824
 20
60.42134616668513
 30
0.0
 10
14.30002128063111
 20
59.19179429310938
 30
0.0
 10
13.78479653971024
 20
58.00969700000896
 30
0.0
 10
13.16684458467657
 20
56.87886747189994
 30
0.0
 10
12.42646933763038
 20
55.82339782141246
 30
0.0
 10
11.60703344757977
 20
54.82956121980214
 30
0.0
 10
10.7012536558631
 20
53.91226016361961
 30
0.0
 10
9.705012364093221
 20
53.09442738616553
 30
0.0
 10
8.632302240222344
 20
52.37980821865624
 30
0.0
 10
7.502659835117726
 20
51.76044052584211
 30
0.0
 10
6.323242244029672
 20
51.240749818266
 30
0.0
 10
5.098925510871794
 20
50.83816234188765
 30
0.0
 10
3.84384320441248
 20
50.54652827952288
 30
0.0
 10
2.570370957170979
 20
50.35318750409812
 30
0.0
 10
1.287575483864174
 20
50.23705350093194
 30
0.0
 10
0.4290868153442773
 20
50.21828882039708
 30
0.0
 10
0.0000025586870436
 20
50.21753017284853
 30
0.0
  0
SPLINE
  5
A1
330
1F
100
AcDbEntity
  8
Default
100
AcDbSpline
210
0.0
220
0.0
230
1.0
 70
     8
 71
     3
 72
    33
 73
    29
 74
     0
 42
0.0000000001
 43
0.0000000001
 40
-37.0
 40
-37.0
 40
-37.0
 40
-37.0
 40
-36.0
 40
-35.0
 40
-34.0
 40
-33.0
 40
-32.0
 40
-31.0
 40
-30.0
 40
-29.0
 40
-28.0
 40
-27.0
 40
-26.0
 40
-25.0
 40
-24.0
 40
-23.0
 40
-22.0
 40
-21.0
 40
-20.0
 40
-19.0
 40
-18.0
 40
-17.0
 40
-16.0
 40
-15.0
 40
-14.0
 40
-13.0
 40
-12.0
 40
-11.28000626216988
 40
-11.28000626216988
 40
-11.28000626216988
 40
-11.28000626216988
 10
0.0000025586870436
 20
50.21753017284853
 30
0.0
 10
-0.429081697970247
 20
50.21828882039708
 30
0.0
 10
-1.287570366490144
 20
50.23705350093194
 30
0.0
 10
-2.570365839796949
 20
50.35318750409812
 30
0.0
 10
-3.843838087038392
 20
50.54652827952288
 30
0.0
 10
-5.098920393497707
 20
50.83816234188765
 30
0.0
 10
-6.323237126655641
 20
51.240749818266
 30
0.0
 10
-7.502654717743638
 20
51.76044052584211
 30
0.0
 10
-8.632297122848314
 20
52.37980821865624
 30
0.0
 10
-9.705007246719134
 20
53.09442738616553
 30
0.0
 10
-10.70124853848907
 20
53.91226016361961
 30
0.0
 10
-11.60702833020568
 20
54.82956121980214
 30
0.0
 10
-12.42646422025635
 20
55.82339782141246
 30
0.0
 10
-13.16683946730248
 20
56.87886747189994
 30
0.0
 10
-13.78479142233616
 20
58.00969700000896
 30
0.0
 10
-14.30001616325703
 20
59.19179429310938
 30
0.0
 10
-14.68389704856415
 20
60.42134616668513
 30
0.0
 10
-14.93796789270598
 20
61.68649665739753
 30
0.0
 10
-15.02619270916719
 20
62.97279456229938
 30
0.0
 10
-14.96868000874909
 20
64.26043095595114
 30
0.0
 10
-14.77494406906172
 20
65.53540753193843
 30
0.0
 10
-14.44971115956642
 20
66.78199638900045
 30
0.0
 10
-14.04430005379388
 20
68.00422889468543
 30
0.0
 10
-13.60592608485004
 20
69.2147475970642
 30
0.0
 10
-13.1130096366841
 20
70.40469513148668
 30
0.0
 10
-12.54764459148643
 20
71.56168117321128
 30
0.0
 10
-12.02171070135884
 20
72.60330787817495
 30
0.0
 10
-11.71250814326382
 20
73.27389712833804
 30
0.0
 10
-11.58624826460618
 20
73.55586219995826
 30
0.0
  0
SPLINE
  5
A2
330
1F
100
AcDbEntity
  8
Default
100
AcDbSpline
210
0.0
220
0.0
230
1.0
 70
     8
 71
     3
 72
     8
 73
     4
 74
     0
 42
0.0000000001
 43
0.0000000001
 40
0.0
 40
0.0
 40
0.0
 40
0.0
 40
1.0
 40
1.0
 40
1.0
 40
1.0
 10
-11.58624826460618
 20
73.55586219995826
 30
0.0
 10
-11.14141935174334
 20
74.54925945019825
 30
0.0
 10
-10.44581375338666
 20
76.30648985935831
 30
0.0
 10
-10.12033307146865
 20
77.34379671177848
 30
0.0
  0
SPLINE
  5
A3
330
1F
100
AcDbEntity
  8
Default
100
AcDbSpline
210
0.0
220
0.0
230
1.0
 70
     8
 71
     3
 72
    11
 73
     7
 74
     0
 42
0.0000000001
 43
0.0000000001
 40
0.0
 40
0.0
 40
0.0
 40
0.0
 40
0.2116104364371248
 40
0.4574810275432065
 40
1.208124430402978
 40
1.473112769144664
 40
1.473112769144664
 40
1.473112769144664
 40
1.473112769144664
 10
-10.12033307146865
 20
77.34379671177848
 30
0.0
 10
-10.09921462388465
 20
77.41110119898264
 30
0.0
 10
-10.0573180228275
 20
77.55775349658177
 30
0.0
 10
-9.962540808257046
 20
77.94926961948468
 30
0.0
 10
-9.88855378977459
 20
78.3634040861869
 30
0.0
 10
-9.815253718990505
 20
78.69393319622702
 30
0.0
 10
-9.794782809109932
 20
78.77986015395271
 30
0.0
  0
SPLINE
  5
A4
330
1F
100
AcDbEntity
  8
Default
100
AcDbSpline
210
0.0
220
0.0
230
1.0
 70
     8
 71
     3
 72
    12
 73
     8
 74
     0
 42
0.0000000001
 43
0.0000000001
 40
0.0
 40
0.0
 40
0.0
 40
0.0
 40
0.1706277173231093
 40
0.3858610663748481
 40
0.8671855953568781
 40
1.46275045453188
 40
2.213090456321001
 40
2.213090456321001
 40
2.213090456321001
 40
2.213090456321001
 10
-9.794782809109932
 20
78.77986015395271
 30
0.0
 10
-9.781483071764171
 20
78.83568600514039
 30
0.0
 10
-9.715728447960089
 20
78.99764631543258
 30
0.0
 10
-9.543517967208032
 20
79.2325523596194
 30
0.0
 10
-9.207638525971674
 20
79.5074033432775
 30
0.0
 10
-8.665720680505132
 20
79.78979141845676
 30
0.0
 10
-8.243690200783846
 20
79.9434327024681
 30
0.0
 10
-8.005938453592279
 20
80.02241667073365
 30
0.0
  0
SPLINE
  5
A5
330
1F
100
AcDbEntity
  8
Default
100
AcDbSpline
210
0.0
220
0.0
230
1.0
 70
    12
 71
     2
 72
     6
 73
     3
 74
     0
 42
0.0000000001
 43
0.0000000001
 40
0.0
 40
0.0
 40
0.0
 40
2.220184063227395
 40
2.220184063227395
 40
2.220184063227395
 10
-8.005938453592279
 20
80.02241667073365
 30
0.0
 41
1.0
 10
-6.947105737723944
 20
80.35895278763752
 30
0.0
 41
0.9993022861162805
 10
-5.866513810711155
 20
80.61541495068923
 30
0.0
 41
1.0
  0
SPLINE
  5
A6
330
1F
100
AcDbEntity
  8
Default
100
AcDbSpline
210
0.0
220
0.0
230
1.0
 70
    12
 71
     2
 72
     6
 73
     3
 74
     0
 42
0.0000000001
 43
0.0000000001
 40
0.0
 40
0.0
 40
0.0
 40
4.62591479786471
 40
4.62591479786471
 40
4.62591479786471
 10
-5.866513810711155
 20
80.61541495068923
 30
0.0
 41
1.0
 10
-3.608895004683596
 20
81.15122665524324
 30
0.0
 41
0.995239949494383
 10
0.0000025586835366
 20
81.34658580922898
 30
0.0
 41
0.9999999999999953
  0
SPLINE
  5
A7
330
1F
100
AcDbEntity
  8
Default
100
AcDbSpline
210
0.0
220
0.0
230
1.0
 70
    12
 71
     2
 72
     6
 73
     3
 74
     0
 42
0.0000000001
 43
0.0000000001
 40
0.0
 40
0.0
 40
0.0
 40
5.083225042932765
 40
5.083225042932765
 40
5.083225042932765
 10
0.0000025586835618
 20
81.34658580922898
 30
0.0
 41
0.999999999999994
 10
3.384268879077898
 20
81.20462511337576
 30
0.0
 41
0.9943654889476428
 10
5.866509089001312
 20
80.61541709368151
 30
0.0
 41
1.0
  0
SPLINE
  5
A8
330
1F
100
AcDbEntity
  8
Default
100
AcDbSpline
210
0.0
220
0.0
230
1.0
 70
    12
 71
     2
 72
     6
 73
     3
 74
     0
 42
0.0000000001
 43
0.0000000001
 40
0.0
 40
0.0
 40
0.0
 40
2.220202217338642
 40
2.220202217338642
 40
2.220202217338642
 10
5.866509089001312
 20
80.61541709368151
 30
0.0
 41
1.0
 10
6.947099655681966
 20
80.35891789374557
 30
0.0
 41
0.999304784792358
 10
8.005958447533231
 20
80.02245185982497
 30
0.0
 41
1.0
  0
SPLINE
  5
A9
330
1F
100
AcDbEntity
  8
Default
100
AcDbSpline
210
0.0
220
0.0
230
1.0
 70
     8
 71
     3
 72
    12
 73
     8
 74
     0
 42
0.0000000001
 43
0.0000000001
 40
0.0
 40
0.0
 40
0.0
 40
0.0
 40
0.4081679590186467
 40
0.7520695590432435
 40
1.34483749521094
 40
1.827148691283257
 40
2.213081781129066
 40
2.213081781129066
 40
2.213081781129066
 40
2.213081781129066
 10
8.005958447533231
 20
80.02245185982497
 30
0.0
 10
8.135161011298038
 20
79.97903108805957
 30
0.0
 10
8.372603109204675
 20
79.89703724193205
 30
0.0
 10
8.786671025331628
 20
79.72638101914578
 30
0.0
 10
9.208259389733058
 20
79.50750570604018
 30
0.0
 10
9.586864647073952
 20
79.1962211998262
 30
0.0
 10
9.764712478632674
 20
78.90571025739642
 30
0.0
 10
9.794773164014174
 20
78.7799211210451
 30
0.0
  0
SPLINE
  5
AA
330
1F
100
AcDbEntity
  8
Default
100
AcDbSpline
210
0.0
220
0.0
230
1.0
 70
     8
 71
     3
 72
    11
 73
     7
 74
     0
 42
0.0000000001
 43
0.0000000001
 40
0.0
 40
0.0
 40
0.0
 40
0.0
 40
0.265100617705136
 40
1.015694409476781
 40
1.261580558064201
 40
1.473175169540751
 40
1.473175169540751
 40
1.473175169540751
 40
1.473175169540751
 10
9.794773164014174
 20
78.7799211210451
 30
0.0
 10
9.815313017180273
 20
78.69397196992801
 30
0.0
 10
9.888581307619603
 20
78.3634139810778
 30
0.0
 10
9.962526610873994
 20
77.94924272948643
 30
0.0
 10
10.05733412295527
 20
77.55775084803355
 30
0.0
 10
10.09921904665597
 20
77.4110959824342
 30
0.0
 10
10.12033816228316
 20
77.34379691803005
 30
0.0
  0
SPLINE
  5
AB
330
1F
100
AcDbEntity
  8
Default
100
AcDbSpline
210
0.0
220
0.0
230
1.0
 70
     8
 71
     3
 72
    11
 73
     7
 74
     0
 42
0.0000000001
 43
0.0000000001
 40
0.0
 40
0.0
 40
0.0
 40
0.0
 40
1.0
 40
2.0
 40
3.0
 40
4.0
 40
4.0
 40
4.0
 40
4.0
 10
50.58320217696397
 20
12.35879817785314
 30
0.0
 10
50.6841352874745
 20
12.45830374114195
 30
0.0
 10
50.93564183871482
 20
12.5940271328815
 30
0.0
 10
51.35255503189168
 20
12.68728756787011
 30
0.0
 10
51.77215458457371
 20
12.67116055810263
 30
0.0
 10
52.05549374972648
 20
12.55070536329401
 30
0.0
 10
52.09461021223044
 20
12.40526137761801
 30
0.0
  0
SPLINE
  5
AC
330
1F
100
AcDbEntity
  8
Default
100
AcDbSpline
210
0.0
220
0.0
230
1.0
 70
    12
 71
     2
 72
     8
 73
     5
 74
     0
 42
0.0000000001
 43
0.0000000001
 40
-0.3258744925669179
 40
-0.3258744925669179
 40
-0.3258744925669179
 40
-0.1629372462834589
 40
-0.1629372462834589
 40
0.0
 40
0.0
 40
0.0
 10
53.95151045714491
 20
0.2162151133958377
 30
0.0
 41
1.0
 10
53.96443705403067
 20
0.1300264522959743
 30
0.0
 41
0.9076172033999765
 10
53.90725561301176
 20
0.064484789491017
 30
0.0
 41
1.0
 10
53.8500741719928
 20
-0.0010568733139404
 30
0.0
 41
0.9076172033999765
 10
53.76310209558582
 20
0.0000765664505792
 30
0.0
 41
1.0
  0
LINE
  5
AD
330
1F
100
AcDbEntity
  8
Default
100
AcDbLine
 10
52.82431267161482
 20
0.1522307843721825
 30
0.0
 11
50.89187103319105
 21
10.02742645040991
 31
0.0
  0
ARC
  5
AE
330
1F
100
AcDbEntity
  8
Default
100
AcDbCircle
 10
43.49950977967043
 20
6.591548487204077
 30
0.0
 40
0.1874591064809801
100
AcDbArc
 50
273.1501662983839
 51
93.14992528586133
  0
ARC
  5
AF
330
1F
100
AcDbEntity
  8
Default
100
AcDbCircle
 10
43.87386158841022
 20
6.612149208158195
 30
0.0
 40
0.1874591064809801
100
AcDbArc
 50
93.14951234748129
 51
273.1495122096091
  0
SPLINE
  5
B0
330
1F
100
AcDbEntity
  8
Default
100
AcDbSpline
210
0.0
220
0.0
230
1.0
 70
     8
 71
     2
 72
     6
 73
     3
 74
     0
 42
0.0000000001
 43
0.0000000001
 40
-12.3295063139149
 40
-12.3295063139149
 40
-12.3295063139149
 40
0.0
 40
0.0
 40
0.0
 10
52.09461021223044
 20
12.40526137761801
 30
0.0
 10
53.02307195065166
 20
6.310827582606991
 30
0.0
 10
53.95151045714491
 20
0.2162151133958377
 30
0.0
  0
POLYLINE
  5
B1
330
1F
100
AcDbEntity
  8
Default
100
AcDb2dPolyline
 66
     1
 10
0.0
 20
0.0
 30
0.0
  0
VERTEX
  5
B2
330
B1
100
AcDbEntity
  8
Default
100
AcDbVertex
100
AcDb2dVertex
 10
53.76310209558582
 20
0.0000765664505792
 30
0.0
  0
VERTEX
  5
B3
330
B1
100
AcDbEntity
  8
Default
100
AcDbVertex
100
AcDb2dVertex
 10
53.02067525003972
 20
0.0000564493420223
 30
0.0
  0
SEQEND
  5
B4
330
B1
100
AcDbEntity
  8
Default
  0
LINE
  5
B5
330
1F
100
AcDbEntity
  8
Default
100
AcDbLine
 10
37.01191055543396
 20
9.26354752400129
 30
0.0
 11
33.39170451748046
 21
0.1193832992671644
 31
0.0
  0
SPLINE
  5
B6
330
1F
100
AcDbEntity
  8
Default
100
AcDbSpline
210
0.0
220
0.0
230
1.0
 70
     8
 71
     5
 72
    12
 73
     6
 74
     0
 42
0.0000000001
 43
0.0000000001
 40
0.0
 40
0.0
 40
0.0
 40
0.0
 40
0.0
 40
0.0
 40
1.0
 40
1.0
 40
1.0
 40
1.0
 40
1.0
 40
1.0
 10
33.39170451748046
 20
0.1193832992671644
 30
0.0
 10
33.37678312901639
 20
0.0816938348702953
 30
0.0
 10
33.36186174055226
 20
0.0440043704734261
 30
0.0
 10
33.30896203103831
 20
0.0000367665145418
 30
0.0
 10
33.26842632381343
 20
0.0000367665145418
 30
0.0
 10
33.22789061658861
 20
0.0000367665145418
 30
0.0
  0
SPLINE
  5
B7
330
1F
100
AcDbEntity
  8
Default
100
AcDbSpline
210
0.0
220
0.0
230
1.0
 70
     8
 71
     3
 72
     8
 73
     4
 74
     0
 42
0.0000000001
 43
0.0000000001
 40
0.0
 40
0.0
 40
0.0
 40
0.0
 40
1.0
 40
1.0
 40
1.0
 40
1.0
 10
32.48396711537853
 20
0.0000367665145418
 30
0.0
 10
32.29748627196355
 20
0.0000367665145418
 30
0.0
 10
32.21081068047621
 20
0.1089173824868483
 30
0.0
 10
32.26086035736952
 20
0.2506702883927218
 30
0.0
  0
SPLINE
  5
B8
330
1F
100
AcDbEntity
  8
Default
100
AcDbSpline
210
0.0
220
0.0
230
1.0
 70
     8
 71
     3
 72
    10
 73
     6
 74
     0
 42
0.0000000001
 43
0.0000000001
 40
0.0
 40
0.0
 40
0.0
 40
0.0
 40
0.9999996357532034
 40
1.999999817876602
 40
3.0
 40
3.0
 40
3.0
 40
3.0
 10
36.74611218344629
 20
12.95403199273179
 30
0.0
 10
36.82846487434531
 20
13.14216271056203
 30
0.0
 10
37.24511699694565
 20
13.15133613853558
 30
0.0
 10
37.72728871006936
 20
12.89840229969943
 30
0.0
 10
37.98730744700018
 20
12.63287693553652
 30
0.0
 10
38.0827525241277
 20
12.47753754174479
 30
0.0
  0
SPLINE
  5
B9
330
1F
100
AcDbEntity
  8
Default
100
AcDbSpline
210
0.0
220
0.0
230
1.0
 70
    12
 71
     2
 72
     6
 73
     3
 74
     0
 42
0.0000000001
 43
0.0000000001
 40
-0.2707325155269124
 40
-0.2707325155269124
 40
-0.2707325155269124
 40
0.0
 40
0.0
 40
0.0
 10
53.02067525003972
 20
0.0000564493420223
 30
0.0
 41
1.0
 10
52.85647940132076
 20
-0.0093331421432359
 30
0.0
 41
0.7545666710984448
 10
52.82431267161482
 20
0.1522307843721825
 30
0.0
 41
1.0
  0
POLYLINE
  5
BA
330
1F
100
AcDbEntity
  8
Default
100
AcDb2dPolyline
 66
     1
 10
0.0
 20
0.0
 30
0.0
  0
VERTEX
  5
BB
330
BA
100
AcDbEntity
  8
Default
100
AcDbVertex
100
AcDb2dVertex
 10
33.22789061658861
 20
0.0000367665145418
 30
0.0
  0
VERTEX
  5
BC
330
BA
100
AcDbEntity
  8
Default
100
AcDbVertex
100
AcDb2dVertex
 10
32.48396711537853
 20
0.0000367665145418
 30
0.0
  0
SEQEND
  5
BD
330
BA
100
AcDbEntity
  8
Default
  0
SPLINE
  5
BE
330
1F
100
AcDbEntity
  8
Default
100
AcDbSpline
210
0.0
220
0.0
230
1.0
 70
     8
 71
     2
 72
     6
 73
     3
 74
     0
 42
0.0000000001
 43
0.0000000001
 40
-13.47192895172027
 40
-13.47192895172027
 40
-13.47192895172027
 40
0.0
 40
0.0
 40
0.0
 10
32.26086035736952
 20
0.2506702883927218
 30
0.0
 10
34.5034914244919
 20
6.602349067804287
 30
0.0
 10
36.74611218344629
 20
12.95403199273179
 30
0.0
  0
LINE
  5
BF
330
1F
100
AcDbEntity
  8
Default
100
AcDbLine
 10
35.71002160049849
 20
5.975147283382157
 30
0.0
 11
43.5098112345672
 21
6.404372643063714
 31
0.0
  0
LINE
  5
C0
330
1F
100
AcDbEntity
  8
Default
100
AcDbLine
 10
51.51465174186004
 20
6.844882029479181
 30
0.0
 11
43.88416090650637
 21
6.424973246428591
 31
0.0
  0
LINE
  5
C1
330
1F
100
AcDbEntity
  8
Default
100
AcDbLine
 10
43.48920911212187
 20
6.778724374675464
 30
0.0
 11
35.86198844839802
 21
6.358995550397954
 31
0.0
  0
LINE
  5
C2
330
1F
100
AcDbEntity
  8
Default
100
AcDbLine
 10
43.86356226986371
 20
6.799325169863016
 30
0.0
 11
51.44195716140948
 21
7.216367093522328
 31
0.0
  0
SPLINE
  5
C3
330
1F
100
AcDbEntity
  8
Default
100
AcDbSpline
210
0.0
220
0.0
230
1.0
 70
    12
 71
     2
 72
     6
 73
     3
 74
     0
 42
0.0000000001
 43
0.0000000001
 40
0.0
 40
0.0
 40
0.0
 40
3.211051664354447
 40
3.211051664354447
 40
3.211051664354447
 10
36.89090344002588
 20
9.495868877977728
 30
0.0
 41
1.0
 10
37.48741418650965
 20
10.98646888898437
 30
0.0
 41
0.9999999226946805
 10
38.08275252412787
 20
12.47753754174467
 30
0.0
 41
1.0
  0
SPLINE
  5
C4
330
1F
100
AcDbEntity
  8
Default
100
AcDbSpline
210
0.0
220
0.0
230
1.0
 70
     8
 71
     5
 72
    12
 73
     6
 74
     0
 42
0.0000000001
 43
0.0000000001
 40
0.0
 40
0.0
 40
0.0
 40
0.0
 40
0.0
 40
0.0
 40
1.0
 40
1.0
 40
1.0
 40
1.0
 40
1.0
 40
1.0
 10
36.93293167978518
 20
9.259200948314982
 30
0.0
 10
36.88493017512295
 20
9.256559201754815
 30
0.0
 10
36.83692867046076
 20
9.253917455194648
 30
0.0
 10
36.85518022898444
 20
9.406603289466322
 30
0.0
 10
36.87304216294004
 20
9.451235952288403
 30
0.0
 10
36.89090344002588
 20
9.495868877977728
 30
0.0
  0
SPLINE
  5
C5
330
1F
100
AcDbEntity
  8
Default
100
AcDbSpline
210
0.0
220
0.0
230
1.0
 70
    12
 71
     2
 72
     6
 73
     3
 74
     0
 42
0.0000000001
 43
0.0000000001
 40
0.0
 40
0.0
 40
0.0
 40
2.127669139521617
 40
2.127669139521617
 40
2.127669139521617
 10
50.58320217696345
 20
12.35879817785326
 30
0.0
 41
1.0
 10
50.79153609467685
 20
11.31556235814167
 30
0.0
 41
0.9999999966990948
 10
51.00003953864675
 20
10.27236040710253
 30
0.0
 41
1.0
  0
SPLINE
  5
C6
330
1F
100
AcDbEntity
  8
Default
100
AcDbSpline
210
0.0
220
0.0
230
1.0
 70
     8
 71
     5
 72
    12
 73
     6
 74
     0
 42
0.0000000001
 43
0.0000000001
 40
0.0
 40
0.0
 40
0.0
 40
0.0
 40
0.0
 40
0.0
 40
1.0
 40
1.0
 40
1.0
 40
1.0
 40
1.0
 40
1.0
 10
51.00003953864675
 20
10.27236040710253
 30
0.0
 10
51.00989282730833
 20
10.22306160531665
 30
0.0
 10
51.01974635258696
 20
10.17376285082311
 30
0.0
 10
51.03462897026506
 20
10.03528308515201
 30
0.0
 10
50.98443109115092
 20
10.03252046186737
 30
0.0
 10
50.93423321203673
 20
10.02975783858273
 30
0.0
  0
SPLINE
  5
C7
330
1F
100
AcDbEntity
  8
Default
100
AcDbSpline
210
0.0
220
0.0
230
1.0
 70
    24
 71
     2
 72
     6
 73
     3
 74
     0
 42
0.0000000001
 43
0.0000000001
 40
0.0
 40
0.0
 40
0.0
 40
14.02248916983605
 40
14.02248916983605
 40
14.02248916983605
 10
50.93423321203673
 20
10.02975783858273
 30
0.0
 10
43.93358244591096
 20
9.644479393448858
 30
0.0
 10
36.93293167978518
 20
9.259200948314982
 30
0.0
  0
SPLINE
  5
C8
330
1F
100
AcDbEntity
  8
Default
100
AcDbSpline
210
0.0
220
0.0
230
1.0
 70
     8
 71
     3
 72
    13
 73
     9
 74
     0
 42
0.0000000001
 43
0.0000000001
 40
0.0
 40
0.0
 40
0.0
 40
0.0
 40
1.0
 40
2.0
 40
3.0
 40
4.0
 40
5.0
 40
6.0
 40
6.0
 40
6.0
 40
6.0
 10
38.08275252412787
 20
12.47753754174467
 30
0.0
 10
38.7200703999234
 20
12.17700445045394
 30
0.0
 10
40.06005550796547
 20
11.69860042986032
 30
0.0
 10
42.17366437879539
 20
11.48438745212895
 30
0.0
 10
44.29143513115415
 20
11.542456047152
 30
0.0
 10
46.40211334543577
 20
11.69943815990285
 30
0.0
 10
48.49911959081894
 20
11.99159499795388
 30
0.0
 10
49.89043883852756
 20
12.2253601528876
 30
0.0
 10
50.58320217696397
 20
12.35879817785314
 30
0.0
  0
SPLINE
  5
C9
330
1F
100
AcDbEntity
  8
Default
100
AcDbSpline
210
0.0
220
0.0
230
1.0
 70
     8
 71
     3
 72
    13
 73
     9
 74
     0
 42
0.0000000001
 43
0.0000000001
 40
0.6150767796375476
 40
0.6150767796375476
 40
0.6150767796375476
 40
0.6150767796375476
 40
1.0
 40
2.0
 40
3.0
 40
4.0
 40
5.0
 40
5.384923286245197
 40
5.384923286245197
 40
5.384923286245197
 40
5.384923286245197
 10
6.959152147542426
 20
11.08792409288566
 30
0.0
 10
6.611452708913561
 20
10.92072267602409
 30
0.0
 10
5.340243157869253
 20
10.35870702055847
 30
0.0
 10
3.027397889836635
 20
9.63452228526424
 30
0.0
 10
0.0000000236330209
 20
9.80728730878731
 30
0.0
 10
-3.027397984368775
 20
9.63452231235091
 30
0.0
 10
-5.340242991986344
 20
10.35870696161601
 30
0.0
 10
-6.611452636381699
 20
10.92072264478354
 30
0.0
 10
-6.959152154425823
 20
11.08792409878883
 30
0.0
  0
SPLINE
  5
CA
330
1F
100
AcDbEntity
  8
Default - Tangent
100
AcDbSpline
210
0.0
220
0.0
230
1.0
 70
     8
 71
     3
 72
    24
 73
    20
 74
     0
 42
0.0000000001
 43
0.0000000001
 40
-81.9835990458008
 40
-81.9835990458008
 40
-81.9835990458008
 40
-81.9835990458008
 40
-81.0
 40
-80.0
 40
-79.0
 40
-78.0
 40
-77.0
 40
-76.0
 40
-75.0
 40
-74.0
 40
-73.0
 40
-72.0
 40
-71.0
 40
-70.0
 40
-69.0
 40
-68.0
 40
-67.0
 40
-66.0
 40
-65.36449441299654
 40
-65.36449441299654
 40
-65.36449441299654
 40
-65.36449441299654
 10
36.18473563314157
 20
11.36406870380607
 30
0.0
 10
35.98566009498782
 20
11.51537167934216
 30
0.0
 10
35.59776865527979
 20
11.83828030665864
 30
0.0
 10
35.05664087906021
 20
12.37062730460225
 30
0.0
 10
34.55555708342845
 20
12.94621790867797
 30
0.0
 10
34.0952354638778
 20
13.55475978259116
 30
0.0
 10
33.6727190793853
 20
14.19002297525313
 30
0.0
 10
33.2847794604302
 20
14.84690016429914
 30
0.0
 10
32.92866886591847
 20
15.52150401713213
 30
0.0
 10
32.60083641565669
 20
16.21023303391011
 30
0.0
 10
32.29718076466307
 20
16.90991256776267
 30
0.0
 10
32.01324758311469
 20
17.61778287173988
 30
0.0
 10
31.7444718668178
 20
18.33151850187444
 30
0.0
 10
31.48591157742354
 20
19.04900041150361
 30
0.0
 10
31.23598750890451
 20
19.76953677281303
 30
0.0
 10
30.99409235186468
 20
20.49280116222396
 30
0.0
 10
30.75815710872692
 20
21.21802902496053
 30
0.0
 10
30.55274497862607
 20
21.85573970828512
 30
0.0
 10
30.42662663927038
 20
22.25191472364495
 30
0.0
 10
30.37781477988179
 20
22.40591737248675
 30
0.0
  0
SPLINE
  5
CB
330
1F
100
AcDbEntity
  8
Default - Tangent
100
AcDbSpline
210
0.0
220
0.0
230
1.0
 70
     8
 71
     3
 72
    39
 73
    35
 74
     0
 42
0.0000000001
 43
0.0000000001
 40
0.0
 40
0.0
 40
0.0
 40
0.0
 40
1.0
 40
2.0
 40
3.0
 40
4.0
 40
5.0
 40
6.0
 40
7.0
 40
8.0
 40
9.0
 40
10.0
 40
11.0
 40
12.0
 40
13.0
 40
14.0
 40
15.0
 40
16.0
 40
17.0
 40
18.0
 40
19.0
 40
20.0
 40
21.0
 40
22.0
 40
23.0
 40
24.0
 40
25.0
 40
26.0
 40
27.0
 40
28.0
 40
29.0
 40
30.0
 40
31.0
 40
32.0
 40
32.0
 40
32.0
 40
32.0
 10
30.37781477988179
 20
22.40591737248675
 30
0.0
 10
30.25765081040819
 20
22.78503773024569
 30
0.0
 10
29.3829764205332
 20
25.74070139004144
 30
0.0
 10
29.06556565830508
 20
26.89087174123124
 30
0.0
 10
28.76683441226615
 20
28.04603394563018
 30
0.0
 10
28.4868610295193
 20
29.20588647994256
 30
0.0
 10
28.22571837453566
 20
30.37012196521493
 30
0.0
 10
27.98347928926657
 20
31.53843760786467
 30
0.0
 10
27.76137106770503
 20
32.71076231964505
 30
0.0
 10
27.56169969247165
 20
33.88709896375103
 30
0.0
 10
27.38385724776086
 20
35.06701382910985
 30
0.0
 10
27.23095560686917
 20
36.25014709598333
 30
0.0
 10
27.1052353869496
 20
37.43756159356451
 30
0.0
 10
27.0175281260438
 20
38.62457912991372
 30
0.0
 10
26.99481803975701
 20
39.82991530343536
 30
0.0
 10
26.99863153161934
 20
40.97749996619605
 30
0.0
 10
27.15969979277443
 20
42.33837763968583
 30
0.0
 10
28.51131134706597
 20
42.48022523838587
 30
0.0
 10
29.60760883807822
 20
41.88317865792315
 30
0.0
 10
29.97694718361768
 20
40.69028488136149
 30
0.0
 10
30.27327293539432
 20
39.54953074043506
 30
0.0
 10
30.54109013667247
 20
38.38265087969943
 30
0.0
 10
30.75490135416996
 20
37.20964851254588
 30
0.0
 10
30.94173960470985
 20
36.03096273913878
 30
0.0
 10
31.11426475438489
 20
34.85039442805693
 30
0.0
 10
31.29327593895246
 20
33.67091217519283
 30
0.0
 10
31.48189998350634
 20
32.49220025854308
 30
0.0
 10
31.76318113609224
 20
31.33199539194568
 30
0.0
 10
32.09430379236827
 20
30.18555218907162
 30
0.0
 10
32.47587502815375
 20
29.05472295471357
 30
0.0
 10
32.91458573947128
 20
27.94467882695659
 30
0.0
 10
33.4161823027022
 20
26.86164517417185
 30
0.0
 10
33.97509286057269
 20
25.80689904813342
 30
0.0
 10
35.19477538024822
 20
23.96417894771338
 30
0.0
 10
35.45824581808048
 20
23.66621811268961
 30
0.0
  0
SPLINE
  5
CC
330
1F
100
AcDbEntity
  8
Default - Tangent
100
AcDbSpline
210
0.0
220
0.0
230
1.0
 70
    12
 71
     2
 72
     6
 73
     3
 74
     0
 42
0.0000000001
 43
0.0000000001
 40
-1.7050706110435
 40
-1.7050706110435
 40
-1.7050706110435
 40
0.0
 40
0.0
 40
0.0
 10
35.45824581808048
 20
23.66621811268961
 30
0.0
 41
1.0
 10
36.05687535647398
 20
22.9267666380222
 30
0.0
 41
0.9986606715136152
 10
36.70192487383238
 20
22.36817218864456
 30
0.0
 41
1.0
  0
SPLINE
  5
CD
330
1F
100
AcDbEntity
  8
Default - Tangent
100
AcDbSpline
210
0.0
220
0.0
230
1.0
 70
     8
 71
     3
 72
    48
 73
    44
 74
     0
 42
0.0000000001
 43
0.0000000001
 40
-40.07509216108887
 40
-40.07509216108887
 40
-40.07509216108887
 40
-40.07509216108887
 40
-40.0
 40
-39.0
 40
-38.0
 40
-37.0
 40
-36.0
 40
-35.0
 40
-34.0
 40
-33.0
 40
-32.0
 40
-31.0
 40
-30.0
 40
-29.0
 40
-28.0
 40
-27.0
 40
-26.0
 40
-25.0
 40
-24.0
 40
-23.0
 40
-22.0
 40
-21.0
 40
-20.0
 40
-19.0
 40
-18.0
 40
-17.0
 40
-16.0
 40
-15.0
 40
-14.0
 40
-13.0
 40
-12.0
 40
-11.0
 40
-10.0
 40
-9.0
 40
-8.0
 40
-7.0
 40
-6.0
 40
-5.0
 40
-4.0
 40
-3.0
 40
-2.0
 40
-1.0
 40
0.0
 40
0.0
 40
0.0
 40
0.0
 10
36.70192487383238
 20
22.36817218864456
 30
0.0
 10
36.71635397223824
 20
22.35567700174472
 30
0.0
 10
36.92371307109002
 20
22.17766907709159
 30
0.0
 10
37.34652678236719
 20
21.85990302470348
 30
0.0
 10
38.02584130022845
 20
21.50602520739642
 30
0.0
 10
38.76288061221433
 20
21.29863264250189
 30
0.0
 10
39.51630982157454
 20
21.17724067579225
 30
0.0
 10
40.27598843395086
 20
21.10792125052161
 30
0.0
 10
41.03598125381021
 20
21.04502840136577
 30
0.0
 10
41.79646369824425
 20
20.98755665375745
 30
0.0
 10
42.55660989514868
 20
20.9259854404206
 30
0.0
 10
43.31622292267562
 20
20.85804046840171
 30
0.0
 10
44.0751602799867
 20
20.78293793343015
 30
0.0
 10
44.83248567103934
 20
20.69232978057561
 30
0.0
 10
45.58674414035423
 20
20.57963300459338
 30
0.0
 10
46.3396695725385
 20
20.45694612931494
 30
0.0
 10
47.08175659248425
 20
20.27885668142258
 30
0.0
 10
47.81209461900599
 20
20.05826505261157
 30
0.0
 10
48.52937376484172
 20
19.7989233154039
 30
0.0
 10
49.24015622835171
 20
19.52165744378667
 30
0.0
 10
49.92599455233588
 20
19.18665313633615
 30
0.0
 10
50.58911957403043
 20
18.80950008101794
 30
0.0
 10
51.23303521928122
 20
18.40056924977851
 30
0.0
 10
51.86639609514535
 20
17.97576837228932
 30
0.0
 10
52.49574746571048
 20
17.5449114896536
 30
0.0
 10
53.11061988576196
 20
17.09364392413383
 30
0.0
 10
53.71200158439112
 20
16.62430546446953
 30
0.0
 10
54.29073406679677
 20
16.1276185705659
 30
0.0
 10
54.87686059440026
 20
15.63936540184011
 30
0.0
 10
55.42474396597586
 20
15.10766843858046
 30
0.0
 10
56.03474447636668
 20
14.64734432772035
 30
0.0
 10
56.69179845677948
 20
14.25812364719924
 30
0.0
 10
57.29966396469396
 20
13.7967808694104
 30
0.0
 10
58.13377029263555
 20
13.67621463748931
 30
0.0
 10
58.19179131047341
 20
12.70633761962448
 30
0.0
 10
57.4610915133193
 20
12.35627478856759
 30
0.0
 10
56.7329967588669
 20
12.16459197009893
 30
0.0
 10
56.00162596964722
 20
11.93895700821089
 30
0.0
 10
55.26862958306165
 20
11.73092839593325
 30
0.0
 10
54.53364661574537
 20
11.52671113533329
 30
0.0
 10
53.79684894364416
 20
11.33003533948472
 30
0.0
 10
53.05827879096924
 20
11.13987766057157
 30
0.0
 10
52.5646697488435
 20
11.01802629646362
 30
0.0
 10
52.31758840648061
 20
10.95823865609286
 30
0.0
  0
SPLINE
  5
CE
330
1F
100
AcDbEntity
  8
Default - Tangent
100
AcDbSpline
210
0.0
220
0.0
230
1.0
 70
     8
 71
     3
 72
     8
 73
     4
 74
     0
 42
0.0000000001
 43
0.0000000001
 40
-3.0
 40
-3.0
 40
-3.0
 40
-3.0
 40
-2.998859352176702
 40
-2.998859352176702
 40
-2.998859352176702
 40
-2.998859352176702
 10
52.31758840648061
 20
10.95823865609286
 30
0.0
 10
52.31677578055374
 20
10.9580349391371
 30
0.0
 10
52.31596314980138
 20
10.95783124192422
 30
0.0
 10
52.31515051422522
 20
10.95762756444977
 30
0.0
  0
ENDSEC
  0
SECTION
  2
OBJECTS
  0
DICTIONARY
  5
C
330
0
100
AcDbDictionary
281
     1
  3
ACAD_GROUP
350
D
  3
ACAD_LAYOUT
350
1A
  3
ACAD_MLEADERSTYLE
350
D0
  3
ACAD_MLINESTYLE
350
17
  3
ACAD_PLOTSETTINGS
350
19
  3
ACAD_PLOTSTYLENAME
350
E
  3
ACAD_TABLESTYLE
350
CF
  3
ACAD_VISUALSTYLE
350
2A
  0
DICTIONARY
  5
D
102
{ACAD_REACTORS
330
C
102
}
330
C
100
AcDbDictionary
281
     1
  0
DICTIONARY
  5
1A
102
{ACAD_REACTORS
330
C
102
}
330
C
100
AcDbDictionary
281
     1
  3
Layout1
350
1E
  3
Layout2
350
26
  3
Model
350
22
  0
DICTIONARY
  5
D0
102
{ACAD_REACTORS
330
C
102
}
330
C
100
AcDbDictionary
281
     1
  0
DICTIONARY
  5
17
102
{ACAD_REACTORS
330
C
102
}
330
C
100
AcDbDictionary
281
     1
  3
Standard
350
18
  0
DICTIONARY
  5
19
102
{ACAD_REACTORS
330
C
102
}
330
C
100
AcDbDictionary
281
     1
  0
ACDBDICTIONARYWDFLT
  5
E
102
{ACAD_REACTORS
330
C
102
}
330
C
100
AcDbDictionary
281
     1
  3
Normal
350
F
100
AcDbDictionaryWithDefault
340
F
  0
DICTIONARY
  5
CF
102
{ACAD_REACTORS
330
C
102
}
330
C
100
AcDbDictionary
281
     1
  0
DICTIONARY
  5
2A
102
{ACAD_REACTORS
330
C
102
}
330
C
100
AcDbDictionary
281
     1
  3
2dWireframe
350
2F
  3
3D Hidden
350
31
  3
3dWireframe
350
30
  3
Basic
350
32
  3
Brighten
350
36
  3
ColorChange
350
3A
  3
Conceptual
350
34
  3
Dim
350
35
  3
Facepattern
350
39
  3
Flat
350
2B
  3
FlatWithEdges
350
2C
  3
Gouraud
350
2D
  3
GouraudWithEdges
350
2E
  3
Linepattern
350
38
  3
Realistic
350
33
  3
Thicken
350
37
  0
LAYOUT
  5
1E
102
{ACAD_REACTORS
330
1A
102
}
330
1A
100
AcDbPlotSettings
  1

  2
none_device
  4

  6

 40
0.0
 41
0.0
 42
0.0
 43
0.0
 44
0.0
 45
0.0
 46
0.0
 47
0.0
 48
0.0
 49
0.0
140
0.0
141
0.0
142
1.0
143
1.0
 70
   688
 72
     0
 73
     0
 74
     5
  7

 75
    16
 76
     0
 77
     2
 78
   300
147
1.0
148
0.0
149
0.0
100
AcDbLayout
  1
Layout1
 70
     1
 71
     1
 10
0.0
 20
0.0
 11
12.0
 21
9.0
 12
0.0
 22
0.0
 32
0.0
 14
1.000000000000000E+20
 24
1.000000000000000E+20
 34
1.000000000000000E+20
 15
-1.000000000000000E+20
 25
-1.000000000000000E+20
 35
-1.000000000000000E+20
146
0.0
 13
0.0
 23
0.0
 33
0.0
 16
1.0
 26
0.0
 36
0.0
 17
0.0
 27
1.0
 37
0.0
 76
     0
330
1B
  0
LAYOUT
  5
26
102
{ACAD_REACTORS
330
1A
102
}
330
1A
100
AcDbPlotSettings
  1

  2
none_device
  4

  6

 40
0.0
 41
0.0
 42
0.0
 43
0.0
 44
0.0
 45
0.0
 46
0.0
 47
0.0
 48
0.0
 49
0.0
140
0.0
141
0.0
142
1.0
143
1.0
 70
   688
 72
     0
 73
     0
 74
     5
  7

 75
    16
 76
     0
 77
     2
 78
   300
147
1.0
148
0.0
149
0.0
100
AcDbLayout
  1
Layout2
 70
     1
 71
     2
 10
0.0
 20
0.0
 11
0.0
 21
0.0
 12
0.0
 22
0.0
 32
0.0
 14
0.0
 24
0.0
 34
0.0
 15
0.0
 25
0.0
 35
0.0
146
0.0
 13
0.0
 23
0.0
 33
0.0
 16
1.0
 26
0.0
 36
0.0
 17
0.0
 27
1.0
 37
0.0
 76
     0
330
23
  0
LAYOUT
  5
22
102
{ACAD_REACTORS
330
1A
102
}
330
1A
100
AcDbPlotSettings
  1

  2
none_device
  4

  6

 40
0.0
 41
0.0
 42
0.0
 43
0.0
 44
0.0
 45
0.0
 46
0.0
 47
0.0
 48
0.0
 49
0.0
140
0.0
141
0.0
142
1.0
143
1.0
 70
  1712
 72
     0
 73
     0
 74
     0
  7

 75
     0
 76
     0
 77
     2
 78
   300
147
1.0
148
0.0
149
0.0
100
AcDbLayout
  1
Model
 70
     1
 71
     0
 10
0.0
 20
0.0
 11
12.0
 21
9.0
 12
0.0
 22
0.0
 32
0.0
 14
-15.01184679216669
 24
0.000000003227864
 34
0.0
 15
58.13018067394832
 25
81.34658580922898
 35
0.0
146
0.0
 13
0.0
 23
0.0
 33
0.0
 16
1.0
 26
0.0
 36
0.0
 17
0.0
 27
1.0
 37
0.0
 76
     0
330
1F
331
29
  0
MLINESTYLE
  5
18
102
{ACAD_REACTORS
330
17
102
}
330
17
100
AcDbMlineStyle
  2
Standard
 70
     0
  3

 62
   256
 51
90.0
 52
90.0
 71
     2
 49
0.5
 62
   256
  6
BYLAYER
 49
-0.5
 62
   256
  6
BYLAYER
  0
ACDBPLACEHOLDER
  5
F
102
{ACAD_REACTORS
330
E
102
}
330
E
  0
VISUALSTYLE
  5
2F
102
{ACAD_REACTORS
330
2A
102
}
330
2A
100
AcDbVisualStyle
  2
2dWireframe
 70
     4
 71
     0
 72
     2
 73
     0
 90
        0
 40
-0.6
 41
-30.0
 62
     5
 63
     7
421
 16777215
 74
     1
 91
        4
 64
     7
 65
   257
 75
     1
175
     1
 42
1.0
 92
        0
 66
   257
 43
1.0
 76
     1
 77
     6
 78
     2
 67
     7
 79
     5
170
     0
171
     0
290
     0
174
     0
 93
        1
 44
0.0
173
     0
291
     0
 45
0.0
1001
ACAD
1000
AcDbSavedByObjectVersion
1070
     0
  0
VISUALSTYLE
  5
31
102
{ACAD_REACTORS
330
2A
102
}
330
2A
100
AcDbVisualStyle
  2
3D Hidden
 70
     6
 71
     1
 72
     2
 73
     2
 90
        0
 40
-0.6
 41
-30.0
 62
     5
 63
     7
421
 16777215
 74
     2
 91
        2
 64
     7
 65
   257
 75
     2
175
     1
 42
40.0
 92
        0
 66
   257
 43
1.0
 76
     1
 77
     6
 78
     2
 67
     7
 79
     3
170
     0
171
     0
290
     0
174
     0
 93
        1
 44
0.0
173
     0
291
     0
 45
0.0
1001
ACAD
1000
AcDbSavedByObjectVersion
1070
     0
  0
VISUALSTYLE
  5
30
102
{ACAD_REACTORS
330
2A
102
}
330
2A
100
AcDbVisualStyle
  2
3dWireframe
 70
     5
 71
     0
 72
     2
 73
     0
 90
        0
 40
-0.6
 41
-30.0
 62
     5
 63
     7
421
 16777215
 74
     1
 91
        4
 64
     7
 65
   257
 75
     1
175
     1
 42
1.0
 92
        0
 66
   257
 43
1.0
 76
     1
 77
     6
 78
     2
 67
     7
 79
     5
170
     0
171
     0
290
     0
174
     0
 93
        1
 44
0.0
173
     0
291
     0
 45
0.0
1001
ACAD
1000
AcDbSavedByObjectVersion
1070
     0
  0
VISUALSTYLE
  5
32
102
{ACAD_REACTORS
330
2A
102
}
330
2A
100
AcDbVisualStyle
  2
Basic
 70
     7
 71
     1
 72
     0
 73
     1
 90
        0
 40
-0.6
 41
-30.0
 62
     5
 63
     7
421
 16777215
 74
     0
 91
        4
 64
     7
 65
   257
 75
     1
175
     1
 42
1.0
 92
        8
 66
     7
 43
1.0
 76
     1
 77
     6
 78
     2
 67
     7
 79
     5
170
     0
171
     0
290
     0
174
     0
 93
        1
 44
0.0
173
     0
291
     1
 45
0.0
1001
ACAD
1000
AcDbSavedByObjectVersion
1070
     0
  0
VISUALSTYLE
  5
36
102
{ACAD_REACTORS
330
2A
102
}
330
2A
100
AcDbVisualStyle
  2
Brighten
 70
    12
 71
     2
 72
     2
 73
     0
 90
        0
 40
-0.6
 41
-30.0
 62
     5
 63
     7
421
 16777215
 74
     1
 91
        4
 64
     7
 65
   257
 75
     1
175
     1
 42
1.0
 92
        8
 66
     7
 43
1.0
 76
     1
 77
     6
 78
     2
 67
     7
 79
     5
170
     0
171
     0
290
     0
174
     0
 93
        1
 44
50.0
173
     0
291
     1
 45
0.0
1001
ACAD
1000
AcDbSavedByObjectVersion
1070
     0
  0
VISUALSTYLE
  5
3A
102
{ACAD_REACTORS
330
2A
102
}
330
2A
100
AcDbVisualStyle
  2
ColorChange
 70
    16
 71
     2
 72
     2
 73
     3
 90
        0
 40
-0.6
 41
-30.0
 62
     5
 63
     8
421
  8421504
 74
     1
 91
        4
 64
     7
 65
   257
 75
     1
175
     1
 42
1.0
 92
        8
 66
     8
424
  8421504
 43
1.0
 76
     1
 77
     6
 78
     2
 67
     7
 79
     5
170
     0
171
     0
290
     0
174
     0
 93
        1
 44
0.0
173
     0
291
     1
 45
0.0
1001
ACAD
1000
AcDbSavedByObjectVersion
1070
     0
  0
VISUALSTYLE
  5
34
102
{ACAD_REACTORS
330
2A
102
}
330
2A
100
AcDbVisualStyle
  2
Conceptual
 70
     9
 71
     3
 72
     2
 73
     0
 90
        0
 40
-0.6
 41
-30.0
 62
     5
 63
     7
421
 16777215
 74
     2
 91
        2
 64
     7
 65
   257
 75
     1
175
     1
 42
40.0
 92
        8
 66
     7
 43
1.0
 76
     1
 77
     6
 78
     2
 67
     7
 79
     3
170
     0
171
     0
290
     0
174
     0
 93
        1
 44
0.0
173
     0
291
     0
 45
0.0
1001
ACAD
1000
AcDbSavedByObjectVersion
1070
     0
  0
VISUALSTYLE
  5
35
102
{ACAD_REACTORS
330
2A
102
}
330
2A
100
AcDbVisualStyle
  2
Dim
 70
    11
 71
     2
 72
     2
 73
     0
 90
        0
 40
-0.6
 41
-30.0
 62
     5
 63
     7
421
 16777215
 74
     1
 91
        4
 64
     7
 65
   257
 75
     1
175
     1
 42
1.0
 92
        8
 66
     7
 43
1.0
 76
     1
 77
     6
 78
     2
 67
     7
 79
     5
170
     0
171
     0
290
     0
174
     0
 93
        1
 44
-50.0
173
     0
291
     1
 45
0.0
1001
ACAD
1000
AcDbSavedByObjectVersion
1070
     0
  0
VISUALSTYLE
  5
39
102
{ACAD_REACTORS
330
2A
102
}
330
2A
100
AcDbVisualStyle
  2
Facepattern
 70
    15
 71
     2
 72
     2
 73
     0
 90
        0
 40
-0.6
 41
-30.0
 62
     5
 63
     7
421
 16777215
 74
     1
 91
        4
 64
     7
 65
   257
 75
     1
175
     1
 42
1.0
 92
        8
 66
     7
 43
1.0
 76
     1
 77
     6
 78
     2
 67
     7
 79
     5
170
     0
171
     0
290
     0
174
     0
 93
        1
 44
0.0
173
     0
291
     1
 45
0.0
1001
ACAD
1000
AcDbSavedByObjectVersion
1070
     0
  0
VISUALSTYLE
  5
2B
102
{ACAD_REACTORS
330
2A
102
}
330
2A
100
AcDbVisualStyle
  2
Flat
 70
     0
 71
     2
 72
     1
 73
     1
 90
        2
 40
-0.6
 41
30.0
 62
     5
 63
     7
421
 16777215
 74
     0
 91
        4
 64
     7
 65
   257
 75
     1
175
     1
 42
1.0
 92
        8
 66
     7
 43
1.0
 76
     1
 77
     6
 78
     2
 67
     7
 79
     5
170
     0
171
     0
290
     0
174
     0
 93
       13
 44
0.0
173
     0
291
     1
 45
0.0
1001
ACAD
1000
AcDbSavedByObjectVersion
1070
     0
  0
VISUALSTYLE
  5
2C
102
{ACAD_REACTORS
330
2A
102
}
330
2A
100
AcDbVisualStyle
  2
FlatWithEdges
 70
     1
 71
     2
 72
     1
 73
     1
 90
        2
 40
-0.6
 41
30.0
 62
     5
 63
     7
421
 16777215
 74
     1
 91
        4
 64
     7
 65
   257
 75
     1
175
     1
 42
1.0
 92
        0
 66
   257
 43
1.0
 76
     1
 77
     6
 78
     2
 67
     7
 79
     5
170
     0
171
     0
290
     0
174
     0
 93
       13
 44
0.0
173
     0
291
     1
 45
0.0
1001
ACAD
1000
AcDbSavedByObjectVersion
1070
     0
  0
VISUALSTYLE
  5
2D
102
{ACAD_REACTORS
330
2A
102
}
330
2A
100
AcDbVisualStyle
  2
Gouraud
 70
     2
 71
     2
 72
     2
 73
     1
 90
        2
 40
-0.6
 41
30.0
 62
     5
 63
     7
421
 16777215
 74
     0
 91
        4
 64
     7
 65
   257
 75
     1
175
     1
 42
1.0
 92
        0
 66
     7
 43
1.0
 76
     1
 77
     6
 78
     2
 67
     7
 79
     5
170
     0
171
     0
290
     0
174
     0
 93
       13
 44
0.0
173
     0
291
     1
 45
0.0
1001
ACAD
1000
AcDbSavedByObjectVersion
1070
     0
  0
VISUALSTYLE
  5
2E
102
{ACAD_REACTORS
330
2A
102
}
330
2A
100
AcDbVisualStyle
  2
GouraudWithEdges
 70
     3
 71
     2
 72
     2
 73
     1
 90
        2
 40
-0.6
 41
30.0
 62
     5
 63
     7
421
 16777215
 74
     1
 91
        4
 64
     7
 65
   257
 75
     1
175
     1
 42
1.0
 92
        0
 66
   257
 43
1.0
 76
     1
 77
     6
 78
     2
 67
     7
 79
     5
170
     0
171
     0
290
     0
174
     0
 93
       13
 44
0.0
173
     0
291
     1
 45
0.0
1001
ACAD
1000
AcDbSavedByObjectVersion
1070
     0
  0
VISUALSTYLE
  5
38
102
{ACAD_REACTORS
330
2A
102
}
330
2A
100
AcDbVisualStyle
  2
Linepattern
 70
    14
 71
     2
 72
     2
 73
     0
 90
        0
 40
-0.6
 41
-30.0
 62
     5
 63
     7
421
 16777215
 74
     1
 91
        4
 64
     7
 65
   257
 75
     7
175
     7
 42
1.0
 92
        8
 66
     7
 43
1.0
 76
     1
 77
     6
 78
     2
 67
     7
 79
     5
170
     0
171
     0
290
     0
174
     0
 93
        1
 44
0.0
173
     0
291
     1
 45
0.0
1001
ACAD
1000
AcDbSavedByObjectVersion
1070
     0
  0
VISUALSTYLE
  5
33
102
{ACAD_REACTORS
330
2A
102
}
330
2A
100
AcDbVisualStyle
  2
Realistic
 70
     8
 71
     2
 72
     2
 73
     0
 90
        0
 40
-0.6
 41
-30.0
 62
     5
 63
     7
421
 16777215
 74
     1
 91
        0
 64
     7
 65
   257
 75
     1
175
     1
 42
1.0
 92
        8
 66
     8
424
  7895160
 43
1.0
 76
     1
 77
     6
 78
     2
 67
     7
 79
     5
170
     0
171
     0
290
     0
174
     0
 93
       13
 44
0.0
173
     0
291
     0
 45
0.0
1001
ACAD
1000
AcDbSavedByObjectVersion
1070
     0
  0
VISUALSTYLE
  5
37
102
{ACAD_REACTORS
330
2A
102
}
330
2A
100
AcDbVisualStyle
  2
Thicken
 70
    13
 71
     2
 72
     2
 73
     0
 90
        0
 40
-0.6
 41
-30.0
 62
     5
 63
     7
421
 16777215
 74
     1
 91
        4
 64
     7
 65
   257
 75
     1
175
     1
 42
1.0
 92
       12
 66
     7
 43
1.0
 76
     1
 77
     6
 78
     2
 67
     7
 79
     5
170
     0
171
     0
290
     0
174
     0
 93
        1
 44
0.0
173
     0
291
     1
 45
0.0
1001
ACAD
1000
AcDbSavedByObjectVersion
1070
     0
  0
ENDSEC
  0
EOF
