  0
SECTION
  2
HEADER
  9
$ACADVER
  1
AC1018
  9
$ACADMAINTVER
 70
     0
  9
$DWGCODEPAGE
  3
ANSI_1252
  9
$INSBASE
 10
0.0
 20
0.0
 30
0.0
  9
$EXTMIN
 10
-15.01184679216672
 20
0.0
 30
0.0
  9
$EXTMAX
 10
58.58642542332205
 20
81.34658580922898
 30
0.0
  9
$LIMMIN
 10
0.0
 20
0.0
  9
$LIMMAX
 10
12.0
 20
9.0
  9
$ORTHOMODE
 70
     0
  9
$REGENMODE
 70
     1
  9
$FILLMODE
 70
     1
  9
$QTEXTMODE
 70
     0
  9
$MIRRTEXT
 70
     1
  9
$LTSCALE
 40
0.0393700787401575
  9
$ATTMODE
 70
     1
  9
$TEXTSIZE
 40
0.2
  9
$TRACEWID
 40
0.05
  9
$TEXTSTYLE
  7
Standard
  9
$CLAYER
  8
Default
  9
$CELTYPE
  6
ByLayer
  9
$CECOLOR
 62
   256
  9
$CELTSCALE
 40
1.0
  9
$DISPSILH
 70
     0
  9
$DIMSCALE
 40
1.0
  9
$DIMASZ
 40
0.18
  9
$DIMEXO
 40
0.0625
  9
$DIMDLI
 40
0.38
  9
$DIMRND
 40
0.0
  9
$DIMDLE
 40
0.0
  9
$DIMEXE
 40
0.18
  9
$DIMTP
 40
0.0
  9
$DIMTM
 40
0.0
  9
$DIMTXT
 40
0.18
  9
$DIMCEN
 40
0.09
  9
$DIMTSZ
 40
0.0
  9
$DIMTOL
 70
     0
  9
$DIMLIM
 70
     0
  9
$DIMTIH
 70
     1
  9
$DIMTOH
 70
     1
  9
$DIMSE1
 70
     0
  9
$DIMSE2
 70
     0
  9
$DIMTAD
 70
     0
  9
$DIMZIN
 70
     0
  9
$DIMBLK
  1

  9
$DIMASO
 70
     1
  9
$DIMSHO
 70
     1
  9
$DIMPOST
  1

  9
$DIMAPOST
  1

  9
$DIMALT
 70
     0
  9
$DIMALTD
 70
     2
  9
$DIMALTF
 40
25.4
  9
$DIMLFAC
 40
1.0
  9
$DIMTOFL
 70
     0
  9
$DIMTVP
 40
0.0
  9
$DIMTIX
 70
     0
  9
$DIMSOXD
 70
     0
  9
$DIMSAH
 70
     0
  9
$DIMBLK1
  1

  9
$DIMBLK2
  1

  9
$DIMSTYLE
  2
Standard
  9
$DIMCLRD
 70
     0
  9
$DIMCLRE
 70
     0
  9
$DIMCLRT
 70
     0
  9
$DIMTFAC
 40
1.0
  9
$DIMGAP
 40
0.09
  9
$DIMJUST
 70
     0
  9
$DIMSD1
 70
     0
  9
$DIMSD2
 70
     0
  9
$DIMTOLJ
 70
     1
  9
$DIMTZIN
 70
     0
  9
$DIMALTZ
 70
     0
  9
$DIMALTTZ
 70
     0
  9
$DIMUPT
 70
     0
  9
$DIMDEC
 70
     4
  9
$DIMTDEC
 70
     4
  9
$DIMALTU
 70
     2
  9
$DIMALTTD
 70
     2
  9
$DIMTXSTY
  7
Standard
  9
$DIMAUNIT
 70
     0
  9
$DIMADEC
 70
     0
  9
$DIMALTRND
 40
0.0
  9
$DIMAZIN
 70
     0
  9
$DIMDSEP
 70
    46
  9
$DIMATFIT
 70
     3
  9
$DIMFRAC
 70
     0
  9
$DIMLDRBLK
  1

  9
$DIMLUNIT
 70
     2
  9
$DIMLWD
 70
    -2
  9
$DIMLWE
 70
    -2
  9
$DIMTMOVE
 70
     2
  9
$LUNITS
 70
     2
  9
$LUPREC
 70
     3
  9
$SKETCHINC
 40
0.1
  9
$FILLETRAD
 40
0.5
  9
$AUNITS
 70
     0
  9
$AUPREC
 70
     0
  9
$MENU
  1
.
  9
$ELEVATION
 40
0.0
  9
$PELEVATION
 40
0.0
  9
$THICKNESS
 40
0.0
  9
$LIMCHECK
 70
     0
  9
$CHAMFERA
 40
0.5
  9
$CHAMFERB
 40
0.5
  9
$CHAMFERC
 40
1.0
  9
$CHAMFERD
 40
0.0
  9
$SKPOLY
 70
     0
  9
$TDCREATE
 40
2457528.362423669
  9
$TDUCREATE
 40
2457528.529090336
  9
$TDUPDATE
 40
2457528.362423681
  9
$TDUUPDATE
 40
2457528.529090347
  9
$TDINDWG
 40
0.0000000116
  9
$TDUSRTIMER
 40
0.0000000116
  9
$USRTIMER
 70
     1
  9
$ANGBASE
 50
0.0
  9
$ANGDIR
 70
     0
  9
$PDMODE
 70
     0
  9
$PDSIZE
 40
0.0
  9
$PLINEWID
 40
0.0
  9
$SPLFRAME
 70
     0
  9
$SPLINETYPE
 70
     6
  9
$SPLINESEGS
 70
     8
  9
$HANDSEED
  5
109
  9
$SURFTAB1
 70
     6
  9
$SURFTAB2
 70
     6
  9
$SURFTYPE
 70
     6
  9
$SURFU
 70
     6
  9
$SURFV
 70
     6
  9
$UCSBASE
  2

  9
$UCSNAME
  2

  9
$UCSORG
 10
0.0
 20
0.0
 30
0.0
  9
$UCSXDIR
 10
1.0
 20
0.0
 30
0.0
  9
$UCSYDIR
 10
0.0
 20
1.0
 30
0.0
  9
$UCSORTHOREF
  2

  9
$UCSORTHOVIEW
 70
     0
  9
$UCSORGTOP
 10
0.0
 20
0.0
 30
0.0
  9
$UCSORGBOTTOM
 10
0.0
 20
0.0
 30
0.0
  9
$UCSORGLEFT
 10
0.0
 20
0.0
 30
0.0
  9
$UCSORGRIGHT
 10
0.0
 20
0.0
 30
0.0
  9
$UCSORGFRONT
 10
0.0
 20
0.0
 30
0.0
  9
$UCSORGBACK
 10
0.0
 20
0.0
 30
0.0
  9
$PUCSBASE
  2

  9
$PUCSNAME
  2

  9
$PUCSORG
 10
0.0
 20
0.0
 30
0.0
  9
$PUCSXDIR
 10
1.0
 20
0.0
 30
0.0
  9
$PUCSYDIR
 10
0.0
 20
1.0
 30
0.0
  9
$PUCSORTHOREF
  2

  9
$PUCSORTHOVIEW
 70
     0
  9
$PUCSORGTOP
 10
0.0
 20
0.0
 30
0.0
  9
$PUCSORGBOTTOM
 10
0.0
 20
0.0
 30
0.0
  9
$PUCSORGLEFT
 10
0.0
 20
0.0
 30
0.0
  9
$PUCSORGRIGHT
 10
0.0
 20
0.0
 30
0.0
  9
$PUCSORGFRONT
 10
0.0
 20
0.0
 30
0.0
  9
$PUCSORGBACK
 10
0.0
 20
0.0
 30
0.0
  9
$USERI1
 70
     0
  9
$USERI2
 70
     0
  9
$USERI3
 70
     0
  9
$USERI4
 70
     0
  9
$USERI5
 70
     0
  9
$USERR1
 40
0.0
  9
$USERR2
 40
0.0
  9
$USERR3
 40
0.0
  9
$USERR4
 40
0.0
  9
$USERR5
 40
0.0
  9
$WORLDVIEW
 70
     1
  9
$SHADEDGE
 70
     3
  9
$SHADEDIF
 70
    70
  9
$TILEMODE
 70
     1
  9
$MAXACTVP
 70
    64
  9
$PINSBASE
 10
0.0
 20
0.0
 30
0.0
  9
$PLIMCHECK
 70
     0
  9
$PEXTMIN
 10
1.000000000000000E+20
 20
1.000000000000000E+20
 30
1.000000000000000E+20
  9
$PEXTMAX
 10
-1.000000000000000E+20
 20
-1.000000000000000E+20
 30
-1.000000000000000E+20
  9
$PLIMMIN
 10
0.0
 20
0.0
  9
$PLIMMAX
 10
12.0
 20
9.0
  9
$UNITMODE
 70
     0
  9
$VISRETAIN
 70
     1
  9
$PLINEGEN
 70
     0
  9
$PSLTSCALE
 70
     1
  9
$TREEDEPTH
 70
  3020
  9
$CMLSTYLE
  2
Standard
  9
$CMLJUST
 70
     0
  9
$CMLSCALE
 40
1.0
  9
$PROXYGRAPHICS
 70
     1
  9
$MEASUREMENT
 70
     0
  9
$CELWEIGHT
370
    -1
  9
$ENDCAPS
280
     0
  9
$JOINSTYLE
280
     0
  9
$LWDISPLAY
290
     0
  9
$INSUNITS
 70
     1
  9
$HYPERLINKBASE
  1

  9
$STYLESHEET
  1

  9
$XEDIT
290
     1
  9
$CEPSNTYPE
380
     0
  9
$PSTYLEMODE
290
     1
  9
$FINGERPRINTGUID
  2
{2ED8A6BD-A7C1-45D5-B555-278CEA6210FB}
  9
$VERSIONGUID
  2
{FAEB1C32-E019-11D5-929B-00C0DF256EC4}
  9
$EXTNAMES
290
     1
  9
$PSVPSCALE
 40
0.0
  9
$OLESTARTUP
290
     0
  9
$SORTENTS
280
   127
  9
$INDEXCTL
280
     0
  9
$HIDETEXT
280
     1
  9
$XCLIPFRAME
290
     0
  9
$HALOGAP
280
     0
  9
$OBSCOLOR
 70
   257
  9
$OBSLTYPE
280
     0
  9
$INTERSECTIONDISPLAY
280
     0
  9
$INTERSECTIONCOLOR
 70
   257
  9
$DIMASSOC
280
     2
  9
$PROJECTNAME
  1

  0
ENDSEC
  0
SECTION
  2
CLASSES
  0
CLASS
  1
ACDBDICTIONARYWDFLT
  2
AcDbDictionaryWithDefault
  3
ObjectDBX Classes
 90
        0
 91
        4
280
     0
281
     0
  0
CLASS
  1
VISUALSTYLE
  2
AcDbVisualStyle
  3
ObjectDBX Classes
 90
     4095
 91
        4
280
     0
281
     0
  0
ENDSEC
  0
SECTION
  2
TABLES
  0
TABLE
  2
VPORT
  5
8
330
0
100
AcDbSymbolTable
 70
     1
  0
VPORT
  5
29
330
8
100
AcDbSymbolTableRecord
100
AcDbViewportTableRecord
  2
*Active
 70
     0
 10
0.0
 20
0.0
 11
1.0
 21
1.0
 12
21.78728931557767
 22
40.67329290461449
 13
0.0
 23
0.0
 14
0.5
 24
0.5
 15
0.5
 25
0.5
 16
0.0
 26
0.0
 36
1.0
 17
0.0
 27
0.0
 37
0.0
 40
82.97351752541357
 41
0.9047493694214618
 42
50.0
 43
0.0
 44
0.0
 50
0.0
 51
0.0
 71
     0
 72
   100
 73
     1
 74
     3
 75
     0
 76
     0
 77
     0
 78
     0
281
     0
 65
     1
110
0.0
120
0.0
130
0.0
111
1.0
121
0.0
131
0.0
112
0.0
122
1.0
132
0.0
 79
     0
146
0.0
  0
ENDTAB
  0
TABLE
  2
LTYPE
  5
5
330
0
100
AcDbSymbolTable
 70
     1
  0
LTYPE
  5
14
330
5
100
AcDbSymbolTableRecord
100
AcDbLinetypeTableRecord
  2
ByBlock
 70
     0
  3

 72
    65
 73
     0
 40
0.0
  0
LTYPE
  5
15
330
5
100
AcDbSymbolTableRecord
100
AcDbLinetypeTableRecord
  2
ByLayer
 70
     0
  3

 72
    65
 73
     0
 40
0.0
  0
LTYPE
  5
16
330
5
100
AcDbSymbolTableRecord
100
AcDbLinetypeTableRecord
  2
Continuous
 70
     0
  3
Solid line
 72
    65
 73
     0
 40
0.0
  0
ENDTAB
  0
TABLE
  2
LAYER
  5
2
330
0
100
AcDbSymbolTable
 70
     3
  0
LAYER
  5
10
330
2
100
AcDbSymbolTableRecord
100
AcDbLayerTableRecord
  2
0
 70
     0
 62
     7
  6
Continuous
370
    -3
390
F
  0
LAYER
  5
3B
330
2
100
AcDbSymbolTableRecord
100
AcDbLayerTableRecord
  2
Default
 70
     0
 62
     7
  6
Continuous
370
    -3
390
F
  0
LAYER
  5
40
330
2
100
AcDbSymbolTableRecord
100
AcDbLayerTableRecord
  2
Default - Tangent
 70
     0
 62
     7
  6
Continuous
370
    -3
390
F
  0
ENDTAB
  0
TABLE
  2
STYLE
  5
3
330
0
100
AcDbSymbolTable
 70
     1
  0
STYLE
  5
11
330
3
100
AcDbSymbolTableRecord
100
AcDbTextStyleTableRecord
  2
Standard
 70
     0
 40
0.0
 41
1.0
 50
0.0
 71
     0
 42
0.2
  3
txt
  4

  0
ENDTAB
  0
TABLE
  2
VIEW
  5
6
330
0
100
AcDbSymbolTable
 70
     0
  0
ENDTAB
  0
TABLE
  2
UCS
  5
7
330
0
100
AcDbSymbolTable
 70
     0
  0
ENDTAB
  0
TABLE
  2
APPID
  5
9
330
0
100
AcDbSymbolTable
 70
     1
  0
APPID
  5
12
330
9
100
AcDbSymbolTableRecord
100
AcDbRegAppTableRecord
  2
ACAD
 70
     0
  0
ENDTAB
  0
TABLE
  2
DIMSTYLE
  5
A
330
0
100
AcDbSymbolTable
 70
     1
100
AcDbDimStyleTable
  0
DIMSTYLE
105
27
330
A
100
AcDbSymbolTableRecord
100
AcDbDimStyleTableRecord
  2
Standard
 70
     0
340
11
  0
ENDTAB
  0
TABLE
  2
BLOCK_RECORD
  5
1
330
0
100
AcDbSymbolTable
 70
     1
  0
BLOCK_RECORD
  5
1F
330
1
100
AcDbSymbolTableRecord
100
AcDbBlockTableRecord
  2
*Model_Space
340
22
  0
BLOCK_RECORD
  5
1B
330
1
100
AcDbSymbolTableRecord
100
AcDbBlockTableRecord
  2
*Paper_Space
340
1E
  0
BLOCK_RECORD
  5
23
330
1
100
AcDbSymbolTableRecord
100
AcDbBlockTableRecord
  2
*Paper_Space0
340
26
  0
ENDTAB
  0
ENDSEC
  0
SECTION
  2
BLOCKS
  0
BLOCK
  5
20
330
1F
100
AcDbEntity
  8
0
100
AcDbBlockBegin
  2
*Model_Space
 70
     0
 10
0.0
 20
0.0
 30
0.0
  3
*Model_Space
  1

  0
ENDBLK
  5
21
330
1F
100
AcDbEntity
  8
0
100
AcDbBlockEnd
  0
BLOCK
  5
1C
330
1B
100
AcDbEntity
 67
     1
  8
0
100
AcDbBlockBegin
  2
*Paper_Space
 70
     0
 10
0.0
 20
0.0
 30
0.0
  3
*Paper_Space
  1

  0
ENDBLK
  5
1D
330
1B
100
AcDbEntity
 67
     1
  8
0
100
AcDbBlockEnd
  0
BLOCK
  5
24
330
23
100
AcDbEntity
  8
0
100
AcDbBlockBegin
  2
*Paper_Space0
 70
     0
 10
0.0
 20
0.0
 30
0.0
  3
*Paper_Space0
  1

  0
ENDBLK
  5
25
330
23
100
AcDbEntity
  8
0
100
AcDbBlockEnd
  0
ENDSEC
  0
SECTION
  2
ENTITIES
  0
SPLINE
  5
3C
330
1F
100
AcDbEntity
  8
Default
100
AcDbSpline
210
0.0
220
0.0
230
1.0
 70
     8
 71
     3
 72
    47
 73
    43
 74
     0
 42
0.0000000001
 43
0.0000000001
 40
-3.0
 40
-2.0
 40
-1.0
 40
0.0
 40
1.0
 40
2.0
 40
3.0
 40
4.0
 40
5.0
 40
6.0
 40
7.0
 40
8.0
 40
9.0
 40
10.0
 40
11.0
 40
12.0
 40
13.0
 40
14.0
 40
15.0
 40
16.0
 40
17.0
 40
18.0
 40
19.0
 40
20.0
 40
21.0
 40
22.0
 40
23.0
 40
24.0
 40
25.0
 40
26.0
 40
27.0
 40
28.0
 40
29.0
 40
30.0
 40
31.0
 40
32.0
 40
33.0
 40
34.0
 40
35.0
 40
36.0
 40
37.0
 40
38.0
 40
39.0
 40
40.0
 40
41.0
 40
42.0
 40
43.0
 10
-1.572419278660419
 20
69.58426741189398
 30
0.0
 10
0.0000028257865381
 20
69.59958822254958
 30
0.0
 10
1.572423327636415
 20
69.58426741099254
 30
0.0
 10
3.144486949588639
 20
69.51737851626888
 30
0.0
 10
4.703645604240791
 20
69.29852796146099
 30
0.0
 10
6.221082135337412
 20
68.85271267037206
 30
0.0
 10
7.563822623605944
 20
67.98999633948095
 30
0.0
 10
8.471735513430446
 20
66.65671119310144
 30
0.0
 10
8.743370537808772
 20
65.09125521604241
 30
0.0
 10
8.925914237116643
 20
63.53300235896319
 30
0.0
 10
9.009767914917433
 20
61.96096390155157
 30
0.0
 10
9.019719159138702
 20
60.38834232178976
 30
0.0
 10
8.964962809904733
 20
58.81676377864083
 30
0.0
 10
8.866905219886831
 20
57.24646834191091
 30
0.0
 10
8.688230388315475
 20
55.68562557462494
 30
0.0
 10
8.378865770292322
 20
54.13321816605823
 30
0.0
 10
7.542961466772823
 20
52.75514885215023
 30
0.0
 10
6.143632851564263
 20
51.96365455233595
 30
0.0
 10
4.683260055523618
 20
51.38929555849583
 30
0.0
 10
3.132937091352375
 20
51.08937321525774
 30
0.0
 10
1.572105418689347
 20
50.90311278142028
 30
0.0
 10
0.0000026492796508
 20
50.81908888908195
 30
0.0
 10
-1.572100663685802
 20
50.9031128058118
 30
0.0
 10
-3.132930824577812
 20
51.08937312837394
 30
0.0
 10
-4.683253932506005
 20
51.38929507626933
 30
0.0
 10
-6.143629361307461
 20
51.96365555010252
 30
0.0
 10
-7.542954998391025
 20
52.75514741619855
 30
0.0
 10
-8.37886159020988
 20
54.13322032705921
 30
0.0
 10
-8.68822479570693
 20
55.68562359992882
 30
0.0
 10
-8.866900214380308
 20
57.24646887090724
 30
0.0
 10
-8.964957589829083
 20
58.81676218713275
 30
0.0
 10
-9.019714056927086
 20
60.38834270706006
 30
0.0
 10
-9.009762821828616
 20
61.96096249167668
 30
0.0
 10
-8.925909144478538
 20
63.533002801085
 30
0.0
 10
-8.743365231645754
 20
65.0912556384906
 30
0.0
 10
-8.471731009369904
 20
66.6567098363788
 30
0.0
 10
-7.563817095404346
 20
67.98999684382358
 30
0.0
 10
-6.221077854382685
 20
68.85271219781728
 30
0.0
 10
-4.703640469285261
 20
69.29852802349723
 30
0.0
 10
-3.144482588708883
 20
69.51737840749006
 30
0.0
 10
-1.572419278660419
 20
69.58426741189398
 30
0.0
 10
0.0000028257865381
 20
69.59958822254958
 30
0.0
 10
1.572423327636415
 20
69.58426741099254
 30
0.0
  0
SPLINE
  5
3D
330
1F
100
AcDbEntity
  8
Default
100
AcDbSpline
210
0.0
220
0.0
230
1.0
 70
     8
 71
     3
 72
    12
 73
     8
 74
     0
 42
0.0000000001
 43
0.0000000001
 40
0.0
 40
0.0
 40
0.0
 40
0.0
 40
1.0
 40
2.0
 40
3.0
 40
4.0
 40
5.0
 40
5.0
 40
5.0
 40
5.0
 10
-8.82789773390627
 20
53.49608705278507
 30
0.0
 10
-9.675975517092155
 20
54.15861576274166
 30
0.0
 10
-11.16814950322257
 20
55.74093908895053
 30
0.0
 10
-12.65994861221125
 20
58.63324052679553
 30
0.0
 10
-13.50031431070116
 20
61.76477852817717
 30
0.0
 10
-13.71705153769554
 20
65.00410125789222
 30
0.0
 10
-13.35153253211061
 20
67.14043896468058
 30
0.0
 10
-13.06493062604548
 20
68.17681837474711
 30
0.0
  0
SPLINE
  5
3E
330
1F
100
AcDbEntity
  8
Default
100
AcDbSpline
210
0.0
220
0.0
230
1.0
 70
     8
 71
     3
 72
    12
 73
     8
 74
     0
 42
0.0000000001
 43
0.0000000001
 40
0.0
 40
0.0
 40
0.0
 40
0.0
 40
1.0
 40
2.0
 40
3.0
 40
4.0
 40
5.0
 40
5.0
 40
5.0
 40
5.0
 10
8.827902851280356
 20
53.49608705278507
 30
0.0
 10
9.675980634466242
 20
54.15861576274166
 30
0.0
 10
11.16815462059665
 20
55.74093908895053
 30
0.0
 10
12.65995372958528
 20
58.63324052679553
 30
0.0
 10
13.50031942807524
 20
61.76477852817717
 30
0.0
 10
13.71705665506957
 20
65.00410125789222
 30
0.0
 10
13.35153764948464
 20
67.14043896468058
 30
0.0
 10
13.06493574341951
 20
68.17681837474711
 30
0.0
  0
SPLINE
  5
3F
330
1F
100
AcDbEntity
  8
Default
100
AcDbSpline
210
0.0
220
0.0
230
1.0
 70
     8
 71
     3
 72
    12
 73
     8
 74
     0
 42
0.0000000001
 43
0.0000000001
 40
0.0
 40
0.0
 40
0.0
 40
0.0
 40
1.0
 40
2.0
 40
3.0
 40
4.0
 40
5.0
 40
5.0
 40
5.0
 40
5.0
 10
8.005546094599538
 20
76.76004908969347
 30
0.0
 10
6.970922116648694
 20
77.07258474720894
 30
0.0
 10
4.870098620533383
 20
77.56282799182372
 30
0.0
 10
1.615797268316982
 20
77.6769616124117
 30
0.0
 10
-1.615794623132473
 20
77.67685896499688
 30
0.0
 10
-4.87010440275364
 20
77.56286888476978
 30
0.0
 10
-6.970914469529674
 20
77.07257624102711
 30
0.0
 10
-8.005540977225479
 20
76.76004908969347
 30
0.0
  0
SPLINE
  5
41
330
1F
100
AcDbEntity
  8
Default - Tangent
100
AcDbSpline
210
0.0
220
0.0
230
1.0
 70
    28
 71
     3
 72
     8
 73
     4
 74
     0
 42
0.0000000001
 43
0.0000000001
 40
-0.1045031155103866
 40
-0.1045031155103866
 40
-0.1045031155103866
 40
-0.1045031155103866
 40
-0.0143557212056612
 40
-0.0143557212056612
 40
-0.0143557212056612
 40
-0.0143557212056612
 10
0.0000025586595029
 20
81.34590928286772
 30
0.0
 41
1.0
 10
0.000002558661464
 20
81.34804127759486
 30
0.0
 41
1.0
 10
0.0000025586633967
 20
81.34514219023708
 30
0.0
 41
1.0
 10
0.0000025586786876
 20
81.33709896065747
 30
0.0
 41
1.0
  0
SPLINE
  5
42
330
1F
100
AcDbEntity
  8
Default
100
AcDbSpline
210
0.0
220
0.0
230
1.0
 70
     8
 71
     3
 72
     8
 73
     4
 74
     0
 42
0.0000000001
 43
0.0000000001
 40
-1.0
 40
-1.0
 40
-1.0
 40
-1.0
 40
0.0
 40
0.0
 40
0.0
 40
0.0
 10
10.12033816228316
 20
77.34379691803005
 30
0.0
 10
10.44585160172599
 20
76.30650206571536
 30
0.0
 10
11.14142571792414
 20
74.5492567939664
 30
0.0
 10
11.58625252726611
 20
73.55586410871625
 30
0.0
  0
SPLINE
  5
43
330
1F
100
AcDbEntity
  8
Default
100
AcDbSpline
210
0.0
220
0.0
230
1.0
 70
     8
 71
     3
 72
    33
 73
    29
 74
     0
 42
0.0000000001
 43
0.0000000001
 40
11.2800046375079
 40
11.2800046375079
 40
11.2800046375079
 40
11.2800046375079
 40
12.0
 40
13.0
 40
14.0
 40
15.0
 40
16.0
 40
17.0
 40
18.0
 40
19.0
 40
20.0
 40
21.0
 40
22.0
 40
23.0
 40
24.0
 40
25.0
 40
26.0
 40
27.0
 40
28.0
 40
29.0
 40
30.0
 40
31.0
 40
32.0
 40
33.0
 40
34.0
 40
35.0
 40
36.0
 40
37.0
 40
37.0
 40
37.0
 40
37.0
 10
11.58625252726611
 20
73.55586410871625
 30
0.0
 10
11.71251267650828
 20
73.27389839518086
 30
0.0
 10
12.02171550459073
 20
72.6033085003423
 30
0.0
 10
12.54764970886046
 20
71.56168117321128
 30
0.0
 10
13.11301475405813
 20
70.40469513148668
 30
0.0
 10
13.60593120222413
 20
69.2147475970642
 30
0.0
 10
14.04430517116791
 20
68.00422889468543
 30
0.0
 10
14.44971627694051
 20
66.78199638900045
 30
0.0
 10
14.7749491864358
 20
65.53540753193843
 30
0.0
 10
14.96868512612318
 20
64.26043095595114
 30
0.0
 10
15.02619782654122
 20
62.97279456229938
 30
0.0
 10
14.93797301008007
 20
61.68649665739753
 30
0.0
 10
14.68390216593824
 20
60.42134616668513
 30
0.0
 10
14.30002128063111
 20
59.19179429310938
 30
0.0
 10
13.78479653971024
 20
58.00969700000896
 30
0.0
 10
13.16684458467657
 20
56.87886747189994
 30
0.0
 10
12.42646933763038
 20
55.82339782141246
 30
0.0
 10
11.60703344757977
 20
54.82956121980214
 30
0.0
 10
10.7012536558631
 20
53.91226016361961
 30
0.0
 10
9.705012364093221
 20
53.09442738616553
 30
0.0
 10
8.632302240222344
 20
52.37980821865624
 30
0.0
 10
7.502659835117726
 20
51.76044052584211
 30
0.0
 10
6.323242244029672
 20
51.240749818266
 30
0.0
 10
5.098925510871794
 20
50.83816234188765
 30
0.0
 10
3.84384320441248
 20
50.54652827952288
 30
0.0
 10
2.570370957170979
 20
50.35318750409812
 30
0.0
 10
1.287575483864174
 20
50.23705350093194
 30
0.0
 10
0.4290868153442773
 20
50.21828882039708
 30
0.0
 10
0.0000025586870436
 20
50.21753017284853
 30
0.0
  0
SPLINE
  5
44
330
1F
100
AcDbEntity
  8
Default
100
AcDbSpline
210
0.0
220
0.0
230
1.0
 70
     8
 71
     3
 72
    33
 73
    29
 74
     0
 42
0.0000000001
 43
0.0000000001
 40
-37.0
 40
-37.0
 40
-37.0
 40
-37.0
 40
-36.0
 40
-35.0
 40
-34.0
 40
-33.0
 40
-32.0
 40
-31.0
 40
-30.0
 40
-29.0
 40
-28.0
 40
-27.0
 40
-26.0
 40
-25.0
 40
-24.0
 40
-23.0
 40
-22.0
 40
-21.0
 40
-20.0
 40
-19.0
 40
-18.0
 40
-17.0
 40
-16.0
 40
-15.0
 40
-14.0
 40
-13.0
 40
-12.0
 40
-11.28000626216988
 40
-11.28000626216988
 40
-11.28000626216988
 40
-11.28000626216988
 10
0.0000025586870436
 20
50.21753017284853
 30
0.0
 10
-0.429081697970247
 20
50.21828882039708
 30
0.0
 10
-1.287570366490144
 20
50.23705350093194
 30
0.0
 10
-2.570365839796949
 20
50.35318750409812
 30
0.0
 10
-3.843838087038392
 20
50.54652827952288
 30
0.0
 10
-5.098920393497707
 20
50.83816234188765
 30
0.0
 10
-6.323237126655641
 20
51.240749818266
 30
0.0
 10
-7.502654717743638
 20
51.76044052584211
 30
0.0
 10
-8.632297122848314
 20
52.37980821865624
 30
0.0
 10
-9.705007246719134
 20
53.09442738616553
 30
0.0
 10
-10.70124853848907
 20
53.91226016361961
 30
0.0
 10
-11.60702833020568
 20
54.82956121980214
 30
0.0
 10
-12.42646422025635
 20
55.82339782141246
 30
0.0
 10
-13.16683946730248
 20
56.87886747189994
 30
0.0
 10
-13.78479142233616
 20
58.00969700000896
 30
0.0
 10
-14.30001616325703
 20
59.19179429310938
 30
0.0
 10
-14.68389704856415
 20
60.42134616668513
 30
0.0
 10
-14.93796789270598
 20
61.68649665739753
 30
0.0
 10
-15.02619270916719
 20
62.97279456229938
 30
0.0
 10
-14.96868000874909
 20
64.26043095595114
 30
0.0
 10
-14.77494406906172
 20
65.53540753193843
 30
0.0
 10
-14.44971115956642
 20
66.78199638900045
 30
0.0
 10
-14.04430005379388
 20
68.00422889468543
 30
0.0
 10
-13.60592608485004
 20
69.2147475970642
 30
0.0
 10
-13.1130096366841
 20
70.40469513148668
 30
0.0
 10
-12.54764459148643
 20
71.56168117321128
 30
0.0
 10
-12.02171070135884
 20
72.60330787817495
 30
0.0
 10
-11.71250814326382
 20
73.27389712833804
 30
0.0
 10
-11.58624826460618
 20
73.55586219995826
 30
0.0
  0
SPLINE
  5
45
330
1F
100
AcDbEntity
  8
Default
100
AcDbSpline
210
0.0
220
0.0
230
1.0
 70
     8
 71
     3
 72
     8
 73
     4
 74
     0
 42
0.0000000001
 43
0.0000000001
 40
0.0
 40
0.0
 40
0.0
 40
0.0
 40
1.0
 40
1.0
 40
1.0
 40
1.0
 10
-11.58624826460618
 20
73.55586219995826
 30
0.0
 10
-11.14141935174334
 20
74.54925945019825
 30
0.0
 10
-10.44581375338666
 20
76.30648985935831
 30
0.0
 10
-10.12033307146865
 20
77.34379671177848
 30
0.0
  0
SPLINE
  5
46
330
1F
100
AcDbEntity
  8
Default
100
AcDbSpline
210
0.0
220
0.0
230
1.0
 70
     8
 71
     3
 72
    11
 73
     7
 74
     0
 42
0.0000000001
 43
0.0000000001
 40
0.0
 40
0.0
 40
0.0
 40
0.0
 40
0.2116104364371248
 40
0.4574810275432065
 40
1.208124430402978
 40
1.473112769144664
 40
1.473112769144664
 40
1.473112769144664
 40
1.473112769144664
 10
-10.12033307146865
 20
77.34379671177848
 30
0.0
 10
-10.09921462388465
 20
77.41110119898264
 30
0.0
 10
-10.0573180228275
 20
77.55775349658177
 30
0.0
 10
-9.962540808257046
 20
77.94926961948468
 30
0.0
 10
-9.88855378977459
 20
78.3634040861869
 30
0.0
 10
-9.815253718990505
 20
78.69393319622702
 30
0.0
 10
-9.794782809109932
 20
78.77986015395271
 30
0.0
  0
SPLINE
  5
47
330
1F
100
AcDbEntity
  8
Default
100
AcDbSpline
210
0.0
220
0.0
230
1.0
 70
     8
 71
     3
 72
    12
 73
     8
 74
     0
 42
0.0000000001
 43
0.0000000001
 40
0.0
 40
0.0
 40
0.0
 40
0.0
 40
0.1706277173231093
 40
0.3858610663748481
 40
0.8671855953568781
 40
1.46275045453188
 40
2.213090456321001
 40
2.213090456321001
 40
2.213090456321001
 40
2.213090456321001
 10
-9.794782809109932
 20
78.77986015395271
 30
0.0
 10
-9.781483071764171
 20
78.83568600514039
 30
0.0
 10
-9.715728447960089
 20
78.99764631543258
 30
0.0
 10
-9.543517967208032
 20
79.2325523596194
 30
0.0
 10
-9.207638525971674
 20
79.5074033432775
 30
0.0
 10
-8.665720680505132
 20
79.78979141845676
 30
0.0
 10
-8.243690200783846
 20
79.9434327024681
 30
0.0
 10
-8.005938453592279
 20
80.02241667073365
 30
0.0
  0
SPLINE
  5
48
330
1F
100
AcDbEntity
  8
Default
100
AcDbSpline
210
0.0
220
0.0
230
1.0
 70
    12
 71
     2
 72
     6
 73
     3
 74
     0
 42
0.0000000001
 43
0.0000000001
 40
0.0
 40
0.0
 40
0.0
 40
2.220184063227395
 40
2.220184063227395
 40
2.220184063227395
 10
-8.005938453592279
 20
80.02241667073365
 30
0.0
 41
1.0
 10
-6.947105737723942
 20
80.35895278763752
 30
0.0
 41
0.9993022861162805
 10
-5.866513810711155
 20
80.61541495068923
 30
0.0
 41
1.0
  0
SPLINE
  5
49
330
1F
100
AcDbEntity
  8
Default
100
AcDbSpline
210
0.0
220
0.0
230
1.0
 70
    12
 71
     2
 72
     6
 73
     3
 74
     0
 42
0.0000000001
 43
0.0000000001
 40
0.0
 40
0.0
 40
0.0
 40
4.62591479786471
 40
4.62591479786471
 40
4.62591479786471
 10
-5.866513810711155
 20
80.61541495068923
 30
0.0
 41
1.0
 10
-3.608895004683593
 20
81.15122665524324
 30
0.0
 41
0.995239949494383
 10
0.0000025586835325
 20
81.34658580922898
 30
0.0
 41
0.9999999999999953
  0
SPLINE
  5
4A
330
1F
100
AcDbEntity
  8
Default
100
AcDbSpline
210
0.0
220
0.0
230
1.0
 70
    12
 71
     2
 72
     6
 73
     3
 74
     0
 42
0.0000000001
 43
0.0000000001
 40
0.0
 40
0.0
 40
0.0
 40
5.083225042932765
 40
5.083225042932765
 40
5.083225042932765
 10
0.0000025586835647
 20
81.34658580922898
 30
0.0
 41
0.999999999999994
 10
3.384268879077898
 20
81.20462511337576
 30
0.0
 41
0.9943654889476428
 10
5.866509089001312
 20
80.61541709368151
 30
0.0
 41
1.0
  0
SPLINE
  5
4B
330
1F
100
AcDbEntity
  8
Default
100
AcDbSpline
210
0.0
220
0.0
230
1.0
 70
    12
 71
     2
 72
     6
 73
     3
 74
     0
 42
0.0000000001
 43
0.0000000001
 40
0.0
 40
0.0
 40
0.0
 40
2.220202217338642
 40
2.220202217338642
 40
2.220202217338642
 10
5.866509089001312
 20
80.61541709368151
 30
0.0
 41
1.0
 10
6.947099655681968
 20
80.35891789374557
 30
0.0
 41
0.999304784792358
 10
8.005958447533231
 20
80.02245185982497
 30
0.0
 41
1.0
  0
SPLINE
  5
4C
330
1F
100
AcDbEntity
  8
Default
100
AcDbSpline
210
0.0
220
0.0
230
1.0
 70
     8
 71
     3
 72
    12
 73
     8
 74
     0
 42
0.0000000001
 43
0.0000000001
 40
0.0
 40
0.0
 40
0.0
 40
0.0
 40
0.4081679590186467
 40
0.7520695590432435
 40
1.34483749521094
 40
1.827148691283257
 40
2.213081781129066
 40
2.213081781129066
 40
2.213081781129066
 40
2.213081781129066
 10
8.005958447533231
 20
80.02245185982497
 30
0.0
 10
8.135161011298038
 20
79.97903108805957
 30
0.0
 10
8.372603109204675
 20
79.89703724193205
 30
0.0
 10
8.786671025331628
 20
79.72638101914578
 30
0.0
 10
9.208259389733058
 20
79.50750570604018
 30
0.0
 10
9.586864647073952
 20
79.1962211998262
 30
0.0
 10
9.764712478632674
 20
78.90571025739642
 30
0.0
 10
9.794773164014174
 20
78.7799211210451
 30
0.0
  0
SPLINE
  5
4D
330
1F
100
AcDbEntity
  8
Default
100
AcDbSpline
210
0.0
220
0.0
230
1.0
 70
     8
 71
     3
 72
    11
 73
     7
 74
     0
 42
0.0000000001
 43
0.0000000001
 40
0.0
 40
0.0
 40
0.0
 40
0.0
 40
0.265100617705136
 40
1.015694409476781
 40
1.261580558064201
 40
1.473175169540751
 40
1.473175169540751
 40
1.473175169540751
 40
1.473175169540751
 10
9.794773164014174
 20
78.7799211210451
 30
0.0
 10
9.815313017180273
 20
78.69397196992801
 30
0.0
 10
9.888581307619603
 20
78.3634139810778
 30
0.0
 10
9.962526610873994
 20
77.94924272948643
 30
0.0
 10
10.05733412295527
 20
77.55775084803355
 30
0.0
 10
10.09921904665597
 20
77.4110959824342
 30
0.0
 10
10.12033816228316
 20
77.34379691803005
 30
0.0
  0
SPLINE
  5
4E
330
1F
100
AcDbEntity
  8
Default
100
AcDbSpline
210
0.0
220
0.0
230
1.0
 70
     8
 71
     3
 72
    10
 73
     6
 74
     0
 42
0.0000000001
 43
0.0000000001
 40
0.0
 40
0.0
 40
0.0
 40
0.0
 40
1.00000002935038
 40
2.00000005870076
 40
3.0
 40
3.0
 40
3.0
 40
3.0
 10
-8.244529398830025
 20
0.594299430140967
 30
0.0
 10
-8.38614791731095
 20
0.6259281741506038
 30
0.0
 10
-8.535584575632413
 20
0.8814936107017785
 30
0.0
 10
-8.568411963579535
 20
1.290157818710709
 30
0.0
 10
-8.528629244749027
 20
1.562156230297923
 30
0.0
 10
-8.496205058117937
 20
1.694485934407024
 30
0.0
  0
SPLINE
  5
4F
330
1F
100
AcDbEntity
  8
Default
100
AcDbSpline
210
0.0
220
0.0
230
1.0
 70
    12
 71
     2
 72
     6
 73
     3
 74
     0
 42
0.0000000001
 43
0.0000000001
 40
0.0
 40
0.0
 40
0.0
 40
9.117615625072572
 40
9.117615625072572
 40
9.117615625072572
 10
-8.496205058117964
 20
1.694485934407024
 30
0.0
 41
0.9999999999999998
 10
-7.343563309656313
 20
6.105171412441547
 30
0.0
 41
0.9999999696346801
 10
-6.188786089859538
 20
10.51529827672655
 30
0.0
 41
0.9999999979189897
  0
SPLINE
  5
50
330
1F
100
AcDbEntity
  8
Default
100
AcDbSpline
210
0.0
220
0.0
230
1.0
 70
    12
 71
     2
 72
     6
 73
     3
 74
     0
 42
0.0000000001
 43
0.0000000001
 40
0.3387995255958137
 40
0.3387995255958137
 40
0.3387995255958137
 40
9.448384306007876
 40
9.448384306007876
 40
9.448384306007876
 10
6.598629136425786
 20
10.67735537102073
 30
0.0
 41
0.9999999998947299
 10
7.75192011930546
 20
6.270990240543595
 30
0.0
 41
0.9999999985321213
 10
8.904742137812605
 20
1.864502393295843
 30
0.0
 41
1.0
  0
SPLINE
  5
51
330
1F
100
AcDbEntity
  8
Default
100
AcDbSpline
210
0.0
220
0.0
230
1.0
 70
     8
 71
     3
 72
    10
 73
     6
 74
     0
 42
0.0000000001
 43
0.0000000001
 40
0.0
 40
0.0
 40
0.0
 40
0.0
 40
0.9999999989318519
 40
1.999999999465926
 40
3.0
 40
3.0
 40
3.0
 40
3.0
 10
8.904742137812605
 20
1.864502393295843
 30
0.0
 10
8.941309041754721
 20
1.724392901539549
 30
0.0
 10
8.995958405830834
 20
1.438944010062621
 30
0.0
 10
8.99421987082394
 20
1.00169792439588
 30
0.0
 10
8.918834587784431
 20
0.7187584439538509
 30
0.0
 10
8.853861244792256
 20
0.5888731306876938
 30
0.0
  0
SPLINE
  5
52
330
1F
100
AcDbEntity
  8
Default
100
AcDbSpline
210
0.0
220
0.0
230
1.0
 70
     8
 71
     3
 72
    10
 73
     6
 74
     0
 42
0.0000000001
 43
0.0000000001
 40
0.0
 40
0.0
 40
0.0
 40
0.0
 40
1.00000002935038
 40
2.00000005870076
 40
3.0
 40
3.0
 40
3.0
 40
3.0
 10
8.244529398829968
 20
0.594299430140967
 30
0.0
 10
8.386147917310893
 20
0.6259281741506038
 30
0.0
 10
8.535584575632356
 20
0.8814936107017785
 30
0.0
 10
8.568411963579535
 20
1.290157818710709
 30
0.0
 10
8.52862924474897
 20
1.562156230297923
 30
0.0
 10
8.496205058117937
 20
1.694485934407024
 30
0.0
  0
SPLINE
  5
53
330
1F
100
AcDbEntity
  8
Default
100
AcDbSpline
210
0.0
220
0.0
230
1.0
 70
    12
 71
     2
 72
     6
 73
     3
 74
     0
 42
0.0000000001
 43
0.0000000001
 40
0.0
 40
0.0
 40
0.0
 40
9.117615625072572
 40
9.117615625072572
 40
9.117615625072572
 10
8.496205058117942
 20
1.694485934407024
 30
0.0
 41
0.9999999999999998
 10
7.343563309656284
 20
6.105171412441547
 30
0.0
 41
0.9999999696346801
 10
6.18878608985947
 20
10.51529827672655
 30
0.0
 41
0.9999999979189897
  0
SPLINE
  5
54
330
1F
100
AcDbEntity
  8
Default
100
AcDbSpline
210
0.0
220
0.0
230
1.0
 70
    12
 71
     2
 72
     6
 73
     3
 74
     0
 42
0.0000000001
 43
0.0000000001
 40
0.3387995255958137
 40
0.3387995255958137
 40
0.3387995255958137
 40
9.448384306007876
 40
9.448384306007876
 40
9.448384306007876
 10
-6.598629136425751
 20
10.67735537102073
 30
0.0
 41
0.9999999998947299
 10
-7.751920119305513
 20
6.270990240543595
 30
0.0
 41
0.9999999985321213
 10
-8.904742137812605
 20
1.864502393295843
 30
0.0
 41
1.0
  0
SPLINE
  5
55
330
1F
100
AcDbEntity
  8
Default
100
AcDbSpline
210
0.0
220
0.0
230
1.0
 70
     8
 71
     3
 72
    10
 73
     6
 74
     0
 42
0.0000000001
 43
0.0000000001
 40
0.0
 40
0.0
 40
0.0
 40
0.0
 40
0.9999999989318519
 40
1.999999999465926
 40
3.0
 40
3.0
 40
3.0
 40
3.0
 10
-8.904742137812605
 20
1.864502393295843
 30
0.0
 10
-8.941309041754778
 20
1.724392901539549
 30
0.0
 10
-8.995958405830834
 20
1.438944010062621
 30
0.0
 10
-8.99421987082394
 20
1.00169792439588
 30
0.0
 10
-8.918834587784431
 20
0.7187584439538509
 30
0.0
 10
-8.853861244792256
 20
0.5888731306876938
 30
0.0
  0
SPLINE
  5
56
330
1F
100
AcDbEntity
  8
Default - Tangent
100
AcDbSpline
210
0.0
220
0.0
230
1.0
 70
    12
 71
     2
 72
     6
 73
     3
 74
     0
 42
0.0000000001
 43
0.0000000001
 40
0.0
 40
0.0
 40
0.0
 40
0.2475642236874568
 40
0.2475642236874568
 40
0.2475642236874568
 10
8.927153913934148
 20
0.1529962105609592
 30
0.0
 41
1.0
 10
8.889767344440216
 20
0.017802616897597
 30
0.0
 41
0.8326791077797836
 10
8.750633846756386
 20
0.0000000000000069
 30
0.0
 41
1.0
  0
POLYLINE
  5
57
330
1F
100
AcDbEntity
  8
Default - Tangent
100
AcDb2dPolyline
 66
     1
 10
0.0
 20
0.0
 30
0.0
  0
VERTEX
  5
58
330
57
100
AcDbEntity
  8
Default - Tangent
100
AcDbVertex
100
AcDb2dVertex
 10
8.750633846756386
 20
0.0000000000000069
 30
0.0
  0
VERTEX
  5
59
330
57
100
AcDbEntity
  8
Default - Tangent
100
AcDbVertex
100
AcDb2dVertex
 10
7.578260739937264
 20
0.0000000000000061
 30
0.0
  0
SEQEND
  5
5A
330
57
100
AcDbEntity
  8
Default - Tangent
  0
SPLINE
  5
5B
330
1F
100
AcDbEntity
  8
Default - Tangent
100
AcDbSpline
210
0.0
220
0.0
230
1.0
 70
     8
 71
     3
 72
     8
 73
     4
 74
     0
 42
0.0000000001
 43
0.0000000001
 40
-1.0
 40
-1.0
 40
-1.0
 40
-1.0
 40
0.0
 40
0.0
 40
0.0
 40
0.0
 10
7.578260739937264
 20
0.0000000000000061
 30
0.0
 10
7.467093555745407
 20
0.000000000000006
 30
0.0
 10
7.400817330532789
 20
0.0876852517350812
 30
0.0
 10
7.391300915043189
 20
0.1753086976115538
 30
0.0
  0
SPLINE
  5
5C
330
1F
100
AcDbEntity
  8
Default - Tangent
100
AcDbSpline
210
0.0
220
0.0
230
1.0
 70
    12
 71
     2
 72
     6
 73
     3
 74
     0
 42
0.0000000001
 43
0.0000000001
 40
0.0
 40
0.0
 40
0.0
 40
0.1701793295661373
 40
0.1701793295661373
 40
0.1701793295661373
 10
7.391300915043189
 20
0.1753086976115538
 30
0.0
 41
1.0
 10
7.382111112850906
 20
0.2599248155066877
 30
0.0
 41
0.9995766822534313
 10
7.37785841339263
 20
0.3449321941234456
 30
0.0
 41
1.0
  0
SPLINE
  5
5D
330
1F
100
AcDbEntity
  8
Default - Tangent
100
AcDbSpline
210
0.0
220
0.0
230
1.0
 70
     8
 71
     3
 72
     8
 73
     4
 74
     0
 42
0.0000000001
 43
0.0000000001
 40
0.0
 40
0.0
 40
0.0
 40
0.0
 40
1.0
 40
1.0
 40
1.0
 40
1.0
 10
7.37785841339263
 20
0.3449321941234456
 30
0.0
 10
7.371897859150295
 20
0.4640779499452108
 30
0.0
 10
7.413605810189893
 20
0.5400000000000063
 30
0.0
 10
7.525303421879187
 20
0.5400000000000065
 30
0.0
  0
SPLINE
  5
5E
330
1F
100
AcDbEntity
  8
Default - Tangent
100
AcDbSpline
210
0.0
220
0.0
230
1.0
 70
    24
 71
     2
 72
     6
 73
     3
 74
     0
 42
0.0000000001
 43
0.0000000001
 40
0.0
 40
0.0
 40
0.0
 40
0.9334968628012206
 40
0.9334968628012206
 40
0.9334968628012206
 10
7.525303421879187
 20
0.5400000000000065
 30
0.0
 10
7.992051853279804
 20
0.5400000000000073
 30
0.0
 10
8.458800284680422
 20
0.540000000000008
 30
0.0
  0
SPLINE
  5
5F
330
1F
100
AcDbEntity
  8
Default - Tangent
100
AcDbSpline
210
0.0
220
0.0
230
1.0
 70
     8
 71
     3
 72
     8
 73
     4
 74
     0
 42
0.0000000001
 43
0.0000000001
 40
0.0
 40
0.0
 40
0.0
 40
0.0
 40
1.0
 40
1.0
 40
1.0
 40
1.0
 10
8.458800284680422
 20
0.540000000000008
 30
0.0
 10
8.512584335501174
 20
0.5400000000000081
 30
0.0
 10
8.555100555694821
 20
0.5312409634984734
 30
0.0
 10
8.560706679098644
 20
0.4855682454472924
 30
0.0
  0
SPLINE
  5
60
330
1F
100
AcDbEntity
  8
Default - Tangent
100
AcDbSpline
210
0.0
220
0.0
230
1.0
 70
    12
 71
     2
 72
     6
 73
     3
 74
     0
 42
0.0000000001
 43
0.0000000001
 40
-0.1353640360023174
 40
-0.1353640360023174
 40
-0.1353640360023174
 40
0.0
 40
0.0
 40
0.0
 10
8.560706679098644
 20
0.4855682454472924
 30
0.0
 41
1.0
 10
8.56895664261971
 20
0.4183563361316898
 30
0.0
 41
0.9992399073397645
 10
8.57199303162679
 20
0.3499999998191763
 30
0.0
 41
1.0
  0
ARC
  5
61
330
1F
100
AcDbEntity
  8
Default - Tangent
100
AcDbCircle
 10
8.819106552710082
 20
0.3631661525031643
 30
0.0
 40
0.2474640173413086
100
AcDbArc
 50
183.049822516051
 51
224.9512953629944
  0
ARC
  5
62
330
1F
100
AcDbEntity
  8
Default - Tangent
100
AcDbCircle
 10
8.796026670841457
 20
0.3401254757143067
 30
0.0
 40
0.2148518457797491
100
AcDbArc
 50
224.951295362994
 51
241.572960103333
  0
POLYLINE
  5
63
330
1F
100
AcDbEntity
  8
Default
100
AcDb2dPolyline
 66
     1
 10
0.0
 20
0.0
 30
0.0
  0
VERTEX
  5
64
330
63
100
AcDbEntity
  8
Default
100
AcDbVertex
100
AcDb2dVertex
 10
-8.693748750025804
 20
0.1511796037070169
 30
0.0
  0
VERTEX
  5
65
330
63
100
AcDbEntity
  8
Default
100
AcDbVertex
100
AcDb2dVertex
 10
-8.927153873857435
 20
0.1511796037070169
 30
0.0
  0
SEQEND
  5
66
330
63
100
AcDbEntity
  8
Default
  0
SPLINE
  5
67
330
1F
100
AcDbEntity
  8
Default
100
AcDbSpline
210
0.0
220
0.0
230
1.0
 70
     8
 71
     3
 72
     8
 73
     4
 74
     0
 42
0.0000000001
 43
0.0000000001
 40
-1.0
 40
-1.0
 40
-1.0
 40
-1.0
 40
0.0
 40
0.0
 40
0.0
 40
0.0
 10
-8.927153873857435
 20
0.1511796037070169
 30
0.0
 10
-9.402472603940112
 20
0.1511748537013773
 30
0.0
 10
-9.840232132165738
 20
0.8188297088605779
 30
0.0
 10
-9.671760437652381
 20
1.709055947393175
 30
0.0
  0
ARC
  5
68
330
1F
100
AcDbEntity
  8
Default
100
AcDbCircle
 10
8948.337661336729
 20
-1693.557789074648
 30
0.0
 40
9117.009513893776
100
AcDbArc
 50
169.2210739419721
 51
169.2837382116858
  0
LINE
  5
69
330
1F
100
AcDbEntity
  8
Default
100
AcDbLine
 10
-7.812293465185348
 20
11.50539554087482
 30
0.0
 11
-7.800292464570703
 21
11.56843294739578
 31
0.0
  0
SPLINE
  5
6A
330
1F
100
AcDbEntity
  8
Default
100
AcDbSpline
210
0.0
220
0.0
230
1.0
 70
     8
 71
     3
 72
     8
 73
     4
 74
     0
 42
0.0000000001
 43
0.0000000001
 40
0.0
 40
0.0
 40
0.0
 40
0.0
 40
1.0
 40
1.0
 40
1.0
 40
1.0
 10
-7.800292464570703
 20
11.56843294739578
 30
0.0
 10
-7.67025391073679
 20
12.25148375662705
 30
0.0
 10
-7.214870216362556
 20
12.53763810826845
 30
0.0
 10
-6.795220313729089
 20
12.24586552543102
 30
0.0
  0
SPLINE
  5
6B
330
1F
100
AcDbEntity
  8
Default
100
AcDbSpline
210
0.0
220
0.0
230
1.0
 70
     8
 71
     3
 72
     8
 73
     4
 74
     0
 42
0.0000000001
 43
0.0000000001
 40
-6.352908225503882
 40
-6.352908225503882
 40
-6.352908225503882
 40
-6.352908225503882
 40
0.0
 40
0.0
 40
0.0
 40
0.0
 10
-6.795220313729089
 20
12.24586552543102
 30
0.0
 10
-5.669720241323887
 20
11.46333213021607
 30
0.0
 10
-4.511167662422736
 20
10.8304428616653
 30
0.0
 10
-3.333148710672674
 20
10.35388867296036
 30
0.0
  0
SPLINE
  5
6C
330
1F
100
AcDbEntity
  8
Default
100
AcDbSpline
210
0.0
220
0.0
230
1.0
 70
     8
 71
     3
 72
     9
 73
     5
 74
     0
 42
0.0000000001
 43
0.0000000001
 40
-2.0
 40
-2.0
 40
-2.0
 40
-2.0
 40
-1.000247652302237
 40
0.0
 40
0.0
 40
0.0
 40
0.0
 10
-3.333148710672674
 20
10.35388867296036
 30
0.0
 10
-3.159786692316743
 20
10.28536995852981
 30
0.0
 10
-2.798285952706578
 20
10.18945806779063
 30
0.0
 10
-2.426459524802283
 20
10.15091193261329
 30
0.0
 10
-2.2400000025998
 20
10.15074999838901
 30
0.0
  0
POLYLINE
  5
6D
330
1F
100
AcDbEntity
  8
Default
100
AcDb2dPolyline
 66
     1
 10
0.0
 20
0.0
 30
0.0
  0
VERTEX
  5
6E
330
6D
100
AcDbEntity
  8
Default
100
AcDbVertex
100
AcDb2dVertex
 10
-2.2400000025998
 20
10.15074999838901
 30
0.0
  0
VERTEX
  5
6F
330
6D
100
AcDbEntity
  8
Default
100
AcDbVertex
100
AcDb2dVertex
 10
2.2400000025998
 20
10.15074999838901
 30
0.0
  0
SEQEND
  5
70
330
6D
100
AcDbEntity
  8
Default
  0
SPLINE
  5
71
330
1F
100
AcDbEntity
  8
Default
100
AcDbSpline
210
0.0
220
0.0
230
1.0
 70
     8
 71
     3
 72
     9
 73
     5
 74
     0
 42
0.0000000001
 43
0.0000000001
 40
0.0
 40
0.0
 40
0.0
 40
0.0
 40
1.000247652302237
 40
2.0
 40
2.0
 40
2.0
 40
2.0
 10
2.2400000025998
 20
10.15074999838901
 30
0.0
 10
2.426459524802226
 20
10.15091193261329
 30
0.0
 10
2.798285952706522
 20
10.18945806779063
 30
0.0
 10
3.159786692316686
 20
10.28536995852981
 30
0.0
 10
3.333148710672617
 20
10.35388867296036
 30
0.0
  0
SPLINE
  5
72
330
1F
100
AcDbEntity
  8
Default
100
AcDbSpline
210
0.0
220
0.0
230
1.0
 70
     8
 71
     3
 72
     8
 73
     4
 74
     0
 42
0.0000000001
 43
0.0000000001
 40
0.0
 40
0.0
 40
0.0
 40
0.0
 40
6.352908225503882
 40
6.352908225503882
 40
6.352908225503882
 40
6.352908225503882
 10
3.333148710672617
 20
10.35388867296036
 30
0.0
 10
4.511167662422736
 20
10.8304428616653
 30
0.0
 10
5.669720241323887
 20
11.46333213021607
 30
0.0
 10
6.795220313729089
 20
12.24586552543102
 30
0.0
  0
SPLINE
  5
73
330
1F
100
AcDbEntity
  8
Default
100
AcDbSpline
210
0.0
220
0.0
230
1.0
 70
     8
 71
     3
 72
     8
 73
     4
 74
     0
 42
0.0000000001
 43
0.0000000001
 40
-1.0
 40
-1.0
 40
-1.0
 40
-1.0
 40
0.0
 40
0.0
 40
0.0
 40
0.0
 10
6.795220313729089
 20
12.24586552543102
 30
0.0
 10
7.214870216362556
 20
12.53763810826845
 30
0.0
 10
7.670253910736733
 20
12.25148375662705
 30
0.0
 10
7.800292464570646
 20
11.56843294739578
 30
0.0
  0
LINE
  5
74
330
1F
100
AcDbEntity
  8
Default
100
AcDbLine
 10
7.800292464570646
 20
11.56843294739578
 30
0.0
 11
7.812293465185348
 21
11.50539554087482
 31
0.0
  0
ARC
  5
75
330
1F
100
AcDbEntity
  8
Default
100
AcDbCircle
 10
-8948.337661336736
 20
-1693.557789074648
 30
0.0
 40
9117.009513893776
100
AcDbArc
 50
10.71626178827586
 51
10.7789260579895
  0
SPLINE
  5
76
330
1F
100
AcDbEntity
  8
Default
100
AcDbSpline
210
0.0
220
0.0
230
1.0
 70
     8
 71
     3
 72
     8
 73
     4
 74
     0
 42
0.0000000001
 43
0.0000000001
 40
0.0
 40
0.0
 40
0.0
 40
0.0
 40
1.0
 40
1.0
 40
1.0
 40
1.0
 10
9.671760437652324
 20
1.709055947393175
 30
0.0
 10
9.840232132165681
 20
0.8188297088605779
 30
0.0
 10
9.402472603940055
 20
0.1511748537013773
 30
0.0
 10
8.927153873857378
 20
0.1511796037070169
 30
0.0
  0
POLYLINE
  5
77
330
1F
100
AcDbEntity
  8
Default
100
AcDb2dPolyline
 66
     1
 10
0.0
 20
0.0
 30
0.0
  0
VERTEX
  5
78
330
77
100
AcDbEntity
  8
Default
100
AcDbVertex
100
AcDb2dVertex
 10
8.927153873857378
 20
0.1511796037070169
 30
0.0
  0
VERTEX
  5
79
330
77
100
AcDbEntity
  8
Default
100
AcDbVertex
100
AcDb2dVertex
 10
8.693748750025804
 20
0.1511796037070169
 30
0.0
  0
SEQEND
  5
7A
330
77
100
AcDbEntity
  8
Default
  0
LINE
  5
7B
330
1F
100
AcDbEntity
  8
Default
100
AcDbLine
 10
36.07439319220214
 20
0.1511976621986832
 30
0.0
 11
43.05824399598976
 21
0.1512500000968566
 31
0.0
  0
ARC
  5
7C
330
1F
100
AcDbEntity
  8
Default
100
AcDbCircle
 10
43.05824399598976
 20
0.3700000000478317
 30
0.0
 40
0.2187499999509751
100
AcDbArc
 50
269.9999999999981
 51
90.45123877002257
  0
POLYLINE
  5
7D
330
1F
100
AcDbEntity
  8
Default
100
AcDb2dPolyline
 66
     1
 10
0.0
 20
0.0
 30
0.0
  0
VERTEX
  5
7E
330
7D
100
AcDbEntity
  8
Default
100
AcDbVertex
100
AcDb2dVertex
 10
43.05652122580739
 20
0.5887432160373801
 30
0.0
  0
VERTEX
  5
7F
330
7D
100
AcDbEntity
  8
Default
100
AcDbVertex
100
AcDb2dVertex
 10
34.22251871777831
 20
0.5882906944269995
 30
0.0
  0
SEQEND
  5
80
330
7D
100
AcDbEntity
  8
Default
  0
SPLINE
  5
81
330
1F
100
AcDbEntity
  8
Default
100
AcDbSpline
210
0.0
220
0.0
230
1.0
 70
     8
 71
     3
 72
     8
 73
     4
 74
     0
 42
0.0000000001
 43
0.0000000001
 40
-1.0
 40
-1.0
 40
-1.0
 40
-1.0
 40
0.0
 40
0.0
 40
0.0
 40
0.0
 10
34.22251871777831
 20
0.5882906944269995
 30
0.0
 10
33.49253434444108
 20
0.5882533009913655
 30
0.0
 10
33.46008623310843
 20
1.171399746480533
 30
0.0
 10
33.75321937850322
 20
1.898585574558886
 30
0.0
  0
POLYLINE
  5
82
330
1F
100
AcDbEntity
  8
Default
100
AcDb2dPolyline
 66
     1
 10
0.0
 20
0.0
 30
0.0
  0
VERTEX
  5
83
330
82
100
AcDbEntity
  8
Default
100
AcDbVertex
100
AcDb2dVertex
 10
33.75321937850322
 20
1.898585574558886
 30
0.0
  0
VERTEX
  5
84
330
82
100
AcDbEntity
  8
Default
100
AcDbVertex
100
AcDb2dVertex
 10
37.52634429032207
 20
11.25871085056323
 30
0.0
  0
SEQEND
  5
85
330
82
100
AcDbEntity
  8
Default
  0
SPLINE
  5
86
330
1F
100
AcDbEntity
  8
Default
100
AcDbSpline
210
0.0
220
0.0
230
1.0
 70
     8
 71
     3
 72
     8
 73
     4
 74
     0
 42
0.0000000001
 43
0.0000000001
 40
0.0
 40
0.0
 40
0.0
 40
0.0
 40
1.0
 40
1.0
 40
1.0
 40
1.0
 10
37.52634429032207
 20
11.25871085056323
 30
0.0
 10
37.63360754812504
 20
11.52480263231246
 30
0.0
 10
37.89221419861752
 20
11.59703549689422
 30
0.0
 10
38.08482060462654
 20
11.45797602757458
 30
0.0
  0
SPLINE
  5
87
330
1F
100
AcDbEntity
  8
Default
100
AcDbSpline
210
0.0
220
0.0
230
1.0
 70
     8
 71
     3
 72
    16
 73
    12
 74
     0
 42
0.0000000001
 43
0.0000000001
 40
21.39020699258313
 40
21.39020699258313
 40
21.39020699258313
 40
21.39020699258313
 40
21.98962994366451
 40
22.53776525680815
 40
23.04328092050556
 40
23.31141580182457
 40
23.70694091831498
 40
23.92135653807644
 40
24.16975828264415
 40
24.27310163592854
 40
24.35935845482197
 40
24.35935845482197
 40
24.35935845482197
 40
24.35935845482197
 10
38.08482060462654
 20
11.45797602757458
 30
0.0
 10
38.24683237172661
 20
11.34100551333623
 30
0.0
 10
38.54397742203605
 20
11.0994857503336
 30
0.0
 10
39.01728974562837
 20
10.81392712632007
 30
0.0
 10
39.39645423024916
 20
10.59145440259508
 30
0.0
 10
39.74668924946252
 20
10.41869468606136
 30
0.0
 10
40.01455004060017
 20
10.30125505391005
 30
0.0
 10
40.26678266302127
 20
10.16565309523044
 30
0.0
 10
40.41789888252487
 20
10.05025764202013
 30
0.0
 10
40.51874179533314
 20
9.9456017007131
 30
0.0
 10
40.555490385746
 20
9.891902216637204
 30
0.0
 10
40.56617282102786
 20
9.867201210219106
 30
0.0
  0
ARC
  5
88
330
1F
100
AcDbEntity
  8
Default
100
AcDbCircle
 10
40.76734242483451
 20
9.954200955775006
 30
0.0
 40
0.2191761055008369
100
AcDbArc
 50
203.3870168837235
 51
23.3870168837227
  0
SPLINE
  5
89
330
1F
100
AcDbEntity
  8
Default
100
AcDbSpline
210
0.0
220
0.0
230
1.0
 70
     8
 71
     3
 72
    28
 73
    24
 74
     0
 42
0.0000000001
 43
0.0000000001
 40
-4.690488588204551
 40
-4.690488588204551
 40
-4.690488588204551
 40
-4.690488588204551
 40
-4.5345877985773
 40
-4.354314075194374
 40
-3.931022841021979
 40
-3.709181392052761
 40
-3.55824425169844
 40
-3.290709695089834
 40
-3.108114146928662
 40
-2.784957537369123
 40
-2.551373716641246
 40
-2.195245765802403
 40
-2.005521030699025
 40
-1.783926830519386
 40
-1.676810703641201
 40
-1.553465743330039
 40
-1.384097820455926
 40
-1.316153290621159
 40
-1.088913352989394
 40
-0.8162809425247717
 40
-0.5450981294575681
 40
-0.2732980734260584
 40
0.0
 40
0.0
 40
0.0
 40
0.0
 10
40.96851202864116
 20
10.0412007013309
 30
0.0
 10
40.94788427970758
 20
10.08889826704074
 30
0.0
 10
40.89059656555082
 20
10.18599177630195
 30
0.0
 10
40.72121975183518
 20
10.3753111761998
 30
0.0
 10
40.49877393700297
 20
10.54061668101478
 30
0.0
 10
40.26371726752154
 20
10.66395996033237
 30
0.0
 10
40.07087812303712
 20
10.75550099640164
 30
0.0
 10
39.88821534929946
 20
10.83782223170677
 30
0.0
 10
39.65703095075276
 20
10.95198732534312
 30
0.0
 10
39.44207781465383
 20
11.07268461412662
 30
0.0
 10
39.1804043896534
 20
11.22792912666291
 30
0.0
 10
38.95796480957597
 20
11.36231869152791
 30
0.0
 10
38.74712313295771
 20
11.50739525664465
 30
0.0
 10
38.61010318399701
 20
11.61271416556363
 30
0.0
 10
38.48958614881315
 20
11.70323736404751
 30
0.0
 10
38.38378167378971
 20
11.78407549831264
 30
0.0
 10
38.28556963013773
 20
11.85396361480145
 30
0.0
 10
38.14647045376762
 20
11.92274304368515
 30
0.0
 10
37.96255069521408
 20
11.9746248930572
 30
0.0
 10
37.70158533136265
 20
11.96163750473916
 30
0.0
 10
37.44781792000646
 20
11.8532556801562
 30
0.0
 10
37.24473065210793
 20
11.66658329002822
 30
0.0
 10
37.15384099811001
 20
11.50709170967761
 30
0.0
 10
37.11978141268833
 20
11.42259888374513
 30
0.0
  0
SPLINE
  5
8A
330
1F
100
AcDbEntity
  8
Default
100
AcDbSpline
210
0.0
220
0.0
230
1.0
 70
    24
 71
     2
 72
     6
 73
     3
 74
     0
 42
0.0000000001
 43
0.0000000001
 40
-10.09199766065585
 40
-10.09199766065585
 40
-10.09199766065585
 40
0.0
 40
0.0
 40
0.0
 10
37.11978141268833
 20
11.42259888374513
 30
0.0
 10
35.2332189567789
 20
6.742536245742961
 30
0.0
 10
33.34665650086947
 20
2.062473607740792
 30
0.0
  0
SPLINE
  5
8B
330
1F
100
AcDbEntity
  8
Default
100
AcDbSpline
210
0.0
220
0.0
230
1.0
 70
     8
 71
     3
 72
    14
 73
    10
 74
     0
 42
0.0000000001
 43
0.0000000001
 40
0.0
 40
0.0
 40
0.0
 40
0.0
 40
0.6282299185720308
 40
0.9867876206995004
 40
1.327280175912062
 40
1.541879378287683
 40
1.91784505963265
 40
2.219137669204828
 40
2.601539789090733
 40
2.601539789090733
 40
2.601539789090733
 40
2.601539789090733
 10
33.34665650086947
 20
2.062473607740792
 30
0.0
 10
33.26836377707588
 20
1.868250060936874
 30
0.0
 10
33.16648094702737
 20
1.553530625272719
 30
0.0
 10
33.12784287992309
 20
1.109989504342206
 30
0.0
 10
33.18166383188367
 20
0.8067976495174018
 30
0.0
 10
33.31989554776413
 20
0.5260960812448349
 30
0.0
 10
33.53708308436211
 20
0.3134143436940719
 30
0.0
 10
33.86643266076834
 20
0.1738989000749842
 30
0.0
 10
34.09507379923389
 20
0.1499319544866792
 30
0.0
 10
34.22254117236196
 20
0.1499384840004421
 30
0.0
  0
POLYLINE
  5
8C
330
1F
100
AcDbEntity
  8
Default
100
AcDb2dPolyline
 66
     1
 10
0.0
 20
0.0
 30
0.0
  0
VERTEX
  5
8D
330
8C
100
AcDbEntity
  8
Default
100
AcDbVertex
100
AcDb2dVertex
 10
34.22254117236196
 20
0.1499384840004421
 30
0.0
  0
VERTEX
  5
8E
330
8C
100
AcDbEntity
  8
Default
100
AcDbVertex
100
AcDb2dVertex
 10
34.36513357234264
 20
0.1499384840004421
 30
0.0
  0
SEQEND
  5
8F
330
8C
100
AcDbEntity
  8
Default
  0
POLYLINE
  5
90
330
1F
100
AcDbEntity
  8
Default
100
AcDb2dPolyline
 66
     1
 10
0.0
 20
0.0
 30
0.0
  0
VERTEX
  5
91
330
90
100
AcDbEntity
  8
Default
100
AcDbVertex
100
AcDb2dVertex
 10
53.53087790886536
 20
0.151235554316292
 30
0.0
  0
VERTEX
  5
92
330
90
100
AcDbEntity
  8
Default
100
AcDbVertex
100
AcDb2dVertex
 10
53.80680861472138
 20
0.151235554316292
 30
0.0
  0
SEQEND
  5
93
330
90
100
AcDbEntity
  8
Default
  0
SPLINE
  5
94
330
1F
100
AcDbEntity
  8
Default
100
AcDbSpline
210
0.0
220
0.0
230
1.0
 70
     8
 71
     3
 72
     8
 73
     4
 74
     0
 42
0.0000000001
 43
0.0000000001
 40
-1.0
 40
-1.0
 40
-1.0
 40
-1.0
 40
0.0
 40
0.0
 40
0.0
 40
0.0
 10
53.80680861472138
 20
0.151235554316292
 30
0.0
 10
54.47320959162482
 20
0.151235554316292
 30
0.0
 10
54.97971527979917
 20
0.9424741786463033
 30
0.0
 10
54.76589289043142
 20
1.743371412511064
 30
0.0
  0
SPLINE
  5
95
330
1F
100
AcDbEntity
  8
Default
100
AcDbSpline
210
0.0
220
0.0
230
1.0
 70
     8
 71
     3
 72
     9
 73
     5
 74
     0
 42
0.0000000001
 43
0.0000000001
 40
-10.30881102633332
 40
-10.30881102633332
 40
-10.30881102633332
 40
-10.30881102633332
 40
-0.5747967592041898
 40
0.0
 40
0.0
 40
0.0
 40
0.0
 10
54.76589289043142
 20
1.743371412511064
 30
0.0
 10
53.92894834992063
 20
4.878246901347057
 30
0.0
 10
53.02659458956907
 20
8.19391996163411
 30
0.0
 10
52.1383435671143
 20
11.51343122143903
 30
0.0
 10
52.08207609253782
 20
11.69661715880756
 30
0.0
  0
SPLINE
  5
96
330
1F
100
AcDbEntity
  8
Default
100
AcDbSpline
210
0.0
220
0.0
230
1.0
 70
     8
 71
     3
 72
    11
 73
     7
 74
     0
 42
0.0000000001
 43
0.0000000001
 40
-1.579931172434228
 40
-1.579931172434228
 40
-1.579931172434228
 40
-1.579931172434228
 40
-1.218453692140129
 40
-0.83416166837227
 40
-0.4228009884516073
 40
0.0
 40
0.0
 40
0.0
 40
0.0
 10
52.08207609253782
 20
11.69661715880756
 30
0.0
 10
52.04669692167238
 20
11.8117985602671
 30
0.0
 10
51.93257348969576
 20
12.03722113003639
 30
0.0
 10
51.62925359207941
 20
12.29122731902624
 30
0.0
 10
51.21890265952788
 20
12.37888542312031
 30
0.0
 10
50.94470187916022
 20
12.30245967163923
 30
0.0
 10
50.81808738747634
 20
12.24056405135233
 30
0.0
  0
SPLINE
  5
97
330
1F
100
AcDbEntity
  8
Default
100
AcDbSpline
210
0.0
220
0.0
230
1.0
 70
     8
 71
     3
 72
    11
 73
     7
 74
     0
 42
0.0000000001
 43
0.0000000001
 40
0.0
 40
0.0
 40
0.0
 40
0.0
 40
1.866730390514334
 40
3.359374854141925
 40
4.290701212822334
 40
5.995814462492632
 40
5.995814462492632
 40
5.995814462492632
 40
5.995814462492632
 10
50.81808738747634
 20
12.24056405135233
 30
0.0
 10
50.25906523293634
 20
11.96728551467616
 30
0.0
 10
49.23685170158643
 20
11.50907121707827
 30
0.0
 10
47.90396742752876
 20
10.98901328811896
 30
0.0
 10
46.5977774343425
 20
10.55429333847389
 30
0.0
 10
45.75220109324255
 20
10.31401840781828
 30
0.0
 10
45.21050732657022
 20
10.1419325240464
 30
0.0
  0
ARC
  5
98
330
1F
100
AcDbEntity
  8
Default
100
AcDbCircle
 10
45.27686732568884
 20
9.933043814716552
 30
0.0
 40
0.2191760533646885
100
AcDbArc
 50
107.6240699042417
 51
287.6240701584551
  0
SPLINE
  5
99
330
1F
100
AcDbEntity
  8
Default
100
AcDbSpline
210
0.0
220
0.0
230
1.0
 70
     8
 71
     3
 72
    10
 73
     6
 74
     0
 42
0.0000000001
 43
0.0000000001
 40
-3.0
 40
-3.0
 40
-3.0
 40
-3.0
 40
-2.000000000000189
 40
-1.000000000000094
 40
0.0
 40
0.0
 40
0.0
 40
0.0
 10
45.34322732573435
 20
9.72415510568113
 30
0.0
 10
45.98492321532802
 20
9.928009666693514
 30
0.0
 10
47.28273831309252
 20
10.29082090156779
 30
0.0
 10
49.17549245722239
 20
11.00177017439094
 30
0.0
 10
50.40559235065405
 20
11.5509888083553
 30
0.0
 10
51.01060407555303
 20
11.84674939227773
 30
0.0
  0
SPLINE
  5
9A
330
1F
100
AcDbEntity
  8
Default
100
AcDbSpline
210
0.0
220
0.0
230
1.0
 70
     8
 71
     3
 72
     8
 73
     4
 74
     0
 42
0.0000000001
 43
0.0000000001
 40
0.0
 40
0.0
 40
0.0
 40
0.0
 40
1.0
 40
1.0
 40
1.0
 40
1.0
 10
51.01060407555303
 20
11.84674939227773
 30
0.0
 10
51.33193177857834
 20
12.00383075973896
 30
0.0
 10
51.58165672697248
 20
11.83287962117291
 30
0.0
 10
51.66304565704587
 20
11.56790758254586
 30
0.0
  0
SPLINE
  5
9B
330
1F
100
AcDbEntity
  8
Default
100
AcDbSpline
210
0.0
220
0.0
230
1.0
 70
     8
 71
     3
 72
    11
 73
     7
 74
     0
 42
0.0000000001
 43
0.0000000001
 40
0.0
 40
0.0
 40
0.0
 40
0.0
 40
0.5747967592041898
 40
0.5747967592041898
 40
0.5747967592041898
 40
10.30881102633332
 40
10.30881102633332
 40
10.30881102633332
 40
10.30881102633332
 10
51.66304565704587
 20
11.56790758254586
 30
0.0
 10
51.71617783064914
 20
11.39492901723427
 30
0.0
 10
51.76442519045111
 20
11.21499909850343
 30
0.0
 10
51.8140139000223
 20
11.0298553973788
 30
0.0
 10
52.653708220304
 20
7.89478461988387
 30
0.0
 10
53.50570248858588
 20
4.764156071540648
 30
0.0
 10
54.34237457226288
 20
1.630301102235657
 30
0.0
  0
SPLINE
  5
9C
330
1F
100
AcDbEntity
  8
Default
100
AcDbSpline
210
0.0
220
0.0
230
1.0
 70
     8
 71
     3
 72
    14
 73
    10
 74
     0
 42
0.0000000001
 43
0.0000000001
 40
0.0
 40
0.0
 40
0.0
 40
0.0
 40
0.4454312728580785
 40
0.6807967204497608
 40
0.8659818928362262
 40
0.9885775063987309
 40
1.121397320551404
 40
1.198330988817915
 40
1.326593334391568
 40
1.326593334391568
 40
1.326593334391568
 40
1.326593334391568
 10
54.34237457226288
 20
1.630301102235657
 30
0.0
 10
54.38067334279827
 20
1.48684849433585
 30
0.0
 10
54.39153457525481
 20
1.254605196788452
 30
0.0
 10
54.30474014990085
 20
0.9768190700443916
 30
0.0
 10
54.21155461975775
 20
0.8202929777249575
 30
0.0
 10
54.11197498099057
 20
0.7115500966351141
 30
0.0
 10
54.02157684050837
 20
0.6461601051254957
 30
0.0
 10
53.91791554228598
 20
0.6008321885475794
 30
0.0
 10
53.84956272991258
 20
0.5895877653179672
 30
0.0
 10
53.80680861472138
 20
0.5895877653179672
 30
0.0
  0
SPLINE
  5
9D
330
1F
100
AcDbEntity
  8
Default
100
AcDbSpline
210
0.0
220
0.0
230
1.0
 70
    12
 71
     2
 72
    18
 73
    15
 74
     0
 42
0.0000000001
 43
0.0000000001
 40
-9.91533634008129
 40
-9.91533634008129
 40
-9.91533634008129
 40
0.0
 40
0.0
 40
0.4125221906589727
 40
0.4125221906589727
 40
0.5882902329714816
 40
0.5882902329714816
 40
0.7640582752839906
 40
0.7640582752839906
 40
0.9398263175964995
 40
0.9398263175964995
 40
1.115594359909009
 40
1.115594359909009
 40
9.416285221359296
 40
9.416285221359296
 40
9.416285221359296
 10
53.80680861472138
 20
0.5895877653179672
 30
0.0
 41
1.0
 10
48.86464061380885
 20
0.5877063501650069
 30
0.0
 41
0.9999999152992597
 10
43.90697227366189
 20
0.5887499457057856
 30
0.0
 41
1.0
 10
43.70071118872204
 20
0.5887499728527389
 30
0.0
 41
1.0
 10
43.49445010378224
 20
0.5887499999996921
 30
0.0
 41
1.0
 10
43.4015110839733
 20
0.5887500077579292
 30
0.0
 41
0.920375941313133
 10
43.33699432140372
 20
0.521852707733309
 30
0.0
 41
1.0
 10
43.27247755883413
 20
0.4549554077086889
 30
0.0
 41
0.920375941313133
 10
43.2758436027126
 20
0.3620773632005678
 30
0.0
 41
1.0
 10
43.27920964659096
 20
0.2691993186924467
 30
0.0
 41
0.920375941313133
 10
43.34839971506267
 20
0.207147760872163
 30
0.0
 41
1.0
 10
43.41758978353435
 20
0.1450962030518793
 30
0.0
 41
0.920375941313133
 10
43.51028498158769
 20
0.1518238817679753
 30
0.0
 41
1.0
 10
47.66063039505212
 20
0.1515297180421336
 30
0.0
 41
1.0
 10
51.81097580851656
 20
0.151235554316292
 30
0.0
 41
1.0
  0
POLYLINE
  5
9E
330
1F
100
AcDbEntity
  8
Default
100
AcDb2dPolyline
 66
     1
 10
0.0
 20
0.0
 30
0.0
  0
VERTEX
  5
9F
330
9E
100
AcDbEntity
  8
Default
100
AcDbVertex
100
AcDb2dVertex
 10
-7.396402854310622
 20
0.1514367784247185
 30
0.0
  0
VERTEX
  5
A0
330
9E
100
AcDbEntity
  8
Default
100
AcDbVertex
100
AcDb2dVertex
 10
7.397185596956433
 20
0.1511948931485723
 30
0.0
  0
SEQEND
  5
A1
330
9E
100
AcDbEntity
  8
Default
  0
SPLINE
  5
A2
330
1F
100
AcDbEntity
  8
Default
100
AcDbSpline
210
0.0
220
0.0
230
1.0
 70
     8
 71
     3
 72
     8
 73
     4
 74
     0
 42
0.0000000001
 43
0.0000000001
 40
-1.0
 40
-1.0
 40
-1.0
 40
-1.0
 40
0.0
 40
0.0
 40
0.0
 40
0.0
 10
-6.658646388563909
 20
0.1512112460377754
 30
0.0
 10
-6.692348526139085
 20
0.0535612204840141
 30
0.0
 10
-6.77316053699758
 20
0.0000000000000095
 30
0.0
 10
-6.877757746046541
 20
0.0000000000000062
 30
0.0
  0
SPLINE
  5
A3
330
1F
100
AcDbEntity
  8
Default
100
AcDbSpline
210
0.0
220
0.0
230
1.0
 70
    24
 71
     2
 72
     6
 73
     3
 74
     0
 42
0.0000000001
 43
0.0000000001
 40
0.0
 40
0.0
 40
0.0
 40
0.1971495316711156
 40
0.1971495316711156
 40
0.1971495316711156
 10
-6.877757746046541
 20
0.0000000000000062
 30
0.0
 10
-6.976332511882106
 20
0.0000000000000031
 30
0.0
 10
-7.578260739937321
 20
0.0000000000000061
 30
0.0
  0
POLYLINE
  5
A4
330
1F
100
AcDbEntity
  8
Default
100
AcDb2dPolyline
 66
     1
 10
0.0
 20
0.0
 30
0.0
  0
VERTEX
  5
A5
330
A4
100
AcDbEntity
  8
Default
100
AcDbVertex
100
AcDb2dVertex
 10
8.851983122869456
 20
0.5892848948340285
 30
0.0
  0
VERTEX
  5
A6
330
A4
100
AcDbEntity
  8
Default
100
AcDbVertex
100
AcDb2dVertex
 10
-8.851983122869456
 20
0.5892848948340285
 30
0.0
  0
SEQEND
  5
A7
330
A4
100
AcDbEntity
  8
Default
  0
SPLINE
  5
A8
330
1F
100
AcDbEntity
  8
Default
100
AcDbSpline
210
0.0
220
0.0
230
1.0
 70
     8
 71
     3
 72
     8
 73
     4
 74
     0
 42
0.0000000001
 43
0.0000000001
 40
0.0
 40
0.0
 40
0.0
 40
0.0
 40
1.0
 40
1.0
 40
1.0
 40
1.0
 10
-8.851983122869456
 20
0.5892848948340285
 30
0.0
 10
-9.16145484877569
 20
0.5894574963371564
 30
0.0
 10
-9.347647742730942
 20
1.069557293874124
 30
0.0
 10
-9.238225235090567
 20
1.648639019901609
 30
0.0
  0
SPLINE
  5
A9
330
1F
100
AcDbEntity
  8
Default
100
AcDbSpline
210
0.0
220
0.0
230
1.0
 70
     8
 71
     3
 72
     8
 73
     4
 74
     0
 42
0.0000000001
 43
0.0000000001
 40
0.3578052224224721
 40
0.3578052224224721
 40
0.3578052224224721
 40
0.3578052224224721
 40
10.31585142357921
 40
10.31585142357921
 40
10.31585142357921
 40
10.31585142357921
 10
-9.238225235090567
 20
1.648639019901609
 30
0.0
 10
-8.621902372135764
 20
4.910319957091799
 30
0.0
 10
-8.001616222384996
 20
8.171150055238774
 30
0.0
 10
-7.381056223097914
 20
11.43198621859615
 30
0.0
  0
SPLINE
  5
AA
330
1F
100
AcDbEntity
  8
Default
100
AcDbSpline
210
0.0
220
0.0
230
1.0
 70
     8
 71
     3
 72
     8
 73
     4
 74
     0
 42
0.0000000001
 43
0.0000000001
 40
-1.0
 40
-1.0
 40
-1.0
 40
-1.0
 40
0.0
 40
0.0
 40
0.0
 40
0.0
 10
-7.381056223097914
 20
11.43198621859615
 30
0.0
 10
-7.326571523891744
 20
11.71828517071254
 30
0.0
 10
-7.204461016257028
 20
11.99754649868794
 30
0.0
 10
-7.044963285723782
 20
11.88665152535802
 30
0.0
  0
SPLINE
  5
AB
330
1F
100
AcDbEntity
  8
Default
100
AcDbSpline
210
0.0
220
0.0
230
1.0
 70
     8
 71
     3
 72
     8
 73
     4
 74
     0
 42
0.0000000001
 43
0.0000000001
 40
0.0
 40
0.0
 40
0.0
 40
0.0
 40
6.414193327741259
 40
6.414193327741259
 40
6.414193327741259
 40
6.414193327741259
 10
-7.044963285723782
 20
11.88665152535802
 30
0.0
 10
-5.894199878611801
 20
11.08655313578167
 30
0.0
 10
-4.707049374887106
 20
10.43771707561077
 30
0.0
 10
-3.496555901605575
 20
9.948052314493864
 30
0.0
  0
SPLINE
  5
AC
330
1F
100
AcDbEntity
  8
Default
100
AcDbSpline
210
0.0
220
0.0
230
1.0
 70
     8
 71
     3
 72
     9
 73
     5
 74
     0
 42
0.0000000001
 43
0.0000000001
 40
0.0
 40
0.0
 40
0.0
 40
0.0
 40
1.0
 40
2.0
 40
2.0
 40
2.0
 40
2.0
 10
-3.496555901605575
 20
9.948052314493864
 30
0.0
 10
-3.296933929059321
 20
9.86887624980993
 30
0.0
 10
-2.881742620743921
 20
9.757358574643611
 30
0.0
 10
-2.454257897237767
 20
9.71334386717927
 30
0.0
 10
-2.239999997400218
 20
9.71324999838901
 30
0.0
  0
POLYLINE
  5
AD
330
1F
100
AcDbEntity
  8
Default
100
AcDb2dPolyline
 66
     1
 10
0.0
 20
0.0
 30
0.0
  0
VERTEX
  5
AE
330
AD
100
AcDbEntity
  8
Default
100
AcDbVertex
100
AcDb2dVertex
 10
-2.239999997400218
 20
9.71324999838901
 30
0.0
  0
VERTEX
  5
AF
330
AD
100
AcDbEntity
  8
Default
100
AcDbVertex
100
AcDb2dVertex
 10
2.239999997400218
 20
9.71324999838901
 30
0.0
  0
SEQEND
  5
B0
330
AD
100
AcDbEntity
  8
Default
  0
SPLINE
  5
B1
330
1F
100
AcDbEntity
  8
Default
100
AcDbSpline
210
0.0
220
0.0
230
1.0
 70
     8
 71
     3
 72
     9
 73
     5
 74
     0
 42
0.0000000001
 43
0.0000000001
 40
-2.0
 40
-2.0
 40
-2.0
 40
-2.0
 40
-1.0
 40
0.0
 40
0.0
 40
0.0
 40
0.0
 10
2.239999997400218
 20
9.71324999838901
 30
0.0
 10
2.454257897237767
 20
9.71334386717927
 30
0.0
 10
2.881742620743921
 20
9.757358574643611
 30
0.0
 10
3.296933929059264
 20
9.86887624980993
 30
0.0
 10
3.496555901605518
 20
9.948052314493864
 30
0.0
  0
SPLINE
  5
B2
330
1F
100
AcDbEntity
  8
Default
100
AcDbSpline
210
0.0
220
0.0
230
1.0
 70
     8
 71
     3
 72
     8
 73
     4
 74
     0
 42
0.0000000001
 43
0.0000000001
 40
-6.414193327741259
 40
-6.414193327741259
 40
-6.414193327741259
 40
-6.414193327741259
 40
0.0
 40
0.0
 40
0.0
 40
0.0
 10
3.496555901605518
 20
9.948052314493864
 30
0.0
 10
4.707049374887106
 20
10.43771707561077
 30
0.0
 10
5.894199878611744
 20
11.08655313578167
 30
0.0
 10
7.044963285723782
 20
11.88665152535802
 30
0.0
  0
SPLINE
  5
B3
330
1F
100
AcDbEntity
  8
Default
100
AcDbSpline
210
0.0
220
0.0
230
1.0
 70
     8
 71
     3
 72
     8
 73
     4
 74
     0
 42
0.0000000001
 43
0.0000000001
 40
0.0
 40
0.0
 40
0.0
 40
0.0
 40
1.0
 40
1.0
 40
1.0
 40
1.0
 10
7.044963285723782
 20
11.88665152535802
 30
0.0
 10
7.204461016257028
 20
11.99754649868794
 30
0.0
 10
7.326571523891744
 20
11.71828517071254
 30
0.0
 10
7.381056223097914
 20
11.43198621859615
 30
0.0
  0
SPLINE
  5
B4
330
1F
100
AcDbEntity
  8
Default
100
AcDbSpline
210
0.0
220
0.0
230
1.0
 70
     8
 71
     3
 72
     8
 73
     4
 74
     0
 42
0.0000000001
 43
0.0000000001
 40
-10.31585142357921
 40
-10.31585142357921
 40
-10.31585142357921
 40
-10.31585142357921
 40
-0.3578052224224721
 40
-0.3578052224224721
 40
-0.3578052224224721
 40
-0.3578052224224721
 10
7.381056223097914
 20
11.43198621859615
 30
0.0
 10
8.001616222384996
 20
8.171150055238774
 30
0.0
 10
8.621902372135708
 20
4.910319957091799
 30
0.0
 10
9.238225235090567
 20
1.648639019901609
 30
0.0
  0
SPLINE
  5
B5
330
1F
100
AcDbEntity
  8
Default
100
AcDbSpline
210
0.0
220
0.0
230
1.0
 70
     8
 71
     3
 72
     8
 73
     4
 74
     0
 42
0.0000000001
 43
0.0000000001
 40
-1.0
 40
-1.0
 40
-1.0
 40
-1.0
 40
0.0
 40
0.0
 40
0.0
 40
0.0
 10
9.238225235090567
 20
1.648639019901609
 30
0.0
 10
9.347647742730885
 20
1.069557293874124
 30
0.0
 10
9.161454848775634
 20
0.5894574963371564
 30
0.0
 10
8.851983122869456
 20
0.5892848948340285
 30
0.0
  0
SPLINE
  5
B6
330
1F
100
AcDbEntity
  8
Default - Tangent
100
AcDbSpline
210
0.0
220
0.0
230
1.0
 70
    12
 71
     2
 72
     6
 73
     3
 74
     0
 42
0.0000000001
 43
0.0000000001
 40
0.0
 40
0.0
 40
0.0
 40
0.2475642236874568
 40
0.2475642236874568
 40
0.2475642236874568
 10
-8.927153913934205
 20
0.1529962105609592
 30
0.0
 41
1.0
 10
-8.889767344440221
 20
0.017802616897597
 30
0.0
 41
0.8326791077797836
 10
-8.750633846756386
 20
0.0000000000000069
 30
0.0
 41
1.0
  0
POLYLINE
  5
B7
330
1F
100
AcDbEntity
  8
Default - Tangent
100
AcDb2dPolyline
 66
     1
 10
0.0
 20
0.0
 30
0.0
  0
VERTEX
  5
B8
330
B7
100
AcDbEntity
  8
Default - Tangent
100
AcDbVertex
100
AcDb2dVertex
 10
-8.750633846756386
 20
0.0000000000000069
 30
0.0
  0
VERTEX
  5
B9
330
B7
100
AcDbEntity
  8
Default - Tangent
100
AcDbVertex
100
AcDb2dVertex
 10
-7.578260739937321
 20
0.0000000000000061
 30
0.0
  0
SEQEND
  5
BA
330
B7
100
AcDbEntity
  8
Default - Tangent
  0
SPLINE
  5
BB
330
1F
100
AcDbEntity
  8
Default - Tangent
100
AcDbSpline
210
0.0
220
0.0
230
1.0
 70
     8
 71
     3
 72
     8
 73
     4
 74
     0
 42
0.0000000001
 43
0.0000000001
 40
-1.0
 40
-1.0
 40
-1.0
 40
-1.0
 40
0.0
 40
0.0
 40
0.0
 40
0.0
 10
-7.578260739937321
 20
0.0000000000000061
 30
0.0
 10
-7.467093555745407
 20
0.000000000000006
 30
0.0
 10
-7.400817330532789
 20
0.0876852517350812
 30
0.0
 10
-7.391300915043246
 20
0.1753086976115538
 30
0.0
  0
SPLINE
  5
BC
330
1F
100
AcDbEntity
  8
Default - Tangent
100
AcDbSpline
210
0.0
220
0.0
230
1.0
 70
    12
 71
     2
 72
     6
 73
     3
 74
     0
 42
0.0000000001
 43
0.0000000001
 40
0.0
 40
0.0
 40
0.0
 40
0.1701793295661373
 40
0.1701793295661373
 40
0.1701793295661373
 10
-7.391300915043246
 20
0.1753086976115538
 30
0.0
 41
1.0
 10
-7.382111112850938
 20
0.2599248155066877
 30
0.0
 41
0.9995766822534313
 10
-7.37785841339263
 20
0.3449321941234456
 30
0.0
 41
1.0
  0
SPLINE
  5
BD
330
1F
100
AcDbEntity
  8
Default - Tangent
100
AcDbSpline
210
0.0
220
0.0
230
1.0
 70
     8
 71
     3
 72
     8
 73
     4
 74
     0
 42
0.0000000001
 43
0.0000000001
 40
0.0
 40
0.0
 40
0.0
 40
0.0
 40
1.0
 40
1.0
 40
1.0
 40
1.0
 10
-7.37785841339263
 20
0.3449321941234456
 30
0.0
 10
-7.371897859150295
 20
0.4640779499452108
 30
0.0
 10
-7.413605810189949
 20
0.5400000000000063
 30
0.0
 10
-7.525303421879244
 20
0.5400000000000065
 30
0.0
  0
SPLINE
  5
BE
330
1F
100
AcDbEntity
  8
Default - Tangent
100
AcDbSpline
210
0.0
220
0.0
230
1.0
 70
    24
 71
     2
 72
     6
 73
     3
 74
     0
 42
0.0000000001
 43
0.0000000001
 40
0.0
 40
0.0
 40
0.0
 40
0.9334968628012206
 40
0.9334968628012206
 40
0.9334968628012206
 10
-7.525303421879244
 20
0.5400000000000065
 30
0.0
 10
-7.992051853279861
 20
0.5400000000000073
 30
0.0
 10
-8.458800284680422
 20
0.540000000000008
 30
0.0
  0
SPLINE
  5
BF
330
1F
100
AcDbEntity
  8
Default - Tangent
100
AcDbSpline
210
0.0
220
0.0
230
1.0
 70
     8
 71
     3
 72
     8
 73
     4
 74
     0
 42
0.0000000001
 43
0.0000000001
 40
0.0
 40
0.0
 40
0.0
 40
0.0
 40
1.0
 40
1.0
 40
1.0
 40
1.0
 10
-8.458800284680422
 20
0.540000000000008
 30
0.0
 10
-8.51258433550123
 20
0.5400000000000081
 30
0.0
 10
-8.555100555694878
 20
0.5312409634984734
 30
0.0
 10
-8.5607066790987
 20
0.4855682454472924
 30
0.0
  0
SPLINE
  5
C0
330
1F
100
AcDbEntity
  8
Default - Tangent
100
AcDbSpline
210
0.0
220
0.0
230
1.0
 70
    12
 71
     2
 72
     6
 73
     3
 74
     0
 42
0.0000000001
 43
0.0000000001
 40
-0.1353640360023174
 40
-0.1353640360023174
 40
-0.1353640360023174
 40
0.0
 40
0.0
 40
0.0
 10
-8.5607066790987
 20
0.4855682454472924
 30
0.0
 41
1.0
 10
-8.568956642619778
 20
0.4183563361316898
 30
0.0
 41
0.9992399073397645
 10
-8.571993031626846
 20
0.3499999998191763
 30
0.0
 41
1.0
  0
ARC
  5
C1
330
1F
100
AcDbEntity
  8
Default - Tangent
100
AcDbCircle
 10
-8.819106552710139
 20
0.3631661525031643
 30
0.0
 40
0.2474640173413086
100
AcDbArc
 50
315.048704637006
 51
356.9501774839492
  0
ARC
  5
C2
330
1F
100
AcDbEntity
  8
Default - Tangent
100
AcDbCircle
 10
-8.796026670841457
 20
0.3401254757143067
 30
0.0
 40
0.2148518457797491
100
AcDbArc
 50
298.427039896667
 51
315.048704637006
  0
SPLINE
  5
C3
330
1F
100
AcDbEntity
  8
Default
100
AcDbSpline
210
0.0
220
0.0
230
1.0
 70
     8
 71
     3
 72
     8
 73
     4
 74
     0
 42
0.0000000001
 43
0.0000000001
 40
-1.0
 40
-1.0
 40
-1.0
 40
-1.0
 40
0.0
 40
0.0
 40
0.0
 40
0.0
 10
6.658646388563909
 20
0.1512112460377754
 30
0.0
 10
6.692348526139085
 20
0.0535612204840141
 30
0.0
 10
6.77316053699758
 20
0.0000000000000095
 30
0.0
 10
6.877757746046541
 20
0.0000000000000062
 30
0.0
  0
SPLINE
  5
C4
330
1F
100
AcDbEntity
  8
Default
100
AcDbSpline
210
0.0
220
0.0
230
1.0
 70
    24
 71
     2
 72
     6
 73
     3
 74
     0
 42
0.0000000001
 43
0.0000000001
 40
0.0
 40
0.0
 40
0.0
 40
0.1971495316711156
 40
0.1971495316711156
 40
0.1971495316711156
 10
6.877757746046541
 20
0.0000000000000062
 30
0.0
 10
6.976332511882106
 20
0.0000000000000031
 30
0.0
 10
7.578260739937264
 20
0.0000000000000061
 30
0.0
  0
SPLINE
  5
C5
330
1F
100
AcDbEntity
  8
Default
100
AcDbSpline
210
0.0
220
0.0
230
1.0
 70
    12
 71
     2
 72
     7
 73
     4
 74
     0
 42
0.0000000001
 43
0.0000000001
 40
-0.2280612143019154
 40
-0.2280612143019154
 40
-0.2280612143019154
 40
-0.1724164515628274
 40
0.0
 40
0.0
 40
0.0
 10
53.5322068229018
 20
0.1499384840004421
 30
0.0
 41
1.0
 10
53.51048600509507
 20
0.1657970706614961
 30
0.0
 41
1.013403876308458
 10
53.44480627438242
 20
0.2613207077158305
 30
0.0
 41
0.9584678112273103
 10
53.4431282604744
 20
0.3504894505336337
 30
0.0
 41
1.0
  0
ARC
  5
C6
330
1F
100
AcDbEntity
  8
Default
100
AcDbCircle
 10
53.09956848103337
 20
0.3440242019508628
 30
0.0
 40
0.3436206069036254
100
AcDbArc
 50
1.07808818573123
 51
24.33657921688685
  0
SPLINE
  5
C7
330
1F
100
AcDbEntity
  8
Default
100
AcDbSpline
210
0.0
220
0.0
230
1.0
 70
     8
 71
     3
 72
     8
 73
     4
 74
     0
 42
0.0000000001
 43
0.0000000001
 40
0.0
 40
0.0
 40
0.0
 40
0.0
 40
1.0
 40
1.0
 40
1.0
 40
1.0
 10
53.41265508750683
 20
0.4856289276338269
 30
0.0
 10
53.39287291020401
 20
0.5292837499822057
 30
0.0
 10
53.3418379039133
 20
0.5400000000000134
 30
0.0
 10
53.28696092563086
 20
0.5400000000000134
 30
0.0
  0
SPLINE
  5
C8
330
1F
100
AcDbEntity
  8
Default
100
AcDbSpline
210
0.0
220
0.0
230
1.0
 70
    24
 71
     2
 72
     6
 73
     3
 74
     0
 42
0.0000000001
 43
0.0000000001
 40
-1.308943608644313
 40
-1.308943608644313
 40
-1.308943608644313
 40
0.0
 40
0.0
 40
0.0
 10
53.28696092563086
 20
0.5400000000000134
 30
0.0
 10
52.63248912130871
 20
0.5400000000000134
 30
0.0
 10
51.97801731698655
 20
0.5400000000000134
 30
0.0
  0
SPLINE
  5
C9
330
1F
100
AcDbEntity
  8
Default
100
AcDbSpline
210
0.0
220
0.0
230
1.0
 70
     8
 71
     3
 72
     8
 73
     4
 74
     0
 42
0.0000000001
 43
0.0000000001
 40
0.0
 40
0.0
 40
0.0
 40
0.0
 40
1.0
 40
1.0
 40
1.0
 40
1.0
 10
51.97801731698655
 20
0.5400000000000134
 30
0.0
 10
51.8552405707963
 20
0.5400000000000134
 30
0.0
 10
51.79778463359651
 20
0.4696048983162123
 30
0.0
 10
51.80420211365958
 20
0.3446072931190189
 30
0.0
  0
SPLINE
  5
CA
330
1F
100
AcDbEntity
  8
Default
100
AcDbSpline
210
0.0
220
0.0
230
1.0
 70
    12
 71
     2
 72
     6
 73
     3
 74
     0
 42
0.0000000001
 43
0.0000000001
 40
-0.1670989126407748
 40
-0.1670989126407748
 40
-0.1670989126407748
 40
0.0
 40
0.0
 40
0.0
 10
51.80420211365958
 20
0.3446072931190189
 30
0.0
 41
1.0
 10
51.8084870551753
 20
0.2611465853949972
 30
0.0
 41
0.9996199714926403
 10
51.81736517687995
 20
0.178048875362865
 30
0.0
 41
1.0
  0
SPLINE
  5
CB
330
1F
100
AcDbEntity
  8
Default
100
AcDbSpline
210
0.0
220
0.0
230
1.0
 70
     8
 71
     3
 72
     8
 73
     4
 74
     0
 42
0.0000000001
 43
0.0000000001
 40
-1.0
 40
-1.0
 40
-1.0
 40
-1.0
 40
0.0
 40
0.0
 40
0.0
 40
0.0
 10
51.81736517687995
 20
0.178048875362865
 30
0.0
 10
51.82907003526708
 20
0.0684933904780897
 30
0.0
 10
51.88168731993312
 20
-0.000000000000001
 30
0.0
 10
51.98584618595999
 20
0.0
 30
0.0
  0
POLYLINE
  5
CC
330
1F
100
AcDbEntity
  8
Default
100
AcDb2dPolyline
 66
     1
 10
0.0
 20
0.0
 30
0.0
  0
VERTEX
  5
CD
330
CC
100
AcDbEntity
  8
Default
100
AcDbVertex
100
AcDb2dVertex
 10
51.98584618595999
 20
0.0
 30
0.0
  0
VERTEX
  5
CE
330
CC
100
AcDbEntity
  8
Default
100
AcDbVertex
100
AcDb2dVertex
 10
53.49813427302331
 20
0.0000000000000142
 30
0.0
  0
SEQEND
  5
CF
330
CC
100
AcDbEntity
  8
Default
  0
SPLINE
  5
D0
330
1F
100
AcDbEntity
  8
Default
100
AcDbSpline
210
0.0
220
0.0
230
1.0
 70
    12
 71
     2
 72
     6
 73
     3
 74
     0
 42
0.0000000001
 43
0.0000000001
 40
-0.2658620701031969
 40
-0.2658620701031969
 40
-0.2658620701031969
 40
0.0
 40
0.0
 40
0.0
 10
53.49813427302331
 20
0.0000000000000142
 30
0.0
 41
1.0
 10
53.64980228476643
 20
0.0069319958477196
 30
0.0
 41
0.8233604460347794
 10
53.69729430299822
 20
0.1511392999512733
 30
0.0
 41
1.0
  0
SPLINE
  5
D1
330
1F
100
AcDbEntity
  8
Default
100
AcDbSpline
210
0.0
220
0.0
230
1.0
 70
    12
 71
     2
 72
     7
 73
     4
 74
     0
 42
0.0000000001
 43
0.0000000001
 40
-0.2280612143019154
 40
-0.2280612143019154
 40
-0.2280612143019154
 40
-0.1724164515628274
 40
0.0
 40
0.0
 40
0.0
 10
34.36513357234264
 20
0.1499384840004421
 30
0.0
 41
1.0
 10
34.38685439014945
 20
0.1657970706614961
 30
0.0
 41
1.013403876308458
 10
34.45253412086204
 20
0.2613207077158305
 30
0.0
 41
0.9584678112273103
 10
34.45421213477005
 20
0.3504894505336337
 30
0.0
 41
1.0
  0
ARC
  5
D2
330
1F
100
AcDbEntity
  8
Default
100
AcDbCircle
 10
34.79777191421107
 20
0.3440242019508628
 30
0.0
 40
0.3436206069036254
100
AcDbArc
 50
155.6634207831131
 51
178.9219118142687
  0
SPLINE
  5
D3
330
1F
100
AcDbEntity
  8
Default
100
AcDbSpline
210
0.0
220
0.0
230
1.0
 70
     8
 71
     3
 72
     8
 73
     4
 74
     0
 42
0.0000000001
 43
0.0000000001
 40
0.0
 40
0.0
 40
0.0
 40
0.0
 40
1.0
 40
1.0
 40
1.0
 40
1.0
 10
34.48468530773761
 20
0.4856289276338269
 30
0.0
 10
34.50446748504049
 20
0.5292837499822057
 30
0.0
 10
34.55550249133114
 20
0.5400000000000134
 30
0.0
 10
34.61037946961358
 20
0.5400000000000134
 30
0.0
  0
SPLINE
  5
D4
330
1F
100
AcDbEntity
  8
Default
100
AcDbSpline
210
0.0
220
0.0
230
1.0
 70
    24
 71
     2
 72
     6
 73
     3
 74
     0
 42
0.0000000001
 43
0.0000000001
 40
-1.308943608644313
 40
-1.308943608644313
 40
-1.308943608644313
 40
0.0
 40
0.0
 40
0.0
 10
34.61037946961358
 20
0.5400000000000134
 30
0.0
 10
35.26485127393573
 20
0.5400000000000134
 30
0.0
 10
35.91932307825789
 20
0.5400000000000134
 30
0.0
  0
SPLINE
  5
D5
330
1F
100
AcDbEntity
  8
Default
100
AcDbSpline
210
0.0
220
0.0
230
1.0
 70
     8
 71
     3
 72
     8
 73
     4
 74
     0
 42
0.0000000001
 43
0.0000000001
 40
0.0
 40
0.0
 40
0.0
 40
0.0
 40
1.0
 40
1.0
 40
1.0
 40
1.0
 10
35.91932307825789
 20
0.5400000000000134
 30
0.0
 10
36.04209982444814
 20
0.5400000000000134
 30
0.0
 10
36.09955576164793
 20
0.4696048983162123
 30
0.0
 10
36.09313828158486
 20
0.3446072931190189
 30
0.0
  0
SPLINE
  5
D6
330
1F
100
AcDbEntity
  8
Default
100
AcDbSpline
210
0.0
220
0.0
230
1.0
 70
    12
 71
     2
 72
     6
 73
     3
 74
     0
 42
0.0000000001
 43
0.0000000001
 40
-0.1670989126407748
 40
-0.1670989126407748
 40
-0.1670989126407748
 40
0.0
 40
0.0
 40
0.0
 10
36.09313828158486
 20
0.3446072931190189
 30
0.0
 41
1.0
 10
36.08885334006917
 20
0.2611465853949972
 30
0.0
 41
0.9996199714926403
 10
36.0799752183645
 20
0.178048875362865
 30
0.0
 41
1.0
  0
SPLINE
  5
D7
330
1F
100
AcDbEntity
  8
Default
100
AcDbSpline
210
0.0
220
0.0
230
1.0
 70
     8
 71
     3
 72
     8
 73
     4
 74
     0
 42
0.0000000001
 43
0.0000000001
 40
-1.0
 40
-1.0
 40
-1.0
 40
-1.0
 40
0.0
 40
0.0
 40
0.0
 40
0.0
 10
36.0799752183645
 20
0.178048875362865
 30
0.0
 10
36.06827035997736
 20
0.0684933904780897
 30
0.0
 10
36.01565307531132
 20
-0.000000000000001
 30
0.0
 10
35.91149420928446
 20
0.0
 30
0.0
  0
POLYLINE
  5
D8
330
1F
100
AcDbEntity
  8
Default
100
AcDb2dPolyline
 66
     1
 10
0.0
 20
0.0
 30
0.0
  0
VERTEX
  5
D9
330
D8
100
AcDbEntity
  8
Default
100
AcDbVertex
100
AcDb2dVertex
 10
35.91149420928446
 20
0.0
 30
0.0
  0
VERTEX
  5
DA
330
D8
100
AcDbEntity
  8
Default
100
AcDbVertex
100
AcDb2dVertex
 10
34.39920612222113
 20
0.0000000000000142
 30
0.0
  0
SEQEND
  5
DB
330
D8
100
AcDbEntity
  8
Default
  0
SPLINE
  5
DC
330
1F
100
AcDbEntity
  8
Default
100
AcDbSpline
210
0.0
220
0.0
230
1.0
 70
    12
 71
     2
 72
     6
 73
     3
 74
     0
 42
0.0000000001
 43
0.0000000001
 40
-0.2658620701031969
 40
-0.2658620701031969
 40
-0.2658620701031969
 40
0.0
 40
0.0
 40
0.0
 10
34.39920612222113
 20
0.0000000000000142
 30
0.0
 41
1.0
 10
34.24753811047802
 20
0.0069319958477196
 30
0.0
 41
0.8233604460347794
 10
34.20004609224628
 20
0.1511392999512733
 30
0.0
 41
1.0
  0
SPLINE
  5
DD
330
1F
100
AcDbEntity
  8
Default
100
AcDbSpline
210
0.0
220
0.0
230
1.0
 70
     8
 71
     3
 72
    14
 73
    10
 74
     0
 42
0.0000000001
 43
0.0000000001
 40
-6.989654053354371
 40
-6.989654053354371
 40
-6.989654053354371
 40
-6.989654053354371
 40
-6.0
 40
-5.0
 40
-4.0
 40
-3.0
 40
-2.0
 40
-1.0
 40
-0.0005866680957936
 40
-0.0005866680957936
 40
-0.0005866680957936
 40
-0.0005866680957936
 10
54.90689273197569
 20
16.38903720382307
 30
0.0
 10
55.11882317176287
 20
16.42881480071289
 30
0.0
 10
55.54772424865973
 20
16.49373972178485
 30
0.0
 10
56.19541794020085
 20
16.56059631660739
 30
0.0
 10
56.85540041051036
 20
16.52355334679893
 30
0.0
 10
57.45123050592917
 20
16.21185014031629
 30
0.0
 10
57.8405944975629
 20
15.66714681642452
 30
0.0
 10
57.97387791653159
 20
15.01008551824383
 30
0.0
 10
57.85663267755831
 20
14.58043902269441
 30
0.0
 10
57.78435551621629
 20
14.37627329536575
 30
0.0
  0
SPLINE
  5
DE
330
1F
100
AcDbEntity
  8
Default
100
AcDbSpline
210
0.0
220
0.0
230
1.0
 70
     8
 71
     3
 72
    13
 73
     9
 74
     0
 42
0.0000000001
 43
0.0000000001
 40
-81.71040402546193
 40
-81.71040402546193
 40
-81.71040402546193
 40
-81.71040402546193
 40
-81.7000048194896
 40
-80.7000048194896
 40
-79.7000048194896
 40
-78.7000048194896
 40
-77.7000048194896
 40
-77.09129258927226
 40
-77.09129258927226
 40
-77.09129258927226
 40
-77.09129258927226
 10
57.78435551621629
 20
14.37627329536575
 30
0.0
 10
57.78182359397988
 20
14.37720518331284
 30
0.0
 10
57.53618209571437
 20
14.46833312858256
 30
0.0
 10
57.12103786994948
 20
14.76694740145858
 30
0.0
 10
56.45421968719785
 20
15.13919218983511
 30
0.0
 10
55.83261629745573
 20
15.58372355608194
 30
0.0
 10
55.34449424829546
 20
16.03370340189686
 30
0.0
 10
55.02747510786253
 20
16.29203683475542
 30
0.0
 10
54.90689273197569
 20
16.38903720382307
 30
0.0
  0
SPLINE
  5
DF
330
1F
100
AcDbEntity
  8
Default
100
AcDbSpline
210
0.0
220
0.0
230
1.0
 70
     8
 71
     3
 72
    13
 73
     9
 74
     0
 42
0.0000000001
 43
0.0000000001
 40
0.0
 40
0.0
 40
0.0
 40
0.0
 40
1.0
 40
2.0
 40
3.0
 40
4.0
 40
5.0
 40
6.0
 40
6.0
 40
6.0
 40
6.0
 10
14.84003022638444
 20
18.85837778417057
 30
0.0
 10
14.23670429918832
 20
18.12697579294334
 30
0.0
 10
12.99494645363592
 20
16.68678744934049
 30
0.0
 10
10.84942842324693
 20
14.81109147733078
 30
0.0
 10
8.44613961251116
 20
13.24696773430891
 30
0.0
 10
5.684520554540256
 20
12.46083275238077
 30
0.0
 10
2.845832940971889
 20
12.2016422370175
 30
0.0
 10
0.9487175012800435
 20
12.16312208638068
 30
0.0
 10
0.0
 20
12.1640599283337
 30
0.0
  0
SPLINE
  5
E0
330
1F
100
AcDbEntity
  8
Default
100
AcDbSpline
210
0.0
220
0.0
230
1.0
 70
     8
 71
     3
 72
    13
 73
     9
 74
     0
 42
0.0000000001
 43
0.0000000001
 40
-6.0
 40
-6.0
 40
-6.0
 40
-6.0
 40
-5.0
 40
-4.0
 40
-3.0
 40
-2.0
 40
-1.0
 40
0.0
 40
0.0
 40
0.0
 40
0.0
 10
0.0
 20
12.1640599283337
 30
0.0
 10
-0.9487175012801004
 20
12.16312208638068
 30
0.0
 10
-2.845832940971945
 20
12.2016422370175
 30
0.0
 10
-5.684520554540313
 20
12.46083275238077
 30
0.0
 10
-8.446139612511217
 20
13.24696773430891
 30
0.0
 10
-10.84942842324699
 20
14.81109147733078
 30
0.0
 10
-12.99494645363598
 20
16.68678744934049
 30
0.0
 10
-14.23670429918832
 20
18.12697579294334
 30
0.0
 10
-14.8400302263845
 20
18.85837778417057
 30
0.0
  0
SPLINE
  5
E1
330
1F
100
AcDbEntity
  8
Default
100
AcDbSpline
210
0.0
220
0.0
230
1.0
 70
     8
 71
     3
 72
    13
 73
     9
 74
     0
 42
0.0000000001
 43
0.0000000001
 40
-6.0
 40
-6.0
 40
-6.0
 40
-6.0
 40
-5.0
 40
-4.0
 40
-3.0
 40
-2.0
 40
-1.0
 40
0.0
 40
0.0
 40
0.0
 40
0.0
 10
-10.55640285671473
 20
17.45836613417585
 30
0.0
 10
-10.16725934581979
 20
16.92316750090831
 30
0.0
 10
-9.497553653268653
 20
15.74811505198052
 30
0.0
 10
-7.845544445243092
 20
14.56267782258732
 30
0.0
 10
-5.969020014821012
 20
13.86844757301762
 30
0.0
 10
-3.986042293352796
 20
13.58960488999642
 30
0.0
 10
-1.993617152111597
 20
13.52581076392846
 30
0.0
 10
-0.6644651943260556
 20
13.52276957850837
 30
0.0
 10
0.0
 20
13.52365136297595
 30
0.0
  0
SPLINE
  5
E2
330
1F
100
AcDbEntity
  8
Default
100
AcDbSpline
210
0.0
220
0.0
230
1.0
 70
     8
 71
     3
 72
    13
 73
     9
 74
     0
 42
0.0000000001
 43
0.0000000001
 40
0.0
 40
0.0
 40
0.0
 40
0.0
 40
1.0
 40
2.0
 40
3.0
 40
4.0
 40
5.0
 40
6.0
 40
6.0
 40
6.0
 40
6.0
 10
0.0
 20
13.52365136297595
 30
0.0
 10
0.6644651943259987
 20
13.52276957850837
 30
0.0
 10
1.99361715211154
 20
13.52581076392846
 30
0.0
 10
3.986042293352739
 20
13.58960488999642
 30
0.0
 10
5.969020014820956
 20
13.86844757301762
 30
0.0
 10
7.845544445243036
 20
14.56267782258732
 30
0.0
 10
9.497553653268596
 20
15.74811505198052
 30
0.0
 10
10.16725934581973
 20
16.92316750090831
 30
0.0
 10
10.55640285671473
 20
17.45836613417585
 30
0.0
  0
SPLINE
  5
E3
330
1F
100
AcDbEntity
  8
Default
100
AcDbSpline
210
0.0
220
0.0
230
1.0
 70
     8
 71
     3
 72
    13
 73
     9
 74
     0
 42
0.0000000001
 43
0.0000000001
 40
0.0
 40
0.0
 40
0.0
 40
0.0
 40
1.0
 40
2.0
 40
3.0
 40
4.0
 40
5.0
 40
6.0
 40
6.0
 40
6.0
 40
6.0
 10
14.84003022638444
 20
18.85837778417059
 30
0.0
 10
14.23670429918832
 20
18.12697579294336
 30
0.0
 10
12.99494645363592
 20
16.6867874493405
 30
0.0
 10
10.84942842324693
 20
14.81109147733079
 30
0.0
 10
8.44613961251116
 20
13.24696773430892
 30
0.0
 10
5.684520554540256
 20
12.46083275238078
 30
0.0
 10
2.845832940971889
 20
12.20164223701751
 30
0.0
 10
0.9487175012800435
 20
12.1631220863807
 30
0.0
 10
0.0
 20
12.16405992833371
 30
0.0
  0
SPLINE
  5
E4
330
1F
100
AcDbEntity
  8
Default
100
AcDbSpline
210
0.0
220
0.0
230
1.0
 70
     8
 71
     3
 72
    13
 73
     9
 74
     0
 42
0.0000000001
 43
0.0000000001
 40
-6.0
 40
-6.0
 40
-6.0
 40
-6.0
 40
-5.0
 40
-4.0
 40
-3.0
 40
-2.0
 40
-1.0
 40
0.0
 40
0.0
 40
0.0
 40
0.0
 10
0.0
 20
12.16405992833371
 30
0.0
 10
-0.9487175012801004
 20
12.1631220863807
 30
0.0
 10
-2.845832940971945
 20
12.20164223701751
 30
0.0
 10
-5.684520554540313
 20
12.46083275238078
 30
0.0
 10
-8.446139612511217
 20
13.24696773430892
 30
0.0
 10
-10.84942842324699
 20
14.81109147733079
 30
0.0
 10
-12.99494645363598
 20
16.6867874493405
 30
0.0
 10
-14.23670429918832
 20
18.12697579294336
 30
0.0
 10
-14.8400302263845
 20
18.85837778417059
 30
0.0
  0
SPLINE
  5
E5
330
1F
100
AcDbEntity
  8
Default
100
AcDbSpline
210
0.0
220
0.0
230
1.0
 70
     8
 71
     3
 72
    12
 73
     8
 74
     0
 42
0.0000000001
 43
0.0000000001
 40
0.0
 40
0.0
 40
0.0
 40
0.0
 40
1.0
 40
2.0
 40
3.0
 40
4.0
 40
5.0
 40
5.0
 40
5.0
 40
5.0
 10
8.542835924405267
 20
15.10343220932494
 30
0.0
 10
8.06487643326534
 20
15.45319454448652
 30
0.0
 10
6.912256224381224
 20
15.64176705562512
 30
0.0
 10
5.187456849912508
 20
15.70853676260867
 30
0.0
 10
3.458491254741261
 20
15.77453128860436
 30
0.0
 10
1.729345735805225
 20
15.79065343474502
 30
0.0
 10
0.576432387909847
 20
15.79064070833743
 30
0.0
 10
0.0
 20
15.78960053780699
 30
0.0
  0
SPLINE
  5
E6
330
1F
100
AcDbEntity
  8
Default
100
AcDbSpline
210
0.0
220
0.0
230
1.0
 70
     8
 71
     3
 72
    12
 73
     8
 74
     0
 42
0.0000000001
 43
0.0000000001
 40
-5.0
 40
-5.0
 40
-5.0
 40
-5.0
 40
-4.0
 40
-3.0
 40
-2.0
 40
-1.0
 40
0.0
 40
0.0
 40
0.0
 40
0.0
 10
0.0
 20
15.78960053780699
 30
0.0
 10
-0.5764323879099038
 20
15.79064070833743
 30
0.0
 10
-1.729345735805282
 20
15.79065343474502
 30
0.0
 10
-3.458491254741318
 20
15.77453128860436
 30
0.0
 10
-5.187456849912564
 20
15.70853676260867
 30
0.0
 10
-6.912256224381281
 20
15.64176705562512
 30
0.0
 10
-8.064876433265397
 20
15.45319454448652
 30
0.0
 10
-8.542835924405324
 20
15.10343220932494
 30
0.0
  0
SPLINE
  5
E7
330
1F
100
AcDbEntity
  8
Default
100
AcDbSpline
210
0.0
220
0.0
230
1.0
 70
    12
 71
     3
 72
    14
 73
    10
 74
     0
 42
0.0000000001
 43
0.0000000001
 40
0.0
 40
0.0
 40
0.0
 40
0.0
 40
2.272530570850037
 40
5.023967254719622
 40
6.68002001149758
 40
7.995391502034781
 40
7.995391502034781
 40
7.995391502034781
 40
12.3591975902638
 40
12.3591975902638
 40
12.3591975902638
 40
12.3591975902638
 10
9.794442124253237
 20
39.28362559269104
 30
0.0
 41
1.0
 10
9.814067617055912
 20
38.52636148085497
 30
0.0
 41
1.0
 10
9.869587103804975
 20
36.85262627389281
 30
0.0
 41
1.0
 10
9.956378196602088
 20
34.62761965719466
 30
0.0
 41
1.0
 10
10.0481699755195
 20
32.72218944372371
 30
0.0
 41
1.0
 10
10.11325931681114
 20
31.73378596889886
 30
0.0
 41
1.0
 10
10.14855689979464
 20
31.29675247108217
 30
0.0
 41
1.0
 10
10.26567438482178
 20
29.84667402914391
 30
0.0
 41
0.9997274175345053
 10
10.51780975946398
 20
27.65293876084846
 30
0.0
 41
0.9997274175345053
 10
10.80233794865273
 20
26.22470925995188
 30
0.0
 41
1.0
  0
SPLINE
  5
E8
330
1F
100
AcDbEntity
  8
Default
100
AcDbSpline
210
0.0
220
0.0
230
1.0
 70
     8
 71
     3
 72
    36
 73
    32
 74
     0
 42
0.0000000001
 43
0.0000000001
 40
18.97962094509823
 40
18.97962094509823
 40
18.97962094509823
 40
18.97962094509823
 40
19.0
 40
20.0
 40
21.0
 40
22.0
 40
23.0
 40
24.0
 40
25.0
 40
26.0
 40
27.0
 40
28.0
 40
29.0
 40
30.0
 40
31.0
 40
32.0
 40
33.0
 40
34.0
 40
35.0
 40
36.0
 40
37.0
 40
38.0
 40
39.0
 40
40.0
 40
41.0
 40
42.0
 40
43.0
 40
44.0
 40
45.0
 40
46.0
 40
47.0
 40
47.0
 40
47.0
 40
47.0
 10
10.80233794865273
 20
26.22470925995188
 30
0.0
 10
10.80322900802526
 20
26.2202364613637
 30
0.0
 10
10.84785415995725
 20
25.99628737849346
 30
0.0
 10
10.93758391942566
 20
25.55335009763031
 30
0.0
 10
11.07819411403062
 20
24.89693043433604
 30
0.0
 10
11.2478679322673
 20
24.24732774984059
 30
0.0
 10
11.44802570862743
 20
23.60655260251623
 30
0.0
 10
11.68271763611779
 20
22.97695730247487
 30
0.0
 10
11.97212069591473
 20
22.37167102978167
 30
0.0
 10
12.29490202463461
 20
21.77977971447984
 30
0.0
 10
12.7460017401753
 20
21.27941234604161
 30
0.0
 10
13.29326928420284
 20
20.87186971961518
 30
0.0
 10
13.94603456874756
 20
20.70999633086313
 30
0.0
 10
14.61259099797223
 20
20.52095148255633
 30
0.0
 10
15.01112432931512
 20
19.9384165469704
 30
0.0
 10
15.04145883747793
 20
19.23794448778702
 30
0.0
 10
14.74664218978847
 20
18.62903017321868
 30
0.0
 10
14.44482366412552
 20
18.03106238135376
 30
0.0
 10
14.12232491405939
 20
17.44185049373901
 30
0.0
 10
13.77830620809101
 20
16.86548547647611
 30
0.0
 10
13.41027124697189
 20
16.3039703259673
 30
0.0
 10
13.01902977841917
 20
15.75841535369808
 30
0.0
 10
12.60460374457392
 20
15.23023780596162
 30
0.0
 10
12.16804985284756
 20
14.72020994485983
 30
0.0
 10
11.71061241200135
 20
14.22883576924913
 30
0.0
 10
11.23350979362829
 20
13.7565272439613
 30
0.0
 10
10.73735914954307
 20
13.30429340135443
 30
0.0
 10
10.2241311192293
 20
12.87153132742266
 30
0.0
 10
9.693714013871897
 20
12.4600054632218
 30
0.0
 10
9.14703932613969
 20
12.07033965391049
 30
0.0
 10
8.772363656126913
 20
11.82554141230499
 30
0.0
 10
8.582628398274778
 20
11.70697994876294
 30
0.0
  0
SPLINE
  5
E9
330
1F
100
AcDbEntity
  8
Default
100
AcDbSpline
210
0.0
220
0.0
230
1.0
 70
     8
 71
     3
 72
     8
 73
     4
 74
     0
 42
0.0000000001
 43
0.0000000001
 40
0.0
 40
0.0
 40
0.0
 40
0.0
 40
0.2798824625159355
 40
0.2798824625159355
 40
0.2798824625159355
 40
0.2798824625159355
 10
8.582628398274778
 20
11.70697994876294
 30
0.0
 10
8.342992582917361
 20
11.55973146978317
 30
0.0
 10
8.100329437530831
 20
11.41835235160018
 30
0.0
 10
7.854664865477048
 20
11.28281711300202
 30
0.0
  0
SPLINE
  5
EA
330
1F
100
AcDbEntity
  8
Default
100
AcDbSpline
210
0.0
220
0.0
230
1.0
 70
     8
 71
     3
 72
    13
 73
     9
 74
     0
 42
0.0000000001
 43
0.0000000001
 40
0.4323189161148164
 40
0.4323189161148164
 40
0.4323189161148164
 40
0.4323189161148164
 40
1.0
 40
2.0
 40
3.0
 40
4.0
 40
5.0
 40
5.567681133783779
 40
5.567681133783779
 40
5.567681133783779
 40
5.567681133783779
 10
7.450598442147225
 20
11.06655795973288
 30
0.0
 10
6.945705224262269
 20
10.80455008466943
 30
0.0
 10
5.517477651724334
 20
10.14723535972223
 30
0.0
 10
3.027397889836607
 20
9.36755598464751
 30
0.0
 10
0.0000000236329925
 20
9.54032100817058
 30
0.0
 10
-3.027397984368804
 20
9.36755601173418
 30
0.0
 10
-5.51747744548868
 20
10.14723528780069
 30
0.0
 10
-6.945705135194771
 20
10.80455004125169
 30
0.0
 10
-7.450598442062301
 20
11.06655796017919
 30
0.0
  0
SPLINE
  5
EB
330
1F
100
AcDbEntity
  8
Default
100
AcDbSpline
210
0.0
220
0.0
230
1.0
 70
     8
 71
     3
 72
     8
 73
     4
 74
     0
 42
0.0000000001
 43
0.0000000001
 40
5.720117572356635
 40
5.720117572356635
 40
5.720117572356635
 40
5.720117572356635
 40
6.0
 40
6.0
 40
6.0
 40
6.0
 10
-7.854664865672646
 20
11.28281711198637
 30
0.0
 10
-8.100329434010519
 20
11.41835234780667
 30
0.0
 10
-8.342992580047905
 20
11.55973146606837
 30
0.0
 10
-8.582628398274835
 20
11.70697994876294
 30
0.0
  0
SPLINE
  5
EC
330
1F
100
AcDbEntity
  8
Default
100
AcDbSpline
210
0.0
220
0.0
230
1.0
 70
     8
 71
     3
 72
    36
 73
    32
 74
     0
 42
0.0000000001
 43
0.0000000001
 40
-47.0
 40
-47.0
 40
-47.0
 40
-47.0
 40
-46.0
 40
-45.0
 40
-44.0
 40
-43.0
 40
-42.0
 40
-41.0
 40
-40.0
 40
-39.0
 40
-38.0
 40
-37.0
 40
-36.0
 40
-35.0
 40
-34.0
 40
-33.0
 40
-32.0
 40
-31.0
 40
-30.0
 40
-29.0
 40
-28.0
 40
-27.0
 40
-26.0
 40
-25.0
 40
-24.0
 40
-23.0
 40
-22.0
 40
-21.0
 40
-20.0
 40
-19.0
 40
-18.97962094509862
 40
-18.97962094509862
 40
-18.97962094509862
 40
-18.97962094509862
 10
-8.582628398274835
 20
11.70697994876294
 30
0.0
 10
-8.77236365612697
 20
11.82554141230499
 30
0.0
 10
-9.14703932613969
 20
12.07033965391049
 30
0.0
 10
-9.693714013871954
 20
12.4600054632218
 30
0.0
 10
-10.22413111922936
 20
12.87153132742266
 30
0.0
 10
-10.73735914954312
 20
13.30429340135443
 30
0.0
 10
-11.23350979362834
 20
13.7565272439613
 30
0.0
 10
-11.71061241200141
 20
14.22883576924913
 30
0.0
 10
-12.16804985284762
 20
14.72020994485983
 30
0.0
 10
-12.60460374457392
 20
15.23023780596162
 30
0.0
 10
-13.01902977841917
 20
15.75841535369808
 30
0.0
 10
-13.41027124697194
 20
16.3039703259673
 30
0.0
 10
-13.77830620809107
 20
16.86548547647611
 30
0.0
 10
-14.12232491405945
 20
17.44185049373901
 30
0.0
 10
-14.44482366412552
 20
18.03106238135376
 30
0.0
 10
-14.74664218978853
 20
18.62903017321868
 30
0.0
 10
-15.04145883747793
 20
19.23794448778702
 30
0.0
 10
-15.01112432931518
 20
19.9384165469704
 30
0.0
 10
-14.61259099797229
 20
20.52095148255633
 30
0.0
 10
-13.94603456874762
 20
20.70999633086313
 30
0.0
 10
-13.29326928420289
 20
20.87186971961518
 30
0.0
 10
-12.74600174017536
 20
21.27941234604161
 30
0.0
 10
-12.29490202463461
 20
21.77977971447984
 30
0.0
 10
-11.97212069591473
 20
22.37167102978167
 30
0.0
 10
-11.68271763611784
 20
22.97695730247487
 30
0.0
 10
-11.44802570862748
 20
23.60655260251623
 30
0.0
 10
-11.2478679322673
 20
24.24732774984059
 30
0.0
 10
-11.07819411403068
 20
24.89693043433604
 30
0.0
 10
-10.93758391942572
 20
25.55335009763031
 30
0.0
 10
-10.84785415995731
 20
25.99628737849338
 30
0.0
 10
-10.80322900802537
 20
26.22023646136353
 30
0.0
 10
-10.80233794865285
 20
26.22470925995162
 30
0.0
  0
SPLINE
  5
ED
330
1F
100
AcDbEntity
  8
Default
100
AcDbSpline
210
0.0
220
0.0
230
1.0
 70
    12
 71
     3
 72
    14
 73
    10
 74
     0
 42
0.0000000001
 43
0.0000000001
 40
-4.36387859078472
 40
-4.36387859078472
 40
-4.36387859078472
 40
-4.36387859078472
 40
0.0
 40
0.0
 40
0.0
 40
0.6166140580245227
 40
1.31537414424904
 40
2.970965137522998
 40
7.997532208823502
 40
7.997532208823502
 40
7.997532208823502
 40
7.997532208823502
 10
-10.80233794865285
 20
26.22470925995162
 30
0.0
 41
1.0
 10
-10.51784415244975
 20
27.65276612039019
 30
0.0
 41
0.9997274049409776
 10
-10.26945896895385
 20
29.84696040412615
 30
0.0
 41
0.9997274049409776
 10
-10.14855689979601
 20
31.29675247108216
 30
0.0
 41
1.0
 10
-10.13147447883068
 20
31.50159560215874
 30
0.0
 41
1.0
 10
-10.10049232698702
 20
31.93892962616911
 30
0.0
 41
1.0
 10
-10.03741360084985
 20
32.92730348535365
 30
0.0
 41
1.0
 10
-9.922466576064494
 20
35.384920004763
 30
0.0
 41
1.0
 10
-9.839812669360697
 20
37.61085940390227
 30
0.0
 41
1.0
 10
-9.794379331481593
 20
39.28578818811263
 30
0.0
 41
1.0
  0
SPLINE
  5
EE
330
1F
100
AcDbEntity
  8
Default
100
AcDbSpline
210
0.0
220
0.0
230
1.0
 70
     8
 71
     3
 72
    12
 73
     8
 74
     0
 42
0.0000000001
 43
0.0000000001
 40
0.0
 40
0.0
 40
0.0
 40
0.0
 40
0.4799243607303058
 40
0.9499896771204523
 40
1.805716767132695
 40
2.611606334304326
 40
3.377181149938189
 40
3.377181149938189
 40
3.377181149938189
 40
3.377181149938189
 10
-9.794379331481593
 20
39.28578818811263
 30
0.0
 10
-9.790208583004699
 20
39.44568969809322
 30
0.0
 10
-9.762788665133485
 20
39.76190154656808
 30
0.0
 10
-9.63382501027445
 20
40.35099046174918
 30
0.0
 10
-9.335500657432817
 20
41.00511774174987
 30
0.0
 10
-8.756618929057879
 20
41.59261442640687
 30
0.0
 10
-8.258040765645546
 20
41.78962112099148
 30
0.0
 10
-8.005544078551793
 20
41.827540486011
 30
0.0
  0
SPLINE
  5
EF
330
1F
100
AcDbEntity
  8
Default
100
AcDbSpline
210
0.0
220
0.0
230
1.0
 70
     8
 71
     3
 72
    12
 73
     8
 74
     0
 42
0.0000000001
 43
0.0000000001
 40
0.0
 40
0.0
 40
0.0
 40
0.0
 40
0.999999999112639
 40
1.999999999710156
 40
3.000000000307672
 40
4.000000000905188
 40
5.0
 40
5.0
 40
5.0
 40
5.0
 10
-8.005544078551793
 20
41.827540486011
 30
0.0
 10
-6.948022941880481
 20
41.99045369604019
 30
0.0
 10
-4.811334752009429
 20
42.12236883406555
 30
0.0
 10
-1.603769938059941
 20
42.14332451222521
 30
0.0
 10
1.603768057921116
 20
42.14271747363193
 30
0.0
 10
4.811325118978516
 20
42.12235489785166
 30
0.0
 10
6.94802510217778
 20
41.99052038295605
 30
0.0
 10
8.005543028725242
 20
41.82754273606372
 30
0.0
  0
SPLINE
  5
F0
330
1F
100
AcDbEntity
  8
Default
100
AcDbSpline
210
0.0
220
0.0
230
1.0
 70
     8
 71
     3
 72
    12
 73
     8
 74
     0
 42
0.0000000001
 43
0.0000000001
 40
0.0
 40
0.0
 40
0.0
 40
0.0
 40
0.3681735974468679
 40
0.7558963010621398
 40
1.565710918587365
 40
2.427222010208526
 40
3.377193793628841
 40
3.377193793628841
 40
3.377193793628841
 40
3.377193793628841
 10
8.005543028725242
 20
41.82754273606372
 30
0.0
 10
8.126830985435845
 20
41.80876453226128
 30
0.0
 10
8.371891153060801
 20
41.74480770198926
 30
0.0
 10
8.839940304220704
 20
41.50626507687895
 30
0.0
 10
9.333297824195938
 20
41.01007128343724
 30
0.0
 10
9.700464362490834
 20
40.20538663928971
 30
0.0
 10
9.785564439927896
 20
39.60218016775542
 30
0.0
 10
9.794373611765252
 20
39.28581045810785
 30
0.0
  0
SPLINE
  5
F1
330
1F
100
AcDbEntity
  8
Default - Tangent
100
AcDbSpline
210
0.0
220
0.0
230
1.0
 70
     8
 71
     3
 72
     8
 73
     4
 74
     0
 42
0.0000000001
 43
0.0000000001
 40
-2.713975909307337
 40
-2.713975909307337
 40
-2.713975909307337
 40
-2.713975909307337
 40
-2.515018222087228
 40
-2.515018222087228
 40
-2.515018222087228
 40
-2.515018222087228
 10
52.22472192652401
 20
11.1907413958423
 30
0.0
 10
52.08349080146945
 20
11.15325241765602
 30
0.0
 10
51.94211129166735
 20
11.11632644499007
 30
0.0
 10
51.80059298211967
 20
11.07994004117925
 30
0.0
  0
SPLINE
  5
F2
330
1F
100
AcDbEntity
  8
Default - Tangent
100
AcDbSpline
210
0.0
220
0.0
230
1.0
 70
     8
 71
     3
 72
    10
 73
     6
 74
     0
 42
0.0000000001
 43
0.0000000001
 40
-2.515018222087228
 40
-2.515018222087228
 40
-2.515018222087228
 40
-2.515018222087228
 40
-2.0
 40
-1.0
 40
0.0
 40
0.0
 40
0.0
 40
0.0
 10
51.80059298211967
 20
11.07994004117925
 30
0.0
 10
51.43426128016637
 20
10.98575086326593
 30
0.0
 10
50.35389510579569
 20
10.71931224379397
 30
0.0
 10
48.54945222942172
 20
10.32310680476293
 30
0.0
 10
47.10304545497326
 20
10.06495557248083
 30
0.0
 10
46.37643468674304
 20
9.957727268858278
 30
0.0
  0
POLYLINE
  5
F3
330
1F
100
AcDbEntity
  8
Default - Tangent
100
AcDb2dPolyline
 66
     1
 10
0.0
 20
0.0
 30
0.0
  0
VERTEX
  5
F4
330
F3
100
AcDbEntity
  8
Default - Tangent
100
AcDbVertex
100
AcDb2dVertex
 10
46.37643468674304
 20
9.957727268858278
 30
0.0
  0
VERTEX
  5
F5
330
F3
100
AcDbEntity
  8
Default - Tangent
100
AcDbVertex
100
AcDb2dVertex
 10
46.10515444097098
 20
9.958052652997516
 30
0.0
  0
SEQEND
  5
F6
330
F3
100
AcDbEntity
  8
Default - Tangent
  0
POLYLINE
  5
F7
330
1F
100
AcDbEntity
  8
Default - Tangent
100
AcDb2dPolyline
 66
     1
 10
0.0
 20
0.0
 30
0.0
  0
VERTEX
  5
F8
330
F7
100
AcDbEntity
  8
Default - Tangent
100
AcDbVertex
100
AcDb2dVertex
 10
40.49882053990859
 20
9.964777109197719
 30
0.0
  0
VERTEX
  5
F9
330
F7
100
AcDbEntity
  8
Default - Tangent
100
AcDbVertex
100
AcDb2dVertex
 10
39.67643468674328
 20
9.965763510961665
 30
0.0
  0
SEQEND
  5
FA
330
F7
100
AcDbEntity
  8
Default - Tangent
  0
SPLINE
  5
FB
330
1F
100
AcDbEntity
  8
Default - Tangent
100
AcDbSpline
210
0.0
220
0.0
230
1.0
 70
     8
 71
     3
 72
    10
 73
     6
 74
     0
 42
0.0000000001
 43
0.0000000001
 40
-3.0
 40
-3.0
 40
-3.0
 40
-3.0
 40
-2.0
 40
-1.0
 40
-0.7370194021477445
 40
-0.7370194021477445
 40
-0.7370194021477445
 40
-0.7370194021477445
 10
39.67643468674328
 20
9.965763510961665
 30
0.0
 10
39.3205047119871
 20
10.05260274336797
 30
0.0
 10
38.62114434325287
 20
10.27329474044545
 30
0.0
 10
37.86214401851288
 20
10.61218294034287
 30
0.0
 10
37.46082894399916
 20
10.84180926018738
 30
0.0
 10
37.37820567664829
 20
10.89121811851594
 30
0.0
  0
SPLINE
  5
FC
330
1F
100
AcDbEntity
  8
Default - Tangent
100
AcDbSpline
210
0.0
220
0.0
230
1.0
 70
     8
 71
     3
 72
     8
 73
     4
 74
     0
 42
0.0000000001
 43
0.0000000001
 40
-0.7370194021477445
 40
-0.7370194021477445
 40
-0.7370194021477445
 40
-0.7370194021477445
 40
-0.3310481806608223
 40
-0.3310481806608223
 40
-0.3310481806608223
 40
-0.3310481806608223
 10
37.37820567664829
 20
10.89121811851594
 30
0.0
 10
37.25065760259406
 20
10.96749208979646
 30
0.0
 10
37.12534831245074
 20
11.0475684495609
 30
0.0
 10
37.00217908547205
 20
11.13085860447529
 30
0.0
  0
SPLINE
  5
FD
330
1F
100
AcDbEntity
  8
Default - Tangent
100
AcDbSpline
210
0.0
220
0.0
230
1.0
 70
     8
 71
     3
 72
     8
 73
     4
 74
     0
 42
0.0000000001
 43
0.0000000001
 40
-0.3310481806608223
 40
-0.3310481806608223
 40
-0.3310481806608223
 40
-0.3310481806608223
 40
0.0
 40
0.0
 40
0.0
 40
0.0
 10
37.00217908547205
 20
11.13085860447529
 30
0.0
 10
36.90174105847262
 20
11.19877734548945
 30
0.0
 10
36.80272607605502
 20
11.26883311397585
 30
0.0
 10
36.70508060833544
 20
11.34070675378962
 30
0.0
  0
SPLINE
  5
FE
330
1F
100
AcDbEntity
  8
Default - Tangent
100
AcDbSpline
210
0.0
220
0.0
230
1.0
 70
     8
 71
     3
 72
    24
 73
    20
 74
     0
 42
0.0000000001
 43
0.0000000001
 40
-82.0
 40
-82.0
 40
-82.0
 40
-82.0
 40
-81.0
 40
-80.0
 40
-79.0
 40
-78.0
 40
-77.0
 40
-76.0
 40
-75.0
 40
-74.0
 40
-73.0
 40
-72.0
 40
-71.0
 40
-70.0
 40
-69.0
 40
-68.0
 40
-67.0
 40
-66.0
 40
-65.36449441299654
 40
-65.36449441299654
 40
-65.36449441299654
 40
-65.36449441299654
 10
36.70508060833544
 20
11.34070675378962
 30
0.0
 10
36.49858730906845
 20
11.48898730040483
 30
0.0
 10
36.09904109989338
 20
11.80416590082572
 30
0.0
 10
35.54139235964459
 20
12.32531157569743
 30
0.0
 10
35.02571425535388
 20
12.88786433455662
 30
0.0
 10
34.54994000120956
 20
13.484402736359
 30
0.0
 10
34.11127337435471
 20
14.10862305771954
 30
0.0
 10
33.7066179267145
 20
14.75533687243137
 30
0.0
 10
33.33332649808591
 20
15.42058766956957
 30
0.0
 10
32.98794172402876
 20
16.10068408320966
 30
0.0
 10
32.66644501111352
 20
16.79234734525069
 30
0.0
 10
32.3644542584326
 20
17.49270439999646
 30
0.0
 10
32.07746559087309
 20
18.19931351406652
 30
0.0
 10
31.80059293077818
 20
18.9099296157619
 30
0.0
 10
31.53227533093661
 20
19.62382061136933
 30
0.0
 10
31.27191405165888
 20
20.3406446122525
 30
0.0
 10
31.0174603800632
 20
21.05958426260949
 30
0.0
 10
30.79576386615759
 20
21.69181817070123
 30
0.0
 10
30.65952843258231
 20
22.08462904753098
 30
0.0
 10
30.60678374795765
 20
22.23732944606063
 30
0.0
  0
SPLINE
  5
FF
330
1F
100
AcDbEntity
  8
Default - Tangent
100
AcDbSpline
210
0.0
220
0.0
230
1.0
 70
     8
 71
     3
 72
    39
 73
    35
 74
     0
 42
0.0000000001
 43
0.0000000001
 40
0.0
 40
0.0
 40
0.0
 40
0.0
 40
1.0
 40
2.0
 40
3.0
 40
4.0
 40
5.0
 40
6.0
 40
7.0
 40
8.0
 40
9.0
 40
10.0
 40
11.0
 40
12.0
 40
13.0
 40
14.0
 40
15.0
 40
16.0
 40
17.0
 40
18.0
 40
19.0
 40
20.0
 40
21.0
 40
22.0
 40
23.0
 40
24.0
 40
25.0
 40
26.0
 40
27.0
 40
28.0
 40
29.0
 40
30.0
 40
31.0
 40
32.0
 40
32.0
 40
32.0
 40
32.0
 10
30.60678374795765
 20
22.23732944606063
 30
0.0
 10
30.47693803520434
 20
22.61324395244004
 30
0.0
 10
29.52676328808298
 20
25.54550773799437
 30
0.0
 10
29.17996468053661
 20
26.68716099294448
 30
0.0
 10
28.85171144824454
 20
27.83428343249555
 30
0.0
 10
28.54208964408951
 20
28.98657564143795
 30
0.0
 10
28.25117999027333
 20
30.1437322102461
 30
0.0
 10
27.9790630689094
 20
31.30545231268019
 30
0.0
 10
27.726967593273
 20
32.47169635365098
 30
0.0
 10
27.4971987143611
 20
33.64252632449971
 30
0.0
 10
27.28915983729718
 20
34.8174930688229
 30
0.0
 10
27.10597103854849
 20
35.99631667860643
 30
0.0
 10
26.94984494591051
 20
37.18011708659766
 30
0.0
 10
26.83172949235006
 20
38.36449537702956
 30
0.0
 10
26.77812012314598
 20
39.56885291312608
 30
0.0
 10
26.7525064523731
 20
40.71615803417856
 30
0.0
 10
26.87862667112552
 20
42.08071829938356
 30
0.0
 10
28.22615661602566
 20
42.25717674363813
 30
0.0
 10
29.33740287507953
 20
41.68843729557707
 30
0.0
 10
29.73720748920562
 20
40.50540616911888
 30
0.0
 10
30.06268657233778
 20
39.37262537494456
 30
0.0
 10
30.36033638388039
 20
38.21299644620078
 30
0.0
 10
30.60415495967612
 20
37.04586222419691
 30
0.0
 10
30.82115516886267
 20
35.87235483456952
 30
0.0
 10
31.02389525461194
 20
34.69659851541516
 30
0.0
 10
31.2330913943739
 20
33.52209420970557
 30
0.0
 10
31.45187748076012
 20
32.34860647605014
 30
0.0
 10
31.76281565912376
 20
31.19599558398279
 30
0.0
 10
32.12322608219597
 20
30.0584198467871
 30
0.0
 10
32.53366813012815
 20
28.9377465266144
 30
0.0
 10
33.00069790271402
 20
27.83931662657029
 30
0.0
 10
33.52990025851091
 20
26.7695008144193
 30
0.0
 10
34.11567242661857
 20
25.72943285069643
 30
0.0
 10
35.38220420950796
 20
23.91859324978606
 30
0.0
 10
35.65322821131394
 20
23.62748618826976
 30
0.0
  0
SPLINE
  5
100
330
1F
100
AcDbEntity
  8
Default - Tangent
100
AcDbSpline
210
0.0
220
0.0
230
1.0
 70
    12
 71
     2
 72
     6
 73
     3
 74
     0
 42
0.0000000001
 43
0.0000000001
 40
-1.7050706110435
 40
-1.7050706110435
 40
-1.7050706110435
 40
0.0
 40
0.0
 40
0.0
 10
35.65322821131394
 20
23.62748618826976
 30
0.0
 41
1.0
 10
36.27062164050033
 20
22.90362766533692
 30
0.0
 41
0.9986606715136152
 10
36.92978232197163
 20
22.36175698452638
 30
0.0
 41
1.0
  0
SPLINE
  5
101
330
1F
100
AcDbEntity
  8
Default - Tangent
100
AcDbSpline
210
0.0
220
0.0
230
1.0
 70
     8
 71
     3
 72
    48
 73
    44
 74
     0
 42
0.0000000001
 43
0.0000000001
 40
-40.07509216108887
 40
-40.07509216108887
 40
-40.07509216108887
 40
-40.07509216108887
 40
-40.0
 40
-39.0
 40
-38.0
 40
-37.0
 40
-36.0
 40
-35.0
 40
-34.0
 40
-33.0
 40
-32.0
 40
-31.0
 40
-30.0
 40
-29.0
 40
-28.0
 40
-27.0
 40
-26.0
 40
-25.0
 40
-24.0
 40
-23.0
 40
-22.0
 40
-21.0
 40
-20.0
 40
-19.0
 40
-18.0
 40
-17.0
 40
-16.0
 40
-15.0
 40
-14.0
 40
-13.0
 40
-12.0
 40
-11.0
 40
-10.0
 40
-9.0
 40
-8.0
 40
-7.0
 40
-6.0
 40
-5.0
 40
-4.0
 40
-3.0
 40
-2.0
 40
-1.0
 40
0.0
 40
0.0
 40
0.0
 40
0.0
 10
36.92978232197163
 20
22.36175698452638
 30
0.0
 10
36.94452707269585
 20
22.34963589123622
 30
0.0
 10
37.15638240018308
 20
22.17700351498195
 30
0.0
 10
37.587205120872
 20
21.87018356479535
 30
0.0
 10
38.2753702741901
 20
21.53384081473553
 30
0.0
 10
39.0174851252379
 20
21.34541530892383
 30
0.0
 10
39.77377929158445
 20
21.2433823875263
 30
0.0
 10
40.53498558278051
 20
21.19356513082279
 30
0.0
 10
41.29634119044363
 20
21.15018039395946
 30
0.0
 10
42.05804725596658
 20
21.11222753094418
 30
0.0
 10
42.81952230138512
 20
21.07016792817917
 30
0.0
 10
43.58062778611338
 20
21.0217229911067
 30
0.0
 10
44.34124135416391
 20
20.96610551922119
 30
0.0
 10
45.10064107484709
 20
20.89494619430201
 30
0.0
 10
45.85754126987104
 20
20.80162686820726
 30
0.0
 10
46.61336502821325
 20
20.69828654635312
 30
0.0
 10
47.35977454868225
 20
20.53928395399767
 30
0.0
 10
48.09552876278701
 20
20.3374918924284
 30
0.0
 10
48.81922200480722
 20
20.09662761287878
 30
0.0
 10
49.53688030412445
 20
19.83767850703349
 30
0.0
 10
50.23108317151735
 20
19.52037034205937
 30
0.0
 10
50.9036609661548
 20
19.16034488227353
 30
0.0
 10
51.55785053346074
 20
18.76805953591838
 30
0.0
 10
52.2018957351911
 20
18.35963872019153
 30
0.0
 10
52.84208803561899
 20
17.94506108039455
 30
0.0
 10
53.46832950881048
 20
17.50970820526337
 30
0.0
 10
54.08154806299666
 20
17.05594445399181
 30
0.0
 10
54.67282610567577
 20
16.57426049846434
 30
0.0
 10
55.27127950816993
 20
16.10119709026792
 30
0.0
 10
55.83261629745573
 20
15.58372355608194
 30
0.0
 10
56.45421968719791
 20
15.13919218983511
 30
0.0
 10
57.12103786994953
 20
14.76694740145858
 30
0.0
 10
57.74053307945553
 20
14.32134295833765
 30
0.0
 10
58.57745666459067
 20
14.22220419076247
 30
0.0
 10
58.66032780524483
 20
13.25413382021082
 30
0.0
 10
57.9388444337863
 20
12.88544977667553
 30
0.0
 10
57.21590413130281
 20
12.6751604678599
 30
0.0
 10
56.49055945854792
 20
12.43084617630856
 30
0.0
 10
55.76313826792062
 20
12.20409076248117
 30
0.0
 10
55.03363342058884
 20
11.98109450804763
 30
0.0
 10
54.30212108991202
 20
11.76559070679529
 30
0.0
 10
53.5686697264951
 20
11.55655743008127
 30
0.0
 10
53.07834744712034
 20
11.42208920427306
 30
0.0
 10
52.83288039594038
 20
11.35598566072267
 30
0.0
  0
SPLINE
  5
102
330
1F
100
AcDbEntity
  8
Default - Tangent
100
AcDbSpline
210
0.0
220
0.0
230
1.0
 70
     8
 71
     3
 72
     8
 73
     4
 74
     0
 42
0.0000000001
 43
0.0000000001
 40
-3.0
 40
-3.0
 40
-3.0
 40
-3.0
 40
-2.713975909307337
 40
-2.713975909307337
 40
-2.713975909307337
 40
-2.713975909307337
 10
52.83288039594038
 20
11.35598566072267
 30
0.0
 10
52.63048656306978
 20
11.2996942359188
 30
0.0
 10
52.42775758041421
 20
11.24463602563293
 30
0.0
 10
52.22472192652401
 20
11.1907413958423
 30
0.0
  0
POLYLINE
  5
103
330
1F
100
AcDbEntity
  8
Default - Tangent
100
AcDb2dPolyline
 66
     1
 10
0.0
 20
0.0
 30
0.0
  0
VERTEX
  5
104
330
103
100
AcDbEntity
  8
Default - Tangent
100
AcDbVertex
100
AcDb2dVertex
 10
45.05927049485194
 20
9.959307127117375
 30
0.0
  0
VERTEX
  5
105
330
103
100
AcDbEntity
  8
Default - Tangent
100
AcDbVertex
100
AcDb2dVertex
 10
40.98629067419074
 20
9.964192418448874
 30
0.0
  0
SEQEND
  5
106
330
103
100
AcDbEntity
  8
Default - Tangent
  0
ENDSEC
  0
SECTION
  2
OBJECTS
  0
DICTIONARY
  5
C
330
0
100
AcDbDictionary
281
     1
  3
ACAD_GROUP
350
D
  3
ACAD_LAYOUT
350
1A
  3
ACAD_MLEADERSTYLE
350
108
  3
ACAD_MLINESTYLE
350
17
  3
ACAD_PLOTSETTINGS
350
19
  3
ACAD_PLOTSTYLENAME
350
E
  3
ACAD_TABLESTYLE
350
107
  3
ACAD_VISUALSTYLE
350
2A
  0
DICTIONARY
  5
D
102
{ACAD_REACTORS
330
C
102
}
330
C
100
AcDbDictionary
281
     1
  0
DICTIONARY
  5
1A
102
{ACAD_REACTORS
330
C
102
}
330
C
100
AcDbDictionary
281
     1
  3
Layout1
350
1E
  3
Layout2
350
26
  3
Model
350
22
  0
DICTIONARY
  5
108
102
{ACAD_REACTORS
330
C
102
}
330
C
100
AcDbDictionary
281
     1
  0
DICTIONARY
  5
17
102
{ACAD_REACTORS
330
C
102
}
330
C
100
AcDbDictionary
281
     1
  3
Standard
350
18
  0
DICTIONARY
  5
19
102
{ACAD_REACTORS
330
C
102
}
330
C
100
AcDbDictionary
281
     1
  0
ACDBDICTIONARYWDFLT
  5
E
102
{ACAD_REACTORS
330
C
102
}
330
C
100
AcDbDictionary
281
     1
  3
Normal
350
F
100
AcDbDictionaryWithDefault
340
F
  0
DICTIONARY
  5
107
102
{ACAD_REACTORS
330
C
102
}
330
C
100
AcDbDictionary
281
     1
  0
DICTIONARY
  5
2A
102
{ACAD_REACTORS
330
C
102
}
330
C
100
AcDbDictionary
281
     1
  3
2dWireframe
350
2F
  3
3D Hidden
350
31
  3
3dWireframe
350
30
  3
Basic
350
32
  3
Brighten
350
36
  3
ColorChange
350
3A
  3
Conceptual
350
34
  3
Dim
350
35
  3
Facepattern
350
39
  3
Flat
350
2B
  3
FlatWithEdges
350
2C
  3
Gouraud
350
2D
  3
GouraudWithEdges
350
2E
  3
Linepattern
350
38
  3
Realistic
350
33
  3
Thicken
350
37
  0
LAYOUT
  5
1E
102
{ACAD_REACTORS
330
1A
102
}
330
1A
100
AcDbPlotSettings
  1

  2
none_device
  4

  6

 40
0.0
 41
0.0
 42
0.0
 43
0.0
 44
0.0
 45
0.0
 46
0.0
 47
0.0
 48
0.0
 49
0.0
140
0.0
141
0.0
142
1.0
143
1.0
 70
   688
 72
     0
 73
     0
 74
     5
  7

 75
    16
 76
     0
 77
     2
 78
   300
147
1.0
148
0.0
149
0.0
100
AcDbLayout
  1
Layout1
 70
     1
 71
     1
 10
0.0
 20
0.0
 11
12.0
 21
9.0
 12
0.0
 22
0.0
 32
0.0
 14
1.000000000000000E+20
 24
1.000000000000000E+20
 34
1.000000000000000E+20
 15
-1.000000000000000E+20
 25
-1.000000000000000E+20
 35
-1.000000000000000E+20
146
0.0
 13
0.0
 23
0.0
 33
0.0
 16
1.0
 26
0.0
 36
0.0
 17
0.0
 27
1.0
 37
0.0
 76
     0
330
1B
  0
LAYOUT
  5
26
102
{ACAD_REACTORS
330
1A
102
}
330
1A
100
AcDbPlotSettings
  1

  2
none_device
  4

  6

 40
0.0
 41
0.0
 42
0.0
 43
0.0
 44
0.0
 45
0.0
 46
0.0
 47
0.0
 48
0.0
 49
0.0
140
0.0
141
0.0
142
1.0
143
1.0
 70
   688
 72
     0
 73
     0
 74
     5
  7

 75
    16
 76
     0
 77
     2
 78
   300
147
1.0
148
0.0
149
0.0
100
AcDbLayout
  1
Layout2
 70
     1
 71
     2
 10
0.0
 20
0.0
 11
0.0
 21
0.0
 12
0.0
 22
0.0
 32
0.0
 14
0.0
 24
0.0
 34
0.0
 15
0.0
 25
0.0
 35
0.0
146
0.0
 13
0.0
 23
0.0
 33
0.0
 16
1.0
 26
0.0
 36
0.0
 17
0.0
 27
1.0
 37
0.0
 76
     0
330
23
  0
LAYOUT
  5
22
102
{ACAD_REACTORS
330
1A
102
}
330
1A
100
AcDbPlotSettings
  1

  2
none_device
  4

  6

 40
0.0
 41
0.0
 42
0.0
 43
0.0
 44
0.0
 45
0.0
 46
0.0
 47
0.0
 48
0.0
 49
0.0
140
0.0
141
0.0
142
1.0
143
1.0
 70
  1712
 72
     0
 73
     0
 74
     0
  7

 75
     0
 76
     0
 77
     2
 78
   300
147
1.0
148
0.0
149
0.0
100
AcDbLayout
  1
Model
 70
     1
 71
     0
 10
0.0
 20
0.0
 11
12.0
 21
9.0
 12
0.0
 22
0.0
 32
0.0
 14
-15.01184679216672
 24
0.0
 34
0.0
 15
58.58642542332205
 25
81.34658580922898
 35
0.0
146
0.0
 13
0.0
 23
0.0
 33
0.0
 16
1.0
 26
0.0
 36
0.0
 17
0.0
 27
1.0
 37
0.0
 76
     0
330
1F
331
29
  0
MLINESTYLE
  5
18
102
{ACAD_REACTORS
330
17
102
}
330
17
100
AcDbMlineStyle
  2
Standard
 70
     0
  3

 62
   256
 51
90.0
 52
90.0
 71
     2
 49
0.5
 62
   256
  6
BYLAYER
 49
-0.5
 62
   256
  6
BYLAYER
  0
ACDBPLACEHOLDER
  5
F
102
{ACAD_REACTORS
330
E
102
}
330
E
  0
VISUALSTYLE
  5
2F
102
{ACAD_REACTORS
330
2A
102
}
330
2A
100
AcDbVisualStyle
  2
2dWireframe
 70
     4
 71
     0
 72
     2
 73
     0
 90
        0
 40
-0.6
 41
-30.0
 62
     5
 63
     7
421
 16777215
 74
     1
 91
        4
 64
     7
 65
   257
 75
     1
175
     1
 42
1.0
 92
        0
 66
   257
 43
1.0
 76
     1
 77
     6
 78
     2
 67
     7
 79
     5
170
     0
171
     0
290
     0
174
     0
 93
        1
 44
0.0
173
     0
291
     0
 45
0.0
1001
ACAD
1000
AcDbSavedByObjectVersion
1070
     0
  0
VISUALSTYLE
  5
31
102
{ACAD_REACTORS
330
2A
102
}
330
2A
100
AcDbVisualStyle
  2
3D Hidden
 70
     6
 71
     1
 72
     2
 73
     2
 90
        0
 40
-0.6
 41
-30.0
 62
     5
 63
     7
421
 16777215
 74
     2
 91
        2
 64
     7
 65
   257
 75
     2
175
     1
 42
40.0
 92
        0
 66
   257
 43
1.0
 76
     1
 77
     6
 78
     2
 67
     7
 79
     3
170
     0
171
     0
290
     0
174
     0
 93
        1
 44
0.0
173
     0
291
     0
 45
0.0
1001
ACAD
1000
AcDbSavedByObjectVersion
1070
     0
  0
VISUALSTYLE
  5
30
102
{ACAD_REACTORS
330
2A
102
}
330
2A
100
AcDbVisualStyle
  2
3dWireframe
 70
     5
 71
     0
 72
     2
 73
     0
 90
        0
 40
-0.6
 41
-30.0
 62
     5
 63
     7
421
 16777215
 74
     1
 91
        4
 64
     7
 65
   257
 75
     1
175
     1
 42
1.0
 92
        0
 66
   257
 43
1.0
 76
     1
 77
     6
 78
     2
 67
     7
 79
     5
170
     0
171
     0
290
     0
174
     0
 93
        1
 44
0.0
173
     0
291
     0
 45
0.0
1001
ACAD
1000
AcDbSavedByObjectVersion
1070
     0
  0
VISUALSTYLE
  5
32
102
{ACAD_REACTORS
330
2A
102
}
330
2A
100
AcDbVisualStyle
  2
Basic
 70
     7
 71
     1
 72
     0
 73
     1
 90
        0
 40
-0.6
 41
-30.0
 62
     5
 63
     7
421
 16777215
 74
     0
 91
        4
 64
     7
 65
   257
 75
     1
175
     1
 42
1.0
 92
        8
 66
     7
 43
1.0
 76
     1
 77
     6
 78
     2
 67
     7
 79
     5
170
     0
171
     0
290
     0
174
     0
 93
        1
 44
0.0
173
     0
291
     1
 45
0.0
1001
ACAD
1000
AcDbSavedByObjectVersion
1070
     0
  0
VISUALSTYLE
  5
36
102
{ACAD_REACTORS
330
2A
102
}
330
2A
100
AcDbVisualStyle
  2
Brighten
 70
    12
 71
     2
 72
     2
 73
     0
 90
        0
 40
-0.6
 41
-30.0
 62
     5
 63
     7
421
 16777215
 74
     1
 91
        4
 64
     7
 65
   257
 75
     1
175
     1
 42
1.0
 92
        8
 66
     7
 43
1.0
 76
     1
 77
     6
 78
     2
 67
     7
 79
     5
170
     0
171
     0
290
     0
174
     0
 93
        1
 44
50.0
173
     0
291
     1
 45
0.0
1001
ACAD
1000
AcDbSavedByObjectVersion
1070
     0
  0
VISUALSTYLE
  5
3A
102
{ACAD_REACTORS
330
2A
102
}
330
2A
100
AcDbVisualStyle
  2
ColorChange
 70
    16
 71
     2
 72
     2
 73
     3
 90
        0
 40
-0.6
 41
-30.0
 62
     5
 63
     8
421
  8421504
 74
     1
 91
        4
 64
     7
 65
   257
 75
     1
175
     1
 42
1.0
 92
        8
 66
     8
424
  8421504
 43
1.0
 76
     1
 77
     6
 78
     2
 67
     7
 79
     5
170
     0
171
     0
290
     0
174
     0
 93
        1
 44
0.0
173
     0
291
     1
 45
0.0
1001
ACAD
1000
AcDbSavedByObjectVersion
1070
     0
  0
VISUALSTYLE
  5
34
102
{ACAD_REACTORS
330
2A
102
}
330
2A
100
AcDbVisualStyle
  2
Conceptual
 70
     9
 71
     3
 72
     2
 73
     0
 90
        0
 40
-0.6
 41
-30.0
 62
     5
 63
     7
421
 16777215
 74
     2
 91
        2
 64
     7
 65
   257
 75
     1
175
     1
 42
40.0
 92
        8
 66
     7
 43
1.0
 76
     1
 77
     6
 78
     2
 67
     7
 79
     3
170
     0
171
     0
290
     0
174
     0
 93
        1
 44
0.0
173
     0
291
     0
 45
0.0
1001
ACAD
1000
AcDbSavedByObjectVersion
1070
     0
  0
VISUALSTYLE
  5
35
102
{ACAD_REACTORS
330
2A
102
}
330
2A
100
AcDbVisualStyle
  2
Dim
 70
    11
 71
     2
 72
     2
 73
     0
 90
        0
 40
-0.6
 41
-30.0
 62
     5
 63
     7
421
 16777215
 74
     1
 91
        4
 64
     7
 65
   257
 75
     1
175
     1
 42
1.0
 92
        8
 66
     7
 43
1.0
 76
     1
 77
     6
 78
     2
 67
     7
 79
     5
170
     0
171
     0
290
     0
174
     0
 93
        1
 44
-50.0
173
     0
291
     1
 45
0.0
1001
ACAD
1000
AcDbSavedByObjectVersion
1070
     0
  0
VISUALSTYLE
  5
39
102
{ACAD_REACTORS
330
2A
102
}
330
2A
100
AcDbVisualStyle
  2
Facepattern
 70
    15
 71
     2
 72
     2
 73
     0
 90
        0
 40
-0.6
 41
-30.0
 62
     5
 63
     7
421
 16777215
 74
     1
 91
        4
 64
     7
 65
   257
 75
     1
175
     1
 42
1.0
 92
        8
 66
     7
 43
1.0
 76
     1
 77
     6
 78
     2
 67
     7
 79
     5
170
     0
171
     0
290
     0
174
     0
 93
        1
 44
0.0
173
     0
291
     1
 45
0.0
1001
ACAD
1000
AcDbSavedByObjectVersion
1070
     0
  0
VISUALSTYLE
  5
2B
102
{ACAD_REACTORS
330
2A
102
}
330
2A
100
AcDbVisualStyle
  2
Flat
 70
     0
 71
     2
 72
     1
 73
     1
 90
        2
 40
-0.6
 41
30.0
 62
     5
 63
     7
421
 16777215
 74
     0
 91
        4
 64
     7
 65
   257
 75
     1
175
     1
 42
1.0
 92
        8
 66
     7
 43
1.0
 76
     1
 77
     6
 78
     2
 67
     7
 79
     5
170
     0
171
     0
290
     0
174
     0
 93
       13
 44
0.0
173
     0
291
     1
 45
0.0
1001
ACAD
1000
AcDbSavedByObjectVersion
1070
     0
  0
VISUALSTYLE
  5
2C
102
{ACAD_REACTORS
330
2A
102
}
330
2A
100
AcDbVisualStyle
  2
FlatWithEdges
 70
     1
 71
     2
 72
     1
 73
     1
 90
        2
 40
-0.6
 41
30.0
 62
     5
 63
     7
421
 16777215
 74
     1
 91
        4
 64
     7
 65
   257
 75
     1
175
     1
 42
1.0
 92
        0
 66
   257
 43
1.0
 76
     1
 77
     6
 78
     2
 67
     7
 79
     5
170
     0
171
     0
290
     0
174
     0
 93
       13
 44
0.0
173
     0
291
     1
 45
0.0
1001
ACAD
1000
AcDbSavedByObjectVersion
1070
     0
  0
VISUALSTYLE
  5
2D
102
{ACAD_REACTORS
330
2A
102
}
330
2A
100
AcDbVisualStyle
  2
Gouraud
 70
     2
 71
     2
 72
     2
 73
     1
 90
        2
 40
-0.6
 41
30.0
 62
     5
 63
     7
421
 16777215
 74
     0
 91
        4
 64
     7
 65
   257
 75
     1
175
     1
 42
1.0
 92
        0
 66
     7
 43
1.0
 76
     1
 77
     6
 78
     2
 67
     7
 79
     5
170
     0
171
     0
290
     0
174
     0
 93
       13
 44
0.0
173
     0
291
     1
 45
0.0
1001
ACAD
1000
AcDbSavedByObjectVersion
1070
     0
  0
VISUALSTYLE
  5
2E
102
{ACAD_REACTORS
330
2A
102
}
330
2A
100
AcDbVisualStyle
  2
GouraudWithEdges
 70
     3
 71
     2
 72
     2
 73
     1
 90
        2
 40
-0.6
 41
30.0
 62
     5
 63
     7
421
 16777215
 74
     1
 91
        4
 64
     7
 65
   257
 75
     1
175
     1
 42
1.0
 92
        0
 66
   257
 43
1.0
 76
     1
 77
     6
 78
     2
 67
     7
 79
     5
170
     0
171
     0
290
     0
174
     0
 93
       13
 44
0.0
173
     0
291
     1
 45
0.0
1001
ACAD
1000
AcDbSavedByObjectVersion
1070
     0
  0
VISUALSTYLE
  5
38
102
{ACAD_REACTORS
330
2A
102
}
330
2A
100
AcDbVisualStyle
  2
Linepattern
 70
    14
 71
     2
 72
     2
 73
     0
 90
        0
 40
-0.6
 41
-30.0
 62
     5
 63
     7
421
 16777215
 74
     1
 91
        4
 64
     7
 65
   257
 75
     7
175
     7
 42
1.0
 92
        8
 66
     7
 43
1.0
 76
     1
 77
     6
 78
     2
 67
     7
 79
     5
170
     0
171
     0
290
     0
174
     0
 93
        1
 44
0.0
173
     0
291
     1
 45
0.0
1001
ACAD
1000
AcDbSavedByObjectVersion
1070
     0
  0
VISUALSTYLE
  5
33
102
{ACAD_REACTORS
330
2A
102
}
330
2A
100
AcDbVisualStyle
  2
Realistic
 70
     8
 71
     2
 72
     2
 73
     0
 90
        0
 40
-0.6
 41
-30.0
 62
     5
 63
     7
421
 16777215
 74
     1
 91
        0
 64
     7
 65
   257
 75
     1
175
     1
 42
1.0
 92
        8
 66
     8
424
  7895160
 43
1.0
 76
     1
 77
     6
 78
     2
 67
     7
 79
     5
170
     0
171
     0
290
     0
174
     0
 93
       13
 44
0.0
173
     0
291
     0
 45
0.0
1001
ACAD
1000
AcDbSavedByObjectVersion
1070
     0
  0
VISUALSTYLE
  5
37
102
{ACAD_REACTORS
330
2A
102
}
330
2A
100
AcDbVisualStyle
  2
Thicken
 70
    13
 71
     2
 72
     2
 73
     0
 90
        0
 40
-0.6
 41
-30.0
 62
     5
 63
     7
421
 16777215
 74
     1
 91
        4
 64
     7
 65
   257
 75
     1
175
     1
 42
1.0
 92
       12
 66
     7
 43
1.0
 76
     1
 77
     6
 78
     2
 67
     7
 79
     5
170
     0
171
     0
290
     0
174
     0
 93
        1
 44
0.0
173
     0
291
     1
 45
0.0
1001
ACAD
1000
AcDbSavedByObjectVersion
1070
     0
  0
ENDSEC
  0
EOF
