  0
SECTION
  2
HEADER
  9
$ACADVER
  1
AC1018
  9
$ACADMAINTVER
 70
     0
  9
$DWGCODEPAGE
  3
ANSI_1252
  9
$INSBASE
 10
0.0
 20
0.0
 30
0.0
  9
$EXTMIN
 10
-15.0118467921667
 20
0.0000000000000009
 30
0.0
  9
$EXTMAX
 10
56.05099917070892
 20
81.34658580922898
 30
0.0
  9
$LIMMIN
 10
0.0
 20
0.0
  9
$LIMMAX
 10
12.0
 20
9.0
  9
$ORTHOMODE
 70
     0
  9
$REGENMODE
 70
     1
  9
$FILLMODE
 70
     1
  9
$QTEXTMODE
 70
     0
  9
$MIRRTEXT
 70
     1
  9
$LTSCALE
 40
0.0393700787401575
  9
$ATTMODE
 70
     1
  9
$TEXTSIZE
 40
0.2
  9
$TRACEWID
 40
0.05
  9
$TEXTSTYLE
  7
Standard
  9
$CLAYER
  8
Default
  9
$CELTYPE
  6
ByLayer
  9
$CECOLOR
 62
   256
  9
$CELTSCALE
 40
1.0
  9
$DISPSILH
 70
     0
  9
$DIMSCALE
 40
1.0
  9
$DIMASZ
 40
0.18
  9
$DIMEXO
 40
0.0625
  9
$DIMDLI
 40
0.38
  9
$DIMRND
 40
0.0
  9
$DIMDLE
 40
0.0
  9
$DIMEXE
 40
0.18
  9
$DIMTP
 40
0.0
  9
$DIMTM
 40
0.0
  9
$DIMTXT
 40
0.18
  9
$DIMCEN
 40
0.09
  9
$DIMTSZ
 40
0.0
  9
$DIMTOL
 70
     0
  9
$DIMLIM
 70
     0
  9
$DIMTIH
 70
     1
  9
$DIMTOH
 70
     1
  9
$DIMSE1
 70
     0
  9
$DIMSE2
 70
     0
  9
$DIMTAD
 70
     0
  9
$DIMZIN
 70
     0
  9
$DIMBLK
  1

  9
$DIMASO
 70
     1
  9
$DIMSHO
 70
     1
  9
$DIMPOST
  1

  9
$DIMAPOST
  1

  9
$DIMALT
 70
     0
  9
$DIMALTD
 70
     2
  9
$DIMALTF
 40
25.4
  9
$DIMLFAC
 40
1.0
  9
$DIMTOFL
 70
     0
  9
$DIMTVP
 40
0.0
  9
$DIMTIX
 70
     0
  9
$DIMSOXD
 70
     0
  9
$DIMSAH
 70
     0
  9
$DIMBLK1
  1

  9
$DIMBLK2
  1

  9
$DIMSTYLE
  2
Standard
  9
$DIMCLRD
 70
     0
  9
$DIMCLRE
 70
     0
  9
$DIMCLRT
 70
     0
  9
$DIMTFAC
 40
1.0
  9
$DIMGAP
 40
0.09
  9
$DIMJUST
 70
     0
  9
$DIMSD1
 70
     0
  9
$DIMSD2
 70
     0
  9
$DIMTOLJ
 70
     1
  9
$DIMTZIN
 70
     0
  9
$DIMALTZ
 70
     0
  9
$DIMALTTZ
 70
     0
  9
$DIMUPT
 70
     0
  9
$DIMDEC
 70
     4
  9
$DIMTDEC
 70
     4
  9
$DIMALTU
 70
     2
  9
$DIMALTTD
 70
     2
  9
$DIMTXSTY
  7
Standard
  9
$DIMAUNIT
 70
     0
  9
$DIMADEC
 70
     0
  9
$DIMALTRND
 40
0.0
  9
$DIMAZIN
 70
     0
  9
$DIMDSEP
 70
    46
  9
$DIMATFIT
 70
     3
  9
$DIMFRAC
 70
     0
  9
$DIMLDRBLK
  1

  9
$DIMLUNIT
 70
     2
  9
$DIMLWD
 70
    -2
  9
$DIMLWE
 70
    -2
  9
$DIMTMOVE
 70
     2
  9
$LUNITS
 70
     2
  9
$LUPREC
 70
     3
  9
$SKETCHINC
 40
0.1
  9
$FILLETRAD
 40
0.5
  9
$AUNITS
 70
     0
  9
$AUPREC
 70
     0
  9
$MENU
  1
.
  9
$ELEVATION
 40
0.0
  9
$PELEVATION
 40
0.0
  9
$THICKNESS
 40
0.0
  9
$LIMCHECK
 70
     0
  9
$CHAMFERA
 40
0.5
  9
$CHAMFERB
 40
0.5
  9
$CHAMFERC
 40
1.0
  9
$CHAMFERD
 40
0.0
  9
$SKPOLY
 70
     0
  9
$TDCREATE
 40
2457528.362593206
  9
$TDUCREATE
 40
2457528.529259873
  9
$TDUPDATE
 40
2457528.362593218
  9
$TDUUPDATE
 40
2457528.529259884
  9
$TDINDWG
 40
0.0000000116
  9
$TDUSRTIMER
 40
0.0000000116
  9
$USRTIMER
 70
     1
  9
$ANGBASE
 50
0.0
  9
$ANGDIR
 70
     0
  9
$PDMODE
 70
     0
  9
$PDSIZE
 40
0.0
  9
$PLINEWID
 40
0.0
  9
$SPLFRAME
 70
     0
  9
$SPLINETYPE
 70
     6
  9
$SPLINESEGS
 70
     8
  9
$HANDSEED
  5
102
  9
$SURFTAB1
 70
     6
  9
$SURFTAB2
 70
     6
  9
$SURFTYPE
 70
     6
  9
$SURFU
 70
     6
  9
$SURFV
 70
     6
  9
$UCSBASE
  2

  9
$UCSNAME
  2

  9
$UCSORG
 10
0.0
 20
0.0
 30
0.0
  9
$UCSXDIR
 10
1.0
 20
0.0
 30
0.0
  9
$UCSYDIR
 10
0.0
 20
1.0
 30
0.0
  9
$UCSORTHOREF
  2

  9
$UCSORTHOVIEW
 70
     0
  9
$UCSORGTOP
 10
0.0
 20
0.0
 30
0.0
  9
$UCSORGBOTTOM
 10
0.0
 20
0.0
 30
0.0
  9
$UCSORGLEFT
 10
0.0
 20
0.0
 30
0.0
  9
$UCSORGRIGHT
 10
0.0
 20
0.0
 30
0.0
  9
$UCSORGFRONT
 10
0.0
 20
0.0
 30
0.0
  9
$UCSORGBACK
 10
0.0
 20
0.0
 30
0.0
  9
$PUCSBASE
  2

  9
$PUCSNAME
  2

  9
$PUCSORG
 10
0.0
 20
0.0
 30
0.0
  9
$PUCSXDIR
 10
1.0
 20
0.0
 30
0.0
  9
$PUCSYDIR
 10
0.0
 20
1.0
 30
0.0
  9
$PUCSORTHOREF
  2

  9
$PUCSORTHOVIEW
 70
     0
  9
$PUCSORGTOP
 10
0.0
 20
0.0
 30
0.0
  9
$PUCSORGBOTTOM
 10
0.0
 20
0.0
 30
0.0
  9
$PUCSORGLEFT
 10
0.0
 20
0.0
 30
0.0
  9
$PUCSORGRIGHT
 10
0.0
 20
0.0
 30
0.0
  9
$PUCSORGFRONT
 10
0.0
 20
0.0
 30
0.0
  9
$PUCSORGBACK
 10
0.0
 20
0.0
 30
0.0
  9
$USERI1
 70
     0
  9
$USERI2
 70
     0
  9
$USERI3
 70
     0
  9
$USERI4
 70
     0
  9
$USERI5
 70
     0
  9
$USERR1
 40
0.0
  9
$USERR2
 40
0.0
  9
$USERR3
 40
0.0
  9
$USERR4
 40
0.0
  9
$USERR5
 40
0.0
  9
$WORLDVIEW
 70
     1
  9
$SHADEDGE
 70
     3
  9
$SHADEDIF
 70
    70
  9
$TILEMODE
 70
     1
  9
$MAXACTVP
 70
    64
  9
$PINSBASE
 10
0.0
 20
0.0
 30
0.0
  9
$PLIMCHECK
 70
     0
  9
$PEXTMIN
 10
1.000000000000000E+20
 20
1.000000000000000E+20
 30
1.000000000000000E+20
  9
$PEXTMAX
 10
-1.000000000000000E+20
 20
-1.000000000000000E+20
 30
-1.000000000000000E+20
  9
$PLIMMIN
 10
0.0
 20
0.0
  9
$PLIMMAX
 10
12.0
 20
9.0
  9
$UNITMODE
 70
     0
  9
$VISRETAIN
 70
     1
  9
$PLINEGEN
 70
     0
  9
$PSLTSCALE
 70
     1
  9
$TREEDEPTH
 70
  3020
  9
$CMLSTYLE
  2
Standard
  9
$CMLJUST
 70
     0
  9
$CMLSCALE
 40
1.0
  9
$PROXYGRAPHICS
 70
     1
  9
$MEASUREMENT
 70
     0
  9
$CELWEIGHT
370
    -1
  9
$ENDCAPS
280
     0
  9
$JOINSTYLE
280
     0
  9
$LWDISPLAY
290
     0
  9
$INSUNITS
 70
     1
  9
$HYPERLINKBASE
  1

  9
$STYLESHEET
  1

  9
$XEDIT
290
     1
  9
$CEPSNTYPE
380
     0
  9
$PSTYLEMODE
290
     1
  9
$FINGERPRINTGUID
  2
{EEA07D16-264A-4FC0-ADD2-D257DB500130}
  9
$VERSIONGUID
  2
{FAEB1C32-E019-11D5-929B-00C0DF256EC4}
  9
$EXTNAMES
290
     1
  9
$PSVPSCALE
 40
0.0
  9
$OLESTARTUP
290
     0
  9
$SORTENTS
280
   127
  9
$INDEXCTL
280
     0
  9
$HIDETEXT
280
     1
  9
$XCLIPFRAME
290
     0
  9
$HALOGAP
280
     0
  9
$OBSCOLOR
 70
   257
  9
$OBSLTYPE
280
     0
  9
$INTERSECTIONDISPLAY
280
     0
  9
$INTERSECTIONCOLOR
 70
   257
  9
$DIMASSOC
280
     2
  9
$PROJECTNAME
  1

  0
ENDSEC
  0
SECTION
  2
CLASSES
  0
CLASS
  1
ACDBDICTIONARYWDFLT
  2
AcDbDictionaryWithDefault
  3
ObjectDBX Classes
 90
        0
 91
        4
280
     0
281
     0
  0
CLASS
  1
VISUALSTYLE
  2
AcDbVisualStyle
  3
ObjectDBX Classes
 90
     4095
 91
        4
280
     0
281
     0
  0
ENDSEC
  0
SECTION
  2
TABLES
  0
TABLE
  2
VPORT
  5
8
330
0
100
AcDbSymbolTable
 70
     1
  0
VPORT
  5
29
330
8
100
AcDbSymbolTableRecord
100
AcDbViewportTableRecord
  2
*Active
 70
     0
 10
0.0
 20
0.0
 11
1.0
 21
1.0
 12
20.51957618927111
 22
40.67329290461449
 13
0.0
 23
0.0
 14
0.5
 24
0.5
 15
0.5
 25
0.5
 16
0.0
 26
0.0
 36
1.0
 17
0.0
 27
0.0
 37
0.0
 40
82.97351752541357
 41
0.873581174378106
 42
50.0
 43
0.0
 44
0.0
 50
0.0
 51
0.0
 71
     0
 72
   100
 73
     1
 74
     3
 75
     0
 76
     0
 77
     0
 78
     0
281
     0
 65
     1
110
0.0
120
0.0
130
0.0
111
1.0
121
0.0
131
0.0
112
0.0
122
1.0
132
0.0
 79
     0
146
0.0
  0
ENDTAB
  0
TABLE
  2
LTYPE
  5
5
330
0
100
AcDbSymbolTable
 70
     1
  0
LTYPE
  5
14
330
5
100
AcDbSymbolTableRecord
100
AcDbLinetypeTableRecord
  2
ByBlock
 70
     0
  3

 72
    65
 73
     0
 40
0.0
  0
LTYPE
  5
15
330
5
100
AcDbSymbolTableRecord
100
AcDbLinetypeTableRecord
  2
ByLayer
 70
     0
  3

 72
    65
 73
     0
 40
0.0
  0
LTYPE
  5
16
330
5
100
AcDbSymbolTableRecord
100
AcDbLinetypeTableRecord
  2
Continuous
 70
     0
  3
Solid line
 72
    65
 73
     0
 40
0.0
  0
ENDTAB
  0
TABLE
  2
LAYER
  5
2
330
0
100
AcDbSymbolTable
 70
     3
  0
LAYER
  5
10
330
2
100
AcDbSymbolTableRecord
100
AcDbLayerTableRecord
  2
0
 70
     0
 62
     7
  6
Continuous
370
    -3
390
F
  0
LAYER
  5
3B
330
2
100
AcDbSymbolTableRecord
100
AcDbLayerTableRecord
  2
Default
 70
     0
 62
     7
  6
Continuous
370
    -3
390
F
  0
LAYER
  5
40
330
2
100
AcDbSymbolTableRecord
100
AcDbLayerTableRecord
  2
Default - Tangent
 70
     0
 62
     7
  6
Continuous
370
    -3
390
F
  0
ENDTAB
  0
TABLE
  2
STYLE
  5
3
330
0
100
AcDbSymbolTable
 70
     1
  0
STYLE
  5
11
330
3
100
AcDbSymbolTableRecord
100
AcDbTextStyleTableRecord
  2
Standard
 70
     0
 40
0.0
 41
1.0
 50
0.0
 71
     0
 42
0.2
  3
txt
  4

  0
ENDTAB
  0
TABLE
  2
VIEW
  5
6
330
0
100
AcDbSymbolTable
 70
     0
  0
ENDTAB
  0
TABLE
  2
UCS
  5
7
330
0
100
AcDbSymbolTable
 70
     0
  0
ENDTAB
  0
TABLE
  2
APPID
  5
9
330
0
100
AcDbSymbolTable
 70
     1
  0
APPID
  5
12
330
9
100
AcDbSymbolTableRecord
100
AcDbRegAppTableRecord
  2
ACAD
 70
     0
  0
ENDTAB
  0
TABLE
  2
DIMSTYLE
  5
A
330
0
100
AcDbSymbolTable
 70
     1
100
AcDbDimStyleTable
  0
DIMSTYLE
105
27
330
A
100
AcDbSymbolTableRecord
100
AcDbDimStyleTableRecord
  2
Standard
 70
     0
340
11
  0
ENDTAB
  0
TABLE
  2
BLOCK_RECORD
  5
1
330
0
100
AcDbSymbolTable
 70
     1
  0
BLOCK_RECORD
  5
1F
330
1
100
AcDbSymbolTableRecord
100
AcDbBlockTableRecord
  2
*Model_Space
340
22
  0
BLOCK_RECORD
  5
1B
330
1
100
AcDbSymbolTableRecord
100
AcDbBlockTableRecord
  2
*Paper_Space
340
1E
  0
BLOCK_RECORD
  5
23
330
1
100
AcDbSymbolTableRecord
100
AcDbBlockTableRecord
  2
*Paper_Space0
340
26
  0
ENDTAB
  0
ENDSEC
  0
SECTION
  2
BLOCKS
  0
BLOCK
  5
20
330
1F
100
AcDbEntity
  8
0
100
AcDbBlockBegin
  2
*Model_Space
 70
     0
 10
0.0
 20
0.0
 30
0.0
  3
*Model_Space
  1

  0
ENDBLK
  5
21
330
1F
100
AcDbEntity
  8
0
100
AcDbBlockEnd
  0
BLOCK
  5
1C
330
1B
100
AcDbEntity
 67
     1
  8
0
100
AcDbBlockBegin
  2
*Paper_Space
 70
     0
 10
0.0
 20
0.0
 30
0.0
  3
*Paper_Space
  1

  0
ENDBLK
  5
1D
330
1B
100
AcDbEntity
 67
     1
  8
0
100
AcDbBlockEnd
  0
BLOCK
  5
24
330
23
100
AcDbEntity
  8
0
100
AcDbBlockBegin
  2
*Paper_Space0
 70
     0
 10
0.0
 20
0.0
 30
0.0
  3
*Paper_Space0
  1

  0
ENDBLK
  5
25
330
23
100
AcDbEntity
  8
0
100
AcDbBlockEnd
  0
ENDSEC
  0
SECTION
  2
ENTITIES
  0
SPLINE
  5
3C
330
1F
100
AcDbEntity
  8
Default
100
AcDbSpline
210
0.0
220
0.0
230
1.0
 70
     8
 71
     3
 72
    47
 73
    43
 74
     0
 42
0.0000000001
 43
0.0000000001
 40
-3.0
 40
-2.0
 40
-1.0
 40
0.0
 40
1.0
 40
2.0
 40
3.0
 40
4.0
 40
5.0
 40
6.0
 40
7.0
 40
8.0
 40
9.0
 40
10.0
 40
11.0
 40
12.0
 40
13.0
 40
14.0
 40
15.0
 40
16.0
 40
17.0
 40
18.0
 40
19.0
 40
20.0
 40
21.0
 40
22.0
 40
23.0
 40
24.0
 40
25.0
 40
26.0
 40
27.0
 40
28.0
 40
29.0
 40
30.0
 40
31.0
 40
32.0
 40
33.0
 40
34.0
 40
35.0
 40
36.0
 40
37.0
 40
38.0
 40
39.0
 40
40.0
 40
41.0
 40
42.0
 40
43.0
 10
-1.572419278660433
 20
69.58426741189398
 30
0.0
 10
0.0000028257865239
 20
69.59958822254958
 30
0.0
 10
1.5724233276364
 20
69.58426741099254
 30
0.0
 10
3.144486949588625
 20
69.51737851626888
 30
0.0
 10
4.703645604240776
 20
69.29852796146099
 30
0.0
 10
6.221082135337397
 20
68.85271267037206
 30
0.0
 10
7.56382262360593
 20
67.98999633948095
 30
0.0
 10
8.471735513430431
 20
66.65671119310144
 30
0.0
 10
8.743370537808758
 20
65.09125521604241
 30
0.0
 10
8.92591423711663
 20
63.53300235896319
 30
0.0
 10
9.009767914917418
 20
61.96096390155157
 30
0.0
 10
9.019719159138688
 20
60.38834232178976
 30
0.0
 10
8.96496280990472
 20
58.81676377864083
 30
0.0
 10
8.866905219886817
 20
57.24646834191091
 30
0.0
 10
8.68823038831546
 20
55.68562557462494
 30
0.0
 10
8.378865770292308
 20
54.13321816605823
 30
0.0
 10
7.542961466772809
 20
52.75514885215023
 30
0.0
 10
6.143632851564249
 20
51.96365455233595
 30
0.0
 10
4.683260055523604
 20
51.38929555849583
 30
0.0
 10
3.13293709135236
 20
51.08937321525774
 30
0.0
 10
1.572105418689333
 20
50.90311278142028
 30
0.0
 10
0.0000026492796366
 20
50.81908888908195
 30
0.0
 10
-1.572100663685816
 20
50.9031128058118
 30
0.0
 10
-3.132930824577826
 20
51.08937312837394
 30
0.0
 10
-4.68325393250602
 20
51.38929507626933
 30
0.0
 10
-6.143629361307475
 20
51.96365555010252
 30
0.0
 10
-7.542954998391039
 20
52.75514741619855
 30
0.0
 10
-8.378861590209894
 20
54.13322032705921
 30
0.0
 10
-8.688224795706944
 20
55.68562359992882
 30
0.0
 10
-8.866900214380323
 20
57.24646887090724
 30
0.0
 10
-8.964957589829098
 20
58.81676218713275
 30
0.0
 10
-9.0197140569271
 20
60.38834270706006
 30
0.0
 10
-9.00976282182863
 20
61.96096249167668
 30
0.0
 10
-8.925909144478553
 20
63.533002801085
 30
0.0
 10
-8.743365231645768
 20
65.0912556384906
 30
0.0
 10
-8.471731009369918
 20
66.6567098363788
 30
0.0
 10
-7.56381709540436
 20
67.98999684382358
 30
0.0
 10
-6.221077854382699
 20
68.85271219781728
 30
0.0
 10
-4.703640469285276
 20
69.29852802349723
 30
0.0
 10
-3.144482588708897
 20
69.51737840749006
 30
0.0
 10
-1.572419278660433
 20
69.58426741189398
 30
0.0
 10
0.0000028257865239
 20
69.59958822254958
 30
0.0
 10
1.5724233276364
 20
69.58426741099254
 30
0.0
  0
SPLINE
  5
3D
330
1F
100
AcDbEntity
  8
Default
100
AcDbSpline
210
0.0
220
0.0
230
1.0
 70
     8
 71
     3
 72
    12
 73
     8
 74
     0
 42
0.0000000001
 43
0.0000000001
 40
0.0
 40
0.0
 40
0.0
 40
0.0
 40
1.0
 40
2.0
 40
3.0
 40
4.0
 40
5.0
 40
5.0
 40
5.0
 40
5.0
 10
-8.827897733906283
 20
53.49608705278507
 30
0.0
 10
-9.67597551709217
 20
54.15861576274166
 30
0.0
 10
-11.16814950322258
 20
55.74093908895053
 30
0.0
 10
-12.65994861221127
 20
58.63324052679553
 30
0.0
 10
-13.50031431070117
 20
61.76477852817717
 30
0.0
 10
-13.71705153769555
 20
65.00410125789222
 30
0.0
 10
-13.35153253211062
 20
67.14043896468058
 30
0.0
 10
-13.06493062604549
 20
68.17681837474711
 30
0.0
  0
SPLINE
  5
3E
330
1F
100
AcDbEntity
  8
Default
100
AcDbSpline
210
0.0
220
0.0
230
1.0
 70
     8
 71
     3
 72
    12
 73
     8
 74
     0
 42
0.0000000001
 43
0.0000000001
 40
0.0
 40
0.0
 40
0.0
 40
0.0
 40
1.0
 40
2.0
 40
3.0
 40
4.0
 40
5.0
 40
5.0
 40
5.0
 40
5.0
 10
8.827902851280342
 20
53.49608705278507
 30
0.0
 10
9.675980634466228
 20
54.15861576274166
 30
0.0
 10
11.16815462059664
 20
55.74093908895053
 30
0.0
 10
12.65995372958527
 20
58.63324052679553
 30
0.0
 10
13.50031942807523
 20
61.76477852817717
 30
0.0
 10
13.71705665506956
 20
65.00410125789222
 30
0.0
 10
13.35153764948463
 20
67.14043896468058
 30
0.0
 10
13.0649357434195
 20
68.17681837474711
 30
0.0
  0
SPLINE
  5
3F
330
1F
100
AcDbEntity
  8
Default
100
AcDbSpline
210
0.0
220
0.0
230
1.0
 70
     8
 71
     3
 72
    12
 73
     8
 74
     0
 42
0.0000000001
 43
0.0000000001
 40
0.0
 40
0.0
 40
0.0
 40
0.0
 40
1.0
 40
2.0
 40
3.0
 40
4.0
 40
5.0
 40
5.0
 40
5.0
 40
5.0
 10
8.005546094599524
 20
76.76004908969347
 30
0.0
 10
6.97092211664868
 20
77.07258474720894
 30
0.0
 10
4.870098620533369
 20
77.56282799182372
 30
0.0
 10
1.615797268316967
 20
77.6769616124117
 30
0.0
 10
-1.615794623132487
 20
77.67685896499688
 30
0.0
 10
-4.870104402753654
 20
77.56286888476978
 30
0.0
 10
-6.970914469529689
 20
77.07257624102711
 30
0.0
 10
-8.005540977225493
 20
76.76004908969347
 30
0.0
  0
SPLINE
  5
41
330
1F
100
AcDbEntity
  8
Default - Tangent
100
AcDbSpline
210
0.0
220
0.0
230
1.0
 70
    28
 71
     3
 72
     8
 73
     4
 74
     0
 42
0.0000000001
 43
0.0000000001
 40
-0.1045031155103866
 40
-0.1045031155103866
 40
-0.1045031155103866
 40
-0.1045031155103866
 40
-0.0143557212056612
 40
-0.0143557212056612
 40
-0.0143557212056612
 40
-0.0143557212056612
 10
0.0000025586594887
 20
81.34590928286772
 30
0.0
 41
1.0
 10
0.0000025586614498
 20
81.34804127759486
 30
0.0
 41
1.0
 10
0.0000025586633825
 20
81.34514219023708
 30
0.0
 41
1.0
 10
0.0000025586786734
 20
81.33709896065747
 30
0.0
 41
1.0
  0
SPLINE
  5
42
330
1F
100
AcDbEntity
  8
Default
100
AcDbSpline
210
0.0
220
0.0
230
1.0
 70
     8
 71
     3
 72
     8
 73
     4
 74
     0
 42
0.0000000001
 43
0.0000000001
 40
-1.0
 40
-1.0
 40
-1.0
 40
-1.0
 40
0.0
 40
0.0
 40
0.0
 40
0.0
 10
10.12033816228315
 20
77.34379691803005
 30
0.0
 10
10.44585160172598
 20
76.30650206571536
 30
0.0
 10
11.14142571792412
 20
74.5492567939664
 30
0.0
 10
11.5862525272661
 20
73.55586410871625
 30
0.0
  0
SPLINE
  5
43
330
1F
100
AcDbEntity
  8
Default
100
AcDbSpline
210
0.0
220
0.0
230
1.0
 70
     8
 71
     3
 72
    33
 73
    29
 74
     0
 42
0.0000000001
 43
0.0000000001
 40
11.2800046375079
 40
11.2800046375079
 40
11.2800046375079
 40
11.2800046375079
 40
12.0
 40
13.0
 40
14.0
 40
15.0
 40
16.0
 40
17.0
 40
18.0
 40
19.0
 40
20.0
 40
21.0
 40
22.0
 40
23.0
 40
24.0
 40
25.0
 40
26.0
 40
27.0
 40
28.0
 40
29.0
 40
30.0
 40
31.0
 40
32.0
 40
33.0
 40
34.0
 40
35.0
 40
36.0
 40
37.0
 40
37.0
 40
37.0
 40
37.0
 10
11.5862525272661
 20
73.55586410871625
 30
0.0
 10
11.71251267650827
 20
73.27389839518086
 30
0.0
 10
12.02171550459072
 20
72.6033085003423
 30
0.0
 10
12.54764970886045
 20
71.56168117321128
 30
0.0
 10
13.11301475405811
 20
70.40469513148668
 30
0.0
 10
13.60593120222411
 20
69.2147475970642
 30
0.0
 10
14.04430517116789
 20
68.00422889468543
 30
0.0
 10
14.44971627694049
 20
66.78199638900045
 30
0.0
 10
14.77494918643579
 20
65.53540753193843
 30
0.0
 10
14.96868512612316
 20
64.26043095595114
 30
0.0
 10
15.02619782654121
 20
62.97279456229938
 30
0.0
 10
14.93797301008006
 20
61.68649665739753
 30
0.0
 10
14.68390216593822
 20
60.42134616668513
 30
0.0
 10
14.3000212806311
 20
59.19179429310938
 30
0.0
 10
13.78479653971023
 20
58.00969700000896
 30
0.0
 10
13.16684458467655
 20
56.87886747189994
 30
0.0
 10
12.42646933763037
 20
55.82339782141246
 30
0.0
 10
11.60703344757975
 20
54.82956121980214
 30
0.0
 10
10.70125365586308
 20
53.91226016361961
 30
0.0
 10
9.705012364093207
 20
53.09442738616553
 30
0.0
 10
8.63230224022233
 20
52.37980821865624
 30
0.0
 10
7.502659835117711
 20
51.76044052584211
 30
0.0
 10
6.323242244029657
 20
51.240749818266
 30
0.0
 10
5.09892551087178
 20
50.83816234188765
 30
0.0
 10
3.843843204412465
 20
50.54652827952288
 30
0.0
 10
2.570370957170965
 20
50.35318750409812
 30
0.0
 10
1.28757548386416
 20
50.23705350093194
 30
0.0
 10
0.4290868153442631
 20
50.21828882039708
 30
0.0
 10
0.0000025586870294
 20
50.21753017284853
 30
0.0
  0
SPLINE
  5
44
330
1F
100
AcDbEntity
  8
Default
100
AcDbSpline
210
0.0
220
0.0
230
1.0
 70
     8
 71
     3
 72
    33
 73
    29
 74
     0
 42
0.0000000001
 43
0.0000000001
 40
-37.0
 40
-37.0
 40
-37.0
 40
-37.0
 40
-36.0
 40
-35.0
 40
-34.0
 40
-33.0
 40
-32.0
 40
-31.0
 40
-30.0
 40
-29.0
 40
-28.0
 40
-27.0
 40
-26.0
 40
-25.0
 40
-24.0
 40
-23.0
 40
-22.0
 40
-21.0
 40
-20.0
 40
-19.0
 40
-18.0
 40
-17.0
 40
-16.0
 40
-15.0
 40
-14.0
 40
-13.0
 40
-12.0
 40
-11.28000626216988
 40
-11.28000626216988
 40
-11.28000626216988
 40
-11.28000626216988
 10
0.0000025586870294
 20
50.21753017284853
 30
0.0
 10
-0.4290816979702612
 20
50.21828882039708
 30
0.0
 10
-1.287570366490158
 20
50.23705350093194
 30
0.0
 10
-2.570365839796963
 20
50.35318750409812
 30
0.0
 10
-3.843838087038407
 20
50.54652827952288
 30
0.0
 10
-5.098920393497721
 20
50.83816234188765
 30
0.0
 10
-6.323237126655656
 20
51.240749818266
 30
0.0
 10
-7.502654717743653
 20
51.76044052584211
 30
0.0
 10
-8.632297122848328
 20
52.37980821865624
 30
0.0
 10
-9.705007246719148
 20
53.09442738616553
 30
0.0
 10
-10.70124853848908
 20
53.91226016361961
 30
0.0
 10
-11.60702833020569
 20
54.82956121980214
 30
0.0
 10
-12.42646422025636
 20
55.82339782141246
 30
0.0
 10
-13.16683946730249
 20
56.87886747189994
 30
0.0
 10
-13.78479142233617
 20
58.00969700000896
 30
0.0
 10
-14.30001616325704
 20
59.19179429310938
 30
0.0
 10
-14.68389704856416
 20
60.42134616668513
 30
0.0
 10
-14.937967892706
 20
61.68649665739753
 30
0.0
 10
-15.0261927091672
 20
62.97279456229938
 30
0.0
 10
-14.9686800087491
 20
64.26043095595114
 30
0.0
 10
-14.77494406906173
 20
65.53540753193843
 30
0.0
 10
-14.44971115956643
 20
66.78199638900045
 30
0.0
 10
-14.04430005379389
 20
68.00422889468543
 30
0.0
 10
-13.60592608485005
 20
69.2147475970642
 30
0.0
 10
-13.11300963668411
 20
70.40469513148668
 30
0.0
 10
-12.54764459148645
 20
71.56168117321128
 30
0.0
 10
-12.02171070135886
 20
72.60330787817495
 30
0.0
 10
-11.71250814326383
 20
73.27389712833804
 30
0.0
 10
-11.5862482646062
 20
73.55586219995826
 30
0.0
  0
SPLINE
  5
45
330
1F
100
AcDbEntity
  8
Default
100
AcDbSpline
210
0.0
220
0.0
230
1.0
 70
     8
 71
     3
 72
     8
 73
     4
 74
     0
 42
0.0000000001
 43
0.0000000001
 40
0.0
 40
0.0
 40
0.0
 40
0.0
 40
1.0
 40
1.0
 40
1.0
 40
1.0
 10
-11.5862482646062
 20
73.55586219995826
 30
0.0
 10
-11.14141935174335
 20
74.54925945019825
 30
0.0
 10
-10.44581375338667
 20
76.30648985935831
 30
0.0
 10
-10.12033307146866
 20
77.34379671177848
 30
0.0
  0
SPLINE
  5
46
330
1F
100
AcDbEntity
  8
Default
100
AcDbSpline
210
0.0
220
0.0
230
1.0
 70
     8
 71
     3
 72
    11
 73
     7
 74
     0
 42
0.0000000001
 43
0.0000000001
 40
0.0
 40
0.0
 40
0.0
 40
0.0
 40
0.2116104364371248
 40
0.4574810275432065
 40
1.208124430402978
 40
1.473112769144664
 40
1.473112769144664
 40
1.473112769144664
 40
1.473112769144664
 10
-10.12033307146866
 20
77.34379671177848
 30
0.0
 10
-10.09921462388466
 20
77.41110119898264
 30
0.0
 10
-10.05731802282752
 20
77.55775349658177
 30
0.0
 10
-9.96254080825706
 20
77.94926961948468
 30
0.0
 10
-9.888553789774605
 20
78.3634040861869
 30
0.0
 10
-9.815253718990519
 20
78.69393319622702
 30
0.0
 10
-9.794782809109947
 20
78.77986015395271
 30
0.0
  0
SPLINE
  5
47
330
1F
100
AcDbEntity
  8
Default
100
AcDbSpline
210
0.0
220
0.0
230
1.0
 70
     8
 71
     3
 72
    12
 73
     8
 74
     0
 42
0.0000000001
 43
0.0000000001
 40
0.0
 40
0.0
 40
0.0
 40
0.0
 40
0.1706277173231093
 40
0.3858610663748481
 40
0.8671855953568781
 40
1.46275045453188
 40
2.213090456321001
 40
2.213090456321001
 40
2.213090456321001
 40
2.213090456321001
 10
-9.794782809109947
 20
78.77986015395271
 30
0.0
 10
-9.781483071764185
 20
78.83568600514039
 30
0.0
 10
-9.715728447960103
 20
78.99764631543258
 30
0.0
 10
-9.543517967208047
 20
79.2325523596194
 30
0.0
 10
-9.207638525971689
 20
79.5074033432775
 30
0.0
 10
-8.665720680505146
 20
79.78979141845676
 30
0.0
 10
-8.24369020078386
 20
79.9434327024681
 30
0.0
 10
-8.005938453592293
 20
80.02241667073365
 30
0.0
  0
SPLINE
  5
48
330
1F
100
AcDbEntity
  8
Default
100
AcDbSpline
210
0.0
220
0.0
230
1.0
 70
    12
 71
     2
 72
     6
 73
     3
 74
     0
 42
0.0000000001
 43
0.0000000001
 40
0.0
 40
0.0
 40
0.0
 40
2.220184063227395
 40
2.220184063227395
 40
2.220184063227395
 10
-8.005938453592293
 20
80.02241667073365
 30
0.0
 41
1.0
 10
-6.947105737723959
 20
80.35895278763752
 30
0.0
 41
0.9993022861162805
 10
-5.866513810711169
 20
80.61541495068923
 30
0.0
 41
1.0
  0
SPLINE
  5
49
330
1F
100
AcDbEntity
  8
Default
100
AcDbSpline
210
0.0
220
0.0
230
1.0
 70
    12
 71
     2
 72
     6
 73
     3
 74
     0
 42
0.0000000001
 43
0.0000000001
 40
0.0
 40
0.0
 40
0.0
 40
4.62591479786471
 40
4.62591479786471
 40
4.62591479786471
 10
-5.866513810711169
 20
80.61541495068923
 30
0.0
 41
1.0
 10
-3.608895004683611
 20
81.15122665524324
 30
0.0
 41
0.995239949494383
 10
0.0000025586835189
 20
81.34658580922898
 30
0.0
 41
0.9999999999999953
  0
SPLINE
  5
4A
330
1F
100
AcDbEntity
  8
Default
100
AcDbSpline
210
0.0
220
0.0
230
1.0
 70
    12
 71
     2
 72
     6
 73
     3
 74
     0
 42
0.0000000001
 43
0.0000000001
 40
0.0
 40
0.0
 40
0.0
 40
5.083225042932765
 40
5.083225042932765
 40
5.083225042932765
 10
0.0000025586835472
 20
81.34658580922898
 30
0.0
 41
0.999999999999994
 10
3.384268879077878
 20
81.20462511337576
 30
0.0
 41
0.9943654889476428
 10
5.866509089001298
 20
80.61541709368151
 30
0.0
 41
1.0
  0
SPLINE
  5
4B
330
1F
100
AcDbEntity
  8
Default
100
AcDbSpline
210
0.0
220
0.0
230
1.0
 70
    12
 71
     2
 72
     6
 73
     3
 74
     0
 42
0.0000000001
 43
0.0000000001
 40
0.0
 40
0.0
 40
0.0
 40
2.220202217338642
 40
2.220202217338642
 40
2.220202217338642
 10
5.866509089001298
 20
80.61541709368151
 30
0.0
 41
1.0
 10
6.94709965568195
 20
80.35891789374557
 30
0.0
 41
0.999304784792358
 10
8.005958447533217
 20
80.02245185982497
 30
0.0
 41
1.0
  0
SPLINE
  5
4C
330
1F
100
AcDbEntity
  8
Default
100
AcDbSpline
210
0.0
220
0.0
230
1.0
 70
     8
 71
     3
 72
    12
 73
     8
 74
     0
 42
0.0000000001
 43
0.0000000001
 40
0.0
 40
0.0
 40
0.0
 40
0.0
 40
0.4081679590186467
 40
0.7520695590432435
 40
1.34483749521094
 40
1.827148691283257
 40
2.213081781129066
 40
2.213081781129066
 40
2.213081781129066
 40
2.213081781129066
 10
8.005958447533217
 20
80.02245185982497
 30
0.0
 10
8.135161011298024
 20
79.97903108805957
 30
0.0
 10
8.372603109204661
 20
79.89703724193205
 30
0.0
 10
8.786671025331614
 20
79.72638101914578
 30
0.0
 10
9.208259389733044
 20
79.50750570604018
 30
0.0
 10
9.586864647073938
 20
79.1962211998262
 30
0.0
 10
9.76471247863266
 20
78.90571025739642
 30
0.0
 10
9.79477316401416
 20
78.7799211210451
 30
0.0
  0
SPLINE
  5
4D
330
1F
100
AcDbEntity
  8
Default
100
AcDbSpline
210
0.0
220
0.0
230
1.0
 70
     8
 71
     3
 72
    11
 73
     7
 74
     0
 42
0.0000000001
 43
0.0000000001
 40
0.0
 40
0.0
 40
0.0
 40
0.0
 40
0.265100617705136
 40
1.015694409476781
 40
1.261580558064201
 40
1.473175169540751
 40
1.473175169540751
 40
1.473175169540751
 40
1.473175169540751
 10
9.79477316401416
 20
78.7799211210451
 30
0.0
 10
9.815313017180259
 20
78.69397196992801
 30
0.0
 10
9.888581307619589
 20
78.3634139810778
 30
0.0
 10
9.96252661087398
 20
77.94924272948643
 30
0.0
 10
10.05733412295525
 20
77.55775084803355
 30
0.0
 10
10.09921904665596
 20
77.4110959824342
 30
0.0
 10
10.12033816228315
 20
77.34379691803005
 30
0.0
  0
LINE
  5
4E
330
1F
100
AcDbEntity
  8
Default
100
AcDbLine
 10
0.4025003927752238
 20
2.645839045006541
 30
0.0
 11
0.4025004049633623
 21
1.318318645839482
 31
0.0
  0
SPLINE
  5
4F
330
1F
100
AcDbEntity
  8
Default
100
AcDbSpline
210
0.0
220
0.0
230
1.0
 70
    12
 71
     2
 72
     6
 73
     3
 74
     0
 42
0.0000000001
 43
0.0000000001
 40
0.0
 40
0.0
 40
0.0
 40
0.8883181399606292
 40
0.8883181399606292
 40
0.8883181399606292
 10
0.4025004049633623
 20
1.318318645839482
 30
0.0
 41
1.0
 10
0.4025002776278416
 20
0.8741595758591811
 30
0.0
 41
0.9999999999999857
 10
0.4024992751865426
 20
0.4298637235359951
 30
0.0
 41
1.0
  0
SPLINE
  5
50
330
1F
100
AcDbEntity
  8
Default
100
AcDbSpline
210
0.0
220
0.0
230
1.0
 70
    12
 71
     2
 72
     6
 73
     3
 74
     0
 42
0.0000000001
 43
0.0000000001
 40
0.0
 40
0.0
 40
0.0
 40
0.0370134418365288
 40
0.0370134418365288
 40
0.0370134418365288
 10
0.4024992751865426
 20
0.4298637235359951
 30
0.0
 41
1.0
 10
0.4022784584774931
 20
0.408438210824519
 30
0.0
 41
0.8149664195338971
 10
0.382097722751169
 20
0.4016561472388268
 30
0.0
 41
1.0
  0
POLYLINE
  5
51
330
1F
100
AcDbEntity
  8
Default
100
AcDb2dPolyline
 66
     1
 10
0.0
 20
0.0
 30
0.0
  0
VERTEX
  5
52
330
51
100
AcDbEntity
  8
Default
100
AcDbVertex
100
AcDb2dVertex
 10
0.382097722751169
 20
0.4016561472388268
 30
0.0
  0
VERTEX
  5
53
330
51
100
AcDbEntity
  8
Default
100
AcDbVertex
100
AcDb2dVertex
 10
-0.3849337588290922
 20
0.4026979553860967
 30
0.0
  0
SEQEND
  5
54
330
51
100
AcDbEntity
  8
Default
  0
SPLINE
  5
55
330
1F
100
AcDbEntity
  8
Default
100
AcDbSpline
210
0.0
220
0.0
230
1.0
 70
    12
 71
     2
 72
     6
 73
     3
 74
     0
 42
0.0000000001
 43
0.0000000001
 40
-0.0343035516322866
 40
-0.0343035516322866
 40
-0.0343035516322866
 40
0.0
 40
0.0
 40
0.0
 10
-0.3849337588290922
 20
0.4026979553860967
 30
0.0
 41
1.0
 10
-0.4025000626321432
 20
0.4106979125380343
 30
0.0
 41
0.8409683921870034
 10
-0.4025000009472564
 20
0.4300445944567929
 30
0.0
 41
1.0
  0
LINE
  5
56
330
1F
100
AcDbEntity
  8
Default
100
AcDbLine
 10
-0.4025000009472564
 20
0.4300445944567929
 30
0.0
 11
-0.4024999852111222
 21
2.645833298418005
 31
0.0
  0
SPLINE
  5
57
330
1F
100
AcDbEntity
  8
Default
100
AcDbSpline
210
0.0
220
0.0
230
1.0
 70
    12
 71
     2
 72
     6
 73
     3
 74
     0
 42
0.0000000001
 43
0.0000000001
 40
0.0
 40
0.0
 40
0.0
 40
1.142633473844296
 40
1.142633473844296
 40
1.142633473844296
 10
-0.4024999852111222
 20
2.645833298418005
 30
0.0
 41
1.0
 10
-0.4442286991731378
 20
3.215630097155969
 30
0.0
 41
0.9999842323080803
 10
-0.4923541848441317
 20
3.784922301402296
 30
0.0
 41
1.0
  0
SPLINE
  5
58
330
1F
100
AcDbEntity
  8
Default
100
AcDbSpline
210
0.0
220
0.0
230
1.0
 70
     8
 71
     3
 72
     8
 73
     4
 74
     0
 42
0.0000000001
 43
0.0000000001
 40
-1.0
 40
-1.0
 40
-1.0
 40
-1.0
 40
0.0
 40
0.0
 40
0.0
 40
0.0
 10
-0.4923541848441317
 20
3.784922301402296
 30
0.0
 10
-0.5208179339563088
 20
4.121629354790442
 30
0.0
 10
-0.4590722902392912
 20
4.702001457415596
 30
0.0
 10
-0.4280794435128286
 20
5.042681719673671
 30
0.0
  0
SPLINE
  5
59
330
1F
100
AcDbEntity
  8
Default
100
AcDbSpline
210
0.0
220
0.0
230
1.0
 70
     8
 71
     3
 72
    12
 73
     8
 74
     0
 42
0.0000000001
 43
0.0000000001
 40
-5.0
 40
-5.0
 40
-5.0
 40
-5.0
 40
-4.0
 40
-3.0
 40
-2.0
 40
-1.0
 40
0.0
 40
0.0
 40
0.0
 40
0.0
 10
-0.4280794435128286
 20
5.042681719673671
 30
0.0
 10
-0.4176526532400402
 20
5.157295316675079
 30
0.0
 10
-0.3833216944183135
 20
5.379745552997914
 30
0.0
 10
-0.2006418435773725
 20
5.704291101129162
 30
0.0
 10
0.2006664286566462
 20
5.704267248842217
 30
0.0
 10
0.3833315636453705
 20
5.379757877824668
 30
0.0
 10
0.4176529822033928
 20
5.157293835798621
 30
0.0
 10
0.4280809496310809
 20
5.042682536827708
 30
0.0
  0
SPLINE
  5
5A
330
1F
100
AcDbEntity
  8
Default
100
AcDbSpline
210
0.0
220
0.0
230
1.0
 70
     8
 71
     3
 72
     8
 73
     4
 74
     0
 42
0.0000000001
 43
0.0000000001
 40
0.0
 40
0.0
 40
0.0
 40
0.0
 40
1.0
 40
1.0
 40
1.0
 40
1.0
 10
0.4280809496310809
 20
5.042682536827708
 30
0.0
 10
0.4590389253945801
 20
4.702430820433111
 30
0.0
 10
0.5191371764723414
 20
4.121637737752299
 30
0.0
 10
0.4923521324611926
 20
3.784896487667917
 30
0.0
  0
SPLINE
  5
5B
330
1F
100
AcDbEntity
  8
Default
100
AcDbSpline
210
0.0
220
0.0
230
1.0
 70
    12
 71
     2
 72
    28
 73
    25
 74
     0
 42
0.0000000001
 43
0.0000000001
 40
0.0
 40
0.0
 40
0.0
 40
0.1540216414111597
 40
0.1540216414111597
 40
0.2901790848036704
 40
0.2901790848036704
 40
0.4125187213470968
 40
0.4125187213470968
 40
0.5235565796151631
 40
0.5235565796151631
 40
0.6251094707772871
 40
0.6251094707772871
 40
0.7185505680812745
 40
0.7185505680812745
 40
0.804527306064451
 40
0.804527306064451
 40
0.8835369424496379
 40
0.8835369424496379
 40
0.956096405573554
 40
0.956096405573554
 40
1.022829496748906
 40
1.022829496748906
 40
1.084573035640182
 40
1.084573035640182
 40
1.142610152573474
 40
1.142610152573474
 40
1.142610152573474
 10
0.4923521324611926
 20
3.784896487667917
 30
0.0
 41
1.0
 10
0.4862458584849677
 20
3.70812848492579
 30
0.0
 41
0.9999992266822498
 10
0.4799486603693737
 20
3.631375907621956
 30
0.0
 41
1.0
 10
0.4743870072160455
 20
3.563525086088881
 30
0.0
 41
0.999999943592941
 10
0.4687797761065582
 20
3.495678015939925
 30
0.0
 41
1.0
 10
0.4637440184135032
 20
3.434716141472609
 30
0.0
 41
0.9999999896650592
 10
0.4587257899348884
 20
3.373752821541293
 30
0.0
 41
1.0
 10
0.4541724214506184
 20
3.318421206909444
 30
0.0
 41
0.9999999204687999
 10
0.4496631898143875
 20
3.263085977874307
 30
0.0
 41
1.0
 10
0.4455396716928435
 20
3.212477495132922
 30
0.0
 41
0.9999998558573179
 10
0.4414705015667693
 20
3.16186461355551
 30
0.0
 41
1.0
 10
0.4377265343055614
 20
3.115294548757072
 30
0.0
 41
0.9999998050943961
 10
0.4340407218610522
 20
3.0687198451852
 30
0.0
 41
1.0
 10
0.4306493021494848
 20
3.025865672648839
 30
0.0
 41
0.9999997586473189
 10
0.4273174332815444
 20
2.983006828972381
 30
0.0
 41
1.0
 10
0.4242553921289113
 20
2.943621051750709
 30
0.0
 41
0.9999997032638387
 10
0.4212540379526359
 20
2.904230603460748
 30
0.0
 41
1.0
 10
0.4184974792562503
 20
2.868055920441487
 30
0.0
 41
0.9999996264853681
 10
0.4158034568246336
 20
2.831876526437055
 30
0.0
 41
1.0
 10
0.4133255475787256
 20
2.798602274891143
 30
0.0
 41
0.9999995214040918
 10
0.4109127515510664
 20
2.765323238464286
 30
0.0
 41
1.0
 10
0.4086805658379204
 20
2.734532418213321
 30
0.0
 41
0.9999994294407313
 10
0.4065141686204612
 20
2.703736899255506
 30
0.0
 41
1.0
 10
0.4044791644706665
 20
2.674789921291922
 30
0.0
 41
0.9999995283042846
 10
0.4025003927752627
 20
2.645839045006541
 30
0.0
 41
0.9999999999063802
  0
POLYLINE
  5
5C
330
1F
100
AcDbEntity
  8
Default
100
AcDb2dPolyline
 66
     1
 10
0.0
 20
0.0
 30
0.0
  0
VERTEX
  5
5D
330
5C
100
AcDbEntity
  8
Default
100
AcDbVertex
100
AcDb2dVertex
 10
14.62182759792192
 20
0.4000000000000013
 30
0.0
  0
VERTEX
  5
5E
330
5C
100
AcDbEntity
  8
Default
100
AcDbVertex
100
AcDb2dVertex
 10
13.23874045894676
 20
0.4000000000000012
 30
0.0
  0
SEQEND
  5
5F
330
5C
100
AcDbEntity
  8
Default
  0
SPLINE
  5
60
330
1F
100
AcDbEntity
  8
Default
100
AcDbSpline
210
0.0
220
0.0
230
1.0
 70
    12
 71
     2
 72
     6
 73
     3
 74
     0
 42
0.0000000001
 43
0.0000000001
 40
0.0
 40
0.0
 40
0.0
 40
0.0233001455140947
 40
0.0233001455140947
 40
0.0233001455140947
 10
13.23874045894676
 20
0.4000000000000012
 30
0.0
 41
1.0
 10
13.22400000000003
 20
0.3999999999999896
 30
0.0
 41
0.7132504491537722
 10
13.22374274351937
 20
0.385261786096561
 30
0.0
 41
1.0
  0
SPLINE
  5
61
330
1F
100
AcDbEntity
  8
Default
100
AcDbSpline
210
0.0
220
0.0
230
1.0
 70
    24
 71
     2
 72
     6
 73
     3
 74
     0
 42
0.0000000001
 43
0.0000000001
 40
-0.2265737189671924
 40
-0.2265737189671924
 40
-0.2265737189671924
 40
0.0
 40
0.0
 40
0.0
 10
13.22374274351937
 20
0.385261786096561
 30
0.0
 10
13.22176561520375
 20
0.2719921807503813
 30
0.0
 10
13.21978848688802
 20
0.1587225754042016
 30
0.0
  0
SPLINE
  5
62
330
1F
100
AcDbEntity
  8
Default
100
AcDbSpline
210
0.0
220
0.0
230
1.0
 70
    12
 71
     2
 72
     8
 73
     5
 74
     0
 42
0.0000000001
 43
0.0000000001
 40
0.0
 40
0.0
 40
0.0
 40
0.1238834703065744
 40
0.1238834703065744
 40
0.2477669406131487
 40
0.2477669406131487
 40
0.2477669406131487
 10
13.21978848688802
 20
0.1587225754042016
 30
0.0
 41
1.0
 10
13.21864681627057
 20
0.0933163095384199
 30
0.0
 41
0.9222009716703817
 10
13.26449765726436
 20
0.0466581547691941
 30
0.0
 41
1.0
 10
13.31034849825806
 20
-0.0000000000000317
 30
0.0
 41
0.9222009716703817
 10
13.3757647273324
 20
0.0000000000000009
 30
0.0
 41
1.0
  0
SPLINE
  5
63
330
1F
100
AcDbEntity
  8
Default
100
AcDbSpline
210
0.0
220
0.0
230
1.0
 70
    24
 71
     2
 72
     6
 73
     3
 74
     0
 42
0.0000000001
 43
0.0000000001
 40
-1.1178392931867
 40
-1.1178392931867
 40
-1.1178392931867
 40
0.0
 40
0.0
 40
0.0
 10
13.3757647273324
 20
0.0000000000000009
 30
0.0
 10
13.93468437392578
 20
0.0000000000000009
 30
0.0
 10
14.49360402051916
 20
0.0000000000000009
 30
0.0
  0
SPLINE
  5
64
330
1F
100
AcDbEntity
  8
Default
100
AcDbSpline
210
0.0
220
0.0
230
1.0
 70
    12
 71
     2
 72
     8
 73
     5
 74
     0
 42
0.0000000001
 43
0.0000000001
 40
0.0
 40
0.0
 40
0.0
 40
0.1269465231438404
 40
0.1269465231438404
 40
0.2538930462876808
 40
0.2538930462876808
 40
0.2538930462876808
 10
14.49360402051916
 20
0.0000000000000009
 30
0.0
 41
1.0
 10
14.56082858485453
 20
-0.0000000000000234
 30
0.0
 41
0.9183600648443049
 10
14.60699642696277
 20
0.0488638148852971
 30
0.0
 41
1.0
 10
14.65316426907106
 20
0.0977276297706175
 30
0.0
 41
0.9183600648443049
 10
14.64935312112611
 20
0.1648440748599009
 30
0.0
 41
1.0
  0
SPLINE
  5
65
330
1F
100
AcDbEntity
  8
Default
100
AcDbSpline
210
0.0
220
0.0
230
1.0
 70
     8
 71
     2
 72
     6
 73
     3
 74
     0
 42
0.0000000001
 43
0.0000000001
 40
-0.2213623405233065
 40
-0.2213623405233065
 40
-0.2213623405233065
 40
0.0
 40
0.0
 40
0.0
 10
14.64935312112611
 20
0.1648440748599009
 30
0.0
 10
14.64307829705324
 20
0.2753472333366753
 30
0.0
 10
14.63679555212643
 20
0.3859723252673241
 30
0.0
  0
SPLINE
  5
66
330
1F
100
AcDbEntity
  8
Default
100
AcDbSpline
210
0.0
220
0.0
230
1.0
 70
    12
 71
     2
 72
     6
 73
     3
 74
     0
 42
0.0000000001
 43
0.0000000001
 40
0.0
 40
0.0
 40
0.0
 40
0.0224667132803239
 40
0.0224667132803239
 40
0.0224667132803239
 10
14.63679555212643
 20
0.3859723252673241
 30
0.0
 41
1.0
 10
14.63577048924404
 20
0.4000000000000027
 30
0.0
 41
0.7324447355991569
 10
14.62182759792192
 20
0.4000000000000013
 30
0.0
 41
1.0
  0
POLYLINE
  5
67
330
1F
100
AcDbEntity
  8
Default
100
AcDb2dPolyline
 66
     1
 10
0.0
 20
0.0
 30
0.0
  0
VERTEX
  5
68
330
67
100
AcDbEntity
  8
Default
100
AcDbVertex
100
AcDb2dVertex
 10
-14.62182759792192
 20
0.4000000000000013
 30
0.0
  0
VERTEX
  5
69
330
67
100
AcDbEntity
  8
Default
100
AcDbVertex
100
AcDb2dVertex
 10
-13.23874045894671
 20
0.4000000000000012
 30
0.0
  0
SEQEND
  5
6A
330
67
100
AcDbEntity
  8
Default
  0
SPLINE
  5
6B
330
1F
100
AcDbEntity
  8
Default
100
AcDbSpline
210
0.0
220
0.0
230
1.0
 70
    12
 71
     2
 72
     6
 73
     3
 74
     0
 42
0.0000000001
 43
0.0000000001
 40
0.0
 40
0.0
 40
0.0
 40
0.0233001455140947
 40
0.0233001455140947
 40
0.0233001455140947
 10
-13.23874045894671
 20
0.4000000000000012
 30
0.0
 41
1.0
 10
-13.22399999999999
 20
0.3999999999999896
 30
0.0
 41
0.7132504491537722
 10
-13.22374274351942
 20
0.385261786096561
 30
0.0
 41
1.0
  0
SPLINE
  5
6C
330
1F
100
AcDbEntity
  8
Default
100
AcDbSpline
210
0.0
220
0.0
230
1.0
 70
    24
 71
     2
 72
     6
 73
     3
 74
     0
 42
0.0000000001
 43
0.0000000001
 40
-0.2265737189671924
 40
-0.2265737189671924
 40
-0.2265737189671924
 40
0.0
 40
0.0
 40
0.0
 10
-13.22374274351942
 20
0.385261786096561
 30
0.0
 10
-13.22176561520369
 20
0.2719921807503813
 30
0.0
 10
-13.21978848688796
 20
0.1587225754042016
 30
0.0
  0
SPLINE
  5
6D
330
1F
100
AcDbEntity
  8
Default
100
AcDbSpline
210
0.0
220
0.0
230
1.0
 70
    12
 71
     2
 72
     8
 73
     5
 74
     0
 42
0.0000000001
 43
0.0000000001
 40
0.0
 40
0.0
 40
0.0
 40
0.1238834703065744
 40
0.1238834703065744
 40
0.2477669406131487
 40
0.2477669406131487
 40
0.2477669406131487
 10
-13.21978848688796
 20
0.1587225754042016
 30
0.0
 41
1.0
 10
-13.21864681627059
 20
0.0933163095384199
 30
0.0
 41
0.9222009716703817
 10
-13.2644976572643
 20
0.0466581547691941
 30
0.0
 41
1.0
 10
-13.31034849825808
 20
-0.0000000000000317
 30
0.0
 41
0.9222009716703817
 10
-13.3757647273324
 20
0.0000000000000009
 30
0.0
 41
1.0
  0
SPLINE
  5
6E
330
1F
100
AcDbEntity
  8
Default
100
AcDbSpline
210
0.0
220
0.0
230
1.0
 70
    24
 71
     2
 72
     6
 73
     3
 74
     0
 42
0.0000000001
 43
0.0000000001
 40
-1.1178392931867
 40
-1.1178392931867
 40
-1.1178392931867
 40
0.0
 40
0.0
 40
0.0
 10
-13.3757647273324
 20
0.0000000000000009
 30
0.0
 10
-13.93468437392572
 20
0.0000000000000009
 30
0.0
 10
-14.4936040205191
 20
0.0000000000000009
 30
0.0
  0
SPLINE
  5
6F
330
1F
100
AcDbEntity
  8
Default
100
AcDbSpline
210
0.0
220
0.0
230
1.0
 70
    12
 71
     2
 72
     8
 73
     5
 74
     0
 42
0.0000000001
 43
0.0000000001
 40
0.0
 40
0.0
 40
0.0
 40
0.1269465231438404
 40
0.1269465231438404
 40
0.2538930462876808
 40
0.2538930462876808
 40
0.2538930462876808
 10
-14.4936040205191
 20
0.0000000000000009
 30
0.0
 41
1.0
 10
-14.56082858485441
 20
-0.0000000000000234
 30
0.0
 41
0.9183600648443049
 10
-14.60699642696277
 20
0.0488638148852971
 30
0.0
 41
1.0
 10
-14.65316426907094
 20
0.0977276297706175
 30
0.0
 41
0.9183600648443049
 10
-14.64935312112611
 20
0.1648440748599009
 30
0.0
 41
1.0
  0
SPLINE
  5
70
330
1F
100
AcDbEntity
  8
Default
100
AcDbSpline
210
0.0
220
0.0
230
1.0
 70
     8
 71
     2
 72
     6
 73
     3
 74
     0
 42
0.0000000001
 43
0.0000000001
 40
-0.2213623405233065
 40
-0.2213623405233065
 40
-0.2213623405233065
 40
0.0
 40
0.0
 40
0.0
 10
-14.64935312112611
 20
0.1648440748599009
 30
0.0
 10
-14.64307829705318
 20
0.2753472333366753
 30
0.0
 10
-14.63679555212637
 20
0.3859723252673241
 30
0.0
  0
SPLINE
  5
71
330
1F
100
AcDbEntity
  8
Default
100
AcDbSpline
210
0.0
220
0.0
230
1.0
 70
    12
 71
     2
 72
     6
 73
     3
 74
     0
 42
0.0000000001
 43
0.0000000001
 40
0.0
 40
0.0
 40
0.0
 40
0.0224667132803239
 40
0.0224667132803239
 40
0.0224667132803239
 10
-14.63679555212637
 20
0.3859723252673241
 30
0.0
 41
1.0
 10
-14.63577048924399
 20
0.4000000000000027
 30
0.0
 41
0.7324447355991569
 10
-14.62182759792192
 20
0.4000000000000013
 30
0.0
 41
1.0
  0
SPLINE
  5
72
330
1F
100
AcDbEntity
  8
Default - Tangent
100
AcDbSpline
210
0.0
220
0.0
230
1.0
 70
    12
 71
     2
 72
     6
 73
     3
 74
     0
 42
0.0000000001
 43
0.0000000001
 40
0.0
 40
0.0
 40
0.0
 40
0.0276977634380368
 40
0.0276977634380368
 40
0.0276977634380368
 10
40.98257667465252
 20
3.784896487667917
 30
0.0
 41
1.0
 10
40.98327313890537
 20
3.770987048242446
 30
0.0
 41
0.9916219010942138
 10
40.98038298252338
 20
3.757363371658137
 30
0.0
 41
1.0
  0
SPLINE
  5
73
330
1F
100
AcDbEntity
  8
Default
100
AcDbSpline
210
0.0
220
0.0
230
1.0
 70
    24
 71
     2
 72
     6
 73
     3
 74
     0
 42
0.0000000001
 43
0.0000000001
 40
0.2597920374536898
 40
0.2597920374536898
 40
0.2597920374536898
 40
3.447915344741159
 40
3.447915344741159
 40
3.447915344741159
 10
1.289999999999978
 20
9.691123307287471
 30
0.0
 10
1.289999999999978
 20
8.097061653643737
 30
0.0
 10
1.289999999999978
 20
6.503000000000002
 30
0.0
  0
SPLINE
  5
74
330
1F
100
AcDbEntity
  8
Default
100
AcDbSpline
210
0.0
220
0.0
230
1.0
 70
    24
 71
     2
 72
     6
 73
     3
 74
     0
 42
0.0000000001
 43
0.0000000001
 40
-2.579999999999998
 40
-2.579999999999998
 40
-2.579999999999998
 40
0.0
 40
0.0
 40
0.0
 10
1.289999999999978
 20
6.503000000000002
 30
0.0
 10
0.0000000000000142
 20
6.503000000000002
 30
0.0
 10
-1.290000000000006
 20
6.503000000000002
 30
0.0
  0
SPLINE
  5
75
330
1F
100
AcDbEntity
  8
Default
100
AcDbSpline
210
0.0
220
0.0
230
1.0
 70
    24
 71
     2
 72
     6
 73
     3
 74
     0
 42
0.0000000001
 43
0.0000000001
 40
0.0
 40
0.0
 40
0.0
 40
3.188123320487557
 40
3.188123320487557
 40
3.188123320487557
 10
-1.290000000000006
 20
6.503000000000002
 30
0.0
 10
-1.290000000000006
 20
8.09706166024378
 30
0.0
 10
-1.290000000000006
 20
9.691123320487558
 30
0.0
  0
POLYLINE
  5
76
330
1F
100
AcDbEntity
  8
Default
100
AcDb2dPolyline
 66
     1
 10
0.0
 20
0.0
 30
0.0
  0
VERTEX
  5
77
330
76
100
AcDbEntity
  8
Default
100
AcDbVertex
100
AcDb2dVertex
 10
-0.387824851805405
 20
0.399999999906409
 30
0.0
  0
VERTEX
  5
78
330
76
100
AcDbEntity
  8
Default
100
AcDbVertex
100
AcDb2dVertex
 10
0.3878256930967297
 20
0.3999999998842094
 30
0.0
  0
SEQEND
  5
79
330
76
100
AcDbEntity
  8
Default
  0
SPLINE
  5
7A
330
1F
100
AcDbEntity
  8
Default
100
AcDbSpline
210
0.0
220
0.0
230
1.0
 70
    12
 71
     2
 72
     6
 73
     3
 74
     0
 42
0.0000000001
 43
0.0000000001
 40
0.0
 40
0.0
 40
0.0
 40
0.0200867229109254
 40
0.0200867229109254
 40
0.0200867229109254
 10
0.3878256930967297
 20
0.3999999998842094
 30
0.0
 41
1.0
 10
0.3994953415944306
 20
0.3995431334531431
 30
0.0
 41
0.802617145546988
 10
0.4024232790152524
 20
0.3882375328297014
 30
0.0
 41
1.0
  0
SPLINE
  5
7B
330
1F
100
AcDbEntity
  8
Default
100
AcDbSpline
210
0.0
220
0.0
230
1.0
 70
    12
 71
     2
 72
    20
 73
    17
 74
     0
 42
0.0000000001
 43
0.0000000001
 40
0.0
 40
0.0
 40
0.0
 40
0.2255555232297128
 40
0.2255555232297128
 40
0.3498085556099202
 40
0.3498085556099202
 40
0.4740615879901277
 40
0.4740615879901277
 40
0.9777325427188074
 40
0.9777325427188074
 40
1.10188499768713
 40
1.10188499768713
 40
1.226037452655453
 40
1.226037452655453
 40
1.451954175298031
 40
1.451954175298031
 40
1.474961195965689
 40
1.474961195965689
 40
1.474961195965689
 10
0.4024232790152524
 20
0.3882375328297014
 30
0.0
 41
1.0
 10
0.4052838279411834
 20
0.2725751527994181
 30
0.0
 41
0.9999999835043444
 10
0.4077911783920314
 20
0.1596446425376397
 30
0.0
 41
1.0
 10
0.4092518445364138
 20
0.0938466362517804
 30
0.0
 41
0.9217416924384133
 10
0.3633604495160085
 20
0.046923781041797
 30
0.0
 41
1.0
 10
0.3174690544955754
 20
0.0000009258318137
 30
0.0
 41
0.9217416924384133
 10
0.2518354161908434
 20
0.0000000000019885
 30
0.0
 41
1.0
 10
-0.0000000611735089
 20
0.0000000000020303
 30
0.0
 41
1.0
 10
-0.2518355385378612
 20
0.0000000000020721
 30
0.0
 41
1.0
 10
-0.3174054276894927
 20
0.0000415045432547
 30
0.0
 41
0.9219606608938025
 10
-0.3632762137498702
 20
0.046895352540922
 30
0.0
 41
1.0
 10
-0.4091469998103144
 20
0.0937492005385892
 30
0.0
 41
0.9219606608938025
 10
-0.4077972660225981
 20
0.1593847513956395
 30
0.0
 41
1.0
 10
-0.4052877691505684
 20
0.2723947785347779
 30
0.0
 41
0.9999999834523676
 10
-0.4028197969681599
 20
0.38532669748455
 30
0.0
 41
1.0
 10
-0.4019830997049073
 20
0.3994706535846757
 30
0.0
 41
0.7403604038404529
 10
-0.387824851805405
 20
0.399999999906409
 30
0.0
 41
1.0
  0
SPLINE
  5
7C
330
1F
100
AcDbEntity
  8
Default
100
AcDbSpline
210
0.0
220
0.0
230
1.0
 70
     8
 71
     3
 72
    12
 73
     8
 74
     0
 42
0.0000000001
 43
0.0000000001
 40
0.0
 40
0.0
 40
0.0
 40
0.0
 40
1.0
 40
2.0
 40
3.0
 40
4.0
 40
5.0
 40
5.0
 40
5.0
 40
5.0
 10
-0.4025000000000176
 20
2.645833298418
 30
0.0
 10
-0.4021304638109058
 20
2.747790985019149
 30
0.0
 10
-0.364781534129051
 20
2.947795791640983
 30
0.0
 10
-0.1698906983383353
 20
3.211651080471766
 30
0.0
 10
0.1698906760683059
 20
3.211651113476493
 30
0.0
 10
0.364781560909492
 20
2.94779573829043
 30
0.0
 10
0.4021304582370391
 20
2.747790993604342
 30
0.0
 10
0.402500000000046
 20
2.645833298418
 30
0.0
  0
LINE
  5
7D
330
1F
100
AcDbEntity
  8
Default
100
AcDbLine
 10
40.89272493496655
 20
2.645839045006541
 30
0.0
 11
40.89272494715469
 21
1.318318645839482
 31
0.0
  0
SPLINE
  5
7E
330
1F
100
AcDbEntity
  8
Default
100
AcDbSpline
210
0.0
220
0.0
230
1.0
 70
    12
 71
     2
 72
     6
 73
     3
 74
     0
 42
0.0000000001
 43
0.0000000001
 40
0.0
 40
0.0
 40
0.0
 40
0.8883181399606292
 40
0.8883181399606292
 40
0.8883181399606292
 10
40.89272494715469
 20
1.318318645839482
 30
0.0
 41
1.0
 10
40.89272481981915
 20
0.8741595758591811
 30
0.0
 41
0.9999999999999857
 10
40.89272381737787
 20
0.4298637235359951
 30
0.0
 41
1.0
  0
SPLINE
  5
7F
330
1F
100
AcDbEntity
  8
Default
100
AcDbSpline
210
0.0
220
0.0
230
1.0
 70
    12
 71
     2
 72
     6
 73
     3
 74
     0
 42
0.0000000001
 43
0.0000000001
 40
0.0
 40
0.0
 40
0.0
 40
0.0370134418365288
 40
0.0370134418365288
 40
0.0370134418365288
 10
40.89272381737787
 20
0.4298637235359951
 30
0.0
 41
1.0
 10
40.89250300066877
 20
0.408438210824519
 30
0.0
 41
0.8149664195338971
 10
40.8723222649425
 20
0.4016561472388268
 30
0.0
 41
1.0
  0
POLYLINE
  5
80
330
1F
100
AcDbEntity
  8
Default
100
AcDb2dPolyline
 66
     1
 10
0.0
 20
0.0
 30
0.0
  0
VERTEX
  5
81
330
80
100
AcDbEntity
  8
Default
100
AcDbVertex
100
AcDb2dVertex
 10
40.8723222649425
 20
0.4016561472388268
 30
0.0
  0
VERTEX
  5
82
330
80
100
AcDbEntity
  8
Default
100
AcDbVertex
100
AcDb2dVertex
 10
40.10529078336224
 20
0.4026979553860967
 30
0.0
  0
SEQEND
  5
83
330
80
100
AcDbEntity
  8
Default
  0
SPLINE
  5
84
330
1F
100
AcDbEntity
  8
Default
100
AcDbSpline
210
0.0
220
0.0
230
1.0
 70
    12
 71
     2
 72
     6
 73
     3
 74
     0
 42
0.0000000001
 43
0.0000000001
 40
-0.0343035516322866
 40
-0.0343035516322866
 40
-0.0343035516322866
 40
0.0
 40
0.0
 40
0.0
 10
40.10529078336224
 20
0.4026979553860967
 30
0.0
 41
1.0
 10
40.08772447955918
 20
0.4106979125380343
 30
0.0
 41
0.8409683921870034
 10
40.08772454124407
 20
0.4300445944567929
 30
0.0
 41
1.0
  0
LINE
  5
85
330
1F
100
AcDbEntity
  8
Default
100
AcDbLine
 10
40.08772454124407
 20
0.4300445944567929
 30
0.0
 11
40.08772455698026
 21
2.645833298418005
 31
0.0
  0
SPLINE
  5
86
330
1F
100
AcDbEntity
  8
Default
100
AcDbSpline
210
0.0
220
0.0
230
1.0
 70
    12
 71
     2
 72
     6
 73
     3
 74
     0
 42
0.0000000001
 43
0.0000000001
 40
0.0
 40
0.0
 40
0.0
 40
1.142633473844296
 40
1.142633473844296
 40
1.142633473844296
 10
40.08772455698026
 20
2.645833298418005
 30
0.0
 41
1.0
 10
40.04599584301823
 20
3.215630097155969
 30
0.0
 41
0.9999842323080803
 10
39.99787035734725
 20
3.784922301402296
 30
0.0
 41
1.0
  0
SPLINE
  5
87
330
1F
100
AcDbEntity
  8
Default
100
AcDbSpline
210
0.0
220
0.0
230
1.0
 70
     8
 71
     3
 72
     8
 73
     4
 74
     0
 42
0.0000000001
 43
0.0000000001
 40
-1.0
 40
-1.0
 40
-1.0
 40
-1.0
 40
0.0
 40
0.0
 40
0.0
 40
0.0
 10
39.99787035734725
 20
3.784922301402296
 30
0.0
 10
39.96940660823502
 20
4.121629354790442
 30
0.0
 10
40.03115225195204
 20
4.702001457415596
 30
0.0
 10
40.0621450986785
 20
5.042681719673671
 30
0.0
  0
SPLINE
  5
88
330
1F
100
AcDbEntity
  8
Default
100
AcDbSpline
210
0.0
220
0.0
230
1.0
 70
     8
 71
     3
 72
    12
 73
     8
 74
     0
 42
0.0000000001
 43
0.0000000001
 40
-5.0
 40
-5.0
 40
-5.0
 40
-5.0
 40
-4.0
 40
-3.0
 40
-2.0
 40
-1.0
 40
0.0
 40
0.0
 40
0.0
 40
0.0
 10
40.0621450986785
 20
5.042681719673671
 30
0.0
 10
40.07257188895134
 20
5.157295316675079
 30
0.0
 10
40.10690284777301
 20
5.379745552997914
 30
0.0
 10
40.28958269861396
 20
5.704291101129162
 30
0.0
 10
40.69089097084797
 20
5.704267248842217
 30
0.0
 10
40.8735561058367
 20
5.379757877824668
 30
0.0
 10
40.90787752439478
 20
5.157293835798621
 30
0.0
 10
40.91830549182241
 20
5.042682536827708
 30
0.0
  0
SPLINE
  5
89
330
1F
100
AcDbEntity
  8
Default
100
AcDbSpline
210
0.0
220
0.0
230
1.0
 70
     8
 71
     3
 72
     8
 73
     4
 74
     0
 42
0.0000000001
 43
0.0000000001
 40
0.0
 40
0.0
 40
0.0
 40
0.0
 40
1.0
 40
1.0
 40
1.0
 40
1.0
 10
40.91830549182241
 20
5.042682536827708
 30
0.0
 10
40.94926346758591
 20
4.702430820433111
 30
0.0
 10
41.00936171866367
 20
4.121637737752299
 30
0.0
 10
40.98257667465252
 20
3.784896487667917
 30
0.0
  0
SPLINE
  5
8A
330
1F
100
AcDbEntity
  8
Default
100
AcDbSpline
210
0.0
220
0.0
230
1.0
 70
    12
 71
     2
 72
    28
 73
    25
 74
     0
 42
0.0000000001
 43
0.0000000001
 40
0.0
 40
0.0
 40
0.0
 40
0.1540216414111597
 40
0.1540216414111597
 40
0.2901790848036704
 40
0.2901790848036704
 40
0.4125187213470968
 40
0.4125187213470968
 40
0.5235565796151631
 40
0.5235565796151631
 40
0.6251094707772871
 40
0.6251094707772871
 40
0.7185505680812745
 40
0.7185505680812745
 40
0.804527306064451
 40
0.804527306064451
 40
0.8835369424496379
 40
0.8835369424496379
 40
0.956096405573554
 40
0.956096405573554
 40
1.022829496748906
 40
1.022829496748906
 40
1.084573035640182
 40
1.084573035640182
 40
1.142610152573474
 40
1.142610152573474
 40
1.142610152573474
 10
40.98257667465252
 20
3.784896487667917
 30
0.0
 41
1.0
 10
40.97647040067638
 20
3.70812848492579
 30
0.0
 41
0.9999992266822498
 10
40.9701732025607
 20
3.631375907621956
 30
0.0
 41
1.0
 10
40.96461154940737
 20
3.563525086088881
 30
0.0
 41
0.999999943592941
 10
40.95900431829789
 20
3.495678015939925
 30
0.0
 41
1.0
 10
40.95396856060485
 20
3.434716141472609
 30
0.0
 41
0.9999999896650592
 10
40.94895033212622
 20
3.373752821541293
 30
0.0
 41
1.0
 10
40.94439696364194
 20
3.318421206909444
 30
0.0
 41
0.9999999204687999
 10
40.93988773200572
 20
3.263085977874307
 30
0.0
 41
1.0
 10
40.93576421388416
 20
3.212477495132922
 30
0.0
 41
0.9999998558573179
 10
40.9316950437581
 20
3.16186461355551
 30
0.0
 41
1.0
 10
40.92795107649687
 20
3.115294548757072
 30
0.0
 41
0.9999998050943961
 10
40.92426526405238
 20
3.0687198451852
 30
0.0
 41
1.0
 10
40.92087384434082
 20
3.025865672648839
 30
0.0
 41
0.9999997586473189
 10
40.91754197547293
 20
2.983006828972381
 30
0.0
 41
1.0
 10
40.91447993432018
 20
2.943621051750709
 30
0.0
 41
0.9999997032638387
 10
40.91147858014396
 20
2.904230603460748
 30
0.0
 41
1.0
 10
40.90872202144757
 20
2.868055920441487
 30
0.0
 41
0.9999996264853681
 10
40.90602799901596
 20
2.831876526437055
 30
0.0
 41
1.0
 10
40.90355008977009
 20
2.798602274891143
 30
0.0
 41
0.9999995214040918
 10
40.90113729374245
 20
2.765323238464286
 30
0.0
 41
1.0
 10
40.89890510802925
 20
2.734532418213321
 30
0.0
 41
0.9999994294407313
 10
40.89673871081179
 20
2.703736899255506
 30
0.0
 41
1.0
 10
40.89470370666196
 20
2.674789921291922
 30
0.0
 41
0.9999995283042846
 10
40.89272493496656
 20
2.645839045006541
 30
0.0
 41
0.9999999999063802
  0
POLYLINE
  5
8B
330
1F
100
AcDbEntity
  8
Default
100
AcDb2dPolyline
 66
     1
 10
0.0
 20
0.0
 30
0.0
  0
VERTEX
  5
8C
330
8B
100
AcDbEntity
  8
Default
100
AcDbVertex
100
AcDb2dVertex
 10
55.11205214011322
 20
0.4000000000000013
 30
0.0
  0
VERTEX
  5
8D
330
8B
100
AcDbEntity
  8
Default
100
AcDbVertex
100
AcDb2dVertex
 10
53.72896500113806
 20
0.4000000000000012
 30
0.0
  0
SEQEND
  5
8E
330
8B
100
AcDbEntity
  8
Default
  0
SPLINE
  5
8F
330
1F
100
AcDbEntity
  8
Default
100
AcDbSpline
210
0.0
220
0.0
230
1.0
 70
    12
 71
     2
 72
     6
 73
     3
 74
     0
 42
0.0000000001
 43
0.0000000001
 40
0.0
 40
0.0
 40
0.0
 40
0.0233001455140947
 40
0.0233001455140947
 40
0.0233001455140947
 10
53.72896500113806
 20
0.4000000000000012
 30
0.0
 41
1.0
 10
53.71422454219133
 20
0.3999999999999896
 30
0.0
 41
0.7132504491537722
 10
53.71396728571078
 20
0.385261786096561
 30
0.0
 41
1.0
  0
SPLINE
  5
90
330
1F
100
AcDbEntity
  8
Default
100
AcDbSpline
210
0.0
220
0.0
230
1.0
 70
    24
 71
     2
 72
     6
 73
     3
 74
     0
 42
0.0000000001
 43
0.0000000001
 40
-0.2265737189671924
 40
-0.2265737189671924
 40
-0.2265737189671924
 40
0.0
 40
0.0
 40
0.0
 10
53.71396728571078
 20
0.385261786096561
 30
0.0
 10
53.71199015739505
 20
0.2719921807503813
 30
0.0
 10
53.71001302907932
 20
0.1587225754042016
 30
0.0
  0
SPLINE
  5
91
330
1F
100
AcDbEntity
  8
Default
100
AcDbSpline
210
0.0
220
0.0
230
1.0
 70
    12
 71
     2
 72
     8
 73
     5
 74
     0
 42
0.0000000001
 43
0.0000000001
 40
0.0
 40
0.0
 40
0.0
 40
0.1238834703065744
 40
0.1238834703065744
 40
0.2477669406131487
 40
0.2477669406131487
 40
0.2477669406131487
 10
53.71001302907932
 20
0.1587225754042016
 30
0.0
 41
1.0
 10
53.70887135846191
 20
0.0933163095384199
 30
0.0
 41
0.9222009716703817
 10
53.75472219945566
 20
0.0466581547691941
 30
0.0
 41
1.0
 10
53.80057304044946
 20
-0.0000000000000317
 30
0.0
 41
0.9222009716703817
 10
53.86598926952381
 20
0.0000000000000009
 30
0.0
 41
1.0
  0
SPLINE
  5
92
330
1F
100
AcDbEntity
  8
Default
100
AcDbSpline
210
0.0
220
0.0
230
1.0
 70
    24
 71
     2
 72
     6
 73
     3
 74
     0
 42
0.0000000001
 43
0.0000000001
 40
-1.1178392931867
 40
-1.1178392931867
 40
-1.1178392931867
 40
0.0
 40
0.0
 40
0.0
 10
53.86598926952381
 20
0.0000000000000009
 30
0.0
 10
54.42490891611708
 20
0.0000000000000009
 30
0.0
 10
54.98382856271046
 20
0.0000000000000009
 30
0.0
  0
SPLINE
  5
93
330
1F
100
AcDbEntity
  8
Default
100
AcDbSpline
210
0.0
220
0.0
230
1.0
 70
    12
 71
     2
 72
     8
 73
     5
 74
     0
 42
0.0000000001
 43
0.0000000001
 40
0.0
 40
0.0
 40
0.0
 40
0.1269465231438404
 40
0.1269465231438404
 40
0.2538930462876808
 40
0.2538930462876808
 40
0.2538930462876808
 10
54.98382856271046
 20
0.0000000000000009
 30
0.0
 41
1.0
 10
55.05105312704586
 20
-0.0000000000000234
 30
0.0
 41
0.9183600648443049
 10
55.09722096915407
 20
0.0488638148852971
 30
0.0
 41
1.0
 10
55.14338881126239
 20
0.0977276297706175
 30
0.0
 41
0.9183600648443049
 10
55.13957766331741
 20
0.1648440748599009
 30
0.0
 41
1.0
  0
SPLINE
  5
94
330
1F
100
AcDbEntity
  8
Default
100
AcDbSpline
210
0.0
220
0.0
230
1.0
 70
     8
 71
     2
 72
     6
 73
     3
 74
     0
 42
0.0000000001
 43
0.0000000001
 40
-0.2213623405233065
 40
-0.2213623405233065
 40
-0.2213623405233065
 40
0.0
 40
0.0
 40
0.0
 10
55.13957766331741
 20
0.1648440748599009
 30
0.0
 10
55.13330283924454
 20
0.2753472333366753
 30
0.0
 10
55.12702009431773
 20
0.3859723252673241
 30
0.0
  0
SPLINE
  5
95
330
1F
100
AcDbEntity
  8
Default
100
AcDbSpline
210
0.0
220
0.0
230
1.0
 70
    12
 71
     2
 72
     6
 73
     3
 74
     0
 42
0.0000000001
 43
0.0000000001
 40
0.0
 40
0.0
 40
0.0
 40
0.0224667132803239
 40
0.0224667132803239
 40
0.0224667132803239
 10
55.12702009431773
 20
0.3859723252673241
 30
0.0
 41
1.0
 10
55.12599503143534
 20
0.4000000000000027
 30
0.0
 41
0.7324447355991569
 10
55.11205214011322
 20
0.4000000000000013
 30
0.0
 41
1.0
  0
POLYLINE
  5
96
330
1F
100
AcDbEntity
  8
Default
100
AcDb2dPolyline
 66
     1
 10
0.0
 20
0.0
 30
0.0
  0
VERTEX
  5
97
330
96
100
AcDbEntity
  8
Default
100
AcDbVertex
100
AcDb2dVertex
 10
25.86839694426946
 20
0.4000000000000013
 30
0.0
  0
VERTEX
  5
98
330
96
100
AcDbEntity
  8
Default
100
AcDbVertex
100
AcDb2dVertex
 10
27.25148408324462
 20
0.4000000000000012
 30
0.0
  0
SEQEND
  5
99
330
96
100
AcDbEntity
  8
Default
  0
SPLINE
  5
9A
330
1F
100
AcDbEntity
  8
Default
100
AcDbSpline
210
0.0
220
0.0
230
1.0
 70
    12
 71
     2
 72
     6
 73
     3
 74
     0
 42
0.0000000001
 43
0.0000000001
 40
0.0
 40
0.0
 40
0.0
 40
0.0233001455140947
 40
0.0233001455140947
 40
0.0233001455140947
 10
27.25148408324462
 20
0.4000000000000012
 30
0.0
 41
1.0
 10
27.26622454219133
 20
0.3999999999999896
 30
0.0
 41
0.7132504491537722
 10
27.2664817986719
 20
0.385261786096561
 30
0.0
 41
1.0
  0
SPLINE
  5
9B
330
1F
100
AcDbEntity
  8
Default
100
AcDbSpline
210
0.0
220
0.0
230
1.0
 70
    24
 71
     2
 72
     6
 73
     3
 74
     0
 42
0.0000000001
 43
0.0000000001
 40
-0.2265737189671924
 40
-0.2265737189671924
 40
-0.2265737189671924
 40
0.0
 40
0.0
 40
0.0
 10
27.2664817986719
 20
0.385261786096561
 30
0.0
 10
27.26845892698763
 20
0.2719921807503813
 30
0.0
 10
27.27043605530336
 20
0.1587225754042016
 30
0.0
  0
SPLINE
  5
9C
330
1F
100
AcDbEntity
  8
Default
100
AcDbSpline
210
0.0
220
0.0
230
1.0
 70
    12
 71
     2
 72
     8
 73
     5
 74
     0
 42
0.0000000001
 43
0.0000000001
 40
0.0
 40
0.0
 40
0.0
 40
0.1238834703065744
 40
0.1238834703065744
 40
0.2477669406131487
 40
0.2477669406131487
 40
0.2477669406131487
 10
27.27043605530336
 20
0.1587225754042016
 30
0.0
 41
1.0
 10
27.2715777259208
 20
0.0933163095384199
 30
0.0
 41
0.9222009716703817
 10
27.22572688492703
 20
0.0466581547691941
 30
0.0
 41
1.0
 10
27.17987604393326
 20
-0.0000000000000317
 30
0.0
 41
0.9222009716703817
 10
27.11445981485899
 20
0.0000000000000009
 30
0.0
 41
1.0
  0
SPLINE
  5
9D
330
1F
100
AcDbEntity
  8
Default
100
AcDbSpline
210
0.0
220
0.0
230
1.0
 70
    24
 71
     2
 72
     6
 73
     3
 74
     0
 42
0.0000000001
 43
0.0000000001
 40
-1.1178392931867
 40
-1.1178392931867
 40
-1.1178392931867
 40
0.0
 40
0.0
 40
0.0
 10
27.11445981485899
 20
0.0000000000000009
 30
0.0
 10
26.55554016826561
 20
0.0000000000000009
 30
0.0
 10
25.99662052167223
 20
0.0000000000000009
 30
0.0
  0
SPLINE
  5
9E
330
1F
100
AcDbEntity
  8
Default
100
AcDbSpline
210
0.0
220
0.0
230
1.0
 70
    12
 71
     2
 72
     8
 73
     5
 74
     0
 42
0.0000000001
 43
0.0000000001
 40
0.0
 40
0.0
 40
0.0
 40
0.1269465231438404
 40
0.1269465231438404
 40
0.2538930462876808
 40
0.2538930462876808
 40
0.2538930462876808
 10
25.99662052167223
 20
0.0000000000000009
 30
0.0
 41
1.0
 10
25.92939595733694
 20
-0.0000000000000234
 30
0.0
 41
0.9183600648443049
 10
25.88322811522862
 20
0.0488638148852971
 30
0.0
 41
1.0
 10
25.83706027312041
 20
0.0977276297706175
 30
0.0
 41
0.9183600648443049
 10
25.84087142106527
 20
0.1648440748599009
 30
0.0
 41
1.0
  0
SPLINE
  5
9F
330
1F
100
AcDbEntity
  8
Default
100
AcDbSpline
210
0.0
220
0.0
230
1.0
 70
     8
 71
     2
 72
     6
 73
     3
 74
     0
 42
0.0000000001
 43
0.0000000001
 40
-0.2213623405233065
 40
-0.2213623405233065
 40
-0.2213623405233065
 40
0.0
 40
0.0
 40
0.0
 10
25.84087142106527
 20
0.1648440748599009
 30
0.0
 10
25.84714624513815
 20
0.2753472333366753
 30
0.0
 10
25.85342899006496
 20
0.3859723252673241
 30
0.0
  0
SPLINE
  5
A0
330
1F
100
AcDbEntity
  8
Default
100
AcDbSpline
210
0.0
220
0.0
230
1.0
 70
    12
 71
     2
 72
     6
 73
     3
 74
     0
 42
0.0000000001
 43
0.0000000001
 40
0.0
 40
0.0
 40
0.0
 40
0.0224667132803239
 40
0.0224667132803239
 40
0.0224667132803239
 10
25.85342899006496
 20
0.3859723252673241
 30
0.0
 41
1.0
 10
25.85445405294736
 20
0.4000000000000027
 30
0.0
 41
0.7324447355991569
 10
25.86839694426946
 20
0.4000000000000013
 30
0.0
 41
1.0
  0
SPLINE
  5
A1
330
1F
100
AcDbEntity
  8
Default
100
AcDbSpline
210
0.0
220
0.0
230
1.0
 70
     8
 71
     2
 72
     7
 73
     4
 74
     0
 42
0.0000000001
 43
0.0000000001
 40
-2.112820146863387
 40
-2.112820146863387
 40
-2.112820146863387
 40
0.0
 40
10.36850216633574
 40
10.36850216633574
 40
10.36850216633574
 10
40.00493723709319
 20
3.70091115472393
 30
0.0
 10
38.95684937543164
 20
3.655344771851874
 30
0.0
 10
32.7712480582433
 20
2.826461456234592
 30
0.0
 10
27.6391854507746
 20
2.085853658713474
 30
0.0
  0
SPLINE
  5
A2
330
1F
100
AcDbEntity
  8
Default
100
AcDbSpline
210
0.0
220
0.0
230
1.0
 70
     8
 71
     3
 72
    14
 73
    10
 74
     0
 42
0.0000000001
 43
0.0000000001
 40
10.36850216633574
 40
10.36850216633574
 40
10.36850216633574
 40
10.36850216633574
 40
10.48392831467684
 40
10.61101647346049
 40
10.85569685307349
 40
10.94889229604513
 40
11.02462537061439
 40
11.10618719586826
 40
12.20116650812062
 40
12.20116650812062
 40
12.20116650812062
 40
12.20116650812062
 10
27.6391854507746
 20
2.085853658713474
 30
0.0
 10
27.60028774803372
 20
2.080240332423644
 30
0.0
 10
27.52142041401036
 20
2.056781907874129
 30
0.0
 10
27.38532525723137
 20
1.966156733401164
 30
0.0
 10
27.30278173202036
 20
1.825311740574662
 30
0.0
 10
27.29190716577254
 20
1.687141830407011
 30
0.0
 10
27.29170601783942
 20
1.603723456635179
 30
0.0
 10
27.28230135930941
 20
1.186363164752624
 30
0.0
 10
27.27469908154153
 20
0.7942933853839997
 30
0.0
 10
27.26683980018952
 20
0.4293717115611809
 30
0.0
  0
SPLINE
  5
A3
330
1F
100
AcDbEntity
  8
Default
100
AcDbSpline
210
0.0
220
0.0
230
1.0
 70
    12
 71
     2
 72
     6
 73
     3
 74
     0
 42
0.0000000001
 43
0.0000000001
 40
0.0
 40
0.0
 40
0.0
 40
0.0328025700600773
 40
0.0328025700600773
 40
0.0328025700600773
 10
27.26683980018952
 20
0.4293717115611809
 30
0.0
 41
1.0
 10
27.26645743205616
 20
0.4111181083220299
 30
0.0
 41
0.8542398056055149
 10
27.25006884796157
 20
0.4030710872597238
 30
0.0
 41
1.0
  0
POLYLINE
  5
A4
330
1F
100
AcDbEntity
  8
Default
100
AcDb2dPolyline
 66
     1
 10
0.0
 20
0.0
 30
0.0
  0
VERTEX
  5
A5
330
A4
100
AcDbEntity
  8
Default
100
AcDbVertex
100
AcDb2dVertex
 10
27.25006884796157
 20
0.4030710872597238
 30
0.0
  0
VERTEX
  5
A6
330
A4
100
AcDbEntity
  8
Default
100
AcDbVertex
100
AcDb2dVertex
 10
25.87629857006895
 20
0.4015944354498296
 30
0.0
  0
SEQEND
  5
A7
330
A4
100
AcDbEntity
  8
Default
  0
SPLINE
  5
A8
330
1F
100
AcDbEntity
  8
Default
100
AcDbSpline
210
0.0
220
0.0
230
1.0
 70
    12
 71
     2
 72
     6
 73
     3
 74
     0
 42
0.0000000001
 43
0.0000000001
 40
-0.0389746357819461
 40
-0.0389746357819461
 40
-0.0389746357819461
 40
0.0
 40
0.0
 40
0.0
 10
25.87629857006895
 20
0.4015944354498296
 30
0.0
 41
1.0
 10
25.85472347650664
 20
0.4089240281822228
 30
0.0
 41
0.7963395613957778
 10
25.85600063209237
 20
0.4317678748060569
 30
0.0
 41
1.0
  0
SPLINE
  5
A9
330
1F
100
AcDbEntity
  8
Default
100
AcDbSpline
210
0.0
220
0.0
230
1.0
 70
     8
 71
     3
 72
    12
 73
     8
 74
     0
 42
0.0000000001
 43
0.0000000001
 40
0.0
 40
0.0
 40
0.0
 40
0.0
 40
2.02509803859557
 40
2.121481653565311
 40
2.208270161634103
 40
2.642265590548921
 40
3.0858126895768
 40
3.0858126895768
 40
3.0858126895768
 40
3.0858126895768
 10
25.85600063209237
 20
0.4317678748060569
 30
0.0
 10
25.89445552363615
 20
1.10581410256726
 30
0.0
 10
25.93211204760682
 20
1.811932359792708
 30
0.0
 10
25.97480363453182
 20
2.546824012142999
 30
0.0
 10
26.02023845376361
 20
2.748295505813291
 30
0.0
 10
26.18905146223885
 20
3.03468134273648
 30
0.0
 10
26.45990834589797
 20
3.175829891605608
 30
0.0
 10
26.60422454219137
 20
3.205665827232833
 30
0.0
  0
SPLINE
  5
AA
330
1F
100
AcDbEntity
  8
Default
100
AcDbSpline
210
0.0
220
0.0
230
1.0
 70
    24
 71
     2
 72
     6
 73
     3
 74
     0
 42
0.0000000001
 43
0.0000000001
 40
-12.29027095712029
 40
-12.29027095712029
 40
-12.29027095712029
 40
0.0
 40
0.0
 40
0.0
 10
26.60422454219137
 20
3.205665827232833
 30
0.0
 10
32.6222245421914
 20
4.449195501128345
 30
0.0
 10
38.64022454219143
 20
5.692725175023857
 30
0.0
  0
SPLINE
  5
AB
330
1F
100
AcDbEntity
  8
Default
100
AcDbSpline
210
0.0
220
0.0
230
1.0
 70
     8
 71
     3
 72
    11
 73
     7
 74
     0
 42
0.0000000001
 43
0.0000000001
 40
29.02279843217129
 40
29.02279843217129
 40
29.02279843217129
 40
29.02279843217129
 40
29.27279843217141
 40
29.52279843217158
 40
29.77279843217175
 40
30.00957021186727
 40
30.00957021186727
 40
30.00957021186727
 40
30.00957021186727
 10
38.64022454219143
 20
5.692725175023857
 30
0.0
 10
38.71269228316355
 20
5.70769954961662
 30
0.0
 10
38.85433974384141
 20
5.77196445074997
 30
0.0
 10
39.03518779576636
 20
5.941965920377478
 30
0.0
 10
39.16040543839988
 20
6.152448109995484
 30
0.0
 10
39.19565584039883
 20
6.300934325093533
 30
0.0
 10
39.19848800423942
 20
6.371234909639895
 30
0.0
  0
LINE
  5
AC
330
1F
100
AcDbEntity
  8
Default
100
AcDbLine
 10
39.19848800423942
 20
6.371234909639895
 30
0.0
 11
39.20218267348427
 21
6.462944790227148
 31
0.0
  0
POLYLINE
  5
AD
330
1F
100
AcDbEntity
  8
Default
100
AcDb2dPolyline
 66
     1
 10
0.0
 20
0.0
 30
0.0
  0
VERTEX
  5
AE
330
AD
100
AcDbEntity
  8
Default
100
AcDbVertex
100
AcDb2dVertex
 10
39.20218267348427
 20
6.462944790227148
 30
0.0
  0
VERTEX
  5
AF
330
AD
100
AcDbEntity
  8
Default
100
AcDbVertex
100
AcDb2dVertex
 10
41.77826641089841
 20
6.462944790227148
 30
0.0
  0
SEQEND
  5
B0
330
AD
100
AcDbEntity
  8
Default
  0
LINE
  5
B1
330
1F
100
AcDbEntity
  8
Default
100
AcDbLine
 10
41.77826641089841
 20
6.462944790227148
 30
0.0
 11
41.78196108014326
 21
6.371234909639895
 31
0.0
  0
SPLINE
  5
B2
330
1F
100
AcDbEntity
  8
Default
100
AcDbSpline
210
0.0
220
0.0
230
1.0
 70
     8
 71
     3
 72
    11
 73
     7
 74
     0
 42
0.0000000001
 43
0.0000000001
 40
-30.00957021186727
 40
-30.00957021186727
 40
-30.00957021186727
 40
-30.00957021186727
 40
-29.77279843217175
 40
-29.52279843217158
 40
-29.27279843217141
 40
-29.02279843217129
 40
-29.02279843217129
 40
-29.02279843217129
 40
-29.02279843217129
 10
41.78196108014326
 20
6.371234909639895
 30
0.0
 10
41.78479324398386
 20
6.300934325093533
 30
0.0
 10
41.82004364598281
 20
6.152448109995484
 30
0.0
 10
41.94526128861632
 20
5.941965920377478
 30
0.0
 10
42.12610934054128
 20
5.77196445074997
 30
0.0
 10
42.26775680121914
 20
5.70769954961662
 30
0.0
 10
42.34022454219136
 20
5.692725175023857
 30
0.0
  0
SPLINE
  5
B3
330
1F
100
AcDbEntity
  8
Default
100
AcDbSpline
210
0.0
220
0.0
230
1.0
 70
    24
 71
     2
 72
     6
 73
     3
 74
     0
 42
0.0000000001
 43
0.0000000001
 40
0.0
 40
0.0
 40
0.0
 40
12.29027095712029
 40
12.29027095712029
 40
12.29027095712029
 10
42.34022454219136
 20
5.692725175023857
 30
0.0
 10
48.35822454219128
 20
4.449195501128345
 30
0.0
 10
54.37622454219131
 20
3.205665827232833
 30
0.0
  0
SPLINE
  5
B4
330
1F
100
AcDbEntity
  8
Default
100
AcDbSpline
210
0.0
220
0.0
230
1.0
 70
     8
 71
     3
 72
    12
 73
     8
 74
     0
 42
0.0000000001
 43
0.0000000001
 40
-3.0858126895768
 40
-3.0858126895768
 40
-3.0858126895768
 40
-3.0858126895768
 40
-2.642265590548921
 40
-2.208270161634103
 40
-2.121481653565311
 40
-2.02509803859557
 40
0.0
 40
0.0
 40
0.0
 40
0.0
 10
54.37622454219131
 20
3.205665827232833
 30
0.0
 10
54.52054073848471
 20
3.175829891605608
 30
0.0
 10
54.79139762214383
 20
3.03468134273648
 30
0.0
 10
54.96021063061919
 20
2.748295505813291
 30
0.0
 10
55.00564544985086
 20
2.546824012142999
 30
0.0
 10
55.04833703677586
 20
1.811932359792708
 30
0.0
 10
55.08599356074653
 20
1.10581410256726
 30
0.0
 10
55.12444845229031
 20
0.4317678748060569
 30
0.0
  0
SPLINE
  5
B5
330
1F
100
AcDbEntity
  8
Default
100
AcDbSpline
210
0.0
220
0.0
230
1.0
 70
    12
 71
     2
 72
     6
 73
     3
 74
     0
 42
0.0000000001
 43
0.0000000001
 40
0.0
 40
0.0
 40
0.0
 40
0.0389746357819461
 40
0.0389746357819461
 40
0.0389746357819461
 10
55.12444845229031
 20
0.4317678748060569
 30
0.0
 41
1.0
 10
55.12572560787597
 20
0.4089240281822228
 30
0.0
 41
0.7963395613957778
 10
55.10415051431384
 20
0.4015944354498296
 30
0.0
 41
1.0
  0
POLYLINE
  5
B6
330
1F
100
AcDbEntity
  8
Default
100
AcDb2dPolyline
 66
     1
 10
0.0
 20
0.0
 30
0.0
  0
VERTEX
  5
B7
330
B6
100
AcDbEntity
  8
Default
100
AcDbVertex
100
AcDb2dVertex
 10
55.10415051431384
 20
0.4015944354498296
 30
0.0
  0
VERTEX
  5
B8
330
B6
100
AcDbEntity
  8
Default
100
AcDbVertex
100
AcDb2dVertex
 10
53.73038023642111
 20
0.4030710872597238
 30
0.0
  0
SEQEND
  5
B9
330
B6
100
AcDbEntity
  8
Default
  0
SPLINE
  5
BA
330
1F
100
AcDbEntity
  8
Default
100
AcDbSpline
210
0.0
220
0.0
230
1.0
 70
    12
 71
     2
 72
     6
 73
     3
 74
     0
 42
0.0000000001
 43
0.0000000001
 40
-0.0328025700600773
 40
-0.0328025700600773
 40
-0.0328025700600773
 40
0.0
 40
0.0
 40
0.0
 10
53.73038023642111
 20
0.4030710872597238
 30
0.0
 41
1.0
 10
53.71399165232649
 20
0.4111181083220299
 30
0.0
 41
0.8542398056055149
 10
53.71360928419317
 20
0.4293717115611809
 30
0.0
 41
1.0
  0
SPLINE
  5
BB
330
1F
100
AcDbEntity
  8
Default
100
AcDbSpline
210
0.0
220
0.0
230
1.0
 70
     8
 71
     3
 72
    14
 73
    10
 74
     0
 42
0.0000000001
 43
0.0000000001
 40
-12.20116650812062
 40
-12.20116650812062
 40
-12.20116650812062
 40
-12.20116650812062
 40
-11.10618719586826
 40
-11.02462537061439
 40
-10.94889229604513
 40
-10.85569685307349
 40
-10.61101647346049
 40
-10.48392831467684
 40
-10.36850216633574
 40
-10.36850216633574
 40
-10.36850216633574
 40
-10.36850216633574
 10
53.71360928419317
 20
0.4293717115611809
 30
0.0
 10
53.70575000284127
 20
0.7942933853839997
 30
0.0
 10
53.69814772507338
 20
1.186363164752624
 30
0.0
 10
53.68874306654327
 20
1.603723456635179
 30
0.0
 10
53.68854191861014
 20
1.687141830407011
 30
0.0
 10
53.67766735236243
 20
1.825311740574662
 30
0.0
 10
53.59512382715143
 20
1.966156733401164
 30
0.0
 10
53.45902867037243
 20
2.056781907874129
 30
0.0
 10
53.38016133634896
 20
2.080240332423644
 30
0.0
 10
53.34126363360808
 20
2.085853658713474
 30
0.0
  0
SPLINE
  5
BC
330
1F
100
AcDbEntity
  8
Default
100
AcDbSpline
210
0.0
220
0.0
230
1.0
 70
     8
 71
     2
 72
     7
 73
     4
 74
     0
 42
0.0000000001
 43
0.0000000001
 40
-10.36850216633574
 40
-10.36850216633574
 40
-10.36850216633574
 40
0.0
 40
2.112820146863387
 40
2.112820146863387
 40
2.112820146863387
 10
53.34126363360808
 20
2.085853658713474
 30
0.0
 10
48.20920102613938
 20
2.826461456234592
 30
0.0
 10
42.02359970895104
 20
3.655344771851874
 30
0.0
 10
40.97551184728961
 20
3.70091115472393
 30
0.0
  0
POLYLINE
  5
BD
330
1F
100
AcDbEntity
  8
Default
100
AcDb2dPolyline
 66
     1
 10
0.0
 20
0.0
 30
0.0
  0
VERTEX
  5
BE
330
BD
100
AcDbEntity
  8
Default
100
AcDbVertex
100
AcDb2dVertex
 10
40.10239969038598
 20
0.399999999906409
 30
0.0
  0
VERTEX
  5
BF
330
BD
100
AcDbEntity
  8
Default
100
AcDbVertex
100
AcDb2dVertex
 10
40.87805023528806
 20
0.3999999998842094
 30
0.0
  0
SEQEND
  5
C0
330
BD
100
AcDbEntity
  8
Default
  0
SPLINE
  5
C1
330
1F
100
AcDbEntity
  8
Default
100
AcDbSpline
210
0.0
220
0.0
230
1.0
 70
    12
 71
     2
 72
     6
 73
     3
 74
     0
 42
0.0000000001
 43
0.0000000001
 40
0.0
 40
0.0
 40
0.0
 40
0.0200867229109254
 40
0.0200867229109254
 40
0.0200867229109254
 10
40.87805023528806
 20
0.3999999998842094
 30
0.0
 41
1.0
 10
40.88971988378582
 20
0.3995431334531431
 30
0.0
 41
0.802617145546988
 10
40.89264782120658
 20
0.3882375328297014
 30
0.0
 41
1.0
  0
SPLINE
  5
C2
330
1F
100
AcDbEntity
  8
Default
100
AcDbSpline
210
0.0
220
0.0
230
1.0
 70
    12
 71
     2
 72
    20
 73
    17
 74
     0
 42
0.0000000001
 43
0.0000000001
 40
0.0
 40
0.0
 40
0.0
 40
0.2255555232297128
 40
0.2255555232297128
 40
0.3498085556099202
 40
0.3498085556099202
 40
0.4740615879901277
 40
0.4740615879901277
 40
0.9777325427188074
 40
0.9777325427188074
 40
1.10188499768713
 40
1.10188499768713
 40
1.226037452655453
 40
1.226037452655453
 40
1.451954175298031
 40
1.451954175298031
 40
1.474961195965689
 40
1.474961195965689
 40
1.474961195965689
 10
40.89264782120658
 20
0.3882375328297014
 30
0.0
 41
1.0
 10
40.89550837013255
 20
0.2725751527994181
 30
0.0
 41
0.9999999835043444
 10
40.89801572058336
 20
0.1596446425376397
 30
0.0
 41
1.0
 10
40.89947638672771
 20
0.0938466362517804
 30
0.0
 41
0.9217416924384133
 10
40.85358499170734
 20
0.046923781041797
 30
0.0
 41
1.0
 10
40.80769359668693
 20
0.0000009258318137
 30
0.0
 41
0.9217416924384133
 10
40.74205995838217
 20
0.0000000000019885
 30
0.0
 41
1.0
 10
40.49022448101782
 20
0.0000000000020303
 30
0.0
 41
1.0
 10
40.23838900365347
 20
0.0000000000020721
 30
0.0
 41
1.0
 10
40.1728191145018
 20
0.0000415045432547
 30
0.0
 41
0.9219606608938025
 10
40.12694832844151
 20
0.046895352540922
 30
0.0
 41
1.0
 10
40.08107754238104
 20
0.0937492005385892
 30
0.0
 41
0.9219606608938025
 10
40.08242727616873
 20
0.1593847513956395
 30
0.0
 41
1.0
 10
40.08493677304072
 20
0.2723947785347779
 30
0.0
 41
0.9999999834523676
 10
40.08740474522317
 20
0.38532669748455
 30
0.0
 41
1.0
 10
40.08824144248649
 20
0.3994706535846757
 30
0.0
 41
0.7403604038404529
 10
40.10239969038598
 20
0.399999999906409
 30
0.0
 41
1.0
  0
SPLINE
  5
C3
330
1F
100
AcDbEntity
  8
Default
100
AcDbSpline
210
0.0
220
0.0
230
1.0
 70
     8
 71
     3
 72
    12
 73
     8
 74
     0
 42
0.0000000001
 43
0.0000000001
 40
0.0
 40
0.0
 40
0.0
 40
0.0
 40
1.0
 40
2.0
 40
3.0
 40
4.0
 40
5.0
 40
5.0
 40
5.0
 40
5.0
 10
40.08772454219131
 20
2.645833298418
 30
0.0
 10
40.08809407838048
 20
2.747790985019149
 30
0.0
 10
40.12544300806228
 20
2.947795791640983
 30
0.0
 10
40.32033384385299
 20
3.211651080471766
 30
0.0
 10
40.66011521825969
 20
3.211651113476493
 30
0.0
 10
40.85500610310082
 20
2.94779573829043
 30
0.0
 10
40.89235500042837
 20
2.747790993604342
 30
0.0
 10
40.89272454219137
 20
2.645833298418
 30
0.0
  0
LINE
  5
C4
330
1F
100
AcDbEntity
  8
Default
100
AcDbLine
 10
41.78022454219131
 20
9.959839521141623
 30
0.0
 11
41.78022454219131
 21
6.503000000000002
 31
0.0
  0
SPLINE
  5
C5
330
1F
100
AcDbEntity
  8
Default
100
AcDbSpline
210
0.0
220
0.0
230
1.0
 70
    24
 71
     2
 72
     6
 73
     3
 74
     0
 42
0.0000000001
 43
0.0000000001
 40
-2.579999999999998
 40
-2.579999999999998
 40
-2.579999999999998
 40
0.0
 40
0.0
 40
0.0
 10
41.78022454219131
 20
6.503000000000002
 30
0.0
 10
40.49022454219134
 20
6.503000000000002
 30
0.0
 10
39.20022454219138
 20
6.503000000000002
 30
0.0
  0
LINE
  5
C6
330
1F
100
AcDbEntity
  8
Default
100
AcDbLine
 10
39.20022454219138
 20
6.503000000000002
 30
0.0
 11
39.20022454219138
 21
9.962934074071002
 31
0.0
  0
SPLINE
  5
C7
330
1F
100
AcDbEntity
  8
Default - Tangent
100
AcDbSpline
210
0.0
220
0.0
230
1.0
 70
    12
 71
     2
 72
     6
 73
     3
 74
     0
 42
0.0000000001
 43
0.0000000001
 40
0.0
 40
0.0
 40
0.0
 40
0.0276977634380368
 40
0.0276977634380368
 40
0.0276977634380368
 10
0.4923521324611926
 20
3.784896487667917
 30
0.0
 41
1.0
 10
0.4930485967140281
 20
3.770987048242446
 30
0.0
 41
0.9916219010942138
 10
0.4901584403319958
 20
3.757363371658137
 30
0.0
 41
1.0
  0
SPLINE
  5
C8
330
1F
100
AcDbEntity
  8
Default
100
AcDbSpline
210
0.0
220
0.0
230
1.0
 70
     8
 71
     2
 72
     7
 73
     4
 74
     0
 42
0.0000000001
 43
0.0000000001
 40
-2.112820146863387
 40
-2.112820146863387
 40
-2.112820146863387
 40
0.0
 40
10.36850216633574
 40
10.36850216633574
 40
10.36850216633574
 10
-0.485287305098197
 20
3.70091115472393
 30
0.0
 10
-1.53337516675974
 20
3.655344771851874
 30
0.0
 10
-7.718976483948026
 20
2.826461456234592
 30
0.0
 10
-12.85103909141672
 20
2.085853658713474
 30
0.0
  0
SPLINE
  5
C9
330
1F
100
AcDbEntity
  8
Default
100
AcDbSpline
210
0.0
220
0.0
230
1.0
 70
     8
 71
     3
 72
    14
 73
    10
 74
     0
 42
0.0000000001
 43
0.0000000001
 40
10.36850216633574
 40
10.36850216633574
 40
10.36850216633574
 40
10.36850216633574
 40
10.48392831467684
 40
10.61101647346049
 40
10.85569685307349
 40
10.94889229604513
 40
11.02462537061439
 40
11.10618719586826
 40
12.20116650812062
 40
12.20116650812062
 40
12.20116650812062
 40
12.20116650812062
 10
-12.85103909141672
 20
2.085853658713474
 30
0.0
 10
-12.88993679415761
 20
2.080240332423644
 30
0.0
 10
-12.96880412818102
 20
2.056781907874129
 30
0.0
 10
-13.10489928496001
 20
1.966156733401164
 30
0.0
 10
-13.18744281017102
 20
1.825311740574662
 30
0.0
 10
-13.19831737641884
 20
1.687141830407011
 30
0.0
 10
-13.19851852435197
 20
1.603723456635179
 30
0.0
 10
-13.20792318288203
 20
1.186363164752624
 30
0.0
 10
-13.21552546064986
 20
0.7942933853839997
 30
0.0
 10
-13.22338474200187
 20
0.4293717115611809
 30
0.0
  0
SPLINE
  5
CA
330
1F
100
AcDbEntity
  8
Default
100
AcDbSpline
210
0.0
220
0.0
230
1.0
 70
    12
 71
     2
 72
     6
 73
     3
 74
     0
 42
0.0000000001
 43
0.0000000001
 40
0.0
 40
0.0
 40
0.0
 40
0.0328025700600773
 40
0.0328025700600773
 40
0.0328025700600773
 10
-13.22338474200187
 20
0.4293717115611809
 30
0.0
 41
1.0
 10
-13.22376711013519
 20
0.4111181083220299
 30
0.0
 41
0.8542398056055149
 10
-13.24015569422976
 20
0.4030710872597238
 30
0.0
 41
1.0
  0
POLYLINE
  5
CB
330
1F
100
AcDbEntity
  8
Default
100
AcDb2dPolyline
 66
     1
 10
0.0
 20
0.0
 30
0.0
  0
VERTEX
  5
CC
330
CB
100
AcDbEntity
  8
Default
100
AcDbVertex
100
AcDb2dVertex
 10
-13.24015569422976
 20
0.4030710872597238
 30
0.0
  0
VERTEX
  5
CD
330
CB
100
AcDbEntity
  8
Default
100
AcDbVertex
100
AcDb2dVertex
 10
-14.61392597212243
 20
0.4015944354498296
 30
0.0
  0
SEQEND
  5
CE
330
CB
100
AcDbEntity
  8
Default
  0
SPLINE
  5
CF
330
1F
100
AcDbEntity
  8
Default
100
AcDbSpline
210
0.0
220
0.0
230
1.0
 70
    12
 71
     2
 72
     6
 73
     3
 74
     0
 42
0.0000000001
 43
0.0000000001
 40
-0.0389746357819461
 40
-0.0389746357819461
 40
-0.0389746357819461
 40
0.0
 40
0.0
 40
0.0
 10
-14.61392597212243
 20
0.4015944354498296
 30
0.0
 41
1.0
 10
-14.63550106568467
 20
0.4089240281822228
 30
0.0
 41
0.7963395613957778
 10
-14.63422391009895
 20
0.4317678748060569
 30
0.0
 41
1.0
  0
SPLINE
  5
D0
330
1F
100
AcDbEntity
  8
Default
100
AcDbSpline
210
0.0
220
0.0
230
1.0
 70
     8
 71
     3
 72
    12
 73
     8
 74
     0
 42
0.0000000001
 43
0.0000000001
 40
0.0
 40
0.0
 40
0.0
 40
0.0
 40
2.02509803859557
 40
2.121481653565311
 40
2.208270161634103
 40
2.642265590548921
 40
3.0858126895768
 40
3.0858126895768
 40
3.0858126895768
 40
3.0858126895768
 10
-14.63422391009895
 20
0.4317678748060569
 30
0.0
 10
-14.59576901855517
 20
1.10581410256726
 30
0.0
 10
-14.55811249458456
 20
1.811932359792708
 30
0.0
 10
-14.51542090765956
 20
2.546824012142999
 30
0.0
 10
-14.46998608842777
 20
2.748295505813291
 30
0.0
 10
-14.30117307995248
 20
3.03468134273648
 30
0.0
 10
-14.03031619629336
 20
3.175829891605608
 30
0.0
 10
-13.88599999999995
 20
3.205665827232833
 30
0.0
  0
SPLINE
  5
D1
330
1F
100
AcDbEntity
  8
Default
100
AcDbSpline
210
0.0
220
0.0
230
1.0
 70
    24
 71
     2
 72
     6
 73
     3
 74
     0
 42
0.0000000001
 43
0.0000000001
 40
-12.29027095712029
 40
-12.29027095712029
 40
-12.29027095712029
 40
0.0
 40
0.0
 40
0.0
 10
-13.88599999999995
 20
3.205665827232833
 30
0.0
 10
-7.867999999999981
 20
4.449195501128345
 30
0.0
 10
-1.849999999999952
 20
5.692725175023857
 30
0.0
  0
SPLINE
  5
D2
330
1F
100
AcDbEntity
  8
Default
100
AcDbSpline
210
0.0
220
0.0
230
1.0
 70
     8
 71
     3
 72
    11
 73
     7
 74
     0
 42
0.0000000001
 43
0.0000000001
 40
29.02279843217129
 40
29.02279843217129
 40
29.02279843217129
 40
29.02279843217129
 40
29.27279843217141
 40
29.52279843217158
 40
29.77279843217175
 40
30.00957021186727
 40
30.00957021186727
 40
30.00957021186727
 40
30.00957021186727
 10
-1.849999999999952
 20
5.692725175023857
 30
0.0
 10
-1.77753225902778
 20
5.70769954961662
 30
0.0
 10
-1.63588479834992
 20
5.77196445074997
 30
0.0
 10
-1.455036746424966
 20
5.941965920377478
 30
0.0
 10
-1.329819103791451
 20
6.152448109995484
 30
0.0
 10
-1.2945687017925
 20
6.300934325093533
 30
0.0
 10
-1.291736537951962
 20
6.371234909639895
 30
0.0
  0
LINE
  5
D3
330
1F
100
AcDbEntity
  8
Default
100
AcDbLine
 10
-1.291736537951962
 20
6.371234909639895
 30
0.0
 11
-1.288041868707055
 21
6.462944790227148
 31
0.0
  0
POLYLINE
  5
D4
330
1F
100
AcDbEntity
  8
Default
100
AcDb2dPolyline
 66
     1
 10
0.0
 20
0.0
 30
0.0
  0
VERTEX
  5
D5
330
D4
100
AcDbEntity
  8
Default
100
AcDbVertex
100
AcDb2dVertex
 10
-1.288041868707055
 20
6.462944790227148
 30
0.0
  0
VERTEX
  5
D6
330
D4
100
AcDbEntity
  8
Default
100
AcDbVertex
100
AcDb2dVertex
 10
1.288041868707083
 20
6.462944790227148
 30
0.0
  0
SEQEND
  5
D7
330
D4
100
AcDbEntity
  8
Default
  0
LINE
  5
D8
330
1F
100
AcDbEntity
  8
Default
100
AcDbLine
 10
1.288041868707083
 20
6.462944790227148
 30
0.0
 11
1.291736537951934
 21
6.371234909639895
 31
0.0
  0
SPLINE
  5
D9
330
1F
100
AcDbEntity
  8
Default
100
AcDbSpline
210
0.0
220
0.0
230
1.0
 70
     8
 71
     3
 72
    11
 73
     7
 74
     0
 42
0.0000000001
 43
0.0000000001
 40
-30.00957021186727
 40
-30.00957021186727
 40
-30.00957021186727
 40
-30.00957021186727
 40
-29.77279843217175
 40
-29.52279843217158
 40
-29.27279843217141
 40
-29.02279843217129
 40
-29.02279843217129
 40
-29.02279843217129
 40
-29.02279843217129
 10
1.291736537951934
 20
6.371234909639895
 30
0.0
 10
1.294568701792528
 20
6.300934325093533
 30
0.0
 10
1.329819103791479
 20
6.152448109995484
 30
0.0
 10
1.455036746424938
 20
5.941965920377478
 30
0.0
 10
1.635884798349949
 20
5.77196445074997
 30
0.0
 10
1.777532259027808
 20
5.70769954961662
 30
0.0
 10
1.84999999999998
 20
5.692725175023857
 30
0.0
  0
SPLINE
  5
DA
330
1F
100
AcDbEntity
  8
Default
100
AcDbSpline
210
0.0
220
0.0
230
1.0
 70
    24
 71
     2
 72
     6
 73
     3
 74
     0
 42
0.0000000001
 43
0.0000000001
 40
0.0
 40
0.0
 40
0.0
 40
12.29027095712029
 40
12.29027095712029
 40
12.29027095712029
 10
1.84999999999998
 20
5.692725175023857
 30
0.0
 10
7.867999999999981
 20
4.449195501128345
 30
0.0
 10
13.88600000000001
 20
3.205665827232833
 30
0.0
  0
SPLINE
  5
DB
330
1F
100
AcDbEntity
  8
Default
100
AcDbSpline
210
0.0
220
0.0
230
1.0
 70
     8
 71
     3
 72
    12
 73
     8
 74
     0
 42
0.0000000001
 43
0.0000000001
 40
-3.0858126895768
 40
-3.0858126895768
 40
-3.0858126895768
 40
-3.0858126895768
 40
-2.642265590548921
 40
-2.208270161634103
 40
-2.121481653565311
 40
-2.02509803859557
 40
0.0
 40
0.0
 40
0.0
 40
0.0
 10
13.88600000000001
 20
3.205665827232833
 30
0.0
 10
14.0303161962933
 20
3.175829891605608
 30
0.0
 10
14.30117307995253
 20
3.03468134273648
 30
0.0
 10
14.46998608842777
 20
2.748295505813291
 30
0.0
 10
14.51542090765956
 20
2.546824012142999
 30
0.0
 10
14.55811249458456
 20
1.811932359792708
 30
0.0
 10
14.59576901855523
 20
1.10581410256726
 30
0.0
 10
14.63422391009901
 20
0.4317678748060569
 30
0.0
  0
SPLINE
  5
DC
330
1F
100
AcDbEntity
  8
Default
100
AcDbSpline
210
0.0
220
0.0
230
1.0
 70
    12
 71
     2
 72
     6
 73
     3
 74
     0
 42
0.0000000001
 43
0.0000000001
 40
0.0
 40
0.0
 40
0.0
 40
0.0389746357819461
 40
0.0389746357819461
 40
0.0389746357819461
 10
14.63422391009901
 20
0.4317678748060569
 30
0.0
 41
1.0
 10
14.63550106568465
 20
0.4089240281822228
 30
0.0
 41
0.7963395613957778
 10
14.61392597212243
 20
0.4015944354498296
 30
0.0
 41
1.0
  0
POLYLINE
  5
DD
330
1F
100
AcDbEntity
  8
Default
100
AcDb2dPolyline
 66
     1
 10
0.0
 20
0.0
 30
0.0
  0
VERTEX
  5
DE
330
DD
100
AcDbEntity
  8
Default
100
AcDbVertex
100
AcDb2dVertex
 10
14.61392597212243
 20
0.4015944354498296
 30
0.0
  0
VERTEX
  5
DF
330
DD
100
AcDbEntity
  8
Default
100
AcDbVertex
100
AcDb2dVertex
 10
13.2401556942297
 20
0.4030710872597238
 30
0.0
  0
SEQEND
  5
E0
330
DD
100
AcDbEntity
  8
Default
  0
SPLINE
  5
E1
330
1F
100
AcDbEntity
  8
Default
100
AcDbSpline
210
0.0
220
0.0
230
1.0
 70
    12
 71
     2
 72
     6
 73
     3
 74
     0
 42
0.0000000001
 43
0.0000000001
 40
-0.0328025700600773
 40
-0.0328025700600773
 40
-0.0328025700600773
 40
0.0
 40
0.0
 40
0.0
 10
13.2401556942297
 20
0.4030710872597238
 30
0.0
 41
1.0
 10
13.22376711013514
 20
0.4111181083220299
 30
0.0
 41
0.8542398056055149
 10
13.22338474200187
 20
0.4293717115611809
 30
0.0
 41
1.0
  0
SPLINE
  5
E2
330
1F
100
AcDbEntity
  8
Default
100
AcDbSpline
210
0.0
220
0.0
230
1.0
 70
     8
 71
     3
 72
    14
 73
    10
 74
     0
 42
0.0000000001
 43
0.0000000001
 40
-12.20116650812062
 40
-12.20116650812062
 40
-12.20116650812062
 40
-12.20116650812062
 40
-11.10618719586826
 40
-11.02462537061439
 40
-10.94889229604513
 40
-10.85569685307349
 40
-10.61101647346049
 40
-10.48392831467684
 40
-10.36850216633574
 40
-10.36850216633574
 40
-10.36850216633574
 40
-10.36850216633574
 10
13.22338474200187
 20
0.4293717115611809
 30
0.0
 10
13.21552546064986
 20
0.7942933853839997
 30
0.0
 10
13.20792318288197
 20
1.186363164752624
 30
0.0
 10
13.19851852435197
 20
1.603723456635179
 30
0.0
 10
13.19831737641884
 20
1.687141830407011
 30
0.0
 10
13.18744281017102
 20
1.825311740574662
 30
0.0
 10
13.10489928496001
 20
1.966156733401164
 30
0.0
 10
12.96880412818102
 20
2.056781907874129
 30
0.0
 10
12.88993679415755
 20
2.080240332423644
 30
0.0
 10
12.85103909141667
 20
2.085853658713474
 30
0.0
  0
SPLINE
  5
E3
330
1F
100
AcDbEntity
  8
Default
100
AcDbSpline
210
0.0
220
0.0
230
1.0
 70
     8
 71
     2
 72
     7
 73
     4
 74
     0
 42
0.0000000001
 43
0.0000000001
 40
-10.36850216633574
 40
-10.36850216633574
 40
-10.36850216633574
 40
0.0
 40
2.112820146863387
 40
2.112820146863387
 40
2.112820146863387
 10
12.85103909141667
 20
2.085853658713474
 30
0.0
 10
7.718976483947969
 20
2.826461456234592
 30
0.0
 10
1.533375166759711
 20
3.655344771851874
 30
0.0
 10
0.4852873050982254
 20
3.70091115472393
 30
0.0
  0
SPLINE
  5
E4
330
1F
100
AcDbEntity
  8
Default
100
AcDbSpline
210
0.0
220
0.0
230
1.0
 70
     8
 71
     3
 72
    14
 73
    10
 74
     0
 42
0.0000000001
 43
0.0000000001
 40
-6.989654053354371
 40
-6.989654053354371
 40
-6.989654053354371
 40
-6.989654053354371
 40
-6.0
 40
-5.0
 40
-4.0
 40
-3.0
 40
-2.0
 40
-1.0
 40
-0.0005866680957936
 40
-0.0005866680957936
 40
-0.0005866680957936
 40
-0.0005866680957936
 10
52.37146647936258
 20
16.38867767128869
 30
0.0
 10
52.58339691914971
 20
16.42845526817851
 30
0.0
 10
53.01229799604657
 20
16.49338018925047
 30
0.0
 10
53.65999168758769
 20
16.56023678407303
 30
0.0
 10
54.31997415789719
 20
16.52319381426457
 30
0.0
 10
54.91580425331601
 20
16.21149060778191
 30
0.0
 10
55.3051682449498
 20
15.66678728389016
 30
0.0
 10
55.43845166391843
 20
15.00972598570945
 30
0.0
 10
55.32120642494515
 20
14.58007949016005
 30
0.0
 10
55.24892926360319
 20
14.37591376283137
 30
0.0
  0
SPLINE
  5
E5
330
1F
100
AcDbEntity
  8
Default
100
AcDbSpline
210
0.0
220
0.0
230
1.0
 70
     8
 71
     3
 72
    13
 73
     9
 74
     0
 42
0.0000000001
 43
0.0000000001
 40
-81.71040402546193
 40
-81.71040402546193
 40
-81.71040402546193
 40
-81.71040402546193
 40
-81.7000048194896
 40
-80.7000048194896
 40
-79.7000048194896
 40
-78.7000048194896
 40
-77.7000048194896
 40
-77.09129258927226
 40
-77.09129258927226
 40
-77.09129258927226
 40
-77.09129258927226
 10
55.24892926360319
 20
14.37591376283137
 30
0.0
 10
55.24639734136672
 20
14.37684565077848
 30
0.0
 10
55.0007558431012
 20
14.46797359604818
 30
0.0
 10
54.58561161733637
 20
14.7665878689242
 30
0.0
 10
53.91879343458474
 20
15.13883265730075
 30
0.0
 10
53.29719004484257
 20
15.58336402354757
 30
0.0
 10
52.80906799568235
 20
16.03334386936248
 30
0.0
 10
52.49204885524937
 20
16.29167730222105
 30
0.0
 10
52.37146647936258
 20
16.38867767128869
 30
0.0
  0
SPLINE
  5
E6
330
1F
100
AcDbEntity
  8
Default - Tangent
100
AcDbSpline
210
0.0
220
0.0
230
1.0
 70
    12
 71
     2
 72
     6
 73
     3
 74
     0
 42
0.0000000001
 43
0.0000000001
 40
-1.7050706110435
 40
-1.7050706110435
 40
-1.7050706110435
 40
0.0
 40
0.0
 40
0.0
 10
33.11780195870078
 20
23.62712665573538
 30
0.0
 41
1.0
 10
33.7351953878872
 20
22.90326813280254
 30
0.0
 41
0.9986606715136152
 10
34.39435606935847
 20
22.361397451992
 30
0.0
 41
1.0
  0
SPLINE
  5
E7
330
1F
100
AcDbEntity
  8
Default - Tangent
100
AcDbSpline
210
0.0
220
0.0
230
1.0
 70
     8
 71
     3
 72
    48
 73
    44
 74
     0
 42
0.0000000001
 43
0.0000000001
 40
-40.07509216108887
 40
-40.07509216108887
 40
-40.07509216108887
 40
-40.07509216108887
 40
-40.0
 40
-39.0
 40
-38.0
 40
-37.0
 40
-36.0
 40
-35.0
 40
-34.0
 40
-33.0
 40
-32.0
 40
-31.0
 40
-30.0
 40
-29.0
 40
-28.0
 40
-27.0
 40
-26.0
 40
-25.0
 40
-24.0
 40
-23.0
 40
-22.0
 40
-21.0
 40
-20.0
 40
-19.0
 40
-18.0
 40
-17.0
 40
-16.0
 40
-15.0
 40
-14.0
 40
-13.0
 40
-12.0
 40
-11.0
 40
-10.0
 40
-9.0
 40
-8.0
 40
-7.0
 40
-6.0
 40
-5.0
 40
-4.0
 40
-3.0
 40
-2.0
 40
-1.0
 40
0.0
 40
0.0
 40
0.0
 40
0.0
 10
34.39435606935847
 20
22.361397451992
 30
0.0
 10
34.40910082008274
 20
22.34927635870184
 30
0.0
 10
34.62095614756997
 20
22.17664398244757
 30
0.0
 10
35.05177886825884
 20
21.86982403226098
 30
0.0
 10
35.73994402157693
 20
21.53348128220115
 30
0.0
 10
36.48205887262468
 20
21.34505577638946
 30
0.0
 10
37.23835303897128
 20
21.24302285499192
 30
0.0
 10
37.99955933016729
 20
21.19320559828842
 30
0.0
 10
38.76091493783046
 20
21.14982086142508
 30
0.0
 10
39.52262100335342
 20
21.11186799840981
 30
0.0
 10
40.28409604877201
 20
21.0698083956448
 30
0.0
 10
41.04520153350022
 20
21.02136345857232
 30
0.0
 10
41.80581510155075
 20
20.96574598668681
 30
0.0
 10
42.56521482223393
 20
20.89458666176763
 30
0.0
 10
43.32211501725787
 20
20.80126733567289
 30
0.0
 10
44.07793877560009
 20
20.69792701381874
 30
0.0
 10
44.82434829606909
 20
20.53892442146329
 30
0.0
 10
45.56010251017385
 20
20.33713235989403
 30
0.0
 10
46.28379575219405
 20
20.0962680803444
 30
0.0
 10
47.00145405151129
 20
19.83731897449911
 30
0.0
 10
47.69565691890425
 20
19.52001080952499
 30
0.0
 10
48.36823471354164
 20
19.15998534973916
 30
0.0
 10
49.02242428084757
 20
18.76770000338401
 30
0.0
 10
49.66646948257794
 20
18.35927918765715
 30
0.0
 10
50.30666178300582
 20
17.94470154786018
 30
0.0
 10
50.93290325619732
 20
17.50934867272899
 30
0.0
 10
51.54612181038355
 20
17.05558492145744
 30
0.0
 10
52.1373998530626
 20
16.57390096592997
 30
0.0
 10
52.73585325555682
 20
16.10083755773354
 30
0.0
 10
53.29719004484257
 20
15.58336402354756
 30
0.0
 10
53.91879343458474
 20
15.13883265730074
 30
0.0
 10
54.58561161733637
 20
14.7665878689242
 30
0.0
 10
55.20510682684237
 20
14.32098342580328
 30
0.0
 10
56.04203041197756
 20
14.22184465822809
 30
0.0
 10
56.12490155263167
 20
13.25377428767645
 30
0.0
 10
55.40341818117319
 20
12.88509024414115
 30
0.0
 10
54.6804778786897
 20
12.67480093532552
 30
0.0
 10
53.95513320593481
 20
12.43048664377419
 30
0.0
 10
53.22771201530752
 20
12.2037312299468
 30
0.0
 10
52.49820716797574
 20
11.98073497551326
 30
0.0
 10
51.76669483729886
 20
11.76523117426092
 30
0.0
 10
51.033243473882
 20
11.55619789754689
 30
0.0
 10
50.54292119450717
 20
11.42172967173869
 30
0.0
 10
50.29745414332722
 20
11.35562612818829
 30
0.0
  0
SPLINE
  5
E8
330
1F
100
AcDbEntity
  8
Default - Tangent
100
AcDbSpline
210
0.0
220
0.0
230
1.0
 70
     8
 71
     3
 72
    10
 73
     6
 74
     0
 42
0.0000000001
 43
0.0000000001
 40
-3.0
 40
-3.0
 40
-3.0
 40
-3.0
 40
-2.0
 40
-1.0
 40
0.0
 40
0.0
 40
0.0
 40
0.0
 10
50.29745414332722
 20
11.35562612818829
 30
0.0
 10
49.58984300336878
 20
11.15881954218517
 30
0.0
 10
48.16642733182907
 20
10.79535470968349
 30
0.0
 10
46.01402597680855
 20
10.32274727222855
 30
0.0
 10
44.56761920236015
 20
10.06459603994645
 30
0.0
 10
43.84100843412993
 20
9.957367736323903
 30
0.0
  0
POLYLINE
  5
E9
330
1F
100
AcDbEntity
  8
Default - Tangent
100
AcDb2dPolyline
 66
     1
 10
0.0
 20
0.0
 30
0.0
  0
VERTEX
  5
EA
330
E9
100
AcDbEntity
  8
Default - Tangent
100
AcDbVertex
100
AcDb2dVertex
 10
43.84100843412993
 20
9.957367736323903
 30
0.0
  0
VERTEX
  5
EB
330
E9
100
AcDbEntity
  8
Default - Tangent
100
AcDbVertex
100
AcDb2dVertex
 10
37.14100843413011
 20
9.96540397842729
 30
0.0
  0
SEQEND
  5
EC
330
E9
100
AcDbEntity
  8
Default - Tangent
  0
SPLINE
  5
ED
330
1F
100
AcDbEntity
  8
Default - Tangent
100
AcDbSpline
210
0.0
220
0.0
230
1.0
 70
     8
 71
     3
 72
    10
 73
     6
 74
     0
 42
0.0000000001
 43
0.0000000001
 40
-3.0
 40
-3.0
 40
-3.0
 40
-3.0
 40
-2.0
 40
-1.0
 40
0.0
 40
0.0
 40
0.0
 40
0.0
 10
37.14100843413011
 20
9.96540397842729
 30
0.0
 10
36.78507845937399
 20
10.05224321083359
 30
0.0
 10
36.08571809063976
 20
10.27293520791108
 30
0.0
 10
35.07952255525554
 20
10.7221942959727
 30
0.0
 10
34.46461283434819
 20
11.12323791810094
 30
0.0
 10
34.16965435572222
 20
11.34034722125524
 30
0.0
  0
SPLINE
  5
EE
330
1F
100
AcDbEntity
  8
Default - Tangent
100
AcDbSpline
210
0.0
220
0.0
230
1.0
 70
     8
 71
     3
 72
    24
 73
    20
 74
     0
 42
0.0000000001
 43
0.0000000001
 40
-82.0
 40
-82.0
 40
-82.0
 40
-82.0
 40
-81.0
 40
-80.0
 40
-79.0
 40
-78.0
 40
-77.0
 40
-76.0
 40
-75.0
 40
-74.0
 40
-73.0
 40
-72.0
 40
-71.0
 40
-70.0
 40
-69.0
 40
-68.0
 40
-67.0
 40
-66.0
 40
-65.36449441299654
 40
-65.36449441299654
 40
-65.36449441299654
 40
-65.36449441299654
 10
34.16965435572222
 20
11.34034722125524
 30
0.0
 10
33.96316105645535
 20
11.48862776787045
 30
0.0
 10
33.56361484728022
 20
11.80380636829135
 30
0.0
 10
33.00596610703148
 20
12.32495204316305
 30
0.0
 10
32.49028800274077
 20
12.88750480202225
 30
0.0
 10
32.01451374859646
 20
13.48404320382463
 30
0.0
 10
31.57584712174155
 20
14.10826352518517
 30
0.0
 10
31.17119167410128
 20
14.754977339897
 30
0.0
 10
30.79790024547269
 20
15.4202281370352
 30
0.0
 10
30.45251547141565
 20
16.10032455067528
 30
0.0
 10
30.13101875850036
 20
16.79198781271631
 30
0.0
 10
29.82902800581944
 20
17.49234486746208
 30
0.0
 10
29.54203933825993
 20
18.19895398153214
 30
0.0
 10
29.26516667816502
 20
18.90957008322752
 30
0.0
 10
28.99684907832345
 20
19.62346107883495
 30
0.0
 10
28.73648779904572
 20
20.34028507971813
 30
0.0
 10
28.48203412745004
 20
21.05922473007512
 30
0.0
 10
28.26033761354442
 20
21.69145863816685
 30
0.0
 10
28.12410217996914
 20
22.08426951499661
 30
0.0
 10
28.07135749534454
 20
22.23696991352625
 30
0.0
  0
SPLINE
  5
EF
330
1F
100
AcDbEntity
  8
Default - Tangent
100
AcDbSpline
210
0.0
220
0.0
230
1.0
 70
     8
 71
     3
 72
    39
 73
    35
 74
     0
 42
0.0000000001
 43
0.0000000001
 40
0.0
 40
0.0
 40
0.0
 40
0.0
 40
1.0
 40
2.0
 40
3.0
 40
4.0
 40
5.0
 40
6.0
 40
7.0
 40
8.0
 40
9.0
 40
10.0
 40
11.0
 40
12.0
 40
13.0
 40
14.0
 40
15.0
 40
16.0
 40
17.0
 40
18.0
 40
19.0
 40
20.0
 40
21.0
 40
22.0
 40
23.0
 40
24.0
 40
25.0
 40
26.0
 40
27.0
 40
28.0
 40
29.0
 40
30.0
 40
31.0
 40
32.0
 40
32.0
 40
32.0
 40
32.0
 10
28.07135749534454
 20
22.23696991352625
 30
0.0
 10
27.94151178259112
 20
22.61288441990567
 30
0.0
 10
26.99133703546981
 20
25.54514820545999
 30
0.0
 10
26.64453842792345
 20
26.68680146041011
 30
0.0
 10
26.31628519563144
 20
27.83392389996118
 30
0.0
 10
26.00666339147635
 20
28.98621610890358
 30
0.0
 10
25.71575373766011
 20
30.14337267771172
 30
0.0
 10
25.44363681629618
 20
31.30509278014581
 30
0.0
 10
25.19154134065984
 20
32.47133682111661
 30
0.0
 10
24.961772461748
 20
33.64216679196534
 30
0.0
 10
24.75373358468396
 20
34.81713353628852
 30
0.0
 10
24.57054478593527
 20
35.99595714607206
 30
0.0
 10
24.41441869329735
 20
37.17975755406329
 30
0.0
 10
24.2963032397369
 20
38.36413584449519
 30
0.0
 10
24.24269387053282
 20
39.56849338059169
 30
0.0
 10
24.21708019975999
 20
40.71579850164417
 30
0.0
 10
24.34320041851235
 20
42.0803587668492
 30
0.0
 10
25.69073036341256
 20
42.25681721110374
 30
0.0
 10
26.80197662246637
 20
41.68807776304268
 30
0.0
 10
27.20178123659245
 20
40.5050466365845
 30
0.0
 10
27.52726031972468
 20
39.37226584241017
 30
0.0
 10
27.82491013126723
 20
38.21263691366639
 30
0.0
 10
28.0687287070629
 20
37.04550269166253
 30
0.0
 10
28.28572891624951
 20
35.87199530203515
 30
0.0
 10
28.48846900199878
 20
34.69623898288079
 30
0.0
 10
28.69766514176074
 20
33.5217346771712
 30
0.0
 10
28.91645122814695
 20
32.34824694351576
 30
0.0
 10
29.22738940651054
 20
31.19563605144842
 30
0.0
 10
29.58779982958281
 20
30.05806031425273
 30
0.0
 10
29.99824187751499
 20
28.93738699408003
 30
0.0
 10
30.46527165010086
 20
27.83895709403592
 30
0.0
 10
30.99447400589774
 20
26.76914128188493
 30
0.0
 10
31.58024617400547
 20
25.72907331816205
 30
0.0
 10
32.84677795689485
 20
23.91823371725168
 30
0.0
 10
33.11780195870078
 20
23.62712665573538
 30
0.0
  0
SPLINE
  5
F0
330
1F
100
AcDbEntity
  8
Default
100
AcDbSpline
210
0.0
220
0.0
230
1.0
 70
     8
 71
     3
 72
    12
 73
     8
 74
     0
 42
0.0000000001
 43
0.0000000001
 40
0.0
 40
0.0
 40
0.0
 40
0.0
 40
1.0
 40
2.0
 40
3.0
 40
4.0
 40
5.0
 40
5.0
 40
5.0
 40
5.0
 10
8.54283592440531
 20
15.31182285830181
 30
0.0
 10
8.064876433265383
 20
15.6615851934634
 30
0.0
 10
6.91225622438121
 20
15.850157704602
 30
0.0
 10
5.187456849912522
 20
15.91692741158555
 30
0.0
 10
3.458491254741276
 20
15.98292193758124
 30
0.0
 10
1.729345735805239
 20
15.99904408372191
 30
0.0
 10
0.576432387909918
 20
15.99903135731431
 30
0.0
 10
0.0000000000000142
 20
15.99799118678388
 30
0.0
  0
SPLINE
  5
F1
330
1F
100
AcDbEntity
  8
Default
100
AcDbSpline
210
0.0
220
0.0
230
1.0
 70
     8
 71
     3
 72
    12
 73
     8
 74
     0
 42
0.0000000001
 43
0.0000000001
 40
-5.0
 40
-5.0
 40
-5.0
 40
-5.0
 40
-4.0
 40
-3.0
 40
-2.0
 40
-1.0
 40
0.0
 40
0.0
 40
0.0
 40
0.0
 10
0.0000000000000142
 20
15.99799118678388
 30
0.0
 10
-0.5764323879098896
 20
15.99903135731431
 30
0.0
 10
-1.729345735805268
 20
15.99904408372191
 30
0.0
 10
-3.458491254741304
 20
15.98292193758124
 30
0.0
 10
-5.18745684991255
 20
15.91692741158555
 30
0.0
 10
-6.912256224381267
 20
15.850157704602
 30
0.0
 10
-8.064876433265383
 20
15.6615851934634
 30
0.0
 10
-8.54283592440531
 20
15.31182285830181
 30
0.0
  0
SPLINE
  5
F2
330
1F
100
AcDbEntity
  8
Default
100
AcDbSpline
210
0.0
220
0.0
230
1.0
 70
    12
 71
     3
 72
    14
 73
    10
 74
     0
 42
0.0000000001
 43
0.0000000001
 40
0.0
 40
0.0
 40
0.0
 40
0.0
 40
2.272530570850037
 40
5.023967254719622
 40
6.68002001149758
 40
7.995391502034781
 40
7.995391502034781
 40
7.995391502034781
 40
12.3591975902638
 40
12.3591975902638
 40
12.3591975902638
 40
12.3591975902638
 10
9.79444212425328
 20
39.49201624166793
 30
0.0
 41
1.0
 10
9.814067617055954
 20
38.73475212983186
 30
0.0
 41
1.0
 10
9.869587103805017
 20
37.0610169228697
 30
0.0
 41
1.0
 10
9.956378196602074
 20
34.83601030617154
 30
0.0
 41
1.0
 10
10.04816997551954
 20
32.93058009270059
 30
0.0
 41
1.0
 10
10.11325931681112
 20
31.94217661787575
 30
0.0
 41
1.0
 10
10.14855689979463
 20
31.50514312005906
 30
0.0
 41
1.0
 10
10.26567438482183
 20
30.0550646781208
 30
0.0
 41
0.9997274175345053
 10
10.51780975946398
 20
27.86132940982535
 30
0.0
 41
0.9997274175345053
 10
10.80233794865278
 20
26.43309990892877
 30
0.0
 41
1.0
  0
SPLINE
  5
F3
330
1F
100
AcDbEntity
  8
Default
100
AcDbSpline
210
0.0
220
0.0
230
1.0
 70
     8
 71
     3
 72
    36
 73
    32
 74
     0
 42
0.0000000001
 43
0.0000000001
 40
18.97962094509823
 40
18.97962094509823
 40
18.97962094509823
 40
18.97962094509823
 40
19.0
 40
20.0
 40
21.0
 40
22.0
 40
23.0
 40
24.0
 40
25.0
 40
26.0
 40
27.0
 40
28.0
 40
29.0
 40
30.0
 40
31.0
 40
32.0
 40
33.0
 40
34.0
 40
35.0
 40
36.0
 40
37.0
 40
38.0
 40
39.0
 40
40.0
 40
41.0
 40
42.0
 40
43.0
 40
44.0
 40
45.0
 40
46.0
 40
47.0
 40
47.0
 40
47.0
 40
47.0
 10
10.80233794865278
 20
26.43309990892877
 30
0.0
 10
10.8032290080253
 20
26.42862711034059
 30
0.0
 10
10.84785415995729
 20
26.20467802747035
 30
0.0
 10
10.93758391942565
 20
25.7617407466072
 30
0.0
 10
11.07819411403061
 20
25.10532108331293
 30
0.0
 10
11.24786793226728
 20
24.45571839881748
 30
0.0
 10
11.44802570862741
 20
23.81494325149312
 30
0.0
 10
11.68271763611783
 20
23.18534795145176
 30
0.0
 10
11.97212069591471
 20
22.58006167875855
 30
0.0
 10
12.2949020246346
 20
21.98817036345673
 30
0.0
 10
12.74600174017534
 20
21.4878029950185
 30
0.0
 10
13.29326928420282
 20
21.08026036859206
 30
0.0
 10
13.94603456874761
 20
20.91838697984002
 30
0.0
 10
14.61259099797228
 20
20.72934213153322
 30
0.0
 10
15.01112432931511
 20
20.14680719594729
 30
0.0
 10
15.04145883747792
 20
19.44633513676391
 30
0.0
 10
14.74664218978846
 20
18.83742082219557
 30
0.0
 10
14.44482366412551
 20
18.23945303033065
 30
0.0
 10
14.12232491405943
 20
17.6502411427159
 30
0.0
 10
13.778306208091
 20
17.073876125453
 30
0.0
 10
13.41027124697193
 20
16.51236097494419
 30
0.0
 10
13.01902977841921
 20
15.96680600267497
 30
0.0
 10
12.60460374457391
 20
15.43862845493851
 30
0.0
 10
12.16804985284755
 20
14.92860059383672
 30
0.0
 10
11.71061241200134
 20
14.43722641822602
 30
0.0
 10
11.23350979362833
 20
13.96491789293819
 30
0.0
 10
10.73735914954311
 20
13.51268405033132
 30
0.0
 10
10.22413111922928
 20
13.07992197639955
 30
0.0
 10
9.693714013871883
 20
12.66839611219869
 30
0.0
 10
9.147039326139677
 20
12.27873030288738
 30
0.0
 10
8.772363656126956
 20
12.03393206128188
 30
0.0
 10
8.58262839827482
 20
11.91537059773982
 30
0.0
  0
SPLINE
  5
F4
330
1F
100
AcDbEntity
  8
Default
100
AcDbSpline
210
0.0
220
0.0
230
1.0
 70
     8
 71
     3
 72
    13
 73
     9
 74
     0
 42
0.0000000001
 43
0.0000000001
 40
0.0
 40
0.0
 40
0.0
 40
0.0
 40
1.0
 40
2.0
 40
3.0
 40
4.0
 40
5.0
 40
6.0
 40
6.0
 40
6.0
 40
6.0
 10
8.58262839827482
 20
11.91537059773982
 30
0.0
 10
7.726426787058287
 20
11.38926232480229
 30
0.0
 10
5.936730880038041
 20
10.48690015503483
 30
0.0
 10
3.027397889836621
 20
9.5759466336244
 30
0.0
 10
0.0000000236330067
 20
9.748711657147469
 30
0.0
 10
-3.02739798436879
 20
9.57594666071107
 30
0.0
 10
-5.936730566624178
 20
10.48690004874048
 30
0.0
 10
-7.726426670125406
 20
11.38926224597793
 30
0.0
 10
-8.58262839827482
 20
11.91537059773982
 30
0.0
  0
SPLINE
  5
F5
330
1F
100
AcDbEntity
  8
Default
100
AcDbSpline
210
0.0
220
0.0
230
1.0
 70
     8
 71
     3
 72
    36
 73
    32
 74
     0
 42
0.0000000001
 43
0.0000000001
 40
-47.0
 40
-47.0
 40
-47.0
 40
-47.0
 40
-46.0
 40
-45.0
 40
-44.0
 40
-43.0
 40
-42.0
 40
-41.0
 40
-40.0
 40
-39.0
 40
-38.0
 40
-37.0
 40
-36.0
 40
-35.0
 40
-34.0
 40
-33.0
 40
-32.0
 40
-31.0
 40
-30.0
 40
-29.0
 40
-28.0
 40
-27.0
 40
-26.0
 40
-25.0
 40
-24.0
 40
-23.0
 40
-22.0
 40
-21.0
 40
-20.0
 40
-19.0
 40
-18.97962094509862
 40
-18.97962094509862
 40
-18.97962094509862
 40
-18.97962094509862
 10
-8.58262839827482
 20
11.91537059773982
 30
0.0
 10
-8.772363656126956
 20
12.03393206128188
 30
0.0
 10
-9.147039326139677
 20
12.27873030288738
 30
0.0
 10
-9.69371401387194
 20
12.66839611219869
 30
0.0
 10
-10.22413111922934
 20
13.07992197639955
 30
0.0
 10
-10.73735914954311
 20
13.51268405033132
 30
0.0
 10
-11.23350979362833
 20
13.96491789293819
 30
0.0
 10
-11.7106124120014
 20
14.43722641822602
 30
0.0
 10
-12.1680498528476
 20
14.92860059383672
 30
0.0
 10
-12.60460374457391
 20
15.43862845493851
 30
0.0
 10
-13.01902977841915
 20
15.96680600267497
 30
0.0
 10
-13.41027124697193
 20
16.51236097494419
 30
0.0
 10
-13.77830620809105
 20
17.073876125453
 30
0.0
 10
-14.12232491405943
 20
17.6502411427159
 30
0.0
 10
-14.44482366412551
 20
18.23945303033065
 30
0.0
 10
-14.74664218978852
 20
18.83742082219557
 30
0.0
 10
-15.04145883747792
 20
19.44633513676391
 30
0.0
 10
-15.01112432931517
 20
20.14680719594729
 30
0.0
 10
-14.61259099797228
 20
20.72934213153322
 30
0.0
 10
-13.94603456874761
 20
20.91838697984002
 30
0.0
 10
-13.29326928420288
 20
21.08026036859206
 30
0.0
 10
-12.74600174017534
 20
21.4878029950185
 30
0.0
 10
-12.2949020246346
 20
21.98817036345673
 30
0.0
 10
-11.97212069591471
 20
22.58006167875855
 30
0.0
 10
-11.68271763611783
 20
23.18534795145176
 30
0.0
 10
-11.44802570862747
 20
23.81494325149312
 30
0.0
 10
-11.24786793226728
 20
24.45571839881748
 30
0.0
 10
-11.07819411403067
 20
25.10532108331293
 30
0.0
 10
-10.93758391942571
 20
25.7617407466072
 30
0.0
 10
-10.84785415995729
 20
26.20467802747027
 30
0.0
 10
-10.80322900802535
 20
26.42862711034041
 30
0.0
 10
-10.80233794865283
 20
26.43309990892851
 30
0.0
  0
SPLINE
  5
F6
330
1F
100
AcDbEntity
  8
Default
100
AcDbSpline
210
0.0
220
0.0
230
1.0
 70
    12
 71
     3
 72
    14
 73
    10
 74
     0
 42
0.0000000001
 43
0.0000000001
 40
-4.36387859078472
 40
-4.36387859078472
 40
-4.36387859078472
 40
-4.36387859078472
 40
0.0
 40
0.0
 40
0.0
 40
0.6166140580245227
 40
1.31537414424904
 40
2.970965137522998
 40
7.997532208823502
 40
7.997532208823502
 40
7.997532208823502
 40
7.997532208823502
 10
-10.80233794865283
 20
26.43309990892851
 30
0.0
 41
1.0
 10
-10.51784415244976
 20
27.86115676936708
 30
0.0
 41
0.9997274049409776
 10
-10.2694589689538
 20
30.05535105310304
 30
0.0
 41
0.9997274049409776
 10
-10.14855689979599
 20
31.50514312005905
 30
0.0
 41
1.0
 10
-10.13147447883067
 20
31.70998625113563
 30
0.0
 41
1.0
 10
-10.10049232698701
 20
32.147320275146
 30
0.0
 41
1.0
 10
-10.03741360084983
 20
33.13569413433054
 30
0.0
 41
1.0
 10
-9.92246657606448
 20
35.59331065373989
 30
0.0
 41
1.0
 10
-9.839812669360683
 20
37.81925005287916
 30
0.0
 41
1.0
 10
-9.79437933148158
 20
39.49417883708952
 30
0.0
 41
1.0
  0
SPLINE
  5
F7
330
1F
100
AcDbEntity
  8
Default
100
AcDbSpline
210
0.0
220
0.0
230
1.0
 70
     8
 71
     3
 72
    12
 73
     8
 74
     0
 42
0.0000000001
 43
0.0000000001
 40
0.0
 40
0.0
 40
0.0
 40
0.0
 40
0.4799243607303058
 40
0.9499896771204523
 40
1.805716767132695
 40
2.611606334304326
 40
3.377181149938189
 40
3.377181149938189
 40
3.377181149938189
 40
3.377181149938189
 10
-9.79437933148158
 20
39.49417883708952
 30
0.0
 10
-9.790208583004684
 20
39.65408034707011
 30
0.0
 10
-9.76278866513347
 20
39.97029219554497
 30
0.0
 10
-9.633825010274435
 20
40.55938111072606
 30
0.0
 10
-9.335500657432803
 20
41.21350839072676
 30
0.0
 10
-8.756618929057865
 20
41.80100507538376
 30
0.0
 10
-8.258040765645532
 20
41.99801176996837
 30
0.0
 10
-8.005544078551779
 20
42.03593113498789
 30
0.0
  0
SPLINE
  5
F8
330
1F
100
AcDbEntity
  8
Default
100
AcDbSpline
210
0.0
220
0.0
230
1.0
 70
     8
 71
     3
 72
    12
 73
     8
 74
     0
 42
0.0000000001
 43
0.0000000001
 40
0.0
 40
0.0
 40
0.0
 40
0.0
 40
0.999999999112639
 40
1.999999999710156
 40
3.000000000307672
 40
4.000000000905188
 40
5.0
 40
5.0
 40
5.0
 40
5.0
 10
-8.005544078551779
 20
42.03593113498789
 30
0.0
 10
-6.948022941880467
 20
42.19884434501708
 30
0.0
 10
-4.811334752009415
 20
42.33075948304244
 30
0.0
 10
-1.603769938059926
 20
42.35171516120209
 30
0.0
 10
1.60376805792113
 20
42.35110812260882
 30
0.0
 10
4.81132511897853
 20
42.33074554682855
 30
0.0
 10
6.948025102177823
 20
42.19891103193294
 30
0.0
 10
8.005543028725285
 20
42.03593338504061
 30
0.0
  0
SPLINE
  5
F9
330
1F
100
AcDbEntity
  8
Default
100
AcDbSpline
210
0.0
220
0.0
230
1.0
 70
     8
 71
     3
 72
    12
 73
     8
 74
     0
 42
0.0000000001
 43
0.0000000001
 40
0.0
 40
0.0
 40
0.0
 40
0.0
 40
0.3681735974468679
 40
0.7558963010621398
 40
1.565710918587365
 40
2.427222010208526
 40
3.377193793628841
 40
3.377193793628841
 40
3.377193793628841
 40
3.377193793628841
 10
8.005543028725285
 20
42.03593338504061
 30
0.0
 10
8.126830985435888
 20
42.01715518123817
 30
0.0
 10
8.371891153060844
 20
41.95319835096615
 30
0.0
 10
8.839940304220747
 20
41.71465572585583
 30
0.0
 10
9.33329782419598
 20
41.21846193241413
 30
0.0
 10
9.700464362490877
 20
40.4137772882666
 30
0.0
 10
9.785564439927882
 20
39.81057081673231
 30
0.0
 10
9.794373611765238
 20
39.49420110708473
 30
0.0
  0
SPLINE
  5
FA
330
1F
100
AcDbEntity
  8
Default
100
AcDbSpline
210
0.0
220
0.0
230
1.0
 70
     8
 71
     3
 72
    13
 73
     9
 74
     0
 42
0.0000000001
 43
0.0000000001
 40
0.0
 40
0.0
 40
0.0
 40
0.0
 40
1.0
 40
2.0
 40
3.0
 40
4.0
 40
5.0
 40
6.0
 40
6.0
 40
6.0
 40
6.0
 10
14.84003022638448
 20
19.06676843314747
 30
0.0
 10
14.23670429918836
 20
18.33536644192024
 30
0.0
 10
12.9949464536359
 20
16.89517809831739
 30
0.0
 10
10.84942842324692
 20
15.01948212630768
 30
0.0
 10
8.446139612511203
 20
13.45535838328581
 30
0.0
 10
5.684520554540242
 20
12.66922340135767
 30
0.0
 10
2.845832940971903
 20
12.4100328859944
 30
0.0
 10
0.9487175012800577
 20
12.37151273535759
 30
0.0
 10
0.0000000000000142
 20
12.3724505773106
 30
0.0
  0
SPLINE
  5
FB
330
1F
100
AcDbEntity
  8
Default
100
AcDbSpline
210
0.0
220
0.0
230
1.0
 70
     8
 71
     3
 72
    13
 73
     9
 74
     0
 42
0.0000000001
 43
0.0000000001
 40
-6.0
 40
-6.0
 40
-6.0
 40
-6.0
 40
-5.0
 40
-4.0
 40
-3.0
 40
-2.0
 40
-1.0
 40
0.0
 40
0.0
 40
0.0
 40
0.0
 10
0.0000000000000142
 20
12.3724505773106
 30
0.0
 10
-0.9487175012800861
 20
12.37151273535759
 30
0.0
 10
-2.845832940971931
 20
12.4100328859944
 30
0.0
 10
-5.684520554540299
 20
12.66922340135767
 30
0.0
 10
-8.446139612511203
 20
13.45535838328581
 30
0.0
 10
-10.84942842324698
 20
15.01948212630768
 30
0.0
 10
-12.99494645363596
 20
16.89517809831739
 30
0.0
 10
-14.2367042991883
 20
18.33536644192024
 30
0.0
 10
-14.84003022638448
 20
19.06676843314747
 30
0.0
  0
SPLINE
  5
FC
330
1F
100
AcDbEntity
  8
Default
100
AcDbSpline
210
0.0
220
0.0
230
1.0
 70
     8
 71
     3
 72
    13
 73
     9
 74
     0
 42
0.0000000001
 43
0.0000000001
 40
-6.0
 40
-6.0
 40
-6.0
 40
-6.0
 40
-5.0
 40
-4.0
 40
-3.0
 40
-2.0
 40
-1.0
 40
0.0
 40
0.0
 40
0.0
 40
0.0
 10
-10.55640285671471
 20
17.66675678315274
 30
0.0
 10
-10.16725934581977
 20
17.13155814988519
 30
0.0
 10
-9.497553653268639
 20
15.95650570095741
 30
0.0
 10
-7.845544445243078
 20
14.77106847156421
 30
0.0
 10
-5.969020014820998
 20
14.07683822199451
 30
0.0
 10
-3.986042293352781
 20
13.79799553897331
 30
0.0
 10
-1.993617152111582
 20
13.73420141290535
 30
0.0
 10
-0.6644651943260413
 20
13.73116022748526
 30
0.0
 10
0.0000000000000142
 20
13.73204201195284
 30
0.0
  0
SPLINE
  5
FD
330
1F
100
AcDbEntity
  8
Default
100
AcDbSpline
210
0.0
220
0.0
230
1.0
 70
     8
 71
     3
 72
    13
 73
     9
 74
     0
 42
0.0000000001
 43
0.0000000001
 40
0.0
 40
0.0
 40
0.0
 40
0.0
 40
1.0
 40
2.0
 40
3.0
 40
4.0
 40
5.0
 40
6.0
 40
6.0
 40
6.0
 40
6.0
 10
0.0000000000000142
 20
13.73204201195284
 30
0.0
 10
0.6644651943260129
 20
13.73116022748526
 30
0.0
 10
1.993617152111554
 20
13.73420141290535
 30
0.0
 10
3.986042293352753
 20
13.79799553897331
 30
0.0
 10
5.969020014820941
 20
14.07683822199451
 30
0.0
 10
7.845544445243078
 20
14.77106847156421
 30
0.0
 10
9.497553653268639
 20
15.95650570095741
 30
0.0
 10
10.16725934581977
 20
17.13155814988519
 30
0.0
 10
10.55640285671477
 20
17.66675678315274
 30
0.0
  0
SPLINE
  5
FE
330
1F
100
AcDbEntity
  8
Default
100
AcDbSpline
210
0.0
220
0.0
230
1.0
 70
     8
 71
     3
 72
    13
 73
     9
 74
     0
 42
0.0000000001
 43
0.0000000001
 40
0.0
 40
0.0
 40
0.0
 40
0.0
 40
1.0
 40
2.0
 40
3.0
 40
4.0
 40
5.0
 40
6.0
 40
6.0
 40
6.0
 40
6.0
 10
14.84003022638448
 20
19.06676843314746
 30
0.0
 10
14.23670429918836
 20
18.33536644192023
 30
0.0
 10
12.9949464536359
 20
16.89517809831737
 30
0.0
 10
10.84942842324692
 20
15.01948212630767
 30
0.0
 10
8.446139612511203
 20
13.4553583832858
 30
0.0
 10
5.684520554540242
 20
12.66922340135766
 30
0.0
 10
2.845832940971903
 20
12.41003288599438
 30
0.0
 10
0.9487175012800577
 20
12.37151273535757
 30
0.0
 10
0.0000000000000142
 20
12.37245057731059
 30
0.0
  0
SPLINE
  5
FF
330
1F
100
AcDbEntity
  8
Default
100
AcDbSpline
210
0.0
220
0.0
230
1.0
 70
     8
 71
     3
 72
    13
 73
     9
 74
     0
 42
0.0000000001
 43
0.0000000001
 40
-6.0
 40
-6.0
 40
-6.0
 40
-6.0
 40
-5.0
 40
-4.0
 40
-3.0
 40
-2.0
 40
-1.0
 40
0.0
 40
0.0
 40
0.0
 40
0.0
 10
0.0000000000000142
 20
12.37245057731059
 30
0.0
 10
-0.9487175012800861
 20
12.37151273535757
 30
0.0
 10
-2.845832940971931
 20
12.41003288599438
 30
0.0
 10
-5.684520554540299
 20
12.66922340135766
 30
0.0
 10
-8.446139612511203
 20
13.4553583832858
 30
0.0
 10
-10.84942842324698
 20
15.01948212630767
 30
0.0
 10
-12.99494645363596
 20
16.89517809831737
 30
0.0
 10
-14.2367042991883
 20
18.33536644192023
 30
0.0
 10
-14.84003022638448
 20
19.06676843314746
 30
0.0
  0
ENDSEC
  0
SECTION
  2
OBJECTS
  0
DICTIONARY
  5
C
330
0
100
AcDbDictionary
281
     1
  3
ACAD_GROUP
350
D
  3
ACAD_LAYOUT
350
1A
  3
ACAD_MLEADERSTYLE
350
101
  3
ACAD_MLINESTYLE
350
17
  3
ACAD_PLOTSETTINGS
350
19
  3
ACAD_PLOTSTYLENAME
350
E
  3
ACAD_TABLESTYLE
350
100
  3
ACAD_VISUALSTYLE
350
2A
  0
DICTIONARY
  5
D
102
{ACAD_REACTORS
330
C
102
}
330
C
100
AcDbDictionary
281
     1
  0
DICTIONARY
  5
1A
102
{ACAD_REACTORS
330
C
102
}
330
C
100
AcDbDictionary
281
     1
  3
Layout1
350
1E
  3
Layout2
350
26
  3
Model
350
22
  0
DICTIONARY
  5
101
102
{ACAD_REACTORS
330
C
102
}
330
C
100
AcDbDictionary
281
     1
  0
DICTIONARY
  5
17
102
{ACAD_REACTORS
330
C
102
}
330
C
100
AcDbDictionary
281
     1
  3
Standard
350
18
  0
DICTIONARY
  5
19
102
{ACAD_REACTORS
330
C
102
}
330
C
100
AcDbDictionary
281
     1
  0
ACDBDICTIONARYWDFLT
  5
E
102
{ACAD_REACTORS
330
C
102
}
330
C
100
AcDbDictionary
281
     1
  3
Normal
350
F
100
AcDbDictionaryWithDefault
340
F
  0
DICTIONARY
  5
100
102
{ACAD_REACTORS
330
C
102
}
330
C
100
AcDbDictionary
281
     1
  0
DICTIONARY
  5
2A
102
{ACAD_REACTORS
330
C
102
}
330
C
100
AcDbDictionary
281
     1
  3
2dWireframe
350
2F
  3
3D Hidden
350
31
  3
3dWireframe
350
30
  3
Basic
350
32
  3
Brighten
350
36
  3
ColorChange
350
3A
  3
Conceptual
350
34
  3
Dim
350
35
  3
Facepattern
350
39
  3
Flat
350
2B
  3
FlatWithEdges
350
2C
  3
Gouraud
350
2D
  3
GouraudWithEdges
350
2E
  3
Linepattern
350
38
  3
Realistic
350
33
  3
Thicken
350
37
  0
LAYOUT
  5
1E
102
{ACAD_REACTORS
330
1A
102
}
330
1A
100
AcDbPlotSettings
  1

  2
none_device
  4

  6

 40
0.0
 41
0.0
 42
0.0
 43
0.0
 44
0.0
 45
0.0
 46
0.0
 47
0.0
 48
0.0
 49
0.0
140
0.0
141
0.0
142
1.0
143
1.0
 70
   688
 72
     0
 73
     0
 74
     5
  7

 75
    16
 76
     0
 77
     2
 78
   300
147
1.0
148
0.0
149
0.0
100
AcDbLayout
  1
Layout1
 70
     1
 71
     1
 10
0.0
 20
0.0
 11
12.0
 21
9.0
 12
0.0
 22
0.0
 32
0.0
 14
1.000000000000000E+20
 24
1.000000000000000E+20
 34
1.000000000000000E+20
 15
-1.000000000000000E+20
 25
-1.000000000000000E+20
 35
-1.000000000000000E+20
146
0.0
 13
0.0
 23
0.0
 33
0.0
 16
1.0
 26
0.0
 36
0.0
 17
0.0
 27
1.0
 37
0.0
 76
     0
330
1B
  0
LAYOUT
  5
26
102
{ACAD_REACTORS
330
1A
102
}
330
1A
100
AcDbPlotSettings
  1

  2
none_device
  4

  6

 40
0.0
 41
0.0
 42
0.0
 43
0.0
 44
0.0
 45
0.0
 46
0.0
 47
0.0
 48
0.0
 49
0.0
140
0.0
141
0.0
142
1.0
143
1.0
 70
   688
 72
     0
 73
     0
 74
     5
  7

 75
    16
 76
     0
 77
     2
 78
   300
147
1.0
148
0.0
149
0.0
100
AcDbLayout
  1
Layout2
 70
     1
 71
     2
 10
0.0
 20
0.0
 11
0.0
 21
0.0
 12
0.0
 22
0.0
 32
0.0
 14
0.0
 24
0.0
 34
0.0
 15
0.0
 25
0.0
 35
0.0
146
0.0
 13
0.0
 23
0.0
 33
0.0
 16
1.0
 26
0.0
 36
0.0
 17
0.0
 27
1.0
 37
0.0
 76
     0
330
23
  0
LAYOUT
  5
22
102
{ACAD_REACTORS
330
1A
102
}
330
1A
100
AcDbPlotSettings
  1

  2
none_device
  4

  6

 40
0.0
 41
0.0
 42
0.0
 43
0.0
 44
0.0
 45
0.0
 46
0.0
 47
0.0
 48
0.0
 49
0.0
140
0.0
141
0.0
142
1.0
143
1.0
 70
  1712
 72
     0
 73
     0
 74
     0
  7

 75
     0
 76
     0
 77
     2
 78
   300
147
1.0
148
0.0
149
0.0
100
AcDbLayout
  1
Model
 70
     1
 71
     0
 10
0.0
 20
0.0
 11
12.0
 21
9.0
 12
0.0
 22
0.0
 32
0.0
 14
-15.0118467921667
 24
0.0000000000000009
 34
0.0
 15
56.05099917070892
 25
81.34658580922898
 35
0.0
146
0.0
 13
0.0
 23
0.0
 33
0.0
 16
1.0
 26
0.0
 36
0.0
 17
0.0
 27
1.0
 37
0.0
 76
     0
330
1F
331
29
  0
MLINESTYLE
  5
18
102
{ACAD_REACTORS
330
17
102
}
330
17
100
AcDbMlineStyle
  2
Standard
 70
     0
  3

 62
   256
 51
90.0
 52
90.0
 71
     2
 49
0.5
 62
   256
  6
BYLAYER
 49
-0.5
 62
   256
  6
BYLAYER
  0
ACDBPLACEHOLDER
  5
F
102
{ACAD_REACTORS
330
E
102
}
330
E
  0
VISUALSTYLE
  5
2F
102
{ACAD_REACTORS
330
2A
102
}
330
2A
100
AcDbVisualStyle
  2
2dWireframe
 70
     4
 71
     0
 72
     2
 73
     0
 90
        0
 40
-0.6
 41
-30.0
 62
     5
 63
     7
421
 16777215
 74
     1
 91
        4
 64
     7
 65
   257
 75
     1
175
     1
 42
1.0
 92
        0
 66
   257
 43
1.0
 76
     1
 77
     6
 78
     2
 67
     7
 79
     5
170
     0
171
     0
290
     0
174
     0
 93
        1
 44
0.0
173
     0
291
     0
 45
0.0
1001
ACAD
1000
AcDbSavedByObjectVersion
1070
     0
  0
VISUALSTYLE
  5
31
102
{ACAD_REACTORS
330
2A
102
}
330
2A
100
AcDbVisualStyle
  2
3D Hidden
 70
     6
 71
     1
 72
     2
 73
     2
 90
        0
 40
-0.6
 41
-30.0
 62
     5
 63
     7
421
 16777215
 74
     2
 91
        2
 64
     7
 65
   257
 75
     2
175
     1
 42
40.0
 92
        0
 66
   257
 43
1.0
 76
     1
 77
     6
 78
     2
 67
     7
 79
     3
170
     0
171
     0
290
     0
174
     0
 93
        1
 44
0.0
173
     0
291
     0
 45
0.0
1001
ACAD
1000
AcDbSavedByObjectVersion
1070
     0
  0
VISUALSTYLE
  5
30
102
{ACAD_REACTORS
330
2A
102
}
330
2A
100
AcDbVisualStyle
  2
3dWireframe
 70
     5
 71
     0
 72
     2
 73
     0
 90
        0
 40
-0.6
 41
-30.0
 62
     5
 63
     7
421
 16777215
 74
     1
 91
        4
 64
     7
 65
   257
 75
     1
175
     1
 42
1.0
 92
        0
 66
   257
 43
1.0
 76
     1
 77
     6
 78
     2
 67
     7
 79
     5
170
     0
171
     0
290
     0
174
     0
 93
        1
 44
0.0
173
     0
291
     0
 45
0.0
1001
ACAD
1000
AcDbSavedByObjectVersion
1070
     0
  0
VISUALSTYLE
  5
32
102
{ACAD_REACTORS
330
2A
102
}
330
2A
100
AcDbVisualStyle
  2
Basic
 70
     7
 71
     1
 72
     0
 73
     1
 90
        0
 40
-0.6
 41
-30.0
 62
     5
 63
     7
421
 16777215
 74
     0
 91
        4
 64
     7
 65
   257
 75
     1
175
     1
 42
1.0
 92
        8
 66
     7
 43
1.0
 76
     1
 77
     6
 78
     2
 67
     7
 79
     5
170
     0
171
     0
290
     0
174
     0
 93
        1
 44
0.0
173
     0
291
     1
 45
0.0
1001
ACAD
1000
AcDbSavedByObjectVersion
1070
     0
  0
VISUALSTYLE
  5
36
102
{ACAD_REACTORS
330
2A
102
}
330
2A
100
AcDbVisualStyle
  2
Brighten
 70
    12
 71
     2
 72
     2
 73
     0
 90
        0
 40
-0.6
 41
-30.0
 62
     5
 63
     7
421
 16777215
 74
     1
 91
        4
 64
     7
 65
   257
 75
     1
175
     1
 42
1.0
 92
        8
 66
     7
 43
1.0
 76
     1
 77
     6
 78
     2
 67
     7
 79
     5
170
     0
171
     0
290
     0
174
     0
 93
        1
 44
50.0
173
     0
291
     1
 45
0.0
1001
ACAD
1000
AcDbSavedByObjectVersion
1070
     0
  0
VISUALSTYLE
  5
3A
102
{ACAD_REACTORS
330
2A
102
}
330
2A
100
AcDbVisualStyle
  2
ColorChange
 70
    16
 71
     2
 72
     2
 73
     3
 90
        0
 40
-0.6
 41
-30.0
 62
     5
 63
     8
421
  8421504
 74
     1
 91
        4
 64
     7
 65
   257
 75
     1
175
     1
 42
1.0
 92
        8
 66
     8
424
  8421504
 43
1.0
 76
     1
 77
     6
 78
     2
 67
     7
 79
     5
170
     0
171
     0
290
     0
174
     0
 93
        1
 44
0.0
173
     0
291
     1
 45
0.0
1001
ACAD
1000
AcDbSavedByObjectVersion
1070
     0
  0
VISUALSTYLE
  5
34
102
{ACAD_REACTORS
330
2A
102
}
330
2A
100
AcDbVisualStyle
  2
Conceptual
 70
     9
 71
     3
 72
     2
 73
     0
 90
        0
 40
-0.6
 41
-30.0
 62
     5
 63
     7
421
 16777215
 74
     2
 91
        2
 64
     7
 65
   257
 75
     1
175
     1
 42
40.0
 92
        8
 66
     7
 43
1.0
 76
     1
 77
     6
 78
     2
 67
     7
 79
     3
170
     0
171
     0
290
     0
174
     0
 93
        1
 44
0.0
173
     0
291
     0
 45
0.0
1001
ACAD
1000
AcDbSavedByObjectVersion
1070
     0
  0
VISUALSTYLE
  5
35
102
{ACAD_REACTORS
330
2A
102
}
330
2A
100
AcDbVisualStyle
  2
Dim
 70
    11
 71
     2
 72
     2
 73
     0
 90
        0
 40
-0.6
 41
-30.0
 62
     5
 63
     7
421
 16777215
 74
     1
 91
        4
 64
     7
 65
   257
 75
     1
175
     1
 42
1.0
 92
        8
 66
     7
 43
1.0
 76
     1
 77
     6
 78
     2
 67
     7
 79
     5
170
     0
171
     0
290
     0
174
     0
 93
        1
 44
-50.0
173
     0
291
     1
 45
0.0
1001
ACAD
1000
AcDbSavedByObjectVersion
1070
     0
  0
VISUALSTYLE
  5
39
102
{ACAD_REACTORS
330
2A
102
}
330
2A
100
AcDbVisualStyle
  2
Facepattern
 70
    15
 71
     2
 72
     2
 73
     0
 90
        0
 40
-0.6
 41
-30.0
 62
     5
 63
     7
421
 16777215
 74
     1
 91
        4
 64
     7
 65
   257
 75
     1
175
     1
 42
1.0
 92
        8
 66
     7
 43
1.0
 76
     1
 77
     6
 78
     2
 67
     7
 79
     5
170
     0
171
     0
290
     0
174
     0
 93
        1
 44
0.0
173
     0
291
     1
 45
0.0
1001
ACAD
1000
AcDbSavedByObjectVersion
1070
     0
  0
VISUALSTYLE
  5
2B
102
{ACAD_REACTORS
330
2A
102
}
330
2A
100
AcDbVisualStyle
  2
Flat
 70
     0
 71
     2
 72
     1
 73
     1
 90
        2
 40
-0.6
 41
30.0
 62
     5
 63
     7
421
 16777215
 74
     0
 91
        4
 64
     7
 65
   257
 75
     1
175
     1
 42
1.0
 92
        8
 66
     7
 43
1.0
 76
     1
 77
     6
 78
     2
 67
     7
 79
     5
170
     0
171
     0
290
     0
174
     0
 93
       13
 44
0.0
173
     0
291
     1
 45
0.0
1001
ACAD
1000
AcDbSavedByObjectVersion
1070
     0
  0
VISUALSTYLE
  5
2C
102
{ACAD_REACTORS
330
2A
102
}
330
2A
100
AcDbVisualStyle
  2
FlatWithEdges
 70
     1
 71
     2
 72
     1
 73
     1
 90
        2
 40
-0.6
 41
30.0
 62
     5
 63
     7
421
 16777215
 74
     1
 91
        4
 64
     7
 65
   257
 75
     1
175
     1
 42
1.0
 92
        0
 66
   257
 43
1.0
 76
     1
 77
     6
 78
     2
 67
     7
 79
     5
170
     0
171
     0
290
     0
174
     0
 93
       13
 44
0.0
173
     0
291
     1
 45
0.0
1001
ACAD
1000
AcDbSavedByObjectVersion
1070
     0
  0
VISUALSTYLE
  5
2D
102
{ACAD_REACTORS
330
2A
102
}
330
2A
100
AcDbVisualStyle
  2
Gouraud
 70
     2
 71
     2
 72
     2
 73
     1
 90
        2
 40
-0.6
 41
30.0
 62
     5
 63
     7
421
 16777215
 74
     0
 91
        4
 64
     7
 65
   257
 75
     1
175
     1
 42
1.0
 92
        0
 66
     7
 43
1.0
 76
     1
 77
     6
 78
     2
 67
     7
 79
     5
170
     0
171
     0
290
     0
174
     0
 93
       13
 44
0.0
173
     0
291
     1
 45
0.0
1001
ACAD
1000
AcDbSavedByObjectVersion
1070
     0
  0
VISUALSTYLE
  5
2E
102
{ACAD_REACTORS
330
2A
102
}
330
2A
100
AcDbVisualStyle
  2
GouraudWithEdges
 70
     3
 71
     2
 72
     2
 73
     1
 90
        2
 40
-0.6
 41
30.0
 62
     5
 63
     7
421
 16777215
 74
     1
 91
        4
 64
     7
 65
   257
 75
     1
175
     1
 42
1.0
 92
        0
 66
   257
 43
1.0
 76
     1
 77
     6
 78
     2
 67
     7
 79
     5
170
     0
171
     0
290
     0
174
     0
 93
       13
 44
0.0
173
     0
291
     1
 45
0.0
1001
ACAD
1000
AcDbSavedByObjectVersion
1070
     0
  0
VISUALSTYLE
  5
38
102
{ACAD_REACTORS
330
2A
102
}
330
2A
100
AcDbVisualStyle
  2
Linepattern
 70
    14
 71
     2
 72
     2
 73
     0
 90
        0
 40
-0.6
 41
-30.0
 62
     5
 63
     7
421
 16777215
 74
     1
 91
        4
 64
     7
 65
   257
 75
     7
175
     7
 42
1.0
 92
        8
 66
     7
 43
1.0
 76
     1
 77
     6
 78
     2
 67
     7
 79
     5
170
     0
171
     0
290
     0
174
     0
 93
        1
 44
0.0
173
     0
291
     1
 45
0.0
1001
ACAD
1000
AcDbSavedByObjectVersion
1070
     0
  0
VISUALSTYLE
  5
33
102
{ACAD_REACTORS
330
2A
102
}
330
2A
100
AcDbVisualStyle
  2
Realistic
 70
     8
 71
     2
 72
     2
 73
     0
 90
        0
 40
-0.6
 41
-30.0
 62
     5
 63
     7
421
 16777215
 74
     1
 91
        0
 64
     7
 65
   257
 75
     1
175
     1
 42
1.0
 92
        8
 66
     8
424
  7895160
 43
1.0
 76
     1
 77
     6
 78
     2
 67
     7
 79
     5
170
     0
171
     0
290
     0
174
     0
 93
       13
 44
0.0
173
     0
291
     0
 45
0.0
1001
ACAD
1000
AcDbSavedByObjectVersion
1070
     0
  0
VISUALSTYLE
  5
37
102
{ACAD_REACTORS
330
2A
102
}
330
2A
100
AcDbVisualStyle
  2
Thicken
 70
    13
 71
     2
 72
     2
 73
     0
 90
        0
 40
-0.6
 41
-30.0
 62
     5
 63
     7
421
 16777215
 74
     1
 91
        4
 64
     7
 65
   257
 75
     1
175
     1
 42
1.0
 92
       12
 66
     7
 43
1.0
 76
     1
 77
     6
 78
     2
 67
     7
 79
     5
170
     0
171
     0
290
     0
174
     0
 93
        1
 44
0.0
173
     0
291
     1
 45
0.0
1001
ACAD
1000
AcDbSavedByObjectVersion
1070
     0
  0
ENDSEC
  0
EOF
