  0
SECTION
  2
HEADER
  9
$ACADVER
  1
AC1018
  9
$ACADMAINTVER
 70
     0
  9
$DWGCODEPAGE
  3
ANSI_1252
  9
$INSBASE
 10
0.0
 20
0.0
 30
0.0
  9
$EXTMIN
 10
-13.75517190357537
 20
-0.0000000000005342
 30
0.0
  9
$EXTMAX
 10
55.42714031991729
 20
76.79576976300211
 30
0.0
  9
$LIMMIN
 10
0.0
 20
0.0
  9
$LIMMAX
 10
12.0
 20
9.0
  9
$ORTHOMODE
 70
     0
  9
$REGENMODE
 70
     1
  9
$FILLMODE
 70
     1
  9
$QTEXTMODE
 70
     0
  9
$MIRRTEXT
 70
     1
  9
$LTSCALE
 40
0.0393700787401575
  9
$ATTMODE
 70
     1
  9
$TEXTSIZE
 40
0.2
  9
$TRACEWID
 40
0.05
  9
$TEXTSTYLE
  7
Standard
  9
$CLAYER
  8
Default
  9
$CELTYPE
  6
ByLayer
  9
$CECOLOR
 62
   256
  9
$CELTSCALE
 40
1.0
  9
$DISPSILH
 70
     0
  9
$DIMSCALE
 40
1.0
  9
$DIMASZ
 40
0.18
  9
$DIMEXO
 40
0.0625
  9
$DIMDLI
 40
0.38
  9
$DIMRND
 40
0.0
  9
$DIMDLE
 40
0.0
  9
$DIMEXE
 40
0.18
  9
$DIMTP
 40
0.0
  9
$DIMTM
 40
0.0
  9
$DIMTXT
 40
0.18
  9
$DIMCEN
 40
0.09
  9
$DIMTSZ
 40
0.0
  9
$DIMTOL
 70
     0
  9
$DIMLIM
 70
     0
  9
$DIMTIH
 70
     1
  9
$DIMTOH
 70
     1
  9
$DIMSE1
 70
     0
  9
$DIMSE2
 70
     0
  9
$DIMTAD
 70
     0
  9
$DIMZIN
 70
     0
  9
$DIMBLK
  1

  9
$DIMASO
 70
     1
  9
$DIMSHO
 70
     1
  9
$DIMPOST
  1

  9
$DIMAPOST
  1

  9
$DIMALT
 70
     0
  9
$DIMALTD
 70
     2
  9
$DIMALTF
 40
25.4
  9
$DIMLFAC
 40
1.0
  9
$DIMTOFL
 70
     0
  9
$DIMTVP
 40
0.0
  9
$DIMTIX
 70
     0
  9
$DIMSOXD
 70
     0
  9
$DIMSAH
 70
     0
  9
$DIMBLK1
  1

  9
$DIMBLK2
  1

  9
$DIMSTYLE
  2
Standard
  9
$DIMCLRD
 70
     0
  9
$DIMCLRE
 70
     0
  9
$DIMCLRT
 70
     0
  9
$DIMTFAC
 40
1.0
  9
$DIMGAP
 40
0.09
  9
$DIMJUST
 70
     0
  9
$DIMSD1
 70
     0
  9
$DIMSD2
 70
     0
  9
$DIMTOLJ
 70
     1
  9
$DIMTZIN
 70
     0
  9
$DIMALTZ
 70
     0
  9
$DIMALTTZ
 70
     0
  9
$DIMUPT
 70
     0
  9
$DIMDEC
 70
     4
  9
$DIMTDEC
 70
     4
  9
$DIMALTU
 70
     2
  9
$DIMALTTD
 70
     2
  9
$DIMTXSTY
  7
Standard
  9
$DIMAUNIT
 70
     0
  9
$DIMADEC
 70
     0
  9
$DIMALTRND
 40
0.0
  9
$DIMAZIN
 70
     0
  9
$DIMDSEP
 70
    46
  9
$DIMATFIT
 70
     3
  9
$DIMFRAC
 70
     0
  9
$DIMLDRBLK
  1

  9
$DIMLUNIT
 70
     2
  9
$DIMLWD
 70
    -2
  9
$DIMLWE
 70
    -2
  9
$DIMTMOVE
 70
     2
  9
$LUNITS
 70
     2
  9
$LUPREC
 70
     3
  9
$SKETCHINC
 40
0.1
  9
$FILLETRAD
 40
0.5
  9
$AUNITS
 70
     0
  9
$AUPREC
 70
     0
  9
$MENU
  1
.
  9
$ELEVATION
 40
0.0
  9
$PELEVATION
 40
0.0
  9
$THICKNESS
 40
0.0
  9
$LIMCHECK
 70
     0
  9
$CHAMFERA
 40
0.5
  9
$CHAMFERB
 40
0.5
  9
$CHAMFERC
 40
1.0
  9
$CHAMFERD
 40
0.0
  9
$SKPOLY
 70
     0
  9
$TDCREATE
 40
2457848.50623463
  9
$TDUCREATE
 40
2457848.672901297
  9
$TDUPDATE
 40
2457848.506234641
  9
$TDUUPDATE
 40
2457848.672901308
  9
$TDINDWG
 40
0.0000000116
  9
$TDUSRTIMER
 40
0.0000000116
  9
$USRTIMER
 70
     1
  9
$ANGBASE
 50
0.0
  9
$ANGDIR
 70
     0
  9
$PDMODE
 70
     0
  9
$PDSIZE
 40
0.0
  9
$PLINEWID
 40
0.0
  9
$SPLFRAME
 70
     0
  9
$SPLINETYPE
 70
     6
  9
$SPLINESEGS
 70
     8
  9
$HANDSEED
  5
BF
  9
$SURFTAB1
 70
     6
  9
$SURFTAB2
 70
     6
  9
$SURFTYPE
 70
     6
  9
$SURFU
 70
     6
  9
$SURFV
 70
     6
  9
$UCSBASE
  2

  9
$UCSNAME
  2

  9
$UCSORG
 10
0.0
 20
0.0
 30
0.0
  9
$UCSXDIR
 10
1.0
 20
0.0
 30
0.0
  9
$UCSYDIR
 10
0.0
 20
1.0
 30
0.0
  9
$UCSORTHOREF
  2

  9
$UCSORTHOVIEW
 70
     0
  9
$UCSORGTOP
 10
0.0
 20
0.0
 30
0.0
  9
$UCSORGBOTTOM
 10
0.0
 20
0.0
 30
0.0
  9
$UCSORGLEFT
 10
0.0
 20
0.0
 30
0.0
  9
$UCSORGRIGHT
 10
0.0
 20
0.0
 30
0.0
  9
$UCSORGFRONT
 10
0.0
 20
0.0
 30
0.0
  9
$UCSORGBACK
 10
0.0
 20
0.0
 30
0.0
  9
$PUCSBASE
  2

  9
$PUCSNAME
  2

  9
$PUCSORG
 10
0.0
 20
0.0
 30
0.0
  9
$PUCSXDIR
 10
1.0
 20
0.0
 30
0.0
  9
$PUCSYDIR
 10
0.0
 20
1.0
 30
0.0
  9
$PUCSORTHOREF
  2

  9
$PUCSORTHOVIEW
 70
     0
  9
$PUCSORGTOP
 10
0.0
 20
0.0
 30
0.0
  9
$PUCSORGBOTTOM
 10
0.0
 20
0.0
 30
0.0
  9
$PUCSORGLEFT
 10
0.0
 20
0.0
 30
0.0
  9
$PUCSORGRIGHT
 10
0.0
 20
0.0
 30
0.0
  9
$PUCSORGFRONT
 10
0.0
 20
0.0
 30
0.0
  9
$PUCSORGBACK
 10
0.0
 20
0.0
 30
0.0
  9
$USERI1
 70
     0
  9
$USERI2
 70
     0
  9
$USERI3
 70
     0
  9
$USERI4
 70
     0
  9
$USERI5
 70
     0
  9
$USERR1
 40
0.0
  9
$USERR2
 40
0.0
  9
$USERR3
 40
0.0
  9
$USERR4
 40
0.0
  9
$USERR5
 40
0.0
  9
$WORLDVIEW
 70
     1
  9
$SHADEDGE
 70
     3
  9
$SHADEDIF
 70
    70
  9
$TILEMODE
 70
     1
  9
$MAXACTVP
 70
    64
  9
$PINSBASE
 10
0.0
 20
0.0
 30
0.0
  9
$PLIMCHECK
 70
     0
  9
$PEXTMIN
 10
1.000000000000000E+20
 20
1.000000000000000E+20
 30
1.000000000000000E+20
  9
$PEXTMAX
 10
-1.000000000000000E+20
 20
-1.000000000000000E+20
 30
-1.000000000000000E+20
  9
$PLIMMIN
 10
0.0
 20
0.0
  9
$PLIMMAX
 10
12.0
 20
9.0
  9
$UNITMODE
 70
     0
  9
$VISRETAIN
 70
     1
  9
$PLINEGEN
 70
     0
  9
$PSLTSCALE
 70
     1
  9
$TREEDEPTH
 70
  3020
  9
$CMLSTYLE
  2
Standard
  9
$CMLJUST
 70
     0
  9
$CMLSCALE
 40
1.0
  9
$PROXYGRAPHICS
 70
     1
  9
$MEASUREMENT
 70
     0
  9
$CELWEIGHT
370
    -1
  9
$ENDCAPS
280
     0
  9
$JOINSTYLE
280
     0
  9
$LWDISPLAY
290
     0
  9
$INSUNITS
 70
     1
  9
$HYPERLINKBASE
  1

  9
$STYLESHEET
  1

  9
$XEDIT
290
     1
  9
$CEPSNTYPE
380
     0
  9
$PSTYLEMODE
290
     1
  9
$FINGERPRINTGUID
  2
{D941A11D-086F-4A04-832F-998F2C0FB0EE}
  9
$VERSIONGUID
  2
{FAEB1C32-E019-11D5-929B-00C0DF256EC4}
  9
$EXTNAMES
290
     1
  9
$PSVPSCALE
 40
0.0
  9
$OLESTARTUP
290
     0
  9
$SORTENTS
280
   127
  9
$INDEXCTL
280
     0
  9
$HIDETEXT
280
     1
  9
$XCLIPFRAME
290
     0
  9
$HALOGAP
280
     0
  9
$OBSCOLOR
 70
   257
  9
$OBSLTYPE
280
     0
  9
$INTERSECTIONDISPLAY
280
     0
  9
$INTERSECTIONCOLOR
 70
   257
  9
$DIMASSOC
280
     2
  9
$PROJECTNAME
  1

  0
ENDSEC
  0
SECTION
  2
CLASSES
  0
CLASS
  1
ACDBDICTIONARYWDFLT
  2
AcDbDictionaryWithDefault
  3
ObjectDBX Classes
 90
        0
 91
        4
280
     0
281
     0
  0
CLASS
  1
VISUALSTYLE
  2
AcDbVisualStyle
  3
ObjectDBX Classes
 90
     4095
 91
        4
280
     0
281
     0
  0
ENDSEC
  0
SECTION
  2
TABLES
  0
TABLE
  2
VPORT
  5
8
330
0
100
AcDbSymbolTable
 70
     1
  0
VPORT
  5
29
330
8
100
AcDbSymbolTableRecord
100
AcDbViewportTableRecord
  2
*Active
 70
     0
 10
0.0
 20
0.0
 11
1.0
 21
1.0
 12
20.83598420817096
 22
38.39788488150079
 13
0.0
 23
0.0
 14
0.5
 24
0.5
 15
0.5
 25
0.5
 16
0.0
 26
0.0
 36
1.0
 17
0.0
 27
0.0
 37
0.0
 40
78.3316851582627
 41
0.9008609775902282
 42
50.0
 43
0.0
 44
0.0
 50
0.0
 51
0.0
 71
     0
 72
   100
 73
     1
 74
     3
 75
     0
 76
     0
 77
     0
 78
     0
281
     0
 65
     1
110
0.0
120
0.0
130
0.0
111
1.0
121
0.0
131
0.0
112
0.0
122
1.0
132
0.0
 79
     0
146
0.0
  0
ENDTAB
  0
TABLE
  2
LTYPE
  5
5
330
0
100
AcDbSymbolTable
 70
     1
  0
LTYPE
  5
14
330
5
100
AcDbSymbolTableRecord
100
AcDbLinetypeTableRecord
  2
ByBlock
 70
     0
  3

 72
    65
 73
     0
 40
0.0
  0
LTYPE
  5
15
330
5
100
AcDbSymbolTableRecord
100
AcDbLinetypeTableRecord
  2
ByLayer
 70
     0
  3

 72
    65
 73
     0
 40
0.0
  0
LTYPE
  5
16
330
5
100
AcDbSymbolTableRecord
100
AcDbLinetypeTableRecord
  2
Continuous
 70
     0
  3
Solid line
 72
    65
 73
     0
 40
0.0
  0
ENDTAB
  0
TABLE
  2
LAYER
  5
2
330
0
100
AcDbSymbolTable
 70
     2
  0
LAYER
  5
10
330
2
100
AcDbSymbolTableRecord
100
AcDbLayerTableRecord
  2
0
 70
     0
 62
     7
  6
Continuous
370
    -3
390
F
  0
LAYER
  5
3B
330
2
100
AcDbSymbolTableRecord
100
AcDbLayerTableRecord
  2
Default
 70
     0
 62
     7
  6
Continuous
370
    -3
390
F
  0
ENDTAB
  0
TABLE
  2
STYLE
  5
3
330
0
100
AcDbSymbolTable
 70
     1
  0
STYLE
  5
11
330
3
100
AcDbSymbolTableRecord
100
AcDbTextStyleTableRecord
  2
Standard
 70
     0
 40
0.0
 41
1.0
 50
0.0
 71
     0
 42
0.2
  3
txt
  4

  0
ENDTAB
  0
TABLE
  2
VIEW
  5
6
330
0
100
AcDbSymbolTable
 70
     0
  0
ENDTAB
  0
TABLE
  2
UCS
  5
7
330
0
100
AcDbSymbolTable
 70
     0
  0
ENDTAB
  0
TABLE
  2
APPID
  5
9
330
0
100
AcDbSymbolTable
 70
     1
  0
APPID
  5
12
330
9
100
AcDbSymbolTableRecord
100
AcDbRegAppTableRecord
  2
ACAD
 70
     0
  0
ENDTAB
  0
TABLE
  2
DIMSTYLE
  5
A
330
0
100
AcDbSymbolTable
 70
     1
100
AcDbDimStyleTable
  0
DIMSTYLE
105
27
330
A
100
AcDbSymbolTableRecord
100
AcDbDimStyleTableRecord
  2
Standard
 70
     0
340
11
  0
ENDTAB
  0
TABLE
  2
BLOCK_RECORD
  5
1
330
0
100
AcDbSymbolTable
 70
     1
  0
BLOCK_RECORD
  5
1F
330
1
100
AcDbSymbolTableRecord
100
AcDbBlockTableRecord
  2
*Model_Space
340
22
  0
BLOCK_RECORD
  5
1B
330
1
100
AcDbSymbolTableRecord
100
AcDbBlockTableRecord
  2
*Paper_Space
340
1E
  0
BLOCK_RECORD
  5
23
330
1
100
AcDbSymbolTableRecord
100
AcDbBlockTableRecord
  2
*Paper_Space0
340
26
  0
ENDTAB
  0
ENDSEC
  0
SECTION
  2
BLOCKS
  0
BLOCK
  5
20
330
1F
100
AcDbEntity
  8
0
100
AcDbBlockBegin
  2
*Model_Space
 70
     0
 10
0.0
 20
0.0
 30
0.0
  3
*Model_Space
  1

  0
ENDBLK
  5
21
330
1F
100
AcDbEntity
  8
0
100
AcDbBlockEnd
  0
BLOCK
  5
1C
330
1B
100
AcDbEntity
 67
     1
  8
0
100
AcDbBlockBegin
  2
*Paper_Space
 70
     0
 10
0.0
 20
0.0
 30
0.0
  3
*Paper_Space
  1

  0
ENDBLK
  5
1D
330
1B
100
AcDbEntity
 67
     1
  8
0
100
AcDbBlockEnd
  0
BLOCK
  5
24
330
23
100
AcDbEntity
  8
0
100
AcDbBlockBegin
  2
*Paper_Space0
 70
     0
 10
0.0
 20
0.0
 30
0.0
  3
*Paper_Space0
  1

  0
ENDBLK
  5
25
330
23
100
AcDbEntity
  8
0
100
AcDbBlockEnd
  0
ENDSEC
  0
SECTION
  2
ENTITIES
  0
SPLINE
  5
3C
330
1F
100
AcDbEntity
  8
Default
 62
     7
100
AcDbSpline
210
0.0
220
0.0
230
1.0
 70
    12
 71
     2
 72
     6
 73
     3
 74
     0
 42
0.0000000001
 43
0.0000000001
 40
0.0
 40
0.0
 40
0.0
 40
0.1738063646563805
 40
0.1738063646563805
 40
0.1738063646563805
 10
-4.321512007964353
 20
65.08814698560884
 30
0.0
 41
1.0
 10
-4.406957010400578
 20
65.07228530819133
 30
0.0
 41
0.9999723778076959
 10
-4.492156791591544
 20
65.05515526041457
 30
0.0
 41
1.0
  0
SPLINE
  5
3D
330
1F
100
AcDbEntity
  8
Default
 62
     7
100
AcDbSpline
210
0.0
220
0.0
230
1.0
 70
    12
 71
     2
 72
     6
 73
     3
 74
     0
 42
0.0000000001
 43
0.0000000001
 40
0.0
 40
0.0
 40
0.0
 40
0.5203773381178486
 40
0.5203773381178486
 40
0.5203773381178486
 10
-5.000170384118812
 20
64.93962948125646
 30
0.0
 41
1.0
 10
-5.252379111667691
 20
64.87533035607929
 30
0.0
 41
0.9994965170730598
 10
-5.500001831003246
 20
64.79516422470675
 30
0.0
 41
1.0
  0
SPLINE
  5
3E
330
1F
100
AcDbEntity
  8
Default
 62
     7
100
AcDbSpline
210
0.0
220
0.0
230
1.0
 70
    12
 71
     2
 72
     6
 73
     3
 74
     0
 42
0.0000000001
 43
0.0000000001
 40
0.0
 40
0.0
 40
0.0
 40
0.5795194748212783
 40
0.5795194748212783
 40
0.5795194748212783
 10
-8.3258198012823
 20
62.46744262526502
 30
0.0
 41
1.0
 10
-8.446692435749378
 20
62.20353887695221
 30
0.0
 41
0.9973767018018687
 10
-8.528192812442791
 20
61.92494765179357
 30
0.0
 41
1.0
  0
SPLINE
  5
3F
330
1F
100
AcDbEntity
  8
Default
 62
     7
100
AcDbSpline
210
0.0
220
0.0
230
1.0
 70
    12
 71
     2
 72
     6
 73
     3
 74
     0
 42
0.0000000001
 43
0.0000000001
 40
0.0
 40
0.0
 40
0.0
 40
0.0535220315884735
 40
0.0535220315884735
 40
0.0535220315884735
 10
-8.533523509632143
 20
61.90659946133803
 30
0.0
 41
1.0
 10
-8.540929505367314
 20
61.88088324748533
 30
0.0
 41
0.9999785721055835
 10
-8.547998176391145
 20
61.8550722746694
 30
0.0
 41
1.0
  0
SPLINE
  5
40
330
1F
100
AcDbEntity
  8
Default
 62
     7
100
AcDbSpline
210
0.0
220
0.0
230
1.0
 70
     8
 71
     3
 72
    44
 73
    40
 74
     0
 42
0.0000000001
 43
0.0000000001
 40
0.0
 40
0.0
 40
0.0
 40
0.0
 40
1.0
 40
2.0
 40
3.0
 40
4.0
 40
5.0
 40
6.0
 40
7.0
 40
8.0
 40
9.0
 40
10.0
 40
11.0
 40
12.0
 40
13.0
 40
14.0
 40
15.0
 40
16.0
 40
17.0
 40
18.0
 40
19.0
 40
20.0
 40
21.0
 40
22.0
 40
23.0
 40
24.0
 40
25.0
 40
26.0
 40
27.0
 40
28.0
 40
29.0
 40
30.0
 40
31.0
 40
32.0
 40
33.0
 40
34.0
 40
35.0
 40
36.0
 40
37.0
 40
37.0
 40
37.0
 40
37.0
 10
-0.0000020278314139
 20
76.79576976300211
 30
0.0
 10
0.4285993191633235
 20
76.79569370442444
 30
0.0
 10
1.285728322709364
 20
76.77347584592816
 30
0.0
 10
2.568599473988208
 20
76.68206267161234
 30
0.0
 10
3.846024964874889
 20
76.5334706839657
 30
0.0
 10
5.115583320267305
 20
76.32597296023627
 30
0.0
 10
6.372859398131087
 20
76.05982405527037
 30
0.0
 10
7.621332869438024
 20
75.73629335774832
 30
0.0
 10
8.775281684918191
 20
75.1586000025658
 30
0.0
 10
9.754860227865507
 20
74.26420168070328
 30
0.0
 10
10.07470656699988
 20
72.99112697932155
 30
0.0
 10
10.31242463188649
 20
71.73489702576484
 30
0.0
 10
10.62275577968549
 20
70.48434225912597
 30
0.0
 10
10.85114283254185
 20
69.21971158707616
 30
0.0
 10
11.14953343541316
 20
67.96588014946508
 30
0.0
 10
11.63116158524138
 20
66.7721841372035
 30
0.0
 10
12.16781330738676
 20
65.60383514401504
 30
0.0
 10
12.664320255171
 20
64.41743837278914
 30
0.0
 10
13.10382695835902
 20
63.20835842267796
 30
0.0
 10
13.43568212754736
 20
61.96444940151078
 30
0.0
 10
13.6369512139487
 20
60.69309274448948
 30
0.0
 10
13.74313488174108
 20
59.41107470776195
 30
0.0
 10
13.77067646999685
 20
58.12493069233121
 30
0.0
 10
13.70516632574675
 20
56.83982075946812
 30
0.0
 10
13.52931626903626
 20
55.56453371086121
 30
0.0
 10
13.21357961237656
 20
54.31591673843857
 30
0.0
 10
12.74387204690423
 20
53.11541859969729
 30
0.0
 10
12.11156655612635
 20
51.99382829178543
 30
0.0
 10
11.37028359603033
 20
50.93939456846119
 30
0.0
 10
10.48876584136166
 20
50.00166369018475
 30
0.0
 10
9.547955852848752
 20
49.12334712589396
 30
0.0
 10
8.534109059407939
 20
48.33118359672979
 30
0.0
 10
7.455594007978195
 20
47.6277702835413
 30
0.0
 10
6.298790603704514
 20
47.0608633915916
 30
0.0
 10
5.085349148362624
 20
46.63046312558747
 30
0.0
 10
3.837601872840636
 20
46.31504176341316
 30
0.0
 10
2.567770193332557
 20
46.10642919139042
 30
0.0
 10
1.285929197879417
 20
45.99587804054303
 30
0.0
 10
0.4285693265226183
 20
45.9778640104634
 30
0.0
 10
-0.0000020278313215
 20
45.97773087866947
 30
0.0
  0
SPLINE
  5
41
330
1F
100
AcDbEntity
  8
Default
 62
     7
100
AcDbSpline
210
0.0
220
0.0
230
1.0
 70
     8
 71
     3
 72
    44
 73
    40
 74
     0
 42
0.0000000001
 43
0.0000000001
 40
-37.0
 40
-37.0
 40
-37.0
 40
-37.0
 40
-36.0
 40
-35.0
 40
-34.0
 40
-33.0
 40
-32.0
 40
-31.0
 40
-30.0
 40
-29.0
 40
-28.0
 40
-27.0
 40
-26.0
 40
-25.0
 40
-24.0
 40
-23.0
 40
-22.0
 40
-21.0
 40
-20.0
 40
-19.0
 40
-18.0
 40
-17.0
 40
-16.0
 40
-15.0
 40
-14.0
 40
-13.0
 40
-12.0
 40
-11.0
 40
-10.0
 40
-9.0
 40
-8.0
 40
-7.0
 40
-6.0
 40
-5.0
 40
-4.0
 40
-3.0
 40
-2.0
 40
-1.0
 40
0.0
 40
0.0
 40
0.0
 40
0.0
 10
-0.0000020278315063
 20
45.97773087866947
 30
0.0
 10
-0.4285733821854461
 20
45.9778640104634
 30
0.0
 10
-1.285933253542245
 20
45.99587804054303
 30
0.0
 10
-2.567774248995383
 20
46.10642919139042
 30
0.0
 10
-3.837605928503462
 20
46.31504176341316
 30
0.0
 10
-5.085353204025454
 20
46.63046312558747
 30
0.0
 10
-6.298794659367342
 20
47.0608633915916
 30
0.0
 10
-7.455598063641024
 20
47.6277702835413
 30
0.0
 10
-8.534113115070769
 20
48.33118359672979
 30
0.0
 10
-9.54795990851158
 20
49.12334712589396
 30
0.0
 10
-10.48876989702449
 20
50.00166369018475
 30
0.0
 10
-11.37028765169316
 20
50.93939456846119
 30
0.0
 10
-12.11157061178918
 20
51.99382829178543
 30
0.0
 10
-12.74387610256706
 20
53.11541859969729
 30
0.0
 10
-13.21358366803939
 20
54.31591673843857
 30
0.0
 10
-13.52932032469909
 20
55.56453371086121
 30
0.0
 10
-13.70517038140957
 20
56.83982075946812
 30
0.0
 10
-13.77068052565968
 20
58.12493069233121
 30
0.0
 10
-13.74313893740391
 20
59.41107470776195
 30
0.0
 10
-13.63695526961153
 20
60.69309274448948
 30
0.0
 10
-13.43568618321019
 20
61.96444940151078
 30
0.0
 10
-13.10383101402185
 20
63.20835842267796
 30
0.0
 10
-12.66432431083382
 20
64.41743837278914
 30
0.0
 10
-12.16781736304959
 20
65.60383514401504
 30
0.0
 10
-11.63116564090421
 20
66.7721841372035
 30
0.0
 10
-11.14953749107599
 20
67.96588014946508
 30
0.0
 10
-10.85114688820468
 20
69.21971158707616
 30
0.0
 10
-10.62275983534832
 20
70.48434225912597
 30
0.0
 10
-10.31242868754932
 20
71.73489702576484
 30
0.0
 10
-10.07471062266271
 20
72.99112697932155
 30
0.0
 10
-9.754864283528335
 20
74.26420168070328
 30
0.0
 10
-8.775285740581019
 20
75.1586000025658
 30
0.0
 10
-7.621336925100853
 20
75.73629335774832
 30
0.0
 10
-6.372863453793916
 20
76.05982405527037
 30
0.0
 10
-5.115587375930133
 20
76.32597296023627
 30
0.0
 10
-3.846029020537717
 20
76.5334706839657
 30
0.0
 10
-2.568603529651037
 20
76.68206267161234
 30
0.0
 10
-1.285732378372192
 20
76.77347584592816
 30
0.0
 10
-0.4286033748261513
 20
76.79569370442444
 30
0.0
 10
-0.0000020278314139
 20
76.79576976300211
 30
0.0
  0
SPLINE
  5
42
330
1F
100
AcDbEntity
  8
Default
 62
     7
100
AcDbSpline
210
0.0
220
0.0
230
1.0
 70
     8
 71
     3
 72
    39
 73
    35
 74
     0
 42
0.0000000001
 43
0.0000000001
 40
0.0
 40
0.0
 40
0.0
 40
0.0
 40
1.0
 40
2.0
 40
3.0
 40
4.0
 40
5.0
 40
6.0
 40
7.0
 40
8.0
 40
9.0
 40
10.0
 40
11.0
 40
12.0
 40
13.0
 40
14.0
 40
15.0
 40
16.0
 40
17.0
 40
18.0
 40
19.0
 40
20.0
 40
21.0
 40
22.0
 40
23.0
 40
24.0
 40
25.0
 40
26.0
 40
27.0
 40
28.0
 40
29.0
 40
30.0
 40
31.0
 40
32.0
 40
32.0
 40
32.0
 40
32.0
 10
-0.0000020278315276
 20
65.35315948669884
 30
0.0
 10
0.3275378034190233
 20
65.35396647163348
 30
0.0
 10
0.9826301157098936
 20
65.35267131078933
 30
0.0
 10
1.965097384749146
 20
65.33150870481431
 30
0.0
 10
2.946549675323411
 20
65.27900081140453
 30
0.0
 10
3.923620992993158
 20
65.16869484454915
 30
0.0
 10
4.889367514644281
 20
64.9837667384112
 30
0.0
 10
5.834553913115972
 20
64.70755813157801
 30
0.0
 10
6.72433053126273
 20
64.28126828586176
 30
0.0
 10
7.515388802188795
 20
63.68738374839867
 30
0.0
 10
8.132334758838862
 20
62.91296973398386
 30
0.0
 10
8.548005437288406
 20
62.01301814430347
 30
0.0
 10
8.715227135530487
 20
61.04001918220159
 30
0.0
 10
8.816096418400601
 20
60.06333097914029
 30
0.0
 10
8.886114829887234
 20
59.08286384180229
 30
0.0
 10
8.928458792906145
 20
58.10113551176462
 30
0.0
 10
8.949412680188061
 20
57.11868465167441
 30
0.0
 10
8.956238598025266
 20
56.13606725570951
 30
0.0
 10
8.95311226156047
 20
55.15345582771374
 30
0.0
 10
8.940543639923334
 20
54.17084425596789
 30
0.0
 10
8.910844728822429
 20
53.18878653223384
 30
0.0
 10
8.850777405303166
 20
52.20719330194996
 30
0.0
 10
8.73288780958503
 20
51.23305284661634
 30
0.0
 10
8.558162468921896
 20
50.25916026799212
 30
0.0
 10
8.11737894630781
 20
49.37371850422564
 30
0.0
 10
7.487008831602335
 20
48.60343487847145
 30
0.0
 10
6.644522359770313
 20
48.08592620011979
 30
0.0
 10
5.762955750556131
 20
47.65256430525014
 30
0.0
 10
4.843542966305186
 20
47.30231120691055
 30
0.0
 10
3.901194885073245
 20
47.02174043794012
 30
0.0
 10
2.938585953692254
 20
46.81994652592823
 30
0.0
 10
1.963316620938846
 20
46.6951730436631
 30
0.0
 10
0.9825936881710096
 20
46.62926595838878
 30
0.0
 10
0.3275446299011726
 20
46.61416844790276
 30
0.0
 10
-0.00000202783162
 20
46.61429081493662
 30
0.0
  0
SPLINE
  5
43
330
1F
100
AcDbEntity
  8
Default
 62
     7
100
AcDbSpline
210
0.0
220
0.0
230
1.0
 70
     8
 71
     3
 72
    39
 73
    35
 74
     0
 42
0.0000000001
 43
0.0000000001
 40
-32.0
 40
-32.0
 40
-32.0
 40
-32.0
 40
-31.0
 40
-30.0
 40
-29.0
 40
-28.0
 40
-27.0
 40
-26.0
 40
-25.0
 40
-24.0
 40
-23.0
 40
-22.0
 40
-21.0
 40
-20.0
 40
-19.0
 40
-18.0
 40
-17.0
 40
-16.0
 40
-15.0
 40
-14.0
 40
-13.0
 40
-12.0
 40
-11.0
 40
-10.0
 40
-9.0
 40
-8.0
 40
-7.0
 40
-6.0
 40
-5.0
 40
-4.0
 40
-3.0
 40
-2.0
 40
-1.0
 40
0.0
 40
0.0
 40
0.0
 40
0.0
 10
-0.0000020278314352
 20
46.61429081493662
 30
0.0
 10
-0.3275486855642278
 20
46.61416844790276
 30
0.0
 10
-0.9825977438340647
 20
46.62926595838878
 30
0.0
 10
-1.963320676601901
 20
46.6951730436631
 30
0.0
 10
-2.938590009355311
 20
46.81994652592823
 30
0.0
 10
-3.9011989407363
 20
47.02174043794012
 30
0.0
 10
-4.843547021968241
 20
47.30231120691055
 30
0.0
 10
-5.762959806219184
 20
47.65256430525014
 30
0.0
 10
-6.644526415433369
 20
48.08592620011979
 30
0.0
 10
-7.48701288726539
 20
48.60343487847145
 30
0.0
 10
-8.117383001970863
 20
49.37371850422564
 30
0.0
 10
-8.558166524584951
 20
50.25916026799212
 30
0.0
 10
-8.732891865248085
 20
51.23305284661634
 30
0.0
 10
-8.850781460966221
 20
52.20719330194996
 30
0.0
 10
-8.910848784485484
 20
53.18878653223384
 30
0.0
 10
-8.94054769558639
 20
54.17084425596789
 30
0.0
 10
-8.953116317223525
 20
55.15345582771374
 30
0.0
 10
-8.95624265368832
 20
56.13606725570951
 30
0.0
 10
-8.949416735851116
 20
57.11868465167441
 30
0.0
 10
-8.9284628485692
 20
58.10113551176462
 30
0.0
 10
-8.886118885550289
 20
59.08286384180229
 30
0.0
 10
-8.816100474063656
 20
60.06333097914029
 30
0.0
 10
-8.715231191193542
 20
61.04001918220159
 30
0.0
 10
-8.548009492951461
 20
62.01301814430347
 30
0.0
 10
-8.132338814501917
 20
62.91296973398386
 30
0.0
 10
-7.515392857851849
 20
63.68738374839867
 30
0.0
 10
-6.724334586925787
 20
64.28126828586176
 30
0.0
 10
-5.834557968779026
 20
64.70755813157801
 30
0.0
 10
-4.889371570307336
 20
64.9837667384112
 30
0.0
 10
-3.923625048656211
 20
65.16869484454915
 30
0.0
 10
-2.946553730986464
 20
65.27900081140453
 30
0.0
 10
-1.965101440412202
 20
65.33150870481431
 30
0.0
 10
-0.9826341713729487
 20
65.35267131078933
 30
0.0
 10
-0.3275418590820784
 20
65.35396647163348
 30
0.0
 10
-0.0000020278315276
 20
65.35315948669884
 30
0.0
  0
POLYLINE
  5
44
330
1F
100
AcDbEntity
  8
Default
 62
     7
100
AcDb2dPolyline
 66
     1
 10
0.0
 20
0.0
 30
0.0
  0
VERTEX
  5
45
330
44
100
AcDbEntity
  8
Default
 62
     7
100
AcDbVertex
100
AcDb2dVertex
 10
33.18285506275673
 20
5.463067806414495
 30
0.0
  0
VERTEX
  5
46
330
44
100
AcDbEntity
  8
Default
 62
     7
100
AcDbVertex
100
AcDb2dVertex
 10
40.97054315525386
 20
6.110174785320577
 30
0.0
  0
SEQEND
  5
47
330
44
100
AcDbEntity
  8
Default
 62
     7
  0
ARC
  5
48
330
1F
100
AcDbEntity
  8
Default
 62
     7
100
AcDbCircle
 10
40.95501662080409
 20
6.297030763242884
 30
0.0
 40
0.1874999460195162
100
AcDbArc
 50
274.7500000034499
 51
94.74999919395567
  0
POLYLINE
  5
49
330
1F
100
AcDbEntity
  8
Default
 62
     7
100
AcDb2dPolyline
 66
     1
 10
0.0
 20
0.0
 30
0.0
  0
VERTEX
  5
4A
330
49
100
AcDbEntity
  8
Default
 62
     7
100
AcDbVertex
100
AcDb2dVertex
 10
40.9394900889943
 20
6.483886741384556
 30
0.0
  0
VERTEX
  5
4B
330
49
100
AcDbEntity
  8
Default
 62
     7
100
AcDbVertex
100
AcDb2dVertex
 10
33.32409279433483
 20
5.851096132114981
 30
0.0
  0
SEQEND
  5
4C
330
49
100
AcDbEntity
  8
Default
 62
     7
  0
POLYLINE
  5
4D
330
1F
100
AcDbEntity
  8
Default
 62
     7
100
AcDb2dPolyline
 66
     1
 10
0.0
 20
0.0
 30
0.0
  0
VERTEX
  5
4E
330
4D
100
AcDbEntity
  8
Default
 62
     7
100
AcDbVertex
100
AcDb2dVertex
 10
48.87145933160607
 20
7.14298266770038
 30
0.0
  0
VERTEX
  5
4F
330
4D
100
AcDbEntity
  8
Default
 62
     7
100
AcDbVertex
100
AcDb2dVertex
 10
41.3287262345288
 20
6.51558368553642
 30
0.0
  0
SEQEND
  5
50
330
4D
100
AcDbEntity
  8
Default
 62
     7
  0
ARC
  5
51
330
1F
100
AcDbEntity
  8
Default
 62
     7
100
AcDbCircle
 10
41.3287262345288
 20
6.328083688598163
 30
0.0
 40
0.1874999969382575
100
AcDbArc
 50
90.0
 51
274.7500000035606
  0
POLYLINE
  5
52
330
1F
100
AcDbEntity
  8
Default
 62
     7
100
AcDb2dPolyline
 66
     1
 10
0.0
 20
0.0
 30
0.0
  0
VERTEX
  5
53
330
52
100
AcDbEntity
  8
Default
 62
     7
100
AcDbVertex
100
AcDb2dVertex
 10
41.34425277319541
 20
6.141227659932024
 30
0.0
  0
VERTEX
  5
54
330
52
100
AcDbEntity
  8
Default
 62
     7
100
AcDbVertex
100
AcDb2dVertex
 10
48.95450305730501
 20
6.773590693954575
 30
0.0
  0
SEQEND
  5
55
330
52
100
AcDbEntity
  8
Default
 62
     7
  0
SPLINE
  5
56
330
1F
100
AcDbEntity
  8
Default
 62
     7
100
AcDbSpline
210
0.0
220
0.0
230
1.0
 70
     8
 71
     3
 72
    14
 73
    10
 74
     0
 42
0.0000000001
 43
0.0000000001
 40
0.0
 40
0.0
 40
0.0
 40
0.0
 40
1.000001076685707
 40
2.000002153371415
 40
3.000003230057122
 40
4.00000430674283
 40
5.000005383428538
 40
6.000006460114245
 40
7.0
 40
7.0
 40
7.0
 40
7.0
 10
47.8704683273499
 20
12.25566633076378
 30
0.0
 10
47.92580957028945
 20
12.314361075315
 30
0.0
 10
48.0568387672599
 20
12.41011689184361
 30
0.0
 10
48.27764789868134
 20
12.51012573757425
 30
0.0
 10
48.5111295535349
 20
12.57446098121348
 30
0.0
 10
48.75162675592727
 20
12.60246458997333
 30
0.0
 10
48.99414107215996
 20
12.592086275722
 30
0.0
 10
49.22858299169403
 20
12.53204242588132
 30
0.0
 10
49.36449837708896
 20
12.42680013454111
 30
0.0
 10
49.38022500814964
 20
12.34386505733396
 30
0.0
  0
SPLINE
  5
57
330
1F
100
AcDbEntity
  8
Default
 62
     7
100
AcDbSpline
210
0.0
220
0.0
230
1.0
 70
    24
 71
     2
 72
     6
 73
     3
 74
     0
 42
0.0000000001
 43
0.0000000001
 40
-12.31810509508948
 40
-12.31810509508948
 40
-12.31810509508948
 40
0.0
 40
0.0
 40
0.0
 10
49.38022500814964
 20
12.34386505733396
 30
0.0
 10
50.47726445951075
 20
6.282919322186207
 30
0.0
 10
51.57430391087186
 20
0.2219735870384504
 30
0.0
  0
SPLINE
  5
58
330
1F
100
AcDbEntity
  8
Default
 62
     7
100
AcDbSpline
210
0.0
220
0.0
230
1.0
 70
    12
 71
     2
 72
     8
 73
     5
 74
     0
 42
0.0000000001
 43
0.0000000001
 40
-0.3287075977511116
 40
-0.3287075977511116
 40
-0.3287075977511116
 40
-0.1643537988755558
 40
-0.1643537988755558
 40
0.0
 40
0.0
 40
0.0
 10
51.57430391087186
 20
0.2219735870384504
 30
0.0
 41
1.0
 10
51.58996055619719
 20
0.1347706200053453
 30
0.0
 41
0.9059729680228217
 10
51.53360393315013
 20
0.0673867073870852
 30
0.0
 41
1.0
 10
51.47724731010306
 20
0.0000027947688251
 30
0.0
 41
0.9059729680228217
 10
51.38940278475741
 20
0.0000000000007598
 30
0.0
 41
1.0
  0
POLYLINE
  5
59
330
1F
100
AcDbEntity
  8
Default
 62
     7
100
AcDb2dPolyline
 66
     1
 10
0.0
 20
0.0
 30
0.0
  0
VERTEX
  5
5A
330
59
100
AcDbEntity
  8
Default
 62
     7
100
AcDbVertex
100
AcDb2dVertex
 10
51.38940278475741
 20
0.0000000000007598
 30
0.0
  0
VERTEX
  5
5B
330
59
100
AcDbEntity
  8
Default
 62
     7
100
AcDbVertex
100
AcDb2dVertex
 10
50.6277160063253
 20
0.0000000000203319
 30
0.0
  0
SEQEND
  5
5C
330
59
100
AcDbEntity
  8
Default
 62
     7
  0
SPLINE
  5
5D
330
1F
100
AcDbEntity
  8
Default
 62
     7
100
AcDbSpline
210
0.0
220
0.0
230
1.0
 70
    12
 71
     2
 72
     6
 73
     3
 74
     0
 42
0.0000000001
 43
0.0000000001
 40
-0.2537332371975402
 40
-0.2537332371975402
 40
-0.2537332371975402
 40
0.0
 40
0.0
 40
0.0
 10
50.6277160063253
 20
0.0000000000203319
 30
0.0
 41
1.0
 10
50.47728964944697
 20
0.0000099251976291
 30
0.0
 41
0.7808089149359786
 10
50.4441259319667
 20
0.1475439119043695
 30
0.0
 41
1.0
  0
SPLINE
  5
5E
330
1F
100
AcDbEntity
  8
Default
 62
     7
100
AcDbSpline
210
0.0
220
0.0
230
1.0
 70
    24
 71
     2
 72
     6
 73
     3
 74
     0
 42
0.0000000001
 43
0.0000000001
 40
-9.987899889730947
 40
-9.987899889730947
 40
-9.987899889730947
 40
0.0
 40
0.0
 40
0.0
 10
50.4441259319667
 20
0.1475439119043695
 30
0.0
 10
49.34867462131109
 20
5.020270384544315
 30
0.0
 10
48.25322331065547
 20
9.89299685718426
 30
0.0
  0
SPLINE
  5
5F
330
1F
100
AcDbEntity
  8
Default
 62
     7
100
AcDbSpline
210
0.0
220
0.0
230
1.0
 70
     8
 71
     3
 72
     8
 73
     4
 74
     0
 42
0.0000000001
 43
0.0000000001
 40
0.0
 40
0.0
 40
0.0
 40
0.0
 40
1.0
 40
1.0
 40
1.0
 40
1.0
 10
48.34534795943607
 20
10.18139875882095
 30
0.0
 10
48.37418467542594
 20
10.05554538820457
 30
0.0
 10
48.39517791942207
 20
9.946063399944402
 30
0.0
 10
48.28636644077948
 20
9.937021863312093
 30
0.0
  0
SPLINE
  5
60
330
1F
100
AcDbEntity
  8
Default
 62
     7
100
AcDbSpline
210
0.0
220
0.0
230
1.0
 70
    24
 71
     2
 72
     6
 73
     3
 74
     0
 42
0.0000000001
 43
0.0000000001
 40
-14.02237508952138
 40
-14.02237508952138
 40
-14.02237508952138
 40
0.0
 40
0.0
 40
0.0
 10
48.28636644077948
 20
9.937021863312093
 30
0.0
 10
41.29925880209807
 20
9.356437990570774
 30
0.0
 10
34.31215116341666
 20
8.775854117829454
 30
0.0
  0
SPLINE
  5
61
330
1F
100
AcDbEntity
  8
Default
 62
     7
100
AcDbSpline
210
0.0
220
0.0
230
1.0
 70
    12
 71
     3
 72
    10
 73
     6
 74
     0
 42
0.0000000001
 43
0.0000000001
 40
-1.0
 40
-1.0
 40
-1.0
 40
-1.0
 40
-0.4994666533899424
 40
-0.4994666533899424
 40
0.0
 40
0.0
 40
0.0
 40
0.0
 10
34.31215116341666
 20
8.775854117829454
 30
0.0
 41
1.0
 10
34.28948144277693
 20
8.78294089496608
 30
0.0
 41
1.0
 10
34.26698671135438
 20
8.811939465362212
 30
0.0
 41
1.0
 10
34.24366923562879
 20
8.898299785600503
 30
0.0
 41
1.0
 10
34.2428525221741
 20
8.955194121782354
 30
0.0
 41
1.0
 10
34.26350671865035
 20
9.011287984670066
 30
0.0
 41
1.0
  0
SPLINE
  5
62
330
1F
100
AcDbEntity
  8
Default
 62
     7
100
AcDbSpline
210
0.0
220
0.0
230
1.0
 70
    12
 71
     2
 72
     6
 73
     3
 74
     0
 42
0.0000000001
 43
0.0000000001
 40
0.0
 40
0.0
 40
0.0
 40
3.211009512817427
 40
3.211009512817427
 40
3.211009512817427
 10
34.26350671865035
 20
9.011287984670066
 30
0.0
 41
1.0
 10
34.81820970048663
 20
10.51792343724008
 30
0.0
 41
0.9999999237247092
 10
35.37173559815531
 20
12.02499173881382
 30
0.0
 41
1.0
  0
SPLINE
  5
63
330
1F
100
AcDbEntity
  8
Default
 62
     7
100
AcDbSpline
210
0.0
220
0.0
230
1.0
 70
     8
 71
     3
 72
    16
 73
    12
 74
     0
 42
0.0000000001
 43
0.0000000001
 40
-12.69766051678837
 40
-12.69766051678837
 40
-12.69766051678837
 40
-12.69766051678837
 40
-10.53357507033884
 40
-9.447475570303888
 40
-8.909110120335683
 40
-8.332617174663294
 40
-7.312836720810813
 40
-6.273351626495959
 40
-4.56206265713425
 40
-2.333884166022206
 40
0.0
 40
0.0
 40
0.0
 40
0.0
 10
35.37173559815531
 20
12.02499173881382
 30
0.0
 10
36.03229049314413
 20
11.73573858485979
 30
0.0
 10
37.07129093962557
 20
11.40491214235771
 30
0.0
 10
38.32436275716374
 20
11.23313802775418
 30
0.0
 10
39.05706448410662
 20
11.19032902643173
 30
0.0
 10
39.76883256188482
 20
11.19216519007512
 30
0.0
 10
40.64670665369121
 20
11.22705850147354
 30
0.0
 10
41.90223085588053
 20
11.28922649019638
 30
0.0
 10
43.55357255581014
 20
11.46319830562214
 30
0.0
 10
45.61875603313255
 20
11.79448798904606
 30
0.0
 10
47.111177896654
 20
12.08735055674338
 30
0.0
 10
47.87083343749914
 20
12.25532585919839
 30
0.0
  0
SPLINE
  5
64
330
1F
100
AcDbEntity
  8
Default
 62
     7
100
AcDbSpline
210
0.0
220
0.0
230
1.0
 70
    12
 71
     2
 72
     6
 73
     3
 74
     0
 42
0.0000000001
 43
0.0000000001
 40
0.0
 40
0.0
 40
0.0
 40
2.127519164913867
 40
2.127519164913867
 40
2.127519164913867
 10
47.87083343749914
 20
12.25532585919839
 30
0.0
 41
1.0
 10
48.10776607031102
 20
11.21828803408724
 30
0.0
 41
0.9999999509978245
 10
48.34534795943607
 20
10.18139875882095
 30
0.0
 41
1.0
  0
LINE
  5
65
330
1F
100
AcDbEntity
  8
Default
 62
     7
100
AcDbLine
 10
34.39105675310926
 20
8.782410666721166
 30
0.0
 11
31.23956758688298
 21
0.1242174224546852
 31
0.0
  0
ARC
  5
66
330
1F
100
AcDbEntity
  8
Default
 62
     7
100
AcDbCircle
 10
31.06216236211873
 20
0.1887910151319669
 30
0.0
 40
0.1887918500489477
100
AcDbArc
 50
270.1704052028697
 51
339.9990385134994
  0
POLYLINE
  5
67
330
1F
100
AcDbEntity
  8
Default
 62
     7
100
AcDb2dPolyline
 66
     1
 10
0.0
 20
0.0
 30
0.0
  0
VERTEX
  5
68
330
67
100
AcDbEntity
  8
Default
 62
     7
100
AcDbVertex
100
AcDb2dVertex
 10
31.0627238531457
 20
0.0000000000578098
 30
0.0
  0
VERTEX
  5
69
330
67
100
AcDbEntity
  8
Default
 62
     7
100
AcDbVertex
100
AcDb2dVertex
 10
30.26697607987926
 20
0.0000000000394476
 30
0.0
  0
SEQEND
  5
6A
330
67
100
AcDbEntity
  8
Default
 62
     7
  0
SPLINE
  5
6B
330
1F
100
AcDbEntity
  8
Default
 62
     7
100
AcDbSpline
210
0.0
220
0.0
230
1.0
 70
    12
 71
     2
 72
     8
 73
     5
 74
     0
 42
0.0000000001
 43
0.0000000001
 40
-0.3534111243795761
 40
-0.3534111243795761
 40
-0.3534111243795761
 40
-0.176705562189788
 40
-0.176705562189788
 40
0.0
 40
0.0
 40
0.0
 10
30.26697607987926
 20
0.0000000000394476
 30
0.0
 41
1.0
 10
30.17148743213551
 20
0.0000045103928043
 30
0.0
 41
0.8915837665188261
 10
30.11516774234799
 20
0.0771159518947687
 30
0.0
 41
1.0
 10
30.05884805256048
 20
0.1542273933967331
 30
0.0
 41
0.8915837665188261
 10
30.08806818477237
 20
0.2457414254865178
 30
0.0
 41
1.0
  0
SPLINE
  5
6C
330
1F
100
AcDbEntity
  8
Default
 62
     7
100
AcDbSpline
210
0.0
220
0.0
230
1.0
 70
    24
 71
     2
 72
     6
 73
     3
 74
     0
 42
0.0000000001
 43
0.0000000001
 40
-12.83548829533746
 40
-12.83548829533746
 40
-12.83548829533746
 40
0.0
 40
0.0
 40
0.0
 10
30.08806818477237
 20
0.2457414254865178
 30
0.0
 10
32.05532119382311
 20
6.355062950811575
 30
0.0
 10
34.02257420287385
 20
12.46438447613663
 30
0.0
  0
SPLINE
  5
6D
330
1F
100
AcDbEntity
  8
Default
 62
     7
100
AcDbSpline
210
0.0
220
0.0
230
1.0
 70
     8
 71
     3
 72
    14
 73
    10
 74
     0
 42
0.0000000001
 43
0.0000000001
 40
0.0
 40
0.0
 40
0.0
 40
0.0
 40
1.0
 40
2.0
 40
3.0
 40
4.0
 40
5.0
 40
6.0
 40
7.0
 40
7.0
 40
7.0
 40
7.0
 10
34.02257420287385
 20
12.46438447613663
 30
0.0
 10
34.0461186467085
 20
12.54156962007662
 30
0.0
 10
34.17846730003295
 20
12.64612225097092
 30
0.0
 10
34.41904615026385
 20
12.65321644190889
 30
0.0
 10
34.64580366538407
 20
12.59343846794681
 30
0.0
 10
34.8602133977379
 20
12.49755227112829
 30
0.0
 10
35.05633622219348
 20
12.36862180490516
 30
0.0
 10
35.23222687045007
 20
12.21330683188231
 30
0.0
 10
35.33119876285846
 20
12.09174172294269
 30
0.0
 10
35.37198024453876
 20
12.02514089301942
 30
0.0
  0
SPLINE
  5
6E
330
1F
100
AcDbEntity
  8
Default
 62
     7
100
AcDbSpline
210
0.0
220
0.0
230
1.0
 70
     8
 71
     3
 72
    16
 73
    12
 74
     0
 42
0.0000000001
 43
0.0000000001
 40
0.0
 40
0.0
 40
0.0
 40
0.0
 40
1.0
 40
2.0
 40
3.0
 40
4.0
 40
5.0
 40
6.0
 40
7.0
 40
8.0
 40
9.0
 40
9.0
 40
9.0
 40
9.0
 10
54.60883231537848
 20
14.09517872651774
 30
0.0
 10
54.70397754865079
 20
14.33186565637371
 30
0.0
 10
54.83610458005929
 20
14.82501507505154
 30
0.0
 10
54.7645896775517
 20
15.61743928786418
 30
0.0
 10
54.20880603293834
 20
16.19938347983152
 30
0.0
 10
53.44597144051906
 20
16.37938863506808
 30
0.0
 10
52.68185058399245
 20
16.33852669650611
 30
0.0
 10
51.91129187248639
 20
16.23248341045099
 30
0.0
 10
51.17351629623695
 20
16.09445623479724
 30
0.0
 10
50.42527853470639
 20
15.93999708193954
 30
0.0
 10
49.92689037956231
 20
15.83622284498919
 30
0.0
 10
49.67770933591818
 20
15.78401276984268
 30
0.0
  0
SPLINE
  5
6F
330
1F
100
AcDbEntity
  8
Default
 62
     7
100
AcDbSpline
210
0.0
220
0.0
230
1.0
 70
     8
 71
     3
 72
   129
 73
   125
 74
     0
 42
0.0000000001
 43
0.0000000001
 40
0.0
 40
0.0
 40
0.0
 40
0.0
 40
1.0
 40
2.0
 40
3.0
 40
4.0
 40
5.0
 40
6.0
 40
7.0
 40
8.0
 40
9.0
 40
10.0
 40
11.0
 40
12.0
 40
13.0
 40
14.0
 40
15.0
 40
16.0
 40
17.0
 40
18.0
 40
19.0
 40
20.0
 40
21.0
 40
22.0
 40
23.0
 40
24.0
 40
25.0
 40
26.0
 40
27.0
 40
28.0
 40
29.0
 40
30.0
 40
31.0
 40
32.0
 40
33.0
 40
34.0
 40
35.0
 40
36.0
 40
37.0
 40
38.0
 40
39.0
 40
40.0
 40
41.0
 40
42.0
 40
43.0
 40
44.0
 40
45.0
 40
46.0
 40
47.0
 40
48.0
 40
49.0
 40
50.0
 40
51.0
 40
52.0
 40
53.0
 40
54.0
 40
55.0
 40
56.0
 40
57.0
 40
58.0
 40
59.0
 40
60.0
 40
61.0
 40
62.0
 40
63.0
 40
64.0
 40
65.0
 40
66.0
 40
67.0
 40
68.0
 40
69.0
 40
70.0
 40
71.0
 40
72.0
 40
73.0
 40
74.0
 40
75.0
 40
76.0
 40
77.0
 40
78.0
 40
79.0
 40
80.0
 40
81.0
 40
82.0
 40
83.0
 40
84.0
 40
85.0
 40
86.0
 40
87.0
 40
88.0
 40
89.0
 40
90.0
 40
91.0
 40
92.0
 40
93.0
 40
94.0
 40
95.0
 40
96.0
 40
97.0
 40
98.0
 40
99.0
 40
100.0
 40
101.0
 40
102.0
 40
103.0
 40
104.0
 40
105.0
 40
106.0
 40
107.0
 40
108.0
 40
109.0
 40
110.0
 40
111.0
 40
112.0
 40
113.0
 40
114.0
 40
115.0
 40
116.0
 40
117.0
 40
118.0
 40
119.0
 40
120.0
 40
121.0
 40
122.0
 40
122.0
 40
122.0
 40
122.0
 10
49.6398935661622
 20
10.90877652598315
 30
0.0
 10
49.81916485277232
 20
10.95766001389683
 30
0.0
 10
50.17691972811114
 20
11.05831141664857
 30
0.0
 10
50.71126852470869
 20
11.21718029566411
 30
0.0
 10
51.24351034029412
 20
11.38295403388149
 30
0.0
 10
51.77357423290831
 20
11.55556026956473
 30
0.0
 10
52.30108138400242
 20
11.73592617201645
 30
0.0
 10
52.82549035553873
 20
11.92478258143736
 30
0.0
 10
53.34677652497282
 20
12.1233463067012
 30
0.0
 10
53.86062524299765
 20
12.33644348511012
 30
0.0
 10
54.37743467871916
 20
12.55699229648252
 30
0.0
 10
54.84897837990705
 20
12.82812342017338
 30
0.0
 10
55.42807349321122
 20
13.03663555548938
 30
0.0
 10
55.47108827642272
 20
13.69686348080196
 30
0.0
 10
54.97303627454193
 20
14.01564691298449
 30
0.0
 10
54.43118535297645
 20
14.13898009565747
 30
0.0
 10
53.90719835302016
 20
14.33372340261785
 30
0.0
 10
53.38809329146984
 20
14.53578095153131
 30
0.0
 10
52.8716607468843
 20
14.74599360596896
 30
0.0
 10
52.35487061094292
 20
14.95487167488298
 30
0.0
 10
51.83525489035812
 20
15.1569658474003
 30
0.0
 10
51.30742484353674
 20
15.33661042492391
 30
0.0
 10
50.7749285365412
 20
15.50168965019205
 30
0.0
 10
50.2372856198127
 20
15.64923721221832
 30
0.0
 10
49.69593016742768
 20
15.78236957624994
 30
0.0
 10
49.15098783000409
 20
15.90018085419246
 30
0.0
 10
48.60250776102323
 20
16.00018798940695
 30
0.0
 10
48.05110714664028
 20
16.08255774792099
 30
0.0
 10
47.49744275705394
 20
16.1479470410987
 30
0.0
 10
46.94215282591151
 20
16.19755283847225
 30
0.0
 10
46.38578381328528
 20
16.23294352340964
 30
0.0
 10
45.82870962554573
 20
16.25452635108475
 30
0.0
 10
45.27127396360014
 20
16.26262444913779
 30
0.0
 10
44.71381238644371
 20
16.25596945991749
 30
0.0
 10
44.15673422982857
 20
16.23479578097726
 30
0.0
 10
43.59991629867289
 20
16.20832020783581
 30
0.0
 10
43.04317766796337
 20
16.18013876620232
 30
0.0
 10
42.48643415238349
 20
16.15206893281527
 30
0.0
 10
41.92966563999081
 20
16.12449848214039
 30
0.0
 10
41.37283486375474
 20
16.09821174570831
 30
0.0
 10
40.81588433797489
 20
16.07455950690776
 30
0.0
 10
40.25880687754992
 20
16.0540593344177
 30
0.0
 10
39.70149665204941
 20
16.04055761905293
 30
0.0
 10
39.14395159883846
 20
16.04282937699714
 30
0.0
 10
38.58701495775479
 20
16.07073883780646
 30
0.0
 10
38.03243455569384
 20
16.12959940746016
 30
0.0
 10
37.48273680042688
 20
16.22448475317368
 30
0.0
 10
36.9423850502406
 20
16.36354875324878
 30
0.0
 10
36.41611537255588
 20
16.5489653096841
 30
0.0
 10
35.90844056672029
 20
16.78074368332904
 30
0.0
 10
35.42481587100332
 20
17.05893435725752
 30
0.0
 10
34.96803041009308
 20
17.38016775113919
 30
0.0
 10
34.55699925006053
 20
17.75819091232345
 30
0.0
 10
34.18163682420576
 20
18.17077422274728
 30
0.0
 10
33.834278796468
 20
18.60707883515041
 30
0.0
 10
33.50917983746788
 20
19.06007374798905
 30
0.0
 10
33.20206370563263
 20
19.52539717777143
 30
0.0
 10
32.90964997155426
 20
20.00006174418446
 30
0.0
 10
32.62934086368418
 20
20.48195072952684
 30
0.0
 10
32.35897561000363
 20
20.96947490775539
 30
0.0
 10
32.09667777265987
 20
21.46137682782804
 30
0.0
 10
31.84058582727418
 20
21.95653013430655
 30
0.0
 10
31.58900447903329
 20
22.45398427711445
 30
0.0
 10
31.33869601777422
 20
22.95207980023722
 30
0.0
 10
31.0924262082004
 20
23.45218775038323
 30
0.0
 10
30.85047770826564
 20
23.95439844843661
 30
0.0
 10
30.61179447602073
 20
24.45816879370286
 30
0.0
 10
30.37487728592695
 20
24.96277024227486
 30
0.0
 10
30.1386644808377
 20
25.46769823888022
 30
0.0
 10
29.90152338450043
 20
25.97219495014908
 30
0.0
 10
29.66180147731467
 20
26.47547280524144
 30
0.0
 10
29.41915485377391
 20
26.97734352240673
 30
0.0
 10
29.17431963874389
 20
27.478155351653
 30
0.0
 10
28.92622199067976
 20
27.97733861185875
 30
0.0
 10
28.67271180700092
 20
28.47389837633711
 30
0.0
 10
28.40717362641828
 20
28.96387192693308
 30
0.0
 10
28.13569448226444
 20
29.45149408153833
 30
0.0
 10
27.80685374086569
 20
29.90233482861653
 30
0.0
 10
27.44036501232958
 20
30.32424172115365
 30
0.0
 10
27.0167301190436
 20
30.68730935184969
 30
0.0
 10
26.53486247845119
 20
30.97835879069333
 30
0.0
 10
25.97427129949895
 20
31.08250995848087
 30
0.0
 10
25.4327475416574
 20
30.9708001050682
 30
0.0
 10
24.83392925143133
 20
30.97076776452155
 30
0.0
 10
24.52269057997046
 20
30.41243724885395
 30
0.0
 10
24.76967845875316
 20
29.87801047322921
 30
0.0
 10
24.92544823785252
 20
29.35014241451881
 30
0.0
 10
25.10642222865564
 20
28.82077020041015
 30
0.0
 10
25.28136952403436
 20
28.29204253793598
 30
0.0
 10
25.45849927725627
 20
27.76333080072506
 30
0.0
 10
25.63557548006078
 20
27.23479261875588
 30
0.0
 10
25.81321986615776
 20
26.70639299451963
 30
0.0
 10
25.99129235486261
 20
26.17815424327483
 30
0.0
 10
26.16984093449697
 20
25.65006902507035
 30
0.0
 10
26.34895646878538
 20
25.12217991475883
 30
0.0
 10
26.52882670467047
 20
24.59454477701458
 30
0.0
 10
26.70961380184635
 20
24.06722437665567
 30
0.0
 10
26.89149080622811
 20
23.54027868663134
 30
0.0
 10
27.07461464805682
 20
23.01376256074295
 30
0.0
 10
27.25919386937636
 20
22.4877578075662
 30
0.0
 10
27.44538788995968
 20
21.96232191773521
 30
0.0
 10
27.63315364329818
 20
21.43744292556007
 30
0.0
 10
27.8227392033215
 20
20.9132210432362
 30
0.0
 10
28.01401475867346
 20
20.38961356702012
 30
0.0
 10
28.20725029951416
 20
19.86672557271217
 30
0.0
 10
28.40195739492935
 20
19.34438277517439
 30
0.0
 10
28.59832248218679
 20
18.8226641989567
 30
0.0
 10
28.79596539799171
 20
18.3014227532882
 30
0.0
 10
28.99741486617932
 20
17.78164428531902
 30
0.0
 10
29.20036352143405
 20
17.26244130157254
 30
0.0
 10
29.41173295763825
 20
16.74659583795876
 30
0.0
 10
29.63132417819945
 20
16.2341976955034
 30
0.0
 10
29.86080008455077
 20
15.72612093486833
 30
0.0
 10
30.10580999788802
 20
15.22533622010163
 30
0.0
 10
30.36390399155093
 20
14.73116115705484
 30
0.0
 10
30.63859406324445
 20
14.24599214630041
 30
0.0
 10
30.92887493687415
 20
13.77000323103622
 30
0.0
 10
31.23437962939138
 20
13.30362908697273
 30
0.0
 10
31.55620468034767
 20
12.84833275761745
 30
0.0
 10
31.89752944278969
 20
12.40739552486768
 30
0.0
 10
32.26111201231096
 20
11.98454981110173
 30
0.0
 10
32.64957612283153
 20
11.58433812671843
 30
0.0
 10
33.065131101336
 20
11.21215357475535
 30
0.0
 10
33.36100686508689
 20
10.98682043911406
 30
0.0
 10
33.51187485081948
 20
10.87837913947699
 30
0.0
  0
SPLINE
  5
70
330
1F
100
AcDbEntity
  8
Default
 62
     7
100
AcDbSpline
210
0.0
220
0.0
230
1.0
 70
    24
 71
     2
 72
     6
 73
     3
 74
     0
 42
0.0000000001
 43
0.0000000001
 40
0.0
 40
0.0
 40
0.0
 40
0.3257581725120212
 40
0.3257581725120212
 40
0.3257581725120212
 10
6.937697988611513
 20
5.475382715035972
 30
0.0
 10
6.960081572136688
 20
5.314048986608949
 30
0.0
 10
6.982465155661863
 20
5.152715258181926
 30
0.0
  0
SPLINE
  5
71
330
1F
100
AcDbEntity
  8
Default
 62
     7
100
AcDbSpline
210
0.0
220
0.0
230
1.0
 70
    12
 71
     2
 72
     8
 73
     5
 74
     0
 42
0.0000000001
 43
0.0000000001
 40
0.0
 40
0.0
 40
0.0
 40
0.4673119072214817
 40
0.4673119072214817
 40
0.9346238144429634
 40
0.9346238144429634
 40
0.9346238144429634
 10
6.982465155661863
 20
5.152715258181926
 30
0.0
 41
1.0
 10
7.02098591198682
 20
4.875069936880355
 30
0.0
 41
0.7071067811865476
 10
7.246869125918977
 20
4.838176955882568
 30
0.0
 41
1.0
 10
7.472752339851137
 20
4.801283974884782
 30
0.0
 41
0.7071067811865476
 10
7.434231583526099
 20
5.078929296186365
 30
0.0
 41
1.0
  0
SPLINE
  5
72
330
1F
100
AcDbEntity
  8
Default
 62
     7
100
AcDbSpline
210
0.0
220
0.0
230
1.0
 70
    24
 71
     2
 72
     6
 73
     3
 74
     0
 42
0.0000000001
 43
0.0000000001
 40
0.0
 40
0.0
 40
0.0
 40
1.531076562710629
 40
1.531076562710629
 40
1.531076562710629
 10
7.434231583526099
 20
5.078929296186365
 30
0.0
 10
7.32902783726059
 20
5.837204333354378
 30
0.0
 10
7.22382409099508
 20
6.595479370522391
 30
0.0
  0
SPLINE
  5
73
330
1F
100
AcDbEntity
  8
Default
 62
     7
100
AcDbSpline
210
0.0
220
0.0
230
1.0
 70
    12
 71
     2
 72
     6
 73
     3
 74
     0
 42
0.0000000001
 43
0.0000000001
 40
0.0
 40
0.0
 40
0.0
 40
0.084804007752678
 40
0.084804007752678
 40
0.084804007752678
 10
7.22382409099508
 20
6.595479370522391
 30
0.0
 41
1.0
 10
7.217848328141631
 20
6.637625691491089
 30
0.0
 41
0.9941660635781762
 10
7.202972821353579
 20
6.677509791213609
 30
0.0
 41
1.0
  0
SPLINE
  5
74
330
1F
100
AcDbEntity
  8
Default
 62
     7
100
AcDbSpline
210
0.0
220
0.0
230
1.0
 70
    24
 71
     2
 72
     6
 73
     3
 74
     0
 42
0.0000000001
 43
0.0000000001
 40
0.0
 40
0.0
 40
0.0
 40
0.776062967550196
 40
0.776062967550196
 40
0.776062967550196
 10
6.777492988550699
 20
6.630089241066194
 30
0.0
 10
6.830818036763615
 20
6.245739307237925
 30
0.0
 10
6.884143084976532
 20
5.861389373409657
 30
0.0
  0
SPLINE
  5
75
330
1F
100
AcDbEntity
  8
Default
 62
     7
100
AcDbSpline
210
0.0
220
0.0
230
1.0
 70
    24
 71
     2
 72
     6
 73
     3
 74
     0
 42
0.0000000001
 43
0.0000000001
 40
0.0
 40
0.0
 40
0.0
 40
0.3257581725120212
 40
0.3257581725120212
 40
0.3257581725120212
 10
-6.937697988611513
 20
5.475382715035972
 30
0.0
 10
-6.960081572136688
 20
5.314048986608949
 30
0.0
 10
-6.982465155661863
 20
5.152715258181926
 30
0.0
  0
SPLINE
  5
76
330
1F
100
AcDbEntity
  8
Default
 62
     7
100
AcDbSpline
210
0.0
220
0.0
230
1.0
 70
    12
 71
     2
 72
     8
 73
     5
 74
     0
 42
0.0000000001
 43
0.0000000001
 40
0.0
 40
0.0
 40
0.0
 40
0.4673119072214817
 40
0.4673119072214817
 40
0.9346238144429634
 40
0.9346238144429634
 40
0.9346238144429634
 10
-6.982465155661863
 20
5.152715258181926
 30
0.0
 41
1.0
 10
-7.02098591198682
 20
4.875069936880355
 30
0.0
 41
0.7071067811865476
 10
-7.246869125918977
 20
4.838176955882568
 30
0.0
 41
1.0
 10
-7.472752339851137
 20
4.801283974884782
 30
0.0
 41
0.7071067811865476
 10
-7.434231583526099
 20
5.078929296186365
 30
0.0
 41
1.0
  0
SPLINE
  5
77
330
1F
100
AcDbEntity
  8
Default
 62
     7
100
AcDbSpline
210
0.0
220
0.0
230
1.0
 70
    24
 71
     2
 72
     6
 73
     3
 74
     0
 42
0.0000000001
 43
0.0000000001
 40
0.0
 40
0.0
 40
0.0
 40
1.531076562710629
 40
1.531076562710629
 40
1.531076562710629
 10
-7.434231583526099
 20
5.078929296186365
 30
0.0
 10
-7.32902783726059
 20
5.837204333354378
 30
0.0
 10
-7.22382409099508
 20
6.595479370522391
 30
0.0
  0
SPLINE
  5
78
330
1F
100
AcDbEntity
  8
Default
 62
     7
100
AcDbSpline
210
0.0
220
0.0
230
1.0
 70
    12
 71
     2
 72
     6
 73
     3
 74
     0
 42
0.0000000001
 43
0.0000000001
 40
0.0
 40
0.0
 40
0.0
 40
0.084804007752678
 40
0.084804007752678
 40
0.084804007752678
 10
-7.22382409099508
 20
6.595479370522391
 30
0.0
 41
1.0
 10
-7.217848328141631
 20
6.637625691491089
 30
0.0
 41
0.9941660635781762
 10
-7.202972821353579
 20
6.677509791213609
 30
0.0
 41
1.0
  0
SPLINE
  5
79
330
1F
100
AcDbEntity
  8
Default
 62
     7
100
AcDbSpline
210
0.0
220
0.0
230
1.0
 70
     8
 71
     3
 72
    34
 73
    30
 74
     0
 42
0.0000000001
 43
0.0000000001
 40
0.0
 40
0.0
 40
0.0
 40
0.0
 40
1.0
 40
2.0
 40
3.0
 40
4.0
 40
5.0
 40
6.0
 40
7.0
 40
8.0
 40
9.0
 40
10.0
 40
11.0
 40
12.0
 40
13.0
 40
14.0
 40
15.0
 40
16.0
 40
17.0
 40
18.0
 40
19.0
 40
20.0
 40
21.0
 40
22.0
 40
23.0
 40
24.0
 40
25.0
 40
26.0
 40
27.0
 40
27.0
 40
27.0
 40
27.0
 10
12.30781462347795
 20
16.24591417047558
 30
0.0
 10
12.0724449819534
 20
16.42968925515837
 30
0.0
 10
11.68989690426142
 20
16.88754536679762
 30
0.0
 10
11.21390777553275
 20
17.65048524868683
 30
0.0
 10
11.02979023213464
 20
18.53315847925142
 30
0.0
 10
10.88906202540074
 20
19.41143992203189
 30
0.0
 10
10.7994371625649
 20
20.29967447107657
 30
0.0
 10
10.7119950204717
 20
21.18694816687762
 30
0.0
 10
10.625457733556
 20
22.07462125026871
 30
0.0
 10
10.53560596450774
 20
22.96190168769439
 30
0.0
 10
10.43330737820172
 20
23.84785090669017
 30
0.0
 10
10.33882938329404
 20
24.73464722206918
 30
0.0
 10
10.25633742385033
 20
25.62266249087188
 30
0.0
 10
10.15046514100353
 20
26.50834992465489
 30
0.0
 10
10.08288922954732
 20
27.39765632850031
 30
0.0
 10
10.00771325116992
 20
28.28636653892252
 30
0.0
 10
9.856738005299588
 20
29.16714423209595
 30
0.0
 10
9.526214846837076
 20
30.00606844407307
 30
0.0
 10
8.874832927545464
 20
30.65227360846634
 30
0.0
 10
8.024142777597039
 20
30.96064980741077
 30
0.0
 10
7.133690977651647
 20
31.04805158008824
 30
0.0
 10
6.241808570037446
 20
31.04815606751903
 30
0.0
 10
5.350465688880301
 20
31.01604137535069
 30
0.0
 10
4.458844188567132
 20
30.99753775373695
 30
0.0
 10
3.567134131918726
 20
30.98338051218334
 30
0.0
 10
2.675393965445186
 20
30.97154007541532
 30
0.0
 10
1.783623285057403
 20
30.96210906889254
 30
0.0
 10
0.8918186596554409
 20
30.95665547673084
 30
0.0
 10
0.2972729626906217
 20
30.95548908661656
 30
0.0
 10
0.0
 20
30.95544064816869
 30
0.0
  0
SPLINE
  5
7A
330
1F
100
AcDbEntity
  8
Default
 62
     7
100
AcDbSpline
210
0.0
220
0.0
230
1.0
 70
     8
 71
     3
 72
    34
 73
    30
 74
     0
 42
0.0000000001
 43
0.0000000001
 40
-27.0
 40
-27.0
 40
-27.0
 40
-27.0
 40
-26.0
 40
-25.0
 40
-24.0
 40
-23.0
 40
-22.0
 40
-21.0
 40
-20.0
 40
-19.0
 40
-18.0
 40
-17.0
 40
-16.0
 40
-15.0
 40
-14.0
 40
-13.0
 40
-12.0
 40
-11.0
 40
-10.0
 40
-9.0
 40
-8.0
 40
-7.0
 40
-6.0
 40
-5.0
 40
-4.0
 40
-3.0
 40
-2.0
 40
-1.0
 40
0.0
 40
0.0
 40
0.0
 40
0.0
 10
0.0
 20
30.95544064816869
 30
0.0
 10
-0.2972729626906217
 20
30.95548908661656
 30
0.0
 10
-0.8918186596554409
 20
30.95665547673084
 30
0.0
 10
-1.783623285057403
 20
30.96210906889254
 30
0.0
 10
-2.675393965445186
 20
30.97154007541532
 30
0.0
 10
-3.567134131918726
 20
30.98338051218334
 30
0.0
 10
-4.458844188567132
 20
30.99753775373695
 30
0.0
 10
-5.350465688880301
 20
31.01604137535069
 30
0.0
 10
-6.241808570037446
 20
31.04815606751903
 30
0.0
 10
-7.133690977651647
 20
31.04805158008824
 30
0.0
 10
-8.024142777597039
 20
30.96064980741077
 30
0.0
 10
-8.874832927545464
 20
30.65227360846634
 30
0.0
 10
-9.526214846837076
 20
30.00606844407307
 30
0.0
 10
-9.856738005299588
 20
29.16714423209595
 30
0.0
 10
-10.00771325116992
 20
28.28636653892252
 30
0.0
 10
-10.08288922954732
 20
27.39765632850031
 30
0.0
 10
-10.15046514100353
 20
26.50834992465489
 30
0.0
 10
-10.25633742385033
 20
25.62266249087188
 30
0.0
 10
-10.33882938329404
 20
24.73464722206918
 30
0.0
 10
-10.43330737820172
 20
23.84785090669017
 30
0.0
 10
-10.53560596450774
 20
22.96190168769439
 30
0.0
 10
-10.625457733556
 20
22.07462125026871
 30
0.0
 10
-10.7119950204717
 20
21.18694816687762
 30
0.0
 10
-10.7994371625649
 20
20.29967447107657
 30
0.0
 10
-10.88906202540074
 20
19.41143992203189
 30
0.0
 10
-11.02979023213464
 20
18.53315847925142
 30
0.0
 10
-11.21390777553275
 20
17.65048524868683
 30
0.0
 10
-11.68989690426142
 20
16.88754536679762
 30
0.0
 10
-12.0724449819534
 20
16.42968925515837
 30
0.0
 10
-12.30781462347795
 20
16.24591417047558
 30
0.0
  0
SPLINE
  5
7B
330
1F
100
AcDbEntity
  8
Default
 62
     7
100
AcDbSpline
210
0.0
220
0.0
230
1.0
 70
     8
 71
     3
 72
    16
 73
    12
 74
     0
 42
0.0000000001
 43
0.0000000001
 40
0.0
 40
0.0
 40
0.0
 40
0.0
 40
1.0
 40
2.0
 40
3.0
 40
4.0
 40
5.0
 40
6.0
 40
7.0
 40
8.0
 40
9.0
 40
9.0
 40
9.0
 40
9.0
 10
8.768668101845755
 20
15.08904640050875
 30
0.0
 10
8.584725172205431
 20
15.3716882401587
 30
0.0
 10
8.04399918634203
 20
15.81155299008692
 30
0.0
 10
7.054293750303811
 20
16.06124328396103
 30
0.0
 10
6.055583088264837
 20
16.19870770345945
 30
0.0
 10
5.047113355748825
 20
16.26496617986514
 30
0.0
 10
4.038146577944341
 20
16.2974826985775
 30
0.0
 10
3.028674184424118
 20
16.31866499703294
 30
0.0
 10
2.019173343991129
 20
16.33468374328109
 30
0.0
 10
1.009620389504924
 20
16.34822203639416
 30
0.0
 10
0.3365494454237587
 20
16.3542541323015
 30
0.0
 10
0.0
 20
16.35426771764745
 30
0.0
  0
SPLINE
  5
7C
330
1F
100
AcDbEntity
  8
Default
 62
     7
100
AcDbSpline
210
0.0
220
0.0
230
1.0
 70
     8
 71
     3
 72
    16
 73
    12
 74
     0
 42
0.0000000001
 43
0.0000000001
 40
-9.0
 40
-9.0
 40
-9.0
 40
-9.0
 40
-8.0
 40
-7.0
 40
-6.0
 40
-5.0
 40
-4.0
 40
-3.0
 40
-2.0
 40
-1.0
 40
0.0
 40
0.0
 40
0.0
 40
0.0
 10
0.0
 20
16.35426771764745
 30
0.0
 10
-0.3365494454237587
 20
16.3542541323015
 30
0.0
 10
-1.009620389504924
 20
16.34822203639416
 30
0.0
 10
-2.019173343991129
 20
16.33468374328109
 30
0.0
 10
-3.028674184424118
 20
16.31866499703294
 30
0.0
 10
-4.038146577944341
 20
16.2974826985775
 30
0.0
 10
-5.047113355748825
 20
16.26496617986514
 30
0.0
 10
-6.055583088264837
 20
16.19870770345945
 30
0.0
 10
-7.054293750303811
 20
16.06124328396103
 30
0.0
 10
-8.04399918634203
 20
15.81155299008692
 30
0.0
 10
-8.584725172205431
 20
15.3716882401587
 30
0.0
 10
-8.768668101845755
 20
15.08904640050875
 30
0.0
  0
SPLINE
  5
7D
330
1F
100
AcDbEntity
  8
Default
 62
     7
100
AcDbSpline
210
0.0
220
0.0
230
1.0
 70
     8
 71
     3
 72
    49
 73
    45
 74
     0
 42
0.0000000001
 43
0.0000000001
 40
-42.0
 40
-42.0
 40
-42.0
 40
-42.0
 40
-41.0
 40
-40.0
 40
-39.0
 40
-38.0
 40
-37.0
 40
-36.0
 40
-35.0
 40
-34.0
 40
-33.0
 40
-32.0
 40
-31.0
 40
-30.0
 40
-29.0
 40
-28.0
 40
-27.0
 40
-26.0
 40
-25.0
 40
-24.0
 40
-23.0
 40
-22.0
 40
-21.0
 40
-20.0
 40
-19.0
 40
-18.0
 40
-17.0
 40
-16.0
 40
-15.0
 40
-14.0
 40
-13.0
 40
-12.0
 40
-11.0
 40
-10.0
 40
-9.0
 40
-8.0
 40
-7.0
 40
-6.0
 40
-5.0
 40
-4.0
 40
-3.0
 40
-2.0
 40
-1.0
 40
0.0
 40
0.0
 40
0.0
 40
0.0
 10
-8.613821124467078
 20
11.68623539785556
 30
0.0
 10
-8.7568180354833
 20
11.7705283541342
 30
0.0
 10
-9.042300966684198
 20
11.93998444170227
 30
0.0
 10
-9.467822382226577
 20
12.19867923001265
 30
0.0
 10
-9.889589883430379
 20
12.46345998355757
 30
0.0
 10
-10.30687525372844
 20
12.73525513286689
 30
0.0
 10
-10.71931473029816
 20
13.01435269547084
 30
0.0
 10
-11.12670674206082
 20
13.30076032740565
 30
0.0
 10
-11.52875597812326
 20
13.59465853819421
 30
0.0
 10
-11.92563511658597
 20
13.89534766810248
 30
0.0
 10
-12.31802909868566
 20
14.20241190729802
 30
0.0
 10
-12.70531775087801
 20
14.5138636088528
 30
0.0
 10
-13.09111915238441
 20
14.83465394443322
 30
0.0
 10
-13.45689505605688
 20
15.15164269968557
 30
0.0
 10
-13.86436440630986
 20
15.52139583962792
 30
0.0
 10
-13.613504062986
 20
16.04829853489043
 30
0.0
 10
-13.15908709437307
 20
16.27105661661337
 30
0.0
 10
-12.65116618622356
 20
16.26617248610617
 30
0.0
 10
-12.15857013766601
 20
16.20565109047324
 30
0.0
 10
-11.6740681643232
 20
16.08496438793829
 30
0.0
 10
-11.1990416756475
 20
15.93595341085627
 30
0.0
 10
-10.7301077770288
 20
15.76804462436226
 30
0.0
 10
-10.26180918436728
 20
15.59877419384875
 30
0.0
 10
-9.792146137849091
 20
15.4332377838467
 30
0.0
 10
-9.320860291430256
 20
15.27230303281465
 30
0.0
 10
-8.847315435399072
 20
15.11838890664549
 30
0.0
 10
-8.377093343552415
 20
14.95374148949907
 30
0.0
 10
-7.893204126606285
 20
14.83453335026326
 30
0.0
 10
-7.412785505099228
 20
14.70370701180624
 30
0.0
 10
-6.930730378117753
 20
14.57876164455305
 30
0.0
 10
-6.447201250456546
 20
14.45931157686955
 30
0.0
 10
-5.958422414208294
 20
14.3634124464763
 30
0.0
 10
-5.46539796180166
 20
14.29249143066811
 30
0.0
 10
-4.971250676461121
 20
14.230891825712
 30
0.0
 10
-4.475910569148712
 20
14.17941577018524
 30
0.0
 10
-3.979867899789028
 20
14.13546153074313
 30
0.0
 10
-3.483262859329083
 20
14.0983689562615
 30
0.0
 10
-2.986277252434899
 20
14.06686145474464
 30
0.0
 10
-2.488989452363196
 20
14.04053668192125
 30
0.0
 10
-1.991461397886086
 20
14.01924354669843
 30
0.0
 10
-1.493751929273179
 20
14.00274656320876
 30
0.0
 10
-0.995909606128692
 20
13.99092754576251
 30
0.0
 10
-0.4979770471557285
 20
13.98383364163249
 30
0.0
 10
-0.1659922449843406
 20
13.98226569660056
 30
0.0
 10
0.0
 20
13.98227644734599
 30
0.0
  0
SPLINE
  5
7E
330
1F
100
AcDbEntity
  8
Default
 62
     7
100
AcDbSpline
210
0.0
220
0.0
230
1.0
 70
     8
 71
     3
 72
    49
 73
    45
 74
     0
 42
0.0000000001
 43
0.0000000001
 40
0.0
 40
0.0
 40
0.0
 40
0.0
 40
1.0
 40
2.0
 40
3.0
 40
4.0
 40
5.0
 40
6.0
 40
7.0
 40
8.0
 40
9.0
 40
10.0
 40
11.0
 40
12.0
 40
13.0
 40
14.0
 40
15.0
 40
16.0
 40
17.0
 40
18.0
 40
19.0
 40
20.0
 40
21.0
 40
22.0
 40
23.0
 40
24.0
 40
25.0
 40
26.0
 40
27.0
 40
28.0
 40
29.0
 40
30.0
 40
31.0
 40
32.0
 40
33.0
 40
34.0
 40
35.0
 40
36.0
 40
37.0
 40
38.0
 40
39.0
 40
40.0
 40
41.0
 40
42.0
 40
42.0
 40
42.0
 40
42.0
 10
0.0
 20
13.98227644734599
 30
0.0
 10
0.1659922449843406
 20
13.98226569660056
 30
0.0
 10
0.4979770471557285
 20
13.98383364163249
 30
0.0
 10
0.995909606128692
 20
13.99092754576251
 30
0.0
 10
1.493751929273179
 20
14.00274656320876
 30
0.0
 10
1.991461397886086
 20
14.01924354669843
 30
0.0
 10
2.488989452363196
 20
14.04053668192125
 30
0.0
 10
2.986277252434899
 20
14.06686145474464
 30
0.0
 10
3.483262859329083
 20
14.0983689562615
 30
0.0
 10
3.979867899789028
 20
14.13546153074313
 30
0.0
 10
4.475910569148712
 20
14.17941577018524
 30
0.0
 10
4.971250676461121
 20
14.230891825712
 30
0.0
 10
5.46539796180166
 20
14.29249143066811
 30
0.0
 10
5.958422414208294
 20
14.3634124464763
 30
0.0
 10
6.447201250456546
 20
14.45931157686955
 30
0.0
 10
6.930730378117753
 20
14.57876164455305
 30
0.0
 10
7.412785505099228
 20
14.70370701180624
 30
0.0
 10
7.893204126606285
 20
14.83453335026326
 30
0.0
 10
8.377093343552415
 20
14.95374148949907
 30
0.0
 10
8.847315435399072
 20
15.11838890664549
 30
0.0
 10
9.320860291430256
 20
15.27230303281465
 30
0.0
 10
9.792146137849091
 20
15.4332377838467
 30
0.0
 10
10.26180918436728
 20
15.59877419384875
 30
0.0
 10
10.7301077770288
 20
15.76804462436226
 30
0.0
 10
11.1990416756475
 20
15.93595341085627
 30
0.0
 10
11.6740681643232
 20
16.08496438793829
 30
0.0
 10
12.15857013766601
 20
16.20565109047324
 30
0.0
 10
12.65116618622356
 20
16.26617248610617
 30
0.0
 10
13.15908709437307
 20
16.27105661661337
 30
0.0
 10
13.613504062986
 20
16.04829853489043
 30
0.0
 10
13.86436440630986
 20
15.52139583962792
 30
0.0
 10
13.45689505605688
 20
15.15164269968557
 30
0.0
 10
13.09111915238441
 20
14.83465394443322
 30
0.0
 10
12.70531775087801
 20
14.5138636088528
 30
0.0
 10
12.31802909868566
 20
14.20241190729802
 30
0.0
 10
11.92563511658597
 20
13.89534766810248
 30
0.0
 10
11.52875597812326
 20
13.59465853819421
 30
0.0
 10
11.12670674206082
 20
13.30076032740565
 30
0.0
 10
10.71931473029816
 20
13.01435269547084
 30
0.0
 10
10.30687525372844
 20
12.73525513286689
 30
0.0
 10
9.889589883430379
 20
12.46345998355757
 30
0.0
 10
9.467822382226577
 20
12.19867923001265
 30
0.0
 10
9.042300966684198
 20
11.93998444170227
 30
0.0
 10
8.7568180354833
 20
11.7705283541342
 30
0.0
 10
8.613821124467078
 20
11.68623539785556
 30
0.0
  0
SPLINE
  5
7F
330
1F
100
AcDbEntity
  8
Default
 62
     7
100
AcDbSpline
210
0.0
220
0.0
230
1.0
 70
     8
 71
     3
 72
    14
 73
    10
 74
     0
 42
0.0000000001
 43
0.0000000001
 40
-10.96374478173458
 40
-10.96374478173458
 40
-10.96374478173458
 40
-10.96374478173458
 40
-8.879585904019127
 40
-8.020975577154193
 40
-7.206836402906538
 40
-5.164653402434267
 40
-2.754807738330884
 40
-1.418115284799715
 40
0.0
 40
0.0
 40
0.0
 40
0.0
 10
-10.77153769472482
 20
14.66341515945435
 30
0.0
 10
-10.11698080282751
 20
14.43910027593744
 30
0.0
 10
-9.190617849617475
 20
14.12149496213123
 30
0.0
 10
-7.988056288394667
 20
13.76918952189176
 30
0.0
 10
-6.77742396220641
 20
13.5057160135715
 30
0.0
 10
-5.037021176051629
 20
13.2654225908154
 30
0.0
 10
-3.111769748746483
 20
13.1276485165285
 30
0.0
 10
-1.390946622269005
 20
13.07093258987411
 30
0.0
 10
-0.4727291031139843
 20
13.06152349340201
 30
0.0
 10
0.0
 20
13.06166927631317
 30
0.0
  0
SPLINE
  5
80
330
1F
100
AcDbEntity
  8
Default
 62
     7
100
AcDbSpline
210
0.0
220
0.0
230
1.0
 70
     8
 71
     3
 72
    14
 73
    10
 74
     0
 42
0.0000000001
 43
0.0000000001
 40
0.0
 40
0.0
 40
0.0
 40
0.0
 40
1.418115284799715
 40
2.754807738330884
 40
5.164653402434267
 40
7.206836402906538
 40
8.020975577154193
 40
8.879585904019127
 40
10.96374478173458
 40
10.96374478173458
 40
10.96374478173458
 40
10.96374478173458
 10
0.0
 20
13.06166927631317
 30
0.0
 10
0.4727291031139843
 20
13.06152349340201
 30
0.0
 10
1.390946622269005
 20
13.07093258987411
 30
0.0
 10
3.111769748746483
 20
13.1276485165285
 30
0.0
 10
5.037021176051629
 20
13.2654225908154
 30
0.0
 10
6.77742396220641
 20
13.5057160135715
 30
0.0
 10
7.988056288394667
 20
13.76918952189176
 30
0.0
 10
9.190617849617475
 20
14.12149496213123
 30
0.0
 10
10.11698080282751
 20
14.43910027593744
 30
0.0
 10
10.77153769472482
 20
14.66341515945435
 30
0.0
  0
SPLINE
  5
81
330
1F
100
AcDbEntity
  8
Default
 62
     7
100
AcDbSpline
210
0.0
220
0.0
230
1.0
 70
     8
 71
     3
 72
    16
 73
    12
 74
     0
 42
0.0000000001
 43
0.0000000001
 40
0.0
 40
0.0
 40
0.0
 40
0.0
 40
1.0
 40
2.0
 40
3.0
 40
4.0
 40
5.0
 40
6.0
 40
7.0
 40
8.0
 40
9.0
 40
9.0
 40
9.0
 40
9.0
 10
7.127346989934597
 20
10.85627976899383
 30
0.0
 10
6.883313378318782
 20
10.73356657853138
 30
0.0
 10
6.389303187325075
 20
10.49985294056312
 30
0.0
 10
5.630991270212307
 20
10.18864154944665
 30
0.0
 10
4.857583042216144
 20
9.916427867885917
 30
0.0
 10
4.069710834355365
 20
9.691417934982958
 30
0.0
 10
3.272968571111338
 20
9.494418746506959
 30
0.0
 10
2.457323653735803
 20
9.403643029642666
 30
0.0
 10
1.638859330707267
 20
9.362576285384614
 30
0.0
 10
0.8194661206374586
 20
9.346474809277732
 30
0.0
 10
0.2731546546890496
 20
9.345805726593584
 30
0.0
 10
0.0
 20
9.345888937378497
 30
0.0
  0
SPLINE
  5
82
330
1F
100
AcDbEntity
  8
Default
 62
     7
100
AcDbSpline
210
0.0
220
0.0
230
1.0
 70
     8
 71
     3
 72
    16
 73
    12
 74
     0
 42
0.0000000001
 43
0.0000000001
 40
-9.0
 40
-9.0
 40
-9.0
 40
-9.0
 40
-8.0
 40
-7.0
 40
-6.0
 40
-5.0
 40
-4.0
 40
-3.0
 40
-2.0
 40
-1.0
 40
0.0
 40
0.0
 40
0.0
 40
0.0
 10
0.0
 20
9.345888937378497
 30
0.0
 10
-0.2731546546890496
 20
9.345805726593584
 30
0.0
 10
-0.8194661206374586
 20
9.346474809277732
 30
0.0
 10
-1.638859330707267
 20
9.362576285384614
 30
0.0
 10
-2.457323653735803
 20
9.403643029642666
 30
0.0
 10
-3.272968571111338
 20
9.494418746506959
 30
0.0
 10
-4.069710834355365
 20
9.691417934982958
 30
0.0
 10
-4.857583042216144
 20
9.916427867885917
 30
0.0
 10
-5.630991270212307
 20
10.18864154944665
 30
0.0
 10
-6.389303187325075
 20
10.49985294056312
 30
0.0
 10
-6.883313378318782
 20
10.73356657853138
 30
0.0
 10
-7.127346989934597
 20
10.85627976899383
 30
0.0
  0
SPLINE
  5
83
330
1F
100
AcDbEntity
  8
Default
 62
     7
100
AcDbSpline
210
0.0
220
0.0
230
1.0
 70
    12
 71
     2
 72
     6
 73
     3
 74
     0
 42
0.0000000001
 43
0.0000000001
 40
0.0
 40
0.0
 40
0.0
 40
1.720725275424681
 40
1.720725275424681
 40
1.720725275424681
 10
6.508375064061298
 20
10.56093588654858
 30
0.0
 41
1.0
 10
6.611738684763091
 20
9.706804848037615
 30
0.0
 41
0.9999999993305316
 10
6.715039797345407
 20
8.85266624735793
 30
0.0
 41
1.0
  0
SPLINE
  5
84
330
1F
100
AcDbEntity
  8
Default
 62
     7
100
AcDbSpline
210
0.0
220
0.0
230
1.0
 70
    12
 71
     2
 72
     8
 73
     5
 74
     0
 42
0.0000000001
 43
0.0000000001
 40
0.0
 40
0.0
 40
0.0
 40
0.1686936536810236
 40
0.1686936536810236
 40
0.3373873073620471
 40
0.3373873073620471
 40
0.3373873073620471
 10
6.715039797345407
 20
8.85266624735793
 30
0.0
 41
1.0
 10
6.725436217252451
 20
8.763564938462876
 30
0.0
 41
0.9127533725708099
 10
6.798809083329759
 20
8.711955333568572
 30
0.0
 41
1.0
 10
6.872181949407071
 20
8.660345728674267
 30
0.0
 41
0.9127533725708099
 10
6.95955303017103
 20
8.680678535659105
 30
0.0
 41
1.0
  0
POLYLINE
  5
85
330
1F
100
AcDbEntity
  8
Default
 62
     7
100
AcDb2dPolyline
 66
     1
 10
0.0
 20
0.0
 30
0.0
  0
VERTEX
  5
86
330
85
100
AcDbEntity
  8
Default
 62
     7
100
AcDbVertex
100
AcDb2dVertex
 10
6.95955303017103
 20
8.680678535659105
 30
0.0
  0
VERTEX
  5
87
330
85
100
AcDbEntity
  8
Default
 62
     7
100
AcDbVertex
100
AcDb2dVertex
 10
7.513761283716094
 20
8.773245569275813
 30
0.0
  0
SEQEND
  5
88
330
85
100
AcDbEntity
  8
Default
 62
     7
  0
SPLINE
  5
89
330
1F
100
AcDbEntity
  8
Default
 62
     7
100
AcDbSpline
210
0.0
220
0.0
230
1.0
 70
    24
 71
     2
 72
     6
 73
     3
 74
     0
 42
0.0000000001
 43
0.0000000001
 40
0.0
 40
0.0
 40
0.0
 40
5.378098324590294
 40
5.378098324590294
 40
5.378098324590294
 10
7.668290160914339
 20
0.160532504103851
 30
0.0
 10
7.27910203287002
 20
2.821268868013209
 30
0.0
 10
6.889913904825701
 20
5.482005231922567
 30
0.0
  0
SPLINE
  5
8A
330
1F
100
AcDbEntity
  8
Default
 62
     7
100
AcDbSpline
210
0.0
220
0.0
230
1.0
 70
    12
 71
     2
 72
     6
 73
     3
 74
     0
 42
0.0000000001
 43
0.0000000001
 40
0.0
 40
0.0
 40
0.0
 40
0.2644307437332061
 40
0.2644307437332061
 40
0.2644307437332061
 10
7.668802813663103
 20
0.1572609176171415
 30
0.0
 41
1.0
 10
7.694865714224288
 20
0.0000005116256476
 30
0.0
 41
0.7627266262332794
 10
7.854271203709466
 20
0.0000000000000479
 30
0.0
 41
1.0
  0
SPLINE
  5
8B
330
1F
100
AcDbEntity
  8
Default
 62
     7
100
AcDbSpline
210
0.0
220
0.0
230
1.0
 70
    28
 71
     3
 72
    56
 73
    52
 74
     0
 42
0.0000000001
 43
0.0000000001
 40
-0.7941709130233701
 40
-0.7941709130233701
 40
-0.7941709130233701
 40
-0.7941709130233701
 40
-0.7792062077322752
 40
-0.7792062077322752
 40
-0.7792062077322752
 40
-0.7399213807148968
 40
-0.7399213807148968
 40
-0.7399213807148968
 40
-0.6871827573092553
 40
-0.6871827573092553
 40
-0.6871827573092553
 40
-0.6226153252072919
 40
-0.6226153252072919
 40
-0.6226153252072919
 40
-0.5421508855137471
 40
-0.5421508855137471
 40
-0.5421508855137471
 40
-0.4491870320486626
 40
-0.4491870320486626
 40
-0.4491870320486626
 40
-0.378613814128503
 40
-0.378613814128503
 40
-0.378613814128503
 40
-0.2985375898268715
 40
-0.2985375898268715
 40
-0.2985375898268715
 40
-0.2424045216901094
 40
-0.2424045216901094
 40
-0.2424045216901094
 40
-0.1852825676712504
 40
-0.1852825676712504
 40
-0.1852825676712504
 40
-0.1385290136996318
 40
-0.1385290136996318
 40
-0.1385290136996318
 40
-0.1002351571760967
 40
-0.1002351571760967
 40
-0.1002351571760967
 40
-0.0685712646764829
 40
-0.0685712646764829
 40
-0.0685712646764829
 40
-0.042614354238971
 40
-0.042614354238971
 40
-0.042614354238971
 40
-0.0214030772571645
 40
-0.0214030772571645
 40
-0.0214030772571645
 40
-0.0059871827300677
 40
-0.0059871827300677
 40
-0.0059871827300677
 40
0.0
 40
0.0
 40
0.0
 40
0.0
 10
7.854271203709466
 20
0.0000000000000479
 30
0.0
 41
1.0
 10
7.859259438806497
 20
-0.0000000000004421
 30
0.0
 41
1.0
 10
7.86424767390353
 20
-0.000000000000221
 30
0.0
 41
1.0
 10
7.869235909000561
 20
0.0000000000000591
 30
0.0
 41
1.0
 10
7.882330851339687
 20
0.0000000000000394
 30
0.0
 41
0.9999999999999998
 10
7.895425793678812
 20
0.0000000000000197
 30
0.0
 41
1.0
 10
7.908520736017939
 20
-0.0000000000003405
 30
0.0
 41
1.0
 10
7.926100277153155
 20
-0.000000000000227
 30
0.0
 41
1.0
 10
7.943679818288365
 20
-0.0000000000001135
 30
0.0
 41
1.0
 10
7.961259359423581
 20
-0.0000000000001528
 30
0.0
 41
1.0
 10
7.982781836790905
 20
-0.0000000000001018
 30
0.0
 41
0.9999999999999998
 10
8.004304314158222
 20
-0.0000000000000509
 30
0.0
 41
1.0
 10
8.025826791525544
 20
0.0000000000002051
 30
0.0
 41
1.0
 10
8.05264827142339
 20
0.0000000000001367
 30
0.0
 41
1.0
 10
8.079469751321245
 20
0.0000000000000684
 30
0.0
 41
0.9999999999999998
 10
8.106291231219089
 20
-0.0000000000000127
 30
0.0
 41
1.0
 10
8.137279182374117
 20
-0.0000000000000085
 30
0.0
 41
1.0
 10
8.168267133529145
 20
-0.0000000000000042
 30
0.0
 41
1.0
 10
8.199255084684173
 20
0.0000000000005569
 30
0.0
 41
1.0
 10
8.229104199112154
 20
0.0000000000005657
 30
0.0
 41
1.0
 10
8.25929443811577
 20
0.0000000000006102
 30
0.0
 41
1.0
 10
8.289401227041889
 20
0.0000000000000139
 30
0.0
 41
1.0
 10
8.316093301809097
 20
0.0000000000000093
 30
0.0
 41
1.0
 10
8.342785376576312
 20
0.0000000000000046
 30
0.0
 41
0.9999999999999998
 10
8.369477451343519
 20
0.0000000000005391
 30
0.0
 41
1.0
 10
8.39292497242593
 20
0.0000000000005539
 30
0.0
 41
1.0
 10
8.41598105062099
 20
0.000000000000628
 30
0.0
 41
1.0
 10
8.438195167457256
 20
0.000000000000252
 30
0.0
 41
1.0
 10
8.457235818796871
 20
0.000000000000168
 30
0.0
 41
0.9999999999999999
 10
8.476276470136497
 20
0.0000000000001265
 30
0.0
 41
1.0
 10
8.495317121476113
 20
0.0000000000001275
 30
0.0
 41
1.0
 10
8.510901639466654
 20
0.000000000000085
 30
0.0
 41
1.0
 10
8.526486157457192
 20
-0.0000000000000548
 30
0.0
 41
1.0
 10
8.542070675447732
 20
-0.0000000000002919
 30
0.0
 41
1.0
 10
8.554835294288912
 20
-0.0000000000001946
 30
0.0
 41
1.0
 10
8.567599913130087
 20
-0.000000000000135
 30
0.0
 41
0.9999999999999999
 10
8.580364531971266
 20
-0.0000000000001133
 30
0.0
 41
1.0
 10
8.590919162804475
 20
-0.0000000000000755
 30
0.0
 41
1.0
 10
8.601473793637673
 20
-0.0000000000000992
 30
0.0
 41
0.9999999999999999
 10
8.612028424470882
 20
-0.0000000000001845
 30
0.0
 41
1.0
 10
8.620680727950052
 20
-0.000000000000123
 30
0.0
 41
1.0
 10
8.629333031429221
 20
0.0000000000000462
 30
0.0
 41
0.9999999999999996
 10
8.637985334908393
 20
0.000000000000323
 30
0.0
 41
1.0
 10
8.645055760568999
 20
0.0000000000002153
 30
0.0
 41
1.0
 10
8.652126186229594
 20
0.0000000000000868
 30
0.0
 41
0.9999999999999997
 10
8.659196611890199
 20
-0.0000000000000625
 30
0.0
 41
1.0
 10
8.664335243399233
 20
-0.0000000000000416
 30
0.0
 41
1.0
 10
8.669473874908265
 20
0.0000000000001984
 30
0.0
 41
1.0
 10
8.674612506417297
 20
0.0000000000006577
 30
0.0
 41
1.0
 10
8.676608233993989
 20
0.0000000000004385
 30
0.0
 41
1.0
 10
8.678603961570673
 20
0.0000000000002192
 30
0.0
 41
0.9999999999999999
 10
8.680602760326536
 20
0.0000000000291567
 30
0.0
 41
1.0
  0
SPLINE
  5
8C
330
1F
100
AcDbEntity
  8
Default
 62
     7
100
AcDbSpline
210
0.0
220
0.0
230
1.0
 70
    12
 71
     2
 72
     8
 73
     5
 74
     0
 42
0.0000000001
 43
0.0000000001
 40
0.0
 40
0.0
 40
0.0
 40
0.1558639058194086
 40
0.1558639058194086
 40
0.3117278116388172
 40
0.3117278116388172
 40
0.3117278116388172
 10
8.680602760326536
 20
0.0000000000291567
 30
0.0
 41
1.0
 10
8.763331359284106
 20
0.00000243293943
 30
0.0
 41
0.915305615945492
 10
8.819216346191414
 20
0.0609973605195436
 30
0.0
 41
1.0
 10
8.875101333098723
 20
0.1219922880996571
 30
0.0
 41
0.915305615945492
 10
8.867884105830054
 20
0.2044023881037566
 30
0.0
 41
1.0
  0
SPLINE
  5
8D
330
1F
100
AcDbEntity
  8
Default
 62
     7
100
AcDbSpline
210
0.0
220
0.0
230
1.0
 70
    24
 71
     2
 72
     6
 73
     3
 74
     0
 42
0.0000000001
 43
0.0000000001
 40
0.0
 40
0.0
 40
0.0
 40
2.896072152399523
 40
2.896072152399523
 40
2.896072152399523
 10
8.867884105830054
 20
0.2044023881037566
 30
0.0
 10
8.71812773327716
 20
1.646293447459416
 30
0.0
 10
8.568371360724267
 20
3.088184506815074
 30
0.0
  0
SPLINE
  5
8E
330
1F
100
AcDbEntity
  8
Default
 62
     7
100
AcDbSpline
210
0.0
220
0.0
230
1.0
 70
    12
 71
     2
 72
     8
 73
     5
 74
     0
 42
0.0000000001
 43
0.0000000001
 40
-0.3216645839712887
 40
-0.3216645839712887
 40
-0.3216645839712887
 40
-0.1608322919856443
 40
-0.1608322919856443
 40
0.0
 40
0.0
 40
0.0
 10
10.24207318735413
 20
0.2142726844860628
 30
0.0
 41
1.0
 10
10.2540514125489
 20
0.1294054740395858
 30
0.0
 41
0.9099021526625077
 10
10.19784129148826
 20
0.0647035144237292
 30
0.0
 41
1.0
 10
10.14163117042762
 20
0.0000015548078727
 30
0.0
 41
0.9099021526625077
 10
10.05591984683787
 20
0.0000000000170268
 30
0.0
 41
1.0
  0
SPLINE
  5
8F
330
1F
100
AcDbEntity
  8
Default
 62
     7
100
AcDbSpline
210
0.0
220
0.0
230
1.0
 70
    28
 71
     3
 72
    53
 73
    49
 74
     0
 42
0.0000000001
 43
0.0000000001
 40
0.0
 40
0.0
 40
0.0
 40
0.0
 40
0.0148098608928402
 40
0.0148098608928402
 40
0.0148098608928402
 40
0.0975524852704743
 40
0.0975524852704743
 40
0.0975524852704743
 40
0.1511295537173383
 40
0.1511295537173383
 40
0.1511295537173383
 40
0.2126255378223156
 40
0.2126255378223156
 40
0.2126255378223156
 40
0.2719016255995045
 40
0.2719016255995045
 40
0.2719016255995045
 40
0.3319365417088692
 40
0.3319365417088692
 40
0.3319365417088692
 40
0.3872212469294763
 40
0.3872212469294763
 40
0.3872212469294763
 40
0.437679795722704
 40
0.437679795722704
 40
0.437679795722704
 40
0.4870780688581499
 40
0.4870780688581499
 40
0.4870780688581499
 40
0.5388048934398172
 40
0.5388048934398172
 40
0.5388048934398172
 40
0.5883640151751541
 40
0.5883640151751541
 40
0.5883640151751541
 40
0.6440331483704205
 40
0.6440331483704205
 40
0.6440331483704205
 40
0.6971929906129948
 40
0.6971929906129948
 40
0.6971929906129948
 40
0.7442053400733288
 40
0.7442053400733288
 40
0.7442053400733288
 40
0.7792876884092268
 40
0.7792876884092268
 40
0.7792876884092268
 40
0.7936814929549494
 40
0.7936814929549494
 40
0.7936814929549494
 40
0.7936814929549494
 10
10.05591984683787
 20
0.0000000000170268
 30
0.0
 41
1.0
 10
10.0509802531001
 20
0.0000000000003871
 30
0.0
 41
1.0
 10
10.04604363280249
 20
0.0000000000007742
 30
0.0
 41
0.9999999999999998
 10
10.04110701250487
 20
0.0000000000011613
 30
0.0
 41
1.0
 10
10.0319897387554
 20
0.0000000000005441
 30
0.0
 41
1.0
 10
10.01879471746802
 20
0.0000000000005355
 30
0.0
 41
1.0
 10
10.00210322179901
 20
0.000000000000442
 30
0.0
 41
1.0
 10
9.984244198983394
 20
-0.0000000000001392
 30
0.0
 41
1.0
 10
9.966385176167773
 20
-0.0000000000002785
 30
0.0
 41
1.0
 10
9.948526153352152
 20
-0.0000000000004177
 30
0.0
 41
1.0
 10
9.928027491983825
 20
0.0000000000001109
 30
0.0
 41
0.9999999999999998
 10
9.9075288306155
 20
0.0000000000002218
 30
0.0
 41
1.0
 10
9.887030169247174
 20
0.0000000000003327
 30
0.0
 41
1.0
 10
9.867355778656192
 20
0.0000000000004837
 30
0.0
 41
1.0
 10
9.846325720193864
 20
0.0000000000003168
 30
0.0
 41
1.0
 10
9.82447926816939
 20
0.000000000000324
 30
0.0
 41
1.0
 10
9.804467629466268
 20
0.0000000000000423
 30
0.0
 41
1.0
 10
9.784455990763147
 20
0.0000000000000847
 30
0.0
 41
0.9999999999999998
 10
9.764444352060027
 20
0.000000000000127
 30
0.0
 41
1.0
 10
9.74601611698649
 20
0.0000000000000763
 30
0.0
 41
0.9999999999999999
 10
9.727587881912953
 20
0.0000000000001526
 30
0.0
 41
1.0
 10
9.709159646839419
 20
0.000000000000229
 30
0.0
 41
1.0
 10
9.692340130575012
 20
-0.0000000000001781
 30
0.0
 41
1.0
 10
9.6755206143106
 20
-0.0000000000003562
 30
0.0
 41
1.0
 10
9.65870109804619
 20
-0.0000000000005342
 30
0.0
 41
1.0
 10
9.642235007001045
 20
-0.0000000000000356
 30
0.0
 41
1.0
 10
9.625768915955893
 20
-0.0000000000000712
 30
0.0
 41
1.0
 10
9.609302824910745
 20
-0.0000000000001068
 30
0.0
 41
1.0
 10
9.592060550050192
 20
0.0000000000000923
 30
0.0
 41
1.0
 10
9.574818275189632
 20
0.0000000000001847
 30
0.0
 41
0.9999999999999998
 10
9.557576000329078
 20
0.000000000000277
 30
0.0
 41
1.0
 10
9.538819286941546
 20
0.0000000000003628
 30
0.0
 41
1.0
 10
9.520507613391471
 20
0.0000000000003485
 30
0.0
 41
1.0
 10
9.502893849282069
 20
0.0000000000003772
 30
0.0
 41
1.0
 10
9.484337471550313
 20
0.000000000000044
 30
0.0
 41
0.9999999999999998
 10
9.46578109381856
 20
0.0000000000000879
 30
0.0
 41
1.0
 10
9.447224716086803
 20
0.0000000000001319
 30
0.0
 41
1.0
 10
9.429504768672613
 20
0.0000000000000498
 30
0.0
 41
0.9999999999999999
 10
9.411784821258419
 20
0.0000000000000995
 30
0.0
 41
1.0
 10
9.39406487384423
 20
0.0000000000001493
 30
0.0
 41
1.0
 10
9.378394090690787
 20
-0.0000000000000505
 30
0.0
 41
1.0
 10
9.362723307537335
 20
-0.0000000000001009
 30
0.0
 41
1.0
 10
9.347052524383894
 20
-0.0000000000001514
 30
0.0
 41
1.0
 10
9.335358408271924
 20
0.000000000000075
 30
0.0
 41
1.0
 10
9.323664292159966
 20
0.0000000000001501
 30
0.0
 41
0.9999999999999998
 10
9.311970176047996
 20
0.0000000000002251
 30
0.0
 41
1.0
 10
9.307172241199424
 20
0.000000000000159
 30
0.0
 41
0.9999999999999998
 10
9.302374306350847
 20
0.0000000000003181
 30
0.0
 41
1.0
 10
9.297576371502274
 20
0.0000000000004763
 30
0.0
 41
1.0
  0
SPLINE
  5
90
330
1F
100
AcDbEntity
  8
Default
 62
     7
100
AcDbSpline
210
0.0
220
0.0
230
1.0
 70
    12
 71
     2
 72
     6
 73
     3
 74
     0
 42
0.0000000001
 43
0.0000000001
 40
-0.2610154233653951
 40
-0.2610154233653951
 40
-0.2610154233653951
 40
0.0
 40
0.0
 40
0.0
 10
9.297576371502274
 20
0.0000000000004763
 30
0.0
 41
1.0
 10
9.141083664969877
 20
0.00000076777394
 30
0.0
 41
0.768567844314648
 10
9.112697728689497
 20
0.1538975052959244
 30
0.0
 41
1.0
  0
SPLINE
  5
91
330
1F
100
AcDbEntity
  8
Default
 62
     7
100
AcDbSpline
210
0.0
220
0.0
230
1.0
 70
    24
 71
     2
 72
     6
 73
     3
 74
     0
 42
0.0000000001
 43
0.0000000001
 40
0.0
 40
0.0
 40
0.0
 40
11.88829327346957
 40
11.88829327346957
 40
11.88829327346957
 10
9.112697728689497
 20
0.1538975052959244
 30
0.0
 10
8.02852254638287
 20
5.998334468175742
 30
0.0
 10
6.944347364076243
 20
11.84277143105556
 30
0.0
  0
SPLINE
  5
92
330
1F
100
AcDbEntity
  8
Default
 62
     7
100
AcDbSpline
210
0.0
220
0.0
230
1.0
 70
    12
 71
     2
 72
     8
 73
     5
 74
     0
 42
0.0000000001
 43
0.0000000001
 40
0.0
 40
0.0
 40
0.0
 40
1.570796326794897
 40
1.570796326794897
 40
3.141592653589793
 40
3.141592653589793
 40
3.141592653589793
 10
6.944347364076243
 20
11.84277143105556
 30
0.0
 41
1.0
 10
6.886641899279059
 20
11.966141557242
 30
0.0
 41
0.7071067811865475
 10
7.658994824927827
 20
12.32740393039281
 30
0.0
 41
1.0
 10
8.431347750576595
 20
12.68866630354362
 30
0.0
 41
0.7071067811865475
 10
8.48905321537378
 20
12.56529617735718
 30
0.0
 41
1.0
  0
SPLINE
  5
93
330
1F
100
AcDbEntity
  8
Default
 62
     7
100
AcDbSpline
210
0.0
220
0.0
230
1.0
 70
     8
 71
     2
 72
     6
 73
     3
 74
     0
 42
0.0000000001
 43
0.0000000001
 40
-12.47248195548309
 40
-12.47248195548309
 40
-12.47248195548309
 40
0.0
 40
0.0
 40
0.0
 10
8.48905321537378
 20
12.56529617735718
 30
0.0
 10
9.36540052653412
 20
6.390936540707821
 30
0.0
 10
10.24207318735413
 20
0.2142726844860628
 30
0.0
  0
SPLINE
  5
94
330
1F
100
AcDbEntity
  8
Default
 62
     7
100
AcDbSpline
210
0.0
220
0.0
230
1.0
 70
    24
 71
     2
 72
     6
 73
     3
 74
     0
 42
0.0000000001
 43
0.0000000001
 40
0.0
 40
0.0
 40
0.0
 40
3.453295818003667
 40
3.453295818003667
 40
3.453295818003667
 10
6.668567242806644
 20
6.995271105623912
 30
0.0
 10
6.418668179225591
 20
8.703739267364632
 30
0.0
 10
6.168769115644537
 20
10.41220742910535
 30
0.0
  0
SPLINE
  5
95
330
1F
100
AcDbEntity
  8
Default
 62
     7
100
AcDbSpline
210
0.0
220
0.0
230
1.0
 70
    24
 71
     2
 72
     6
 73
     3
 74
     0
 42
0.0000000001
 43
0.0000000001
 40
0.0
 40
0.0
 40
0.0
 40
0.7636187761396052
 40
0.7636187761396052
 40
0.7636187761396052
 10
6.833392246641049
 20
5.868423060304064
 30
0.0
 10
6.778132683853094
 20
6.246212405758275
 30
0.0
 10
6.722873121065138
 20
6.624001751212486
 30
0.0
  0
SPLINE
  5
96
330
1F
100
AcDbEntity
  8
Default
 62
     7
100
AcDbSpline
210
0.0
220
0.0
230
1.0
 70
    12
 71
     3
 72
    14
 73
    10
 74
     0
 42
0.0000000001
 43
0.0000000001
 40
-5.233911335163841
 40
-5.233911335163841
 40
-5.233911335163841
 40
-5.233911335163841
 40
0.0090087645088158
 40
0.0090087645088158
 40
0.0090087645088158
 40
0.2059254868046057
 40
0.4039311043850288
 40
0.4752131395333778
 40
0.7716029909819911
 40
0.7716029909819911
 40
0.7716029909819911
 40
0.7716029909819911
 10
7.819783975994241
 20
7.12357643672984
 30
0.0
 41
1.0
 10
6.082898043664168
 20
6.929997140828029
 30
0.0
 41
1.0
 10
4.346012111334095
 20
6.736417844926218
 30
0.0
 41
1.0
 10
2.609126179004022
 20
6.542838549024407
 30
0.0
 41
1.0
 10
2.571670196113574
 20
6.538664007299888
 30
0.0
 41
1.0
 10
2.476446908785205
 20
6.530467781645164
 30
0.0
 41
1.0
 10
2.345272685487146
 20
6.523578239616215
 30
0.0
 41
1.0
 10
2.172159580121622
 20
6.517490888612596
 30
0.0
 41
1.0
 10
2.046403754363629
 20
6.515583808119979
 30
0.0
 41
1.0
 10
1.947607518319999
 20
6.515583808119979
 30
0.0
 41
1.0
  0
SPLINE
  5
97
330
1F
100
AcDbEntity
  8
Default
 62
     7
100
AcDbSpline
210
0.0
220
0.0
230
1.0
 70
    24
 71
     2
 72
     6
 73
     3
 74
     0
 42
0.0000000001
 43
0.0000000001
 40
-3.895215036639996
 40
-3.895215036639996
 40
-3.895215036639996
 40
0.0
 40
0.0
 40
0.0
 10
1.947607518319998
 20
6.515583808119978
 30
0.0
 10
0.0
 20
6.515583808119978
 30
0.0
 10
-1.947607518319998
 20
6.515583808119978
 30
0.0
  0
SPLINE
  5
98
330
1F
100
AcDbEntity
  8
Default
 62
     7
100
AcDbSpline
210
0.0
220
0.0
230
1.0
 70
    12
 71
     3
 72
    14
 73
    10
 74
     0
 42
0.0000000001
 43
0.0000000001
 40
-0.7716029909819911
 40
-0.7716029909819911
 40
-0.7716029909819911
 40
-0.7716029909819911
 40
-0.4752131395333778
 40
-0.4039311043850288
 40
-0.2059254868046057
 40
-0.0090087645088158
 40
-0.0090087645088158
 40
-0.0090087645088158
 40
5.233911335163841
 40
5.233911335163841
 40
5.233911335163841
 40
5.233911335163841
 10
-1.947607518319999
 20
6.515583808119979
 30
0.0
 41
1.0
 10
-2.046403754363629
 20
6.515583808119979
 30
0.0
 41
1.0
 10
-2.172159580121622
 20
6.517490888612596
 30
0.0
 41
1.0
 10
-2.345272685487146
 20
6.523578239616215
 30
0.0
 41
1.0
 10
-2.476446908785205
 20
6.530467781645164
 30
0.0
 41
1.0
 10
-2.571670196113574
 20
6.538664007299888
 30
0.0
 41
1.0
 10
-2.609126179004022
 20
6.542838549024407
 30
0.0
 41
1.0
 10
-4.346012111334095
 20
6.736417844926218
 30
0.0
 41
1.0
 10
-6.082898043664168
 20
6.929997140828029
 30
0.0
 41
1.0
 10
-7.819783975994241
 20
7.12357643672984
 30
0.0
 41
1.0
  0
SPLINE
  5
99
330
1F
100
AcDbEntity
  8
Default
 62
     7
100
AcDbSpline
210
0.0
220
0.0
230
1.0
 70
    24
 71
     2
 72
     6
 73
     3
 74
     0
 42
0.0000000001
 43
0.0000000001
 40
-5.270087657607387
 40
-5.270087657607387
 40
-5.270087657607387
 40
0.0
 40
0.0
 40
0.0
 10
7.888361418210907
 20
6.753897675719521
 30
0.0
 10
5.269532328516371
 20
6.46202410945132
 30
0.0
 10
2.650703238821835
 20
6.170150543183119
 30
0.0
  0
SPLINE
  5
9A
330
1F
100
AcDbEntity
  8
Default
 62
     7
100
AcDbSpline
210
0.0
220
0.0
230
1.0
 70
    12
 71
     3
 72
    13
 73
     9
 74
     0
 42
0.0000000001
 43
0.0000000001
 40
-0.7961932867051695
 40
-0.7961932867051695
 40
-0.7961932867051695
 40
-0.7961932867051695
 40
-0.7935111768916422
 40
-0.6984693459508846
 40
-0.5400653079866131
 40
-0.4133417682237219
 40
-0.1282136049038196
 40
0.0
 40
0.0
 40
0.0
 40
0.0
 10
2.650703238821835
 20
6.170150543183119
 30
0.0
 41
1.0
 10
2.6501340843761
 20
6.170087109819526
 30
0.0
 41
1.0
 10
2.621039547983708
 20
6.166932213651034
 30
0.0
 41
1.0
 10
2.563245353847634
 20
6.161389842317751
 30
0.0
 41
1.0
 10
2.465536531664092
 20
6.154394485387087
 30
0.0
 41
1.0
 10
2.301958790463672
 20
6.146072940072891
 30
0.0
 41
1.0
 10
2.128130000850824
 20
6.141433244293259
 30
0.0
 41
1.0
 10
1.990345344436193
 20
6.140578835626931
 30
0.0
 41
1.0
 10
1.947607518319998
 20
6.140583808119978
 30
0.0
 41
1.0
  0
SPLINE
  5
9B
330
1F
100
AcDbEntity
  8
Default
 62
     7
100
AcDbSpline
210
0.0
220
0.0
230
1.0
 70
    24
 71
     2
 72
     6
 73
     3
 74
     0
 42
0.0000000001
 43
0.0000000001
 40
0.0
 40
0.0
 40
0.0
 40
3.895215036639996
 40
3.895215036639996
 40
3.895215036639996
 10
1.947607518319998
 20
6.140583808119978
 30
0.0
 10
0.0
 20
6.140583808119978
 30
0.0
 10
-1.947607518319998
 20
6.140583808119978
 30
0.0
  0
SPLINE
  5
9C
330
1F
100
AcDbEntity
  8
Default
 62
     7
100
AcDbSpline
210
0.0
220
0.0
230
1.0
 70
    12
 71
     3
 72
    13
 73
     9
 74
     0
 42
0.0000000001
 43
0.0000000001
 40
0.0
 40
0.0
 40
0.0
 40
0.0
 40
0.1282136049038196
 40
0.4133417682237219
 40
0.5400653079866131
 40
0.6984693459508846
 40
0.7935111768916422
 40
0.7961932867051695
 40
0.7961932867051695
 40
0.7961932867051695
 40
0.7961932867051695
 10
-1.947607518319998
 20
6.140583808119978
 30
0.0
 41
1.0
 10
-1.990345344436193
 20
6.140578835626931
 30
0.0
 41
1.0
 10
-2.128130000850824
 20
6.141433244293259
 30
0.0
 41
1.0
 10
-2.301958790463672
 20
6.146072940072891
 30
0.0
 41
1.0
 10
-2.465536531664092
 20
6.154394485387087
 30
0.0
 41
1.0
 10
-2.563245353847634
 20
6.161389842317751
 30
0.0
 41
1.0
 10
-2.621039547983708
 20
6.166932213651034
 30
0.0
 41
1.0
 10
-2.6501340843761
 20
6.170087109819526
 30
0.0
 41
1.0
 10
-2.650703238821835
 20
6.170150543183119
 30
0.0
 41
1.0
  0
SPLINE
  5
9D
330
1F
100
AcDbEntity
  8
Default
 62
     7
100
AcDbSpline
210
0.0
220
0.0
230
1.0
 70
    24
 71
     2
 72
     6
 73
     3
 74
     0
 42
0.0000000001
 43
0.0000000001
 40
0.0
 40
0.0
 40
0.0
 40
5.270087657607387
 40
5.270087657607387
 40
5.270087657607387
 10
-2.650703238821835
 20
6.170150543183119
 30
0.0
 10
-5.269532328516371
 20
6.46202410945132
 30
0.0
 10
-7.888361418210907
 20
6.753897675719521
 30
0.0
  0
SPLINE
  5
9E
330
1F
100
AcDbEntity
  8
Default
 62
     7
100
AcDbSpline
210
0.0
220
0.0
230
1.0
 70
    24
 71
     2
 72
     6
 73
     3
 74
     0
 42
0.0000000001
 43
0.0000000001
 40
-3.382734120784239
 40
-3.382734120784239
 40
-3.382734120784239
 40
0.0
 40
0.0
 40
0.0
 10
3.762353355837543
 20
6.294046098403821
 30
0.0
 10
5.437707769066978
 20
6.061854664036042
 30
0.0
 10
7.113062182296412
 20
5.829663229668263
 30
0.0
  0
SPLINE
  5
9F
330
1F
100
AcDbEntity
  8
Default
 62
     7
100
AcDbSpline
210
0.0
220
0.0
230
1.0
 70
     8
 71
     3
 72
    16
 73
    12
 74
     0
 42
0.0000000001
 43
0.0000000001
 40
-0.5317134732598473
 40
-0.5317134732598473
 40
-0.5317134732598473
 40
-0.5317134732598473
 40
-0.4737601747767965
 40
-0.4143802457717665
 40
-0.2761585967958678
 40
-0.1460012324018074
 40
-0.0937138633794278
 40
-0.0449526342919539
 40
-0.0227867697898846
 40
-0.0056255571045015
 40
0.0
 40
0.0
 40
0.0
 40
0.0
 10
7.113062182296412
 20
5.829663229668263
 30
0.0
 10
7.132265071019432
 20
5.826864902367445
 30
0.0
 10
7.169100129978639
 20
5.811940896953835
 30
0.0
 10
7.232963792000941
 20
5.753580682119884
 30
0.0
 10
7.280709917504495
 20
5.652509576024994
 30
0.0
 10
7.280412915195073
 20
5.541809383937688
 30
0.0
 10
7.241203149094106
 20
5.472974593096893
 30
0.0
 10
7.205547300322233
 20
5.450176734097294
 30
0.0
 10
7.176556821802411
 20
5.444372206633312
 30
0.0
 10
7.161490697118604
 20
5.444584485043814
 30
0.0
 10
7.153953352508868
 20
5.445400910693165
 30
0.0
 10
7.152092455996416
 20
5.445668886581567
 30
0.0
  0
SPLINE
  5
A0
330
1F
100
AcDbEntity
  8
Default
 62
     7
100
AcDbSpline
210
0.0
220
0.0
230
1.0
 70
    24
 71
     2
 72
     6
 73
     3
 74
     0
 42
0.0000000001
 43
0.0000000001
 40
-4.615927679821981
 40
-4.615927679821981
 40
-4.615927679821981
 40
0.0
 40
0.0
 40
0.0
 10
7.152092455996416
 20
5.445668886581567
 30
0.0
 10
4.865979906611102
 20
5.76250717890348
 30
0.0
 10
2.579867357225787
 20
6.079345471225394
 30
0.0
  0
SPLINE
  5
A1
330
1F
100
AcDbEntity
  8
Default
 62
     7
100
AcDbSpline
210
0.0
220
0.0
230
1.0
 70
    12
 71
     3
 72
    13
 73
     9
 74
     0
 42
0.0000000001
 43
0.0000000001
 40
-0.7543939698120052
 40
-0.7543939698120052
 40
-0.7543939698120052
 40
-0.7543939698120052
 40
-0.6769818637329347
 40
-0.5995658066113079
 40
-0.5221495713232563
 40
-0.3750585212998606
 40
-0.2589339748734931
 40
-0.0000001198416415
 40
-0.0000001198416415
 40
-0.0000001198416415
 40
-0.0000001198416415
 10
2.579867357225787
 20
6.079345471225394
 30
0.0
 41
1.0
 10
2.568273395139992
 20
6.080952308626945
 30
0.0
 41
1.0
 10
2.529390193639186
 20
6.085948996341353
 30
0.0
 41
1.0
 10
2.481693908216059
 20
6.090644548472911
 30
0.0
 41
1.0
 10
2.410893404403318
 20
6.09627712366636
 30
0.0
 41
1.0
 10
2.318612040001966
 20
6.101657733094916
 30
0.0
 41
1.0
 10
2.160717339359522
 20
6.107668512004136
 30
0.0
 41
1.0
 10
2.035754483914301
 20
6.109544368122231
 30
0.0
 41
1.0
 10
1.949443296171711
 20
6.109530730312285
 30
0.0
 41
1.0
  0
SPLINE
  5
A2
330
1F
100
AcDbEntity
  8
Default
 62
     7
100
AcDbSpline
210
0.0
220
0.0
230
1.0
 70
    24
 71
     2
 72
     6
 73
     3
 74
     0
 42
0.0000000001
 43
0.0000000001
 40
0.0
 40
0.0
 40
0.0
 40
3.898886472501999
 40
3.898886472501999
 40
3.898886472501999
 10
1.949443296171711
 20
6.109530730312285
 30
0.0
 10
0.0
 20
6.109530730312285
 30
0.0
 10
-1.949443296171711
 20
6.109530730312285
 30
0.0
  0
SPLINE
  5
A3
330
1F
100
AcDbEntity
  8
Default
 62
     7
100
AcDbSpline
210
0.0
220
0.0
230
1.0
 70
    12
 71
     3
 72
    13
 73
     9
 74
     0
 42
0.0000000001
 43
0.0000000001
 40
0.0000001198416415
 40
0.0000001198416415
 40
0.0000001198416415
 40
0.0000001198416415
 40
0.2589339748734931
 40
0.3750585212998606
 40
0.5221495713232563
 40
0.5995658066113079
 40
0.6769818637329347
 40
0.7543939698120052
 40
0.7543939698120052
 40
0.7543939698120052
 40
0.7543939698120052
 10
-1.949443296171711
 20
6.109530730312285
 30
0.0
 41
1.0
 10
-2.035754483914301
 20
6.109544368122231
 30
0.0
 41
1.0
 10
-2.160717339359522
 20
6.107668512004136
 30
0.0
 41
1.0
 10
-2.318612040001966
 20
6.101657733094916
 30
0.0
 41
1.0
 10
-2.410893404403318
 20
6.09627712366636
 30
0.0
 41
1.0
 10
-2.481693908216059
 20
6.090644548472911
 30
0.0
 41
1.0
 10
-2.529390193639186
 20
6.085948996341353
 30
0.0
 41
1.0
 10
-2.568273395139992
 20
6.080952308626945
 30
0.0
 41
1.0
 10
-2.579867357225787
 20
6.079345471225394
 30
0.0
 41
1.0
  0
SPLINE
  5
A4
330
1F
100
AcDbEntity
  8
Default
 62
     7
100
AcDbSpline
210
0.0
220
0.0
230
1.0
 70
    24
 71
     2
 72
     6
 73
     3
 74
     0
 42
0.0000000001
 43
0.0000000001
 40
0.0
 40
0.0
 40
0.0
 40
4.615927679821981
 40
4.615927679821981
 40
4.615927679821981
 10
-2.579867357225787
 20
6.079345471225394
 30
0.0
 10
-4.865979906611102
 20
5.76250717890348
 30
0.0
 10
-7.152092455996416
 20
5.445668886581567
 30
0.0
  0
SPLINE
  5
A5
330
1F
100
AcDbEntity
  8
Default
 62
     7
100
AcDbSpline
210
0.0
220
0.0
230
1.0
 70
     8
 71
     3
 72
    16
 73
    12
 74
     0
 42
0.0000000001
 43
0.0000000001
 40
0.0
 40
0.0
 40
0.0
 40
0.0
 40
0.0056255571045015
 40
0.0227867697898846
 40
0.0449526342919539
 40
0.0937138633794278
 40
0.1460012324018074
 40
0.2761585967958678
 40
0.4143802457717665
 40
0.4737601747767965
 40
0.5317134732598473
 40
0.5317134732598473
 40
0.5317134732598473
 40
0.5317134732598473
 10
-7.152092455996416
 20
5.445668886581567
 30
0.0
 10
-7.153953352508868
 20
5.445400910693165
 30
0.0
 10
-7.161490697118604
 20
5.444584485043814
 30
0.0
 10
-7.176556821802411
 20
5.444372206633312
 30
0.0
 10
-7.205547300322233
 20
5.450176734097294
 30
0.0
 10
-7.241203149094106
 20
5.472974593096893
 30
0.0
 10
-7.280412915195073
 20
5.541809383937688
 30
0.0
 10
-7.280709917504495
 20
5.652509576024994
 30
0.0
 10
-7.232963792000941
 20
5.753580682119884
 30
0.0
 10
-7.169100129978639
 20
5.811940896953835
 30
0.0
 10
-7.132265071019432
 20
5.826864902367445
 30
0.0
 10
-7.113062182296412
 20
5.829663229668263
 30
0.0
  0
SPLINE
  5
A6
330
1F
100
AcDbEntity
  8
Default
 62
     7
100
AcDbSpline
210
0.0
220
0.0
230
1.0
 70
    24
 71
     2
 72
     6
 73
     3
 74
     0
 42
0.0000000001
 43
0.0000000001
 40
0.0
 40
0.0
 40
0.0
 40
3.382734120784239
 40
3.382734120784239
 40
3.382734120784239
 10
-7.113062182296412
 20
5.829663229668263
 30
0.0
 10
-5.437707769066978
 20
6.061854664036042
 30
0.0
 10
-3.762353355837543
 20
6.294046098403821
 30
0.0
  0
SPLINE
  5
A7
330
1F
100
AcDbEntity
  8
Default
 62
     7
100
AcDbSpline
210
0.0
220
0.0
230
1.0
 70
    12
 71
     2
 72
     6
 73
     3
 74
     0
 42
0.0000000001
 43
0.0000000001
 40
0.0
 40
0.0
 40
0.0
 40
1.720725275424681
 40
1.720725275424681
 40
1.720725275424681
 10
-6.508375064061298
 20
10.56093588654858
 30
0.0
 41
1.0
 10
-6.611738684763091
 20
9.706804848037615
 30
0.0
 41
0.9999999993305316
 10
-6.715039797345407
 20
8.85266624735793
 30
0.0
 41
1.0
  0
SPLINE
  5
A8
330
1F
100
AcDbEntity
  8
Default
 62
     7
100
AcDbSpline
210
0.0
220
0.0
230
1.0
 70
    12
 71
     2
 72
     8
 73
     5
 74
     0
 42
0.0000000001
 43
0.0000000001
 40
0.0
 40
0.0
 40
0.0
 40
0.1686936536810236
 40
0.1686936536810236
 40
0.3373873073620471
 40
0.3373873073620471
 40
0.3373873073620471
 10
-6.715039797345407
 20
8.85266624735793
 30
0.0
 41
1.0
 10
-6.725436217252451
 20
8.763564938462876
 30
0.0
 41
0.9127533725708099
 10
-6.798809083329759
 20
8.711955333568572
 30
0.0
 41
1.0
 10
-6.872181949407071
 20
8.660345728674267
 30
0.0
 41
0.9127533725708099
 10
-6.95955303017103
 20
8.680678535659105
 30
0.0
 41
1.0
  0
POLYLINE
  5
A9
330
1F
100
AcDbEntity
  8
Default
 62
     7
100
AcDb2dPolyline
 66
     1
 10
0.0
 20
0.0
 30
0.0
  0
VERTEX
  5
AA
330
A9
100
AcDbEntity
  8
Default
 62
     7
100
AcDbVertex
100
AcDb2dVertex
 10
-6.95955303017103
 20
8.680678535659105
 30
0.0
  0
VERTEX
  5
AB
330
A9
100
AcDbEntity
  8
Default
 62
     7
100
AcDbVertex
100
AcDb2dVertex
 10
-7.513761283716094
 20
8.773245569275813
 30
0.0
  0
SEQEND
  5
AC
330
A9
100
AcDbEntity
  8
Default
 62
     7
  0
SPLINE
  5
AD
330
1F
100
AcDbEntity
  8
Default
 62
     7
100
AcDbSpline
210
0.0
220
0.0
230
1.0
 70
    24
 71
     2
 72
     6
 73
     3
 74
     0
 42
0.0000000001
 43
0.0000000001
 40
0.0
 40
0.0
 40
0.0
 40
5.378098324590294
 40
5.378098324590294
 40
5.378098324590294
 10
-7.668290160914339
 20
0.160532504103851
 30
0.0
 10
-7.27910203287002
 20
2.821268868013209
 30
0.0
 10
-6.889913904825701
 20
5.482005231922567
 30
0.0
  0
SPLINE
  5
AE
330
1F
100
AcDbEntity
  8
Default
 62
     7
100
AcDbSpline
210
0.0
220
0.0
230
1.0
 70
    12
 71
     2
 72
     6
 73
     3
 74
     0
 42
0.0000000001
 43
0.0000000001
 40
0.0
 40
0.0
 40
0.0
 40
0.2644307437332061
 40
0.2644307437332061
 40
0.2644307437332061
 10
-7.668802813663103
 20
0.1572609176171415
 30
0.0
 41
1.0
 10
-7.694865714224288
 20
0.0000005116256476
 30
0.0
 41
0.7627266262332794
 10
-7.854271203709466
 20
0.0000000000000479
 30
0.0
 41
1.0
  0
SPLINE
  5
AF
330
1F
100
AcDbEntity
  8
Default
 62
     7
100
AcDbSpline
210
0.0
220
0.0
230
1.0
 70
    28
 71
     3
 72
    56
 73
    52
 74
     0
 42
0.0000000001
 43
0.0000000001
 40
-0.7941709130233701
 40
-0.7941709130233701
 40
-0.7941709130233701
 40
-0.7941709130233701
 40
-0.7792062077322752
 40
-0.7792062077322752
 40
-0.7792062077322752
 40
-0.7399213807148968
 40
-0.7399213807148968
 40
-0.7399213807148968
 40
-0.6871827573092553
 40
-0.6871827573092553
 40
-0.6871827573092553
 40
-0.6226153252072919
 40
-0.6226153252072919
 40
-0.6226153252072919
 40
-0.5421508855137471
 40
-0.5421508855137471
 40
-0.5421508855137471
 40
-0.4491870320486626
 40
-0.4491870320486626
 40
-0.4491870320486626
 40
-0.378613814128503
 40
-0.378613814128503
 40
-0.378613814128503
 40
-0.2985375898268715
 40
-0.2985375898268715
 40
-0.2985375898268715
 40
-0.2424045216901094
 40
-0.2424045216901094
 40
-0.2424045216901094
 40
-0.1852825676712504
 40
-0.1852825676712504
 40
-0.1852825676712504
 40
-0.1385290136996318
 40
-0.1385290136996318
 40
-0.1385290136996318
 40
-0.1002351571760967
 40
-0.1002351571760967
 40
-0.1002351571760967
 40
-0.0685712646764829
 40
-0.0685712646764829
 40
-0.0685712646764829
 40
-0.042614354238971
 40
-0.042614354238971
 40
-0.042614354238971
 40
-0.0214030772571645
 40
-0.0214030772571645
 40
-0.0214030772571645
 40
-0.0059871827300677
 40
-0.0059871827300677
 40
-0.0059871827300677
 40
0.0
 40
0.0
 40
0.0
 40
0.0
 10
-7.854271203709466
 20
0.0000000000000479
 30
0.0
 41
1.0
 10
-7.859259438806497
 20
-0.0000000000004421
 30
0.0
 41
1.0
 10
-7.86424767390353
 20
-0.000000000000221
 30
0.0
 41
1.0
 10
-7.869235909000561
 20
0.0000000000000591
 30
0.0
 41
1.0
 10
-7.882330851339687
 20
0.0000000000000394
 30
0.0
 41
0.9999999999999998
 10
-7.895425793678812
 20
0.0000000000000197
 30
0.0
 41
1.0
 10
-7.908520736017939
 20
-0.0000000000003405
 30
0.0
 41
1.0
 10
-7.926100277153155
 20
-0.000000000000227
 30
0.0
 41
1.0
 10
-7.943679818288365
 20
-0.0000000000001135
 30
0.0
 41
1.0
 10
-7.961259359423581
 20
-0.0000000000001528
 30
0.0
 41
1.0
 10
-7.982781836790905
 20
-0.0000000000001018
 30
0.0
 41
0.9999999999999998
 10
-8.004304314158222
 20
-0.0000000000000509
 30
0.0
 41
1.0
 10
-8.025826791525544
 20
0.0000000000002051
 30
0.0
 41
1.0
 10
-8.05264827142339
 20
0.0000000000001367
 30
0.0
 41
1.0
 10
-8.079469751321245
 20
0.0000000000000684
 30
0.0
 41
0.9999999999999998
 10
-8.106291231219089
 20
-0.0000000000000127
 30
0.0
 41
1.0
 10
-8.137279182374117
 20
-0.0000000000000085
 30
0.0
 41
1.0
 10
-8.168267133529145
 20
-0.0000000000000042
 30
0.0
 41
1.0
 10
-8.199255084684173
 20
0.0000000000005569
 30
0.0
 41
1.0
 10
-8.229104199112154
 20
0.0000000000005657
 30
0.0
 41
1.0
 10
-8.25929443811577
 20
0.0000000000006102
 30
0.0
 41
1.0
 10
-8.289401227041889
 20
0.0000000000000139
 30
0.0
 41
1.0
 10
-8.316093301809097
 20
0.0000000000000093
 30
0.0
 41
1.0
 10
-8.342785376576312
 20
0.0000000000000046
 30
0.0
 41
0.9999999999999998
 10
-8.369477451343519
 20
0.0000000000005391
 30
0.0
 41
1.0
 10
-8.39292497242593
 20
0.0000000000005539
 30
0.0
 41
1.0
 10
-8.41598105062099
 20
0.000000000000628
 30
0.0
 41
1.0
 10
-8.438195167457256
 20
0.000000000000252
 30
0.0
 41
1.0
 10
-8.457235818796871
 20
0.000000000000168
 30
0.0
 41
0.9999999999999999
 10
-8.476276470136497
 20
0.0000000000001265
 30
0.0
 41
1.0
 10
-8.495317121476113
 20
0.0000000000001275
 30
0.0
 41
1.0
 10
-8.510901639466654
 20
0.000000000000085
 30
0.0
 41
1.0
 10
-8.526486157457192
 20
-0.0000000000000548
 30
0.0
 41
1.0
 10
-8.542070675447732
 20
-0.0000000000002919
 30
0.0
 41
1.0
 10
-8.554835294288912
 20
-0.0000000000001946
 30
0.0
 41
1.0
 10
-8.567599913130087
 20
-0.000000000000135
 30
0.0
 41
0.9999999999999999
 10
-8.580364531971266
 20
-0.0000000000001133
 30
0.0
 41
1.0
 10
-8.590919162804475
 20
-0.0000000000000755
 30
0.0
 41
1.0
 10
-8.601473793637673
 20
-0.0000000000000992
 30
0.0
 41
0.9999999999999999
 10
-8.612028424470882
 20
-0.0000000000001845
 30
0.0
 41
1.0
 10
-8.620680727950052
 20
-0.000000000000123
 30
0.0
 41
1.0
 10
-8.629333031429221
 20
0.0000000000000462
 30
0.0
 41
0.9999999999999996
 10
-8.637985334908393
 20
0.000000000000323
 30
0.0
 41
1.0
 10
-8.645055760568999
 20
0.0000000000002153
 30
0.0
 41
1.0
 10
-8.652126186229594
 20
0.0000000000000868
 30
0.0
 41
0.9999999999999997
 10
-8.659196611890199
 20
-0.0000000000000625
 30
0.0
 41
1.0
 10
-8.664335243399233
 20
-0.0000000000000416
 30
0.0
 41
1.0
 10
-8.669473874908265
 20
0.0000000000001984
 30
0.0
 41
1.0
 10
-8.674612506417297
 20
0.0000000000006577
 30
0.0
 41
1.0
 10
-8.676608233993989
 20
0.0000000000004385
 30
0.0
 41
1.0
 10
-8.678603961570673
 20
0.0000000000002192
 30
0.0
 41
0.9999999999999999
 10
-8.680602760326536
 20
0.0000000000291567
 30
0.0
 41
1.0
  0
SPLINE
  5
B0
330
1F
100
AcDbEntity
  8
Default
 62
     7
100
AcDbSpline
210
0.0
220
0.0
230
1.0
 70
    12
 71
     2
 72
     8
 73
     5
 74
     0
 42
0.0000000001
 43
0.0000000001
 40
0.0
 40
0.0
 40
0.0
 40
0.1558639058194086
 40
0.1558639058194086
 40
0.3117278116388172
 40
0.3117278116388172
 40
0.3117278116388172
 10
-8.680602760326536
 20
0.0000000000291567
 30
0.0
 41
1.0
 10
-8.763331359284106
 20
0.00000243293943
 30
0.0
 41
0.915305615945492
 10
-8.819216346191414
 20
0.0609973605195436
 30
0.0
 41
1.0
 10
-8.875101333098723
 20
0.1219922880996571
 30
0.0
 41
0.915305615945492
 10
-8.867884105830054
 20
0.2044023881037566
 30
0.0
 41
1.0
  0
SPLINE
  5
B1
330
1F
100
AcDbEntity
  8
Default
 62
     7
100
AcDbSpline
210
0.0
220
0.0
230
1.0
 70
    24
 71
     2
 72
     6
 73
     3
 74
     0
 42
0.0000000001
 43
0.0000000001
 40
0.0
 40
0.0
 40
0.0
 40
2.896072152399523
 40
2.896072152399523
 40
2.896072152399523
 10
-8.867884105830054
 20
0.2044023881037566
 30
0.0
 10
-8.71812773327716
 20
1.646293447459416
 30
0.0
 10
-8.568371360724267
 20
3.088184506815074
 30
0.0
  0
SPLINE
  5
B2
330
1F
100
AcDbEntity
  8
Default
 62
     7
100
AcDbSpline
210
0.0
220
0.0
230
1.0
 70
    12
 71
     2
 72
     8
 73
     5
 74
     0
 42
0.0000000001
 43
0.0000000001
 40
-0.3216645839712887
 40
-0.3216645839712887
 40
-0.3216645839712887
 40
-0.1608322919856443
 40
-0.1608322919856443
 40
0.0
 40
0.0
 40
0.0
 10
-10.24207318735413
 20
0.2142726844860628
 30
0.0
 41
1.0
 10
-10.2540514125489
 20
0.1294054740395858
 30
0.0
 41
0.9099021526625077
 10
-10.19784129148826
 20
0.0647035144237292
 30
0.0
 41
1.0
 10
-10.14163117042762
 20
0.0000015548078727
 30
0.0
 41
0.9099021526625077
 10
-10.05591984683787
 20
0.0000000000170268
 30
0.0
 41
1.0
  0
SPLINE
  5
B3
330
1F
100
AcDbEntity
  8
Default
 62
     7
100
AcDbSpline
210
0.0
220
0.0
230
1.0
 70
    28
 71
     3
 72
    53
 73
    49
 74
     0
 42
0.0000000001
 43
0.0000000001
 40
0.0
 40
0.0
 40
0.0
 40
0.0
 40
0.0148098608928402
 40
0.0148098608928402
 40
0.0148098608928402
 40
0.0975524852704743
 40
0.0975524852704743
 40
0.0975524852704743
 40
0.1511295537173383
 40
0.1511295537173383
 40
0.1511295537173383
 40
0.2126255378223156
 40
0.2126255378223156
 40
0.2126255378223156
 40
0.2719016255995045
 40
0.2719016255995045
 40
0.2719016255995045
 40
0.3319365417088692
 40
0.3319365417088692
 40
0.3319365417088692
 40
0.3872212469294763
 40
0.3872212469294763
 40
0.3872212469294763
 40
0.437679795722704
 40
0.437679795722704
 40
0.437679795722704
 40
0.4870780688581499
 40
0.4870780688581499
 40
0.4870780688581499
 40
0.5388048934398172
 40
0.5388048934398172
 40
0.5388048934398172
 40
0.5883640151751541
 40
0.5883640151751541
 40
0.5883640151751541
 40
0.6440331483704205
 40
0.6440331483704205
 40
0.6440331483704205
 40
0.6971929906129948
 40
0.6971929906129948
 40
0.6971929906129948
 40
0.7442053400733288
 40
0.7442053400733288
 40
0.7442053400733288
 40
0.7792876884092268
 40
0.7792876884092268
 40
0.7792876884092268
 40
0.7936814929549494
 40
0.7936814929549494
 40
0.7936814929549494
 40
0.7936814929549494
 10
-10.05591984683787
 20
0.0000000000170268
 30
0.0
 41
1.0
 10
-10.0509802531001
 20
0.0000000000003871
 30
0.0
 41
1.0
 10
-10.04604363280249
 20
0.0000000000007742
 30
0.0
 41
0.9999999999999998
 10
-10.04110701250487
 20
0.0000000000011613
 30
0.0
 41
1.0
 10
-10.0319897387554
 20
0.0000000000005441
 30
0.0
 41
1.0
 10
-10.01879471746802
 20
0.0000000000005355
 30
0.0
 41
1.0
 10
-10.00210322179901
 20
0.000000000000442
 30
0.0
 41
1.0
 10
-9.984244198983394
 20
-0.0000000000001392
 30
0.0
 41
1.0
 10
-9.966385176167773
 20
-0.0000000000002785
 30
0.0
 41
1.0
 10
-9.948526153352152
 20
-0.0000000000004177
 30
0.0
 41
1.0
 10
-9.928027491983825
 20
0.0000000000001109
 30
0.0
 41
0.9999999999999998
 10
-9.9075288306155
 20
0.0000000000002218
 30
0.0
 41
1.0
 10
-9.887030169247174
 20
0.0000000000003327
 30
0.0
 41
1.0
 10
-9.867355778656192
 20
0.0000000000004837
 30
0.0
 41
1.0
 10
-9.846325720193864
 20
0.0000000000003168
 30
0.0
 41
1.0
 10
-9.82447926816939
 20
0.000000000000324
 30
0.0
 41
1.0
 10
-9.804467629466268
 20
0.0000000000000423
 30
0.0
 41
1.0
 10
-9.784455990763147
 20
0.0000000000000847
 30
0.0
 41
0.9999999999999998
 10
-9.764444352060027
 20
0.000000000000127
 30
0.0
 41
1.0
 10
-9.74601611698649
 20
0.0000000000000763
 30
0.0
 41
0.9999999999999999
 10
-9.727587881912953
 20
0.0000000000001526
 30
0.0
 41
1.0
 10
-9.709159646839419
 20
0.000000000000229
 30
0.0
 41
1.0
 10
-9.692340130575012
 20
-0.0000000000001781
 30
0.0
 41
1.0
 10
-9.6755206143106
 20
-0.0000000000003562
 30
0.0
 41
1.0
 10
-9.65870109804619
 20
-0.0000000000005342
 30
0.0
 41
1.0
 10
-9.642235007001045
 20
-0.0000000000000356
 30
0.0
 41
1.0
 10
-9.625768915955893
 20
-0.0000000000000712
 30
0.0
 41
1.0
 10
-9.609302824910745
 20
-0.0000000000001068
 30
0.0
 41
1.0
 10
-9.592060550050192
 20
0.0000000000000923
 30
0.0
 41
1.0
 10
-9.574818275189632
 20
0.0000000000001847
 30
0.0
 41
0.9999999999999998
 10
-9.557576000329078
 20
0.000000000000277
 30
0.0
 41
1.0
 10
-9.538819286941546
 20
0.0000000000003628
 30
0.0
 41
1.0
 10
-9.520507613391471
 20
0.0000000000003485
 30
0.0
 41
1.0
 10
-9.502893849282069
 20
0.0000000000003772
 30
0.0
 41
1.0
 10
-9.484337471550313
 20
0.000000000000044
 30
0.0
 41
0.9999999999999998
 10
-9.46578109381856
 20
0.0000000000000879
 30
0.0
 41
1.0
 10
-9.447224716086803
 20
0.0000000000001319
 30
0.0
 41
1.0
 10
-9.429504768672613
 20
0.0000000000000498
 30
0.0
 41
0.9999999999999999
 10
-9.411784821258419
 20
0.0000000000000995
 30
0.0
 41
1.0
 10
-9.39406487384423
 20
0.0000000000001493
 30
0.0
 41
1.0
 10
-9.378394090690787
 20
-0.0000000000000505
 30
0.0
 41
1.0
 10
-9.362723307537335
 20
-0.0000000000001009
 30
0.0
 41
1.0
 10
-9.347052524383894
 20
-0.0000000000001514
 30
0.0
 41
1.0
 10
-9.335358408271924
 20
0.000000000000075
 30
0.0
 41
1.0
 10
-9.323664292159966
 20
0.0000000000001501
 30
0.0
 41
0.9999999999999998
 10
-9.311970176047996
 20
0.0000000000002251
 30
0.0
 41
1.0
 10
-9.307172241199424
 20
0.000000000000159
 30
0.0
 41
0.9999999999999998
 10
-9.302374306350847
 20
0.0000000000003181
 30
0.0
 41
1.0
 10
-9.297576371502274
 20
0.0000000000004763
 30
0.0
 41
1.0
  0
SPLINE
  5
B4
330
1F
100
AcDbEntity
  8
Default
 62
     7
100
AcDbSpline
210
0.0
220
0.0
230
1.0
 70
    12
 71
     2
 72
     6
 73
     3
 74
     0
 42
0.0000000001
 43
0.0000000001
 40
-0.2610154233653951
 40
-0.2610154233653951
 40
-0.2610154233653951
 40
0.0
 40
0.0
 40
0.0
 10
-9.297576371502274
 20
0.0000000000004763
 30
0.0
 41
1.0
 10
-9.141083664969877
 20
0.00000076777394
 30
0.0
 41
0.768567844314648
 10
-9.112697728689497
 20
0.1538975052959244
 30
0.0
 41
1.0
  0
SPLINE
  5
B5
330
1F
100
AcDbEntity
  8
Default
 62
     7
100
AcDbSpline
210
0.0
220
0.0
230
1.0
 70
    24
 71
     2
 72
     6
 73
     3
 74
     0
 42
0.0000000001
 43
0.0000000001
 40
0.0
 40
0.0
 40
0.0
 40
11.88829327346957
 40
11.88829327346957
 40
11.88829327346957
 10
-9.112697728689497
 20
0.1538975052959244
 30
0.0
 10
-8.02852254638287
 20
5.998334468175742
 30
0.0
 10
-6.944347364076243
 20
11.84277143105556
 30
0.0
  0
SPLINE
  5
B6
330
1F
100
AcDbEntity
  8
Default
 62
     7
100
AcDbSpline
210
0.0
220
0.0
230
1.0
 70
    12
 71
     2
 72
     8
 73
     5
 74
     0
 42
0.0000000001
 43
0.0000000001
 40
0.0
 40
0.0
 40
0.0
 40
1.570796326794897
 40
1.570796326794897
 40
3.141592653589793
 40
3.141592653589793
 40
3.141592653589793
 10
-6.944347364076243
 20
11.84277143105556
 30
0.0
 41
1.0
 10
-6.886641899279059
 20
11.966141557242
 30
0.0
 41
0.7071067811865475
 10
-7.658994824927827
 20
12.32740393039281
 30
0.0
 41
1.0
 10
-8.431347750576595
 20
12.68866630354362
 30
0.0
 41
0.7071067811865475
 10
-8.48905321537378
 20
12.56529617735718
 30
0.0
 41
1.0
  0
SPLINE
  5
B7
330
1F
100
AcDbEntity
  8
Default
 62
     7
100
AcDbSpline
210
0.0
220
0.0
230
1.0
 70
     8
 71
     2
 72
     6
 73
     3
 74
     0
 42
0.0000000001
 43
0.0000000001
 40
-12.47248195548309
 40
-12.47248195548309
 40
-12.47248195548309
 40
0.0
 40
0.0
 40
0.0
 10
-8.48905321537378
 20
12.56529617735718
 30
0.0
 10
-9.36540052653412
 20
6.390936540707821
 30
0.0
 10
-10.24207318735413
 20
0.2142726844860628
 30
0.0
  0
SPLINE
  5
B8
330
1F
100
AcDbEntity
  8
Default
 62
     7
100
AcDbSpline
210
0.0
220
0.0
230
1.0
 70
    12
 71
     3
 72
     8
 73
     4
 74
     0
 42
0.0000000001
 43
0.0000000001
 40
0.0
 40
0.0
 40
0.0
 40
0.0
 40
0.4375
 40
0.4375
 40
0.4375
 40
0.4375
 10
48.28636644077948
 20
9.937021863312093
 30
0.0
 41
1.0
 10
48.26130515257127
 20
9.921874904029572
 30
0.0
 41
1.0
 10
48.25053449897515
 20
9.907056463647763
 30
0.0
 41
1.0
 10
48.25415712040589
 20
9.893226157629593
 30
0.0
 41
1.0
  0
SPLINE
  5
B9
330
1F
100
AcDbEntity
  8
Default
 62
     7
100
AcDbSpline
210
0.0
220
0.0
230
1.0
 70
    12
 71
     2
 72
     6
 73
     3
 74
     0
 42
0.0000000001
 43
0.0000000001
 40
0.0
 40
0.0
 40
0.0
 40
0.0191615067435464
 40
0.0191615067435464
 40
0.0191615067435464
 10
-12.33617729426868
 20
16.22520261497639
 30
0.0
 41
1.0
 10
-12.32837631117233
 20
16.23076486316707
 30
0.0
 41
0.999974614041679
 10
-12.32065538464056
 20
16.23643771392269
 30
0.0
 41
1.0
  0
SPLINE
  5
BA
330
1F
100
AcDbEntity
  8
Default
 62
     7
100
AcDbSpline
210
0.0
220
0.0
230
1.0
 70
    24
 71
     2
 72
     6
 73
     3
 74
     0
 42
0.0000000001
 43
0.0000000001
 40
0.0
 40
0.0
 40
0.0
 40
0.776062967550196
 40
0.776062967550196
 40
0.776062967550196
 10
-6.777492988550699
 20
6.630089241066194
 30
0.0
 10
-6.830818036763615
 20
6.245739307237925
 30
0.0
 10
-6.884143084976532
 20
5.861389373409657
 30
0.0
  0
SPLINE
  5
BB
330
1F
100
AcDbEntity
  8
Default
 62
     7
100
AcDbSpline
210
0.0
220
0.0
230
1.0
 70
    24
 71
     2
 72
     6
 73
     3
 74
     0
 42
0.0000000001
 43
0.0000000001
 40
0.0
 40
0.0
 40
0.0
 40
3.453295818003667
 40
3.453295818003667
 40
3.453295818003667
 10
-6.668567242806644
 20
6.995271105623912
 30
0.0
 10
-6.418668179225591
 20
8.703739267364632
 30
0.0
 10
-6.168769115644537
 20
10.41220742910535
 30
0.0
  0
SPLINE
  5
BC
330
1F
100
AcDbEntity
  8
Default
 62
     7
100
AcDbSpline
210
0.0
220
0.0
230
1.0
 70
    24
 71
     2
 72
     6
 73
     3
 74
     0
 42
0.0000000001
 43
0.0000000001
 40
0.0
 40
0.0
 40
0.0
 40
0.7636187761396052
 40
0.7636187761396052
 40
0.7636187761396052
 10
-6.833392246641049
 20
5.868423060304064
 30
0.0
 10
-6.778132683853094
 20
6.246212405758275
 30
0.0
 10
-6.722873121065138
 20
6.624001751212486
 30
0.0
  0
ENDSEC
  0
SECTION
  2
OBJECTS
  0
DICTIONARY
  5
C
330
0
100
AcDbDictionary
281
     1
  3
ACAD_GROUP
350
D
  3
ACAD_LAYOUT
350
1A
  3
ACAD_MLEADERSTYLE
350
BE
  3
ACAD_MLINESTYLE
350
17
  3
ACAD_PLOTSETTINGS
350
19
  3
ACAD_PLOTSTYLENAME
350
E
  3
ACAD_TABLESTYLE
350
BD
  3
ACAD_VISUALSTYLE
350
2A
  0
DICTIONARY
  5
D
102
{ACAD_REACTORS
330
C
102
}
330
C
100
AcDbDictionary
281
     1
  0
DICTIONARY
  5
1A
102
{ACAD_REACTORS
330
C
102
}
330
C
100
AcDbDictionary
281
     1
  3
Layout1
350
1E
  3
Layout2
350
26
  3
Model
350
22
  0
DICTIONARY
  5
BE
102
{ACAD_REACTORS
330
C
102
}
330
C
100
AcDbDictionary
281
     1
  0
DICTIONARY
  5
17
102
{ACAD_REACTORS
330
C
102
}
330
C
100
AcDbDictionary
281
     1
  3
Standard
350
18
  0
DICTIONARY
  5
19
102
{ACAD_REACTORS
330
C
102
}
330
C
100
AcDbDictionary
281
     1
  0
ACDBDICTIONARYWDFLT
  5
E
102
{ACAD_REACTORS
330
C
102
}
330
C
100
AcDbDictionary
281
     1
  3
Normal
350
F
100
AcDbDictionaryWithDefault
340
F
  0
DICTIONARY
  5
BD
102
{ACAD_REACTORS
330
C
102
}
330
C
100
AcDbDictionary
281
     1
  0
DICTIONARY
  5
2A
102
{ACAD_REACTORS
330
C
102
}
330
C
100
AcDbDictionary
281
     1
  3
2dWireframe
350
2F
  3
3D Hidden
350
31
  3
3dWireframe
350
30
  3
Basic
350
32
  3
Brighten
350
36
  3
ColorChange
350
3A
  3
Conceptual
350
34
  3
Dim
350
35
  3
Facepattern
350
39
  3
Flat
350
2B
  3
FlatWithEdges
350
2C
  3
Gouraud
350
2D
  3
GouraudWithEdges
350
2E
  3
Linepattern
350
38
  3
Realistic
350
33
  3
Thicken
350
37
  0
LAYOUT
  5
1E
102
{ACAD_REACTORS
330
1A
102
}
330
1A
100
AcDbPlotSettings
  1

  2
none_device
  4

  6

 40
0.0
 41
0.0
 42
0.0
 43
0.0
 44
0.0
 45
0.0
 46
0.0
 47
0.0
 48
0.0
 49
0.0
140
0.0
141
0.0
142
1.0
143
1.0
 70
   688
 72
     0
 73
     0
 74
     5
  7

 75
    16
 76
     0
 77
     2
 78
   300
147
1.0
148
0.0
149
0.0
100
AcDbLayout
  1
Layout1
 70
     1
 71
     1
 10
0.0
 20
0.0
 11
12.0
 21
9.0
 12
0.0
 22
0.0
 32
0.0
 14
1.000000000000000E+20
 24
1.000000000000000E+20
 34
1.000000000000000E+20
 15
-1.000000000000000E+20
 25
-1.000000000000000E+20
 35
-1.000000000000000E+20
146
0.0
 13
0.0
 23
0.0
 33
0.0
 16
1.0
 26
0.0
 36
0.0
 17
0.0
 27
1.0
 37
0.0
 76
     0
330
1B
  0
LAYOUT
  5
26
102
{ACAD_REACTORS
330
1A
102
}
330
1A
100
AcDbPlotSettings
  1

  2
none_device
  4

  6

 40
0.0
 41
0.0
 42
0.0
 43
0.0
 44
0.0
 45
0.0
 46
0.0
 47
0.0
 48
0.0
 49
0.0
140
0.0
141
0.0
142
1.0
143
1.0
 70
   688
 72
     0
 73
     0
 74
     5
  7

 75
    16
 76
     0
 77
     2
 78
   300
147
1.0
148
0.0
149
0.0
100
AcDbLayout
  1
Layout2
 70
     1
 71
     2
 10
0.0
 20
0.0
 11
0.0
 21
0.0
 12
0.0
 22
0.0
 32
0.0
 14
0.0
 24
0.0
 34
0.0
 15
0.0
 25
0.0
 35
0.0
146
0.0
 13
0.0
 23
0.0
 33
0.0
 16
1.0
 26
0.0
 36
0.0
 17
0.0
 27
1.0
 37
0.0
 76
     0
330
23
  0
LAYOUT
  5
22
102
{ACAD_REACTORS
330
1A
102
}
330
1A
100
AcDbPlotSettings
  1

  2
none_device
  4

  6

 40
0.0
 41
0.0
 42
0.0
 43
0.0
 44
0.0
 45
0.0
 46
0.0
 47
0.0
 48
0.0
 49
0.0
140
0.0
141
0.0
142
1.0
143
1.0
 70
  1712
 72
     0
 73
     0
 74
     0
  7

 75
     0
 76
     0
 77
     2
 78
   300
147
1.0
148
0.0
149
0.0
100
AcDbLayout
  1
Model
 70
     1
 71
     0
 10
0.0
 20
0.0
 11
12.0
 21
9.0
 12
0.0
 22
0.0
 32
0.0
 14
-13.75517190357537
 24
-0.0000000000005342
 34
0.0
 15
55.42714031991729
 25
76.79576976300211
 35
0.0
146
0.0
 13
0.0
 23
0.0
 33
0.0
 16
1.0
 26
0.0
 36
0.0
 17
0.0
 27
1.0
 37
0.0
 76
     0
330
1F
331
29
  0
MLINESTYLE
  5
18
102
{ACAD_REACTORS
330
17
102
}
330
17
100
AcDbMlineStyle
  2
Standard
 70
     0
  3

 62
   256
 51
90.0
 52
90.0
 71
     2
 49
0.5
 62
   256
  6
BYLAYER
 49
-0.5
 62
   256
  6
BYLAYER
  0
ACDBPLACEHOLDER
  5
F
102
{ACAD_REACTORS
330
E
102
}
330
E
  0
VISUALSTYLE
  5
2F
102
{ACAD_REACTORS
330
2A
102
}
330
2A
100
AcDbVisualStyle
  2
2dWireframe
 70
     4
 71
     0
 72
     2
 73
     0
 90
        0
 40
-0.6
 41
-30.0
 62
     5
 63
     7
421
 16777215
 74
     1
 91
        4
 64
     7
 65
   257
 75
     1
175
     1
 42
1.0
 92
        0
 66
   257
 43
1.0
 76
     1
 77
     6
 78
     2
 67
     7
 79
     5
170
     0
171
     0
290
     0
174
     0
 93
        1
 44
0.0
173
     0
291
     0
 45
0.0
1001
ACAD
1000
AcDbSavedByObjectVersion
1070
     0
  0
VISUALSTYLE
  5
31
102
{ACAD_REACTORS
330
2A
102
}
330
2A
100
AcDbVisualStyle
  2
3D Hidden
 70
     6
 71
     1
 72
     2
 73
     2
 90
        0
 40
-0.6
 41
-30.0
 62
     5
 63
     7
421
 16777215
 74
     2
 91
        2
 64
     7
 65
   257
 75
     2
175
     1
 42
40.0
 92
        0
 66
   257
 43
1.0
 76
     1
 77
     6
 78
     2
 67
     7
 79
     3
170
     0
171
     0
290
     0
174
     0
 93
        1
 44
0.0
173
     0
291
     0
 45
0.0
1001
ACAD
1000
AcDbSavedByObjectVersion
1070
     0
  0
VISUALSTYLE
  5
30
102
{ACAD_REACTORS
330
2A
102
}
330
2A
100
AcDbVisualStyle
  2
3dWireframe
 70
     5
 71
     0
 72
     2
 73
     0
 90
        0
 40
-0.6
 41
-30.0
 62
     5
 63
     7
421
 16777215
 74
     1
 91
        4
 64
     7
 65
   257
 75
     1
175
     1
 42
1.0
 92
        0
 66
   257
 43
1.0
 76
     1
 77
     6
 78
     2
 67
     7
 79
     5
170
     0
171
     0
290
     0
174
     0
 93
        1
 44
0.0
173
     0
291
     0
 45
0.0
1001
ACAD
1000
AcDbSavedByObjectVersion
1070
     0
  0
VISUALSTYLE
  5
32
102
{ACAD_REACTORS
330
2A
102
}
330
2A
100
AcDbVisualStyle
  2
Basic
 70
     7
 71
     1
 72
     0
 73
     1
 90
        0
 40
-0.6
 41
-30.0
 62
     5
 63
     7
421
 16777215
 74
     0
 91
        4
 64
     7
 65
   257
 75
     1
175
     1
 42
1.0
 92
        8
 66
     7
 43
1.0
 76
     1
 77
     6
 78
     2
 67
     7
 79
     5
170
     0
171
     0
290
     0
174
     0
 93
        1
 44
0.0
173
     0
291
     1
 45
0.0
1001
ACAD
1000
AcDbSavedByObjectVersion
1070
     0
  0
VISUALSTYLE
  5
36
102
{ACAD_REACTORS
330
2A
102
}
330
2A
100
AcDbVisualStyle
  2
Brighten
 70
    12
 71
     2
 72
     2
 73
     0
 90
        0
 40
-0.6
 41
-30.0
 62
     5
 63
     7
421
 16777215
 74
     1
 91
        4
 64
     7
 65
   257
 75
     1
175
     1
 42
1.0
 92
        8
 66
     7
 43
1.0
 76
     1
 77
     6
 78
     2
 67
     7
 79
     5
170
     0
171
     0
290
     0
174
     0
 93
        1
 44
50.0
173
     0
291
     1
 45
0.0
1001
ACAD
1000
AcDbSavedByObjectVersion
1070
     0
  0
VISUALSTYLE
  5
3A
102
{ACAD_REACTORS
330
2A
102
}
330
2A
100
AcDbVisualStyle
  2
ColorChange
 70
    16
 71
     2
 72
     2
 73
     3
 90
        0
 40
-0.6
 41
-30.0
 62
     5
 63
     8
421
  8421504
 74
     1
 91
        4
 64
     7
 65
   257
 75
     1
175
     1
 42
1.0
 92
        8
 66
     8
424
  8421504
 43
1.0
 76
     1
 77
     6
 78
     2
 67
     7
 79
     5
170
     0
171
     0
290
     0
174
     0
 93
        1
 44
0.0
173
     0
291
     1
 45
0.0
1001
ACAD
1000
AcDbSavedByObjectVersion
1070
     0
  0
VISUALSTYLE
  5
34
102
{ACAD_REACTORS
330
2A
102
}
330
2A
100
AcDbVisualStyle
  2
Conceptual
 70
     9
 71
     3
 72
     2
 73
     0
 90
        0
 40
-0.6
 41
-30.0
 62
     5
 63
     7
421
 16777215
 74
     2
 91
        2
 64
     7
 65
   257
 75
     1
175
     1
 42
40.0
 92
        8
 66
     7
 43
1.0
 76
     1
 77
     6
 78
     2
 67
     7
 79
     3
170
     0
171
     0
290
     0
174
     0
 93
        1
 44
0.0
173
     0
291
     0
 45
0.0
1001
ACAD
1000
AcDbSavedByObjectVersion
1070
     0
  0
VISUALSTYLE
  5
35
102
{ACAD_REACTORS
330
2A
102
}
330
2A
100
AcDbVisualStyle
  2
Dim
 70
    11
 71
     2
 72
     2
 73
     0
 90
        0
 40
-0.6
 41
-30.0
 62
     5
 63
     7
421
 16777215
 74
     1
 91
        4
 64
     7
 65
   257
 75
     1
175
     1
 42
1.0
 92
        8
 66
     7
 43
1.0
 76
     1
 77
     6
 78
     2
 67
     7
 79
     5
170
     0
171
     0
290
     0
174
     0
 93
        1
 44
-50.0
173
     0
291
     1
 45
0.0
1001
ACAD
1000
AcDbSavedByObjectVersion
1070
     0
  0
VISUALSTYLE
  5
39
102
{ACAD_REACTORS
330
2A
102
}
330
2A
100
AcDbVisualStyle
  2
Facepattern
 70
    15
 71
     2
 72
     2
 73
     0
 90
        0
 40
-0.6
 41
-30.0
 62
     5
 63
     7
421
 16777215
 74
     1
 91
        4
 64
     7
 65
   257
 75
     1
175
     1
 42
1.0
 92
        8
 66
     7
 43
1.0
 76
     1
 77
     6
 78
     2
 67
     7
 79
     5
170
     0
171
     0
290
     0
174
     0
 93
        1
 44
0.0
173
     0
291
     1
 45
0.0
1001
ACAD
1000
AcDbSavedByObjectVersion
1070
     0
  0
VISUALSTYLE
  5
2B
102
{ACAD_REACTORS
330
2A
102
}
330
2A
100
AcDbVisualStyle
  2
Flat
 70
     0
 71
     2
 72
     1
 73
     1
 90
        2
 40
-0.6
 41
30.0
 62
     5
 63
     7
421
 16777215
 74
     0
 91
        4
 64
     7
 65
   257
 75
     1
175
     1
 42
1.0
 92
        8
 66
     7
 43
1.0
 76
     1
 77
     6
 78
     2
 67
     7
 79
     5
170
     0
171
     0
290
     0
174
     0
 93
       13
 44
0.0
173
     0
291
     1
 45
0.0
1001
ACAD
1000
AcDbSavedByObjectVersion
1070
     0
  0
VISUALSTYLE
  5
2C
102
{ACAD_REACTORS
330
2A
102
}
330
2A
100
AcDbVisualStyle
  2
FlatWithEdges
 70
     1
 71
     2
 72
     1
 73
     1
 90
        2
 40
-0.6
 41
30.0
 62
     5
 63
     7
421
 16777215
 74
     1
 91
        4
 64
     7
 65
   257
 75
     1
175
     1
 42
1.0
 92
        0
 66
   257
 43
1.0
 76
     1
 77
     6
 78
     2
 67
     7
 79
     5
170
     0
171
     0
290
     0
174
     0
 93
       13
 44
0.0
173
     0
291
     1
 45
0.0
1001
ACAD
1000
AcDbSavedByObjectVersion
1070
     0
  0
VISUALSTYLE
  5
2D
102
{ACAD_REACTORS
330
2A
102
}
330
2A
100
AcDbVisualStyle
  2
Gouraud
 70
     2
 71
     2
 72
     2
 73
     1
 90
        2
 40
-0.6
 41
30.0
 62
     5
 63
     7
421
 16777215
 74
     0
 91
        4
 64
     7
 65
   257
 75
     1
175
     1
 42
1.0
 92
        0
 66
     7
 43
1.0
 76
     1
 77
     6
 78
     2
 67
     7
 79
     5
170
     0
171
     0
290
     0
174
     0
 93
       13
 44
0.0
173
     0
291
     1
 45
0.0
1001
ACAD
1000
AcDbSavedByObjectVersion
1070
     0
  0
VISUALSTYLE
  5
2E
102
{ACAD_REACTORS
330
2A
102
}
330
2A
100
AcDbVisualStyle
  2
GouraudWithEdges
 70
     3
 71
     2
 72
     2
 73
     1
 90
        2
 40
-0.6
 41
30.0
 62
     5
 63
     7
421
 16777215
 74
     1
 91
        4
 64
     7
 65
   257
 75
     1
175
     1
 42
1.0
 92
        0
 66
   257
 43
1.0
 76
     1
 77
     6
 78
     2
 67
     7
 79
     5
170
     0
171
     0
290
     0
174
     0
 93
       13
 44
0.0
173
     0
291
     1
 45
0.0
1001
ACAD
1000
AcDbSavedByObjectVersion
1070
     0
  0
VISUALSTYLE
  5
38
102
{ACAD_REACTORS
330
2A
102
}
330
2A
100
AcDbVisualStyle
  2
Linepattern
 70
    14
 71
     2
 72
     2
 73
     0
 90
        0
 40
-0.6
 41
-30.0
 62
     5
 63
     7
421
 16777215
 74
     1
 91
        4
 64
     7
 65
   257
 75
     7
175
     7
 42
1.0
 92
        8
 66
     7
 43
1.0
 76
     1
 77
     6
 78
     2
 67
     7
 79
     5
170
     0
171
     0
290
     0
174
     0
 93
        1
 44
0.0
173
     0
291
     1
 45
0.0
1001
ACAD
1000
AcDbSavedByObjectVersion
1070
     0
  0
VISUALSTYLE
  5
33
102
{ACAD_REACTORS
330
2A
102
}
330
2A
100
AcDbVisualStyle
  2
Realistic
 70
     8
 71
     2
 72
     2
 73
     0
 90
        0
 40
-0.6
 41
-30.0
 62
     5
 63
     7
421
 16777215
 74
     1
 91
        0
 64
     7
 65
   257
 75
     1
175
     1
 42
1.0
 92
        8
 66
     8
424
  7895160
 43
1.0
 76
     1
 77
     6
 78
     2
 67
     7
 79
     5
170
     0
171
     0
290
     0
174
     0
 93
       13
 44
0.0
173
     0
291
     0
 45
0.0
1001
ACAD
1000
AcDbSavedByObjectVersion
1070
     0
  0
VISUALSTYLE
  5
37
102
{ACAD_REACTORS
330
2A
102
}
330
2A
100
AcDbVisualStyle
  2
Thicken
 70
    13
 71
     2
 72
     2
 73
     0
 90
        0
 40
-0.6
 41
-30.0
 62
     5
 63
     7
421
 16777215
 74
     1
 91
        4
 64
     7
 65
   257
 75
     1
175
     1
 42
1.0
 92
       12
 66
     7
 43
1.0
 76
     1
 77
     6
 78
     2
 67
     7
 79
     5
170
     0
171
     0
290
     0
174
     0
 93
        1
 44
0.0
173
     0
291
     1
 45
0.0
1001
ACAD
1000
AcDbSavedByObjectVersion
1070
     0
  0
ENDSEC
  0
EOF
