  0
SECTION
  2
HEADER
  9
$ACADVER
  1
AC1018
  9
$ACADMAINTVER
 70
     0
  9
$DWGCODEPAGE
  3
ANSI_1252
  9
$INSBASE
 10
0.0
 20
0.0
 30
0.0
  9
$EXTMIN
 10
-14.64935312113161
 20
0.0000000000000009
 30
0.0
  9
$EXTMAX
 10
55.3980046449974
 20
76.79576976300211
 30
0.0
  9
$LIMMIN
 10
0.0
 20
0.0
  9
$LIMMAX
 10
12.0
 20
9.0
  9
$ORTHOMODE
 70
     0
  9
$REGENMODE
 70
     1
  9
$FILLMODE
 70
     1
  9
$QTEXTMODE
 70
     0
  9
$MIRRTEXT
 70
     1
  9
$LTSCALE
 40
0.0393700787401575
  9
$ATTMODE
 70
     1
  9
$TEXTSIZE
 40
0.2
  9
$TRACEWID
 40
0.05
  9
$TEXTSTYLE
  7
Standard
  9
$CLAYER
  8
0
  9
$CELTYPE
  6
ByLayer
  9
$CECOLOR
 62
   256
  9
$CELTSCALE
 40
1.0
  9
$DISPSILH
 70
     0
  9
$DIMSCALE
 40
1.0
  9
$DIMASZ
 40
0.18
  9
$DIMEXO
 40
0.0625
  9
$DIMDLI
 40
0.38
  9
$DIMRND
 40
0.0
  9
$DIMDLE
 40
0.0
  9
$DIMEXE
 40
0.18
  9
$DIMTP
 40
0.0
  9
$DIMTM
 40
0.0
  9
$DIMTXT
 40
0.18
  9
$DIMCEN
 40
0.09
  9
$DIMTSZ
 40
0.0
  9
$DIMTOL
 70
     0
  9
$DIMLIM
 70
     0
  9
$DIMTIH
 70
     1
  9
$DIMTOH
 70
     1
  9
$DIMSE1
 70
     0
  9
$DIMSE2
 70
     0
  9
$DIMTAD
 70
     0
  9
$DIMZIN
 70
     0
  9
$DIMBLK
  1

  9
$DIMASO
 70
     1
  9
$DIMSHO
 70
     1
  9
$DIMPOST
  1

  9
$DIMAPOST
  1

  9
$DIMALT
 70
     0
  9
$DIMALTD
 70
     2
  9
$DIMALTF
 40
25.4
  9
$DIMLFAC
 40
1.0
  9
$DIMTOFL
 70
     0
  9
$DIMTVP
 40
0.0
  9
$DIMTIX
 70
     0
  9
$DIMSOXD
 70
     0
  9
$DIMSAH
 70
     0
  9
$DIMBLK1
  1

  9
$DIMBLK2
  1

  9
$DIMSTYLE
  2
Standard
  9
$DIMCLRD
 70
     0
  9
$DIMCLRE
 70
     0
  9
$DIMCLRT
 70
     0
  9
$DIMTFAC
 40
1.0
  9
$DIMGAP
 40
0.09
  9
$DIMJUST
 70
     0
  9
$DIMSD1
 70
     0
  9
$DIMSD2
 70
     0
  9
$DIMTOLJ
 70
     1
  9
$DIMTZIN
 70
     0
  9
$DIMALTZ
 70
     0
  9
$DIMALTTZ
 70
     0
  9
$DIMUPT
 70
     0
  9
$DIMDEC
 70
     4
  9
$DIMTDEC
 70
     4
  9
$DIMALTU
 70
     2
  9
$DIMALTTD
 70
     2
  9
$DIMTXSTY
  7
Standard
  9
$DIMAUNIT
 70
     0
  9
$DIMADEC
 70
     0
  9
$DIMALTRND
 40
0.0
  9
$DIMAZIN
 70
     0
  9
$DIMDSEP
 70
    46
  9
$DIMATFIT
 70
     3
  9
$DIMFRAC
 70
     0
  9
$DIMLDRBLK
  1

  9
$DIMLUNIT
 70
     2
  9
$DIMLWD
 70
    -2
  9
$DIMLWE
 70
    -2
  9
$DIMTMOVE
 70
     2
  9
$LUNITS
 70
     2
  9
$LUPREC
 70
     3
  9
$SKETCHINC
 40
0.1
  9
$FILLETRAD
 40
0.5
  9
$AUNITS
 70
     0
  9
$AUPREC
 70
     0
  9
$MENU
  1
.
  9
$ELEVATION
 40
0.0
  9
$PELEVATION
 40
0.0
  9
$THICKNESS
 40
0.0
  9
$LIMCHECK
 70
     0
  9
$CHAMFERA
 40
0.5
  9
$CHAMFERB
 40
0.5
  9
$CHAMFERC
 40
1.0
  9
$CHAMFERD
 40
0.0
  9
$SKPOLY
 70
     0
  9
$TDCREATE
 40
2457848.543577905
  9
$TDUCREATE
 40
2457848.710244572
  9
$TDUPDATE
 40
2457848.543577916
  9
$TDUUPDATE
 40
2457848.710244583
  9
$TDINDWG
 40
0.0000000116
  9
$TDUSRTIMER
 40
0.0000000116
  9
$USRTIMER
 70
     1
  9
$ANGBASE
 50
0.0
  9
$ANGDIR
 70
     0
  9
$PDMODE
 70
     0
  9
$PDSIZE
 40
0.0
  9
$PLINEWID
 40
0.0
  9
$SPLFRAME
 70
     0
  9
$SPLINETYPE
 70
     6
  9
$SPLINESEGS
 70
     8
  9
$HANDSEED
  5
E7
  9
$SURFTAB1
 70
     6
  9
$SURFTAB2
 70
     6
  9
$SURFTYPE
 70
     6
  9
$SURFU
 70
     6
  9
$SURFV
 70
     6
  9
$UCSBASE
  2

  9
$UCSNAME
  2

  9
$UCSORG
 10
0.0
 20
0.0
 30
0.0
  9
$UCSXDIR
 10
1.0
 20
0.0
 30
0.0
  9
$UCSYDIR
 10
0.0
 20
1.0
 30
0.0
  9
$UCSORTHOREF
  2

  9
$UCSORTHOVIEW
 70
     0
  9
$UCSORGTOP
 10
0.0
 20
0.0
 30
0.0
  9
$UCSORGBOTTOM
 10
0.0
 20
0.0
 30
0.0
  9
$UCSORGLEFT
 10
0.0
 20
0.0
 30
0.0
  9
$UCSORGRIGHT
 10
0.0
 20
0.0
 30
0.0
  9
$UCSORGFRONT
 10
0.0
 20
0.0
 30
0.0
  9
$UCSORGBACK
 10
0.0
 20
0.0
 30
0.0
  9
$PUCSBASE
  2

  9
$PUCSNAME
  2

  9
$PUCSORG
 10
0.0
 20
0.0
 30
0.0
  9
$PUCSXDIR
 10
1.0
 20
0.0
 30
0.0
  9
$PUCSYDIR
 10
0.0
 20
1.0
 30
0.0
  9
$PUCSORTHOREF
  2

  9
$PUCSORTHOVIEW
 70
     0
  9
$PUCSORGTOP
 10
0.0
 20
0.0
 30
0.0
  9
$PUCSORGBOTTOM
 10
0.0
 20
0.0
 30
0.0
  9
$PUCSORGLEFT
 10
0.0
 20
0.0
 30
0.0
  9
$PUCSORGRIGHT
 10
0.0
 20
0.0
 30
0.0
  9
$PUCSORGFRONT
 10
0.0
 20
0.0
 30
0.0
  9
$PUCSORGBACK
 10
0.0
 20
0.0
 30
0.0
  9
$USERI1
 70
     0
  9
$USERI2
 70
     0
  9
$USERI3
 70
     0
  9
$USERI4
 70
     0
  9
$USERI5
 70
     0
  9
$USERR1
 40
0.0
  9
$USERR2
 40
0.0
  9
$USERR3
 40
0.0
  9
$USERR4
 40
0.0
  9
$USERR5
 40
0.0
  9
$WORLDVIEW
 70
     1
  9
$SHADEDGE
 70
     3
  9
$SHADEDIF
 70
    70
  9
$TILEMODE
 70
     1
  9
$MAXACTVP
 70
    64
  9
$PINSBASE
 10
0.0
 20
0.0
 30
0.0
  9
$PLIMCHECK
 70
     0
  9
$PEXTMIN
 10
1.000000000000000E+20
 20
1.000000000000000E+20
 30
1.000000000000000E+20
  9
$PEXTMAX
 10
-1.000000000000000E+20
 20
-1.000000000000000E+20
 30
-1.000000000000000E+20
  9
$PLIMMIN
 10
0.0
 20
0.0
  9
$PLIMMAX
 10
12.0
 20
9.0
  9
$UNITMODE
 70
     0
  9
$VISRETAIN
 70
     1
  9
$PLINEGEN
 70
     0
  9
$PSLTSCALE
 70
     1
  9
$TREEDEPTH
 70
  3020
  9
$CMLSTYLE
  2
Standard
  9
$CMLJUST
 70
     0
  9
$CMLSCALE
 40
1.0
  9
$PROXYGRAPHICS
 70
     1
  9
$MEASUREMENT
 70
     0
  9
$CELWEIGHT
370
    -1
  9
$ENDCAPS
280
     0
  9
$JOINSTYLE
280
     0
  9
$LWDISPLAY
290
     0
  9
$INSUNITS
 70
     1
  9
$HYPERLINKBASE
  1

  9
$STYLESHEET
  1

  9
$XEDIT
290
     1
  9
$CEPSNTYPE
380
     0
  9
$PSTYLEMODE
290
     1
  9
$FINGERPRINTGUID
  2
{DB67396B-7289-4CCD-A745-7881131EA711}
  9
$VERSIONGUID
  2
{FAEB1C32-E019-11D5-929B-00C0DF256EC4}
  9
$EXTNAMES
290
     1
  9
$PSVPSCALE
 40
0.0
  9
$OLESTARTUP
290
     0
  9
$SORTENTS
280
   127
  9
$INDEXCTL
280
     0
  9
$HIDETEXT
280
     1
  9
$XCLIPFRAME
290
     0
  9
$HALOGAP
280
     0
  9
$OBSCOLOR
 70
   257
  9
$OBSLTYPE
280
     0
  9
$INTERSECTIONDISPLAY
280
     0
  9
$INTERSECTIONCOLOR
 70
   257
  9
$DIMASSOC
280
     2
  9
$PROJECTNAME
  1

  0
ENDSEC
  0
SECTION
  2
CLASSES
  0
CLASS
  1
ACDBDICTIONARYWDFLT
  2
AcDbDictionaryWithDefault
  3
ObjectDBX Classes
 90
        0
 91
        4
280
     0
281
     0
  0
CLASS
  1
VISUALSTYLE
  2
AcDbVisualStyle
  3
ObjectDBX Classes
 90
     4095
 91
        4
280
     0
281
     0
  0
ENDSEC
  0
SECTION
  2
TABLES
  0
TABLE
  2
VPORT
  5
8
330
0
100
AcDbSymbolTable
 70
     1
  0
VPORT
  5
29
330
8
100
AcDbSymbolTableRecord
100
AcDbViewportTableRecord
  2
*Active
 70
     0
 10
0.0
 20
0.0
 11
1.0
 21
1.0
 12
20.37432576193289
 22
38.39788488150106
 13
0.0
 23
0.0
 14
0.5
 24
0.5
 15
0.5
 25
0.5
 16
0.0
 26
0.0
 36
1.0
 17
0.0
 27
0.0
 37
0.0
 40
78.33168515826216
 41
0.9121252118743097
 42
50.0
 43
0.0
 44
0.0
 50
0.0
 51
0.0
 71
     0
 72
   100
 73
     1
 74
     3
 75
     0
 76
     0
 77
     0
 78
     0
281
     0
 65
     1
110
0.0
120
0.0
130
0.0
111
1.0
121
0.0
131
0.0
112
0.0
122
1.0
132
0.0
 79
     0
146
0.0
  0
ENDTAB
  0
TABLE
  2
LTYPE
  5
5
330
0
100
AcDbSymbolTable
 70
     1
  0
LTYPE
  5
14
330
5
100
AcDbSymbolTableRecord
100
AcDbLinetypeTableRecord
  2
ByBlock
 70
     0
  3

 72
    65
 73
     0
 40
0.0
  0
LTYPE
  5
15
330
5
100
AcDbSymbolTableRecord
100
AcDbLinetypeTableRecord
  2
ByLayer
 70
     0
  3

 72
    65
 73
     0
 40
0.0
  0
LTYPE
  5
16
330
5
100
AcDbSymbolTableRecord
100
AcDbLinetypeTableRecord
  2
Continuous
 70
     0
  3
Solid line
 72
    65
 73
     0
 40
0.0
  0
ENDTAB
  0
TABLE
  2
LAYER
  5
2
330
0
100
AcDbSymbolTable
 70
     2
  0
LAYER
  5
10
330
2
100
AcDbSymbolTableRecord
100
AcDbLayerTableRecord
  2
0
 70
     0
 62
     7
  6
Continuous
370
    -3
390
F
  0
LAYER
  5
3B
330
2
100
AcDbSymbolTableRecord
100
AcDbLayerTableRecord
  2
4STAR 2D
 70
     0
 62
     7
  6
Continuous
370
    -3
390
F
  0
ENDTAB
  0
TABLE
  2
STYLE
  5
3
330
0
100
AcDbSymbolTable
 70
     1
  0
STYLE
  5
11
330
3
100
AcDbSymbolTableRecord
100
AcDbTextStyleTableRecord
  2
Standard
 70
     0
 40
0.0
 41
1.0
 50
0.0
 71
     0
 42
0.2
  3
txt
  4

  0
ENDTAB
  0
TABLE
  2
VIEW
  5
6
330
0
100
AcDbSymbolTable
 70
     0
  0
ENDTAB
  0
TABLE
  2
UCS
  5
7
330
0
100
AcDbSymbolTable
 70
     0
  0
ENDTAB
  0
TABLE
  2
APPID
  5
9
330
0
100
AcDbSymbolTable
 70
     1
  0
APPID
  5
12
330
9
100
AcDbSymbolTableRecord
100
AcDbRegAppTableRecord
  2
ACAD
 70
     0
  0
ENDTAB
  0
TABLE
  2
DIMSTYLE
  5
A
330
0
100
AcDbSymbolTable
 70
     1
100
AcDbDimStyleTable
  0
DIMSTYLE
105
27
330
A
100
AcDbSymbolTableRecord
100
AcDbDimStyleTableRecord
  2
Standard
 70
     0
340
11
  0
ENDTAB
  0
TABLE
  2
BLOCK_RECORD
  5
1
330
0
100
AcDbSymbolTable
 70
     1
  0
BLOCK_RECORD
  5
1F
330
1
100
AcDbSymbolTableRecord
100
AcDbBlockTableRecord
  2
*Model_Space
340
22
  0
BLOCK_RECORD
  5
1B
330
1
100
AcDbSymbolTableRecord
100
AcDbBlockTableRecord
  2
*Paper_Space
340
1E
  0
BLOCK_RECORD
  5
23
330
1
100
AcDbSymbolTableRecord
100
AcDbBlockTableRecord
  2
*Paper_Space0
340
26
  0
ENDTAB
  0
ENDSEC
  0
SECTION
  2
BLOCKS
  0
BLOCK
  5
20
330
1F
100
AcDbEntity
  8
0
100
AcDbBlockBegin
  2
*Model_Space
 70
     0
 10
0.0
 20
0.0
 30
0.0
  3
*Model_Space
  1

  0
ENDBLK
  5
21
330
1F
100
AcDbEntity
  8
0
100
AcDbBlockEnd
  0
BLOCK
  5
1C
330
1B
100
AcDbEntity
 67
     1
  8
0
100
AcDbBlockBegin
  2
*Paper_Space
 70
     0
 10
0.0
 20
0.0
 30
0.0
  3
*Paper_Space
  1

  0
ENDBLK
  5
1D
330
1B
100
AcDbEntity
 67
     1
  8
0
100
AcDbBlockEnd
  0
BLOCK
  5
24
330
23
100
AcDbEntity
  8
0
100
AcDbBlockBegin
  2
*Paper_Space0
 70
     0
 10
0.0
 20
0.0
 30
0.0
  3
*Paper_Space0
  1

  0
ENDBLK
  5
25
330
23
100
AcDbEntity
  8
0
100
AcDbBlockEnd
  0
ENDSEC
  0
SECTION
  2
ENTITIES
  0
LINE
  5
3C
330
1F
100
AcDbEntity
  8
4STAR 2D
 62
     7
100
AcDbLine
 10
41.10971239629872
 20
9.766769422457108
 30
0.0
 11
41.10971239629872
 21
6.503000000000002
 31
0.0
  0
LINE
  5
3D
330
1F
100
AcDbEntity
  8
4STAR 2D
 62
     7
100
AcDbLine
 10
38.52971239629873
 20
6.503000000000002
 30
0.0
 11
38.52971239629873
 21
9.752858055211176
 31
0.0
  0
LINE
  5
3E
330
1F
100
AcDbEntity
  8
4STAR 2D
 62
     7
100
AcDbLine
 10
-1.289999999999992
 20
6.503000000000002
 30
0.0
 11
-1.289999999999992
 21
9.799702082086656
 31
0.0
  0
LINE
  5
3F
330
1F
100
AcDbEntity
  8
4STAR 2D
 62
     7
100
AcDbLine
 10
1.289999999999992
 20
9.799702086724354
 30
0.0
 11
1.289999999999992
 21
6.503000000000002
 31
0.0
  0
SPLINE
  5
40
330
1F
100
AcDbEntity
  8
4STAR 2D
 62
     7
100
AcDbSpline
210
0.0
220
0.0
230
1.0
 70
     8
 71
     3
 72
    12
 73
     8
 74
     0
 42
0.0000000001
 43
0.0000000001
 40
-3.0858126895768
 40
-3.0858126895768
 40
-3.0858126895768
 40
-3.0858126895768
 40
-2.642265590548921
 40
-2.208270161634103
 40
-2.121481653565311
 40
-2.02509803859557
 40
0.0
 40
0.0
 40
0.0
 40
0.0
 10
53.70571239629872
 20
3.205665827232833
 30
0.0
 10
53.85002859259207
 20
3.175829891605608
 30
0.0
 10
54.12088547625122
 20
3.03468134273648
 30
0.0
 10
54.28969848472651
 20
2.748295505813291
 30
0.0
 10
54.33513330395827
 20
2.546824012142999
 30
0.0
 10
54.37782489088328
 20
1.811932359792708
 30
0.0
 10
54.41548141485391
 20
1.10581410256726
 30
0.0
 10
54.45393630639772
 20
0.4317678748060569
 30
0.0
  0
SPLINE
  5
41
330
1F
100
AcDbEntity
  8
4STAR 2D
 62
     7
100
AcDbSpline
210
0.0
220
0.0
230
1.0
 70
    12
 71
     2
 72
     6
 73
     3
 74
     0
 42
0.0000000001
 43
0.0000000001
 40
0.0
 40
0.0
 40
0.0
 40
0.0389746357819461
 40
0.0389746357819461
 40
0.0389746357819461
 10
54.45393630639772
 20
0.4317678748060569
 30
0.0
 41
1.0
 10
54.4552134619834
 20
0.4089240281822228
 30
0.0
 41
0.7963395613957778
 10
54.4336383684212
 20
0.4015944354498296
 30
0.0
 41
1.0
  0
SPLINE
  5
42
330
1F
100
AcDbEntity
  8
4STAR 2D
 62
     7
100
AcDbSpline
210
0.0
220
0.0
230
1.0
 70
     8
 71
     3
 72
    14
 73
    10
 74
     0
 42
0.0000000001
 43
0.0000000001
 40
-12.20116650812062
 40
-12.20116650812062
 40
-12.20116650812062
 40
-12.20116650812062
 40
-11.10618719586826
 40
-11.02462537061439
 40
-10.94889229604513
 40
-10.85569685307349
 40
-10.61101647346049
 40
-10.48392831467684
 40
-10.36850216633574
 40
-10.36850216633574
 40
-10.36850216633574
 40
-10.36850216633574
 10
53.04309713830058
 20
0.4293717115611809
 30
0.0
 10
53.03523785694863
 20
0.7942933853839997
 30
0.0
 10
53.02763557918074
 20
1.186363164752624
 30
0.0
 10
53.01823092065071
 20
1.603723456635179
 30
0.0
 10
53.01802977271755
 20
1.687141830407011
 30
0.0
 10
53.00715520646979
 20
1.825311740574662
 30
0.0
 10
52.92461168125878
 20
1.966156733401164
 30
0.0
 10
52.78851652447979
 20
2.056781907874129
 30
0.0
 10
52.70964919045632
 20
2.080240332423644
 30
0.0
 10
52.67075148771544
 20
2.085853658713474
 30
0.0
  0
SPLINE
  5
43
330
1F
100
AcDbEntity
  8
4STAR 2D
 62
     7
100
AcDbSpline
210
0.0
220
0.0
230
1.0
 70
    12
 71
     2
 72
     6
 73
     3
 74
     0
 42
0.0000000001
 43
0.0000000001
 40
-0.0328025700600773
 40
-0.0328025700600773
 40
-0.0328025700600773
 40
0.0
 40
0.0
 40
0.0
 10
53.05986809052847
 20
0.4030710872597238
 30
0.0
 41
1.0
 10
53.04347950643392
 20
0.4111181083220299
 30
0.0
 41
0.8542398056055149
 10
53.04309713830058
 20
0.4293717115611809
 30
0.0
 41
1.0
  0
SPLINE
  5
44
330
1F
100
AcDbEntity
  8
4STAR 2D
 62
     7
100
AcDbSpline
210
0.0
220
0.0
230
1.0
 70
    24
 71
     2
 72
     6
 73
     3
 74
     0
 42
0.0000000001
 43
0.0000000001
 40
-0.2265737189671924
 40
-0.2265737189671924
 40
-0.2265737189671924
 40
0.0
 40
0.0
 40
0.0
 10
26.59596965277935
 20
0.385261786096561
 30
0.0
 10
26.59794678109505
 20
0.2719921807503813
 30
0.0
 10
26.59992390941078
 20
0.1587225754042016
 30
0.0
  0
SPLINE
  5
45
330
1F
100
AcDbEntity
  8
4STAR 2D
 62
     7
100
AcDbSpline
210
0.0
220
0.0
230
1.0
 70
    24
 71
     2
 72
     6
 73
     3
 74
     0
 42
0.0000000001
 43
0.0000000001
 40
-1.1178392931867
 40
-1.1178392931867
 40
-1.1178392931867
 40
0.0
 40
0.0
 40
0.0
 10
26.44394766896635
 20
0.0000000000000009
 30
0.0
 10
25.88502802237299
 20
0.0000000000000009
 30
0.0
 10
25.32610837577964
 20
0.0000000000000009
 30
0.0
  0
SPLINE
  5
46
330
1F
100
AcDbEntity
  8
4STAR 2D
 62
     7
100
AcDbSpline
210
0.0
220
0.0
230
1.0
 70
    12
 71
     2
 72
     8
 73
     5
 74
     0
 42
0.0000000001
 43
0.0000000001
 40
0.0
 40
0.0
 40
0.0
 40
0.1238834703065744
 40
0.1238834703065744
 40
0.2477669406131487
 40
0.2477669406131487
 40
0.2477669406131487
 10
26.59992390941078
 20
0.1587225754042016
 30
0.0
 41
1.0
 10
26.60106558002817
 20
0.0933163095384199
 30
0.0
 41
0.9222009716703817
 10
26.55521473903441
 20
0.0466581547691941
 30
0.0
 41
1.0
 10
26.50936389804065
 20
-0.0000000000000317
 30
0.0
 41
0.9222009716703817
 10
26.44394766896635
 20
0.0000000000000009
 30
0.0
 41
1.0
  0
SPLINE
  5
47
330
1F
100
AcDbEntity
  8
4STAR 2D
 62
     7
100
AcDbSpline
210
0.0
220
0.0
230
1.0
 70
     8
 71
     2
 72
     7
 73
     4
 74
     0
 42
0.0000000001
 43
0.0000000001
 40
-2.112820146863387
 40
-2.112820146863387
 40
-2.112820146863387
 40
0.0
 40
10.36850216633574
 40
10.36850216633574
 40
10.36850216633574
 10
39.33442509120054
 20
3.70091115472393
 30
0.0
 10
38.286337229539
 20
3.655344771851874
 30
0.0
 10
32.10073591235074
 20
2.826461456234592
 30
0.0
 10
26.96867330488205
 20
2.085853658713474
 30
0.0
  0
SPLINE
  5
48
330
1F
100
AcDbEntity
  8
4STAR 2D
 62
     7
100
AcDbSpline
210
0.0
220
0.0
230
1.0
 70
     8
 71
     3
 72
    14
 73
    10
 74
     0
 42
0.0000000001
 43
0.0000000001
 40
10.36850216633574
 40
10.36850216633574
 40
10.36850216633574
 40
10.36850216633574
 40
10.48392831467684
 40
10.61101647346049
 40
10.85569685307349
 40
10.94889229604513
 40
11.02462537061439
 40
11.10618719586826
 40
12.20116650812062
 40
12.20116650812062
 40
12.20116650812062
 40
12.20116650812062
 10
26.96867330488205
 20
2.085853658713474
 30
0.0
 10
26.92977560214116
 20
2.080240332423644
 30
0.0
 10
26.85090826811772
 20
2.056781907874129
 30
0.0
 10
26.71481311133873
 20
1.966156733401164
 30
0.0
 10
26.63226958612772
 20
1.825311740574662
 30
0.0
 10
26.6213950198799
 20
1.687141830407011
 30
0.0
 10
26.62119387194677
 20
1.603723456635179
 30
0.0
 10
26.61178921341674
 20
1.186363164752624
 30
0.0
 10
26.60418693564888
 20
0.7942933853839997
 30
0.0
 10
26.59632765429687
 20
0.4293717115611809
 30
0.0
  0
SPLINE
  5
49
330
1F
100
AcDbEntity
  8
4STAR 2D
 62
     7
100
AcDbSpline
210
0.0
220
0.0
230
1.0
 70
    12
 71
     2
 72
     6
 73
     3
 74
     0
 42
0.0000000001
 43
0.0000000001
 40
0.0
 40
0.0
 40
0.0
 40
0.0328025700600773
 40
0.0328025700600773
 40
0.0328025700600773
 10
26.59632765429687
 20
0.4293717115611809
 30
0.0
 41
1.0
 10
26.59594528616359
 20
0.4111181083220299
 30
0.0
 41
0.8542398056055149
 10
26.57955670206901
 20
0.4030710872597238
 30
0.0
 41
1.0
  0
SPLINE
  5
4A
330
1F
100
AcDbEntity
  8
4STAR 2D
 62
     7
100
AcDbSpline
210
0.0
220
0.0
230
1.0
 70
    12
 71
     2
 72
     6
 73
     3
 74
     0
 42
0.0000000001
 43
0.0000000001
 40
-0.0389746357819461
 40
-0.0389746357819461
 40
-0.0389746357819461
 40
0.0
 40
0.0
 40
0.0
 10
25.20578642417631
 20
0.4015944354498296
 30
0.0
 41
1.0
 10
25.18421133061409
 20
0.4089240281822228
 30
0.0
 41
0.7963395613957778
 10
25.18548848619979
 20
0.4317678748060569
 30
0.0
 41
1.0
  0
SPLINE
  5
4B
330
1F
100
AcDbEntity
  8
4STAR 2D
 62
     7
100
AcDbSpline
210
0.0
220
0.0
230
1.0
 70
     8
 71
     3
 72
    12
 73
     8
 74
     0
 42
0.0000000001
 43
0.0000000001
 40
0.0
 40
0.0
 40
0.0
 40
0.0
 40
2.02509803859557
 40
2.121481653565311
 40
2.208270161634103
 40
2.642265590548921
 40
3.0858126895768
 40
3.0858126895768
 40
3.0858126895768
 40
3.0858126895768
 10
25.18548848619979
 20
0.4317678748060569
 30
0.0
 10
25.22394337774357
 20
1.10581410256726
 30
0.0
 10
25.26159990171418
 20
1.811932359792708
 30
0.0
 10
25.30429148863918
 20
2.546824012142999
 30
0.0
 10
25.34972630787097
 20
2.748295505813291
 30
0.0
 10
25.51853931634626
 20
3.03468134273648
 30
0.0
 10
25.78939620000538
 20
3.175829891605608
 30
0.0
 10
25.93371239629879
 20
3.205665827232833
 30
0.0
  0
POLYLINE
  5
4C
330
1F
100
AcDbEntity
  8
4STAR 2D
 62
     7
100
AcDb2dPolyline
 66
     1
 10
0.0
 20
0.0
 30
0.0
  0
VERTEX
  5
4D
330
4C
100
AcDbEntity
  8
4STAR 2D
 62
     7
100
AcDbVertex
100
AcDb2dVertex
 10
38.53167052759169
 20
6.462944790227148
 30
0.0
  0
VERTEX
  5
4E
330
4C
100
AcDbEntity
  8
4STAR 2D
 62
     7
100
AcDbVertex
100
AcDb2dVertex
 10
41.10775426500582
 20
6.462944790227148
 30
0.0
  0
SEQEND
  5
4F
330
4C
100
AcDbEntity
  8
4STAR 2D
 62
     7
  0
SPLINE
  5
50
330
1F
100
AcDbEntity
  8
4STAR 2D
 62
     7
100
AcDbSpline
210
0.0
220
0.0
230
1.0
 70
     8
 71
     3
 72
    11
 73
     7
 74
     0
 42
0.0000000001
 43
0.0000000001
 40
29.02279843217129
 40
29.02279843217129
 40
29.02279843217129
 40
29.02279843217129
 40
29.27279843217141
 40
29.52279843217158
 40
29.77279843217175
 40
30.00957021186727
 40
30.00957021186727
 40
30.00957021186727
 40
30.00957021186727
 10
37.96971239629879
 20
5.692725175023857
 30
0.0
 10
38.04218013727093
 20
5.70769954961662
 30
0.0
 10
38.18382759794882
 20
5.77196445074997
 30
0.0
 10
38.3646756498738
 20
5.941965920377478
 30
0.0
 10
38.48989329250729
 20
6.152448109995484
 30
0.0
 10
38.52514369450621
 20
6.300934325093533
 30
0.0
 10
38.52797585834678
 20
6.371234909639895
 30
0.0
  0
LINE
  5
51
330
1F
100
AcDbEntity
  8
4STAR 2D
 62
     7
100
AcDbLine
 10
41.10775426500582
 20
6.462944790227148
 30
0.0
 11
41.1114489342507
 21
6.371234909639895
 31
0.0
  0
SPLINE
  5
52
330
1F
100
AcDbEntity
  8
4STAR 2D
 62
     7
100
AcDbSpline
210
0.0
220
0.0
230
1.0
 70
    24
 71
     2
 72
     6
 73
     3
 74
     0
 42
0.0000000001
 43
0.0000000001
 40
0.0
 40
0.0
 40
0.0
 40
12.29027095712029
 40
12.29027095712029
 40
12.29027095712029
 10
41.66971239629872
 20
5.692725175023857
 30
0.0
 10
47.68771239629869
 20
4.449195501128345
 30
0.0
 10
53.70571239629872
 20
3.205665827232833
 30
0.0
  0
SPLINE
  5
53
330
1F
100
AcDbEntity
  8
4STAR 2D
 62
     7
100
AcDbSpline
210
0.0
220
0.0
230
1.0
 70
     8
 71
     3
 72
    11
 73
     7
 74
     0
 42
0.0000000001
 43
0.0000000001
 40
-30.00957021186727
 40
-30.00957021186727
 40
-30.00957021186727
 40
-30.00957021186727
 40
-29.77279843217175
 40
-29.52279843217158
 40
-29.27279843217141
 40
-29.02279843217129
 40
-29.02279843217129
 40
-29.02279843217129
 40
-29.02279843217129
 10
41.1114489342507
 20
6.371234909639895
 30
0.0
 10
41.11428109809127
 20
6.300934325093533
 30
0.0
 10
41.14953150009022
 20
6.152448109995484
 30
0.0
 10
41.27474914272368
 20
5.941965920377478
 30
0.0
 10
41.45559719464869
 20
5.77196445074997
 30
0.0
 10
41.59724465532655
 20
5.70769954961662
 30
0.0
 10
41.66971239629872
 20
5.692725175023857
 30
0.0
  0
SPLINE
  5
54
330
1F
100
AcDbEntity
  8
4STAR 2D
 62
     7
100
AcDbSpline
210
0.0
220
0.0
230
1.0
 70
    12
 71
     2
 72
     6
 73
     3
 74
     0
 42
0.0000000001
 43
0.0000000001
 40
0.0
 40
0.0
 40
0.0
 40
0.0276977634380368
 40
0.0276977634380368
 40
0.0276977634380368
 10
40.31206452875993
 20
3.784896487667917
 30
0.0
 41
1.0
 10
40.31276099301275
 20
3.770987048242446
 30
0.0
 41
0.9916219010942138
 10
40.30987083663074
 20
3.757363371658137
 30
0.0
 41
1.0
  0
POLYLINE
  5
55
330
1F
100
AcDbEntity
  8
4STAR 2D
 62
     7
100
AcDb2dPolyline
 66
     1
 10
0.0
 20
0.0
 30
0.0
  0
VERTEX
  5
56
330
55
100
AcDbEntity
  8
4STAR 2D
 62
     7
100
AcDbVertex
100
AcDb2dVertex
 10
26.57955670206901
 20
0.4030710872597238
 30
0.0
  0
VERTEX
  5
57
330
55
100
AcDbEntity
  8
4STAR 2D
 62
     7
100
AcDbVertex
100
AcDb2dVertex
 10
25.20578642417631
 20
0.4015944354498296
 30
0.0
  0
SEQEND
  5
58
330
55
100
AcDbEntity
  8
4STAR 2D
 62
     7
  0
SPLINE
  5
59
330
1F
100
AcDbEntity
  8
4STAR 2D
 62
     7
100
AcDbSpline
210
0.0
220
0.0
230
1.0
 70
    24
 71
     2
 72
     6
 73
     3
 74
     0
 42
0.0000000001
 43
0.0000000001
 40
-12.29027095712029
 40
-12.29027095712029
 40
-12.29027095712029
 40
0.0
 40
0.0
 40
0.0
 10
25.93371239629879
 20
3.205665827232833
 30
0.0
 10
31.95171239629876
 20
4.449195501128345
 30
0.0
 10
37.96971239629879
 20
5.692725175023857
 30
0.0
  0
LINE
  5
5A
330
1F
100
AcDbEntity
  8
4STAR 2D
 62
     7
100
AcDbLine
 10
38.52797585834678
 20
6.371234909639895
 30
0.0
 11
38.53167052759169
 21
6.462944790227148
 31
0.0
  0
SPLINE
  5
5B
330
1F
100
AcDbEntity
  8
4STAR 2D
 62
     7
100
AcDbSpline
210
0.0
220
0.0
230
1.0
 70
     8
 71
     3
 72
    12
 73
     8
 74
     0
 42
0.0000000001
 43
0.0000000001
 40
-5.0
 40
-5.0
 40
-5.0
 40
-5.0
 40
-4.0
 40
-3.0
 40
-2.0
 40
-1.0
 40
0.0
 40
0.0
 40
0.0
 40
0.0
 10
39.39163295278594
 20
5.042681719673671
 30
0.0
 10
39.4020597430587
 20
5.157295316675079
 30
0.0
 10
39.43639070188046
 20
5.379745552997914
 30
0.0
 10
39.6190705527214
 20
5.704291101129162
 30
0.0
 10
40.02037882495539
 20
5.704267248842217
 30
0.0
 10
40.20304395994411
 20
5.379757877824668
 30
0.0
 10
40.23736537850213
 20
5.157293835798621
 30
0.0
 10
40.24779334592979
 20
5.042682536827708
 30
0.0
  0
SPLINE
  5
5C
330
1F
100
AcDbEntity
  8
4STAR 2D
 62
     7
100
AcDbSpline
210
0.0
220
0.0
230
1.0
 70
     8
 71
     3
 72
     8
 73
     4
 74
     0
 42
0.0000000001
 43
0.0000000001
 40
0.0
 40
0.0
 40
0.0
 40
0.0
 40
1.0
 40
1.0
 40
1.0
 40
1.0
 10
40.24779334592979
 20
5.042682536827708
 30
0.0
 10
40.27875132169332
 20
4.702430820433111
 30
0.0
 10
40.33884957277108
 20
4.121637737752299
 30
0.0
 10
40.31206452875993
 20
3.784896487667917
 30
0.0
  0
SPLINE
  5
5D
330
1F
100
AcDbEntity
  8
4STAR 2D
 62
     7
100
AcDbSpline
210
0.0
220
0.0
230
1.0
 70
     8
 71
     2
 72
     7
 73
     4
 74
     0
 42
0.0000000001
 43
0.0000000001
 40
-10.36850216633574
 40
-10.36850216633574
 40
-10.36850216633574
 40
0.0
 40
2.112820146863387
 40
2.112820146863387
 40
2.112820146863387
 10
52.67075148771544
 20
2.085853658713474
 30
0.0
 10
47.53868888024674
 20
2.826461456234592
 30
0.0
 10
41.35308756305848
 20
3.655344771851874
 30
0.0
 10
40.30499970139697
 20
3.70091115472393
 30
0.0
  0
LINE
  5
5E
330
1F
100
AcDbEntity
  8
4STAR 2D
 62
     7
100
AcDbLine
 10
40.22221278907396
 20
2.645839045006541
 30
0.0
 11
40.22221280126207
 21
1.318318645839482
 31
0.0
  0
SPLINE
  5
5F
330
1F
100
AcDbEntity
  8
4STAR 2D
 62
     7
100
AcDbSpline
210
0.0
220
0.0
230
1.0
 70
    12
 71
     2
 72
     6
 73
     3
 74
     0
 42
0.0000000001
 43
0.0000000001
 40
0.0
 40
0.0
 40
0.0
 40
0.8883181399606292
 40
0.8883181399606292
 40
0.8883181399606292
 10
40.22221280126207
 20
1.318318645839482
 30
0.0
 41
1.0
 10
40.22221267392656
 20
0.874159575859181
 30
0.0
 41
0.9999999999999857
 10
40.22221167148528
 20
0.4298637235359951
 30
0.0
 41
1.0
  0
SPLINE
  5
60
330
1F
100
AcDbEntity
  8
4STAR 2D
 62
     7
100
AcDbSpline
210
0.0
220
0.0
230
1.0
 70
    12
 71
     2
 72
     6
 73
     3
 74
     0
 42
0.0000000001
 43
0.0000000001
 40
0.0
 40
0.0
 40
0.0
 40
0.0370134418365288
 40
0.0370134418365288
 40
0.0370134418365288
 10
40.22221167148528
 20
0.4298637235359951
 30
0.0
 41
1.0
 10
40.22199085477626
 20
0.408438210824519
 30
0.0
 41
0.8149664195338971
 10
40.20181011904991
 20
0.4016561472388268
 30
0.0
 41
1.0
  0
POLYLINE
  5
61
330
1F
100
AcDbEntity
  8
4STAR 2D
 62
     7
100
AcDb2dPolyline
 66
     1
 10
0.0
 20
0.0
 30
0.0
  0
VERTEX
  5
62
330
61
100
AcDbEntity
  8
4STAR 2D
 62
     7
100
AcDbVertex
100
AcDb2dVertex
 10
40.20181011904991
 20
0.4016561472388268
 30
0.0
  0
VERTEX
  5
63
330
61
100
AcDbEntity
  8
4STAR 2D
 62
     7
100
AcDbVertex
100
AcDb2dVertex
 10
39.43477863746962
 20
0.4026979553860967
 30
0.0
  0
SEQEND
  5
64
330
61
100
AcDbEntity
  8
4STAR 2D
 62
     7
  0
SPLINE
  5
65
330
1F
100
AcDbEntity
  8
4STAR 2D
 62
     7
100
AcDbSpline
210
0.0
220
0.0
230
1.0
 70
    12
 71
     2
 72
     6
 73
     3
 74
     0
 42
0.0000000001
 43
0.0000000001
 40
0.0
 40
0.0
 40
0.0
 40
0.0233001455140947
 40
0.0233001455140947
 40
0.0233001455140947
 10
53.05845285524545
 20
0.4000000000000012
 30
0.0
 41
1.0
 10
53.04371239629872
 20
0.3999999999999896
 30
0.0
 41
0.7132504491537722
 10
53.04345513981814
 20
0.385261786096561
 30
0.0
 41
1.0
  0
SPLINE
  5
66
330
1F
100
AcDbEntity
  8
4STAR 2D
 62
     7
100
AcDbSpline
210
0.0
220
0.0
230
1.0
 70
    12
 71
     2
 72
     8
 73
     5
 74
     0
 42
0.0000000001
 43
0.0000000001
 40
0.0
 40
0.0
 40
0.0
 40
0.1238834703065744
 40
0.1238834703065744
 40
0.2477669406131487
 40
0.2477669406131487
 40
0.2477669406131487
 10
53.03950088318673
 20
0.1587225754042016
 30
0.0
 41
1.0
 10
53.03835921256929
 20
0.0933163095384199
 30
0.0
 41
0.9222009716703817
 10
53.08421005356307
 20
0.0466581547691941
 30
0.0
 41
1.0
 10
53.13006089455681
 20
-0.0000000000000317
 30
0.0
 41
0.9222009716703817
 10
53.19547712363116
 20
0.0000000000000009
 30
0.0
 41
1.0
  0
SPLINE
  5
67
330
1F
100
AcDbEntity
  8
4STAR 2D
 62
     7
100
AcDbSpline
210
0.0
220
0.0
230
1.0
 70
    12
 71
     2
 72
     8
 73
     5
 74
     0
 42
0.0000000001
 43
0.0000000001
 40
0.0
 40
0.0
 40
0.0
 40
0.1269465231438404
 40
0.1269465231438404
 40
0.2538930462876808
 40
0.2538930462876808
 40
0.2538930462876808
 10
54.31331641681784
 20
0.0000000000000009
 30
0.0
 41
1.0
 10
54.38054098115322
 20
-0.0000000000000234
 30
0.0
 41
0.9183600648443049
 10
54.42670882326148
 20
0.0488638148852971
 30
0.0
 41
1.0
 10
54.47287666536977
 20
0.0977276297706175
 30
0.0
 41
0.9183600648443049
 10
54.46906551742482
 20
0.1648440748599009
 30
0.0
 41
1.0
  0
SPLINE
  5
68
330
1F
100
AcDbEntity
  8
4STAR 2D
 62
     7
100
AcDbSpline
210
0.0
220
0.0
230
1.0
 70
     8
 71
     2
 72
     6
 73
     3
 74
     0
 42
0.0000000001
 43
0.0000000001
 40
-0.2213623405233065
 40
-0.2213623405233065
 40
-0.2213623405233065
 40
0.0
 40
0.0
 40
0.0
 10
54.46906551742482
 20
0.1648440748599009
 30
0.0
 10
54.46279069335195
 20
0.2753472333366753
 30
0.0
 10
54.45650794842514
 20
0.3859723252673241
 30
0.0
  0
SPLINE
  5
69
330
1F
100
AcDbEntity
  8
4STAR 2D
 62
     7
100
AcDbSpline
210
0.0
220
0.0
230
1.0
 70
    12
 71
     2
 72
     6
 73
     3
 74
     0
 42
0.0000000001
 43
0.0000000001
 40
0.0
 40
0.0
 40
0.0
 40
0.0233001455140947
 40
0.0233001455140947
 40
0.0233001455140947
 10
26.58097193735203
 20
0.4000000000000012
 30
0.0
 41
1.0
 10
26.59571239629877
 20
0.3999999999999896
 30
0.0
 41
0.7132504491537722
 10
26.59596965277935
 20
0.385261786096561
 30
0.0
 41
1.0
  0
SPLINE
  5
6A
330
1F
100
AcDbEntity
  8
4STAR 2D
 62
     7
100
AcDbSpline
210
0.0
220
0.0
230
1.0
 70
    12
 71
     2
 72
    28
 73
    25
 74
     0
 42
0.0000000001
 43
0.0000000001
 40
0.0
 40
0.0
 40
0.0
 40
0.1540216414111597
 40
0.1540216414111597
 40
0.2901790848036704
 40
0.2901790848036704
 40
0.4125187213470968
 40
0.4125187213470968
 40
0.5235565796151631
 40
0.5235565796151631
 40
0.6251094707772871
 40
0.6251094707772871
 40
0.7185505680812745
 40
0.7185505680812745
 40
0.804527306064451
 40
0.804527306064451
 40
0.8835369424496379
 40
0.8835369424496379
 40
0.956096405573554
 40
0.956096405573554
 40
1.022829496748906
 40
1.022829496748906
 40
1.084573035640182
 40
1.084573035640182
 40
1.142610152573474
 40
1.142610152573474
 40
1.142610152573474
 10
40.31206452875993
 20
3.784896487667917
 30
0.0
 41
1.0
 10
40.30595825478374
 20
3.708128484925791
 30
0.0
 41
0.9999992266822498
 10
40.29966105666814
 20
3.631375907621956
 30
0.0
 41
1.0
 10
40.29409940351476
 20
3.563525086088881
 30
0.0
 41
0.999999943592941
 10
40.28849217240533
 20
3.495678015939925
 30
0.0
 41
1.0
 10
40.28345641471227
 20
3.434716141472609
 30
0.0
 41
0.9999999896650592
 10
40.27843818623363
 20
3.373752821541293
 30
0.0
 41
1.0
 10
40.27388481774939
 20
3.318421206909444
 30
0.0
 41
0.9999999204687999
 10
40.26937558611313
 20
3.263085977874307
 30
0.0
 41
1.0
 10
40.26525206799158
 20
3.212477495132922
 30
0.0
 41
0.9999998558573179
 10
40.26118289786551
 20
3.16186461355551
 30
0.0
 41
1.0
 10
40.25743893060429
 20
3.115294548757072
 30
0.0
 41
0.9999998050943961
 10
40.25375311815982
 20
3.0687198451852
 30
0.0
 41
1.0
 10
40.25036169844824
 20
3.025865672648839
 30
0.0
 41
0.9999997586473189
 10
40.24702982958028
 20
2.983006828972381
 30
0.0
 41
1.0
 10
40.24396778842765
 20
2.943621051750709
 30
0.0
 41
0.9999997032638387
 10
40.24096643425138
 20
2.904230603460748
 30
0.0
 41
1.0
 10
40.23820987555501
 20
2.868055920441487
 30
0.0
 41
0.9999996264853681
 10
40.23551585312335
 20
2.831876526437055
 30
0.0
 41
1.0
 10
40.23303794387751
 20
2.798602274891143
 30
0.0
 41
0.9999995214040918
 10
40.23062514784981
 20
2.765323238464286
 30
0.0
 41
1.0
 10
40.22839296213669
 20
2.734532418213321
 30
0.0
 41
0.9999994294407313
 10
40.22622656491923
 20
2.703736899255506
 30
0.0
 41
1.0
 10
40.22419156076938
 20
2.674789921291922
 30
0.0
 41
0.9999995283042846
 10
40.22221278907396
 20
2.645839045006541
 30
0.0
 41
0.9999999999063802
  0
POLYLINE
  5
6B
330
1F
100
AcDbEntity
  8
4STAR 2D
 62
     7
100
AcDb2dPolyline
 66
     1
 10
0.0
 20
0.0
 30
0.0
  0
VERTEX
  5
6C
330
6B
100
AcDbEntity
  8
4STAR 2D
 62
     7
100
AcDbVertex
100
AcDb2dVertex
 10
25.19788479837682
 20
0.4000000000000013
 30
0.0
  0
VERTEX
  5
6D
330
6B
100
AcDbEntity
  8
4STAR 2D
 62
     7
100
AcDbVertex
100
AcDb2dVertex
 10
26.58097193735203
 20
0.4000000000000012
 30
0.0
  0
SEQEND
  5
6E
330
6B
100
AcDbEntity
  8
4STAR 2D
 62
     7
  0
SPLINE
  5
6F
330
1F
100
AcDbEntity
  8
4STAR 2D
 62
     7
100
AcDbSpline
210
0.0
220
0.0
230
1.0
 70
    24
 71
     2
 72
     6
 73
     3
 74
     0
 42
0.0000000001
 43
0.0000000001
 40
-0.2265737189671924
 40
-0.2265737189671924
 40
-0.2265737189671924
 40
0.0
 40
0.0
 40
0.0
 10
53.04345513981814
 20
0.385261786096561
 30
0.0
 10
53.04147801150243
 20
0.2719921807503813
 30
0.0
 10
53.03950088318673
 20
0.1587225754042016
 30
0.0
  0
SPLINE
  5
70
330
1F
100
AcDbEntity
  8
4STAR 2D
 62
     7
100
AcDbSpline
210
0.0
220
0.0
230
1.0
 70
    24
 71
     2
 72
     6
 73
     3
 74
     0
 42
0.0000000001
 43
0.0000000001
 40
-1.1178392931867
 40
-1.1178392931867
 40
-1.1178392931867
 40
0.0
 40
0.0
 40
0.0
 10
53.19547712363116
 20
0.0000000000000009
 30
0.0
 10
53.75439677022449
 20
0.0000000000000009
 30
0.0
 10
54.31331641681784
 20
0.0000000000000009
 30
0.0
  0
SPLINE
  5
71
330
1F
100
AcDbEntity
  8
4STAR 2D
 62
     7
100
AcDbSpline
210
0.0
220
0.0
230
1.0
 70
    12
 71
     2
 72
     6
 73
     3
 74
     0
 42
0.0000000001
 43
0.0000000001
 40
0.0
 40
0.0
 40
0.0
 40
0.0224667132803239
 40
0.0224667132803239
 40
0.0224667132803239
 10
54.45650794842514
 20
0.3859723252673241
 30
0.0
 41
1.0
 10
54.45548288554274
 20
0.4000000000000027
 30
0.0
 41
0.7324447355991569
 10
54.44153999422063
 20
0.4000000000000013
 30
0.0
 41
1.0
  0
POLYLINE
  5
72
330
1F
100
AcDbEntity
  8
4STAR 2D
 62
     7
100
AcDb2dPolyline
 66
     1
 10
0.0
 20
0.0
 30
0.0
  0
VERTEX
  5
73
330
72
100
AcDbEntity
  8
4STAR 2D
 62
     7
100
AcDbVertex
100
AcDb2dVertex
 10
54.44153999422063
 20
0.4000000000000013
 30
0.0
  0
VERTEX
  5
74
330
72
100
AcDbEntity
  8
4STAR 2D
 62
     7
100
AcDbVertex
100
AcDb2dVertex
 10
53.05845285524545
 20
0.4000000000000012
 30
0.0
  0
SEQEND
  5
75
330
72
100
AcDbEntity
  8
4STAR 2D
 62
     7
  0
SPLINE
  5
76
330
1F
100
AcDbEntity
  8
4STAR 2D
 62
     7
100
AcDbSpline
210
0.0
220
0.0
230
1.0
 70
    12
 71
     2
 72
     6
 73
     3
 74
     0
 42
0.0000000001
 43
0.0000000001
 40
-0.0343035516322866
 40
-0.0343035516322866
 40
-0.0343035516322866
 40
0.0
 40
0.0
 40
0.0
 10
39.43477863746962
 20
0.4026979553860967
 30
0.0
 41
1.0
 10
39.4172123336666
 20
0.4106979125380342
 30
0.0
 41
0.8409683921870034
 10
39.41721239535148
 20
0.4300445944567929
 30
0.0
 41
1.0
  0
SPLINE
  5
77
330
1F
100
AcDbEntity
  8
4STAR 2D
 62
     7
100
AcDbSpline
210
0.0
220
0.0
230
1.0
 70
    12
 71
     2
 72
     6
 73
     3
 74
     0
 42
0.0000000001
 43
0.0000000001
 40
0.0
 40
0.0
 40
0.0
 40
1.142633473844296
 40
1.142633473844296
 40
1.142633473844296
 10
39.41721241108762
 20
2.645833298418005
 30
0.0
 41
1.0
 10
39.37548369712562
 20
3.215630097155969
 30
0.0
 41
0.9999842323080803
 10
39.32735821145461
 20
3.784922301402296
 30
0.0
 41
1.0
  0
SPLINE
  5
78
330
1F
100
AcDbEntity
  8
4STAR 2D
 62
     7
100
AcDbSpline
210
0.0
220
0.0
230
1.0
 70
     8
 71
     3
 72
     8
 73
     4
 74
     0
 42
0.0000000001
 43
0.0000000001
 40
-1.0
 40
-1.0
 40
-1.0
 40
-1.0
 40
0.0
 40
0.0
 40
0.0
 40
0.0
 10
39.32735821145461
 20
3.784922301402296
 30
0.0
 10
39.29889446234243
 20
4.121629354790442
 30
0.0
 10
39.36064010605942
 20
4.702001457415596
 30
0.0
 10
39.39163295278594
 20
5.042681719673671
 30
0.0
  0
LINE
  5
79
330
1F
100
AcDbEntity
  8
4STAR 2D
 62
     7
100
AcDbLine
 10
39.41721239535148
 20
0.4300445944567929
 30
0.0
 11
39.41721241108762
 21
2.645833298418005
 31
0.0
  0
SPLINE
  5
7A
330
1F
100
AcDbEntity
  8
4STAR 2D
 62
     7
100
AcDbSpline
210
0.0
220
0.0
230
1.0
 70
     8
 71
     3
 72
    12
 73
     8
 74
     0
 42
0.0000000001
 43
0.0000000001
 40
0.0
 40
0.0
 40
0.0
 40
0.0
 40
1.0
 40
2.0
 40
3.0
 40
4.0
 40
5.0
 40
5.0
 40
5.0
 40
5.0
 10
39.41721239629872
 20
2.645833298418
 30
0.0
 10
39.41758193248783
 20
2.747790985019149
 30
0.0
 10
39.45493086216972
 20
2.947795791640983
 30
0.0
 10
39.64982169796041
 20
3.211651080471766
 30
0.0
 10
39.98960307236705
 20
3.211651113476493
 30
0.0
 10
40.18449395720823
 20
2.94779573829043
 30
0.0
 10
40.22184285453575
 20
2.747790993604342
 30
0.0
 10
40.22221239629876
 20
2.645833298418
 30
0.0
  0
SPLINE
  5
7B
330
1F
100
AcDbEntity
  8
4STAR 2D
 62
     7
100
AcDbSpline
210
0.0
220
0.0
230
1.0
 70
    12
 71
     2
 72
    20
 73
    17
 74
     0
 42
0.0000000001
 43
0.0000000001
 40
0.0
 40
0.0
 40
0.0
 40
0.2255555232297128
 40
0.2255555232297128
 40
0.3498085556099202
 40
0.3498085556099202
 40
0.4740615879901277
 40
0.4740615879901277
 40
0.9777325427188074
 40
0.9777325427188074
 40
1.10188499768713
 40
1.10188499768713
 40
1.226037452655453
 40
1.226037452655453
 40
1.451954175298031
 40
1.451954175298031
 40
1.474961195965689
 40
1.474961195965689
 40
1.474961195965689
 10
40.22213567531399
 20
0.3882375328297014
 30
0.0
 41
1.0
 10
40.22499622423997
 20
0.2725751527994181
 30
0.0
 41
0.9999999835043444
 10
40.22750357469077
 20
0.1596446425376397
 30
0.0
 41
1.0
 10
40.22896424083515
 20
0.0938466362517804
 30
0.0
 41
0.9217416924384133
 10
40.18307284581475
 20
0.046923781041797
 30
0.0
 41
1.0
 10
40.13718145079432
 20
0.0000009258318137
 30
0.0
 41
0.9217416924384133
 10
40.07154781248958
 20
0.0000000000019885
 30
0.0
 41
1.0
 10
39.81971233512523
 20
0.0000000000020303
 30
0.0
 41
1.0
 10
39.56787685776088
 20
0.0000000000020721
 30
0.0
 41
1.0
 10
39.50230696860923
 20
0.0000415045432547
 30
0.0
 41
0.9219606608938025
 10
39.45643618254887
 20
0.046895352540922
 30
0.0
 41
1.0
 10
39.41056539648844
 20
0.0937492005385892
 30
0.0
 41
0.9219606608938025
 10
39.41191513027614
 20
0.1593847513956395
 30
0.0
 41
1.0
 10
39.41442462714817
 20
0.2723947785347779
 30
0.0
 41
0.9999999834523676
 10
39.41689259933058
 20
0.38532669748455
 30
0.0
 41
1.0
 10
39.41772929659387
 20
0.3994706535846757
 30
0.0
 41
0.7403604038404529
 10
39.43188754449334
 20
0.399999999906409
 30
0.0
 41
1.0
  0
SPLINE
  5
7C
330
1F
100
AcDbEntity
  8
4STAR 2D
 62
     7
100
AcDbSpline
210
0.0
220
0.0
230
1.0
 70
    12
 71
     2
 72
     6
 73
     3
 74
     0
 42
0.0000000001
 43
0.0000000001
 40
0.0
 40
0.0
 40
0.0
 40
0.0224667132803239
 40
0.0224667132803239
 40
0.0224667132803239
 10
25.18291684417234
 20
0.3859723252673241
 30
0.0
 41
1.0
 10
25.18394190705474
 20
0.4000000000000027
 30
0.0
 41
0.7324447355991569
 10
25.19788479837682
 20
0.4000000000000013
 30
0.0
 41
1.0
  0
SPLINE
  5
7D
330
1F
100
AcDbEntity
  8
4STAR 2D
 62
     7
100
AcDbSpline
210
0.0
220
0.0
230
1.0
 70
    12
 71
     2
 72
     8
 73
     5
 74
     0
 42
0.0000000001
 43
0.0000000001
 40
0.0
 40
0.0
 40
0.0
 40
0.1269465231438404
 40
0.1269465231438404
 40
0.2538930462876808
 40
0.2538930462876808
 40
0.2538930462876808
 10
25.32610837577964
 20
0.0000000000000009
 30
0.0
 41
1.0
 10
25.25888381144425
 20
-0.0000000000000234
 30
0.0
 41
0.9183600648443049
 10
25.21271596933597
 20
0.0488638148852971
 30
0.0
 41
1.0
 10
25.16654812722773
 20
0.0977276297706175
 30
0.0
 41
0.9183600648443049
 10
25.17035927517263
 20
0.1648440748599009
 30
0.0
 41
1.0
  0
SPLINE
  5
7E
330
1F
100
AcDbEntity
  8
4STAR 2D
 62
     7
100
AcDbSpline
210
0.0
220
0.0
230
1.0
 70
    24
 71
     2
 72
     6
 73
     3
 74
     0
 42
0.0000000001
 43
0.0000000001
 40
-2.579999999999998
 40
-2.579999999999998
 40
-2.579999999999998
 40
0.0
 40
0.0
 40
0.0
 10
41.10971239629872
 20
6.503000000000002
 30
0.0
 10
39.81971239629875
 20
6.503000000000002
 30
0.0
 10
38.52971239629873
 20
6.503000000000002
 30
0.0
  0
SPLINE
  5
7F
330
1F
100
AcDbEntity
  8
4STAR 2D
 62
     7
100
AcDbSpline
210
0.0
220
0.0
230
1.0
 70
    12
 71
     2
 72
     6
 73
     3
 74
     0
 42
0.0000000001
 43
0.0000000001
 40
0.0
 40
0.0
 40
0.0
 40
0.0200867229109254
 40
0.0200867229109254
 40
0.0200867229109254
 10
40.20753808939547
 20
0.3999999998842094
 30
0.0
 41
1.0
 10
40.21920773789319
 20
0.3995431334531431
 30
0.0
 41
0.802617145546988
 10
40.22213567531399
 20
0.3882375328297014
 30
0.0
 41
1.0
  0
SPLINE
  5
80
330
1F
100
AcDbEntity
  8
4STAR 2D
 62
     7
100
AcDbSpline
210
0.0
220
0.0
230
1.0
 70
     8
 71
     2
 72
     6
 73
     3
 74
     0
 42
0.0000000001
 43
0.0000000001
 40
-0.2213623405233065
 40
-0.2213623405233065
 40
-0.2213623405233065
 40
0.0
 40
0.0
 40
0.0
 10
25.17035927517263
 20
0.1648440748599009
 30
0.0
 10
25.17663409924556
 20
0.2753472333366753
 30
0.0
 10
25.18291684417234
 20
0.3859723252673241
 30
0.0
  0
POLYLINE
  5
81
330
1F
100
AcDbEntity
  8
4STAR 2D
 62
     7
100
AcDb2dPolyline
 66
     1
 10
0.0
 20
0.0
 30
0.0
  0
VERTEX
  5
82
330
81
100
AcDbEntity
  8
4STAR 2D
 62
     7
100
AcDbVertex
100
AcDb2dVertex
 10
39.43188754449334
 20
0.399999999906409
 30
0.0
  0
VERTEX
  5
83
330
81
100
AcDbEntity
  8
4STAR 2D
 62
     7
100
AcDbVertex
100
AcDb2dVertex
 10
40.20753808939547
 20
0.3999999998842094
 30
0.0
  0
SEQEND
  5
84
330
81
100
AcDbEntity
  8
4STAR 2D
 62
     7
  0
POLYLINE
  5
85
330
1F
100
AcDbEntity
  8
4STAR 2D
 62
     7
100
AcDb2dPolyline
 66
     1
 10
0.0
 20
0.0
 30
0.0
  0
VERTEX
  5
86
330
85
100
AcDbEntity
  8
4STAR 2D
 62
     7
100
AcDbVertex
100
AcDb2dVertex
 10
54.4336383684212
 20
0.4015944354498296
 30
0.0
  0
VERTEX
  5
87
330
85
100
AcDbEntity
  8
4STAR 2D
 62
     7
100
AcDbVertex
100
AcDb2dVertex
 10
53.05986809052847
 20
0.4030710872597238
 30
0.0
  0
SEQEND
  5
88
330
85
100
AcDbEntity
  8
4STAR 2D
 62
     7
  0
SPLINE
  5
89
330
1F
100
AcDbEntity
  8
4STAR 2D
 62
     7
100
AcDbSpline
210
0.0
220
0.0
230
1.0
 70
     8
 71
     3
 72
    12
 73
     8
 74
     0
 42
0.0000000001
 43
0.0000000001
 40
-3.0858126895768
 40
-3.0858126895768
 40
-3.0858126895768
 40
-3.0858126895768
 40
-2.642265590548921
 40
-2.208270161634103
 40
-2.121481653565311
 40
-2.02509803859557
 40
0.0
 40
0.0
 40
0.0
 40
0.0
 10
13.886
 20
3.205665827232833
 30
0.0
 10
14.03031619629334
 20
3.175829891605608
 30
0.0
 10
14.30117307995249
 20
3.03468134273648
 30
0.0
 10
14.46998608842779
 20
2.748295505813291
 30
0.0
 10
14.51542090765955
 20
2.546824012142999
 30
0.0
 10
14.55811249458455
 20
1.811932359792708
 30
0.0
 10
14.59576901855519
 20
1.10581410256726
 30
0.0
 10
14.634223910099
 20
0.4317678748060569
 30
0.0
  0
SPLINE
  5
8A
330
1F
100
AcDbEntity
  8
4STAR 2D
 62
     7
100
AcDbSpline
210
0.0
220
0.0
230
1.0
 70
    12
 71
     2
 72
     6
 73
     3
 74
     0
 42
0.0000000001
 43
0.0000000001
 40
0.0
 40
0.0
 40
0.0
 40
0.0389746357819461
 40
0.0389746357819461
 40
0.0389746357819461
 10
14.634223910099
 20
0.4317678748060569
 30
0.0
 41
1.0
 10
14.63550106568468
 20
0.4089240281822228
 30
0.0
 41
0.7963395613957778
 10
14.61392597212247
 20
0.4015944354498296
 30
0.0
 41
1.0
  0
SPLINE
  5
8B
330
1F
100
AcDbEntity
  8
4STAR 2D
 62
     7
100
AcDbSpline
210
0.0
220
0.0
230
1.0
 70
     8
 71
     3
 72
    14
 73
    10
 74
     0
 42
0.0000000001
 43
0.0000000001
 40
-12.20116650812062
 40
-12.20116650812062
 40
-12.20116650812062
 40
-12.20116650812062
 40
-11.10618719586826
 40
-11.02462537061439
 40
-10.94889229604513
 40
-10.85569685307349
 40
-10.61101647346049
 40
-10.48392831467684
 40
-10.36850216633574
 40
-10.36850216633574
 40
-10.36850216633574
 40
-10.36850216633574
 10
13.22338474200185
 20
0.4293717115611809
 30
0.0
 10
13.2155254606499
 20
0.7942933853839997
 30
0.0
 10
13.20792318288201
 20
1.186363164752624
 30
0.0
 10
13.19851852435198
 20
1.603723456635179
 30
0.0
 10
13.19831737641883
 20
1.687141830407011
 30
0.0
 10
13.18744281017106
 20
1.825311740574662
 30
0.0
 10
13.10489928496006
 20
1.966156733401164
 30
0.0
 10
12.96880412818106
 20
2.056781907874129
 30
0.0
 10
12.88993679415759
 20
2.080240332423644
 30
0.0
 10
12.85103909141671
 20
2.085853658713474
 30
0.0
  0
SPLINE
  5
8C
330
1F
100
AcDbEntity
  8
4STAR 2D
 62
     7
100
AcDbSpline
210
0.0
220
0.0
230
1.0
 70
    12
 71
     2
 72
     6
 73
     3
 74
     0
 42
0.0000000001
 43
0.0000000001
 40
-0.0328025700600773
 40
-0.0328025700600773
 40
-0.0328025700600773
 40
0.0
 40
0.0
 40
0.0
 10
13.24015569422974
 20
0.4030710872597238
 30
0.0
 41
1.0
 10
13.22376711013519
 20
0.4111181083220299
 30
0.0
 41
0.8542398056055149
 10
13.22338474200185
 20
0.4293717115611809
 30
0.0
 41
1.0
  0
SPLINE
  5
8D
330
1F
100
AcDbEntity
  8
4STAR 2D
 62
     7
100
AcDbSpline
210
0.0
220
0.0
230
1.0
 70
    24
 71
     2
 72
     6
 73
     3
 74
     0
 42
0.0000000001
 43
0.0000000001
 40
-0.2265737189671924
 40
-0.2265737189671924
 40
-0.2265737189671924
 40
0.0
 40
0.0
 40
0.0
 10
-13.22374274351938
 20
0.385261786096561
 30
0.0
 10
-13.22176561520368
 20
0.2719921807503813
 30
0.0
 10
-13.21978848688795
 20
0.1587225754042016
 30
0.0
  0
SPLINE
  5
8E
330
1F
100
AcDbEntity
  8
4STAR 2D
 62
     7
100
AcDbSpline
210
0.0
220
0.0
230
1.0
 70
    24
 71
     2
 72
     6
 73
     3
 74
     0
 42
0.0000000001
 43
0.0000000001
 40
-1.1178392931867
 40
-1.1178392931867
 40
-1.1178392931867
 40
0.0
 40
0.0
 40
0.0
 10
-13.37576472733238
 20
0.0000000000000009
 30
0.0
 10
-13.93468437392573
 20
0.0000000000000009
 30
0.0
 10
-14.49360402051909
 20
0.0000000000000009
 30
0.0
  0
SPLINE
  5
8F
330
1F
100
AcDbEntity
  8
4STAR 2D
 62
     7
100
AcDbSpline
210
0.0
220
0.0
230
1.0
 70
    12
 71
     2
 72
     8
 73
     5
 74
     0
 42
0.0000000001
 43
0.0000000001
 40
0.0
 40
0.0
 40
0.0
 40
0.1238834703065744
 40
0.1238834703065744
 40
0.2477669406131487
 40
0.2477669406131487
 40
0.2477669406131487
 10
-13.21978848688795
 20
0.1587225754042016
 30
0.0
 41
1.0
 10
-13.21864681627056
 20
0.0933163095384199
 30
0.0
 41
0.9222009716703817
 10
-13.26449765726431
 20
0.0466581547691941
 30
0.0
 41
1.0
 10
-13.31034849825808
 20
-0.0000000000000317
 30
0.0
 41
0.9222009716703817
 10
-13.37576472733238
 20
0.0000000000000009
 30
0.0
 41
1.0
  0
SPLINE
  5
90
330
1F
100
AcDbEntity
  8
4STAR 2D
 62
     7
100
AcDbSpline
210
0.0
220
0.0
230
1.0
 70
     8
 71
     2
 72
     7
 73
     4
 74
     0
 42
0.0000000001
 43
0.0000000001
 40
-2.112820146863387
 40
-2.112820146863387
 40
-2.112820146863387
 40
0.0
 40
10.36850216633574
 40
10.36850216633574
 40
10.36850216633574
 10
-0.4852873050981827
 20
3.70091115472393
 30
0.0
 10
-1.533375166759726
 20
3.655344771851874
 30
0.0
 10
-7.718976483947984
 20
2.826461456234592
 30
0.0
 10
-12.85103909141668
 20
2.085853658713474
 30
0.0
  0
SPLINE
  5
91
330
1F
100
AcDbEntity
  8
4STAR 2D
 62
     7
100
AcDbSpline
210
0.0
220
0.0
230
1.0
 70
     8
 71
     3
 72
    14
 73
    10
 74
     0
 42
0.0000000001
 43
0.0000000001
 40
10.36850216633574
 40
10.36850216633574
 40
10.36850216633574
 40
10.36850216633574
 40
10.48392831467684
 40
10.61101647346049
 40
10.85569685307349
 40
10.94889229604513
 40
11.02462537061439
 40
11.10618719586826
 40
12.20116650812062
 40
12.20116650812062
 40
12.20116650812062
 40
12.20116650812062
 10
-12.85103909141668
 20
2.085853658713474
 30
0.0
 10
-12.88993679415756
 20
2.080240332423644
 30
0.0
 10
-12.96880412818101
 20
2.056781907874129
 30
0.0
 10
-13.10489928496
 20
1.966156733401164
 30
0.0
 10
-13.18744281017101
 20
1.825311740574662
 30
0.0
 10
-13.19831737641883
 20
1.687141830407011
 30
0.0
 10
-13.19851852435195
 20
1.603723456635179
 30
0.0
 10
-13.20792318288198
 20
1.186363164752624
 30
0.0
 10
-13.21552546064984
 20
0.7942933853839997
 30
0.0
 10
-13.22338474200185
 20
0.4293717115611809
 30
0.0
  0
SPLINE
  5
92
330
1F
100
AcDbEntity
  8
4STAR 2D
 62
     7
100
AcDbSpline
210
0.0
220
0.0
230
1.0
 70
    12
 71
     2
 72
     6
 73
     3
 74
     0
 42
0.0000000001
 43
0.0000000001
 40
0.0
 40
0.0
 40
0.0
 40
0.0328025700600773
 40
0.0328025700600773
 40
0.0328025700600773
 10
-13.22338474200185
 20
0.4293717115611809
 30
0.0
 41
1.0
 10
-13.22376711013514
 20
0.4111181083220299
 30
0.0
 41
0.8542398056055149
 10
-13.24015569422971
 20
0.4030710872597238
 30
0.0
 41
1.0
  0
SPLINE
  5
93
330
1F
100
AcDbEntity
  8
4STAR 2D
 62
     7
100
AcDbSpline
210
0.0
220
0.0
230
1.0
 70
    12
 71
     2
 72
     6
 73
     3
 74
     0
 42
0.0000000001
 43
0.0000000001
 40
-0.0389746357819461
 40
-0.0389746357819461
 40
-0.0389746357819461
 40
0.0
 40
0.0
 40
0.0
 10
-14.61392597212242
 20
0.4015944354498296
 30
0.0
 41
1.0
 10
-14.63550106568464
 20
0.4089240281822228
 30
0.0
 41
0.7963395613957778
 10
-14.63422391009894
 20
0.4317678748060569
 30
0.0
 41
1.0
  0
SPLINE
  5
94
330
1F
100
AcDbEntity
  8
4STAR 2D
 62
     7
100
AcDbSpline
210
0.0
220
0.0
230
1.0
 70
     8
 71
     3
 72
    12
 73
     8
 74
     0
 42
0.0000000001
 43
0.0000000001
 40
0.0
 40
0.0
 40
0.0
 40
0.0
 40
2.02509803859557
 40
2.121481653565311
 40
2.208270161634103
 40
2.642265590548921
 40
3.0858126895768
 40
3.0858126895768
 40
3.0858126895768
 40
3.0858126895768
 10
-14.63422391009894
 20
0.4317678748060569
 30
0.0
 10
-14.59576901855516
 20
1.10581410256726
 30
0.0
 10
-14.55811249458455
 20
1.811932359792708
 30
0.0
 10
-14.51542090765955
 20
2.546824012142999
 30
0.0
 10
-14.46998608842776
 20
2.748295505813291
 30
0.0
 10
-14.30117307995246
 20
3.03468134273648
 30
0.0
 10
-14.03031619629334
 20
3.175829891605608
 30
0.0
 10
-13.88599999999994
 20
3.205665827232833
 30
0.0
  0
POLYLINE
  5
95
330
1F
100
AcDbEntity
  8
4STAR 2D
 62
     7
100
AcDb2dPolyline
 66
     1
 10
0.0
 20
0.0
 30
0.0
  0
VERTEX
  5
96
330
95
100
AcDbEntity
  8
4STAR 2D
 62
     7
100
AcDbVertex
100
AcDb2dVertex
 10
-1.28804186870704
 20
6.462944790227148
 30
0.0
  0
VERTEX
  5
97
330
95
100
AcDbEntity
  8
4STAR 2D
 62
     7
100
AcDbVertex
100
AcDb2dVertex
 10
1.288041868707097
 20
6.462944790227148
 30
0.0
  0
SEQEND
  5
98
330
95
100
AcDbEntity
  8
4STAR 2D
 62
     7
  0
SPLINE
  5
99
330
1F
100
AcDbEntity
  8
4STAR 2D
 62
     7
100
AcDbSpline
210
0.0
220
0.0
230
1.0
 70
     8
 71
     3
 72
    11
 73
     7
 74
     0
 42
0.0000000001
 43
0.0000000001
 40
29.02279843217129
 40
29.02279843217129
 40
29.02279843217129
 40
29.02279843217129
 40
29.27279843217141
 40
29.52279843217158
 40
29.77279843217175
 40
30.00957021186727
 40
30.00957021186727
 40
30.00957021186727
 40
30.00957021186727
 10
-1.849999999999937
 20
5.692725175023857
 30
0.0
 10
-1.777532259027794
 20
5.70769954961662
 30
0.0
 10
-1.635884798349906
 20
5.77196445074997
 30
0.0
 10
-1.455036746424923
 20
5.941965920377478
 30
0.0
 10
-1.329819103791436
 20
6.152448109995484
 30
0.0
 10
-1.294568701792514
 20
6.300934325093533
 30
0.0
 10
-1.291736537951948
 20
6.371234909639895
 30
0.0
  0
LINE
  5
9A
330
1F
100
AcDbEntity
  8
4STAR 2D
 62
     7
100
AcDbLine
 10
1.288041868707097
 20
6.462944790227148
 30
0.0
 11
1.291736537951977
 21
6.371234909639895
 31
0.0
  0
SPLINE
  5
9B
330
1F
100
AcDbEntity
  8
4STAR 2D
 62
     7
100
AcDbSpline
210
0.0
220
0.0
230
1.0
 70
    24
 71
     2
 72
     6
 73
     3
 74
     0
 42
0.0000000001
 43
0.0000000001
 40
0.0
 40
0.0
 40
0.0
 40
12.29027095712029
 40
12.29027095712029
 40
12.29027095712029
 10
1.849999999999994
 20
5.692725175023857
 30
0.0
 10
7.867999999999967
 20
4.449195501128345
 30
0.0
 10
13.886
 20
3.205665827232833
 30
0.0
  0
SPLINE
  5
9C
330
1F
100
AcDbEntity
  8
4STAR 2D
 62
     7
100
AcDbSpline
210
0.0
220
0.0
230
1.0
 70
     8
 71
     3
 72
    11
 73
     7
 74
     0
 42
0.0000000001
 43
0.0000000001
 40
-30.00957021186727
 40
-30.00957021186727
 40
-30.00957021186727
 40
-30.00957021186727
 40
-29.77279843217175
 40
-29.52279843217158
 40
-29.27279843217141
 40
-29.02279843217129
 40
-29.02279843217129
 40
-29.02279843217129
 40
-29.02279843217129
 10
1.291736537951977
 20
6.371234909639895
 30
0.0
 10
1.294568701792542
 20
6.300934325093533
 30
0.0
 10
1.329819103791493
 20
6.152448109995484
 30
0.0
 10
1.455036746424952
 20
5.941965920377478
 30
0.0
 10
1.635884798349963
 20
5.77196445074997
 30
0.0
 10
1.777532259027822
 20
5.70769954961662
 30
0.0
 10
1.849999999999994
 20
5.692725175023857
 30
0.0
  0
SPLINE
  5
9D
330
1F
100
AcDbEntity
  8
4STAR 2D
 62
     7
100
AcDbSpline
210
0.0
220
0.0
230
1.0
 70
    12
 71
     2
 72
     6
 73
     3
 74
     0
 42
0.0000000001
 43
0.0000000001
 40
0.0
 40
0.0
 40
0.0
 40
0.0276977634380368
 40
0.0276977634380368
 40
0.0276977634380368
 10
0.4923521324612068
 20
3.784896487667917
 30
0.0
 41
1.0
 10
0.4930485967140222
 20
3.770987048242446
 30
0.0
 41
0.9916219010942138
 10
0.4901584403320101
 20
3.757363371658137
 30
0.0
 41
1.0
  0
POLYLINE
  5
9E
330
1F
100
AcDbEntity
  8
4STAR 2D
 62
     7
100
AcDb2dPolyline
 66
     1
 10
0.0
 20
0.0
 30
0.0
  0
VERTEX
  5
9F
330
9E
100
AcDbEntity
  8
4STAR 2D
 62
     7
100
AcDbVertex
100
AcDb2dVertex
 10
-13.24015569422971
 20
0.4030710872597238
 30
0.0
  0
VERTEX
  5
A0
330
9E
100
AcDbEntity
  8
4STAR 2D
 62
     7
100
AcDbVertex
100
AcDb2dVertex
 10
-14.61392597212242
 20
0.4015944354498296
 30
0.0
  0
SEQEND
  5
A1
330
9E
100
AcDbEntity
  8
4STAR 2D
 62
     7
  0
SPLINE
  5
A2
330
1F
100
AcDbEntity
  8
4STAR 2D
 62
     7
100
AcDbSpline
210
0.0
220
0.0
230
1.0
 70
    24
 71
     2
 72
     6
 73
     3
 74
     0
 42
0.0000000001
 43
0.0000000001
 40
-12.29027095712029
 40
-12.29027095712029
 40
-12.29027095712029
 40
0.0
 40
0.0
 40
0.0
 10
-13.88599999999994
 20
3.205665827232833
 30
0.0
 10
-7.867999999999967
 20
4.449195501128345
 30
0.0
 10
-1.849999999999937
 20
5.692725175023857
 30
0.0
  0
LINE
  5
A3
330
1F
100
AcDbEntity
  8
4STAR 2D
 62
     7
100
AcDbLine
 10
-1.291736537951948
 20
6.371234909639895
 30
0.0
 11
-1.28804186870704
 21
6.462944790227148
 31
0.0
  0
SPLINE
  5
A4
330
1F
100
AcDbEntity
  8
4STAR 2D
 62
     7
100
AcDbSpline
210
0.0
220
0.0
230
1.0
 70
     8
 71
     3
 72
    12
 73
     8
 74
     0
 42
0.0000000001
 43
0.0000000001
 40
-5.0
 40
-5.0
 40
-5.0
 40
-5.0
 40
-4.0
 40
-3.0
 40
-2.0
 40
-1.0
 40
0.0
 40
0.0
 40
0.0
 40
0.0
 10
-0.4280794435127859
 20
5.042681719673671
 30
0.0
 10
-0.417652653240026
 20
5.157295316675079
 30
0.0
 10
-0.3833216944182709
 20
5.379745552997914
 30
0.0
 10
-0.2006418435773298
 20
5.704291101129162
 30
0.0
 10
0.2006664286566604
 20
5.704267248842217
 30
0.0
 10
0.3833315636453847
 20
5.379757877824668
 30
0.0
 10
0.417652982203407
 20
5.157293835798621
 30
0.0
 10
0.4280809496310667
 20
5.042682536827708
 30
0.0
  0
SPLINE
  5
A5
330
1F
100
AcDbEntity
  8
4STAR 2D
 62
     7
100
AcDbSpline
210
0.0
220
0.0
230
1.0
 70
     8
 71
     3
 72
     8
 73
     4
 74
     0
 42
0.0000000001
 43
0.0000000001
 40
0.0
 40
0.0
 40
0.0
 40
0.0
 40
1.0
 40
1.0
 40
1.0
 40
1.0
 10
0.4280809496310667
 20
5.042682536827708
 30
0.0
 10
0.4590389253945943
 20
4.702430820433111
 30
0.0
 10
0.5191371764723556
 20
4.121637737752299
 30
0.0
 10
0.4923521324612068
 20
3.784896487667917
 30
0.0
  0
SPLINE
  5
A6
330
1F
100
AcDbEntity
  8
4STAR 2D
 62
     7
100
AcDbSpline
210
0.0
220
0.0
230
1.0
 70
     8
 71
     2
 72
     7
 73
     4
 74
     0
 42
0.0000000001
 43
0.0000000001
 40
-10.36850216633574
 40
-10.36850216633574
 40
-10.36850216633574
 40
0.0
 40
2.112820146863387
 40
2.112820146863387
 40
2.112820146863387
 10
12.85103909141671
 20
2.085853658713474
 30
0.0
 10
7.718976483948012
 20
2.826461456234592
 30
0.0
 10
1.533375166759754
 20
3.655344771851874
 30
0.0
 10
0.4852873050982396
 20
3.70091115472393
 30
0.0
  0
LINE
  5
A7
330
1F
100
AcDbEntity
  8
4STAR 2D
 62
     7
100
AcDbLine
 10
0.402500392775238
 20
2.645839045006541
 30
0.0
 11
0.402500404963348
 21
1.318318645839482
 31
0.0
  0
SPLINE
  5
A8
330
1F
100
AcDbEntity
  8
4STAR 2D
 62
     7
100
AcDbSpline
210
0.0
220
0.0
230
1.0
 70
    12
 71
     2
 72
     6
 73
     3
 74
     0
 42
0.0000000001
 43
0.0000000001
 40
0.0
 40
0.0
 40
0.0
 40
0.8883181399606292
 40
0.8883181399606292
 40
0.8883181399606292
 10
0.402500404963348
 20
1.318318645839482
 30
0.0
 41
1.0
 10
0.4025002776278395
 20
0.874159575859181
 30
0.0
 41
0.9999999999999857
 10
0.4024992751865568
 20
0.4298637235359951
 30
0.0
 41
1.0
  0
SPLINE
  5
A9
330
1F
100
AcDbEntity
  8
4STAR 2D
 62
     7
100
AcDbSpline
210
0.0
220
0.0
230
1.0
 70
    12
 71
     2
 72
     6
 73
     3
 74
     0
 42
0.0000000001
 43
0.0000000001
 40
0.0
 40
0.0
 40
0.0
 40
0.0370134418365288
 40
0.0370134418365288
 40
0.0370134418365288
 10
0.4024992751865568
 20
0.4298637235359951
 30
0.0
 41
1.0
 10
0.4022784584775244
 20
0.408438210824519
 30
0.0
 41
0.8149664195338971
 10
0.3820977227511833
 20
0.4016561472388268
 30
0.0
 41
1.0
  0
POLYLINE
  5
AA
330
1F
100
AcDbEntity
  8
4STAR 2D
 62
     7
100
AcDb2dPolyline
 66
     1
 10
0.0
 20
0.0
 30
0.0
  0
VERTEX
  5
AB
330
AA
100
AcDbEntity
  8
4STAR 2D
 62
     7
100
AcDbVertex
100
AcDb2dVertex
 10
0.3820977227511833
 20
0.4016561472388268
 30
0.0
  0
VERTEX
  5
AC
330
AA
100
AcDbEntity
  8
4STAR 2D
 62
     7
100
AcDbVertex
100
AcDb2dVertex
 10
-0.3849337588291064
 20
0.4026979553860967
 30
0.0
  0
SEQEND
  5
AD
330
AA
100
AcDbEntity
  8
4STAR 2D
 62
     7
  0
SPLINE
  5
AE
330
1F
100
AcDbEntity
  8
4STAR 2D
 62
     7
100
AcDbSpline
210
0.0
220
0.0
230
1.0
 70
    12
 71
     2
 72
     6
 73
     3
 74
     0
 42
0.0000000001
 43
0.0000000001
 40
0.0
 40
0.0
 40
0.0
 40
0.0233001455140947
 40
0.0233001455140947
 40
0.0233001455140947
 10
13.23874045894672
 20
0.4000000000000012
 30
0.0
 41
1.0
 10
13.22399999999999
 20
0.3999999999999896
 30
0.0
 41
0.7132504491537722
 10
13.22374274351941
 20
0.385261786096561
 30
0.0
 41
1.0
  0
SPLINE
  5
AF
330
1F
100
AcDbEntity
  8
4STAR 2D
 62
     7
100
AcDbSpline
210
0.0
220
0.0
230
1.0
 70
    12
 71
     2
 72
     8
 73
     5
 74
     0
 42
0.0000000001
 43
0.0000000001
 40
0.0
 40
0.0
 40
0.0
 40
0.1238834703065744
 40
0.1238834703065744
 40
0.2477669406131487
 40
0.2477669406131487
 40
0.2477669406131487
 10
13.21978848688801
 20
0.1587225754042016
 30
0.0
 41
1.0
 10
13.21864681627057
 20
0.0933163095384199
 30
0.0
 41
0.9222009716703817
 10
13.26449765726434
 20
0.0466581547691941
 30
0.0
 41
1.0
 10
13.31034849825809
 20
-0.0000000000000317
 30
0.0
 41
0.9222009716703817
 10
13.37576472733244
 20
0.0000000000000009
 30
0.0
 41
1.0
  0
SPLINE
  5
B0
330
1F
100
AcDbEntity
  8
4STAR 2D
 62
     7
100
AcDbSpline
210
0.0
220
0.0
230
1.0
 70
    12
 71
     2
 72
     8
 73
     5
 74
     0
 42
0.0000000001
 43
0.0000000001
 40
0.0
 40
0.0
 40
0.0
 40
0.1269465231438404
 40
0.1269465231438404
 40
0.2538930462876808
 40
0.2538930462876808
 40
0.2538930462876808
 10
14.49360402051911
 20
0.0000000000000009
 30
0.0
 41
1.0
 10
14.56082858485449
 20
-0.0000000000000234
 30
0.0
 41
0.9183600648443049
 10
14.60699642696275
 20
0.0488638148852971
 30
0.0
 41
1.0
 10
14.65316426907104
 20
0.0977276297706175
 30
0.0
 41
0.9183600648443049
 10
14.6493531211261
 20
0.1648440748599009
 30
0.0
 41
1.0
  0
SPLINE
  5
B1
330
1F
100
AcDbEntity
  8
4STAR 2D
 62
     7
100
AcDbSpline
210
0.0
220
0.0
230
1.0
 70
     8
 71
     2
 72
     6
 73
     3
 74
     0
 42
0.0000000001
 43
0.0000000001
 40
-0.2213623405233065
 40
-0.2213623405233065
 40
-0.2213623405233065
 40
0.0
 40
0.0
 40
0.0
 10
14.6493531211261
 20
0.1648440748599009
 30
0.0
 10
14.64307829705322
 20
0.2753472333366753
 30
0.0
 10
14.63679555212642
 20
0.3859723252673241
 30
0.0
  0
SPLINE
  5
B2
330
1F
100
AcDbEntity
  8
4STAR 2D
 62
     7
100
AcDbSpline
210
0.0
220
0.0
230
1.0
 70
    12
 71
     2
 72
     6
 73
     3
 74
     0
 42
0.0000000001
 43
0.0000000001
 40
0.0
 40
0.0
 40
0.0
 40
0.0233001455140947
 40
0.0233001455140947
 40
0.0233001455140947
 10
-13.23874045894669
 20
0.4000000000000012
 30
0.0
 41
1.0
 10
-13.22399999999996
 20
0.3999999999999896
 30
0.0
 41
0.7132504491537722
 10
-13.22374274351938
 20
0.385261786096561
 30
0.0
 41
1.0
  0
SPLINE
  5
B3
330
1F
100
AcDbEntity
  8
4STAR 2D
 62
     7
100
AcDbSpline
210
0.0
220
0.0
230
1.0
 70
    12
 71
     2
 72
    28
 73
    25
 74
     0
 42
0.0000000001
 43
0.0000000001
 40
0.0
 40
0.0
 40
0.0
 40
0.1540216414111597
 40
0.1540216414111597
 40
0.2901790848036704
 40
0.2901790848036704
 40
0.4125187213470968
 40
0.4125187213470968
 40
0.5235565796151631
 40
0.5235565796151631
 40
0.6251094707772871
 40
0.6251094707772871
 40
0.7185505680812745
 40
0.7185505680812745
 40
0.804527306064451
 40
0.804527306064451
 40
0.8835369424496379
 40
0.8835369424496379
 40
0.956096405573554
 40
0.956096405573554
 40
1.022829496748906
 40
1.022829496748906
 40
1.084573035640182
 40
1.084573035640182
 40
1.142610152573474
 40
1.142610152573474
 40
1.142610152573474
 10
0.4923521324612068
 20
3.784896487667917
 30
0.0
 41
1.0
 10
0.4862458584850071
 20
3.708128484925791
 30
0.0
 41
0.9999992266822498
 10
0.4799486603694163
 20
3.631375907621956
 30
0.0
 41
1.0
 10
0.4743870072160379
 20
3.563525086088881
 30
0.0
 41
0.999999943592941
 10
0.4687797761066008
 20
3.495678015939925
 30
0.0
 41
1.0
 10
0.4637440184135372
 20
3.434716141472609
 30
0.0
 41
0.9999999896650592
 10
0.4587257899349027
 20
3.373752821541293
 30
0.0
 41
1.0
 10
0.4541724214506696
 20
3.318421206909444
 30
0.0
 41
0.9999999204687999
 10
0.4496631898144017
 20
3.263085977874307
 30
0.0
 41
1.0
 10
0.4455396716928604
 20
3.212477495132922
 30
0.0
 41
0.9999998558573179
 10
0.4414705015667835
 20
3.16186461355551
 30
0.0
 41
1.0
 10
0.4377265343055611
 20
3.115294548757072
 30
0.0
 41
0.9999998050943961
 10
0.4340407218610949
 20
3.0687198451852
 30
0.0
 41
1.0
 10
0.4306493021495196
 20
3.025865672648839
 30
0.0
 41
0.9999997586473189
 10
0.4273174332815586
 20
2.983006828972381
 30
0.0
 41
1.0
 10
0.424255392128921
 20
2.943621051750709
 30
0.0
 41
0.9999997032638387
 10
0.4212540379526502
 20
2.904230603460748
 30
0.0
 41
1.0
 10
0.4184974792562877
 20
2.868055920441487
 30
0.0
 41
0.9999996264853681
 10
0.4158034568246194
 20
2.831876526437055
 30
0.0
 41
1.0
 10
0.4133255475787704
 20
2.798602274891143
 30
0.0
 41
0.9999995214040918
 10
0.4109127515510806
 20
2.765323238464286
 30
0.0
 41
1.0
 10
0.4086805658379624
 20
2.734532418213321
 30
0.0
 41
0.9999994294407313
 10
0.4065141686205038
 20
2.703736899255506
 30
0.0
 41
1.0
 10
0.4044791644706627
 20
2.674789921291922
 30
0.0
 41
0.9999995283042846
 10
0.4025003927752375
 20
2.645839045006541
 30
0.0
 41
0.9999999999063802
  0
POLYLINE
  5
B4
330
1F
100
AcDbEntity
  8
4STAR 2D
 62
     7
100
AcDb2dPolyline
 66
     1
 10
0.0
 20
0.0
 30
0.0
  0
VERTEX
  5
B5
330
B4
100
AcDbEntity
  8
4STAR 2D
 62
     7
100
AcDbVertex
100
AcDb2dVertex
 10
-14.62182759792191
 20
0.4000000000000013
 30
0.0
  0
VERTEX
  5
B6
330
B4
100
AcDbEntity
  8
4STAR 2D
 62
     7
100
AcDbVertex
100
AcDb2dVertex
 10
-13.23874045894669
 20
0.4000000000000012
 30
0.0
  0
SEQEND
  5
B7
330
B4
100
AcDbEntity
  8
4STAR 2D
 62
     7
  0
SPLINE
  5
B8
330
1F
100
AcDbEntity
  8
4STAR 2D
 62
     7
100
AcDbSpline
210
0.0
220
0.0
230
1.0
 70
    24
 71
     2
 72
     6
 73
     3
 74
     0
 42
0.0000000001
 43
0.0000000001
 40
-0.2265737189671924
 40
-0.2265737189671924
 40
-0.2265737189671924
 40
0.0
 40
0.0
 40
0.0
 10
13.22374274351941
 20
0.385261786096561
 30
0.0
 10
13.22176561520371
 20
0.2719921807503813
 30
0.0
 10
13.21978848688801
 20
0.1587225754042016
 30
0.0
  0
SPLINE
  5
B9
330
1F
100
AcDbEntity
  8
4STAR 2D
 62
     7
100
AcDbSpline
210
0.0
220
0.0
230
1.0
 70
    24
 71
     2
 72
     6
 73
     3
 74
     0
 42
0.0000000001
 43
0.0000000001
 40
-1.1178392931867
 40
-1.1178392931867
 40
-1.1178392931867
 40
0.0
 40
0.0
 40
0.0
 10
13.37576472733244
 20
0.0000000000000009
 30
0.0
 10
13.93468437392576
 20
0.0000000000000009
 30
0.0
 10
14.49360402051911
 20
0.0000000000000009
 30
0.0
  0
SPLINE
  5
BA
330
1F
100
AcDbEntity
  8
4STAR 2D
 62
     7
100
AcDbSpline
210
0.0
220
0.0
230
1.0
 70
    12
 71
     2
 72
     6
 73
     3
 74
     0
 42
0.0000000001
 43
0.0000000001
 40
0.0
 40
0.0
 40
0.0
 40
0.0224667132803239
 40
0.0224667132803239
 40
0.0224667132803239
 10
14.63679555212642
 20
0.3859723252673241
 30
0.0
 41
1.0
 10
14.63577048924401
 20
0.4000000000000027
 30
0.0
 41
0.7324447355991569
 10
14.62182759792191
 20
0.4000000000000013
 30
0.0
 41
1.0
  0
POLYLINE
  5
BB
330
1F
100
AcDbEntity
  8
4STAR 2D
 62
     7
100
AcDb2dPolyline
 66
     1
 10
0.0
 20
0.0
 30
0.0
  0
VERTEX
  5
BC
330
BB
100
AcDbEntity
  8
4STAR 2D
 62
     7
100
AcDbVertex
100
AcDb2dVertex
 10
14.62182759792191
 20
0.4000000000000013
 30
0.0
  0
VERTEX
  5
BD
330
BB
100
AcDbEntity
  8
4STAR 2D
 62
     7
100
AcDbVertex
100
AcDb2dVertex
 10
13.23874045894672
 20
0.4000000000000012
 30
0.0
  0
SEQEND
  5
BE
330
BB
100
AcDbEntity
  8
4STAR 2D
 62
     7
  0
SPLINE
  5
BF
330
1F
100
AcDbEntity
  8
4STAR 2D
 62
     7
100
AcDbSpline
210
0.0
220
0.0
230
1.0
 70
    12
 71
     2
 72
     6
 73
     3
 74
     0
 42
0.0000000001
 43
0.0000000001
 40
-0.0343035516322866
 40
-0.0343035516322866
 40
-0.0343035516322866
 40
0.0
 40
0.0
 40
0.0
 10
-0.3849337588291064
 20
0.4026979553860967
 30
0.0
 41
1.0
 10
-0.402500062632119
 20
0.4106979125380342
 30
0.0
 41
0.8409683921870034
 10
-0.4025000009472421
 20
0.4300445944567929
 30
0.0
 41
1.0
  0
SPLINE
  5
C0
330
1F
100
AcDbEntity
  8
4STAR 2D
 62
     7
100
AcDbSpline
210
0.0
220
0.0
230
1.0
 70
    12
 71
     2
 72
     6
 73
     3
 74
     0
 42
0.0000000001
 43
0.0000000001
 40
0.0
 40
0.0
 40
0.0
 40
1.142633473844296
 40
1.142633473844296
 40
1.142633473844296
 10
-0.402499985211108
 20
2.645833298418005
 30
0.0
 41
1.0
 10
-0.4442286991731148
 20
3.215630097155969
 30
0.0
 41
0.9999842323080803
 10
-0.4923541848441175
 20
3.784922301402296
 30
0.0
 41
1.0
  0
SPLINE
  5
C1
330
1F
100
AcDbEntity
  8
4STAR 2D
 62
     7
100
AcDbSpline
210
0.0
220
0.0
230
1.0
 70
     8
 71
     3
 72
     8
 73
     4
 74
     0
 42
0.0000000001
 43
0.0000000001
 40
-1.0
 40
-1.0
 40
-1.0
 40
-1.0
 40
0.0
 40
0.0
 40
0.0
 40
0.0
 10
-0.4923541848441175
 20
3.784922301402296
 30
0.0
 10
-0.5208179339562946
 20
4.121629354790442
 30
0.0
 10
-0.4590722902393054
 20
4.702001457415596
 30
0.0
 10
-0.4280794435127859
 20
5.042681719673671
 30
0.0
  0
LINE
  5
C2
330
1F
100
AcDbEntity
  8
4STAR 2D
 62
     7
100
AcDbLine
 10
-0.4025000009472421
 20
0.4300445944567929
 30
0.0
 11
-0.402499985211108
 21
2.645833298418005
 31
0.0
  0
SPLINE
  5
C3
330
1F
100
AcDbEntity
  8
4STAR 2D
 62
     7
100
AcDbSpline
210
0.0
220
0.0
230
1.0
 70
     8
 71
     3
 72
    12
 73
     8
 74
     0
 42
0.0000000001
 43
0.0000000001
 40
0.0
 40
0.0
 40
0.0
 40
0.0
 40
1.0
 40
2.0
 40
3.0
 40
4.0
 40
5.0
 40
5.0
 40
5.0
 40
5.0
 10
-0.4025000000000034
 20
2.645833298418
 30
0.0
 10
-0.4021304638108916
 20
2.747790985019149
 30
0.0
 10
-0.3647815341290084
 20
2.947795791640983
 30
0.0
 10
-0.169890698338321
 20
3.211651080471766
 30
0.0
 10
0.1698906760683201
 20
3.211651113476493
 30
0.0
 10
0.3647815609095062
 20
2.94779573829043
 30
0.0
 10
0.4021304582370249
 20
2.747790993604342
 30
0.0
 10
0.4025000000000318
 20
2.645833298418
 30
0.0
  0
SPLINE
  5
C4
330
1F
100
AcDbEntity
  8
4STAR 2D
 62
     7
100
AcDbSpline
210
0.0
220
0.0
230
1.0
 70
    12
 71
     2
 72
    20
 73
    17
 74
     0
 42
0.0000000001
 43
0.0000000001
 40
0.0
 40
0.0
 40
0.0
 40
0.2255555232297128
 40
0.2255555232297128
 40
0.3498085556099202
 40
0.3498085556099202
 40
0.4740615879901277
 40
0.4740615879901277
 40
0.9777325427188074
 40
0.9777325427188074
 40
1.10188499768713
 40
1.10188499768713
 40
1.226037452655453
 40
1.226037452655453
 40
1.451954175298031
 40
1.451954175298031
 40
1.474961195965689
 40
1.474961195965689
 40
1.474961195965689
 10
0.4024232790152666
 20
0.3882375328297014
 30
0.0
 41
1.0
 10
0.4052838279412331
 20
0.2725751527994181
 30
0.0
 41
0.9999999835043444
 10
0.4077911783920456
 20
0.1596446425376397
 30
0.0
 41
1.0
 10
0.4092518445364369
 20
0.0938466362517804
 30
0.0
 41
0.9217416924384133
 10
0.3633604495160228
 20
0.046923781041797
 30
0.0
 41
1.0
 10
0.3174690544955984
 20
0.0000009258318137
 30
0.0
 41
0.9217416924384133
 10
0.2518354161908576
 20
0.0000000000019885
 30
0.0
 41
1.0
 10
-0.0000000611734947
 20
0.0000000000020303
 30
0.0
 41
1.0
 10
-0.251835538537847
 20
0.0000000000020721
 30
0.0
 41
1.0
 10
-0.3174054276894908
 20
0.0000415045432547
 30
0.0
 41
0.9219606608938025
 10
-0.363276213749856
 20
0.046895352540922
 30
0.0
 41
1.0
 10
-0.4091469998102816
 20
0.0937492005385892
 30
0.0
 41
0.9219606608938025
 10
-0.4077972660225839
 20
0.1593847513956395
 30
0.0
 41
1.0
 10
-0.4052877691505495
 20
0.2723947785347779
 30
0.0
 41
0.9999999834523676
 10
-0.4028197969681457
 20
0.38532669748455
 30
0.0
 41
1.0
 10
-0.4019830997048521
 20
0.3994706535846757
 30
0.0
 41
0.7403604038404529
 10
-0.3878248518053908
 20
0.399999999906409
 30
0.0
 41
1.0
  0
SPLINE
  5
C5
330
1F
100
AcDbEntity
  8
4STAR 2D
 62
     7
100
AcDbSpline
210
0.0
220
0.0
230
1.0
 70
    12
 71
     2
 72
     6
 73
     3
 74
     0
 42
0.0000000001
 43
0.0000000001
 40
0.0
 40
0.0
 40
0.0
 40
0.0224667132803239
 40
0.0224667132803239
 40
0.0224667132803239
 10
-14.63679555212639
 20
0.3859723252673241
 30
0.0
 41
1.0
 10
-14.63577048924398
 20
0.4000000000000027
 30
0.0
 41
0.7324447355991569
 10
-14.62182759792191
 20
0.4000000000000013
 30
0.0
 41
1.0
  0
SPLINE
  5
C6
330
1F
100
AcDbEntity
  8
4STAR 2D
 62
     7
100
AcDbSpline
210
0.0
220
0.0
230
1.0
 70
    12
 71
     2
 72
     8
 73
     5
 74
     0
 42
0.0000000001
 43
0.0000000001
 40
0.0
 40
0.0
 40
0.0
 40
0.1269465231438404
 40
0.1269465231438404
 40
0.2538930462876808
 40
0.2538930462876808
 40
0.2538930462876808
 10
-14.49360402051909
 20
0.0000000000000009
 30
0.0
 41
1.0
 10
-14.56082858485447
 20
-0.0000000000000234
 30
0.0
 41
0.9183600648443049
 10
-14.60699642696275
 20
0.0488638148852971
 30
0.0
 41
1.0
 10
-14.65316426907099
 20
0.0977276297706175
 30
0.0
 41
0.9183600648443049
 10
-14.6493531211261
 20
0.1648440748599009
 30
0.0
 41
1.0
  0
SPLINE
  5
C7
330
1F
100
AcDbEntity
  8
4STAR 2D
 62
     7
100
AcDbSpline
210
0.0
220
0.0
230
1.0
 70
    24
 71
     2
 72
     6
 73
     3
 74
     0
 42
0.0000000001
 43
0.0000000001
 40
-2.579999999999998
 40
-2.579999999999998
 40
-2.579999999999998
 40
0.0
 40
0.0
 40
0.0
 10
1.289999999999992
 20
6.503000000000002
 30
0.0
 10
0.0000000000000284
 20
6.503000000000002
 30
0.0
 10
-1.289999999999992
 20
6.503000000000002
 30
0.0
  0
SPLINE
  5
C8
330
1F
100
AcDbEntity
  8
4STAR 2D
 62
     7
100
AcDbSpline
210
0.0
220
0.0
230
1.0
 70
    12
 71
     2
 72
     6
 73
     3
 74
     0
 42
0.0000000001
 43
0.0000000001
 40
0.0
 40
0.0
 40
0.0
 40
0.0200867229109254
 40
0.0200867229109254
 40
0.0200867229109254
 10
0.3878256930967439
 20
0.3999999998842094
 30
0.0
 41
1.0
 10
0.3994953415944569
 20
0.3995431334531431
 30
0.0
 41
0.802617145546988
 10
0.4024232790152666
 20
0.3882375328297014
 30
0.0
 41
1.0
  0
SPLINE
  5
C9
330
1F
100
AcDbEntity
  8
4STAR 2D
 62
     7
100
AcDbSpline
210
0.0
220
0.0
230
1.0
 70
     8
 71
     2
 72
     6
 73
     3
 74
     0
 42
0.0000000001
 43
0.0000000001
 40
-0.2213623405233065
 40
-0.2213623405233065
 40
-0.2213623405233065
 40
0.0
 40
0.0
 40
0.0
 10
-14.6493531211261
 20
0.1648440748599009
 30
0.0
 10
-14.64307829705317
 20
0.2753472333366753
 30
0.0
 10
-14.63679555212639
 20
0.3859723252673241
 30
0.0
  0
POLYLINE
  5
CA
330
1F
100
AcDbEntity
  8
4STAR 2D
 62
     7
100
AcDb2dPolyline
 66
     1
 10
0.0
 20
0.0
 30
0.0
  0
VERTEX
  5
CB
330
CA
100
AcDbEntity
  8
4STAR 2D
 62
     7
100
AcDbVertex
100
AcDb2dVertex
 10
-0.3878248518053908
 20
0.399999999906409
 30
0.0
  0
VERTEX
  5
CC
330
CA
100
AcDbEntity
  8
4STAR 2D
 62
     7
100
AcDbVertex
100
AcDb2dVertex
 10
0.3878256930967439
 20
0.3999999998842094
 30
0.0
  0
SEQEND
  5
CD
330
CA
100
AcDbEntity
  8
4STAR 2D
 62
     7
  0
POLYLINE
  5
CE
330
1F
100
AcDbEntity
  8
4STAR 2D
 62
     7
100
AcDb2dPolyline
 66
     1
 10
0.0
 20
0.0
 30
0.0
  0
VERTEX
  5
CF
330
CE
100
AcDbEntity
  8
4STAR 2D
 62
     7
100
AcDbVertex
100
AcDb2dVertex
 10
14.61392597212247
 20
0.4015944354498296
 30
0.0
  0
VERTEX
  5
D0
330
CE
100
AcDbEntity
  8
4STAR 2D
 62
     7
100
AcDbVertex
100
AcDb2dVertex
 10
13.24015569422974
 20
0.4030710872597238
 30
0.0
  0
SEQEND
  5
D1
330
CE
100
AcDbEntity
  8
4STAR 2D
 62
     7
  0
SPLINE
  5
D2
330
1F
100
AcDbEntity
  8
4STAR 2D
 62
     7
100
AcDbSpline
210
0.0
220
0.0
230
1.0
 70
     8
 71
     3
 72
    16
 73
    12
 74
     0
 42
0.0000000001
 43
0.0000000001
 40
0.0
 40
0.0
 40
0.0
 40
0.0
 40
1.0
 40
2.0
 40
3.0
 40
4.0
 40
5.0
 40
6.0
 40
7.0
 40
8.0
 40
9.0
 40
9.0
 40
9.0
 40
9.0
 10
54.60883231537848
 20
14.53733740417122
 30
0.0
 10
54.70397754865079
 20
14.77402433402719
 30
0.0
 10
54.83610458005929
 20
15.26717375270501
 30
0.0
 10
54.7645896775517
 20
16.05959796551765
 30
0.0
 10
54.20880603293834
 20
16.641542157485
 30
0.0
 10
53.44597144051906
 20
16.82154731272156
 30
0.0
 10
52.68185058399245
 20
16.78068537415959
 30
0.0
 10
51.91129187248639
 20
16.67464208810447
 30
0.0
 10
51.17351629623695
 20
16.53661491245071
 30
0.0
 10
50.42527853470639
 20
16.38215575959302
 30
0.0
 10
49.92689037956231
 20
16.27838152264266
 30
0.0
 10
49.67770933591818
 20
16.22617144749615
 30
0.0
  0
SPLINE
  5
D3
330
1F
100
AcDbEntity
  8
4STAR 2D
 62
     7
100
AcDbSpline
210
0.0
220
0.0
230
1.0
 70
     8
 71
     3
 72
    34
 73
    30
 74
     0
 42
0.0000000001
 43
0.0000000001
 40
0.0
 40
0.0
 40
0.0
 40
0.0
 40
1.0
 40
2.0
 40
3.0
 40
4.0
 40
5.0
 40
6.0
 40
7.0
 40
8.0
 40
9.0
 40
10.0
 40
11.0
 40
12.0
 40
13.0
 40
14.0
 40
15.0
 40
16.0
 40
17.0
 40
18.0
 40
19.0
 40
20.0
 40
21.0
 40
22.0
 40
23.0
 40
24.0
 40
25.0
 40
26.0
 40
27.0
 40
27.0
 40
27.0
 40
27.0
 10
12.30781462347795
 20
16.68807284812906
 30
0.0
 10
12.0724449819534
 20
16.87184793281185
 30
0.0
 10
11.68989690426142
 20
17.32970404445109
 30
0.0
 10
11.21390777553275
 20
18.09264392634031
 30
0.0
 10
11.02979023213464
 20
18.9753171569049
 30
0.0
 10
10.88906202540074
 20
19.85359859968536
 30
0.0
 10
10.7994371625649
 20
20.74183314873005
 30
0.0
 10
10.7119950204717
 20
21.6291068445311
 30
0.0
 10
10.625457733556
 20
22.51677992792219
 30
0.0
 10
10.53560596450774
 20
23.40406036534787
 30
0.0
 10
10.43330737820172
 20
24.29000958434365
 30
0.0
 10
10.33882938329404
 20
25.17680589972266
 30
0.0
 10
10.25633742385033
 20
26.06482116852536
 30
0.0
 10
10.15046514100353
 20
26.95050860230836
 30
0.0
 10
10.08288922954732
 20
27.83981500615379
 30
0.0
 10
10.00771325116992
 20
28.728525216576
 30
0.0
 10
9.856738005299588
 20
29.60930290974943
 30
0.0
 10
9.526214846837076
 20
30.44822712172655
 30
0.0
 10
8.874832927545464
 20
31.09443228611982
 30
0.0
 10
8.024142777597039
 20
31.40280848506425
 30
0.0
 10
7.133690977651647
 20
31.49021025774172
 30
0.0
 10
6.241808570037446
 20
31.4903147451725
 30
0.0
 10
5.350465688880301
 20
31.45820005300416
 30
0.0
 10
4.458844188567132
 20
31.43969643139043
 30
0.0
 10
3.567134131918726
 20
31.42553918983682
 30
0.0
 10
2.675393965445186
 20
31.4136987530688
 30
0.0
 10
1.783623285057403
 20
31.40426774654602
 30
0.0
 10
0.8918186596554409
 20
31.39881415438432
 30
0.0
 10
0.2972729626906217
 20
31.39764776427003
 30
0.0
 10
0.0
 20
31.39759932582217
 30
0.0
  0
SPLINE
  5
D4
330
1F
100
AcDbEntity
  8
4STAR 2D
 62
     7
100
AcDbSpline
210
0.0
220
0.0
230
1.0
 70
     8
 71
     3
 72
    34
 73
    30
 74
     0
 42
0.0000000001
 43
0.0000000001
 40
-27.0
 40
-27.0
 40
-27.0
 40
-27.0
 40
-26.0
 40
-25.0
 40
-24.0
 40
-23.0
 40
-22.0
 40
-21.0
 40
-20.0
 40
-19.0
 40
-18.0
 40
-17.0
 40
-16.0
 40
-15.0
 40
-14.0
 40
-13.0
 40
-12.0
 40
-11.0
 40
-10.0
 40
-9.0
 40
-8.0
 40
-7.0
 40
-6.0
 40
-5.0
 40
-4.0
 40
-3.0
 40
-2.0
 40
-1.0
 40
0.0
 40
0.0
 40
0.0
 40
0.0
 10
0.0
 20
31.39759932582217
 30
0.0
 10
-0.2972729626906217
 20
31.39764776427003
 30
0.0
 10
-0.8918186596554409
 20
31.39881415438432
 30
0.0
 10
-1.783623285057403
 20
31.40426774654602
 30
0.0
 10
-2.675393965445186
 20
31.4136987530688
 30
0.0
 10
-3.567134131918726
 20
31.42553918983682
 30
0.0
 10
-4.458844188567132
 20
31.43969643139043
 30
0.0
 10
-5.350465688880301
 20
31.45820005300416
 30
0.0
 10
-6.241808570037446
 20
31.4903147451725
 30
0.0
 10
-7.133690977651647
 20
31.49021025774172
 30
0.0
 10
-8.024142777597039
 20
31.40280848506425
 30
0.0
 10
-8.874832927545464
 20
31.09443228611982
 30
0.0
 10
-9.526214846837076
 20
30.44822712172655
 30
0.0
 10
-9.856738005299588
 20
29.60930290974943
 30
0.0
 10
-10.00771325116992
 20
28.728525216576
 30
0.0
 10
-10.08288922954732
 20
27.83981500615379
 30
0.0
 10
-10.15046514100353
 20
26.95050860230836
 30
0.0
 10
-10.25633742385033
 20
26.06482116852536
 30
0.0
 10
-10.33882938329404
 20
25.17680589972266
 30
0.0
 10
-10.43330737820172
 20
24.29000958434365
 30
0.0
 10
-10.53560596450774
 20
23.40406036534787
 30
0.0
 10
-10.625457733556
 20
22.51677992792219
 30
0.0
 10
-10.7119950204717
 20
21.6291068445311
 30
0.0
 10
-10.7994371625649
 20
20.74183314873005
 30
0.0
 10
-10.88906202540074
 20
19.85359859968536
 30
0.0
 10
-11.02979023213464
 20
18.9753171569049
 30
0.0
 10
-11.21390777553275
 20
18.09264392634031
 30
0.0
 10
-11.68989690426142
 20
17.32970404445109
 30
0.0
 10
-12.0724449819534
 20
16.87184793281185
 30
0.0
 10
-12.30781462347795
 20
16.68807284812906
 30
0.0
  0
SPLINE
  5
D5
330
1F
100
AcDbEntity
  8
4STAR 2D
 62
     7
100
AcDbSpline
210
0.0
220
0.0
230
1.0
 70
     8
 71
     3
 72
    16
 73
    12
 74
     0
 42
0.0000000001
 43
0.0000000001
 40
0.0
 40
0.0
 40
0.0
 40
0.0
 40
1.0
 40
2.0
 40
3.0
 40
4.0
 40
5.0
 40
6.0
 40
7.0
 40
8.0
 40
9.0
 40
9.0
 40
9.0
 40
9.0
 10
8.768668101845755
 20
15.53120507816222
 30
0.0
 10
8.584725172205431
 20
15.81384691781218
 30
0.0
 10
8.04399918634203
 20
16.2537116677404
 30
0.0
 10
7.054293750303811
 20
16.50340196161451
 30
0.0
 10
6.055583088264837
 20
16.64086638111293
 30
0.0
 10
5.047113355748825
 20
16.70712485751861
 30
0.0
 10
4.038146577944341
 20
16.73964137623097
 30
0.0
 10
3.028674184424118
 20
16.76082367468642
 30
0.0
 10
2.019173343991129
 20
16.77684242093456
 30
0.0
 10
1.009620389504924
 20
16.79038071404764
 30
0.0
 10
0.3365494454237587
 20
16.79641280995497
 30
0.0
 10
0.0
 20
16.79642639530092
 30
0.0
  0
SPLINE
  5
D6
330
1F
100
AcDbEntity
  8
4STAR 2D
 62
     7
100
AcDbSpline
210
0.0
220
0.0
230
1.0
 70
     8
 71
     3
 72
    16
 73
    12
 74
     0
 42
0.0000000001
 43
0.0000000001
 40
-9.0
 40
-9.0
 40
-9.0
 40
-9.0
 40
-8.0
 40
-7.0
 40
-6.0
 40
-5.0
 40
-4.0
 40
-3.0
 40
-2.0
 40
-1.0
 40
0.0
 40
0.0
 40
0.0
 40
0.0
 10
0.0
 20
16.79642639530092
 30
0.0
 10
-0.3365494454237587
 20
16.79641280995497
 30
0.0
 10
-1.009620389504924
 20
16.79038071404764
 30
0.0
 10
-2.019173343991129
 20
16.77684242093456
 30
0.0
 10
-3.028674184424118
 20
16.76082367468642
 30
0.0
 10
-4.038146577944341
 20
16.73964137623097
 30
0.0
 10
-5.047113355748825
 20
16.70712485751861
 30
0.0
 10
-6.055583088264837
 20
16.64086638111293
 30
0.0
 10
-7.054293750303811
 20
16.50340196161451
 30
0.0
 10
-8.04399918634203
 20
16.2537116677404
 30
0.0
 10
-8.584725172205431
 20
15.81384691781218
 30
0.0
 10
-8.768668101845755
 20
15.53120507816222
 30
0.0
  0
SPLINE
  5
D7
330
1F
100
AcDbEntity
  8
4STAR 2D
 62
     7
100
AcDbSpline
210
0.0
220
0.0
230
1.0
 70
     8
 71
     3
 72
    14
 73
    10
 74
     0
 42
0.0000000001
 43
0.0000000001
 40
-10.96374478173458
 40
-10.96374478173458
 40
-10.96374478173458
 40
-10.96374478173458
 40
-8.879585904019127
 40
-8.020975577154193
 40
-7.206836402906538
 40
-5.164653402434267
 40
-2.754807738330884
 40
-1.418115284799715
 40
0.0
 40
0.0
 40
0.0
 40
0.0
 10
-10.77153769472482
 20
15.10557383710782
 30
0.0
 10
-10.11698080282751
 20
14.88125895359092
 30
0.0
 10
-9.190617849617475
 20
14.56365363978471
 30
0.0
 10
-7.988056288394667
 20
14.21134819954523
 30
0.0
 10
-6.77742396220641
 20
13.94787469122498
 30
0.0
 10
-5.037021176051629
 20
13.70758126846887
 30
0.0
 10
-3.111769748746483
 20
13.56980719418197
 30
0.0
 10
-1.390946622269005
 20
13.51309126752759
 30
0.0
 10
-0.4727291031139843
 20
13.50368217105549
 30
0.0
 10
0.0
 20
13.50382795396665
 30
0.0
  0
SPLINE
  5
D8
330
1F
100
AcDbEntity
  8
4STAR 2D
 62
     7
100
AcDbSpline
210
0.0
220
0.0
230
1.0
 70
     8
 71
     3
 72
    14
 73
    10
 74
     0
 42
0.0000000001
 43
0.0000000001
 40
0.0
 40
0.0
 40
0.0
 40
0.0
 40
1.418115284799715
 40
2.754807738330884
 40
5.164653402434267
 40
7.206836402906538
 40
8.020975577154193
 40
8.879585904019127
 40
10.96374478173458
 40
10.96374478173458
 40
10.96374478173458
 40
10.96374478173458
 10
0.0
 20
13.50382795396665
 30
0.0
 10
0.4727291031139843
 20
13.50368217105549
 30
0.0
 10
1.390946622269005
 20
13.51309126752759
 30
0.0
 10
3.111769748746483
 20
13.56980719418197
 30
0.0
 10
5.037021176051629
 20
13.70758126846887
 30
0.0
 10
6.77742396220641
 20
13.94787469122498
 30
0.0
 10
7.988056288394667
 20
14.21134819954523
 30
0.0
 10
9.190617849617475
 20
14.56365363978471
 30
0.0
 10
10.11698080282751
 20
14.88125895359092
 30
0.0
 10
10.77153769472482
 20
15.10557383710782
 30
0.0
  0
SPLINE
  5
D9
330
1F
100
AcDbEntity
  8
4STAR 2D
 62
     7
100
AcDbSpline
210
0.0
220
0.0
230
1.0
 70
     8
 71
     3
 72
   132
 73
   128
 74
     0
 42
0.0000000001
 43
0.0000000001
 40
-3.0
 40
-2.0
 40
-1.0
 40
0.0
 40
1.0
 40
2.0
 40
3.0
 40
4.0
 40
5.0
 40
6.0
 40
7.0
 40
8.0
 40
9.0
 40
10.0
 40
11.0
 40
12.0
 40
13.0
 40
14.0
 40
15.0
 40
16.0
 40
17.0
 40
18.0
 40
19.0
 40
20.0
 40
21.0
 40
22.0
 40
23.0
 40
24.0
 40
25.0
 40
26.0
 40
27.0
 40
28.0
 40
29.0
 40
30.0
 40
31.0
 40
32.0
 40
33.0
 40
34.0
 40
35.0
 40
36.0
 40
37.0
 40
38.0
 40
39.0
 40
40.0
 40
41.0
 40
42.0
 40
43.0
 40
44.0
 40
45.0
 40
46.0
 40
47.0
 40
48.0
 40
49.0
 40
50.0
 40
51.0
 40
52.0
 40
53.0
 40
54.0
 40
55.0
 40
56.0
 40
57.0
 40
58.0
 40
59.0
 40
60.0
 40
61.0
 40
62.0
 40
63.0
 40
64.0
 40
65.0
 40
66.0
 40
67.0
 40
68.0
 40
69.0
 40
70.0
 40
71.0
 40
72.0
 40
73.0
 40
74.0
 40
75.0
 40
76.0
 40
77.0
 40
78.0
 40
79.0
 40
80.0
 40
81.0
 40
82.0
 40
83.0
 40
84.0
 40
85.0
 40
86.0
 40
87.0
 40
88.0
 40
89.0
 40
90.0
 40
91.0
 40
92.0
 40
93.0
 40
94.0
 40
95.0
 40
96.0
 40
97.0
 40
98.0
 40
99.0
 40
100.0
 40
101.0
 40
102.0
 40
103.0
 40
104.0
 40
105.0
 40
106.0
 40
107.0
 40
108.0
 40
109.0
 40
110.0
 40
111.0
 40
112.0
 40
113.0
 40
114.0
 40
115.0
 40
116.0
 40
117.0
 40
118.0
 40
119.0
 40
120.0
 40
121.0
 40
122.0
 40
123.0
 40
124.0
 40
125.0
 40
126.0
 40
127.0
 40
128.0
 10
43.86537844350794
 20
10.06525865049165
 30
0.0
 10
43.19690071578279
 20
9.957849178282459
 30
0.0
 10
42.52526539894632
 20
9.87211613331274
 30
0.0
 10
41.85092296851118
 20
9.811209929130701
 30
0.0
 10
41.17530820657947
 20
9.767457078970418
 30
0.0
 10
40.49883152339564
 20
9.739850133080477
 30
0.0
 10
39.82191076197432
 20
9.727589296999646
 30
0.0
 10
39.14487613458966
 20
9.73119010316519
 30
0.0
 10
38.46816244847177
 20
9.752258126864174
 30
0.0
 10
37.7922911589736
 20
9.79336916755969
 30
0.0
 10
37.11863505319543
 20
9.860974629032524
 30
0.0
 10
36.44829653973183
 20
9.959705827208266
 30
0.0
 10
35.79128138475762
 20
10.12713248655657
 30
0.0
 10
35.15714781890675
 20
10.36679362167233
 30
0.0
 10
34.54726632520465
 20
10.6619795604111
 30
0.0
 10
33.96326736146516
 20
11.00534530114037
 30
0.0
 10
33.40456142759482
 20
11.38836481617627
 30
0.0
 10
32.87562717324134
 20
11.81190895349346
 30
0.0
 10
32.38983367703624
 20
12.28445101478968
 30
0.0
 10
31.94148049120924
 20
12.79218514005764
 30
0.0
 10
31.52665684726745
 20
13.32757035577252
 30
0.0
 10
31.1400564051077
 20
13.88352787069898
 30
0.0
 10
30.77664342524294
 20
14.4548528653731
 30
0.0
 10
30.43557180493739
 20
15.03981721597066
 30
0.0
 10
30.11908912183246
 20
15.63840810365274
 30
0.0
 10
29.82263354962106
 20
16.24715216540152
 30
0.0
 10
29.54815591971213
 20
16.8660833782041
 30
0.0
 10
29.28598722949609
 20
17.49028623715366
 30
0.0
 10
29.03737082144928
 20
18.11999308324771
 30
0.0
 10
28.79283058658557
 20
18.75127598032048
 30
0.0
 10
28.5530677760909
 20
19.38439197415217
 30
0.0
 10
28.31523089247151
 20
20.01822749253396
 30
0.0
 10
28.07972360916814
 20
20.65293530427869
 30
0.0
 10
27.84684555081931
 20
21.28861473055177
 30
0.0
 10
27.61659492316351
 20
21.92524731497369
 30
0.0
 10
27.38895196712865
 20
22.56281829199001
 30
0.0
 10
27.16363315233975
 20
23.20121245222897
 30
0.0
 10
26.94062478387503
 20
23.84041821315156
 30
0.0
 10
26.71952527409215
 20
24.48028934979418
 30
0.0
 10
26.50004581048835
 20
25.1207125548516
 30
0.0
 10
26.28187745357812
 20
25.7615890839545
 30
0.0
 10
26.06473889562562
 20
26.40280501486127
 30
0.0
 10
25.84823332520141
 20
27.04426734424306
 30
0.0
 10
25.63275614170151
 20
27.68594796916871
 30
0.0
 10
25.41660641529936
 20
28.32788920871339
 30
0.0
 10
25.20580942297525
 20
28.96981395371692
 30
0.0
 10
24.97990931720854
 20
29.613421832322
 30
0.0
 10
24.80390143735716
 20
30.24858179686138
 30
0.0
 10
24.47658778553864
 20
30.92657640416753
 30
0.0
 10
25.01323398230782
 20
31.48092890491273
 30
0.0
 10
25.71634160851071
 20
31.45646126445926
 30
0.0
 10
26.39551417220749
 20
31.50046523683781
 30
0.0
 10
27.00243084381484
 20
31.14834928616686
 30
0.0
 10
27.50823022135335
 20
30.70310665849456
 30
0.0
 10
27.94244818729912
 20
30.17907011994833
 30
0.0
 10
28.30388789324746
 20
29.60648924542463
 30
0.0
 10
28.62272188621226
 20
29.00884457483977
 30
0.0
 10
28.93344280263812
 20
28.40747144595982
 30
0.0
 10
29.23328582058225
 20
27.80044955799583
 30
0.0
 10
29.52985734619131
 20
27.19188628989028
 30
0.0
 10
29.82262568577397
 20
26.58146911531901
 30
0.0
 10
30.11107757320369
 20
25.96900160072606
 30
0.0
 10
30.39783252162991
 20
25.35574139980032
 30
0.0
 10
30.68578865293396
 20
24.74304642743729
 30
0.0
 10
30.97699303693333
 20
24.13188095871089
 30
0.0
 10
31.27403033402664
 20
23.52352378387316
 30
0.0
 10
31.57761395406717
 20
22.91841306625455
 30
0.0
 10
31.88325990957075
 20
22.31434246690367
 30
0.0
 10
32.19602462147462
 20
21.71391075498549
 30
0.0
 10
32.51896259015257
 20
21.11886944893325
 30
0.0
 10
32.85543183423307
 20
20.53135287166975
 30
0.0
 10
33.20908232014811
 20
19.95396147980557
 30
0.0
 10
33.58450910940164
 20
19.3904333508583
 30
0.0
 10
33.98770223032376
 20
18.84619573255187
 30
0.0
 10
34.42737198214174
 20
18.33090395982834
 30
0.0
 10
34.9148536880252
 20
17.8588188036315
 30
0.0
 10
35.4696506283365
 20
17.46795114317049
 30
0.0
 10
36.06369576292165
 20
17.14138699446396
 30
0.0
 10
36.69089789817828
 20
16.88371615735828
 30
0.0
 10
37.34184210059005
 20
16.69437554206719
 30
0.0
 10
38.00842972246522
 20
16.57212270798706
 30
0.0
 10
38.68238240098196
 20
16.50361587669764
 30
0.0
 10
39.35923885419206
 20
16.47976454593201
 30
0.0
 10
40.0362739890282
 20
16.48882922556394
 30
0.0
 10
40.71285878630455
 20
16.5123912184979
 30
0.0
 10
41.38925014641791
 20
16.54091353328197
 30
0.0
 10
42.06547303081831
 20
16.5732324454598
 30
0.0
 10
42.74161824002039
 20
16.60700929978916
 30
0.0
 10
43.41773783493873
 20
16.64138011721887
 30
0.0
 10
44.09391126513741
 20
16.67449954836491
 30
0.0
 10
44.77044092547397
 20
16.70072880580307
 30
0.0
 10
45.44751593763002
 20
16.70487237307441
 30
0.0
 10
46.12437127095387
 20
16.68797640001882
 30
0.0
 10
46.80043219377607
 20
16.65117102602762
 30
0.0
 10
47.47506473357625
 20
16.59365300440852
 30
0.0
 10
48.14734134840669
 20
16.51298801517771
 30
0.0
 10
48.81613426176489
 20
16.40709960540661
 30
0.0
 10
49.48016441393098
 20
16.27461355169817
 30
0.0
 10
50.13887881823249
 20
16.11795491446898
 30
0.0
 10
50.79215909220009
 20
15.94001858959765
 30
0.0
 10
51.43841856123654
 20
15.73781749096505
 30
0.0
 10
52.07583658597807
 20
15.50953748345424
 30
0.0
 10
52.70392961276972
 20
15.25619331000896
 30
0.0
 10
53.3302983245352
 20
15.00133789685763
 30
0.0
 10
53.96245569348915
 20
14.75138816447472
 30
0.0
 10
54.59265645326825
 20
14.53256844251359
 30
0.0
 10
55.29518883432984
 20
14.3853651865514
 30
0.0
 10
55.55784865379309
 20
13.59251842933773
 30
0.0
 10
54.86144442048216
 20
13.26291660685622
 30
0.0
 10
54.28628390105574
 20
12.95504100545103
 30
0.0
 10
53.65466139211534
 20
12.69197685262464
 30
0.0
 10
53.02806393120912
 20
12.44072993764069
 30
0.0
 10
52.39120583585142
 20
12.20934033985258
 30
0.0
 10
51.75104479764106
 20
11.98948846550567
 30
0.0
 10
51.10681507770845
 20
11.78120620131751
 30
0.0
 10
50.45945525732565
 20
11.5831382392428
 30
0.0
 10
49.8092839571746
 20
11.39424440251147
 30
0.0
 10
49.15403427543473
 20
11.22396468423278
 30
0.0
 10
48.49895452596974
 20
11.05313549009484
 30
0.0
 10
47.84181684281847
 20
10.89033004722009
 30
0.0
 10
47.1831893258387
 20
10.73369882592161
 30
0.0
 10
46.52289577032784
 20
10.58421747792417
 30
0.0
 10
45.86099404494291
 20
10.44204043836972
 30
0.0
 10
45.19750043941315
 20
10.30747411398246
 30
0.0
 10
44.53236662421368
 20
10.18121309440045
 30
0.0
 10
43.86537844350794
 20
10.06525865049165
 30
0.0
 10
43.19690071578279
 20
9.957849178282459
 30
0.0
 10
42.52526539894632
 20
9.87211613331274
 30
0.0
  0
SPLINE
  5
DA
330
1F
100
AcDbEntity
  8
4STAR 2D
 62
     7
100
AcDbSpline
210
0.0
220
0.0
230
1.0
 70
     8
 71
     3
 72
    22
 73
    18
 74
     0
 42
0.0000000001
 43
0.0000000001
 40
0.0
 40
0.0
 40
0.0
 40
0.0
 40
1.0
 40
2.0
 40
3.0
 40
4.0
 40
5.0
 40
6.0
 40
7.0
 40
8.0
 40
9.0
 40
10.0
 40
11.0
 40
12.0
 40
13.0
 40
14.0
 40
15.0
 40
15.0
 40
15.0
 40
15.0
 10
-8.613821124467078
 20
12.12839407550904
 30
0.0
 10
-8.265475263708405
 20
11.92493619328554
 30
0.0
 10
-7.568548312904824
 20
11.5175225148626
 30
0.0
 10
-6.485830543430632
 20
10.97509117470537
 30
0.0
 10
-5.362375827609629
 20
10.52098082044707
 30
0.0
 10
-4.206442316043137
 20
10.16138470038442
 30
0.0
 10
-3.026316632570629
 20
9.880072591822787
 30
0.0
 10
-1.814923539579036
 20
9.807036011797075
 30
0.0
 10
-0.6054143052516324
 20
9.785863363422203
 30
0.0
 10
0.6054142138354539
 20
9.785863356614605
 30
0.0
 10
1.814923590197566
 20
9.807036029722244
 30
0.0
 10
3.026316112636319
 20
9.880072509678568
 30
0.0
 10
4.206442562471325
 20
10.16138476075176
 30
0.0
 10
5.362375406569691
 20
10.52098067334467
 30
0.0
 10
6.485830608760636
 20
10.97509120902613
 30
0.0
 10
7.568547695180563
 20
11.51752217551368
 30
0.0
 10
8.265475496750042
 20
11.92493632373738
 30
0.0
 10
8.613821124467078
 20
12.12839407550904
 30
0.0
  0
SPLINE
  5
DB
330
1F
100
AcDbEntity
  8
4STAR 2D
 62
     7
100
AcDbSpline
210
0.0
220
0.0
230
1.0
 70
     8
 71
     3
 72
    49
 73
    45
 74
     0
 42
0.0000000001
 43
0.0000000001
 40
-42.0
 40
-42.0
 40
-42.0
 40
-42.0
 40
-41.0
 40
-40.0
 40
-39.0
 40
-38.0
 40
-37.0
 40
-36.0
 40
-35.0
 40
-34.0
 40
-33.0
 40
-32.0
 40
-31.0
 40
-30.0
 40
-29.0
 40
-28.0
 40
-27.0
 40
-26.0
 40
-25.0
 40
-24.0
 40
-23.0
 40
-22.0
 40
-21.0
 40
-20.0
 40
-19.0
 40
-18.0
 40
-17.0
 40
-16.0
 40
-15.0
 40
-14.0
 40
-13.0
 40
-12.0
 40
-11.0
 40
-10.0
 40
-9.0
 40
-8.0
 40
-7.0
 40
-6.0
 40
-5.0
 40
-4.0
 40
-3.0
 40
-2.0
 40
-1.0
 40
0.0
 40
0.0
 40
0.0
 40
0.0
 10
8.613821124467078
 20
12.12839407550904
 30
0.0
 10
8.7568180354833
 20
12.21268703178767
 30
0.0
 10
9.042300966684198
 20
12.38214311935575
 30
0.0
 10
9.467822382226577
 20
12.64083790766613
 30
0.0
 10
9.889589883430379
 20
12.90561866121105
 30
0.0
 10
10.30687525372844
 20
13.17741381052037
 30
0.0
 10
10.71931473029816
 20
13.45651137312431
 30
0.0
 10
11.12670674206082
 20
13.74291900505913
 30
0.0
 10
11.52875597812326
 20
14.03681721584769
 30
0.0
 10
11.92563511658597
 20
14.33750634575596
 30
0.0
 10
12.31802909868566
 20
14.6445705849515
 30
0.0
 10
12.70531775087801
 20
14.95602228650628
 30
0.0
 10
13.09111915238441
 20
15.2768126220867
 30
0.0
 10
13.45689505605688
 20
15.59380137733905
 30
0.0
 10
13.86436440630986
 20
15.96355451728139
 30
0.0
 10
13.613504062986
 20
16.49045721254391
 30
0.0
 10
13.15908709437307
 20
16.71321529426685
 30
0.0
 10
12.65116618622356
 20
16.70833116375965
 30
0.0
 10
12.15857013766601
 20
16.64780976812672
 30
0.0
 10
11.6740681643232
 20
16.52712306559177
 30
0.0
 10
11.1990416756475
 20
16.37811208850975
 30
0.0
 10
10.7301077770288
 20
16.21020330201574
 30
0.0
 10
10.26180918436728
 20
16.04093287150223
 30
0.0
 10
9.792146137849091
 20
15.87539646150018
 30
0.0
 10
9.320860291430256
 20
15.71446171046813
 30
0.0
 10
8.847315435399072
 20
15.56054758429897
 30
0.0
 10
8.377093343552415
 20
15.39590016715254
 30
0.0
 10
7.893204126606285
 20
15.27669202791674
 30
0.0
 10
7.412785505099228
 20
15.14586568945972
 30
0.0
 10
6.930730378117753
 20
15.02092032220653
 30
0.0
 10
6.447201250456546
 20
14.90147025452303
 30
0.0
 10
5.958422414208294
 20
14.80557112412978
 30
0.0
 10
5.46539796180166
 20
14.73465010832158
 30
0.0
 10
4.971250676461121
 20
14.67305050336547
 30
0.0
 10
4.475910569148712
 20
14.62157444783872
 30
0.0
 10
3.979867899789028
 20
14.57762020839661
 30
0.0
 10
3.483262859329083
 20
14.54052763391498
 30
0.0
 10
2.986277252434899
 20
14.50902013239811
 30
0.0
 10
2.488989452363196
 20
14.48269535957472
 30
0.0
 10
1.991461397886086
 20
14.46140222435191
 30
0.0
 10
1.493751929273179
 20
14.44490524086223
 30
0.0
 10
0.995909606128692
 20
14.43308622341599
 30
0.0
 10
0.4979770471557285
 20
14.42599231928597
 30
0.0
 10
0.1659922449843406
 20
14.42442437425404
 30
0.0
 10
0.0
 20
14.42443512499947
 30
0.0
  0
SPLINE
  5
DC
330
1F
100
AcDbEntity
  8
4STAR 2D
 62
     7
100
AcDbSpline
210
0.0
220
0.0
230
1.0
 70
     8
 71
     3
 72
    49
 73
    45
 74
     0
 42
0.0000000001
 43
0.0000000001
 40
0.0
 40
0.0
 40
0.0
 40
0.0
 40
1.0
 40
2.0
 40
3.0
 40
4.0
 40
5.0
 40
6.0
 40
7.0
 40
8.0
 40
9.0
 40
10.0
 40
11.0
 40
12.0
 40
13.0
 40
14.0
 40
15.0
 40
16.0
 40
17.0
 40
18.0
 40
19.0
 40
20.0
 40
21.0
 40
22.0
 40
23.0
 40
24.0
 40
25.0
 40
26.0
 40
27.0
 40
28.0
 40
29.0
 40
30.0
 40
31.0
 40
32.0
 40
33.0
 40
34.0
 40
35.0
 40
36.0
 40
37.0
 40
38.0
 40
39.0
 40
40.0
 40
41.0
 40
42.0
 40
42.0
 40
42.0
 40
42.0
 10
0.0
 20
14.42443512499947
 30
0.0
 10
-0.1659922449843406
 20
14.42442437425404
 30
0.0
 10
-0.4979770471557285
 20
14.42599231928597
 30
0.0
 10
-0.995909606128692
 20
14.43308622341599
 30
0.0
 10
-1.493751929273179
 20
14.44490524086223
 30
0.0
 10
-1.991461397886086
 20
14.46140222435191
 30
0.0
 10
-2.488989452363196
 20
14.48269535957472
 30
0.0
 10
-2.986277252434899
 20
14.50902013239811
 30
0.0
 10
-3.483262859329083
 20
14.54052763391498
 30
0.0
 10
-3.979867899789028
 20
14.57762020839661
 30
0.0
 10
-4.475910569148712
 20
14.62157444783872
 30
0.0
 10
-4.971250676461121
 20
14.67305050336547
 30
0.0
 10
-5.46539796180166
 20
14.73465010832158
 30
0.0
 10
-5.958422414208294
 20
14.80557112412978
 30
0.0
 10
-6.447201250456546
 20
14.90147025452303
 30
0.0
 10
-6.930730378117753
 20
15.02092032220653
 30
0.0
 10
-7.412785505099228
 20
15.14586568945972
 30
0.0
 10
-7.893204126606285
 20
15.27669202791674
 30
0.0
 10
-8.377093343552415
 20
15.39590016715254
 30
0.0
 10
-8.847315435399072
 20
15.56054758429897
 30
0.0
 10
-9.320860291430256
 20
15.71446171046813
 30
0.0
 10
-9.792146137849091
 20
15.87539646150018
 30
0.0
 10
-10.26180918436728
 20
16.04093287150223
 30
0.0
 10
-10.7301077770288
 20
16.21020330201574
 30
0.0
 10
-11.1990416756475
 20
16.37811208850975
 30
0.0
 10
-11.6740681643232
 20
16.52712306559177
 30
0.0
 10
-12.15857013766601
 20
16.64780976812672
 30
0.0
 10
-12.65116618622356
 20
16.70833116375965
 30
0.0
 10
-13.15908709437307
 20
16.71321529426685
 30
0.0
 10
-13.613504062986
 20
16.49045721254391
 30
0.0
 10
-13.86436440630986
 20
15.96355451728139
 30
0.0
 10
-13.45689505605688
 20
15.59380137733905
 30
0.0
 10
-13.09111915238441
 20
15.2768126220867
 30
0.0
 10
-12.70531775087801
 20
14.95602228650628
 30
0.0
 10
-12.31802909868566
 20
14.6445705849515
 30
0.0
 10
-11.92563511658597
 20
14.33750634575596
 30
0.0
 10
-11.52875597812326
 20
14.03681721584769
 30
0.0
 10
-11.12670674206082
 20
13.74291900505913
 30
0.0
 10
-10.71931473029816
 20
13.45651137312431
 30
0.0
 10
-10.30687525372844
 20
13.17741381052037
 30
0.0
 10
-9.889589883430379
 20
12.90561866121105
 30
0.0
 10
-9.467822382226577
 20
12.64083790766613
 30
0.0
 10
-9.042300966684198
 20
12.38214311935575
 30
0.0
 10
-8.7568180354833
 20
12.21268703178767
 30
0.0
 10
-8.613821124467078
 20
12.12839407550904
 30
0.0
  0
SPLINE
  5
DD
330
1F
100
AcDbEntity
  8
4STAR 2D
 62
     7
100
AcDbSpline
210
0.0
220
0.0
230
1.0
 70
     8
 71
     3
 72
    39
 73
    35
 74
     0
 42
0.0000000001
 43
0.0000000001
 40
0.0
 40
0.0
 40
0.0
 40
0.0
 40
1.0
 40
2.0
 40
3.0
 40
4.0
 40
5.0
 40
6.0
 40
7.0
 40
8.0
 40
9.0
 40
10.0
 40
11.0
 40
12.0
 40
13.0
 40
14.0
 40
15.0
 40
16.0
 40
17.0
 40
18.0
 40
19.0
 40
20.0
 40
21.0
 40
22.0
 40
23.0
 40
24.0
 40
25.0
 40
26.0
 40
27.0
 40
28.0
 40
29.0
 40
30.0
 40
31.0
 40
32.0
 40
32.0
 40
32.0
 40
32.0
 10
-0.0000020278315276
 20
65.35315948669884
 30
0.0
 10
0.3275378034190233
 20
65.35396647163348
 30
0.0
 10
0.9826301157098936
 20
65.35267131078933
 30
0.0
 10
1.965097384749146
 20
65.33150870481431
 30
0.0
 10
2.946549675323411
 20
65.27900081140453
 30
0.0
 10
3.923620992993158
 20
65.16869484454915
 30
0.0
 10
4.889367514644281
 20
64.9837667384112
 30
0.0
 10
5.834553913115972
 20
64.70755813157801
 30
0.0
 10
6.72433053126273
 20
64.28126828586176
 30
0.0
 10
7.515388802188795
 20
63.68738374839867
 30
0.0
 10
8.132334758838862
 20
62.91296973398386
 30
0.0
 10
8.548005437288406
 20
62.01301814430347
 30
0.0
 10
8.715227135530487
 20
61.04001918220159
 30
0.0
 10
8.816096418400601
 20
60.06333097914029
 30
0.0
 10
8.886114829887234
 20
59.08286384180229
 30
0.0
 10
8.928458792906145
 20
58.10113551176462
 30
0.0
 10
8.949412680188061
 20
57.11868465167441
 30
0.0
 10
8.956238598025266
 20
56.13606725570951
 30
0.0
 10
8.95311226156047
 20
55.15345582771374
 30
0.0
 10
8.940543639923334
 20
54.17084425596789
 30
0.0
 10
8.910844728822429
 20
53.18878653223384
 30
0.0
 10
8.850777405303166
 20
52.20719330194996
 30
0.0
 10
8.73288780958503
 20
51.23305284661634
 30
0.0
 10
8.558162468921896
 20
50.25916026799212
 30
0.0
 10
8.11737894630781
 20
49.37371850422564
 30
0.0
 10
7.487008831602335
 20
48.60343487847145
 30
0.0
 10
6.644522359770313
 20
48.08592620011979
 30
0.0
 10
5.762955750556131
 20
47.65256430525014
 30
0.0
 10
4.843542966305186
 20
47.30231120691055
 30
0.0
 10
3.901194885073245
 20
47.02174043794012
 30
0.0
 10
2.938585953692254
 20
46.81994652592823
 30
0.0
 10
1.963316620938846
 20
46.6951730436631
 30
0.0
 10
0.9825936881710096
 20
46.62926595838878
 30
0.0
 10
0.3275446299011726
 20
46.61416844790276
 30
0.0
 10
-0.00000202783162
 20
46.61429081493662
 30
0.0
  0
SPLINE
  5
DE
330
1F
100
AcDbEntity
  8
4STAR 2D
 62
     7
100
AcDbSpline
210
0.0
220
0.0
230
1.0
 70
     8
 71
     3
 72
    39
 73
    35
 74
     0
 42
0.0000000001
 43
0.0000000001
 40
-32.0
 40
-32.0
 40
-32.0
 40
-32.0
 40
-31.0
 40
-30.0
 40
-29.0
 40
-28.0
 40
-27.0
 40
-26.0
 40
-25.0
 40
-24.0
 40
-23.0
 40
-22.0
 40
-21.0
 40
-20.0
 40
-19.0
 40
-18.0
 40
-17.0
 40
-16.0
 40
-15.0
 40
-14.0
 40
-13.0
 40
-12.0
 40
-11.0
 40
-10.0
 40
-9.0
 40
-8.0
 40
-7.0
 40
-6.0
 40
-5.0
 40
-4.0
 40
-3.0
 40
-2.0
 40
-1.0
 40
0.0
 40
0.0
 40
0.0
 40
0.0
 10
-0.0000020278314352
 20
46.61429081493662
 30
0.0
 10
-0.3275486855642278
 20
46.61416844790276
 30
0.0
 10
-0.9825977438340647
 20
46.62926595838878
 30
0.0
 10
-1.963320676601901
 20
46.6951730436631
 30
0.0
 10
-2.938590009355311
 20
46.81994652592823
 30
0.0
 10
-3.9011989407363
 20
47.02174043794012
 30
0.0
 10
-4.843547021968241
 20
47.30231120691055
 30
0.0
 10
-5.762959806219184
 20
47.65256430525014
 30
0.0
 10
-6.644526415433369
 20
48.08592620011979
 30
0.0
 10
-7.48701288726539
 20
48.60343487847145
 30
0.0
 10
-8.117383001970863
 20
49.37371850422564
 30
0.0
 10
-8.558166524584951
 20
50.25916026799212
 30
0.0
 10
-8.732891865248085
 20
51.23305284661634
 30
0.0
 10
-8.850781460966221
 20
52.20719330194996
 30
0.0
 10
-8.910848784485484
 20
53.18878653223384
 30
0.0
 10
-8.94054769558639
 20
54.17084425596789
 30
0.0
 10
-8.953116317223525
 20
55.15345582771374
 30
0.0
 10
-8.95624265368832
 20
56.13606725570951
 30
0.0
 10
-8.949416735851116
 20
57.11868465167441
 30
0.0
 10
-8.9284628485692
 20
58.10113551176462
 30
0.0
 10
-8.886118885550289
 20
59.08286384180229
 30
0.0
 10
-8.816100474063656
 20
60.06333097914029
 30
0.0
 10
-8.715231191193542
 20
61.04001918220159
 30
0.0
 10
-8.548009492951461
 20
62.01301814430347
 30
0.0
 10
-8.132338814501917
 20
62.91296973398386
 30
0.0
 10
-7.515392857851849
 20
63.68738374839867
 30
0.0
 10
-6.724334586925787
 20
64.28126828586176
 30
0.0
 10
-5.834557968779026
 20
64.70755813157801
 30
0.0
 10
-4.889371570307336
 20
64.9837667384112
 30
0.0
 10
-3.923625048656211
 20
65.16869484454915
 30
0.0
 10
-2.946553730986464
 20
65.27900081140453
 30
0.0
 10
-1.965101440412202
 20
65.33150870481431
 30
0.0
 10
-0.9826341713729487
 20
65.35267131078933
 30
0.0
 10
-0.3275418590820784
 20
65.35396647163348
 30
0.0
 10
-0.0000020278315276
 20
65.35315948669884
 30
0.0
  0
SPLINE
  5
DF
330
1F
100
AcDbEntity
  8
4STAR 2D
 62
     7
100
AcDbSpline
210
0.0
220
0.0
230
1.0
 70
     8
 71
     3
 72
    44
 73
    40
 74
     0
 42
0.0000000001
 43
0.0000000001
 40
0.0
 40
0.0
 40
0.0
 40
0.0
 40
1.0
 40
2.0
 40
3.0
 40
4.0
 40
5.0
 40
6.0
 40
7.0
 40
8.0
 40
9.0
 40
10.0
 40
11.0
 40
12.0
 40
13.0
 40
14.0
 40
15.0
 40
16.0
 40
17.0
 40
18.0
 40
19.0
 40
20.0
 40
21.0
 40
22.0
 40
23.0
 40
24.0
 40
25.0
 40
26.0
 40
27.0
 40
28.0
 40
29.0
 40
30.0
 40
31.0
 40
32.0
 40
33.0
 40
34.0
 40
35.0
 40
36.0
 40
37.0
 40
37.0
 40
37.0
 40
37.0
 10
-0.0000020278314139
 20
76.79576976300211
 30
0.0
 10
0.4285993191633235
 20
76.79569370442444
 30
0.0
 10
1.285728322709364
 20
76.77347584592816
 30
0.0
 10
2.568599473988208
 20
76.68206267161234
 30
0.0
 10
3.846024964874889
 20
76.5334706839657
 30
0.0
 10
5.115583320267305
 20
76.32597296023627
 30
0.0
 10
6.372859398131087
 20
76.05982405527037
 30
0.0
 10
7.621332869438024
 20
75.73629335774832
 30
0.0
 10
8.775281684918191
 20
75.1586000025658
 30
0.0
 10
9.754860227865507
 20
74.26420168070328
 30
0.0
 10
10.07470656699988
 20
72.99112697932155
 30
0.0
 10
10.31242463188649
 20
71.73489702576484
 30
0.0
 10
10.62275577968549
 20
70.48434225912597
 30
0.0
 10
10.85114283254185
 20
69.21971158707616
 30
0.0
 10
11.14953343541316
 20
67.96588014946508
 30
0.0
 10
11.63116158524138
 20
66.7721841372035
 30
0.0
 10
12.16781330738676
 20
65.60383514401504
 30
0.0
 10
12.664320255171
 20
64.41743837278914
 30
0.0
 10
13.10382695835902
 20
63.20835842267796
 30
0.0
 10
13.43568212754736
 20
61.96444940151078
 30
0.0
 10
13.6369512139487
 20
60.69309274448948
 30
0.0
 10
13.74313488174108
 20
59.41107470776195
 30
0.0
 10
13.77067646999685
 20
58.12493069233121
 30
0.0
 10
13.70516632574675
 20
56.83982075946812
 30
0.0
 10
13.52931626903626
 20
55.56453371086121
 30
0.0
 10
13.21357961237656
 20
54.31591673843857
 30
0.0
 10
12.74387204690423
 20
53.11541859969729
 30
0.0
 10
12.11156655612635
 20
51.99382829178543
 30
0.0
 10
11.37028359603033
 20
50.93939456846119
 30
0.0
 10
10.48876584136166
 20
50.00166369018475
 30
0.0
 10
9.547955852848752
 20
49.12334712589396
 30
0.0
 10
8.534109059407939
 20
48.33118359672979
 30
0.0
 10
7.455594007978195
 20
47.6277702835413
 30
0.0
 10
6.298790603704514
 20
47.0608633915916
 30
0.0
 10
5.085349148362624
 20
46.63046312558747
 30
0.0
 10
3.837601872840636
 20
46.31504176341316
 30
0.0
 10
2.567770193332557
 20
46.10642919139042
 30
0.0
 10
1.285929197879417
 20
45.99587804054303
 30
0.0
 10
0.4285693265226183
 20
45.9778640104634
 30
0.0
 10
-0.0000020278313215
 20
45.97773087866947
 30
0.0
  0
SPLINE
  5
E0
330
1F
100
AcDbEntity
  8
4STAR 2D
 62
     7
100
AcDbSpline
210
0.0
220
0.0
230
1.0
 70
     8
 71
     3
 72
    44
 73
    40
 74
     0
 42
0.0000000001
 43
0.0000000001
 40
-37.0
 40
-37.0
 40
-37.0
 40
-37.0
 40
-36.0
 40
-35.0
 40
-34.0
 40
-33.0
 40
-32.0
 40
-31.0
 40
-30.0
 40
-29.0
 40
-28.0
 40
-27.0
 40
-26.0
 40
-25.0
 40
-24.0
 40
-23.0
 40
-22.0
 40
-21.0
 40
-20.0
 40
-19.0
 40
-18.0
 40
-17.0
 40
-16.0
 40
-15.0
 40
-14.0
 40
-13.0
 40
-12.0
 40
-11.0
 40
-10.0
 40
-9.0
 40
-8.0
 40
-7.0
 40
-6.0
 40
-5.0
 40
-4.0
 40
-3.0
 40
-2.0
 40
-1.0
 40
0.0
 40
0.0
 40
0.0
 40
0.0
 10
-0.0000020278315063
 20
45.97773087866947
 30
0.0
 10
-0.4285733821854461
 20
45.9778640104634
 30
0.0
 10
-1.285933253542245
 20
45.99587804054303
 30
0.0
 10
-2.567774248995383
 20
46.10642919139042
 30
0.0
 10
-3.837605928503462
 20
46.31504176341316
 30
0.0
 10
-5.085353204025454
 20
46.63046312558747
 30
0.0
 10
-6.298794659367342
 20
47.0608633915916
 30
0.0
 10
-7.455598063641024
 20
47.6277702835413
 30
0.0
 10
-8.534113115070769
 20
48.33118359672979
 30
0.0
 10
-9.54795990851158
 20
49.12334712589396
 30
0.0
 10
-10.48876989702449
 20
50.00166369018475
 30
0.0
 10
-11.37028765169316
 20
50.93939456846119
 30
0.0
 10
-12.11157061178918
 20
51.99382829178543
 30
0.0
 10
-12.74387610256706
 20
53.11541859969729
 30
0.0
 10
-13.21358366803939
 20
54.31591673843857
 30
0.0
 10
-13.52932032469909
 20
55.56453371086121
 30
0.0
 10
-13.70517038140957
 20
56.83982075946812
 30
0.0
 10
-13.77068052565968
 20
58.12493069233121
 30
0.0
 10
-13.74313893740391
 20
59.41107470776195
 30
0.0
 10
-13.63695526961153
 20
60.69309274448948
 30
0.0
 10
-13.43568618321019
 20
61.96444940151078
 30
0.0
 10
-13.10383101402185
 20
63.20835842267796
 30
0.0
 10
-12.66432431083382
 20
64.41743837278914
 30
0.0
 10
-12.16781736304959
 20
65.60383514401504
 30
0.0
 10
-11.63116564090421
 20
66.7721841372035
 30
0.0
 10
-11.14953749107599
 20
67.96588014946508
 30
0.0
 10
-10.85114688820468
 20
69.21971158707616
 30
0.0
 10
-10.62275983534832
 20
70.48434225912597
 30
0.0
 10
-10.31242868754932
 20
71.73489702576484
 30
0.0
 10
-10.07471062266271
 20
72.99112697932155
 30
0.0
 10
-9.754864283528335
 20
74.26420168070328
 30
0.0
 10
-8.775285740581019
 20
75.1586000025658
 30
0.0
 10
-7.621336925100853
 20
75.73629335774832
 30
0.0
 10
-6.372863453793916
 20
76.05982405527037
 30
0.0
 10
-5.115587375930133
 20
76.32597296023627
 30
0.0
 10
-3.846029020537717
 20
76.5334706839657
 30
0.0
 10
-2.568603529651037
 20
76.68206267161234
 30
0.0
 10
-1.285732378372192
 20
76.77347584592816
 30
0.0
 10
-0.4286033748261513
 20
76.79569370442444
 30
0.0
 10
-0.0000020278314139
 20
76.79576976300211
 30
0.0
  0
SPLINE
  5
E1
330
1F
100
AcDbEntity
  8
4STAR 2D
 62
     7
100
AcDbSpline
210
0.0
220
0.0
230
1.0
 70
    12
 71
     2
 72
     6
 73
     3
 74
     0
 42
0.0000000001
 43
0.0000000001
 40
0.0
 40
0.0
 40
0.0
 40
0.0535220315884735
 40
0.0535220315884735
 40
0.0535220315884735
 10
-8.533523509632143
 20
61.90659946133803
 30
0.0
 41
1.0
 10
-8.540929505367314
 20
61.88088324748533
 30
0.0
 41
0.9999785721055835
 10
-8.547998176391145
 20
61.8550722746694
 30
0.0
 41
1.0
  0
SPLINE
  5
E2
330
1F
100
AcDbEntity
  8
4STAR 2D
 62
     7
100
AcDbSpline
210
0.0
220
0.0
230
1.0
 70
    12
 71
     2
 72
     6
 73
     3
 74
     0
 42
0.0000000001
 43
0.0000000001
 40
0.0
 40
0.0
 40
0.0
 40
0.5795194748212783
 40
0.5795194748212783
 40
0.5795194748212783
 10
-8.3258198012823
 20
62.46744262526502
 30
0.0
 41
1.0
 10
-8.446692435749378
 20
62.20353887695221
 30
0.0
 41
0.9973767018018687
 10
-8.528192812442791
 20
61.92494765179357
 30
0.0
 41
1.0
  0
SPLINE
  5
E3
330
1F
100
AcDbEntity
  8
4STAR 2D
 62
     7
100
AcDbSpline
210
0.0
220
0.0
230
1.0
 70
    12
 71
     2
 72
     6
 73
     3
 74
     0
 42
0.0000000001
 43
0.0000000001
 40
0.0
 40
0.0
 40
0.0
 40
0.5203773381178486
 40
0.5203773381178486
 40
0.5203773381178486
 10
-5.000170384118812
 20
64.93962948125646
 30
0.0
 41
1.0
 10
-5.252379111667691
 20
64.87533035607929
 30
0.0
 41
0.9994965170730598
 10
-5.500001831003246
 20
64.79516422470675
 30
0.0
 41
1.0
  0
SPLINE
  5
E4
330
1F
100
AcDbEntity
  8
4STAR 2D
 62
     7
100
AcDbSpline
210
0.0
220
0.0
230
1.0
 70
    12
 71
     2
 72
     6
 73
     3
 74
     0
 42
0.0000000001
 43
0.0000000001
 40
0.0
 40
0.0
 40
0.0
 40
0.1738063646563805
 40
0.1738063646563805
 40
0.1738063646563805
 10
-4.321512007964353
 20
65.08814698560884
 30
0.0
 41
1.0
 10
-4.406957010400578
 20
65.07228530819133
 30
0.0
 41
0.9999723778076959
 10
-4.492156791591544
 20
65.05515526041457
 30
0.0
 41
1.0
  0
ENDSEC
  0
SECTION
  2
OBJECTS
  0
DICTIONARY
  5
C
330
0
100
AcDbDictionary
281
     1
  3
ACAD_GROUP
350
D
  3
ACAD_LAYOUT
350
1A
  3
ACAD_MLEADERSTYLE
350
E6
  3
ACAD_MLINESTYLE
350
17
  3
ACAD_PLOTSETTINGS
350
19
  3
ACAD_PLOTSTYLENAME
350
E
  3
ACAD_TABLESTYLE
350
E5
  3
ACAD_VISUALSTYLE
350
2A
  0
DICTIONARY
  5
D
102
{ACAD_REACTORS
330
C
102
}
330
C
100
AcDbDictionary
281
     1
  0
DICTIONARY
  5
1A
102
{ACAD_REACTORS
330
C
102
}
330
C
100
AcDbDictionary
281
     1
  3
Layout1
350
1E
  3
Layout2
350
26
  3
Model
350
22
  0
DICTIONARY
  5
E6
102
{ACAD_REACTORS
330
C
102
}
330
C
100
AcDbDictionary
281
     1
  0
DICTIONARY
  5
17
102
{ACAD_REACTORS
330
C
102
}
330
C
100
AcDbDictionary
281
     1
  3
Standard
350
18
  0
DICTIONARY
  5
19
102
{ACAD_REACTORS
330
C
102
}
330
C
100
AcDbDictionary
281
     1
  0
ACDBDICTIONARYWDFLT
  5
E
102
{ACAD_REACTORS
330
C
102
}
330
C
100
AcDbDictionary
281
     1
  3
Normal
350
F
100
AcDbDictionaryWithDefault
340
F
  0
DICTIONARY
  5
E5
102
{ACAD_REACTORS
330
C
102
}
330
C
100
AcDbDictionary
281
     1
  0
DICTIONARY
  5
2A
102
{ACAD_REACTORS
330
C
102
}
330
C
100
AcDbDictionary
281
     1
  3
2dWireframe
350
2F
  3
3D Hidden
350
31
  3
3dWireframe
350
30
  3
Basic
350
32
  3
Brighten
350
36
  3
ColorChange
350
3A
  3
Conceptual
350
34
  3
Dim
350
35
  3
Facepattern
350
39
  3
Flat
350
2B
  3
FlatWithEdges
350
2C
  3
Gouraud
350
2D
  3
GouraudWithEdges
350
2E
  3
Linepattern
350
38
  3
Realistic
350
33
  3
Thicken
350
37
  0
LAYOUT
  5
1E
102
{ACAD_REACTORS
330
1A
102
}
330
1A
100
AcDbPlotSettings
  1

  2
none_device
  4

  6

 40
0.0
 41
0.0
 42
0.0
 43
0.0
 44
0.0
 45
0.0
 46
0.0
 47
0.0
 48
0.0
 49
0.0
140
0.0
141
0.0
142
1.0
143
1.0
 70
   688
 72
     0
 73
     0
 74
     5
  7

 75
    16
 76
     0
 77
     2
 78
   300
147
1.0
148
0.0
149
0.0
100
AcDbLayout
  1
Layout1
 70
     1
 71
     1
 10
0.0
 20
0.0
 11
12.0
 21
9.0
 12
0.0
 22
0.0
 32
0.0
 14
1.000000000000000E+20
 24
1.000000000000000E+20
 34
1.000000000000000E+20
 15
-1.000000000000000E+20
 25
-1.000000000000000E+20
 35
-1.000000000000000E+20
146
0.0
 13
0.0
 23
0.0
 33
0.0
 16
1.0
 26
0.0
 36
0.0
 17
0.0
 27
1.0
 37
0.0
 76
     0
330
1B
  0
LAYOUT
  5
26
102
{ACAD_REACTORS
330
1A
102
}
330
1A
100
AcDbPlotSettings
  1

  2
none_device
  4

  6

 40
0.0
 41
0.0
 42
0.0
 43
0.0
 44
0.0
 45
0.0
 46
0.0
 47
0.0
 48
0.0
 49
0.0
140
0.0
141
0.0
142
1.0
143
1.0
 70
   688
 72
     0
 73
     0
 74
     5
  7

 75
    16
 76
     0
 77
     2
 78
   300
147
1.0
148
0.0
149
0.0
100
AcDbLayout
  1
Layout2
 70
     1
 71
     2
 10
0.0
 20
0.0
 11
0.0
 21
0.0
 12
0.0
 22
0.0
 32
0.0
 14
0.0
 24
0.0
 34
0.0
 15
0.0
 25
0.0
 35
0.0
146
0.0
 13
0.0
 23
0.0
 33
0.0
 16
1.0
 26
0.0
 36
0.0
 17
0.0
 27
1.0
 37
0.0
 76
     0
330
23
  0
LAYOUT
  5
22
102
{ACAD_REACTORS
330
1A
102
}
330
1A
100
AcDbPlotSettings
  1

  2
none_device
  4

  6

 40
0.0
 41
0.0
 42
0.0
 43
0.0
 44
0.0
 45
0.0
 46
0.0
 47
0.0
 48
0.0
 49
0.0
140
0.0
141
0.0
142
1.0
143
1.0
 70
  1712
 72
     0
 73
     0
 74
     0
  7

 75
     0
 76
     0
 77
     2
 78
   300
147
1.0
148
0.0
149
0.0
100
AcDbLayout
  1
Model
 70
     1
 71
     0
 10
0.0
 20
0.0
 11
12.0
 21
9.0
 12
0.0
 22
0.0
 32
0.0
 14
-14.64935312113161
 24
0.0000000000000009
 34
0.0
 15
55.3980046449974
 25
76.79576976300211
 35
0.0
146
0.0
 13
0.0
 23
0.0
 33
0.0
 16
1.0
 26
0.0
 36
0.0
 17
0.0
 27
1.0
 37
0.0
 76
     0
330
1F
331
29
  0
MLINESTYLE
  5
18
102
{ACAD_REACTORS
330
17
102
}
330
17
100
AcDbMlineStyle
  2
Standard
 70
     0
  3

 62
   256
 51
90.0
 52
90.0
 71
     2
 49
0.5
 62
   256
  6
BYLAYER
 49
-0.5
 62
   256
  6
BYLAYER
  0
ACDBPLACEHOLDER
  5
F
102
{ACAD_REACTORS
330
E
102
}
330
E
  0
VISUALSTYLE
  5
2F
102
{ACAD_REACTORS
330
2A
102
}
330
2A
100
AcDbVisualStyle
  2
2dWireframe
 70
     4
 71
     0
 72
     2
 73
     0
 90
        0
 40
-0.6
 41
-30.0
 62
     5
 63
     7
421
 16777215
 74
     1
 91
        4
 64
     7
 65
   257
 75
     1
175
     1
 42
1.0
 92
        0
 66
   257
 43
1.0
 76
     1
 77
     6
 78
     2
 67
     7
 79
     5
170
     0
171
     0
290
     0
174
     0
 93
        1
 44
0.0
173
     0
291
     0
 45
0.0
1001
ACAD
1000
AcDbSavedByObjectVersion
1070
     0
  0
VISUALSTYLE
  5
31
102
{ACAD_REACTORS
330
2A
102
}
330
2A
100
AcDbVisualStyle
  2
3D Hidden
 70
     6
 71
     1
 72
     2
 73
     2
 90
        0
 40
-0.6
 41
-30.0
 62
     5
 63
     7
421
 16777215
 74
     2
 91
        2
 64
     7
 65
   257
 75
     2
175
     1
 42
40.0
 92
        0
 66
   257
 43
1.0
 76
     1
 77
     6
 78
     2
 67
     7
 79
     3
170
     0
171
     0
290
     0
174
     0
 93
        1
 44
0.0
173
     0
291
     0
 45
0.0
1001
ACAD
1000
AcDbSavedByObjectVersion
1070
     0
  0
VISUALSTYLE
  5
30
102
{ACAD_REACTORS
330
2A
102
}
330
2A
100
AcDbVisualStyle
  2
3dWireframe
 70
     5
 71
     0
 72
     2
 73
     0
 90
        0
 40
-0.6
 41
-30.0
 62
     5
 63
     7
421
 16777215
 74
     1
 91
        4
 64
     7
 65
   257
 75
     1
175
     1
 42
1.0
 92
        0
 66
   257
 43
1.0
 76
     1
 77
     6
 78
     2
 67
     7
 79
     5
170
     0
171
     0
290
     0
174
     0
 93
        1
 44
0.0
173
     0
291
     0
 45
0.0
1001
ACAD
1000
AcDbSavedByObjectVersion
1070
     0
  0
VISUALSTYLE
  5
32
102
{ACAD_REACTORS
330
2A
102
}
330
2A
100
AcDbVisualStyle
  2
Basic
 70
     7
 71
     1
 72
     0
 73
     1
 90
        0
 40
-0.6
 41
-30.0
 62
     5
 63
     7
421
 16777215
 74
     0
 91
        4
 64
     7
 65
   257
 75
     1
175
     1
 42
1.0
 92
        8
 66
     7
 43
1.0
 76
     1
 77
     6
 78
     2
 67
     7
 79
     5
170
     0
171
     0
290
     0
174
     0
 93
        1
 44
0.0
173
     0
291
     1
 45
0.0
1001
ACAD
1000
AcDbSavedByObjectVersion
1070
     0
  0
VISUALSTYLE
  5
36
102
{ACAD_REACTORS
330
2A
102
}
330
2A
100
AcDbVisualStyle
  2
Brighten
 70
    12
 71
     2
 72
     2
 73
     0
 90
        0
 40
-0.6
 41
-30.0
 62
     5
 63
     7
421
 16777215
 74
     1
 91
        4
 64
     7
 65
   257
 75
     1
175
     1
 42
1.0
 92
        8
 66
     7
 43
1.0
 76
     1
 77
     6
 78
     2
 67
     7
 79
     5
170
     0
171
     0
290
     0
174
     0
 93
        1
 44
50.0
173
     0
291
     1
 45
0.0
1001
ACAD
1000
AcDbSavedByObjectVersion
1070
     0
  0
VISUALSTYLE
  5
3A
102
{ACAD_REACTORS
330
2A
102
}
330
2A
100
AcDbVisualStyle
  2
ColorChange
 70
    16
 71
     2
 72
     2
 73
     3
 90
        0
 40
-0.6
 41
-30.0
 62
     5
 63
     8
421
  8421504
 74
     1
 91
        4
 64
     7
 65
   257
 75
     1
175
     1
 42
1.0
 92
        8
 66
     8
424
  8421504
 43
1.0
 76
     1
 77
     6
 78
     2
 67
     7
 79
     5
170
     0
171
     0
290
     0
174
     0
 93
        1
 44
0.0
173
     0
291
     1
 45
0.0
1001
ACAD
1000
AcDbSavedByObjectVersion
1070
     0
  0
VISUALSTYLE
  5
34
102
{ACAD_REACTORS
330
2A
102
}
330
2A
100
AcDbVisualStyle
  2
Conceptual
 70
     9
 71
     3
 72
     2
 73
     0
 90
        0
 40
-0.6
 41
-30.0
 62
     5
 63
     7
421
 16777215
 74
     2
 91
        2
 64
     7
 65
   257
 75
     1
175
     1
 42
40.0
 92
        8
 66
     7
 43
1.0
 76
     1
 77
     6
 78
     2
 67
     7
 79
     3
170
     0
171
     0
290
     0
174
     0
 93
        1
 44
0.0
173
     0
291
     0
 45
0.0
1001
ACAD
1000
AcDbSavedByObjectVersion
1070
     0
  0
VISUALSTYLE
  5
35
102
{ACAD_REACTORS
330
2A
102
}
330
2A
100
AcDbVisualStyle
  2
Dim
 70
    11
 71
     2
 72
     2
 73
     0
 90
        0
 40
-0.6
 41
-30.0
 62
     5
 63
     7
421
 16777215
 74
     1
 91
        4
 64
     7
 65
   257
 75
     1
175
     1
 42
1.0
 92
        8
 66
     7
 43
1.0
 76
     1
 77
     6
 78
     2
 67
     7
 79
     5
170
     0
171
     0
290
     0
174
     0
 93
        1
 44
-50.0
173
     0
291
     1
 45
0.0
1001
ACAD
1000
AcDbSavedByObjectVersion
1070
     0
  0
VISUALSTYLE
  5
39
102
{ACAD_REACTORS
330
2A
102
}
330
2A
100
AcDbVisualStyle
  2
Facepattern
 70
    15
 71
     2
 72
     2
 73
     0
 90
        0
 40
-0.6
 41
-30.0
 62
     5
 63
     7
421
 16777215
 74
     1
 91
        4
 64
     7
 65
   257
 75
     1
175
     1
 42
1.0
 92
        8
 66
     7
 43
1.0
 76
     1
 77
     6
 78
     2
 67
     7
 79
     5
170
     0
171
     0
290
     0
174
     0
 93
        1
 44
0.0
173
     0
291
     1
 45
0.0
1001
ACAD
1000
AcDbSavedByObjectVersion
1070
     0
  0
VISUALSTYLE
  5
2B
102
{ACAD_REACTORS
330
2A
102
}
330
2A
100
AcDbVisualStyle
  2
Flat
 70
     0
 71
     2
 72
     1
 73
     1
 90
        2
 40
-0.6
 41
30.0
 62
     5
 63
     7
421
 16777215
 74
     0
 91
        4
 64
     7
 65
   257
 75
     1
175
     1
 42
1.0
 92
        8
 66
     7
 43
1.0
 76
     1
 77
     6
 78
     2
 67
     7
 79
     5
170
     0
171
     0
290
     0
174
     0
 93
       13
 44
0.0
173
     0
291
     1
 45
0.0
1001
ACAD
1000
AcDbSavedByObjectVersion
1070
     0
  0
VISUALSTYLE
  5
2C
102
{ACAD_REACTORS
330
2A
102
}
330
2A
100
AcDbVisualStyle
  2
FlatWithEdges
 70
     1
 71
     2
 72
     1
 73
     1
 90
        2
 40
-0.6
 41
30.0
 62
     5
 63
     7
421
 16777215
 74
     1
 91
        4
 64
     7
 65
   257
 75
     1
175
     1
 42
1.0
 92
        0
 66
   257
 43
1.0
 76
     1
 77
     6
 78
     2
 67
     7
 79
     5
170
     0
171
     0
290
     0
174
     0
 93
       13
 44
0.0
173
     0
291
     1
 45
0.0
1001
ACAD
1000
AcDbSavedByObjectVersion
1070
     0
  0
VISUALSTYLE
  5
2D
102
{ACAD_REACTORS
330
2A
102
}
330
2A
100
AcDbVisualStyle
  2
Gouraud
 70
     2
 71
     2
 72
     2
 73
     1
 90
        2
 40
-0.6
 41
30.0
 62
     5
 63
     7
421
 16777215
 74
     0
 91
        4
 64
     7
 65
   257
 75
     1
175
     1
 42
1.0
 92
        0
 66
     7
 43
1.0
 76
     1
 77
     6
 78
     2
 67
     7
 79
     5
170
     0
171
     0
290
     0
174
     0
 93
       13
 44
0.0
173
     0
291
     1
 45
0.0
1001
ACAD
1000
AcDbSavedByObjectVersion
1070
     0
  0
VISUALSTYLE
  5
2E
102
{ACAD_REACTORS
330
2A
102
}
330
2A
100
AcDbVisualStyle
  2
GouraudWithEdges
 70
     3
 71
     2
 72
     2
 73
     1
 90
        2
 40
-0.6
 41
30.0
 62
     5
 63
     7
421
 16777215
 74
     1
 91
        4
 64
     7
 65
   257
 75
     1
175
     1
 42
1.0
 92
        0
 66
   257
 43
1.0
 76
     1
 77
     6
 78
     2
 67
     7
 79
     5
170
     0
171
     0
290
     0
174
     0
 93
       13
 44
0.0
173
     0
291
     1
 45
0.0
1001
ACAD
1000
AcDbSavedByObjectVersion
1070
     0
  0
VISUALSTYLE
  5
38
102
{ACAD_REACTORS
330
2A
102
}
330
2A
100
AcDbVisualStyle
  2
Linepattern
 70
    14
 71
     2
 72
     2
 73
     0
 90
        0
 40
-0.6
 41
-30.0
 62
     5
 63
     7
421
 16777215
 74
     1
 91
        4
 64
     7
 65
   257
 75
     7
175
     7
 42
1.0
 92
        8
 66
     7
 43
1.0
 76
     1
 77
     6
 78
     2
 67
     7
 79
     5
170
     0
171
     0
290
     0
174
     0
 93
        1
 44
0.0
173
     0
291
     1
 45
0.0
1001
ACAD
1000
AcDbSavedByObjectVersion
1070
     0
  0
VISUALSTYLE
  5
33
102
{ACAD_REACTORS
330
2A
102
}
330
2A
100
AcDbVisualStyle
  2
Realistic
 70
     8
 71
     2
 72
     2
 73
     0
 90
        0
 40
-0.6
 41
-30.0
 62
     5
 63
     7
421
 16777215
 74
     1
 91
        0
 64
     7
 65
   257
 75
     1
175
     1
 42
1.0
 92
        8
 66
     8
424
  7895160
 43
1.0
 76
     1
 77
     6
 78
     2
 67
     7
 79
     5
170
     0
171
     0
290
     0
174
     0
 93
       13
 44
0.0
173
     0
291
     0
 45
0.0
1001
ACAD
1000
AcDbSavedByObjectVersion
1070
     0
  0
VISUALSTYLE
  5
37
102
{ACAD_REACTORS
330
2A
102
}
330
2A
100
AcDbVisualStyle
  2
Thicken
 70
    13
 71
     2
 72
     2
 73
     0
 90
        0
 40
-0.6
 41
-30.0
 62
     5
 63
     7
421
 16777215
 74
     1
 91
        4
 64
     7
 65
   257
 75
     1
175
     1
 42
1.0
 92
       12
 66
     7
 43
1.0
 76
     1
 77
     6
 78
     2
 67
     7
 79
     5
170
     0
171
     0
290
     0
174
     0
 93
        1
 44
0.0
173
     0
291
     1
 45
0.0
1001
ACAD
1000
AcDbSavedByObjectVersion
1070
     0
  0
ENDSEC
  0
EOF
