  0
SECTION
  2
HEADER
  9
$ACADVER
  1
AC1018
  9
$ACADMAINTVER
 70
     0
  9
$DWGCODEPAGE
  3
ANSI_1252
  9
$INSBASE
 10
0.0
 20
0.0
 30
0.0
  9
$EXTMIN
 10
-13.41823704786502
 20
-0.0000008859445404
 30
0.0
  9
$EXTMAX
 10
55.75098596941117
 20
75.86655527945976
 30
0.0
  9
$LIMMIN
 10
0.0
 20
0.0
  9
$LIMMAX
 10
12.0
 20
9.0
  9
$ORTHOMODE
 70
     0
  9
$REGENMODE
 70
     1
  9
$FILLMODE
 70
     1
  9
$QTEXTMODE
 70
     0
  9
$MIRRTEXT
 70
     1
  9
$LTSCALE
 40
0.0393700787401575
  9
$ATTMODE
 70
     1
  9
$TEXTSIZE
 40
0.2
  9
$TRACEWID
 40
0.05
  9
$TEXTSTYLE
  7
Standard
  9
$CLAYER
  8
0
  9
$CELTYPE
  6
ByLayer
  9
$CECOLOR
 62
   256
  9
$CELTSCALE
 40
1.0
  9
$DISPSILH
 70
     0
  9
$DIMSCALE
 40
1.0
  9
$DIMASZ
 40
0.18
  9
$DIMEXO
 40
0.0625
  9
$DIMDLI
 40
0.38
  9
$DIMRND
 40
0.0
  9
$DIMDLE
 40
0.0
  9
$DIMEXE
 40
0.18
  9
$DIMTP
 40
0.0
  9
$DIMTM
 40
0.0
  9
$DIMTXT
 40
0.18
  9
$DIMCEN
 40
0.09
  9
$DIMTSZ
 40
0.0
  9
$DIMTOL
 70
     0
  9
$DIMLIM
 70
     0
  9
$DIMTIH
 70
     1
  9
$DIMTOH
 70
     1
  9
$DIMSE1
 70
     0
  9
$DIMSE2
 70
     0
  9
$DIMTAD
 70
     0
  9
$DIMZIN
 70
     0
  9
$DIMBLK
  1

  9
$DIMASO
 70
     1
  9
$DIMSHO
 70
     1
  9
$DIMPOST
  1

  9
$DIMAPOST
  1

  9
$DIMALT
 70
     0
  9
$DIMALTD
 70
     2
  9
$DIMALTF
 40
25.4
  9
$DIMLFAC
 40
1.0
  9
$DIMTOFL
 70
     0
  9
$DIMTVP
 40
0.0
  9
$DIMTIX
 70
     0
  9
$DIMSOXD
 70
     0
  9
$DIMSAH
 70
     0
  9
$DIMBLK1
  1

  9
$DIMBLK2
  1

  9
$DIMSTYLE
  2
Standard
  9
$DIMCLRD
 70
     0
  9
$DIMCLRE
 70
     0
  9
$DIMCLRT
 70
     0
  9
$DIMTFAC
 40
1.0
  9
$DIMGAP
 40
0.09
  9
$DIMJUST
 70
     0
  9
$DIMSD1
 70
     0
  9
$DIMSD2
 70
     0
  9
$DIMTOLJ
 70
     1
  9
$DIMTZIN
 70
     0
  9
$DIMALTZ
 70
     0
  9
$DIMALTTZ
 70
     0
  9
$DIMUPT
 70
     0
  9
$DIMDEC
 70
     4
  9
$DIMTDEC
 70
     4
  9
$DIMALTU
 70
     2
  9
$DIMALTTD
 70
     2
  9
$DIMTXSTY
  7
Standard
  9
$DIMAUNIT
 70
     0
  9
$DIMADEC
 70
     0
  9
$DIMALTRND
 40
0.0
  9
$DIMAZIN
 70
     0
  9
$DIMDSEP
 70
    46
  9
$DIMATFIT
 70
     3
  9
$DIMFRAC
 70
     0
  9
$DIMLDRBLK
  1

  9
$DIMLUNIT
 70
     2
  9
$DIMLWD
 70
    -2
  9
$DIMLWE
 70
    -2
  9
$DIMTMOVE
 70
     2
  9
$LUNITS
 70
     2
  9
$LUPREC
 70
     3
  9
$SKETCHINC
 40
0.1
  9
$FILLETRAD
 40
0.5
  9
$AUNITS
 70
     0
  9
$AUPREC
 70
     0
  9
$MENU
  1
.
  9
$ELEVATION
 40
0.0
  9
$PELEVATION
 40
0.0
  9
$THICKNESS
 40
0.0
  9
$LIMCHECK
 70
     0
  9
$CHAMFERA
 40
0.5
  9
$CHAMFERB
 40
0.5
  9
$CHAMFERC
 40
1.0
  9
$CHAMFERD
 40
0.0
  9
$SKPOLY
 70
     0
  9
$TDCREATE
 40
2457883.505299259
  9
$TDUCREATE
 40
2457883.671965926
  9
$TDUPDATE
 40
2457883.505299271
  9
$TDUUPDATE
 40
2457883.671965938
  9
$TDINDWG
 40
0.0000000116
  9
$TDUSRTIMER
 40
0.0000000116
  9
$USRTIMER
 70
     1
  9
$ANGBASE
 50
0.0
  9
$ANGDIR
 70
     0
  9
$PDMODE
 70
     0
  9
$PDSIZE
 40
0.0
  9
$PLINEWID
 40
0.0
  9
$SPLFRAME
 70
     0
  9
$SPLINETYPE
 70
     6
  9
$SPLINESEGS
 70
     8
  9
$HANDSEED
  5
E1
  9
$SURFTAB1
 70
     6
  9
$SURFTAB2
 70
     6
  9
$SURFTYPE
 70
     6
  9
$SURFU
 70
     6
  9
$SURFV
 70
     6
  9
$UCSBASE
  2

  9
$UCSNAME
  2

  9
$UCSORG
 10
0.0
 20
0.0
 30
0.0
  9
$UCSXDIR
 10
1.0
 20
0.0
 30
0.0
  9
$UCSYDIR
 10
0.0
 20
1.0
 30
0.0
  9
$UCSORTHOREF
  2

  9
$UCSORTHOVIEW
 70
     0
  9
$UCSORGTOP
 10
0.0
 20
0.0
 30
0.0
  9
$UCSORGBOTTOM
 10
0.0
 20
0.0
 30
0.0
  9
$UCSORGLEFT
 10
0.0
 20
0.0
 30
0.0
  9
$UCSORGRIGHT
 10
0.0
 20
0.0
 30
0.0
  9
$UCSORGFRONT
 10
0.0
 20
0.0
 30
0.0
  9
$UCSORGBACK
 10
0.0
 20
0.0
 30
0.0
  9
$PUCSBASE
  2

  9
$PUCSNAME
  2

  9
$PUCSORG
 10
0.0
 20
0.0
 30
0.0
  9
$PUCSXDIR
 10
1.0
 20
0.0
 30
0.0
  9
$PUCSYDIR
 10
0.0
 20
1.0
 30
0.0
  9
$PUCSORTHOREF
  2

  9
$PUCSORTHOVIEW
 70
     0
  9
$PUCSORGTOP
 10
0.0
 20
0.0
 30
0.0
  9
$PUCSORGBOTTOM
 10
0.0
 20
0.0
 30
0.0
  9
$PUCSORGLEFT
 10
0.0
 20
0.0
 30
0.0
  9
$PUCSORGRIGHT
 10
0.0
 20
0.0
 30
0.0
  9
$PUCSORGFRONT
 10
0.0
 20
0.0
 30
0.0
  9
$PUCSORGBACK
 10
0.0
 20
0.0
 30
0.0
  9
$USERI1
 70
     0
  9
$USERI2
 70
     0
  9
$USERI3
 70
     0
  9
$USERI4
 70
     0
  9
$USERI5
 70
     0
  9
$USERR1
 40
0.0
  9
$USERR2
 40
0.0
  9
$USERR3
 40
0.0
  9
$USERR4
 40
0.0
  9
$USERR5
 40
0.0
  9
$WORLDVIEW
 70
     1
  9
$SHADEDGE
 70
     3
  9
$SHADEDIF
 70
    70
  9
$TILEMODE
 70
     1
  9
$MAXACTVP
 70
    64
  9
$PINSBASE
 10
0.0
 20
0.0
 30
0.0
  9
$PLIMCHECK
 70
     0
  9
$PEXTMIN
 10
1.000000000000000E+20
 20
1.000000000000000E+20
 30
1.000000000000000E+20
  9
$PEXTMAX
 10
-1.000000000000000E+20
 20
-1.000000000000000E+20
 30
-1.000000000000000E+20
  9
$PLIMMIN
 10
0.0
 20
0.0
  9
$PLIMMAX
 10
12.0
 20
9.0
  9
$UNITMODE
 70
     0
  9
$VISRETAIN
 70
     1
  9
$PLINEGEN
 70
     0
  9
$PSLTSCALE
 70
     1
  9
$TREEDEPTH
 70
  3020
  9
$CMLSTYLE
  2
Standard
  9
$CMLJUST
 70
     0
  9
$CMLSCALE
 40
1.0
  9
$PROXYGRAPHICS
 70
     1
  9
$MEASUREMENT
 70
     0
  9
$CELWEIGHT
370
    -1
  9
$ENDCAPS
280
     0
  9
$JOINSTYLE
280
     0
  9
$LWDISPLAY
290
     0
  9
$INSUNITS
 70
     1
  9
$HYPERLINKBASE
  1

  9
$STYLESHEET
  1

  9
$XEDIT
290
     1
  9
$CEPSNTYPE
380
     0
  9
$PSTYLEMODE
290
     1
  9
$FINGERPRINTGUID
  2
{B5FA111B-7F4A-4886-8B47-15BBE3588AFD}
  9
$VERSIONGUID
  2
{FAEB1C32-E019-11D5-929B-00C0DF256EC4}
  9
$EXTNAMES
290
     1
  9
$PSVPSCALE
 40
0.0
  9
$OLESTARTUP
290
     0
  9
$SORTENTS
280
   127
  9
$INDEXCTL
280
     0
  9
$HIDETEXT
280
     1
  9
$XCLIPFRAME
290
     0
  9
$HALOGAP
280
     0
  9
$OBSCOLOR
 70
   257
  9
$OBSLTYPE
280
     0
  9
$INTERSECTIONDISPLAY
280
     0
  9
$INTERSECTIONCOLOR
 70
   257
  9
$DIMASSOC
280
     2
  9
$PROJECTNAME
  1

  0
ENDSEC
  0
SECTION
  2
CLASSES
  0
CLASS
  1
ACDBDICTIONARYWDFLT
  2
AcDbDictionaryWithDefault
  3
ObjectDBX Classes
 90
        0
 91
        4
280
     0
281
     0
  0
CLASS
  1
VISUALSTYLE
  2
AcDbVisualStyle
  3
ObjectDBX Classes
 90
     4095
 91
        4
280
     0
281
     0
  0
ENDSEC
  0
SECTION
  2
TABLES
  0
TABLE
  2
VPORT
  5
8
330
0
100
AcDbSymbolTable
 70
     1
  0
VPORT
  5
29
330
8
100
AcDbSymbolTableRecord
100
AcDbViewportTableRecord
  2
*Active
 70
     0
 10
0.0
 20
0.0
 11
1.0
 21
1.0
 12
21.16637446077307
 22
37.93327719675761
 13
0.0
 23
0.0
 14
0.5
 24
0.5
 15
0.5
 25
0.5
 16
0.0
 26
0.0
 36
1.0
 17
0.0
 27
0.0
 37
0.0
 40
77.38388728871239
 41
0.9117221937222695
 42
50.0
 43
0.0
 44
0.0
 50
0.0
 51
0.0
 71
     0
 72
   100
 73
     1
 74
     3
 75
     0
 76
     0
 77
     0
 78
     0
281
     0
 65
     1
110
0.0
120
0.0
130
0.0
111
1.0
121
0.0
131
0.0
112
0.0
122
1.0
132
0.0
 79
     0
146
0.0
  0
ENDTAB
  0
TABLE
  2
LTYPE
  5
5
330
0
100
AcDbSymbolTable
 70
     1
  0
LTYPE
  5
14
330
5
100
AcDbSymbolTableRecord
100
AcDbLinetypeTableRecord
  2
ByBlock
 70
     0
  3

 72
    65
 73
     0
 40
0.0
  0
LTYPE
  5
15
330
5
100
AcDbSymbolTableRecord
100
AcDbLinetypeTableRecord
  2
ByLayer
 70
     0
  3

 72
    65
 73
     0
 40
0.0
  0
LTYPE
  5
16
330
5
100
AcDbSymbolTableRecord
100
AcDbLinetypeTableRecord
  2
Continuous
 70
     0
  3
Solid line
 72
    65
 73
     0
 40
0.0
  0
ENDTAB
  0
TABLE
  2
LAYER
  5
2
330
0
100
AcDbSymbolTable
 70
     2
  0
LAYER
  5
10
330
2
100
AcDbSymbolTableRecord
100
AcDbLayerTableRecord
  2
0
 70
     0
 62
     7
  6
Continuous
370
    -3
390
F
  0
LAYER
  5
3B
330
2
100
AcDbSymbolTableRecord
100
AcDbLayerTableRecord
  2
sled - arm 2d
 70
     0
 62
     7
  6
Continuous
370
    -3
390
F
  0
ENDTAB
  0
TABLE
  2
STYLE
  5
3
330
0
100
AcDbSymbolTable
 70
     1
  0
STYLE
  5
11
330
3
100
AcDbSymbolTableRecord
100
AcDbTextStyleTableRecord
  2
Standard
 70
     0
 40
0.0
 41
1.0
 50
0.0
 71
     0
 42
0.2
  3
txt
  4

  0
ENDTAB
  0
TABLE
  2
VIEW
  5
6
330
0
100
AcDbSymbolTable
 70
     0
  0
ENDTAB
  0
TABLE
  2
UCS
  5
7
330
0
100
AcDbSymbolTable
 70
     0
  0
ENDTAB
  0
TABLE
  2
APPID
  5
9
330
0
100
AcDbSymbolTable
 70
     1
  0
APPID
  5
12
330
9
100
AcDbSymbolTableRecord
100
AcDbRegAppTableRecord
  2
ACAD
 70
     0
  0
ENDTAB
  0
TABLE
  2
DIMSTYLE
  5
A
330
0
100
AcDbSymbolTable
 70
     1
100
AcDbDimStyleTable
  0
DIMSTYLE
105
27
330
A
100
AcDbSymbolTableRecord
100
AcDbDimStyleTableRecord
  2
Standard
 70
     0
340
11
  0
ENDTAB
  0
TABLE
  2
BLOCK_RECORD
  5
1
330
0
100
AcDbSymbolTable
 70
     1
  0
BLOCK_RECORD
  5
1F
330
1
100
AcDbSymbolTableRecord
100
AcDbBlockTableRecord
  2
*Model_Space
340
22
  0
BLOCK_RECORD
  5
1B
330
1
100
AcDbSymbolTableRecord
100
AcDbBlockTableRecord
  2
*Paper_Space
340
1E
  0
BLOCK_RECORD
  5
23
330
1
100
AcDbSymbolTableRecord
100
AcDbBlockTableRecord
  2
*Paper_Space0
340
26
  0
ENDTAB
  0
ENDSEC
  0
SECTION
  2
BLOCKS
  0
BLOCK
  5
20
330
1F
100
AcDbEntity
  8
0
100
AcDbBlockBegin
  2
*Model_Space
 70
     0
 10
0.0
 20
0.0
 30
0.0
  3
*Model_Space
  1

  0
ENDBLK
  5
21
330
1F
100
AcDbEntity
  8
0
100
AcDbBlockEnd
  0
BLOCK
  5
1C
330
1B
100
AcDbEntity
 67
     1
  8
0
100
AcDbBlockBegin
  2
*Paper_Space
 70
     0
 10
0.0
 20
0.0
 30
0.0
  3
*Paper_Space
  1

  0
ENDBLK
  5
1D
330
1B
100
AcDbEntity
 67
     1
  8
0
100
AcDbBlockEnd
  0
BLOCK
  5
24
330
23
100
AcDbEntity
  8
0
100
AcDbBlockBegin
  2
*Paper_Space0
 70
     0
 10
0.0
 20
0.0
 30
0.0
  3
*Paper_Space0
  1

  0
ENDBLK
  5
25
330
23
100
AcDbEntity
  8
0
100
AcDbBlockEnd
  0
ENDSEC
  0
SECTION
  2
ENTITIES
  0
SPLINE
  5
3C
330
1F
100
AcDbEntity
  8
sled - arm 2d
 62
     7
100
AcDbSpline
210
0.0
220
0.0
230
1.0
 70
     8
 71
     3
 72
    13
 73
     9
 74
     0
 42
0.0000000001
 43
0.0000000001
 40
0.0
 40
0.0
 40
0.0
 40
0.0
 40
0.221081552131047
 40
0.4532204846550357
 40
0.9832619185522135
 40
1.5024722513687
 40
1.989612707728416
 40
3.885149291570795
 40
3.885149291570795
 40
3.885149291570795
 40
3.885149291570795
 10
55.15968400874313
 20
16.21764138079162
 30
0.0
 10
55.21203208148822
 20
16.26939886058732
 30
0.0
 10
55.305620660885
 20
16.38994248652102
 30
0.0
 10
55.42958732062686
 20
16.69634571711317
 30
0.0
 10
55.4558673346673
 20
17.13074582422336
 30
0.0
 10
55.30345727694964
 20
17.62836419094209
 30
0.0
 10
54.66460733554213
 20
18.38565695554454
 30
0.0
 10
53.61810019610751
 20
18.31554258125414
 30
0.0
 10
53.25328437171896
 20
18.31402731467198
 30
0.0
  0
SPLINE
  5
3D
330
1F
100
AcDbEntity
  8
sled - arm 2d
 62
     7
100
AcDbSpline
210
0.0
220
0.0
230
1.0
 70
     8
 71
     3
 72
    14
 73
    10
 74
     0
 42
0.0000000001
 43
0.0000000001
 40
0.0115143888993895
 40
0.0115143888993895
 40
0.0115143888993895
 40
0.0115143888993895
 40
1.0
 40
2.0
 40
3.0
 40
4.0
 40
5.0
 40
6.0
 40
7.0
 40
7.0
 40
7.0
 40
7.0
 10
8.284104422280821
 20
17.89374652648139
 30
0.0
 10
7.95080911585223
 20
18.11882926344106
 30
0.0
 10
7.148542773252252
 20
18.19771027285915
 30
0.0
 10
5.967444718435604
 20
18.26148299751395
 30
0.0
 10
4.772854925378389
 20
18.29379653462215
 30
0.0
 10
3.579940338253927
 20
18.29436971070293
 30
0.0
 10
2.386556046866611
 20
18.30049433586367
 30
0.0
 10
1.193295964938117
 20
18.30444658417223
 30
0.0
 10
0.3977621819706307
 20
18.30707461771841
 30
0.0
 10
0.0000000000000036
 20
18.3082324037282
 30
0.0
  0
SPLINE
  5
3E
330
1F
100
AcDbEntity
  8
sled - arm 2d
 62
     7
100
AcDbSpline
210
0.0
220
0.0
230
1.0
 70
     8
 71
     3
 72
    14
 73
    10
 74
     0
 42
0.0000000001
 43
0.0000000001
 40
-7.0
 40
-7.0
 40
-7.0
 40
-7.0
 40
-6.0
 40
-5.0
 40
-4.0
 40
-3.0
 40
-2.0
 40
-1.0
 40
-0.0115143888994373
 40
-0.0115143888994373
 40
-0.0115143888994373
 40
-0.0115143888994373
 10
0.0000000000000036
 20
18.3082324037282
 30
0.0
 10
-0.3977621819706236
 20
18.30707461771841
 30
0.0
 10
-1.19329596493811
 20
18.30444658417221
 30
0.0
 10
-2.386556046866604
 20
18.30049433586364
 30
0.0
 10
-3.57994033825392
 20
18.2943697107029
 30
0.0
 10
-4.772854925378382
 20
18.2937965346221
 30
0.0
 10
-5.967444718435596
 20
18.26148299751388
 30
0.0
 10
-7.148542773252225
 20
18.19771027285908
 30
0.0
 10
-7.950809115852183
 20
18.11882926344098
 30
0.0
 10
-8.28410442228076
 20
17.89374652648133
 30
0.0
  0
SPLINE
  5
3F
330
1F
100
AcDbEntity
  8
sled - arm 2d
 62
     7
100
AcDbSpline
210
0.0
220
0.0
230
1.0
 70
     8
 71
     3
 72
    14
 73
    10
 74
     0
 42
0.0000000001
 43
0.0000000001
 40
0.0
 40
0.0
 40
0.0
 40
0.0
 40
1.0
 40
2.0
 40
3.0
 40
4.0
 40
5.0
 40
6.0
 40
7.0
 40
7.0
 40
7.0
 40
7.0
 10
9.47099543356499
 20
19.55647952632111
 30
0.0
 10
9.263845691907445
 20
19.09082038700913
 30
0.0
 10
8.71207518738171
 20
18.21762381634008
 30
0.0
 10
7.520346836321244
 20
17.22287110177934
 30
0.0
 10
6.090483877578968
 20
16.64429573931208
 30
0.0
 10
4.582490860708207
 20
16.36028857318202
 30
0.0
 10
3.059779571076865
 20
16.20107293633583
 30
0.0
 10
1.530738609525921
 20
16.11868281712855
 30
0.0
 10
0.5102760775281062
 20
16.10040705336621
 30
0.0
 10
0.0
 20
16.1012020170593
 30
0.0
  0
SPLINE
  5
40
330
1F
100
AcDbEntity
  8
sled - arm 2d
 62
     7
100
AcDbSpline
210
0.0
220
0.0
230
1.0
 70
     8
 71
     3
 72
    14
 73
    10
 74
     0
 42
0.0000000001
 43
0.0000000001
 40
-7.0
 40
-7.0
 40
-7.0
 40
-7.0
 40
-6.0
 40
-5.0
 40
-4.0
 40
-3.0
 40
-2.0
 40
-1.0
 40
0.0
 40
0.0
 40
0.0
 40
0.0
 10
0.0
 20
16.1012020170593
 30
0.0
 10
-0.5102760775281062
 20
16.10040705336621
 30
0.0
 10
-1.530738609525921
 20
16.11868281712855
 30
0.0
 10
-3.059779571076865
 20
16.20107293633583
 30
0.0
 10
-4.582490860708207
 20
16.36028857318202
 30
0.0
 10
-6.090483877578968
 20
16.64429573931208
 30
0.0
 10
-7.520346836321244
 20
17.22287110177934
 30
0.0
 10
-8.71207518738171
 20
18.21762381634008
 30
0.0
 10
-9.263845691907445
 20
19.09082038700913
 30
0.0
 10
-9.47099543356499
 20
19.55647952632111
 30
0.0
  0
SPLINE
  5
41
330
1F
100
AcDbEntity
  8
sled - arm 2d
 62
     7
100
AcDbSpline
210
0.0
220
0.0
230
1.0
 70
     8
 71
     3
 72
    24
 73
    20
 74
     0
 42
0.0000000001
 43
0.0000000001
 40
-17.0
 40
-17.0
 40
-17.0
 40
-17.0
 40
-16.0
 40
-15.0
 40
-14.0
 40
-13.0
 40
-12.0
 40
-11.0
 40
-10.0
 40
-9.0
 40
-8.0
 40
-7.0
 40
-6.0
 40
-5.0
 40
-4.0
 40
-3.0
 40
-2.0
 40
-1.0
 40
0.0
 40
0.0
 40
0.0
 40
0.0
 10
-13.22687778250006
 20
26.10530957215532
 30
0.0
 10
-13.03727270908051
 20
26.38949276115037
 30
0.0
 10
-12.38998461297896
 20
26.57097898352193
 30
0.0
 10
-11.60675314362203
 20
27.15999532298077
 30
0.0
 10
-11.03398993791485
 20
27.95705072891857
 30
0.0
 10
-10.57768706974786
 20
28.81425963739726
 30
0.0
 10
-10.16472613319136
 20
29.69587204215082
 30
0.0
 10
-9.803576221758599
 20
30.59634725769036
 30
0.0
 10
-9.397368669516466
 20
31.48905381718599
 30
0.0
 10
-8.680777016686983
 20
32.17107324612802
 30
0.0
 10
-7.779481228012351
 20
32.57185641277539
 30
0.0
 10
-6.804854037935051
 20
32.66905825096651
 30
0.0
 10
-5.833550023904063
 20
32.62225045258867
 30
0.0
 10
-4.86110609560509
 20
32.62251428751364
 30
0.0
 10
-3.888945765915074
 20
32.62932787867474
 30
0.0
 10
-2.916698846453024
 20
32.632449953071
 30
0.0
 10
-1.944466777385647
 20
32.6337001415239
 30
0.0
 10
-0.9722290823862377
 20
32.63258928319019
 30
0.0
 10
-0.3240754869563128
 20
32.63036599403783
 30
0.0
 10
0.0
 20
32.62887388916386
 30
0.0
  0
SPLINE
  5
42
330
1F
100
AcDbEntity
  8
sled - arm 2d
 62
     7
100
AcDbSpline
210
0.0
220
0.0
230
1.0
 70
     8
 71
     3
 72
    24
 73
    20
 74
     0
 42
0.0000000001
 43
0.0000000001
 40
0.0
 40
0.0
 40
0.0
 40
0.0
 40
1.0
 40
2.0
 40
3.0
 40
4.0
 40
5.0
 40
6.0
 40
7.0
 40
8.0
 40
9.0
 40
10.0
 40
11.0
 40
12.0
 40
13.0
 40
14.0
 40
15.0
 40
16.0
 40
17.0
 40
17.0
 40
17.0
 40
17.0
 10
0.0
 20
32.62887388916386
 30
0.0
 10
0.3240754869563128
 20
32.63036599403783
 30
0.0
 10
0.9722290823862377
 20
32.63258928319019
 30
0.0
 10
1.944466777385647
 20
32.6337001415239
 30
0.0
 10
2.916698846453024
 20
32.632449953071
 30
0.0
 10
3.888945765915074
 20
32.62932787867474
 30
0.0
 10
4.86110609560509
 20
32.62251428751364
 30
0.0
 10
5.833550023904063
 20
32.62225045258867
 30
0.0
 10
6.804854037935051
 20
32.66905825096651
 30
0.0
 10
7.779481228012351
 20
32.57185641277539
 30
0.0
 10
8.680777016686983
 20
32.17107324612802
 30
0.0
 10
9.397368669516466
 20
31.48905381718599
 30
0.0
 10
9.803576221758599
 20
30.59634725769036
 30
0.0
 10
10.16472613319136
 20
29.69587204215082
 30
0.0
 10
10.57768706974786
 20
28.81425963739726
 30
0.0
 10
11.03398993791485
 20
27.95705072891857
 30
0.0
 10
11.60675314362203
 20
27.15999532298077
 30
0.0
 10
12.38998461297896
 20
26.57097898352193
 30
0.0
 10
13.03727270908051
 20
26.38949276115037
 30
0.0
 10
13.22687778250006
 20
26.10530957215532
 30
0.0
  0
SPLINE
  5
43
330
1F
100
AcDbEntity
  8
sled - arm 2d
 62
     7
100
AcDbSpline
210
0.0
220
0.0
230
1.0
 70
     8
 71
     3
 72
    18
 73
    14
 74
     0
 42
0.0000000001
 43
0.0000000001
 40
0.0
 40
0.0
 40
0.0
 40
0.0
 40
1.0
 40
2.0
 40
3.0
 40
4.0
 40
5.0
 40
6.0
 40
7.0
 40
8.0
 40
9.0
 40
10.0
 40
11.0
 40
11.0
 40
11.0
 40
11.0
 10
8.737753314004635
 20
18.36982442436823
 30
0.0
 10
8.81599278815799
 20
18.66328080710937
 30
0.0
 10
8.970379603679916
 20
19.25074867127656
 30
0.0
 10
9.197961793426998
 20
20.13299097985963
 30
0.0
 10
9.42353979637363
 20
21.01574369312808
 30
0.0
 10
9.650021977908455
 20
21.89827274919842
 30
0.0
 10
9.876954266648182
 20
22.78065759893285
 30
0.0
 10
10.11784154255604
 20
23.65953412600791
 30
0.0
 10
10.43831459152528
 20
24.51472776683633
 30
0.0
 10
10.89311099323587
 20
25.30749099114246
 30
0.0
 10
11.5774539387845
 20
25.94811037455524
 30
0.0
 10
12.42294456289052
 20
26.23924586752377
 30
0.0
 10
13.10178237721163
 20
26.2994528779551
 30
0.0
 10
13.28184130189499
 20
26.01632878930689
 30
0.0
  0
SPLINE
  5
44
330
1F
100
AcDbEntity
  8
sled - arm 2d
 62
     7
100
AcDbSpline
210
0.0
220
0.0
230
1.0
 70
     8
 71
     3
 72
     8
 73
     4
 74
     0
 42
0.0000000001
 43
0.0000000001
 40
0.0
 40
0.0
 40
0.0
 40
0.0
 40
1.0
 40
1.0
 40
1.0
 40
1.0
 10
13.28184130189499
 20
26.01632878930689
 30
0.0
 10
13.33962758983855
 20
25.92546581131703
 30
0.0
 10
13.38664312742956
 20
25.75833847529862
 30
0.0
 10
13.40250348508307
 20
25.6494547482395
 30
0.0
  0
SPLINE
  5
45
330
1F
100
AcDbEntity
  8
sled - arm 2d
 62
     7
100
AcDbSpline
210
0.0
220
0.0
230
1.0
 70
     8
 71
     3
 72
    24
 73
    20
 74
     0
 42
0.0000000001
 43
0.0000000001
 40
-17.0
 40
-17.0
 40
-17.0
 40
-17.0
 40
-16.0
 40
-15.0
 40
-14.0
 40
-13.0
 40
-12.0
 40
-11.0
 40
-10.0
 40
-9.0
 40
-8.0
 40
-7.0
 40
-6.0
 40
-5.0
 40
-4.0
 40
-3.0
 40
-2.0
 40
-1.0
 40
0.0
 40
0.0
 40
0.0
 40
0.0
 10
13.40250348508307
 20
25.6494547482395
 30
0.0
 10
13.45726534912068
 20
25.27350636249814
 30
0.0
 10
13.33057999260149
 20
24.52054410086921
 30
0.0
 10
12.99547795216363
 20
23.4406909315669
 30
0.0
 10
12.5674111631989
 20
22.39143240406391
 30
0.0
 10
12.0698393916064
 20
21.37451855295666
 30
0.0
 10
11.50757093036468
 20
20.39171635265035
 30
0.0
 10
10.92218200642469
 20
19.42346462738146
 30
0.0
 10
10.29940648252018
 20
18.47677050068678
 30
0.0
 10
9.572450396552814
 20
17.60795688650094
 30
0.0
 10
8.75211736054488
 20
16.82265275475173
 30
0.0
 10
7.786621517799758
 20
16.22044114941972
 30
0.0
 10
6.732194773245511
 20
15.80053289222378
 30
0.0
 10
5.632962357528918
 20
15.52426775958839
 30
0.0
 10
4.515891979668266
 20
15.3395574208658
 30
0.0
 10
3.391490222559267
 20
15.20854577875535
 30
0.0
 10
2.262565867276946
 20
15.12563539628846
 30
0.0
 10
1.131700977994871
 20
15.07868310533615
 30
0.0
 10
0.377263611875386
 20
15.06466151424756
 30
0.0
 10
0.0
 20
15.06583526516749
 30
0.0
  0
SPLINE
  5
46
330
1F
100
AcDbEntity
  8
sled - arm 2d
 62
     7
100
AcDbSpline
210
0.0
220
0.0
230
1.0
 70
     8
 71
     3
 72
    24
 73
    20
 74
     0
 42
0.0000000001
 43
0.0000000001
 40
0.0
 40
0.0
 40
0.0
 40
0.0
 40
1.0
 40
2.0
 40
3.0
 40
4.0
 40
5.0
 40
6.0
 40
7.0
 40
8.0
 40
9.0
 40
10.0
 40
11.0
 40
12.0
 40
13.0
 40
14.0
 40
15.0
 40
16.0
 40
17.0
 40
17.0
 40
17.0
 40
17.0
 10
0.0
 20
15.06583526516749
 30
0.0
 10
-0.377263611875386
 20
15.06466151424756
 30
0.0
 10
-1.131700977994871
 20
15.07868310533615
 30
0.0
 10
-2.262565867276946
 20
15.12563539628846
 30
0.0
 10
-3.391490222559267
 20
15.20854577875535
 30
0.0
 10
-4.515891979668266
 20
15.3395574208658
 30
0.0
 10
-5.632962357528918
 20
15.52426775958839
 30
0.0
 10
-6.732194773245511
 20
15.80053289222378
 30
0.0
 10
-7.786621517799758
 20
16.22044114941972
 30
0.0
 10
-8.75211736054488
 20
16.82265275475173
 30
0.0
 10
-9.572450396552814
 20
17.60795688650094
 30
0.0
 10
-10.29940648252018
 20
18.47677050068678
 30
0.0
 10
-10.92218200642469
 20
19.42346462738146
 30
0.0
 10
-11.50757093036468
 20
20.39171635265035
 30
0.0
 10
-12.0698393916064
 20
21.37451855295666
 30
0.0
 10
-12.5674111631989
 20
22.39143240406391
 30
0.0
 10
-12.99547795216363
 20
23.4406909315669
 30
0.0
 10
-13.33057999260149
 20
24.52054410086921
 30
0.0
 10
-13.45726534912068
 20
25.27350636249814
 30
0.0
 10
-13.40250348508307
 20
25.6494547482395
 30
0.0
  0
SPLINE
  5
47
330
1F
100
AcDbEntity
  8
sled - arm 2d
 62
     7
100
AcDbSpline
210
0.0
220
0.0
230
1.0
 70
     8
 71
     3
 72
     8
 73
     4
 74
     0
 42
0.0000000001
 43
0.0000000001
 40
-1.0
 40
-1.0
 40
-1.0
 40
-1.0
 40
0.0
 40
0.0
 40
0.0
 40
0.0
 10
-13.40250348508307
 20
25.6494547482395
 30
0.0
 10
-13.38664312742956
 20
25.75833847529862
 30
0.0
 10
-13.33962758983855
 20
25.92546581131703
 30
0.0
 10
-13.28184130189499
 20
26.01632878930689
 30
0.0
  0
SPLINE
  5
48
330
1F
100
AcDbEntity
  8
sled - arm 2d
 62
     7
100
AcDbSpline
210
0.0
220
0.0
230
1.0
 70
     8
 71
     3
 72
    18
 73
    14
 74
     0
 42
0.0000000001
 43
0.0000000001
 40
-11.0
 40
-11.0
 40
-11.0
 40
-11.0
 40
-10.0
 40
-9.0
 40
-8.0
 40
-7.0
 40
-6.0
 40
-5.0
 40
-4.0
 40
-3.0
 40
-2.0
 40
-1.0
 40
0.0
 40
0.0
 40
0.0
 40
0.0
 10
-13.28184130189499
 20
26.01632878930689
 30
0.0
 10
-13.10178237721163
 20
26.2994528779551
 30
0.0
 10
-12.42294456289052
 20
26.23924586752377
 30
0.0
 10
-11.5774539387845
 20
25.94811037455524
 30
0.0
 10
-10.89311099323587
 20
25.30749099114246
 30
0.0
 10
-10.43831459152528
 20
24.51472776683633
 30
0.0
 10
-10.11784154255604
 20
23.65953412600791
 30
0.0
 10
-9.876954266648182
 20
22.78065759893285
 30
0.0
 10
-9.650021977908455
 20
21.89827274919842
 30
0.0
 10
-9.42353979637363
 20
21.01574369312808
 30
0.0
 10
-9.197961793426998
 20
20.13299097985963
 30
0.0
 10
-8.970379603679916
 20
19.25074867127656
 30
0.0
 10
-8.81599278815799
 20
18.66328080710937
 30
0.0
 10
-8.737753314004635
 20
18.36982442436823
 30
0.0
  0
SPLINE
  5
49
330
1F
100
AcDbEntity
  8
sled - arm 2d
 62
     7
100
AcDbSpline
210
0.0
220
0.0
230
1.0
 70
     8
 71
     3
 72
    12
 73
     8
 74
     0
 42
0.0000000001
 43
0.0000000001
 40
0.0
 40
0.0
 40
0.0
 40
0.0
 40
0.3171801559783666
 40
0.6254689865727789
 40
1.210356522932407
 40
1.809288218721867
 40
2.479188832829323
 40
2.479188832829323
 40
2.479188832829323
 40
2.479188832829323
 10
53.34819467268759
 20
0.1510001806687047
 30
0.0
 10
53.45422390565963
 20
0.1505807946456447
 30
0.0
 10
53.66203480946596
 20
0.1723465907363351
 30
0.0
 10
54.04931976657688
 20
0.2959847402534608
 30
0.0
 10
54.45155294061735
 20
0.6127447327356167
 30
0.0
 10
54.70124603697423
 20
1.199177056456574
 30
0.0
 10
54.6808836457898
 20
1.629791862331595
 30
0.0
 10
54.63612069614108
 20
1.851715888672041
 30
0.0
  0
SPLINE
  5
4A
330
1F
100
AcDbEntity
  8
sled - arm 2d
 62
     7
100
AcDbSpline
210
0.0
220
0.0
230
1.0
 70
    24
 71
     2
 72
     6
 73
     3
 74
     0
 42
0.0000000001
 43
0.0000000001
 40
0.0
 40
0.0
 40
0.0
 40
12.49502035877572
 40
12.49502035877572
 40
12.49502035877572
 10
54.63612069614108
 20
1.851715888672041
 30
0.0
 10
53.39023669693321
 20
7.97542860976222
 30
0.0
 10
52.14435269772535
 20
14.0991413308524
 30
0.0
  0
SPLINE
  5
4B
330
1F
100
AcDbEntity
  8
sled - arm 2d
 62
     7
100
AcDbSpline
210
0.0
220
0.0
230
1.0
 70
     8
 71
     3
 72
     8
 73
     4
 74
     0
 42
0.0000000001
 43
0.0000000001
 40
12.49502035877572
 40
12.49502035877572
 40
12.49502035877572
 40
12.49502035877572
 40
13.49502035877572
 40
13.49502035877572
 40
13.49502035877572
 40
13.49502035877572
 10
52.14435269772535
 20
14.0991413308524
 30
0.0
 10
51.95793454034575
 20
15.01541584781648
 30
0.0
 10
51.50062469934657
 20
15.47970822256887
 30
0.0
 10
50.69155677617795
 20
15.13767216059021
 30
0.0
  0
SPLINE
  5
4C
330
1F
100
AcDbEntity
  8
sled - arm 2d
 62
     7
100
AcDbSpline
210
0.0
220
0.0
230
1.0
 70
     8
 71
     3
 72
    10
 73
     6
 74
     0
 42
0.0000000001
 43
0.0000000001
 40
13.49502035877572
 40
13.49502035877572
 40
13.49502035877572
 40
13.49502035877572
 40
16.21381895591408
 40
18.62726150960237
 40
19.71431833741462
 40
19.71431833741462
 40
19.71431833741462
 40
19.71431833741462
 10
50.69155677617795
 20
15.13767216059021
 30
0.0
 10
49.85681835195397
 20
14.78478381187695
 30
0.0
 10
48.2207215157586
 20
14.26534073383808
 30
0.0
 10
46.1607686336943
 20
13.96317751918633
 30
0.0
 10
44.99117367430562
 20
13.99582188531043
 30
0.0
 10
44.70225504558847
 20
13.74945204938358
 30
0.0
  0
SPLINE
  5
4D
330
1F
100
AcDbEntity
  8
sled - arm 2d
 62
     7
100
AcDbSpline
210
0.0
220
0.0
230
1.0
 70
     8
 71
     3
 72
     8
 73
     4
 74
     0
 42
0.0000000001
 43
0.0000000001
 40
-1.0
 40
-1.0
 40
-1.0
 40
-1.0
 40
0.0
 40
0.0
 40
0.0
 40
0.0
 10
44.70225504558847
 20
13.74945204938358
 30
0.0
 10
45.02209205911051
 20
13.60330433939212
 30
0.0
 10
45.37863354343377
 20
13.55291903744784
 30
0.0
 10
45.72799067519503
 20
13.55723089957796
 30
0.0
  0
SPLINE
  5
4E
330
1F
100
AcDbEntity
  8
sled - arm 2d
 62
     7
100
AcDbSpline
210
0.0
220
0.0
230
1.0
 70
    12
 71
     3
 72
    13
 73
     9
 74
     0
 42
0.0000000001
 43
0.0000000001
 40
0.0023219949743227
 40
0.0023219949743227
 40
0.0023219949743227
 40
0.0023219949743227
 40
0.8806511089575036
 40
0.8806511089575036
 40
2.862116237550807
 40
3.302441850541513
 40
4.84358153869047
 40
6.486720178443281
 40
6.486720178443281
 40
6.486720178443281
 40
6.486720178443281
 10
45.72799067519503
 20
13.55723089957796
 30
0.0
 41
1.0
 10
45.965012515414
 20
13.56338942662444
 30
0.0
 41
1.0
 10
46.20161950330266
 20
13.57750792036639
 30
0.0
 41
1.0
 10
46.97094065675483
 20
13.64699491791146
 30
0.0
 41
1.0
 10
47.61901128807455
 20
13.75075901034776
 30
0.0
 41
1.0
 10
48.66844599721539
 20
13.98790262869555
 30
0.0
 41
1.0
 10
49.62070716297993
 20
14.25386189778425
 30
0.0
 41
1.0
 10
50.44327194593538
 20
14.55716303541618
 30
0.0
 41
1.0
 10
50.86211341007055
 20
14.73422960904218
 30
0.0
 41
1.0
  0
SPLINE
  5
4F
330
1F
100
AcDbEntity
  8
sled - arm 2d
 62
     7
100
AcDbSpline
210
0.0
220
0.0
230
1.0
 70
     8
 71
     3
 72
     8
 73
     4
 74
     0
 42
0.0000000001
 43
0.0000000001
 40
-1.0
 40
-1.0
 40
-1.0
 40
-1.0
 40
0.0
 40
0.0
 40
0.0
 40
0.0
 10
50.86211341007055
 20
14.73422960904218
 30
0.0
 10
51.35404473233813
 20
14.94219515484382
 30
0.0
 10
51.59755446489683
 20
14.58979744903758
 30
0.0
 10
51.7148244144334
 20
14.01339723203929
 30
0.0
  0
SPLINE
  5
50
330
1F
100
AcDbEntity
  8
sled - arm 2d
 62
     7
100
AcDbSpline
210
0.0
220
0.0
230
1.0
 70
    24
 71
     2
 72
     6
 73
     3
 74
     0
 42
0.0000000001
 43
0.0000000001
 40
0.0
 40
0.0
 40
0.0
 40
12.49674229578064
 40
12.49674229578064
 40
12.49674229578064
 10
51.7148244144334
 20
14.01339723203929
 30
0.0
 10
52.96071236010346
 20
7.889662362566596
 30
0.0
 10
54.20660030577351
 20
1.765927493093906
 30
0.0
  0
SPLINE
  5
51
330
1F
100
AcDbEntity
  8
sled - arm 2d
 62
     7
100
AcDbSpline
210
0.0
220
0.0
230
1.0
 70
     8
 71
     3
 72
    12
 73
     8
 74
     0
 42
0.0000000001
 43
0.0000000001
 40
0.0
 40
0.0
 40
0.0
 40
0.0
 40
0.2451714283745642
 40
0.4690313975249409
 40
0.8740263042292915
 40
1.270895402330897
 40
1.704784725790503
 40
1.704784725790503
 40
1.704784725790503
 40
1.704784725790503
 10
54.20660030577351
 20
1.765927493093906
 30
0.0
 10
54.22375960932964
 20
1.684615920884182
 30
0.0
 10
54.24290110042501
 20
1.528145786737976
 30
0.0
 10
54.23072970344541
 20
1.23724428384762
 30
0.0
 10
54.10715062488165
 20
0.906272166822279
 30
0.0
 10
53.77435047881701
 20
0.6394938731572073
 30
0.0
 10
53.49406044971219
 20
0.5899346708623212
 30
0.0
 10
53.35007104740303
 20
0.5889982722110384
 30
0.0
  0
POLYLINE
  5
52
330
1F
100
AcDbEntity
  8
sled - arm 2d
 62
     7
100
AcDb2dPolyline
 66
     1
 10
0.0
 20
0.0
 30
0.0
  0
VERTEX
  5
53
330
52
100
AcDbEntity
  8
sled - arm 2d
 62
     7
100
AcDbVertex
100
AcDb2dVertex
 10
53.35007104740303
 20
0.5889982722110384
 30
0.0
  0
VERTEX
  5
54
330
52
100
AcDbEntity
  8
sled - arm 2d
 62
     7
100
AcDbVertex
100
AcDb2dVertex
 10
43.71514555551341
 20
0.5889999946749771
 30
0.0
  0
SEQEND
  5
55
330
52
100
AcDbEntity
  8
sled - arm 2d
 62
     7
  0
SPLINE
  5
56
330
1F
100
AcDbEntity
  8
sled - arm 2d
 62
     7
100
AcDbSpline
210
0.0
220
0.0
230
1.0
 70
    12
 71
     2
 72
     8
 73
     5
 74
     0
 42
0.0000000001
 43
0.0000000001
 40
0.0
 40
0.0
 40
0.0
 40
0.3439972864915219
 40
0.3439972864915219
 40
0.6879945729830439
 40
0.6879945729830439
 40
0.6879945729830439
 10
43.71514555551341
 20
0.5889999946749771
 30
0.0
 41
1.0
 10
43.49615266598203
 20
0.5889690938704063
 30
0.0
 41
0.7071182549911394
 10
43.49617645979207
 20
0.3699762034515195
 30
0.0
 41
1.0
 10
43.4962002536021
 20
0.1509833130326326
 30
0.0
 41
0.7071182549911394
 10
43.71519314467785
 20
0.1510000003245651
 30
0.0
 41
1.0
  0
LINE
  5
57
330
1F
100
AcDbEntity
  8
sled - arm 2d
 62
     7
100
AcDbLine
 10
43.71519314467785
 20
0.1510000003245651
 30
0.0
 11
51.39681204654824
 21
0.1510000007998308
 31
0.0
  0
POLYLINE
  5
58
330
1F
100
AcDbEntity
  8
sled - arm 2d
 62
     7
100
AcDb2dPolyline
 66
     1
 10
0.0
 20
0.0
 30
0.0
  0
VERTEX
  5
59
330
58
100
AcDbEntity
  8
sled - arm 2d
 62
     7
100
AcDbVertex
100
AcDb2dVertex
 10
53.34819467268759
 20
0.1510001806687047
 30
0.0
  0
VERTEX
  5
5A
330
58
100
AcDbEntity
  8
sled - arm 2d
 62
     7
100
AcDbVertex
100
AcDb2dVertex
 10
53.2788390854296
 20
0.1510005877726396
 30
0.0
  0
SEQEND
  5
5B
330
58
100
AcDbEntity
  8
sled - arm 2d
 62
     7
  0
SPLINE
  5
5C
330
1F
100
AcDbEntity
  8
sled - arm 2d
 62
     7
100
AcDbSpline
210
0.0
220
0.0
230
1.0
 70
    12
 71
     2
 72
     6
 73
     3
 74
     0
 42
0.0000000001
 43
0.0000000001
 40
-0.0239465729320656
 40
-0.0239465729320656
 40
-0.0239465729320656
 40
0.0
 40
0.0
 40
0.0
 10
43.49985012923569
 20
0.409849908312356
 30
0.0
 41
1.0
 10
43.49766926011416
 20
0.3980647668421338
 30
0.0
 41
0.9985058288731096
 10
43.49619400491891
 20
0.3861120164255684
 30
0.0
 41
1.0
  0
SPLINE
  5
5D
330
1F
100
AcDbEntity
  8
sled - arm 2d
 62
     7
100
AcDbSpline
210
0.0
220
0.0
230
1.0
 70
    12
 71
     2
 72
     6
 73
     3
 74
     0
 42
0.0000000001
 43
0.0000000001
 40
0.0
 40
0.0
 40
0.0
 40
0.0239465729320656
 40
0.0239465729320656
 40
0.0239465729320656
 10
43.49619400491891
 20
0.3861120164255684
 30
0.0
 41
1.0
 10
43.49471874972367
 20
0.3980647668421338
 30
0.0
 41
0.9985058288731096
 10
43.49253788060212
 20
0.409849908312356
 30
0.0
 41
1.0
  0
SPLINE
  5
5E
330
1F
100
AcDbEntity
  8
sled - arm 2d
 62
     7
100
AcDbSpline
210
0.0
220
0.0
230
1.0
 70
    12
 71
     2
 72
     6
 73
     3
 74
     0
 42
0.0000000001
 43
0.0000000001
 40
0.0
 40
0.0
 40
0.0
 40
0.0400731600453184
 40
0.0400731600453184
 40
0.0400731600453184
 10
43.49253788060214
 20
0.3301500913558366
 30
0.0
 41
1.0
 10
43.49619400493413
 20
0.3499073257811176
 30
0.0
 41
0.9958175958173261
 10
43.49619400491891
 20
0.3700000000000079
 30
0.0
 41
1.0
  0
SPLINE
  5
5F
330
1F
100
AcDbEntity
  8
sled - arm 2d
 62
     7
100
AcDbSpline
210
0.0
220
0.0
230
1.0
 70
    12
 71
     2
 72
     6
 73
     3
 74
     0
 42
0.0000000001
 43
0.0000000001
 40
-0.0400731600453184
 40
-0.0400731600453184
 40
-0.0400731600453184
 40
0.0
 40
0.0
 40
0.0
 10
43.49619400491891
 20
0.3700000000000079
 30
0.0
 41
1.0
 10
43.49619400490369
 20
0.3499073257811176
 30
0.0
 41
0.9958175958173261
 10
43.49985012923567
 20
0.3301500913558366
 30
0.0
 41
1.0
  0
SPLINE
  5
60
330
1F
100
AcDbEntity
  8
sled - arm 2d
 62
     7
100
AcDbSpline
210
0.0
220
0.0
230
1.0
 70
     8
 71
     3
 72
    12
 73
     8
 74
     0
 42
0.0000000001
 43
0.0000000001
 40
-2.251414819920957
 40
-2.251414819920957
 40
-2.251414819920957
 40
-2.251414819920957
 40
-1.745853464841559
 40
-1.233106537152957
 40
-0.6492861007939168
 40
-0.3414218192293592
 40
0.0
 40
0.0
 40
0.0
 40
0.0
 10
35.2279243048866
 20
0.1509997018280992
 30
0.0
 10
35.06055386804356
 20
0.1499301352141589
 30
0.0
 10
34.71526840645701
 20
0.2399173423651943
 30
0.0
 10
34.35488722837911
 20
0.6614648797060146
 30
0.0
 10
34.25188161765264
 20
1.128889627870443
 30
0.0
 10
34.26175896516826
 20
1.539413957322401
 30
0.0
 10
34.30489911897472
 20
1.753530520491122
 30
0.0
 10
34.33555303070031
 20
1.866730650920177
 30
0.0
  0
SPLINE
  5
61
330
1F
100
AcDbEntity
  8
sled - arm 2d
 62
     7
100
AcDbSpline
210
0.0
220
0.0
230
1.0
 70
    24
 71
     2
 72
     6
 73
     3
 74
     0
 42
0.0000000001
 43
0.0000000001
 40
-12.99206814828463
 40
-12.99206814828463
 40
-12.99206814828463
 40
0.0
 40
0.0
 40
0.0
 10
34.33555303070031
 20
1.866730650920177
 30
0.0
 10
36.07207088508481
 20
8.128418988276163
 30
0.0
 10
37.80858873946932
 20
14.39010732563215
 30
0.0
  0
SPLINE
  5
62
330
1F
100
AcDbEntity
  8
sled - arm 2d
 62
     7
100
AcDbSpline
210
0.0
220
0.0
230
1.0
 70
     8
 71
     3
 72
     8
 73
     4
 74
     0
 42
0.0000000001
 43
0.0000000001
 40
0.0
 40
0.0
 40
0.0
 40
0.0
 40
1.0
 40
1.0
 40
1.0
 40
1.0
 10
37.80858873946932
 20
14.39010732563215
 30
0.0
 10
38.04471609891336
 20
15.24155606198011
 30
0.0
 10
38.56230487979169
 20
15.52931304250811
 30
0.0
 10
39.28148586605838
 20
15.05342828963884
 30
0.0
  0
ARC
  5
63
330
1F
100
AcDbEntity
  8
sled - arm 2d
 62
     7
100
AcDbCircle
 10
42.74718425521346
 20
20.11437204549054
 30
0.0
 40
6.133858249461468
100
AcDbArc
 50
235.5969334410096
 51
256.5374865222257
  0
SPLINE
  5
64
330
1F
100
AcDbEntity
  8
sled - arm 2d
 62
     7
100
AcDbSpline
210
0.0
220
0.0
230
1.0
 70
     8
 71
     3
 72
     9
 73
     5
 74
     0
 42
0.0000000001
 43
0.0000000001
 40
16.94668918798843
 40
16.94668918798843
 40
16.94668918798843
 40
16.94668918798843
 40
17.92084229503909
 40
19.06780642042101
 40
19.06780642042101
 40
19.06780642042101
 40
19.06780642042101
 10
41.31916606460885
 20
14.14905721123503
 30
0.0
 10
41.55575368875425
 20
14.09242123470426
 30
0.0
 10
42.03973150152024
 20
14.00888680785961
 30
0.0
 10
42.59521665390135
 20
14.00523641267323
 30
0.0
 10
42.73787786124928
 20
13.71567200867944
 30
0.0
  0
SPLINE
  5
65
330
1F
100
AcDbEntity
  8
sled - arm 2d
 62
     7
100
AcDbSpline
210
0.0
220
0.0
230
1.0
 70
    12
 71
     2
 72
     6
 73
     3
 74
     0
 42
0.0000000001
 43
0.0000000001
 40
0.0
 40
0.0
 40
0.0
 40
0.127951599319067
 40
0.127951599319067
 40
0.127951599319067
 10
42.73787786124928
 20
13.71567200867944
 30
0.0
 41
1.0
 10
42.69809289026615
 20
13.663186810753
 30
0.0
 41
0.9576335055228994
 10
42.63595765927452
 20
13.64135213678881
 30
0.0
 41
1.0
  0
SPLINE
  5
66
330
1F
100
AcDbEntity
  8
sled - arm 2d
 62
     7
100
AcDbSpline
210
0.0
220
0.0
230
1.0
 70
     8
 71
     3
 72
    11
 73
     7
 74
     0
 42
0.0000000001
 43
0.0000000001
 40
-28.97479315887797
 40
-28.97479315887797
 40
-28.97479315887797
 40
-28.97479315887797
 40
-28.11102303916813
 40
-27.13686993211746
 40
-27.13686993211746
 40
-24.18224889241367
 40
-24.18224889241367
 40
-24.18224889241367
 40
-24.18224889241367
 10
42.63595765927452
 20
13.64135213678881
 30
0.0
 10
42.42905764684457
 20
13.5715694171986
 30
0.0
 10
41.94567921854588
 20
13.58063065629759
 30
0.0
 10
41.4674267223013
 20
13.66317689520983
 30
0.0
 10
40.45822882650415
 20
13.90476564503451
 30
0.0
 10
39.72347286272648
 20
14.23574033859737
 30
0.0
 10
39.03977643138972
 20
14.68814482853429
 30
0.0
  0
SPLINE
  5
67
330
1F
100
AcDbEntity
  8
sled - arm 2d
 62
     7
100
AcDbSpline
210
0.0
220
0.0
230
1.0
 70
     8
 71
     3
 72
     8
 73
     4
 74
     0
 42
0.0000000001
 43
0.0000000001
 40
-24.18224889241367
 40
-24.18224889241367
 40
-24.18224889241367
 40
-24.18224889241367
 40
-23.18224889241367
 40
-23.18224889241367
 40
-23.18224889241367
 40
-23.18224889241367
 10
39.03977643138972
 20
14.68814482853429
 30
0.0
 10
38.64108573805253
 20
14.9519599539243
 30
0.0
 10
38.36485116738901
 20
14.75693868031156
 30
0.0
 10
38.23166106515612
 20
14.27667068714006
 30
0.0
  0
SPLINE
  5
68
330
1F
100
AcDbEntity
  8
sled - arm 2d
 62
     7
100
AcDbSpline
210
0.0
220
0.0
230
1.0
 70
    24
 71
     2
 72
     6
 73
     3
 74
     0
 42
0.0000000001
 43
0.0000000001
 40
-12.99624983764464
 40
-12.99624983764464
 40
-12.99624983764464
 40
0.0
 40
0.0
 40
0.0
 10
38.23166106515612
 20
14.27667068714006
 30
0.0
 10
36.49486215253208
 20
8.013976130078806
 30
0.0
 10
34.75806323990804
 20
1.751281573017552
 30
0.0
  0
SPLINE
  5
69
330
1F
100
AcDbEntity
  8
sled - arm 2d
 62
     7
100
AcDbSpline
210
0.0
220
0.0
230
1.0
 70
     8
 71
     3
 72
    12
 73
     8
 74
     0
 42
0.0000000001
 43
0.0000000001
 40
-1.446962932265784
 40
-1.446962932265784
 40
-1.446962932265784
 40
-1.446962932265784
 40
-0.9923532118911697
 40
-0.6055688468445845
 40
-0.2904029440571266
 40
-0.1492554677545956
 40
0.0
 40
0.0
 40
0.0
 40
0.0
 10
34.75806323990804
 20
1.751281573017552
 30
0.0
 10
34.71662686985373
 20
1.60344393928559
 30
0.0
 10
34.67722786903131
 20
1.32328388216728
 30
0.0
 10
34.73532456715841
 20
0.9370691371176258
 30
0.0
 10
34.89389316436547
 20
0.69257304886744
 30
0.0
 10
35.07999287418323
 20
0.6007848284125925
 30
0.0
 10
35.1760532790184
 20
0.5894659232702901
 30
0.0
 10
35.22620090480451
 20
0.5889977671672904
 30
0.0
  0
POLYLINE
  5
6A
330
1F
100
AcDbEntity
  8
sled - arm 2d
 62
     7
100
AcDb2dPolyline
 66
     1
 10
0.0
 20
0.0
 30
0.0
  0
VERTEX
  5
6B
330
6A
100
AcDbEntity
  8
sled - arm 2d
 62
     7
100
AcDbVertex
100
AcDb2dVertex
 10
35.22620090480451
 20
0.5889977671672904
 30
0.0
  0
VERTEX
  5
6C
330
6A
100
AcDbEntity
  8
sled - arm 2d
 62
     7
100
AcDbVertex
100
AcDb2dVertex
 10
43.2772424543244
 20
0.5889999946749771
 30
0.0
  0
SEQEND
  5
6D
330
6A
100
AcDbEntity
  8
sled - arm 2d
 62
     7
  0
SPLINE
  5
6E
330
1F
100
AcDbEntity
  8
sled - arm 2d
 62
     7
100
AcDbSpline
210
0.0
220
0.0
230
1.0
 70
    12
 71
     2
 72
     8
 73
     5
 74
     0
 42
0.0000000001
 43
0.0000000001
 40
0.0
 40
0.0
 40
0.0
 40
0.3439972864915219
 40
0.3439972864915219
 40
0.6879945729830439
 40
0.6879945729830439
 40
0.6879945729830439
 10
43.2772424543244
 20
0.5889999946749771
 30
0.0
 41
1.0
 10
43.49623534385578
 20
0.5889690938704063
 30
0.0
 41
0.7071182549911394
 10
43.49621155004574
 20
0.3699762034515195
 30
0.0
 41
1.0
 10
43.49618775623571
 20
0.1509833130326326
 30
0.0
 41
0.7071182549911394
 10
43.27719486515996
 20
0.1509999998481174
 30
0.0
 41
1.0
  0
POLYLINE
  5
6F
330
1F
100
AcDbEntity
  8
sled - arm 2d
 62
     7
100
AcDb2dPolyline
 66
     1
 10
0.0
 20
0.0
 30
0.0
  0
VERTEX
  5
70
330
6F
100
AcDbEntity
  8
sled - arm 2d
 62
     7
100
AcDbVertex
100
AcDb2dVertex
 10
43.27719486515996
 20
0.1509999998481174
 30
0.0
  0
VERTEX
  5
71
330
6F
100
AcDbEntity
  8
sled - arm 2d
 62
     7
100
AcDbVertex
100
AcDb2dVertex
 10
37.10995148998782
 20
0.1509999998481174
 30
0.0
  0
SEQEND
  5
72
330
6F
100
AcDbEntity
  8
sled - arm 2d
 62
     7
  0
SPLINE
  5
73
330
1F
100
AcDbEntity
  8
sled - arm 2d
 62
     7
100
AcDbSpline
210
0.0
220
0.0
230
1.0
 70
    12
 71
     3
 72
    38
 73
    34
 74
     0
 42
0.0000000001
 43
0.0000000001
 40
0.0
 40
0.0
 40
0.0
 40
0.0
 40
0.1614600355755542
 40
0.1614600355755542
 40
0.1614600355755542
 40
1.161460035575554
 40
1.161460035575554
 40
1.161460035575554
 40
1.342084376998089
 40
1.342084376998089
 40
1.342084376998089
 40
1.47755436390012
 40
1.47755436390012
 40
1.47755436390012
 40
1.584196495078726
 40
1.584196495078726
 40
1.584196495078726
 40
2.578062432122167
 40
2.578062432122167
 40
2.578062432122167
 40
2.821910699658148
 40
2.821910699658148
 40
2.821910699658148
 40
3.017666951507059
 40
3.017666951507059
 40
3.017666951507059
 40
4.017666951507058
 40
4.017666951507058
 40
4.017666951507058
 40
5.201975398962436
 40
5.201975398962436
 40
5.201975398962436
 40
5.449644478992974
 40
5.449644478992974
 40
5.449644478992974
 40
5.449644478992974
 10
35.2279243048866
 20
0.1509997018280992
 30
0.0
 41
1.0
 10
35.28174431674477
 20
0.1509995061705524
 30
0.0
 41
1.0
 10
35.33556432860292
 20
0.1509993105130056
 30
0.0
 41
1.0
 10
35.38938434046108
 20
0.1509991148554588
 30
0.0
 41
1.0
 10
35.42515237915441
 20
0.1509991148554639
 30
0.0
 41
1.0
 10
35.46855002400186
 20
0.1636792748485901
 30
0.0
 41
1.0
 10
35.49249513918814
 20
0.1881362046807062
 30
0.0
 41
1.0
 10
35.53556329772901
 20
0.2321249231829305
 30
0.0
 41
0.9567820019755179
 10
35.56026751212576
 20
0.2886438287821699
 30
0.0
 41
0.9567820019755179
 10
35.56340478231143
 20
0.350365019626823
 30
0.0
 41
1.0
 10
35.56531190339713
 20
0.3957467673293118
 30
0.0
 41
0.9990772271169964
 10
35.5695855766926
 20
0.4408604608233561
 30
0.0
 41
0.9990772271169964
 10
35.57621397130836
 20
0.4855812110299308
 30
0.0
 41
1.0
 10
35.59320930771463
 20
0.5189632398283067
 30
0.0
 41
0.9033337581835719
 10
35.62503621929481
 20
0.5386857545133873
 30
0.0
 41
0.9033337581835719
 10
35.66246494225569
 20
0.5390292509638442
 30
0.0
 41
1.0
 10
35.99375358793683
 20
0.5390292509638442
 30
0.0
 41
1.0
 10
36.32504223361798
 20
0.5390292509638442
 30
0.0
 41
1.0
 10
36.98616632282902
 20
0.5390292509638442
 30
0.0
 41
1.0
 10
37.07258604122495
 20
0.524543606057893
 30
0.0
 41
0.8396995359144742
 10
37.12880389431387
 20
0.4573293618082891
 30
0.0
 41
0.8396995359144742
 10
37.12778463827564
 20
0.3697099418541409
 30
0.0
 41
1.0
 10
37.12277830803469
 20
0.3046501914911941
 30
0.0
 41
1.0
 10
37.11777197779372
 20
0.2395904411282475
 30
0.0
 41
1.0
 10
37.11276564755277
 20
0.174530690765301
 30
0.0
 41
1.0
 10
37.10372478549053
 20
0.0570401936297284
 30
0.0
 41
1.0
 10
37.02908160727189
 20
-0.0000008859445412
 30
0.0
 41
1.0
 10
36.9078795669142
 20
-0.0000008859445404
 30
0.0
 41
1.0
 10
36.18327464089919
 20
-0.0000008859445379
 30
0.0
 41
1.0
 10
35.78850515841406
 20
-0.0000008859445354
 30
0.0
 41
1.0
 10
35.39373567592893
 20
-0.0000008859445329
 30
0.0
 41
1.0
 10
35.30669249109064
 20
0.010283499779469
 30
0.0
 41
0.8890408430660882
 10
35.23981803647353
 20
0.0669411730124337
 30
0.0
 41
0.8890408430660882
 10
35.21537331139178
 20
0.1511120707870607
 30
0.0
 41
1.0
  0
SPLINE
  5
74
330
1F
100
AcDbEntity
  8
sled - arm 2d
 62
     7
100
AcDbSpline
210
0.0
220
0.0
230
1.0
 70
     8
 71
     3
 72
    19
 73
    15
 74
     0
 42
0.0000000001
 43
0.0000000001
 40
0.0
 40
0.0
 40
0.0
 40
0.0
 40
1.0
 40
2.0
 40
3.0
 40
4.0
 40
5.0
 40
6.0
 40
7.0
 40
8.0
 40
9.0
 40
10.0
 40
11.0
 40
12.0
 40
12.0
 40
12.0
 40
12.0
 10
35.69549651765363
 20
0.5162255291868224
 30
0.0
 10
35.68018980192985
 20
0.5092298578375806
 30
0.0
 10
35.66662886542927
 20
0.4780528552904191
 30
0.0
 10
35.66235843412633
 20
0.4304238636138101
 30
0.0
 10
35.66157524796213
 20
0.3821831249564345
 30
0.0
 10
35.66629306710664
 20
0.3343411357281062
 30
0.0
 10
35.67020235435098
 20
0.2864112009485511
 30
0.0
 10
35.67584606813441
 20
0.2386347978596185
 30
0.0
 10
35.68465930107987
 20
0.1913259931430568
 30
0.0
 10
35.6884250208149
 20
0.143304171058783
 30
0.0
 10
35.68443716047523
 20
0.0951491380418264
 30
0.0
 10
35.66896382516789
 20
0.0490565004196343
 30
0.0
 10
35.63709071058681
 20
0.0113908369364908
 30
0.0
 10
35.60565808673415
 20
0.0000250655855447
 30
0.0
 10
35.58955964409885
 20
-0.0000008859445287
 30
0.0
  0
SPLINE
  5
75
330
1F
100
AcDbEntity
  8
sled - arm 2d
 62
     7
100
AcDbSpline
210
0.0
220
0.0
230
1.0
 70
    12
 71
     3
 72
    38
 73
    34
 74
     0
 42
0.0000000001
 43
0.0000000001
 40
0.0
 40
0.0
 40
0.0
 40
0.0
 40
0.1614600355755542
 40
0.1614600355755542
 40
0.1614600355755542
 40
1.161460035575554
 40
1.161460035575554
 40
1.161460035575554
 40
1.342084376998089
 40
1.342084376998089
 40
1.342084376998089
 40
1.47755436390012
 40
1.47755436390012
 40
1.47755436390012
 40
1.584196495078726
 40
1.584196495078726
 40
1.584196495078726
 40
2.578062432122167
 40
2.578062432122167
 40
2.578062432122167
 40
2.821910699658148
 40
2.821910699658148
 40
2.821910699658148
 40
3.017666951507059
 40
3.017666951507059
 40
3.017666951507059
 40
4.017666951507058
 40
4.017666951507058
 40
4.017666951507058
 40
5.201975398962436
 40
5.201975398962436
 40
5.201975398962436
 40
5.449644478992974
 40
5.449644478992974
 40
5.449644478992974
 40
5.449644478992974
 10
53.2788390854296
 20
0.1510005877726396
 30
0.0
 41
1.0
 10
53.22501907357142
 20
0.1510003921150928
 30
0.0
 41
1.0
 10
53.17119906171327
 20
0.151000196457546
 30
0.0
 41
1.0
 10
53.11737904985511
 20
0.1510000007999992
 30
0.0
 41
1.0
 10
53.08161101116178
 20
0.1510000008000043
 30
0.0
 41
1.0
 10
53.03821336631433
 20
0.1636801607931305
 30
0.0
 41
1.0
 10
53.01426825112806
 20
0.1881370906252466
 30
0.0
 41
1.0
 10
52.97120009258719
 20
0.2321258091274709
 30
0.0
 41
0.9567820019755179
 10
52.94649587819043
 20
0.2886447147267103
 30
0.0
 41
0.9567820019755179
 10
52.94335860800476
 20
0.3503659055713634
 30
0.0
 41
1.0
 10
52.94145148691906
 20
0.3957476532738522
 30
0.0
 41
0.9990772271169964
 10
52.93717781362359
 20
0.4408613467678965
 30
0.0
 41
0.9990772271169964
 10
52.93054941900784
 20
0.4855820969744712
 30
0.0
 41
1.0
 10
52.91355408260156
 20
0.5189641257728471
 30
0.0
 41
0.9033337581835719
 10
52.88172717102137
 20
0.5386866404579277
 30
0.0
 41
0.9033337581835719
 10
52.84429844806051
 20
0.5390301369083846
 30
0.0
 41
1.0
 10
52.51300980237936
 20
0.5390301369083846
 30
0.0
 41
1.0
 10
52.18172115669822
 20
0.5390301369083846
 30
0.0
 41
1.0
 10
51.52059706748717
 20
0.5390301369083846
 30
0.0
 41
1.0
 10
51.43417734909124
 20
0.5245444920024334
 30
0.0
 41
0.8396995359144742
 10
51.37795949600233
 20
0.4573302477528295
 30
0.0
 41
0.8396995359144742
 10
51.37897875204055
 20
0.3697108277986813
 30
0.0
 41
1.0
 10
51.38398508228151
 20
0.3046510774357345
 30
0.0
 41
1.0
 10
51.38899141252247
 20
0.2395913270727879
 30
0.0
 41
1.0
 10
51.39399774276342
 20
0.1745315767098414
 30
0.0
 41
1.0
 10
51.40303860482567
 20
0.0570410795742688
 30
0.0
 41
1.0
 10
51.4776817830443
 20
-0.0000000000000008
 30
0.0
 41
1.0
 10
51.59888382340199
 20
0.0
 30
0.0
 41
1.0
 10
52.32348874941701
 20
0.0000000000000025
 30
0.0
 41
1.0
 10
52.71825823190213
 20
0.000000000000005
 30
0.0
 41
1.0
 10
53.11302771438726
 20
0.0000000000000075
 30
0.0
 41
1.0
 10
53.20007089922555
 20
0.0102843857240094
 30
0.0
 41
0.8890408430660882
 10
53.26694535384267
 20
0.0669420589569741
 30
0.0
 41
0.8890408430660882
 10
53.29139007892442
 20
0.1511129567316011
 30
0.0
 41
1.0
  0
SPLINE
  5
76
330
1F
100
AcDbEntity
  8
sled - arm 2d
 62
     7
100
AcDbSpline
210
0.0
220
0.0
230
1.0
 70
     8
 71
     3
 72
    19
 73
    15
 74
     0
 42
0.0000000001
 43
0.0000000001
 40
0.0
 40
0.0
 40
0.0
 40
0.0
 40
1.0
 40
2.0
 40
3.0
 40
4.0
 40
5.0
 40
6.0
 40
7.0
 40
8.0
 40
9.0
 40
10.0
 40
11.0
 40
12.0
 40
12.0
 40
12.0
 40
12.0
 10
52.81126687266256
 20
0.5162264151313628
 30
0.0
 10
52.82657358838635
 20
0.509230743782121
 30
0.0
 10
52.84013452488693
 20
0.4780537412349595
 30
0.0
 10
52.84440495618986
 20
0.4304247495583505
 30
0.0
 10
52.84518814235406
 20
0.3821840109009749
 30
0.0
 10
52.84047032320955
 20
0.3343420216726466
 30
0.0
 10
52.83656103596521
 20
0.2864120868930915
 30
0.0
 10
52.83091732218178
 20
0.2386356838041589
 30
0.0
 10
52.82210408923633
 20
0.1913268790875972
 30
0.0
 10
52.81833836950129
 20
0.1433050570033234
 30
0.0
 10
52.82232622984096
 20
0.0951500239863668
 30
0.0
 10
52.83779956514831
 20
0.0490573863641747
 30
0.0
 10
52.86967267972938
 20
0.0113917228810312
 30
0.0
 10
52.90110530358204
 20
0.0000259515300851
 30
0.0
 10
52.91720374621735
 20
0.0000000000000117
 30
0.0
  0
POLYLINE
  5
77
330
1F
100
AcDbEntity
  8
sled - arm 2d
 62
     7
100
AcDb2dPolyline
 66
     1
 10
0.0
 20
0.0
 30
0.0
  0
VERTEX
  5
78
330
77
100
AcDbEntity
  8
sled - arm 2d
 62
     7
100
AcDbVertex
100
AcDb2dVertex
 10
-7.299387332919753
 20
0.1510005877726396
 30
0.0
  0
VERTEX
  5
79
330
77
100
AcDbEntity
  8
sled - arm 2d
 62
     7
100
AcDbVertex
100
AcDb2dVertex
 10
7.299387332919753
 20
0.1510005877726396
 30
0.0
  0
SEQEND
  5
7A
330
77
100
AcDbEntity
  8
sled - arm 2d
 62
     7
  0
POLYLINE
  5
7B
330
1F
100
AcDbEntity
  8
sled - arm 2d
 62
     7
100
AcDb2dPolyline
 66
     1
 10
0.0
 20
0.0
 30
0.0
  0
VERTEX
  5
7C
330
7B
100
AcDbEntity
  8
sled - arm 2d
 62
     7
100
AcDbVertex
100
AcDb2dVertex
 10
8.851579025252121
 20
0.1510005877726396
 30
0.0
  0
VERTEX
  5
7D
330
7B
100
AcDbEntity
  8
sled - arm 2d
 62
     7
100
AcDbVertex
100
AcDb2dVertex
 10
8.690118989677634
 20
0.1510000007999992
 30
0.0
  0
SEQEND
  5
7E
330
7B
100
AcDbEntity
  8
sled - arm 2d
 62
     7
  0
SPLINE
  5
7F
330
1F
100
AcDbEntity
  8
sled - arm 2d
 62
     7
100
AcDbSpline
210
0.0
220
0.0
230
1.0
 70
     8
 71
     3
 72
     8
 73
     4
 74
     0
 42
0.0000000001
 43
0.0000000001
 40
-1.0
 40
-1.0
 40
-1.0
 40
-1.0
 40
0.0
 40
0.0
 40
0.0
 40
0.0
 10
8.690118989677634
 20
0.1510000007999992
 30
0.0
 10
8.654350950984309
 20
0.1510000008000043
 30
0.0
 10
8.610953306136855
 20
0.1636801607931305
 30
0.0
 10
8.587008190950582
 20
0.1881370906252466
 30
0.0
  0
SPLINE
  5
80
330
1F
100
AcDbEntity
  8
sled - arm 2d
 62
     7
100
AcDbSpline
210
0.0
220
0.0
230
1.0
 70
    12
 71
     2
 72
     6
 73
     3
 74
     0
 42
0.0000000001
 43
0.0000000001
 40
-0.1806243414225346
 40
-0.1806243414225346
 40
-0.1806243414225346
 40
0.0
 40
0.0
 40
0.0
 10
8.587008190950582
 20
0.1881370906252466
 30
0.0
 41
1.0
 10
8.520913192239831
 20
0.2556448362822527
 30
0.0
 41
0.9351730029632768
 10
8.51609854782729
 20
0.3503659055713634
 30
0.0
 41
1.0
  0
SPLINE
  5
81
330
1F
100
AcDbEntity
  8
sled - arm 2d
 62
     7
100
AcDbSpline
210
0.0
220
0.0
230
1.0
 70
    12
 71
     2
 72
     6
 73
     3
 74
     0
 42
0.0000000001
 43
0.0000000001
 40
0.0
 40
0.0
 40
0.0
 40
0.1354699869020315
 40
0.1354699869020315
 40
0.1354699869020315
 10
8.51609854782729
 20
0.3503659055713634
 30
0.0
 41
1.0
 10
8.513236544489567
 20
0.4184699784433544
 30
0.0
 41
0.9986158406754945
 10
8.503289358830369
 20
0.4855820969744712
 30
0.0
 41
1.0
  0
SPLINE
  5
82
330
1F
100
AcDbEntity
  8
sled - arm 2d
 62
     7
100
AcDbSpline
210
0.0
220
0.0
230
1.0
 70
    12
 71
     2
 72
     6
 73
     3
 74
     0
 42
0.0000000001
 43
0.0000000001
 40
-0.1066421311786056
 40
-0.1066421311786056
 40
-0.1066421311786056
 40
0.0
 40
0.0
 40
0.0
 10
8.503289358830369
 20
0.4855820969744712
 30
0.0
 41
1.0
 10
8.476355236611921
 20
0.5384857654904236
 30
0.0
 41
0.8550006372753579
 10
8.417038387883032
 20
0.5390301369083846
 30
0.0
 41
1.0
  0
POLYLINE
  5
83
330
1F
100
AcDbEntity
  8
sled - arm 2d
 62
     7
100
AcDb2dPolyline
 66
     1
 10
0.0
 20
0.0
 30
0.0
  0
VERTEX
  5
84
330
83
100
AcDbEntity
  8
sled - arm 2d
 62
     7
100
AcDbVertex
100
AcDb2dVertex
 10
8.417038387883032
 20
0.5390301369083846
 30
0.0
  0
VERTEX
  5
85
330
83
100
AcDbEntity
  8
sled - arm 2d
 62
     7
100
AcDbVertex
100
AcDb2dVertex
 10
7.423172450839591
 20
0.5390301369083846
 30
0.0
  0
SEQEND
  5
86
330
83
100
AcDbEntity
  8
sled - arm 2d
 62
     7
  0
ARC
  5
87
330
1F
100
AcDbEntity
  8
sled - arm 2d
 62
     7
100
AcDbCircle
 10
7.451222864323468
 20
0.3716845440884132
 30
0.0
 40
0.1696802084301059
100
AcDbArc
 50
99.51544144031097
 51
180.666478222148
  0
LINE
  5
88
330
1F
100
AcDbEntity
  8
sled - arm 2d
 62
     7
100
AcDbLine
 10
7.281554135392967
 20
0.3697108277986811
 30
0.0
 11
7.296573126115844
 21
0.1745315767098414
 31
0.0
  0
SPLINE
  5
89
330
1F
100
AcDbEntity
  8
sled - arm 2d
 62
     7
100
AcDbSpline
210
0.0
220
0.0
230
1.0
 70
     8
 71
     3
 72
     8
 73
     4
 74
     0
 42
0.0000000001
 43
0.0000000001
 40
0.0
 40
0.0
 40
0.0
 40
0.0
 40
1.0
 40
1.0
 40
1.0
 40
1.0
 10
7.296573126115844
 20
0.1745315767098414
 30
0.0
 10
7.305613988178084
 20
0.0570410795742688
 30
0.0
 10
7.380257166396723
 20
-0.0000000000000008
 30
0.0
 10
7.501459206754413
 20
0.0
 30
0.0
  0
POLYLINE
  5
8A
330
1F
100
AcDbEntity
  8
sled - arm 2d
 62
     7
100
AcDb2dPolyline
 66
     1
 10
0.0
 20
0.0
 30
0.0
  0
VERTEX
  5
8B
330
8A
100
AcDbEntity
  8
sled - arm 2d
 62
     7
100
AcDbVertex
100
AcDb2dVertex
 10
7.501459206754413
 20
0.0
 30
0.0
  0
VERTEX
  5
8C
330
8A
100
AcDbEntity
  8
sled - arm 2d
 62
     7
100
AcDbVertex
100
AcDb2dVertex
 10
8.68576765420979
 20
0.0000000000000075
 30
0.0
  0
SEQEND
  5
8D
330
8A
100
AcDbEntity
  8
sled - arm 2d
 62
     7
  0
SPLINE
  5
8E
330
1F
100
AcDbEntity
  8
sled - arm 2d
 62
     7
100
AcDbSpline
210
0.0
220
0.0
230
1.0
 70
    12
 71
     2
 72
     6
 73
     3
 74
     0
 42
0.0000000001
 43
0.0000000001
 40
-0.2476690800305388
 40
-0.2476690800305388
 40
-0.2476690800305388
 40
0.0
 40
0.0
 40
0.0
 10
8.68576765420979
 20
0.0000000000000075
 30
0.0
 41
1.0
 10
8.8250224691555
 20
0.0164533298441202
 30
0.0
 41
0.8335612645991325
 10
8.864130018746941
 20
0.1511129567316011
 30
0.0
 41
1.0
  0
SPLINE
  5
8F
330
1F
100
AcDbEntity
  8
sled - arm 2d
 62
     7
100
AcDbSpline
210
0.0
220
0.0
230
1.0
 70
     8
 71
     3
 72
    19
 73
    15
 74
     0
 42
0.0000000001
 43
0.0000000001
 40
0.0
 40
0.0
 40
0.0
 40
0.0
 40
1.0
 40
2.0
 40
3.0
 40
4.0
 40
5.0
 40
6.0
 40
7.0
 40
8.0
 40
9.0
 40
10.0
 40
11.0
 40
12.0
 40
12.0
 40
12.0
 40
12.0
 10
8.384006812485088
 20
0.5162264151313628
 30
0.0
 10
8.399313528208872
 20
0.509230743782121
 30
0.0
 10
8.41287446470945
 20
0.4780537412349595
 30
0.0
 10
8.417144896012388
 20
0.4304247495583505
 30
0.0
 10
8.417928082176587
 20
0.3821840109009749
 30
0.0
 10
8.41321026303208
 20
0.3343420216726466
 30
0.0
 10
8.409300975787735
 20
0.2864120868930915
 30
0.0
 10
8.403657262004309
 20
0.2386356838041589
 30
0.0
 10
8.394844029058852
 20
0.1913268790875972
 30
0.0
 10
8.391078309323818
 20
0.1433050570033234
 30
0.0
 10
8.395066169663489
 20
0.0951500239863668
 30
0.0
 10
8.410539504970833
 20
0.0490573863641747
 30
0.0
 10
8.442412619551906
 20
0.0113917228810312
 30
0.0
 10
8.473845243404567
 20
0.0000259515300851
 30
0.0
 10
8.489943686039869
 20
0.0000000000000117
 30
0.0
  0
SPLINE
  5
90
330
1F
100
AcDbEntity
  8
sled - arm 2d
 62
     7
100
AcDbSpline
210
0.0
220
0.0
230
1.0
 70
    12
 71
     3
 72
    13
 73
     9
 74
     0
 42
0.0000000001
 43
0.0000000001
 40
1.05810823208728
 40
1.05810823208728
 40
1.05810823208728
 40
1.05810823208728
 40
1.160083225746845
 40
1.160083225746845
 40
1.504089666301907
 40
1.779293324204372
 40
2.10953741761383
 40
2.347913594225628
 40
2.347913594225628
 40
2.347913594225628
 40
2.347913594225628
 10
8.927868005938633
 20
0.6039472739225785
 30
0.0
 41
1.0
 10
8.942395503852927
 20
0.6315081830929814
 30
0.0
 41
1.0
 10
8.955972971186187
 20
0.6599622371786373
 30
0.0
 41
1.0
 10
9.011168174416653
 20
0.7877460079861762
 30
0.0
 41
1.0
 10
9.06755415060696
 20
0.9810719869829019
 30
0.0
 41
1.0
 10
9.104453863062687
 20
1.295872889493512
 30
0.0
 41
1.0
 10
9.097820267597474
 20
1.578318646275575
 30
0.0
 41
1.0
 10
9.072474189098847
 20
1.763059286815716
 30
0.0
 41
1.0
 10
9.05781650107688
 20
1.844058344603161
 30
0.0
 41
1.0
  0
LINE
  5
91
330
1F
100
AcDbEntity
  8
sled - arm 2d
 62
     7
100
AcDbLine
 10
9.05781650107688
 20
1.844058344603161
 30
0.0
 11
6.678807687814096
 21
14.68010773078384
 31
0.0
  0
LINE
  5
92
330
1F
100
AcDbEntity
  8
sled - arm 2d
 62
     7
100
AcDbLine
 10
6.272812782142417
 20
14.46717714851914
 30
0.0
 11
8.626704550824995
 21
1.766707810891239
 31
0.0
  0
SPLINE
  5
93
330
1F
100
AcDbEntity
  8
sled - arm 2d
 62
     7
100
AcDbSpline
210
0.0
220
0.0
230
1.0
 70
     8
 71
     3
 72
    12
 73
     8
 74
     0
 42
0.0000000001
 43
0.0000000001
 40
0.0
 40
0.0
 40
0.0
 40
0.0
 40
0.211460254359724
 40
0.4209224534235806
 40
0.8093200314908555
 40
1.112748915988561
 40
1.340441555748482
 40
1.340441555748482
 40
1.340441555748482
 40
1.340441555748482
 10
8.626704550824995
 20
1.766707810891239
 30
0.0
 10
8.639764092390303
 20
1.695745900509512
 30
0.0
 10
8.65825623624426
 20
1.557228269634368
 30
0.0
 10
8.666911646931016
 20
1.286036450267013
 30
0.0
 10
8.626357838166983
 20
0.9881643310613487
 30
0.0
 10
8.501495711099608
 20
0.7003538859725672
 30
0.0
 10
8.347339825475709
 20
0.5950556832712017
 30
0.0
 10
8.269202559270013
 20
0.5903792415560148
 30
0.0
  0
POLYLINE
  5
94
330
1F
100
AcDbEntity
  8
sled - arm 2d
 62
     7
100
AcDb2dPolyline
 66
     1
 10
0.0
 20
0.0
 30
0.0
  0
VERTEX
  5
95
330
94
100
AcDbEntity
  8
sled - arm 2d
 62
     7
100
AcDbVertex
100
AcDb2dVertex
 10
-8.851579025252121
 20
0.1510005877726396
 30
0.0
  0
VERTEX
  5
96
330
94
100
AcDbEntity
  8
sled - arm 2d
 62
     7
100
AcDbVertex
100
AcDb2dVertex
 10
-8.690118989677634
 20
0.1510000007999992
 30
0.0
  0
SEQEND
  5
97
330
94
100
AcDbEntity
  8
sled - arm 2d
 62
     7
  0
SPLINE
  5
98
330
1F
100
AcDbEntity
  8
sled - arm 2d
 62
     7
100
AcDbSpline
210
0.0
220
0.0
230
1.0
 70
     8
 71
     3
 72
     8
 73
     4
 74
     0
 42
0.0000000001
 43
0.0000000001
 40
-1.0
 40
-1.0
 40
-1.0
 40
-1.0
 40
0.0
 40
0.0
 40
0.0
 40
0.0
 10
-8.690118989677634
 20
0.1510000007999992
 30
0.0
 10
-8.654350950984309
 20
0.1510000008000043
 30
0.0
 10
-8.610953306136855
 20
0.1636801607931305
 30
0.0
 10
-8.587008190950582
 20
0.1881370906252466
 30
0.0
  0
SPLINE
  5
99
330
1F
100
AcDbEntity
  8
sled - arm 2d
 62
     7
100
AcDbSpline
210
0.0
220
0.0
230
1.0
 70
    12
 71
     2
 72
     6
 73
     3
 74
     0
 42
0.0000000001
 43
0.0000000001
 40
-0.1806243414225346
 40
-0.1806243414225346
 40
-0.1806243414225346
 40
0.0
 40
0.0
 40
0.0
 10
-8.587008190950582
 20
0.1881370906252466
 30
0.0
 41
1.0
 10
-8.520913192239831
 20
0.2556448362822527
 30
0.0
 41
0.9351730029632768
 10
-8.51609854782729
 20
0.3503659055713634
 30
0.0
 41
1.0
  0
SPLINE
  5
9A
330
1F
100
AcDbEntity
  8
sled - arm 2d
 62
     7
100
AcDbSpline
210
0.0
220
0.0
230
1.0
 70
    12
 71
     2
 72
     6
 73
     3
 74
     0
 42
0.0000000001
 43
0.0000000001
 40
0.0
 40
0.0
 40
0.0
 40
0.1354699869020315
 40
0.1354699869020315
 40
0.1354699869020315
 10
-8.51609854782729
 20
0.3503659055713634
 30
0.0
 41
1.0
 10
-8.513236544489567
 20
0.4184699784433544
 30
0.0
 41
0.9986158406754945
 10
-8.503289358830369
 20
0.4855820969744712
 30
0.0
 41
1.0
  0
SPLINE
  5
9B
330
1F
100
AcDbEntity
  8
sled - arm 2d
 62
     7
100
AcDbSpline
210
0.0
220
0.0
230
1.0
 70
    12
 71
     2
 72
     6
 73
     3
 74
     0
 42
0.0000000001
 43
0.0000000001
 40
-0.1066421311786056
 40
-0.1066421311786056
 40
-0.1066421311786056
 40
0.0
 40
0.0
 40
0.0
 10
-8.503289358830369
 20
0.4855820969744712
 30
0.0
 41
1.0
 10
-8.476355236611921
 20
0.5384857654904236
 30
0.0
 41
0.8550006372753579
 10
-8.417038387883032
 20
0.5390301369083846
 30
0.0
 41
1.0
  0
POLYLINE
  5
9C
330
1F
100
AcDbEntity
  8
sled - arm 2d
 62
     7
100
AcDb2dPolyline
 66
     1
 10
0.0
 20
0.0
 30
0.0
  0
VERTEX
  5
9D
330
9C
100
AcDbEntity
  8
sled - arm 2d
 62
     7
100
AcDbVertex
100
AcDb2dVertex
 10
-8.417038387883032
 20
0.5390301369083846
 30
0.0
  0
VERTEX
  5
9E
330
9C
100
AcDbEntity
  8
sled - arm 2d
 62
     7
100
AcDbVertex
100
AcDb2dVertex
 10
-7.423172450839591
 20
0.5390301369083846
 30
0.0
  0
SEQEND
  5
9F
330
9C
100
AcDbEntity
  8
sled - arm 2d
 62
     7
  0
ARC
  5
A0
330
1F
100
AcDbEntity
  8
sled - arm 2d
 62
     7
100
AcDbCircle
 10
-7.451222864323468
 20
0.3716845440884132
 30
0.0
 40
0.1696802084301059
100
AcDbArc
 50
359.333521777852
 51
80.48455855968903
  0
LINE
  5
A1
330
1F
100
AcDbEntity
  8
sled - arm 2d
 62
     7
100
AcDbLine
 10
-7.281554135392967
 20
0.3697108277986811
 30
0.0
 11
-7.296573126115844
 21
0.1745315767098414
 31
0.0
  0
SPLINE
  5
A2
330
1F
100
AcDbEntity
  8
sled - arm 2d
 62
     7
100
AcDbSpline
210
0.0
220
0.0
230
1.0
 70
     8
 71
     3
 72
     8
 73
     4
 74
     0
 42
0.0000000001
 43
0.0000000001
 40
0.0
 40
0.0
 40
0.0
 40
0.0
 40
1.0
 40
1.0
 40
1.0
 40
1.0
 10
-7.296573126115844
 20
0.1745315767098414
 30
0.0
 10
-7.305613988178084
 20
0.0570410795742688
 30
0.0
 10
-7.380257166396723
 20
-0.0000000000000008
 30
0.0
 10
-7.501459206754413
 20
0.0
 30
0.0
  0
POLYLINE
  5
A3
330
1F
100
AcDbEntity
  8
sled - arm 2d
 62
     7
100
AcDb2dPolyline
 66
     1
 10
0.0
 20
0.0
 30
0.0
  0
VERTEX
  5
A4
330
A3
100
AcDbEntity
  8
sled - arm 2d
 62
     7
100
AcDbVertex
100
AcDb2dVertex
 10
-7.501459206754413
 20
0.0
 30
0.0
  0
VERTEX
  5
A5
330
A3
100
AcDbEntity
  8
sled - arm 2d
 62
     7
100
AcDbVertex
100
AcDb2dVertex
 10
-8.68576765420979
 20
0.0000000000000075
 30
0.0
  0
SEQEND
  5
A6
330
A3
100
AcDbEntity
  8
sled - arm 2d
 62
     7
  0
SPLINE
  5
A7
330
1F
100
AcDbEntity
  8
sled - arm 2d
 62
     7
100
AcDbSpline
210
0.0
220
0.0
230
1.0
 70
    12
 71
     2
 72
     6
 73
     3
 74
     0
 42
0.0000000001
 43
0.0000000001
 40
-0.2476690800305388
 40
-0.2476690800305388
 40
-0.2476690800305388
 40
0.0
 40
0.0
 40
0.0
 10
-8.68576765420979
 20
0.0000000000000075
 30
0.0
 41
1.0
 10
-8.8250224691555
 20
0.0164533298441202
 30
0.0
 41
0.8335612645991325
 10
-8.864130018746941
 20
0.1511129567316011
 30
0.0
 41
1.0
  0
SPLINE
  5
A8
330
1F
100
AcDbEntity
  8
sled - arm 2d
 62
     7
100
AcDbSpline
210
0.0
220
0.0
230
1.0
 70
     8
 71
     3
 72
    19
 73
    15
 74
     0
 42
0.0000000001
 43
0.0000000001
 40
0.0
 40
0.0
 40
0.0
 40
0.0
 40
1.0
 40
2.0
 40
3.0
 40
4.0
 40
5.0
 40
6.0
 40
7.0
 40
8.0
 40
9.0
 40
10.0
 40
11.0
 40
12.0
 40
12.0
 40
12.0
 40
12.0
 10
-8.384006812485088
 20
0.5162264151313628
 30
0.0
 10
-8.399313528208872
 20
0.509230743782121
 30
0.0
 10
-8.41287446470945
 20
0.4780537412349595
 30
0.0
 10
-8.417144896012388
 20
0.4304247495583505
 30
0.0
 10
-8.417928082176587
 20
0.3821840109009749
 30
0.0
 10
-8.41321026303208
 20
0.3343420216726466
 30
0.0
 10
-8.409300975787735
 20
0.2864120868930915
 30
0.0
 10
-8.403657262004309
 20
0.2386356838041589
 30
0.0
 10
-8.394844029058852
 20
0.1913268790875972
 30
0.0
 10
-8.391078309323818
 20
0.1433050570033234
 30
0.0
 10
-8.395066169663489
 20
0.0951500239863668
 30
0.0
 10
-8.410539504970833
 20
0.0490573863641747
 30
0.0
 10
-8.442412619551906
 20
0.0113917228810312
 30
0.0
 10
-8.473845243404567
 20
0.0000259515300851
 30
0.0
 10
-8.489943686039869
 20
0.0000000000000117
 30
0.0
  0
SPLINE
  5
A9
330
1F
100
AcDbEntity
  8
sled - arm 2d
 62
     7
100
AcDbSpline
210
0.0
220
0.0
230
1.0
 70
    12
 71
     3
 72
    13
 73
     9
 74
     0
 42
0.0000000001
 43
0.0000000001
 40
1.05810823208728
 40
1.05810823208728
 40
1.05810823208728
 40
1.05810823208728
 40
1.160083225746845
 40
1.160083225746845
 40
1.504089666301907
 40
1.779293324204372
 40
2.10953741761383
 40
2.347913594225628
 40
2.347913594225628
 40
2.347913594225628
 40
2.347913594225628
 10
-8.927868005938633
 20
0.6039472739225785
 30
0.0
 41
1.0
 10
-8.942395503852927
 20
0.6315081830929814
 30
0.0
 41
1.0
 10
-8.955972971186187
 20
0.6599622371786373
 30
0.0
 41
1.0
 10
-9.011168174416653
 20
0.7877460079861762
 30
0.0
 41
1.0
 10
-9.06755415060696
 20
0.9810719869829019
 30
0.0
 41
1.0
 10
-9.104453863062687
 20
1.295872889493512
 30
0.0
 41
1.0
 10
-9.097820267597474
 20
1.578318646275575
 30
0.0
 41
1.0
 10
-9.072474189098847
 20
1.763059286815716
 30
0.0
 41
1.0
 10
-9.05781650107688
 20
1.844058344603161
 30
0.0
 41
1.0
  0
LINE
  5
AA
330
1F
100
AcDbEntity
  8
sled - arm 2d
 62
     7
100
AcDbLine
 10
-9.05781650107688
 20
1.844058344603161
 30
0.0
 11
-6.678807687814096
 21
14.68010773078384
 31
0.0
  0
POLYLINE
  5
AB
330
1F
100
AcDbEntity
  8
sled - arm 2d
 62
     7
100
AcDb2dPolyline
 66
     1
 10
0.0
 20
0.0
 30
0.0
  0
VERTEX
  5
AC
330
AB
100
AcDbEntity
  8
sled - arm 2d
 62
     7
100
AcDbVertex
100
AcDb2dVertex
 10
-8.81917940257772
 20
0.5890000007999805
 30
0.0
  0
VERTEX
  5
AD
330
AB
100
AcDbEntity
  8
sled - arm 2d
 62
     7
100
AcDbVertex
100
AcDb2dVertex
 10
8.81917940257772
 20
0.5890000007999805
 30
0.0
  0
SEQEND
  5
AE
330
AB
100
AcDbEntity
  8
sled - arm 2d
 62
     7
  0
SPLINE
  5
AF
330
1F
100
AcDbEntity
  8
sled - arm 2d
 62
     7
100
AcDbSpline
210
0.0
220
0.0
230
1.0
 70
     8
 71
     3
 72
     8
 73
     4
 74
     0
 42
0.0000000001
 43
0.0000000001
 40
-1.0
 40
-1.0
 40
-1.0
 40
-1.0
 40
0.0
 40
0.0
 40
0.0
 40
0.0
 10
8.81917940257772
 20
0.5890000007999805
 30
0.0
 10
9.222049273664574
 20
0.5890000007999225
 30
0.0
 10
9.332278502422144
 20
1.136936286621989
 30
0.0
 10
9.232701769384924
 20
1.780162850004068
 30
0.0
  0
SPLINE
  5
B0
330
1F
100
AcDbEntity
  8
sled - arm 2d
 62
     7
100
AcDbSpline
210
0.0
220
0.0
230
1.0
 70
    24
 71
     2
 72
     6
 73
     3
 74
     0
 42
0.0000000001
 43
0.0000000001
 40
-12.3877983264213
 40
-12.3877983264213
 40
-12.3877983264213
 40
0.0
 40
0.0
 40
0.0
 10
9.232701769384924
 20
1.780162850004068
 30
0.0
 10
8.28512292604222
 20
7.901149794906896
 30
0.0
 10
7.337544082699516
 20
14.02213673980972
 30
0.0
  0
SPLINE
  5
B1
330
1F
100
AcDbEntity
  8
sled - arm 2d
 62
     7
100
AcDbSpline
210
0.0
220
0.0
230
1.0
 70
     8
 71
     3
 72
     8
 73
     4
 74
     0
 42
0.0000000001
 43
0.0000000001
 40
-1.0
 40
-1.0
 40
-1.0
 40
-1.0
 40
0.0
 40
0.0
 40
0.0
 40
0.0
 10
7.337544082699516
 20
14.02213673980972
 30
0.0
 10
7.264796576799998
 20
14.49205703933266
 30
0.0
 10
7.173387150878274
 20
14.96330766986652
 30
0.0
 10
6.801405857899891
 20
14.74940562316041
 30
0.0
  0
SPLINE
  5
B2
330
1F
100
AcDbEntity
  8
sled - arm 2d
 62
     7
100
AcDbSpline
210
0.0
220
0.0
230
1.0
 70
    12
 71
     2
 72
     8
 73
     5
 74
     0
 42
0.0000000001
 43
0.0000000001
 40
-4.065595637909643
 40
-4.065595637909643
 40
-4.065595637909643
 40
-1.018627060900406
 40
-1.018627060900406
 40
0.0
 40
0.0
 40
0.0
 10
6.801405857899891
 20
14.74940562316041
 30
0.0
 41
1.0
 10
5.469341077670824
 20
13.98342252612148
 30
0.0
 41
0.9872497532624008
 10
3.964032339215687
 20
13.67492246839005
 30
0.0
 41
1.0
 10
3.418257389987454
 20
13.55733784597381
 30
0.0
 41
0.9969550588219868
 10
2.907908190846456
 20
13.55619920613027
 30
0.0
 41
1.0
  0
SPLINE
  5
B3
330
1F
100
AcDbEntity
  8
sled - arm 2d
 62
     7
100
AcDbSpline
210
0.0
220
0.0
230
1.0
 70
     8
 71
     3
 72
    12
 73
     8
 74
     0
 42
0.0000000001
 43
0.0000000001
 40
-1.174243764134423
 40
-1.174243764134423
 40
-1.174243764134423
 40
-1.174243764134423
 40
-0.8948242171782576
 40
-0.4893309388391479
 40
-0.3294310794730737
 40
-0.1671394140643462
 40
0.0
 40
0.0
 40
0.0
 40
0.0
 10
2.907908190846456
 20
13.55619920613027
 30
0.0
 10
2.814961675707959
 20
13.55599183320673
 30
0.0
 10
2.586165945039623
 20
13.57715375033061
 30
0.0
 10
2.316208733096168
 20
13.66059644224404
 30
0.0
 10
2.077991211849124
 20
13.7063552165318
 30
0.0
 10
1.915452231197856
 20
13.7230925046398
 30
0.0
 10
1.805753187167564
 20
13.72669117184484
 30
0.0
 10
1.750000096023503
 20
13.72660450271519
 30
0.0
  0
SPLINE
  5
B4
330
1F
100
AcDbEntity
  8
sled - arm 2d
 62
     7
100
AcDbSpline
210
0.0
220
0.0
230
1.0
 70
    24
 71
     2
 72
     6
 73
     3
 74
     0
 42
0.0000000001
 43
0.0000000001
 40
0.0
 40
0.0
 40
0.0
 40
3.5
 40
3.5
 40
3.5
 10
1.750000096023503
 20
13.72660450271519
 30
0.0
 10
-0.0000005225916135
 20
13.72660450271505
 30
0.0
 10
-1.75000114120673
 20
13.72660450271491
 30
0.0
  0
SPLINE
  5
B5
330
1F
100
AcDbEntity
  8
sled - arm 2d
 62
     7
100
AcDbSpline
210
0.0
220
0.0
230
1.0
 70
     8
 71
     3
 72
    12
 73
     8
 74
     0
 42
0.0000000001
 43
0.0000000001
 40
0.0
 40
0.0
 40
0.0
 40
0.0
 40
0.1671394140643462
 40
0.3294310794730737
 40
0.4893309388391479
 40
0.8948242171782576
 40
1.174243764134423
 40
1.174243764134423
 40
1.174243764134423
 40
1.174243764134423
 10
-1.75000114120673
 20
13.72660450271491
 30
0.0
 10
-1.805753187167564
 20
13.72669117184484
 30
0.0
 10
-1.915452231197856
 20
13.7230925046398
 30
0.0
 10
-2.077991211849124
 20
13.7063552165318
 30
0.0
 10
-2.316208733096168
 20
13.66059644224404
 30
0.0
 10
-2.586165945039623
 20
13.57715375033061
 30
0.0
 10
-2.814961675707959
 20
13.55599183320673
 30
0.0
 10
-2.907908190846456
 20
13.55619920613027
 30
0.0
  0
SPLINE
  5
B6
330
1F
100
AcDbEntity
  8
sled - arm 2d
 62
     7
100
AcDbSpline
210
0.0
220
0.0
230
1.0
 70
    12
 71
     2
 72
     8
 73
     5
 74
     0
 42
0.0000000001
 43
0.0000000001
 40
0.0
 40
0.0
 40
0.0
 40
1.018627060900406
 40
1.018627060900406
 40
4.065595637909643
 40
4.065595637909643
 40
4.065595637909643
 10
-2.907908190846456
 20
13.55619920613027
 30
0.0
 41
1.0
 10
-3.418257389987454
 20
13.55733784597381
 30
0.0
 41
0.9969550588219868
 10
-3.964032339215687
 20
13.67492246839005
 30
0.0
 41
1.0
 10
-5.469341077670824
 20
13.98342252612148
 30
0.0
 41
0.9872497532624008
 10
-6.801405857899891
 20
14.74940562316041
 30
0.0
 41
1.0
  0
SPLINE
  5
B7
330
1F
100
AcDbEntity
  8
sled - arm 2d
 62
     7
100
AcDbSpline
210
0.0
220
0.0
230
1.0
 70
     8
 71
     3
 72
     8
 73
     4
 74
     0
 42
0.0000000001
 43
0.0000000001
 40
0.0
 40
0.0
 40
0.0
 40
0.0
 40
1.0
 40
1.0
 40
1.0
 40
1.0
 10
-6.801405857899891
 20
14.74940562316041
 30
0.0
 10
-7.173387150878274
 20
14.96330766986652
 30
0.0
 10
-7.264796576799998
 20
14.49205703933266
 30
0.0
 10
-7.337544082699516
 20
14.02213673980972
 30
0.0
  0
SPLINE
  5
B8
330
1F
100
AcDbEntity
  8
sled - arm 2d
 62
     7
100
AcDbSpline
210
0.0
220
0.0
230
1.0
 70
    24
 71
     2
 72
     6
 73
     3
 74
     0
 42
0.0000000001
 43
0.0000000001
 40
0.0
 40
0.0
 40
0.0
 40
12.3877983264213
 40
12.3877983264213
 40
12.3877983264213
 10
-7.337544082699516
 20
14.02213673980972
 30
0.0
 10
-8.28512292604222
 20
7.901149794906896
 30
0.0
 10
-9.232701769384924
 20
1.780162850004068
 30
0.0
  0
SPLINE
  5
B9
330
1F
100
AcDbEntity
  8
sled - arm 2d
 62
     7
100
AcDbSpline
210
0.0
220
0.0
230
1.0
 70
     8
 71
     3
 72
     8
 73
     4
 74
     0
 42
0.0000000001
 43
0.0000000001
 40
0.0
 40
0.0
 40
0.0
 40
0.0
 40
1.0
 40
1.0
 40
1.0
 40
1.0
 10
-9.232701769384924
 20
1.780162850004068
 30
0.0
 10
-9.332278502422144
 20
1.136936286621989
 30
0.0
 10
-9.222049273664574
 20
0.5890000007999225
 30
0.0
 10
-8.81917940257772
 20
0.5890000007999805
 30
0.0
  0
LINE
  5
BA
330
1F
100
AcDbEntity
  8
sled - arm 2d
 62
     7
100
AcDbLine
 10
-6.272812782142417
 20
14.46717714851914
 30
0.0
 11
-8.626704550824995
 21
1.766707810891239
 31
0.0
  0
SPLINE
  5
BB
330
1F
100
AcDbEntity
  8
sled - arm 2d
 62
     7
100
AcDbSpline
210
0.0
220
0.0
230
1.0
 70
     8
 71
     3
 72
    12
 73
     8
 74
     0
 42
0.0000000001
 43
0.0000000001
 40
0.0
 40
0.0
 40
0.0
 40
0.0
 40
0.211460254359724
 40
0.4209224534235806
 40
0.8093200314908555
 40
1.112748915988561
 40
1.340441555748482
 40
1.340441555748482
 40
1.340441555748482
 40
1.340441555748482
 10
-8.626704550824995
 20
1.766707810891239
 30
0.0
 10
-8.639764092390303
 20
1.695745900509512
 30
0.0
 10
-8.65825623624426
 20
1.557228269634368
 30
0.0
 10
-8.666911646931016
 20
1.286036450267013
 30
0.0
 10
-8.626357838166983
 20
0.9881643310613487
 30
0.0
 10
-8.501495711099608
 20
0.7003538859725672
 30
0.0
 10
-8.347339825475709
 20
0.5950556832712017
 30
0.0
 10
-8.269202559270013
 20
0.5903792415560148
 30
0.0
  0
SPLINE
  5
BC
330
1F
100
AcDbEntity
  8
sled - arm 2d
 62
     7
100
AcDbSpline
210
0.0
220
0.0
230
1.0
 70
     8
 71
     3
 72
    12
 73
     8
 74
     0
 42
0.0000000001
 43
0.0000000001
 40
0.0
 40
0.0
 40
0.0
 40
0.0
 40
0.2274048893599437
 40
0.4452720600790344
 40
0.9004345016574713
 40
1.453337447274097
 40
2.161589359025581
 40
2.161589359025581
 40
2.161589359025581
 40
2.161589359025581
 10
-8.851579025252121
 20
0.1510005877726396
 30
0.0
 10
-8.928098819878791
 20
0.1508666265012022
 30
0.0
 10
-9.07447480554906
 20
0.16880943551881
 30
0.0
 10
-9.358540195578415
 20
0.2856133628348201
 30
0.0
 10
-9.625160963253226
 20
0.6155489226551037
 30
0.0
 10
-9.735866070756572
 20
1.188177380415661
 30
0.0
 10
-9.70278805839843
 20
1.607603279793635
 30
0.0
 10
-9.666196704320209
 20
1.842966043618711
 30
0.0
  0
SPLINE
  5
BD
330
1F
100
AcDbEntity
  8
sled - arm 2d
 62
     7
100
AcDbSpline
210
0.0
220
0.0
230
1.0
 70
    24
 71
     2
 72
     6
 73
     3
 74
     0
 42
0.0000000001
 43
0.0000000001
 40
0.0
 40
0.0
 40
0.0
 40
12.39199842777242
 40
12.39199842777242
 40
12.39199842777242
 10
-9.666196704320209
 20
1.842966043618711
 30
0.0
 10
-8.718182636992138
 20
7.966764374193978
 30
0.0
 10
-7.770168569664068
 20
14.09056270476925
 30
0.0
  0
SPLINE
  5
BE
330
1F
100
AcDbEntity
  8
sled - arm 2d
 62
     7
100
AcDbSpline
210
0.0
220
0.0
230
1.0
 70
     8
 71
     3
 72
     8
 73
     4
 74
     0
 42
0.0000000001
 43
0.0000000001
 40
-1.0
 40
-1.0
 40
-1.0
 40
-1.0
 40
0.0
 40
0.0
 40
0.0
 40
0.0
 10
-7.770168569664068
 20
14.09056270476925
 30
0.0
 10
-7.636569170213027
 20
14.95356232282944
 30
0.0
 10
-7.29085495970919
 20
15.5174471307041
 30
0.0
 10
-6.591129863139608
 20
15.11508111630196
 30
0.0
  0
SPLINE
  5
BF
330
1F
100
AcDbEntity
  8
sled - arm 2d
 62
     7
100
AcDbSpline
210
0.0
220
0.0
230
1.0
 70
     8
 71
     3
 72
     9
 73
     5
 74
     0
 42
0.0000000001
 43
0.0000000001
 40
-2.0
 40
-2.0
 40
-2.0
 40
-2.0
 40
-1.0
 40
0.0
 40
0.0
 40
0.0
 40
0.0
 10
-6.591129863139608
 20
15.11508111630196
 30
0.0
 10
-6.03331131257058
 20
14.79318292988424
 30
0.0
 10
-4.84889212185746
 20
14.27645916595671
 30
0.0
 10
-3.582078162548456
 20
14.00009907796125
 30
0.0
 10
-2.937313230185092
 20
13.97878832754185
 30
0.0
  0
SPLINE
  5
C0
330
1F
100
AcDbEntity
  8
sled - arm 2d
 62
     7
100
AcDbSpline
210
0.0
220
0.0
230
1.0
 70
     8
 71
     3
 72
     8
 73
     4
 74
     0
 42
0.0000000001
 43
0.0000000001
 40
0.0
 40
0.0
 40
0.0
 40
0.0
 40
1.0
 40
1.0
 40
1.0
 40
1.0
 10
-2.937313230185092
 20
13.97878832754185
 30
0.0
 10
-1.369464864575271
 20
13.92696785229904
 30
0.0
 10
1.369464864575271
 20
13.92696785229904
 30
0.0
 10
2.937313230185092
 20
13.97878832754185
 30
0.0
  0
SPLINE
  5
C1
330
1F
100
AcDbEntity
  8
sled - arm 2d
 62
     7
100
AcDbSpline
210
0.0
220
0.0
230
1.0
 70
     8
 71
     3
 72
     9
 73
     5
 74
     0
 42
0.0000000001
 43
0.0000000001
 40
0.0
 40
0.0
 40
0.0
 40
0.0
 40
1.0
 40
2.0
 40
2.0
 40
2.0
 40
2.0
 10
2.937313230185092
 20
13.97878832754185
 30
0.0
 10
3.582078162548456
 20
14.00009907796125
 30
0.0
 10
4.84889212185746
 20
14.27645916595671
 30
0.0
 10
6.03331131257058
 20
14.79318292988424
 30
0.0
 10
6.591129863139608
 20
15.11508111630196
 30
0.0
  0
SPLINE
  5
C2
330
1F
100
AcDbEntity
  8
sled - arm 2d
 62
     7
100
AcDbSpline
210
0.0
220
0.0
230
1.0
 70
     8
 71
     3
 72
     8
 73
     4
 74
     0
 42
0.0000000001
 43
0.0000000001
 40
0.0
 40
0.0
 40
0.0
 40
0.0
 40
1.0
 40
1.0
 40
1.0
 40
1.0
 10
6.591129863139608
 20
15.11508111630196
 30
0.0
 10
7.29085495970919
 20
15.5174471307041
 30
0.0
 10
7.636569170213027
 20
14.95356232282944
 30
0.0
 10
7.770168569664068
 20
14.09056270476925
 30
0.0
  0
SPLINE
  5
C3
330
1F
100
AcDbEntity
  8
sled - arm 2d
 62
     7
100
AcDbSpline
210
0.0
220
0.0
230
1.0
 70
    24
 71
     2
 72
     6
 73
     3
 74
     0
 42
0.0000000001
 43
0.0000000001
 40
-12.39199842777242
 40
-12.39199842777242
 40
-12.39199842777242
 40
0.0
 40
0.0
 40
0.0
 10
7.770168569664068
 20
14.09056270476925
 30
0.0
 10
8.718182636992138
 20
7.966764374193978
 30
0.0
 10
9.666196704320209
 20
1.842966043618711
 30
0.0
  0
SPLINE
  5
C4
330
1F
100
AcDbEntity
  8
sled - arm 2d
 62
     7
100
AcDbSpline
210
0.0
220
0.0
230
1.0
 70
     8
 71
     3
 72
    12
 73
     8
 74
     0
 42
0.0000000001
 43
0.0000000001
 40
-2.161589359025581
 40
-2.161589359025581
 40
-2.161589359025581
 40
-2.161589359025581
 40
-1.453337447274097
 40
-0.9004345016574713
 40
-0.4452720600790344
 40
-0.2274048893599437
 40
0.0
 40
0.0
 40
0.0
 40
0.0
 10
9.666196704320209
 20
1.842966043618711
 30
0.0
 10
9.70278805839843
 20
1.607603279793635
 30
0.0
 10
9.735866070756572
 20
1.188177380415661
 30
0.0
 10
9.625160963253226
 20
0.6155489226551037
 30
0.0
 10
9.358540195578415
 20
0.2856133628348201
 30
0.0
 10
9.07447480554906
 20
0.16880943551881
 30
0.0
 10
8.928098819878791
 20
0.1508666265012022
 30
0.0
 10
8.851579025252121
 20
0.1510005877726396
 30
0.0
  0
SPLINE
  5
C5
330
1F
100
AcDbEntity
  8
sled - arm 2d
 62
     7
100
AcDbSpline
210
0.0
220
0.0
230
1.0
 70
     8
 71
     3
 72
    29
 73
    25
 74
     0
 42
0.0000000001
 43
0.0000000001
 40
0.0
 40
0.0
 40
0.0
 40
0.0
 40
1.0
 40
2.0
 40
3.0
 40
4.0
 40
5.0
 40
6.0
 40
7.0
 40
8.0
 40
9.0
 40
10.0
 40
11.0
 40
12.0
 40
13.0
 40
14.0
 40
15.0
 40
16.0
 40
17.0
 40
18.0
 40
19.0
 40
20.0
 40
21.0
 40
22.0
 40
22.0
 40
22.0
 40
22.0
 10
-0.0000001445755551
 20
50.76465588652334
 30
0.0
 10
0.4541173052550052
 20
50.76259705797298
 30
0.0
 10
1.362180803256119
 20
50.79098966691255
 30
0.0
 10
2.719574114346257
 20
50.92025888825107
 30
0.0
 10
4.056647744910185
 20
51.18977299016392
 30
0.0
 10
5.361874527444674
 20
51.58791511867206
 30
0.0
 10
6.619408376795348
 20
52.10811478127543
 30
0.0
 10
7.741380550011224
 20
52.94786531732503
 30
0.0
 10
8.22202089959666
 20
54.26409588488375
 30
0.0
 10
8.4571432295489
 20
55.60048101912961
 30
0.0
 10
8.550913182603919
 20
56.96266586516374
 30
0.0
 10
8.587398945504434
 20
58.32382796564845
 30
0.0
 10
8.62005356078856
 20
59.68584438225344
 30
0.0
 10
8.634103374895643
 20
61.04815753874998
 30
0.0
 10
8.57065967698307
 20
62.409964239634
 30
0.0
 10
8.428089666382355
 20
63.76382317297859
 30
0.0
 10
8.234824356548438
 20
65.11725881251037
 30
0.0
 10
7.667845436010083
 20
66.38061045007603
 30
0.0
 10
6.645559659476503
 20
67.31816802074377
 30
0.0
 10
5.405622502272972
 20
67.90451140139608
 30
0.0
 10
4.078481001410149
 20
68.23071388116892
 30
0.0
 10
2.724050307013022
 20
68.39055716818918
 30
0.0
 10
1.362184960972182
 20
68.44128857314239
 30
0.0
 10
0.4540989388088537
 20
68.4514196573103
 30
0.0
 10
-0.0000001445755551
 20
68.44655696547288
 30
0.0
  0
SPLINE
  5
C6
330
1F
100
AcDbEntity
  8
sled - arm 2d
 62
     7
100
AcDbSpline
210
0.0
220
0.0
230
1.0
 70
     8
 71
     3
 72
    29
 73
    25
 74
     0
 42
0.0000000001
 43
0.0000000001
 40
-22.0
 40
-22.0
 40
-22.0
 40
-22.0
 40
-21.0
 40
-20.0
 40
-19.0
 40
-18.0
 40
-17.0
 40
-16.0
 40
-15.0
 40
-14.0
 40
-13.0
 40
-12.0
 40
-11.0
 40
-10.0
 40
-9.0
 40
-8.0
 40
-7.0
 40
-6.0
 40
-5.0
 40
-4.0
 40
-3.0
 40
-2.0
 40
-1.0
 40
0.0
 40
0.0
 40
0.0
 40
0.0
 10
-0.0000001445755551
 20
68.44655696547288
 30
0.0
 10
-0.4540992279599639
 20
68.4514196573103
 30
0.0
 10
-1.362185250123293
 20
68.44128857314239
 30
0.0
 10
-2.724050596164132
 20
68.39055716818918
 30
0.0
 10
-4.07848129056126
 20
68.23071388116892
 30
0.0
 10
-5.405622791424082
 20
67.90451140139608
 30
0.0
 10
-6.645559948627613
 20
67.31816802074377
 30
0.0
 10
-7.667845725161193
 20
66.38061045007603
 30
0.0
 10
-8.234824645699549
 20
65.11725881251037
 30
0.0
 10
-8.428089955533466
 20
63.76382317297859
 30
0.0
 10
-8.57065996613418
 20
62.409964239634
 30
0.0
 10
-8.634103664046753
 20
61.04815753874998
 30
0.0
 10
-8.620053849939671
 20
59.68584438225344
 30
0.0
 10
-8.587399234655544
 20
58.32382796564845
 30
0.0
 10
-8.55091347175503
 20
56.96266586516374
 30
0.0
 10
-8.45714351870001
 20
55.60048101912961
 30
0.0
 10
-8.222021188747771
 20
54.26409588488375
 30
0.0
 10
-7.741380839162334
 20
52.94786531732503
 30
0.0
 10
-6.619408665946458
 20
52.10811478127543
 30
0.0
 10
-5.361874816595784
 20
51.58791511867206
 30
0.0
 10
-4.056648034061295
 20
51.18977299016392
 30
0.0
 10
-2.719574403497367
 20
50.92025888825107
 30
0.0
 10
-1.362181092407229
 20
50.79098966691255
 30
0.0
 10
-0.4541175944061153
 20
50.76259705797298
 30
0.0
 10
-0.0000001445755551
 20
50.76465588652334
 30
0.0
  0
SPLINE
  5
C7
330
1F
100
AcDbEntity
  8
sled - arm 2d
 62
     7
100
AcDbSpline
210
0.0
220
0.0
230
1.0
 70
     8
 71
     3
 72
    44
 73
    40
 74
     0
 42
0.0000000001
 43
0.0000000001
 40
0.0
 40
0.0
 40
0.0
 40
0.0
 40
1.0
 40
2.0
 40
3.0
 40
4.0
 40
5.0
 40
6.0
 40
7.0
 40
8.0
 40
9.0
 40
10.0
 40
11.0
 40
12.0
 40
13.0
 40
14.0
 40
15.0
 40
16.0
 40
17.0
 40
18.0
 40
19.0
 40
20.0
 40
21.0
 40
22.0
 40
23.0
 40
24.0
 40
25.0
 40
26.0
 40
27.0
 40
28.0
 40
29.0
 40
30.0
 40
31.0
 40
32.0
 40
33.0
 40
34.0
 40
35.0
 40
36.0
 40
37.0
 40
37.0
 40
37.0
 40
37.0
 10
-0.0000001445755551
 20
50.44663545063271
 30
0.0
 10
0.3825280513065172
 20
50.44478164593747
 30
0.0
 10
1.147691543679177
 20
50.44846117926477
 30
0.0
 10
2.294612282279722
 20
50.49382313818069
 30
0.0
 10
3.438745315514122
 20
50.58768598709103
 30
0.0
 10
4.57617234688612
 20
50.74350751343748
 30
0.0
 10
5.701668916489962
 20
50.97266670203435
 30
0.0
 10
6.800227544110346
 20
51.31024522103134
 30
0.0
 10
7.857295607332759
 20
51.75925926535116
 30
0.0
 10
8.87556472167822
 20
52.29455749755172
 30
0.0
 10
9.77768869564077
 20
53.01077878621092
 30
0.0
 10
10.59725413517826
 20
53.81526077111325
 30
0.0
 10
11.30299071267933
 20
54.72344928402205
 30
0.0
 10
11.93389654417367
 20
55.68240954967564
 30
0.0
 10
12.46947414681376
 20
56.70027208604096
 30
0.0
 10
12.85198565247363
 20
57.78436760962845
 30
0.0
 10
13.14672632133691
 20
58.89419334568849
 30
0.0
 10
13.34659236171896
 20
60.02553335885258
 30
0.0
 10
13.43603200941683
 20
61.17111245409266
 30
0.0
 10
13.41870015289716
 20
62.31945269702891
 30
0.0
 10
13.33069864362064
 20
63.46406727791198
 30
0.0
 10
13.17894582526858
 20
64.60208252499585
 30
0.0
 10
12.96779705314506
 20
65.73049857899518
 30
0.0
 10
12.69349513163677
 20
66.84541831775883
 30
0.0
 10
12.34648335984738
 20
67.93999200221077
 30
0.0
 10
11.92820520770914
 20
69.00934775112606
 30
0.0
 10
11.4459803960693
 20
70.0511456608831
 30
0.0
 10
10.89930168212441
 20
71.06142934550914
 30
0.0
 10
10.30693593177787
 20
72.04190857602137
 30
0.0
 10
9.694552074314071
 20
73.02067053226567
 30
0.0
 10
8.856969365110293
 20
73.81343253185346
 30
0.0
 10
7.843349057310413
 20
74.36840974732588
 30
0.0
 10
6.772518542631428
 20
74.78171284129724
 30
0.0
 10
5.672369043796889
 20
75.11131791551081
 30
0.0
 10
4.557373403906386
 20
75.38411952316595
 30
0.0
 10
3.429234081717599
 20
75.59697288020517
 30
0.0
 10
2.291878855133217
 20
75.75290362130605
 30
0.0
 10
1.147641109653951
 20
75.84659326013711
 30
0.0
 10
0.382538473100876
 20
75.86679563977704
 30
0.0
 10
-0.0000001445755711
 20
75.86655527945967
 30
0.0
  0
SPLINE
  5
C8
330
1F
100
AcDbEntity
  8
sled - arm 2d
 62
     7
100
AcDbSpline
210
0.0
220
0.0
230
1.0
 70
     8
 71
     3
 72
    44
 73
    40
 74
     0
 42
0.0000000001
 43
0.0000000001
 40
-37.0
 40
-37.0
 40
-37.0
 40
-37.0
 40
-36.0
 40
-35.0
 40
-34.0
 40
-33.0
 40
-32.0
 40
-31.0
 40
-30.0
 40
-29.0
 40
-28.0
 40
-27.0
 40
-26.0
 40
-25.0
 40
-24.0
 40
-23.0
 40
-22.0
 40
-21.0
 40
-20.0
 40
-19.0
 40
-18.0
 40
-17.0
 40
-16.0
 40
-15.0
 40
-14.0
 40
-13.0
 40
-12.0
 40
-11.0
 40
-10.0
 40
-9.0
 40
-8.0
 40
-7.0
 40
-6.0
 40
-5.0
 40
-4.0
 40
-3.0
 40
-2.0
 40
-1.0
 40
0.0
 40
0.0
 40
0.0
 40
0.0
 10
-0.0000001445755391
 20
75.86655527945967
 30
0.0
 10
-0.3825387622519861
 20
75.86679563977704
 30
0.0
 10
-1.147641398805061
 20
75.84659326013711
 30
0.0
 10
-2.291879144284327
 20
75.75290362130605
 30
0.0
 10
-3.42923437086871
 20
75.59697288020517
 30
0.0
 10
-4.557373693057496
 20
75.38411952316595
 30
0.0
 10
-5.672369332947999
 20
75.11131791551081
 30
0.0
 10
-6.772518831782539
 20
74.78171284129724
 30
0.0
 10
-7.843349346461523
 20
74.36840974732588
 30
0.0
 10
-8.856969654261404
 20
73.81343253185346
 30
0.0
 10
-9.694552363465181
 20
73.02067053226567
 30
0.0
 10
-10.30693622092898
 20
72.04190857602137
 30
0.0
 10
-10.89930197127552
 20
71.06142934550914
 30
0.0
 10
-11.44598068522041
 20
70.0511456608831
 30
0.0
 10
-11.92820549686025
 20
69.00934775112606
 30
0.0
 10
-12.34648364899849
 20
67.93999200221077
 30
0.0
 10
-12.69349542078788
 20
66.84541831775883
 30
0.0
 10
-12.96779734229617
 20
65.73049857899518
 30
0.0
 10
-13.17894611441969
 20
64.60208252499585
 30
0.0
 10
-13.33069893277175
 20
63.46406727791198
 30
0.0
 10
-13.41870044204827
 20
62.31945269702891
 30
0.0
 10
-13.43603229856794
 20
61.17111245409266
 30
0.0
 10
-13.34659265087007
 20
60.02553335885258
 30
0.0
 10
-13.14672661048802
 20
58.89419334568849
 30
0.0
 10
-12.85198594162474
 20
57.78436760962845
 30
0.0
 10
-12.46947443596487
 20
56.70027208604096
 30
0.0
 10
-11.93389683332478
 20
55.68240954967564
 30
0.0
 10
-11.30299100183044
 20
54.72344928402205
 30
0.0
 10
-10.59725442432937
 20
53.81526077111325
 30
0.0
 10
-9.77768898479188
 20
53.01077878621092
 30
0.0
 10
-8.87556501082933
 20
52.29455749755172
 30
0.0
 10
-7.857295896483869
 20
51.75925926535116
 30
0.0
 10
-6.800227833261456
 20
51.31024522103134
 30
0.0
 10
-5.701669205641072
 20
50.97266670203435
 30
0.0
 10
-4.576172636037231
 20
50.74350751343748
 30
0.0
 10
-3.438745604665232
 20
50.58768598709103
 30
0.0
 10
-2.294612571430832
 20
50.49382313818069
 30
0.0
 10
-1.147691832830287
 20
50.44846117926477
 30
0.0
 10
-0.3825283404576273
 20
50.44478164593747
 30
0.0
 10
-0.0000001445755551
 20
50.44663545063271
 30
0.0
  0
SPLINE
  5
C9
330
1F
100
AcDbEntity
  8
sled - arm 2d
 62
     7
100
AcDbSpline
210
0.0
220
0.0
230
1.0
 70
     8
 71
     3
 72
    15
 73
    11
 74
     0
 42
0.0000000001
 43
0.0000000001
 40
0.3232242100553895
 40
0.3232242100553895
 40
0.3232242100553895
 40
0.3232242100553895
 40
0.3845743367522203
 40
0.7501318180421713
 40
1.065851980993495
 40
1.257567728035064
 40
1.409647505714031
 40
1.56050352737086
 40
1.708615324401735
 40
1.864544053122869
 40
1.864544053122869
 40
1.864544053122869
 40
1.864544053122869
 10
9.27809660630022
 20
52.62401892576116
 30
0.0
 10
9.289263982944156
 20
52.60691420896001
 30
0.0
 10
9.366644103094659
 20
52.48757432237439
 30
0.0
 10
9.498592717908421
 20
52.27628279037671
 30
0.0
 10
9.627126103303985
 20
52.0177461193271
 30
0.0
 10
9.718946519119823
 20
51.8143249330194
 30
0.0
 10
9.705695363154389
 20
51.64282141725226
 30
0.0
 10
9.58811705248952
 20
51.53038330899448
 30
0.0
 10
9.4310368133772
 20
51.51461107209989
 30
0.0
 10
9.339566993714685
 20
51.57213974716557
 30
0.0
 10
9.305583124954113
 20
51.61082332067549
 30
0.0
  0
POLYLINE
  5
CA
330
1F
100
AcDbEntity
  8
sled - arm 2d
 62
     7
100
AcDb2dPolyline
 66
     1
 10
0.0
 20
0.0
 30
0.0
  0
VERTEX
  5
CB
330
CA
100
AcDbEntity
  8
sled - arm 2d
 62
     7
100
AcDbVertex
100
AcDb2dVertex
 10
9.305583124954113
 20
51.61082332067549
 30
0.0
  0
VERTEX
  5
CC
330
CA
100
AcDbEntity
  8
sled - arm 2d
 62
     7
100
AcDbVertex
100
AcDb2dVertex
 10
8.791651604418336
 20
52.28320858386541
 30
0.0
  0
SEQEND
  5
CD
330
CA
100
AcDbEntity
  8
sled - arm 2d
 62
     7
  0
POLYLINE
  5
CE
330
1F
100
AcDbEntity
  8
sled - arm 2d
 62
     7
100
AcDb2dPolyline
 66
     1
 10
0.0
 20
0.0
 30
0.0
  0
VERTEX
  5
CF
330
CE
100
AcDbEntity
  8
sled - arm 2d
 62
     7
100
AcDbVertex
100
AcDb2dVertex
 10
-8.791651698543332
 20
52.28320846016427
 30
0.0
  0
VERTEX
  5
D0
330
CE
100
AcDbEntity
  8
sled - arm 2d
 62
     7
100
AcDbVertex
100
AcDb2dVertex
 10
-9.311373811454345
 20
51.60473580386954
 30
0.0
  0
SEQEND
  5
D1
330
CE
100
AcDbEntity
  8
sled - arm 2d
 62
     7
  0
SPLINE
  5
D2
330
1F
100
AcDbEntity
  8
sled - arm 2d
 62
     7
100
AcDbSpline
210
0.0
220
0.0
230
1.0
 70
     8
 71
     3
 72
    14
 73
    10
 74
     0
 42
0.0000000001
 43
0.0000000001
 40
0.0
 40
0.0
 40
0.0
 40
0.0
 40
0.1196548814313664
 40
0.2334496438757145
 40
0.4659441452540256
 40
0.6186363183765082
 40
0.7241552422929239
 40
0.8822027663920106
 40
1.533135256493182
 40
1.533135256493182
 40
1.533135256493182
 40
1.533135256493182
 10
-9.311373811454345
 20
51.60473580386954
 30
0.0
 10
-9.33870639555479
 20
51.57532032137872
 30
0.0
 10
-9.404495999116046
 20
51.5309917634217
 30
0.0
 10
-9.564508973929616
 20
51.51221725352097
 30
0.0
 10
-9.713032668341931
 20
51.63275562401675
 30
0.0
 10
-9.714126763569421
 20
51.80502325619133
 30
0.0
 10
-9.665205046521454
 20
51.93443325022
 30
0.0
 10
-9.536650614241962
 20
52.21140867342605
 30
0.0
 10
-9.397857150685814
 20
52.44301299359097
 30
0.0
 10
-9.278257132397416
 20
52.62414166401475
 30
0.0
  0
SPLINE
  5
D3
330
1F
100
AcDbEntity
  8
sled - arm 2d
 62
     7
100
AcDbSpline
210
0.0
220
0.0
230
1.0
 70
    24
 71
     2
 72
     6
 73
     3
 74
     0
 42
0.0000000001
 43
0.0000000001
 40
0.2969706835423629
 40
0.2969706835423629
 40
0.2969706835423629
 40
1.074144340755195
 40
1.074144340755195
 40
1.074144340755195
 10
9.153673289890211
 20
52.53075254768426
 30
0.0
 10
9.38897833426838
 20
52.22150950498713
 30
0.0
 10
9.62428337864655
 20
51.91226646229
 30
0.0
  0
SPLINE
  5
D4
330
1F
100
AcDbEntity
  8
sled - arm 2d
 62
     7
100
AcDbSpline
210
0.0
220
0.0
230
1.0
 70
    24
 71
     2
 72
     6
 73
     3
 74
     0
 42
0.0000000001
 43
0.0000000001
 40
0.0
 40
0.0
 40
0.0
 40
0.7771734862308998
 40
0.7771734862308998
 40
0.7771734862308998
 10
-9.624283378646547
 20
51.91226646229
 30
0.0
 10
-9.388978386036616
 20
52.22150943695218
 30
0.0
 10
-9.153673393426683
 20
52.53075241161436
 30
0.0
  0
SPLINE
  5
D5
330
1F
100
AcDbEntity
  8
sled - arm 2d
 62
     7
100
AcDbSpline
210
0.0
220
0.0
230
1.0
 70
     8
 71
     3
 72
    12
 73
     8
 74
     0
 42
0.0000000001
 43
0.0000000001
 40
-7.0
 40
-7.0
 40
-7.0
 40
-7.0
 40
-6.0
 40
-5.0
 40
-4.0
 40
-3.0
 40
-2.028718790898497
 40
-2.028718790898497
 40
-2.028718790898497
 40
-2.028718790898497
 10
-13.35483928056107
 20
24.75074671736353
 30
0.0
 10
-13.22705812985037
 20
23.96526458425808
 30
0.0
 10
-12.88378843732978
 20
22.4102516126739
 30
0.0
 10
-12.1211646869457
 20
20.14112367069326
 30
0.0
 10
-10.99954012608572
 20
18.02863557372586
 30
0.0
 10
-9.495920165268554
 20
16.16752895430114
 30
0.0
 10
-8.114838268961972
 20
15.38291028790385
 30
0.0
 10
-7.409686607475138
 20
15.05928799771073
 30
0.0
  0
SPLINE
  5
D6
330
1F
100
AcDbEntity
  8
sled - arm 2d
 62
     7
100
AcDbSpline
210
0.0
220
0.0
230
1.0
 70
     8
 71
     3
 72
    12
 73
     8
 74
     0
 42
0.0000000001
 43
0.0000000001
 40
2.028718790898498
 40
2.028718790898498
 40
2.028718790898498
 40
2.028718790898498
 40
3.0
 40
4.0
 40
5.0
 40
6.0
 40
7.0
 40
7.0
 40
7.0
 40
7.0
 10
7.409686607475138
 20
15.05928799771073
 30
0.0
 10
8.114838268961972
 20
15.38291028790385
 30
0.0
 10
9.495920165268554
 20
16.16752895430114
 30
0.0
 10
10.99954012608572
 20
18.02863557372586
 30
0.0
 10
12.1211646869457
 20
20.14112367069326
 30
0.0
 10
12.88378843732978
 20
22.4102516126739
 30
0.0
 10
13.22705812985037
 20
23.96526458425808
 30
0.0
 10
13.35483928056107
 20
24.75074671736353
 30
0.0
  0
SPLINE
  5
D7
330
1F
100
AcDbEntity
  8
sled - arm 2d
 62
     7
100
AcDbSpline
210
0.0
220
0.0
230
1.0
 70
     8
 71
     3
 72
     9
 73
     5
 74
     0
 42
0.0000000001
 43
0.0000000001
 40
6.464745569496891
 40
6.464745569496891
 40
6.464745569496891
 40
6.464745569496891
 40
7.0
 40
7.250543309888023
 40
7.250543309888023
 40
7.250543309888023
 40
7.250543309888023
 10
38.32633912652017
 20
14.52494797270057
 30
0.0
 10
38.83978319257925
 20
14.30782382156005
 30
0.0
 10
39.62256372004929
 20
14.0584045640318
 30
0.0
 10
40.42567744877995
 20
13.91402325158133
 30
0.0
 10
40.68323441887096
 20
13.87663073292179
 30
0.0
  0
SPLINE
  5
D8
330
1F
100
AcDbEntity
  8
sled - arm 2d
 62
     7
100
AcDbSpline
210
0.0
220
0.0
230
1.0
 70
     8
 71
     3
 72
     9
 73
     5
 74
     0
 42
0.0000000001
 43
0.0000000001
 40
7.908781696697218
 40
7.908781696697218
 40
7.908781696697218
 40
7.908781696697218
 40
8.0
 40
8.555573919347424
 40
8.555573919347424
 40
8.555573919347424
 40
8.555573919347424
 10
42.73372138525724
 20
13.72394078175857
 30
0.0
 10
42.82890524967721
 20
13.72174268740063
 30
0.0
 10
43.50380019714008
 20
13.70925167462646
 30
0.0
 10
44.17719171094959
 20
13.71376422708389
 30
0.0
 10
44.75516382640296
 20
13.72627961350261
 30
0.0
  0
SPLINE
  5
D9
330
1F
100
AcDbEntity
  8
sled - arm 2d
 62
     7
100
AcDbSpline
210
0.0
220
0.0
230
1.0
 70
     8
 71
     3
 72
     9
 73
     5
 74
     0
 42
0.0000000001
 43
0.0000000001
 40
9.658641600340594
 40
9.658641600340594
 40
9.658641600340594
 40
9.658641600340594
 40
10.0
 40
10.77446007674452
 40
10.77446007674452
 40
10.77446007674452
 40
10.77446007674452
 10
48.19572419380489
 20
13.88142997981396
 30
0.0
 10
48.55036115957493
 20
13.90540600085549
 30
0.0
 10
49.70897869960395
 20
13.99277875157636
 30
0.0
 10
50.86442912507517
 20
14.11329381529765
 30
0.0
 10
51.66316426920406
 20
14.22358585370869
 30
0.0
  0
SPLINE
  5
DA
330
1F
100
AcDbEntity
  8
sled - arm 2d
 62
     7
100
AcDbSpline
210
0.0
220
0.0
230
1.0
 70
     8
 71
     3
 72
     9
 73
     5
 74
     0
 42
0.0000000001
 43
0.0000000001
 40
10.91597119807702
 40
10.91597119807702
 40
10.91597119807702
 40
10.91597119807702
 40
11.0
 40
12.0
 40
12.0
 40
12.0
 40
12.0
 10
52.10067024258799
 20
14.28677834688241
 30
0.0
 10
52.18719853545085
 20
14.29984022547984
 30
0.0
 10
53.30293420641132
 20
14.47269039984802
 30
0.0
 10
54.41136306105047
 20
14.703839013899
 30
0.0
 10
55.38968768650923
 20
15.06583689480381
 30
0.0
  0
SPLINE
  5
DB
330
1F
100
AcDbEntity
  8
sled - arm 2d
 62
     7
100
AcDbSpline
210
0.0
220
0.0
230
1.0
 70
     8
 71
     3
 72
    10
 73
     6
 74
     0
 42
0.0000000001
 43
0.0000000001
 40
0.0
 40
0.0
 40
0.0
 40
0.0
 40
1.0
 40
2.0
 40
3.0
 40
3.0
 40
3.0
 40
3.0
 10
55.38968768650923
 20
15.06583689480381
 30
0.0
 10
55.49289473957084
 20
15.10578084523488
 30
0.0
 10
55.68653653500406
 20
15.23751381317955
 30
0.0
 10
55.7954580252094
 20
15.57518747396434
 30
0.0
 10
55.69018412882004
 20
15.79100859495645
 30
0.0
 10
55.61352655984639
 20
15.87075402351357
 30
0.0
  0
SPLINE
  5
DC
330
1F
100
AcDbEntity
  8
sled - arm 2d
 62
     7
100
AcDbSpline
210
0.0
220
0.0
230
1.0
 70
     8
 71
     3
 72
    34
 73
    30
 74
     0
 42
0.0000000001
 43
0.0000000001
 40
-27.0
 40
-27.0
 40
-27.0
 40
-27.0
 40
-26.0
 40
-25.0
 40
-24.0
 40
-23.0
 40
-22.0
 40
-21.0
 40
-20.0
 40
-19.0
 40
-18.0
 40
-17.0
 40
-16.0
 40
-15.0
 40
-14.0
 40
-13.0
 40
-12.0
 40
-11.0
 40
-10.0
 40
-9.0
 40
-8.0
 40
-7.0
 40
-6.0
 40
-5.0
 40
-4.0
 40
-3.0
 40
-2.0
 40
-1.0
 40
0.0
 40
0.0
 40
0.0
 40
0.0
 10
55.61352655984639
 20
15.87075402351357
 30
0.0
 10
55.31617581763649
 20
16.12038336815544
 30
0.0
 10
54.67186285720483
 20
16.5664018448311
 30
0.0
 10
53.90284866365403
 20
17.45298369987544
 30
0.0
 10
53.19852924580324
 20
18.38311622605924
 30
0.0
 10
52.51355287705967
 20
19.32948402579496
 30
0.0
 10
51.79020471805839
 20
20.2466958560088
 30
0.0
 10
51.03920230292519
 20
21.14133981480397
 30
0.0
 10
50.24431804942405
 20
21.99766457387185
 30
0.0
 10
49.40705141820138
 20
22.81228104233686
 30
0.0
 10
48.52417696624634
 20
23.5777822116949
 30
0.0
 10
47.59575145908227
 20
24.28754336380345
 30
0.0
 10
46.60585248293317
 20
24.90960910125816
 30
0.0
 10
45.56918121995758
 20
25.44987239902528
 30
0.0
 10
44.47953331322758
 20
25.87635786702863
 30
0.0
 10
43.34612774274507
 20
26.16617982561717
 30
0.0
 10
42.19044782799205
 20
26.34039358019039
 30
0.0
 10
41.02919547833683
 20
26.46375404281996
 30
0.0
 10
39.86580200801559
 20
26.57259494163667
 30
0.0
 10
38.71022538061285
 20
26.73315989163954
 30
0.0
 10
37.57022499891774
 20
27.03012875953719
 30
0.0
 10
36.56531040403589
 20
27.64207776130208
 30
0.0
 10
35.69208210992819
 20
28.4254611215922
 30
0.0
 10
34.99272980650868
 20
29.36347308870382
 30
0.0
 10
34.3558983831963
 20
30.34302384343862
 30
0.0
 10
33.73386545074966
 20
31.32945499925875
 30
0.0
 10
32.97203877579979
 20
32.23286050782536
 30
0.0
 10
31.90894183251778
 20
32.7800126210153
 30
0.0
 10
31.10094353734472
 20
32.6349901435261
 30
0.0
 10
30.71778527480228
 20
32.60563943896038
 30
0.0
  0
SPLINE
  5
DD
330
1F
100
AcDbEntity
  8
sled - arm 2d
 62
     7
100
AcDbSpline
210
0.0
220
0.0
230
1.0
 70
     8
 71
     3
 72
     8
 73
     4
 74
     0
 42
0.0000000001
 43
0.0000000001
 40
0.0
 40
0.0
 40
0.0
 40
0.0
 40
1.0
 40
1.0
 40
1.0
 40
1.0
 10
30.71778527480228
 20
32.60563943896038
 30
0.0
 10
30.44407856185914
 20
32.58467294637859
 30
0.0
 10
30.32247491641085
 20
32.40620709309059
 30
0.0
 10
30.33260236122177
 20
32.12136769387737
 30
0.0
  0
SPLINE
  5
DE
330
1F
100
AcDbEntity
  8
sled - arm 2d
 62
     7
100
AcDbSpline
210
0.0
220
0.0
230
1.0
 70
     8
 71
     3
 72
    14
 73
    10
 74
     0
 42
0.0000000001
 43
0.0000000001
 40
0.0
 40
0.0
 40
0.0
 40
0.0
 40
1.0
 40
2.0
 40
3.0
 40
4.0
 40
5.0
 40
6.0
 40
6.322504091717867
 40
6.322504091717867
 40
6.322504091717867
 40
6.322504091717867
 10
30.33260236122177
 20
32.12136769387737
 30
0.0
 10
30.3696387365441
 20
31.07970130192856
 30
0.0
 10
30.68022486142307
 20
29.01715378954377
 30
0.0
 10
31.35678318340027
 20
25.96728021038011
 30
0.0
 10
32.18654865025871
 20
22.95580111252375
 30
0.0
 10
33.1476544088371
 20
19.9811261355704
 30
0.0
 10
34.59894662839405
 20
17.18718548406065
 30
0.0
 10
36.41140578163835
 20
15.52185283782913
 30
0.0
 10
37.61878446159231
 20
14.85390845569792
 30
0.0
 10
37.92138177815485
 20
14.70802519494269
 30
0.0
  0
ENDSEC
  0
SECTION
  2
OBJECTS
  0
DICTIONARY
  5
C
330
0
100
AcDbDictionary
281
     1
  3
ACAD_GROUP
350
D
  3
ACAD_LAYOUT
350
1A
  3
ACAD_MLEADERSTYLE
350
E0
  3
ACAD_MLINESTYLE
350
17
  3
ACAD_PLOTSETTINGS
350
19
  3
ACAD_PLOTSTYLENAME
350
E
  3
ACAD_TABLESTYLE
350
DF
  3
ACAD_VISUALSTYLE
350
2A
  0
DICTIONARY
  5
D
102
{ACAD_REACTORS
330
C
102
}
330
C
100
AcDbDictionary
281
     1
  0
DICTIONARY
  5
1A
102
{ACAD_REACTORS
330
C
102
}
330
C
100
AcDbDictionary
281
     1
  3
Layout1
350
1E
  3
Layout2
350
26
  3
Model
350
22
  0
DICTIONARY
  5
E0
102
{ACAD_REACTORS
330
C
102
}
330
C
100
AcDbDictionary
281
     1
  0
DICTIONARY
  5
17
102
{ACAD_REACTORS
330
C
102
}
330
C
100
AcDbDictionary
281
     1
  3
Standard
350
18
  0
DICTIONARY
  5
19
102
{ACAD_REACTORS
330
C
102
}
330
C
100
AcDbDictionary
281
     1
  0
ACDBDICTIONARYWDFLT
  5
E
102
{ACAD_REACTORS
330
C
102
}
330
C
100
AcDbDictionary
281
     1
  3
Normal
350
F
100
AcDbDictionaryWithDefault
340
F
  0
DICTIONARY
  5
DF
102
{ACAD_REACTORS
330
C
102
}
330
C
100
AcDbDictionary
281
     1
  0
DICTIONARY
  5
2A
102
{ACAD_REACTORS
330
C
102
}
330
C
100
AcDbDictionary
281
     1
  3
2dWireframe
350
2F
  3
3D Hidden
350
31
  3
3dWireframe
350
30
  3
Basic
350
32
  3
Brighten
350
36
  3
ColorChange
350
3A
  3
Conceptual
350
34
  3
Dim
350
35
  3
Facepattern
350
39
  3
Flat
350
2B
  3
FlatWithEdges
350
2C
  3
Gouraud
350
2D
  3
GouraudWithEdges
350
2E
  3
Linepattern
350
38
  3
Realistic
350
33
  3
Thicken
350
37
  0
LAYOUT
  5
1E
102
{ACAD_REACTORS
330
1A
102
}
330
1A
100
AcDbPlotSettings
  1

  2
none_device
  4

  6

 40
0.0
 41
0.0
 42
0.0
 43
0.0
 44
0.0
 45
0.0
 46
0.0
 47
0.0
 48
0.0
 49
0.0
140
0.0
141
0.0
142
1.0
143
1.0
 70
   688
 72
     0
 73
     0
 74
     5
  7

 75
    16
 76
     0
 77
     2
 78
   300
147
1.0
148
0.0
149
0.0
100
AcDbLayout
  1
Layout1
 70
     1
 71
     1
 10
0.0
 20
0.0
 11
12.0
 21
9.0
 12
0.0
 22
0.0
 32
0.0
 14
1.000000000000000E+20
 24
1.000000000000000E+20
 34
1.000000000000000E+20
 15
-1.000000000000000E+20
 25
-1.000000000000000E+20
 35
-1.000000000000000E+20
146
0.0
 13
0.0
 23
0.0
 33
0.0
 16
1.0
 26
0.0
 36
0.0
 17
0.0
 27
1.0
 37
0.0
 76
     0
330
1B
  0
LAYOUT
  5
26
102
{ACAD_REACTORS
330
1A
102
}
330
1A
100
AcDbPlotSettings
  1

  2
none_device
  4

  6

 40
0.0
 41
0.0
 42
0.0
 43
0.0
 44
0.0
 45
0.0
 46
0.0
 47
0.0
 48
0.0
 49
0.0
140
0.0
141
0.0
142
1.0
143
1.0
 70
   688
 72
     0
 73
     0
 74
     5
  7

 75
    16
 76
     0
 77
     2
 78
   300
147
1.0
148
0.0
149
0.0
100
AcDbLayout
  1
Layout2
 70
     1
 71
     2
 10
0.0
 20
0.0
 11
0.0
 21
0.0
 12
0.0
 22
0.0
 32
0.0
 14
0.0
 24
0.0
 34
0.0
 15
0.0
 25
0.0
 35
0.0
146
0.0
 13
0.0
 23
0.0
 33
0.0
 16
1.0
 26
0.0
 36
0.0
 17
0.0
 27
1.0
 37
0.0
 76
     0
330
23
  0
LAYOUT
  5
22
102
{ACAD_REACTORS
330
1A
102
}
330
1A
100
AcDbPlotSettings
  1

  2
none_device
  4

  6

 40
0.0
 41
0.0
 42
0.0
 43
0.0
 44
0.0
 45
0.0
 46
0.0
 47
0.0
 48
0.0
 49
0.0
140
0.0
141
0.0
142
1.0
143
1.0
 70
  1712
 72
     0
 73
     0
 74
     0
  7

 75
     0
 76
     0
 77
     2
 78
   300
147
1.0
148
0.0
149
0.0
100
AcDbLayout
  1
Model
 70
     1
 71
     0
 10
0.0
 20
0.0
 11
12.0
 21
9.0
 12
0.0
 22
0.0
 32
0.0
 14
-13.41823704786502
 24
-0.0000008859445404
 34
0.0
 15
55.75098596941117
 25
75.86655527945976
 35
0.0
146
0.0
 13
0.0
 23
0.0
 33
0.0
 16
1.0
 26
0.0
 36
0.0
 17
0.0
 27
1.0
 37
0.0
 76
     0
330
1F
331
29
  0
MLINESTYLE
  5
18
102
{ACAD_REACTORS
330
17
102
}
330
17
100
AcDbMlineStyle
  2
Standard
 70
     0
  3

 62
   256
 51
90.0
 52
90.0
 71
     2
 49
0.5
 62
   256
  6
BYLAYER
 49
-0.5
 62
   256
  6
BYLAYER
  0
ACDBPLACEHOLDER
  5
F
102
{ACAD_REACTORS
330
E
102
}
330
E
  0
VISUALSTYLE
  5
2F
102
{ACAD_REACTORS
330
2A
102
}
330
2A
100
AcDbVisualStyle
  2
2dWireframe
 70
     4
 71
     0
 72
     2
 73
     0
 90
        0
 40
-0.6
 41
-30.0
 62
     5
 63
     7
421
 16777215
 74
     1
 91
        4
 64
     7
 65
   257
 75
     1
175
     1
 42
1.0
 92
        0
 66
   257
 43
1.0
 76
     1
 77
     6
 78
     2
 67
     7
 79
     5
170
     0
171
     0
290
     0
174
     0
 93
        1
 44
0.0
173
     0
291
     0
 45
0.0
1001
ACAD
1000
AcDbSavedByObjectVersion
1070
     0
  0
VISUALSTYLE
  5
31
102
{ACAD_REACTORS
330
2A
102
}
330
2A
100
AcDbVisualStyle
  2
3D Hidden
 70
     6
 71
     1
 72
     2
 73
     2
 90
        0
 40
-0.6
 41
-30.0
 62
     5
 63
     7
421
 16777215
 74
     2
 91
        2
 64
     7
 65
   257
 75
     2
175
     1
 42
40.0
 92
        0
 66
   257
 43
1.0
 76
     1
 77
     6
 78
     2
 67
     7
 79
     3
170
     0
171
     0
290
     0
174
     0
 93
        1
 44
0.0
173
     0
291
     0
 45
0.0
1001
ACAD
1000
AcDbSavedByObjectVersion
1070
     0
  0
VISUALSTYLE
  5
30
102
{ACAD_REACTORS
330
2A
102
}
330
2A
100
AcDbVisualStyle
  2
3dWireframe
 70
     5
 71
     0
 72
     2
 73
     0
 90
        0
 40
-0.6
 41
-30.0
 62
     5
 63
     7
421
 16777215
 74
     1
 91
        4
 64
     7
 65
   257
 75
     1
175
     1
 42
1.0
 92
        0
 66
   257
 43
1.0
 76
     1
 77
     6
 78
     2
 67
     7
 79
     5
170
     0
171
     0
290
     0
174
     0
 93
        1
 44
0.0
173
     0
291
     0
 45
0.0
1001
ACAD
1000
AcDbSavedByObjectVersion
1070
     0
  0
VISUALSTYLE
  5
32
102
{ACAD_REACTORS
330
2A
102
}
330
2A
100
AcDbVisualStyle
  2
Basic
 70
     7
 71
     1
 72
     0
 73
     1
 90
        0
 40
-0.6
 41
-30.0
 62
     5
 63
     7
421
 16777215
 74
     0
 91
        4
 64
     7
 65
   257
 75
     1
175
     1
 42
1.0
 92
        8
 66
     7
 43
1.0
 76
     1
 77
     6
 78
     2
 67
     7
 79
     5
170
     0
171
     0
290
     0
174
     0
 93
        1
 44
0.0
173
     0
291
     1
 45
0.0
1001
ACAD
1000
AcDbSavedByObjectVersion
1070
     0
  0
VISUALSTYLE
  5
36
102
{ACAD_REACTORS
330
2A
102
}
330
2A
100
AcDbVisualStyle
  2
Brighten
 70
    12
 71
     2
 72
     2
 73
     0
 90
        0
 40
-0.6
 41
-30.0
 62
     5
 63
     7
421
 16777215
 74
     1
 91
        4
 64
     7
 65
   257
 75
     1
175
     1
 42
1.0
 92
        8
 66
     7
 43
1.0
 76
     1
 77
     6
 78
     2
 67
     7
 79
     5
170
     0
171
     0
290
     0
174
     0
 93
        1
 44
50.0
173
     0
291
     1
 45
0.0
1001
ACAD
1000
AcDbSavedByObjectVersion
1070
     0
  0
VISUALSTYLE
  5
3A
102
{ACAD_REACTORS
330
2A
102
}
330
2A
100
AcDbVisualStyle
  2
ColorChange
 70
    16
 71
     2
 72
     2
 73
     3
 90
        0
 40
-0.6
 41
-30.0
 62
     5
 63
     8
421
  8421504
 74
     1
 91
        4
 64
     7
 65
   257
 75
     1
175
     1
 42
1.0
 92
        8
 66
     8
424
  8421504
 43
1.0
 76
     1
 77
     6
 78
     2
 67
     7
 79
     5
170
     0
171
     0
290
     0
174
     0
 93
        1
 44
0.0
173
     0
291
     1
 45
0.0
1001
ACAD
1000
AcDbSavedByObjectVersion
1070
     0
  0
VISUALSTYLE
  5
34
102
{ACAD_REACTORS
330
2A
102
}
330
2A
100
AcDbVisualStyle
  2
Conceptual
 70
     9
 71
     3
 72
     2
 73
     0
 90
        0
 40
-0.6
 41
-30.0
 62
     5
 63
     7
421
 16777215
 74
     2
 91
        2
 64
     7
 65
   257
 75
     1
175
     1
 42
40.0
 92
        8
 66
     7
 43
1.0
 76
     1
 77
     6
 78
     2
 67
     7
 79
     3
170
     0
171
     0
290
     0
174
     0
 93
        1
 44
0.0
173
     0
291
     0
 45
0.0
1001
ACAD
1000
AcDbSavedByObjectVersion
1070
     0
  0
VISUALSTYLE
  5
35
102
{ACAD_REACTORS
330
2A
102
}
330
2A
100
AcDbVisualStyle
  2
Dim
 70
    11
 71
     2
 72
     2
 73
     0
 90
        0
 40
-0.6
 41
-30.0
 62
     5
 63
     7
421
 16777215
 74
     1
 91
        4
 64
     7
 65
   257
 75
     1
175
     1
 42
1.0
 92
        8
 66
     7
 43
1.0
 76
     1
 77
     6
 78
     2
 67
     7
 79
     5
170
     0
171
     0
290
     0
174
     0
 93
        1
 44
-50.0
173
     0
291
     1
 45
0.0
1001
ACAD
1000
AcDbSavedByObjectVersion
1070
     0
  0
VISUALSTYLE
  5
39
102
{ACAD_REACTORS
330
2A
102
}
330
2A
100
AcDbVisualStyle
  2
Facepattern
 70
    15
 71
     2
 72
     2
 73
     0
 90
        0
 40
-0.6
 41
-30.0
 62
     5
 63
     7
421
 16777215
 74
     1
 91
        4
 64
     7
 65
   257
 75
     1
175
     1
 42
1.0
 92
        8
 66
     7
 43
1.0
 76
     1
 77
     6
 78
     2
 67
     7
 79
     5
170
     0
171
     0
290
     0
174
     0
 93
        1
 44
0.0
173
     0
291
     1
 45
0.0
1001
ACAD
1000
AcDbSavedByObjectVersion
1070
     0
  0
VISUALSTYLE
  5
2B
102
{ACAD_REACTORS
330
2A
102
}
330
2A
100
AcDbVisualStyle
  2
Flat
 70
     0
 71
     2
 72
     1
 73
     1
 90
        2
 40
-0.6
 41
30.0
 62
     5
 63
     7
421
 16777215
 74
     0
 91
        4
 64
     7
 65
   257
 75
     1
175
     1
 42
1.0
 92
        8
 66
     7
 43
1.0
 76
     1
 77
     6
 78
     2
 67
     7
 79
     5
170
     0
171
     0
290
     0
174
     0
 93
       13
 44
0.0
173
     0
291
     1
 45
0.0
1001
ACAD
1000
AcDbSavedByObjectVersion
1070
     0
  0
VISUALSTYLE
  5
2C
102
{ACAD_REACTORS
330
2A
102
}
330
2A
100
AcDbVisualStyle
  2
FlatWithEdges
 70
     1
 71
     2
 72
     1
 73
     1
 90
        2
 40
-0.6
 41
30.0
 62
     5
 63
     7
421
 16777215
 74
     1
 91
        4
 64
     7
 65
   257
 75
     1
175
     1
 42
1.0
 92
        0
 66
   257
 43
1.0
 76
     1
 77
     6
 78
     2
 67
     7
 79
     5
170
     0
171
     0
290
     0
174
     0
 93
       13
 44
0.0
173
     0
291
     1
 45
0.0
1001
ACAD
1000
AcDbSavedByObjectVersion
1070
     0
  0
VISUALSTYLE
  5
2D
102
{ACAD_REACTORS
330
2A
102
}
330
2A
100
AcDbVisualStyle
  2
Gouraud
 70
     2
 71
     2
 72
     2
 73
     1
 90
        2
 40
-0.6
 41
30.0
 62
     5
 63
     7
421
 16777215
 74
     0
 91
        4
 64
     7
 65
   257
 75
     1
175
     1
 42
1.0
 92
        0
 66
     7
 43
1.0
 76
     1
 77
     6
 78
     2
 67
     7
 79
     5
170
     0
171
     0
290
     0
174
     0
 93
       13
 44
0.0
173
     0
291
     1
 45
0.0
1001
ACAD
1000
AcDbSavedByObjectVersion
1070
     0
  0
VISUALSTYLE
  5
2E
102
{ACAD_REACTORS
330
2A
102
}
330
2A
100
AcDbVisualStyle
  2
GouraudWithEdges
 70
     3
 71
     2
 72
     2
 73
     1
 90
        2
 40
-0.6
 41
30.0
 62
     5
 63
     7
421
 16777215
 74
     1
 91
        4
 64
     7
 65
   257
 75
     1
175
     1
 42
1.0
 92
        0
 66
   257
 43
1.0
 76
     1
 77
     6
 78
     2
 67
     7
 79
     5
170
     0
171
     0
290
     0
174
     0
 93
       13
 44
0.0
173
     0
291
     1
 45
0.0
1001
ACAD
1000
AcDbSavedByObjectVersion
1070
     0
  0
VISUALSTYLE
  5
38
102
{ACAD_REACTORS
330
2A
102
}
330
2A
100
AcDbVisualStyle
  2
Linepattern
 70
    14
 71
     2
 72
     2
 73
     0
 90
        0
 40
-0.6
 41
-30.0
 62
     5
 63
     7
421
 16777215
 74
     1
 91
        4
 64
     7
 65
   257
 75
     7
175
     7
 42
1.0
 92
        8
 66
     7
 43
1.0
 76
     1
 77
     6
 78
     2
 67
     7
 79
     5
170
     0
171
     0
290
     0
174
     0
 93
        1
 44
0.0
173
     0
291
     1
 45
0.0
1001
ACAD
1000
AcDbSavedByObjectVersion
1070
     0
  0
VISUALSTYLE
  5
33
102
{ACAD_REACTORS
330
2A
102
}
330
2A
100
AcDbVisualStyle
  2
Realistic
 70
     8
 71
     2
 72
     2
 73
     0
 90
        0
 40
-0.6
 41
-30.0
 62
     5
 63
     7
421
 16777215
 74
     1
 91
        0
 64
     7
 65
   257
 75
     1
175
     1
 42
1.0
 92
        8
 66
     8
424
  7895160
 43
1.0
 76
     1
 77
     6
 78
     2
 67
     7
 79
     5
170
     0
171
     0
290
     0
174
     0
 93
       13
 44
0.0
173
     0
291
     0
 45
0.0
1001
ACAD
1000
AcDbSavedByObjectVersion
1070
     0
  0
VISUALSTYLE
  5
37
102
{ACAD_REACTORS
330
2A
102
}
330
2A
100
AcDbVisualStyle
  2
Thicken
 70
    13
 71
     2
 72
     2
 73
     0
 90
        0
 40
-0.6
 41
-30.0
 62
     5
 63
     7
421
 16777215
 74
     1
 91
        4
 64
     7
 65
   257
 75
     1
175
     1
 42
1.0
 92
       12
 66
     7
 43
1.0
 76
     1
 77
     6
 78
     2
 67
     7
 79
     5
170
     0
171
     0
290
     0
174
     0
 93
        1
 44
0.0
173
     0
291
     1
 45
0.0
1001
ACAD
1000
AcDbSavedByObjectVersion
1070
     0
  0
ENDSEC
  0
EOF
