  0
SECTION
  2
HEADER
  9
$ACADVER
  1
AC1018
  9
$ACADMAINTVER
 70
     0
  9
$DWGCODEPAGE
  3
ANSI_1252
  9
$INSBASE
 10
0.0
 20
0.0
 30
0.0
  9
$EXTMIN
 10
-13.41823704786502
 20
-0.000388641260708
 30
0.0
  9
$EXTMAX
 10
55.75098596941117
 20
75.88351765504716
 30
0.0
  9
$LIMMIN
 10
0.0
 20
0.0
  9
$LIMMAX
 10
12.0
 20
9.0
  9
$ORTHOMODE
 70
     0
  9
$REGENMODE
 70
     1
  9
$FILLMODE
 70
     1
  9
$QTEXTMODE
 70
     0
  9
$MIRRTEXT
 70
     1
  9
$LTSCALE
 40
0.0393700787401575
  9
$ATTMODE
 70
     1
  9
$TEXTSIZE
 40
0.2
  9
$TRACEWID
 40
0.05
  9
$TEXTSTYLE
  7
Standard
  9
$CLAYER
  8
0
  9
$CELTYPE
  6
ByLayer
  9
$CECOLOR
 62
   256
  9
$CELTSCALE
 40
1.0
  9
$DISPSILH
 70
     0
  9
$DIMSCALE
 40
1.0
  9
$DIMASZ
 40
0.18
  9
$DIMEXO
 40
0.0625
  9
$DIMDLI
 40
0.38
  9
$DIMRND
 40
0.0
  9
$DIMDLE
 40
0.0
  9
$DIMEXE
 40
0.18
  9
$DIMTP
 40
0.0
  9
$DIMTM
 40
0.0
  9
$DIMTXT
 40
0.18
  9
$DIMCEN
 40
0.09
  9
$DIMTSZ
 40
0.0
  9
$DIMTOL
 70
     0
  9
$DIMLIM
 70
     0
  9
$DIMTIH
 70
     1
  9
$DIMTOH
 70
     1
  9
$DIMSE1
 70
     0
  9
$DIMSE2
 70
     0
  9
$DIMTAD
 70
     0
  9
$DIMZIN
 70
     0
  9
$DIMBLK
  1

  9
$DIMASO
 70
     1
  9
$DIMSHO
 70
     1
  9
$DIMPOST
  1

  9
$DIMAPOST
  1

  9
$DIMALT
 70
     0
  9
$DIMALTD
 70
     2
  9
$DIMALTF
 40
25.4
  9
$DIMLFAC
 40
1.0
  9
$DIMTOFL
 70
     0
  9
$DIMTVP
 40
0.0
  9
$DIMTIX
 70
     0
  9
$DIMSOXD
 70
     0
  9
$DIMSAH
 70
     0
  9
$DIMBLK1
  1

  9
$DIMBLK2
  1

  9
$DIMSTYLE
  2
Standard
  9
$DIMCLRD
 70
     0
  9
$DIMCLRE
 70
     0
  9
$DIMCLRT
 70
     0
  9
$DIMTFAC
 40
1.0
  9
$DIMGAP
 40
0.09
  9
$DIMJUST
 70
     0
  9
$DIMSD1
 70
     0
  9
$DIMSD2
 70
     0
  9
$DIMTOLJ
 70
     1
  9
$DIMTZIN
 70
     0
  9
$DIMALTZ
 70
     0
  9
$DIMALTTZ
 70
     0
  9
$DIMUPT
 70
     0
  9
$DIMDEC
 70
     4
  9
$DIMTDEC
 70
     4
  9
$DIMALTU
 70
     2
  9
$DIMALTTD
 70
     2
  9
$DIMTXSTY
  7
Standard
  9
$DIMAUNIT
 70
     0
  9
$DIMADEC
 70
     0
  9
$DIMALTRND
 40
0.0
  9
$DIMAZIN
 70
     0
  9
$DIMDSEP
 70
    46
  9
$DIMATFIT
 70
     3
  9
$DIMFRAC
 70
     0
  9
$DIMLDRBLK
  1

  9
$DIMLUNIT
 70
     2
  9
$DIMLWD
 70
    -2
  9
$DIMLWE
 70
    -2
  9
$DIMTMOVE
 70
     2
  9
$LUNITS
 70
     2
  9
$LUPREC
 70
     3
  9
$SKETCHINC
 40
0.1
  9
$FILLETRAD
 40
0.5
  9
$AUNITS
 70
     0
  9
$AUPREC
 70
     0
  9
$MENU
  1
.
  9
$ELEVATION
 40
0.0
  9
$PELEVATION
 40
0.0
  9
$THICKNESS
 40
0.0
  9
$LIMCHECK
 70
     0
  9
$CHAMFERA
 40
0.5
  9
$CHAMFERB
 40
0.5
  9
$CHAMFERC
 40
1.0
  9
$CHAMFERD
 40
0.0
  9
$SKPOLY
 70
     0
  9
$TDCREATE
 40
2457883.505820058
  9
$TDUCREATE
 40
2457883.672486724
  9
$TDUPDATE
 40
2457883.505820069
  9
$TDUUPDATE
 40
2457883.672486736
  9
$TDINDWG
 40
0.0000000116
  9
$TDUSRTIMER
 40
0.0000000116
  9
$USRTIMER
 70
     1
  9
$ANGBASE
 50
0.0
  9
$ANGDIR
 70
     0
  9
$PDMODE
 70
     0
  9
$PDSIZE
 40
0.0
  9
$PLINEWID
 40
0.0
  9
$SPLFRAME
 70
     0
  9
$SPLINETYPE
 70
     6
  9
$SPLINESEGS
 70
     8
  9
$HANDSEED
  5
BD
  9
$SURFTAB1
 70
     6
  9
$SURFTAB2
 70
     6
  9
$SURFTYPE
 70
     6
  9
$SURFU
 70
     6
  9
$SURFV
 70
     6
  9
$UCSBASE
  2

  9
$UCSNAME
  2

  9
$UCSORG
 10
0.0
 20
0.0
 30
0.0
  9
$UCSXDIR
 10
1.0
 20
0.0
 30
0.0
  9
$UCSYDIR
 10
0.0
 20
1.0
 30
0.0
  9
$UCSORTHOREF
  2

  9
$UCSORTHOVIEW
 70
     0
  9
$UCSORGTOP
 10
0.0
 20
0.0
 30
0.0
  9
$UCSORGBOTTOM
 10
0.0
 20
0.0
 30
0.0
  9
$UCSORGLEFT
 10
0.0
 20
0.0
 30
0.0
  9
$UCSORGRIGHT
 10
0.0
 20
0.0
 30
0.0
  9
$UCSORGFRONT
 10
0.0
 20
0.0
 30
0.0
  9
$UCSORGBACK
 10
0.0
 20
0.0
 30
0.0
  9
$PUCSBASE
  2

  9
$PUCSNAME
  2

  9
$PUCSORG
 10
0.0
 20
0.0
 30
0.0
  9
$PUCSXDIR
 10
1.0
 20
0.0
 30
0.0
  9
$PUCSYDIR
 10
0.0
 20
1.0
 30
0.0
  9
$PUCSORTHOREF
  2

  9
$PUCSORTHOVIEW
 70
     0
  9
$PUCSORGTOP
 10
0.0
 20
0.0
 30
0.0
  9
$PUCSORGBOTTOM
 10
0.0
 20
0.0
 30
0.0
  9
$PUCSORGLEFT
 10
0.0
 20
0.0
 30
0.0
  9
$PUCSORGRIGHT
 10
0.0
 20
0.0
 30
0.0
  9
$PUCSORGFRONT
 10
0.0
 20
0.0
 30
0.0
  9
$PUCSORGBACK
 10
0.0
 20
0.0
 30
0.0
  9
$USERI1
 70
     0
  9
$USERI2
 70
     0
  9
$USERI3
 70
     0
  9
$USERI4
 70
     0
  9
$USERI5
 70
     0
  9
$USERR1
 40
0.0
  9
$USERR2
 40
0.0
  9
$USERR3
 40
0.0
  9
$USERR4
 40
0.0
  9
$USERR5
 40
0.0
  9
$WORLDVIEW
 70
     1
  9
$SHADEDGE
 70
     3
  9
$SHADEDIF
 70
    70
  9
$TILEMODE
 70
     1
  9
$MAXACTVP
 70
    64
  9
$PINSBASE
 10
0.0
 20
0.0
 30
0.0
  9
$PLIMCHECK
 70
     0
  9
$PEXTMIN
 10
1.000000000000000E+20
 20
1.000000000000000E+20
 30
1.000000000000000E+20
  9
$PEXTMAX
 10
-1.000000000000000E+20
 20
-1.000000000000000E+20
 30
-1.000000000000000E+20
  9
$PLIMMIN
 10
0.0
 20
0.0
  9
$PLIMMAX
 10
12.0
 20
9.0
  9
$UNITMODE
 70
     0
  9
$VISRETAIN
 70
     1
  9
$PLINEGEN
 70
     0
  9
$PSLTSCALE
 70
     1
  9
$TREEDEPTH
 70
  3020
  9
$CMLSTYLE
  2
Standard
  9
$CMLJUST
 70
     0
  9
$CMLSCALE
 40
1.0
  9
$PROXYGRAPHICS
 70
     1
  9
$MEASUREMENT
 70
     0
  9
$CELWEIGHT
370
    -1
  9
$ENDCAPS
280
     0
  9
$JOINSTYLE
280
     0
  9
$LWDISPLAY
290
     0
  9
$INSUNITS
 70
     1
  9
$HYPERLINKBASE
  1

  9
$STYLESHEET
  1

  9
$XEDIT
290
     1
  9
$CEPSNTYPE
380
     0
  9
$PSTYLEMODE
290
     1
  9
$FINGERPRINTGUID
  2
{DAF20A9E-E7F2-46BF-A80F-1A2B74603C5C}
  9
$VERSIONGUID
  2
{FAEB1C32-E019-11D5-929B-00C0DF256EC4}
  9
$EXTNAMES
290
     1
  9
$PSVPSCALE
 40
0.0
  9
$OLESTARTUP
290
     0
  9
$SORTENTS
280
   127
  9
$INDEXCTL
280
     0
  9
$HIDETEXT
280
     1
  9
$XCLIPFRAME
290
     0
  9
$HALOGAP
280
     0
  9
$OBSCOLOR
 70
   257
  9
$OBSLTYPE
280
     0
  9
$INTERSECTIONDISPLAY
280
     0
  9
$INTERSECTIONCOLOR
 70
   257
  9
$DIMASSOC
280
     2
  9
$PROJECTNAME
  1

  0
ENDSEC
  0
SECTION
  2
CLASSES
  0
CLASS
  1
ACDBDICTIONARYWDFLT
  2
AcDbDictionaryWithDefault
  3
ObjectDBX Classes
 90
        0
 91
        4
280
     0
281
     0
  0
CLASS
  1
VISUALSTYLE
  2
AcDbVisualStyle
  3
ObjectDBX Classes
 90
     4095
 91
        4
280
     0
281
     0
  0
ENDSEC
  0
SECTION
  2
TABLES
  0
TABLE
  2
VPORT
  5
8
330
0
100
AcDbSymbolTable
 70
     1
  0
VPORT
  5
29
330
8
100
AcDbSymbolTableRecord
100
AcDbViewportTableRecord
  2
*Active
 70
     0
 10
0.0
 20
0.0
 11
1.0
 21
1.0
 12
21.16637446077307
 22
37.94156450689322
 13
0.0
 23
0.0
 14
0.5
 24
0.5
 15
0.5
 25
0.5
 16
0.0
 26
0.0
 36
1.0
 17
0.0
 27
0.0
 37
0.0
 40
77.40158442223402
 41
0.9115137371445731
 42
50.0
 43
0.0
 44
0.0
 50
0.0
 51
0.0
 71
     0
 72
   100
 73
     1
 74
     3
 75
     0
 76
     0
 77
     0
 78
     0
281
     0
 65
     1
110
0.0
120
0.0
130
0.0
111
1.0
121
0.0
131
0.0
112
0.0
122
1.0
132
0.0
 79
     0
146
0.0
  0
ENDTAB
  0
TABLE
  2
LTYPE
  5
5
330
0
100
AcDbSymbolTable
 70
     1
  0
LTYPE
  5
14
330
5
100
AcDbSymbolTableRecord
100
AcDbLinetypeTableRecord
  2
ByBlock
 70
     0
  3

 72
    65
 73
     0
 40
0.0
  0
LTYPE
  5
15
330
5
100
AcDbSymbolTableRecord
100
AcDbLinetypeTableRecord
  2
ByLayer
 70
     0
  3

 72
    65
 73
     0
 40
0.0
  0
LTYPE
  5
16
330
5
100
AcDbSymbolTableRecord
100
AcDbLinetypeTableRecord
  2
Continuous
 70
     0
  3
Solid line
 72
    65
 73
     0
 40
0.0
  0
ENDTAB
  0
TABLE
  2
LAYER
  5
2
330
0
100
AcDbSymbolTable
 70
     2
  0
LAYER
  5
10
330
2
100
AcDbSymbolTableRecord
100
AcDbLayerTableRecord
  2
0
 70
     0
 62
     7
  6
Continuous
370
    -3
390
F
  0
LAYER
  5
3B
330
2
100
AcDbSymbolTableRecord
100
AcDbLayerTableRecord
  2
4 leg - arm 2d
 70
     0
 62
     7
  6
Continuous
370
    -3
390
F
  0
ENDTAB
  0
TABLE
  2
STYLE
  5
3
330
0
100
AcDbSymbolTable
 70
     1
  0
STYLE
  5
11
330
3
100
AcDbSymbolTableRecord
100
AcDbTextStyleTableRecord
  2
Standard
 70
     0
 40
0.0
 41
1.0
 50
0.0
 71
     0
 42
0.2
  3
txt
  4

  0
ENDTAB
  0
TABLE
  2
VIEW
  5
6
330
0
100
AcDbSymbolTable
 70
     0
  0
ENDTAB
  0
TABLE
  2
UCS
  5
7
330
0
100
AcDbSymbolTable
 70
     0
  0
ENDTAB
  0
TABLE
  2
APPID
  5
9
330
0
100
AcDbSymbolTable
 70
     1
  0
APPID
  5
12
330
9
100
AcDbSymbolTableRecord
100
AcDbRegAppTableRecord
  2
ACAD
 70
     0
  0
ENDTAB
  0
TABLE
  2
DIMSTYLE
  5
A
330
0
100
AcDbSymbolTable
 70
     1
100
AcDbDimStyleTable
  0
DIMSTYLE
105
27
330
A
100
AcDbSymbolTableRecord
100
AcDbDimStyleTableRecord
  2
Standard
 70
     0
340
11
  0
ENDTAB
  0
TABLE
  2
BLOCK_RECORD
  5
1
330
0
100
AcDbSymbolTable
 70
     1
  0
BLOCK_RECORD
  5
1F
330
1
100
AcDbSymbolTableRecord
100
AcDbBlockTableRecord
  2
*Model_Space
340
22
  0
BLOCK_RECORD
  5
1B
330
1
100
AcDbSymbolTableRecord
100
AcDbBlockTableRecord
  2
*Paper_Space
340
1E
  0
BLOCK_RECORD
  5
23
330
1
100
AcDbSymbolTableRecord
100
AcDbBlockTableRecord
  2
*Paper_Space0
340
26
  0
ENDTAB
  0
ENDSEC
  0
SECTION
  2
BLOCKS
  0
BLOCK
  5
20
330
1F
100
AcDbEntity
  8
0
100
AcDbBlockBegin
  2
*Model_Space
 70
     0
 10
0.0
 20
0.0
 30
0.0
  3
*Model_Space
  1

  0
ENDBLK
  5
21
330
1F
100
AcDbEntity
  8
0
100
AcDbBlockEnd
  0
BLOCK
  5
1C
330
1B
100
AcDbEntity
 67
     1
  8
0
100
AcDbBlockBegin
  2
*Paper_Space
 70
     0
 10
0.0
 20
0.0
 30
0.0
  3
*Paper_Space
  1

  0
ENDBLK
  5
1D
330
1B
100
AcDbEntity
 67
     1
  8
0
100
AcDbBlockEnd
  0
BLOCK
  5
24
330
23
100
AcDbEntity
  8
0
100
AcDbBlockBegin
  2
*Paper_Space0
 70
     0
 10
0.0
 20
0.0
 30
0.0
  3
*Paper_Space0
  1

  0
ENDBLK
  5
25
330
23
100
AcDbEntity
  8
0
100
AcDbBlockEnd
  0
ENDSEC
  0
SECTION
  2
ENTITIES
  0
SPLINE
  5
3C
330
1F
100
AcDbEntity
  8
4 leg - arm 2d
 62
     7
100
AcDbSpline
210
0.0
220
0.0
230
1.0
 70
     8
 71
     3
 72
     8
 73
     4
 74
     0
 42
0.0000000001
 43
0.0000000001
 40
0.0
 40
0.0
 40
0.0
 40
0.0
 40
1.0
 40
1.0
 40
1.0
 40
1.0
 10
-3.122563975444191
 20
14.0143238071951
 30
0.0
 10
-1.457093221584461
 20
13.99917667031791
 30
0.0
 10
1.457093221584461
 20
13.99917667031791
 30
0.0
 10
3.122563975444191
 20
14.0143238071951
 30
0.0
  0
SPLINE
  5
3D
330
1F
100
AcDbEntity
  8
4 leg - arm 2d
 62
     7
100
AcDbSpline
210
0.0
220
0.0
230
1.0
 70
     8
 71
     3
 72
    10
 73
     6
 74
     0
 42
0.0000000001
 43
0.0000000001
 40
0.0
 40
0.0
 40
0.0
 40
0.0
 40
1.268756985817898
 40
2.237317524824375
 40
3.753710493746765
 40
3.753710493746765
 40
3.753710493746765
 40
3.753710493746765
 10
3.122563975444191
 20
14.0143238071951
 30
0.0
 10
3.545465480816544
 20
14.01817001522523
 30
0.0
 10
4.2871887110506
 20
14.12984443515762
 30
0.0
 10
5.489165721055395
 20
14.47789786133218
 30
0.0
 10
6.258211083233818
 20
14.79443993451458
 30
0.0
 10
6.737356635864918
 20
15.05861756321475
 30
0.0
  0
SPLINE
  5
3E
330
1F
100
AcDbEntity
  8
4 leg - arm 2d
 62
     7
100
AcDbSpline
210
0.0
220
0.0
230
1.0
 70
     8
 71
     3
 72
    13
 73
     9
 74
     0
 42
0.0000000001
 43
0.0000000001
 40
-2.465674222230888
 40
-2.465674222230888
 40
-2.465674222230888
 40
-2.465674222230888
 40
-2.158649100441919
 40
-1.887753326022497
 40
-1.341694178010078
 40
-0.7591265492602681
 40
-0.4199709130222754
 40
0.0
 40
0.0
 40
0.0
 40
0.0
 10
6.737356635864918
 20
15.05861756321475
 30
0.0
 10
6.827690582971983
 20
15.10641110757657
 30
0.0
 10
7.005762565183511
 20
15.18405379494724
 30
0.0
 10
7.380557830338371
 20
15.23557578156598
 30
0.0
 10
7.845383101074322
 20
15.067923017887
 30
0.0
 10
8.120244033949161
 20
14.64073969697074
 30
0.0
 10
8.265258216425481
 20
14.22186707853043
 30
0.0
 10
8.31230229671803
 20
13.96911909078251
 30
0.0
 10
8.333763756845553
 20
13.8318487574681
 30
0.0
  0
SPLINE
  5
3F
330
1F
100
AcDbEntity
  8
4 leg - arm 2d
 62
     7
100
AcDbSpline
210
0.0
220
0.0
230
1.0
 70
    24
 71
     2
 72
     6
 73
     3
 74
     0
 42
0.0000000001
 43
0.0000000001
 40
-13.39491381413434
 40
-13.39491381413434
 40
-13.39491381413434
 40
0.0
 40
0.0
 40
0.0
 10
8.333763756845553
 20
13.8318487574681
 30
0.0
 10
9.329722976941543
 20
7.208739065625889
 30
0.0
 10
10.32568219703754
 20
0.5856293737836766
 30
0.0
  0
SPLINE
  5
40
330
1F
100
AcDbEntity
  8
4 leg - arm 2d
 62
     7
100
AcDbSpline
210
0.0
220
0.0
230
1.0
 70
    12
 71
     2
 72
     8
 73
     5
 74
     0
 42
0.0000000001
 43
0.0000000001
 40
0.0
 40
0.0
 40
0.0
 40
1.570796326794897
 40
1.570796326794897
 40
3.141592653589793
 40
3.141592653589793
 40
3.141592653589793
 10
10.32568219703754
 20
0.5856293737836766
 30
0.0
 41
1.0
 10
10.31713178335855
 20
0.6392684098250125
 30
0.0
 41
0.7071067811865475
 10
9.946792922784507
 20
0.5802339697416048
 30
0.0
 41
1.0
 10
9.576454062210468
 20
0.521199529658197
 30
0.0
 41
0.7071067811865475
 10
9.585004475889459
 20
0.4675604936168612
 30
0.0
 41
1.0
  0
SPLINE
  5
41
330
1F
100
AcDbEntity
  8
4 leg - arm 2d
 62
     7
100
AcDbSpline
210
0.0
220
0.0
230
1.0
 70
    24
 71
     2
 72
     6
 73
     3
 74
     0
 42
0.0000000001
 43
0.0000000001
 40
-13.40105391213546
 40
-13.40105391213546
 40
-13.40105391213546
 40
0.0
 40
0.0
 40
0.0
 10
9.585004475889459
 20
0.4675604936168612
 30
0.0
 10
8.58860697480451
 20
7.093588980487555
 30
0.0
 10
7.592209473719558
 20
13.71961746735825
 30
0.0
  0
SPLINE
  5
42
330
1F
100
AcDbEntity
  8
4 leg - arm 2d
 62
     7
100
AcDbSpline
210
0.0
220
0.0
230
1.0
 70
     8
 71
     3
 72
     8
 73
     4
 74
     0
 42
0.0000000001
 43
0.0000000001
 40
0.0
 40
0.0
 40
0.0
 40
0.0
 40
1.0
 40
1.0
 40
1.0
 40
1.0
 10
7.592209473719558
 20
13.71961746735825
 30
0.0
 10
7.52475827353424
 20
14.16816694024922
 30
0.0
 10
7.4195799581609
 20
14.57870494523864
 30
0.0
 10
7.062811746371187
 20
14.38200024941363
 30
0.0
  0
SPLINE
  5
43
330
1F
100
AcDbEntity
  8
4 leg - arm 2d
 62
     7
100
AcDbSpline
210
0.0
220
0.0
230
1.0
 70
     8
 71
     3
 72
    11
 73
     7
 74
     0
 42
0.0000000001
 43
0.0000000001
 40
-4.124608493135663
 40
-4.124608493135663
 40
-4.124608493135663
 40
-4.124608493135663
 40
-1.931744291642014
 40
-0.9193934764265195
 40
-0.439515042886951
 40
0.0
 40
0.0
 40
0.0
 40
0.0
 10
7.062811746371187
 20
14.38200024941363
 30
0.0
 10
6.421793907687421
 20
14.0285740897674
 30
0.0
 10
5.416826329511374
 20
13.64989742578357
 30
0.0
 10
4.222102183347723
 20
13.361607041816
 30
0.0
 10
3.581757475533522
 20
13.28193079406875
 30
0.0
 10
3.276062058326431
 20
13.266025888679
 30
0.0
 10
3.129381734144706
 20
13.26469185928075
 30
0.0
  0
SPLINE
  5
44
330
1F
100
AcDbEntity
  8
4 leg - arm 2d
 62
     7
100
AcDbSpline
210
0.0
220
0.0
230
1.0
 70
     8
 71
     3
 72
     9
 73
     5
 74
     0
 42
0.0000000001
 43
0.0000000001
 40
-2.0
 40
-2.0
 40
-2.0
 40
-2.0
 40
-1.0
 40
0.0
 40
0.0
 40
0.0
 40
0.0
 10
3.129381734144706
 20
13.26469185928075
 30
0.0
 10
2.904012088900001
 20
13.26264216560911
 30
0.0
 10
2.436704625731139
 20
13.34157030237492
 30
0.0
 10
1.990103098170164
 20
13.3965244213353
 30
0.0
 10
1.764945188382198
 20
13.39832957507327
 30
0.0
  0
POLYLINE
  5
45
330
1F
100
AcDbEntity
  8
4 leg - arm 2d
 62
     7
100
AcDb2dPolyline
 66
     1
 10
0.0
 20
0.0
 30
0.0
  0
VERTEX
  5
46
330
45
100
AcDbEntity
  8
4 leg - arm 2d
 62
     7
100
AcDbVertex
100
AcDb2dVertex
 10
1.764945188382198
 20
13.39832957507327
 30
0.0
  0
VERTEX
  5
47
330
45
100
AcDbEntity
  8
4 leg - arm 2d
 62
     7
100
AcDbVertex
100
AcDb2dVertex
 10
-1.764945188382198
 20
13.39832957507327
 30
0.0
  0
SEQEND
  5
48
330
45
100
AcDbEntity
  8
4 leg - arm 2d
 62
     7
  0
SPLINE
  5
49
330
1F
100
AcDbEntity
  8
4 leg - arm 2d
 62
     7
100
AcDbSpline
210
0.0
220
0.0
230
1.0
 70
     8
 71
     3
 72
     9
 73
     5
 74
     0
 42
0.0000000001
 43
0.0000000001
 40
0.0
 40
0.0
 40
0.0
 40
0.0
 40
1.0
 40
2.0
 40
2.0
 40
2.0
 40
2.0
 10
-1.764945188382198
 20
13.39832957507327
 30
0.0
 10
-1.990103098170164
 20
13.3965244213353
 30
0.0
 10
-2.436704625731139
 20
13.34157030237492
 30
0.0
 10
-2.904012088900001
 20
13.26264216560911
 30
0.0
 10
-3.129381734144706
 20
13.26469185928075
 30
0.0
  0
SPLINE
  5
4A
330
1F
100
AcDbEntity
  8
4 leg - arm 2d
 62
     7
100
AcDbSpline
210
0.0
220
0.0
230
1.0
 70
     8
 71
     3
 72
    11
 73
     7
 74
     0
 42
0.0000000001
 43
0.0000000001
 40
0.0
 40
0.0
 40
0.0
 40
0.0
 40
0.439515042886951
 40
0.9193934764265195
 40
1.931744291642014
 40
4.124608493135663
 40
4.124608493135663
 40
4.124608493135663
 40
4.124608493135663
 10
-3.129381734144706
 20
13.26469185928075
 30
0.0
 10
-3.276062058326431
 20
13.266025888679
 30
0.0
 10
-3.581757475533522
 20
13.28193079406875
 30
0.0
 10
-4.222102183347723
 20
13.361607041816
 30
0.0
 10
-5.416826329511374
 20
13.64989742578357
 30
0.0
 10
-6.421793907687421
 20
14.0285740897674
 30
0.0
 10
-7.062811746371187
 20
14.38200024941363
 30
0.0
  0
SPLINE
  5
4B
330
1F
100
AcDbEntity
  8
4 leg - arm 2d
 62
     7
100
AcDbSpline
210
0.0
220
0.0
230
1.0
 70
     8
 71
     3
 72
     8
 73
     4
 74
     0
 42
0.0000000001
 43
0.0000000001
 40
-1.0
 40
-1.0
 40
-1.0
 40
-1.0
 40
0.0
 40
0.0
 40
0.0
 40
0.0
 10
-7.062811746371187
 20
14.38200024941363
 30
0.0
 10
-7.4195799581609
 20
14.57870494523864
 30
0.0
 10
-7.52475827353424
 20
14.16816694024922
 30
0.0
 10
-7.592209473719558
 20
13.71961746735825
 30
0.0
  0
SPLINE
  5
4C
330
1F
100
AcDbEntity
  8
4 leg - arm 2d
 62
     7
100
AcDbSpline
210
0.0
220
0.0
230
1.0
 70
    24
 71
     2
 72
     6
 73
     3
 74
     0
 42
0.0000000001
 43
0.0000000001
 40
0.0
 40
0.0
 40
0.0
 40
13.40105391213546
 40
13.40105391213546
 40
13.40105391213546
 10
-7.592209473719558
 20
13.71961746735825
 30
0.0
 10
-8.58860697480451
 20
7.093588980487555
 30
0.0
 10
-9.585004475889459
 20
0.4675604936168612
 30
0.0
  0
SPLINE
  5
4D
330
1F
100
AcDbEntity
  8
4 leg - arm 2d
 62
     7
100
AcDbSpline
210
0.0
220
0.0
230
1.0
 70
    12
 71
     2
 72
     8
 73
     5
 74
     0
 42
0.0000000001
 43
0.0000000001
 40
-3.141592653589793
 40
-3.141592653589793
 40
-3.141592653589793
 40
-1.570796326794897
 40
-1.570796326794897
 40
0.0
 40
0.0
 40
0.0
 10
-9.585004475889459
 20
0.4675604936168612
 30
0.0
 41
1.0
 10
-9.576454062210468
 20
0.521199529658197
 30
0.0
 41
0.7071067811865475
 10
-9.946792922784507
 20
0.5802339697416048
 30
0.0
 41
1.0
 10
-10.31713178335855
 20
0.6392684098250125
 30
0.0
 41
0.7071067811865475
 10
-10.32568219703754
 20
0.5856293737836766
 30
0.0
 41
1.0
  0
SPLINE
  5
4E
330
1F
100
AcDbEntity
  8
4 leg - arm 2d
 62
     7
100
AcDbSpline
210
0.0
220
0.0
230
1.0
 70
    24
 71
     2
 72
     6
 73
     3
 74
     0
 42
0.0000000001
 43
0.0000000001
 40
0.0
 40
0.0
 40
0.0
 40
13.39491381413434
 40
13.39491381413434
 40
13.39491381413434
 10
-10.32568219703754
 20
0.5856293737836766
 30
0.0
 10
-9.329722976941543
 20
7.208739065625889
 30
0.0
 10
-8.333763756845553
 20
13.8318487574681
 30
0.0
  0
SPLINE
  5
4F
330
1F
100
AcDbEntity
  8
4 leg - arm 2d
 62
     7
100
AcDbSpline
210
0.0
220
0.0
230
1.0
 70
     8
 71
     3
 72
    13
 73
     9
 74
     0
 42
0.0000000001
 43
0.0000000001
 40
0.0
 40
0.0
 40
0.0
 40
0.0
 40
0.4199709130222754
 40
0.7591265492602681
 40
1.341694178010078
 40
1.887753326022497
 40
2.158649100441919
 40
2.465674222230888
 40
2.465674222230888
 40
2.465674222230888
 40
2.465674222230888
 10
-8.333763756845553
 20
13.8318487574681
 30
0.0
 10
-8.31230229671803
 20
13.96911909078251
 30
0.0
 10
-8.265258216425481
 20
14.22186707853043
 30
0.0
 10
-8.120244033949161
 20
14.64073969697074
 30
0.0
 10
-7.845383101074322
 20
15.067923017887
 30
0.0
 10
-7.380557830338371
 20
15.23557578156598
 30
0.0
 10
-7.005762565183511
 20
15.18405379494724
 30
0.0
 10
-6.827690582971983
 20
15.10641110757657
 30
0.0
 10
-6.737356635864918
 20
15.05861756321475
 30
0.0
  0
SPLINE
  5
50
330
1F
100
AcDbEntity
  8
4 leg - arm 2d
 62
     7
100
AcDbSpline
210
0.0
220
0.0
230
1.0
 70
     8
 71
     3
 72
    10
 73
     6
 74
     0
 42
0.0000000001
 43
0.0000000001
 40
-3.753710493746765
 40
-3.753710493746765
 40
-3.753710493746765
 40
-3.753710493746765
 40
-2.237317524824375
 40
-1.268756985817898
 40
0.0
 40
0.0
 40
0.0
 40
0.0
 10
-6.737356635864918
 20
15.05861756321475
 30
0.0
 10
-6.258211083233818
 20
14.79443993451458
 30
0.0
 10
-5.489165721055395
 20
14.47789786133218
 30
0.0
 10
-4.2871887110506
 20
14.12984443515762
 30
0.0
 10
-3.545465480816544
 20
14.01817001522523
 30
0.0
 10
-3.122563975444191
 20
14.0143238071951
 30
0.0
  0
SPLINE
  5
51
330
1F
100
AcDbEntity
  8
4 leg - arm 2d
 62
     7
100
AcDbSpline
210
0.0
220
0.0
230
1.0
 70
     8
 71
     3
 72
    12
 73
     8
 74
     0
 42
0.0000000001
 43
0.0000000001
 40
-2.615625519365534
 40
-2.615625519365534
 40
-2.615625519365534
 40
-2.615625519365534
 40
-1.97289356833674
 40
-1.380535869883827
 40
-0.7568752671333088
 40
-0.4114196472580751
 40
0.0
 40
0.0
 40
0.0
 40
0.0
 10
49.15186098401664
 20
15.0612836656055
 30
0.0
 10
49.3489244668317
 20
15.15116541262945
 30
0.0
 10
49.75620310344696
 20
15.26802539272502
 30
0.0
 10
50.38094586836397
 20
15.0840420877395
 30
0.0
 10
50.71193839786894
 20
14.65738023380496
 30
0.0
 10
50.8815649737038
 20
14.23185524986491
 30
0.0
 10
50.93816060240447
 20
13.96922151264281
 30
0.0
 10
50.96018700893794
 20
13.83471341294228
 30
0.0
  0
SPLINE
  5
52
330
1F
100
AcDbEntity
  8
4 leg - arm 2d
 62
     7
100
AcDbSpline
210
0.0
220
0.0
230
1.0
 70
    24
 71
     2
 72
     6
 73
     3
 74
     0
 42
0.0000000001
 43
0.0000000001
 40
-13.42878646872521
 40
-13.42878646872521
 40
-13.42878646872521
 40
0.0
 40
0.0
 40
0.0
 10
50.96018700893794
 20
13.83471341294228
 30
0.0
 10
52.04525191868602
 20
7.208574971335906
 30
0.0
 10
53.1303168284341
 20
0.5824365297295352
 30
0.0
  0
SPLINE
  5
53
330
1F
100
AcDbEntity
  8
4 leg - arm 2d
 62
     7
100
AcDbSpline
210
0.0
220
0.0
230
1.0
 70
    12
 71
     2
 72
     8
 73
     5
 74
     0
 42
0.0000000001
 43
0.0000000001
 40
0.0
 40
0.0
 40
0.0
 40
1.570794579897446
 40
1.570794579897446
 40
3.141592653589793
 40
3.141592653589793
 40
3.141592653589793
 10
53.13031682843411
 20
0.5824365297295352
 30
0.0
 41
0.9999986970870728
 10
53.12280454609564
 20
0.6318055409646752
 30
0.0
 41
0.7071074326444601
 10
52.75204502211199
 20
0.5755005636220507
 30
0.0
 41
1.0
 10
52.38128433189534
 20
0.5191954091707656
 30
0.0
 41
0.7071067811865475
 10
52.3887820609721
 20
0.4698240286169413
 30
0.0
 41
1.0
  0
SPLINE
  5
54
330
1F
100
AcDbEntity
  8
4 leg - arm 2d
 62
     7
100
AcDbSpline
210
0.0
220
0.0
230
1.0
 70
    24
 71
     2
 72
     6
 73
     3
 74
     0
 42
0.0000000001
 43
0.0000000001
 40
-13.42184191264083
 40
-13.42184191264083
 40
-13.42184191264083
 40
0.0
 40
0.0
 40
0.0
 10
52.3887820609721
 20
0.4698240286169413
 30
0.0
 10
51.30427159110933
 20
7.092534736683429
 30
0.0
 10
50.21976112124656
 20
13.71524544474992
 30
0.0
  0
SPLINE
  5
55
330
1F
100
AcDbEntity
  8
4 leg - arm 2d
 62
     7
100
AcDbSpline
210
0.0
220
0.0
230
1.0
 70
     8
 71
     3
 72
     8
 73
     4
 74
     0
 42
0.0000000001
 43
0.0000000001
 40
0.0
 40
0.0
 40
0.0
 40
0.0
 40
1.0
 40
1.0
 40
1.0
 40
1.0
 10
50.21976112124656
 20
13.71524544474992
 30
0.0
 10
50.13173096953673
 20
14.25281354073622
 30
0.0
 10
49.91434267639717
 20
14.58556935041579
 30
0.0
 10
49.46099329163358
 20
14.37815079174625
 30
0.0
  0
SPLINE
  5
56
330
1F
100
AcDbEntity
  8
4 leg - arm 2d
 62
     7
100
AcDbSpline
210
0.0
220
0.0
230
1.0
 70
     8
 71
     3
 72
     9
 73
     5
 74
     0
 42
0.0000000001
 43
0.0000000001
 40
-2.0
 40
-2.0
 40
-2.0
 40
-2.0
 40
-1.0
 40
0.0
 40
0.0
 40
0.0
 40
0.0
 10
49.46099329163358
 20
14.37815079174625
 30
0.0
 10
48.71886856205764
 20
14.0393568404568
 30
0.0
 10
47.16150327305905
 20
13.5462651368323
 30
0.0
 10
45.54895768699825
 20
13.26967258606762
 30
0.0
 10
44.73224113548114
 20
13.26468251211064
 30
0.0
  0
SPLINE
  5
57
330
1F
100
AcDbEntity
  8
4 leg - arm 2d
 62
     7
100
AcDbSpline
210
0.0
220
0.0
230
1.0
 70
     8
 71
     3
 72
     8
 73
     4
 74
     0
 42
0.0000000001
 43
0.0000000001
 40
0.0
 40
0.0
 40
0.0
 40
0.0
 40
1.0
 40
1.0
 40
1.0
 40
1.0
 10
44.73224113548114
 20
13.26468251211064
 30
0.0
 10
44.48816050788074
 20
13.26319119865442
 30
0.0
 10
44.10443013050788
 20
13.3347491453968
 30
0.0
 10
43.88132381334091
 20
13.43112469889858
 30
0.0
  0
ARC
  5
58
330
1F
100
AcDbEntity
  8
4 leg - arm 2d
 62
     7
100
AcDbCircle
 10
44.03003178153096
 20
13.7753788786232
 30
0.0
 40
0.3750000000814412
100
AcDbArc
 50
66.77081080911468
 51
246.6370353278855
  0
SPLINE
  5
59
330
1F
100
AcDbEntity
  8
4 leg - arm 2d
 62
     7
100
AcDbSpline
210
0.0
220
0.0
230
1.0
 70
     8
 71
     3
 72
     8
 73
     4
 74
     0
 42
0.0000000001
 43
0.0000000001
 40
-1.0
 40
-1.0
 40
-1.0
 40
-1.0
 40
0.0
 40
0.0
 40
0.0
 40
0.0
 10
44.17793557267742
 20
14.11997932642556
 30
0.0
 10
44.32129228320092
 20
14.05845009421495
 30
0.0
 10
44.56795236310442
 20
14.0132301894213
 30
0.0
 10
44.724687076446
 20
14.01430740187862
 30
0.0
  0
SPLINE
  5
5A
330
1F
100
AcDbEntity
  8
4 leg - arm 2d
 62
     7
100
AcDbSpline
210
0.0
220
0.0
230
1.0
 70
     8
 71
     3
 72
     9
 73
     5
 74
     0
 42
0.0000000001
 43
0.0000000001
 40
0.0
 40
0.0
 40
0.0
 40
0.0
 40
1.0
 40
2.0
 40
2.0
 40
2.0
 40
2.0
 10
44.724687076446
 20
14.01430740187862
 30
0.0
 10
45.48890772598055
 20
14.01955976739657
 30
0.0
 10
46.99742087530684
 20
14.28164011543964
 30
0.0
 10
48.45419459423381
 20
14.74398371622359
 30
0.0
 10
49.15186098401664
 20
15.0612836656055
 30
0.0
  0
SPLINE
  5
5B
330
1F
100
AcDbEntity
  8
4 leg - arm 2d
 62
     7
100
AcDbSpline
210
0.0
220
0.0
230
1.0
 70
     8
 71
     3
 72
     8
 73
     4
 74
     0
 42
0.0000000001
 43
0.0000000001
 40
0.0
 40
0.0
 40
0.0
 40
0.0
 40
1.0
 40
1.0
 40
1.0
 40
1.0
 10
41.91429085391758
 20
13.30109545349776
 30
0.0
 10
42.03704803658139
 20
13.29949506716751
 30
0.0
 10
42.24681701709239
 20
13.30701939797147
 30
0.0
 10
42.36685416851621
 20
13.32882420811253
 30
0.0
  0
ARC
  5
5C
330
1F
100
AcDbEntity
  8
4 leg - arm 2d
 62
     7
100
AcDbCircle
 10
42.29983201385194
 20
13.69778630758243
 30
0.0
 40
0.3750000000814424
100
AcDbArc
 50
280.2955468963895
 51
98.44056000817376
  0
SPLINE
  5
5D
330
1F
100
AcDbEntity
  8
4 leg - arm 2d
 62
     7
100
AcDbSpline
210
0.0
220
0.0
230
1.0
 70
     8
 71
     3
 72
     8
 73
     4
 74
     0
 42
0.0000000001
 43
0.0000000001
 40
-1.0
 40
-1.0
 40
-1.0
 40
-1.0
 40
0.0
 40
0.0
 40
0.0
 40
0.0
 10
42.24478827506073
 20
14.06872455969586
 30
0.0
 10
42.15947255794229
 20
14.05606451177388
 30
0.0
 10
42.01053076545711
 20
14.04956742839932
 30
0.0
 10
41.92406338508943
 20
14.05069470429919
 30
0.0
  0
SPLINE
  5
5E
330
1F
100
AcDbEntity
  8
4 leg - arm 2d
 62
     7
100
AcDbSpline
210
0.0
220
0.0
230
1.0
 70
     8
 71
     3
 72
    10
 73
     6
 74
     0
 42
0.0000000001
 43
0.0000000001
 40
-3.046983878489926
 40
-3.046983878489926
 40
-3.046983878489926
 40
-3.046983878489926
 40
-2.272254615435641
 40
-1.25212480716688
 40
0.0
 40
0.0
 40
0.0
 40
0.0
 10
41.92406338508943
 20
14.05069470429919
 30
0.0
 10
41.66584224056594
 20
14.05406113533735
 30
0.0
 10
41.07701377027816
 20
14.19046630646986
 30
0.0
 10
40.14774217664295
 20
14.60636251488994
 30
0.0
 10
39.49785725399749
 20
15.05918171723033
 30
0.0
 10
39.18721334102181
 20
15.33793285408961
 30
0.0
  0
SPLINE
  5
5F
330
1F
100
AcDbEntity
  8
4 leg - arm 2d
 62
     7
100
AcDbSpline
210
0.0
220
0.0
230
1.0
 70
     8
 71
     3
 72
    12
 73
     8
 74
     0
 42
0.0000000001
 43
0.0000000001
 40
0.0
 40
0.0
 40
0.0
 40
0.0
 40
0.3115002585622718
 40
0.5914352905042524
 40
1.138310215837138
 40
1.714288365023321
 40
2.421167907314276
 40
2.421167907314276
 40
2.421167907314276
 40
2.421167907314276
 10
39.18721334102181
 20
15.33793285408961
 30
0.0
 10
39.10971715808377
 20
15.40747276198385
 30
0.0
 10
38.94724803315811
 20
15.52047322129764
 30
0.0
 10
38.58816510756156
 20
15.65634336441854
 30
0.0
 10
38.09732770769219
 20
15.58527103191535
 30
0.0
 10
37.65038604643814
 20
15.13828603442763
 30
0.0
 10
37.49932007742
 20
14.73261131466341
 30
0.0
 10
37.43913358469624
 20
14.49938829250315
 30
0.0
  0
SPLINE
  5
60
330
1F
100
AcDbEntity
  8
4 leg - arm 2d
 62
     7
100
AcDbSpline
210
0.0
220
0.0
230
1.0
 70
    24
 71
     2
 72
     6
 73
     3
 74
     0
 42
0.0000000001
 43
0.0000000001
 40
0.0
 40
0.0
 40
0.0
 40
14.28231151296977
 40
14.28231151296977
 40
14.28231151296977
 10
37.43913358469624
 20
14.49938829250315
 30
0.0
 10
35.71089448479343
 20
7.567816431022338
 30
0.0
 10
33.98265538489061
 20
0.636244569541524
 30
0.0
  0
SPLINE
  5
61
330
1F
100
AcDbEntity
  8
4 leg - arm 2d
 62
     7
100
AcDbSpline
210
0.0
220
0.0
230
1.0
 70
    12
 71
     2
 72
     8
 73
     5
 74
     0
 42
0.0000000001
 43
0.0000000001
 40
-3.141592653589793
 40
-3.141592653589793
 40
-3.141592653589793
 40
-1.570796326794897
 40
-1.570796326794897
 40
0.0
 40
0.0
 40
0.0
 10
33.98265538489061
 20
0.636244569541524
 30
0.0
 41
1.0
 10
33.99329656555741
 20
0.6787958615522013
 30
0.0
 41
0.7071067811865475
 10
34.35709333854952
 20
0.587817961599492
 30
0.0
 41
1.0
 10
34.72089011154163
 20
0.4968400616467825
 30
0.0
 41
0.7071067811865475
 10
34.71024893087483
 20
0.4542887696361053
 30
0.0
 41
1.0
  0
SPLINE
  5
62
330
1F
100
AcDbEntity
  8
4 leg - arm 2d
 62
     7
100
AcDbSpline
210
0.0
220
0.0
230
1.0
 70
    24
 71
     2
 72
     6
 73
     3
 74
     0
 42
0.0000000001
 43
0.0000000001
 40
0.0
 40
0.0
 40
0.0
 40
14.28457660047625
 40
14.28457660047625
 40
14.28457660047625
 10
34.71024893087483
 20
0.4542887696361053
 30
0.0
 10
36.43812485564544
 20
7.384420583123964
 30
0.0
 10
38.16600078041605
 20
14.31455239661182
 30
0.0
  0
SPLINE
  5
63
330
1F
100
AcDbEntity
  8
4 leg - arm 2d
 62
     7
100
AcDbSpline
210
0.0
220
0.0
230
1.0
 70
     8
 71
     3
 72
     8
 73
     4
 74
     0
 42
0.0000000001
 43
0.0000000001
 40
0.0
 40
0.0
 40
0.0
 40
0.0
 40
1.0
 40
1.0
 40
1.0
 40
1.0
 10
38.16600078041605
 20
14.31455239661182
 30
0.0
 10
38.26169994508648
 20
14.69838078156648
 30
0.0
 10
38.43472931458287
 20
15.00196127446704
 30
0.0
 10
38.71291333984579
 20
14.75617100575064
 30
0.0
  0
SPLINE
  5
64
330
1F
100
AcDbEntity
  8
4 leg - arm 2d
 62
     7
100
AcDbSpline
210
0.0
220
0.0
230
1.0
 70
     8
 71
     3
 72
    12
 73
     8
 74
     0
 42
0.0000000001
 43
0.0000000001
 40
0.0
 40
0.0
 40
0.0
 40
0.0
 40
0.4776574914837461
 40
0.9446773987455398
 40
1.893585872554088
 40
2.811925226525107
 40
3.579688955960529
 40
3.579688955960529
 40
3.579688955960529
 40
3.579688955960529
 10
38.71291333984579
 20
14.75617100575064
 30
0.0
 10
38.83234491554466
 20
14.6506469050892
 30
0.0
 10
39.07667338874047
 20
14.45252922260132
 30
0.0
 10
39.5929681859388
 20
14.08713371737522
 30
0.0
 10
40.27760640524481
 20
13.71539402259088
 30
0.0
 10
41.10033074590351
 20
13.39871453646321
 30
0.0
 10
41.6579439500524
 20
13.30443745004612
 30
0.0
 10
41.91429085391758
 20
13.30109545349776
 30
0.0
  0
SPLINE
  5
65
330
1F
100
AcDbEntity
  8
4 leg - arm 2d
 62
     7
100
AcDbSpline
210
0.0
220
0.0
230
1.0
 70
    12
 71
     2
 72
     6
 73
     3
 74
     0
 42
0.0000000001
 43
0.0000000001
 40
0.0
 40
0.0
 40
0.0
 40
0.0017513649355207
 40
0.0017513649355207
 40
0.0017513649355207
 10
34.6489107066721
 20
0.2095622241745335
 30
0.0
 41
1.0
 10
34.64898278351998
 20
0.2086847600244279
 30
0.0
 41
0.9919489520935115
 10
34.64883209655297
 20
0.2078173317307376
 30
0.0
 41
1.0
  0
LINE
  5
66
330
1F
100
AcDbEntity
  8
4 leg - arm 2d
 62
     7
100
AcDbLine
 10
52.3887820609721
 20
0.4698240286169413
 30
0.0
 11
52.43014494748324
 21
0.215841813023407
 31
0.0
  0
SPLINE
  5
67
330
1F
100
AcDbEntity
  8
4 leg - arm 2d
 62
     7
100
AcDbSpline
210
0.0
220
0.0
230
1.0
 70
     8
 71
     3
 72
    11
 73
     7
 74
     0
 42
0.0000000001
 43
0.0000000001
 40
0.0
 40
0.0
 40
0.0
 40
0.0
 40
0.0504225346209004
 40
0.1068774996290179
 40
0.2099831463653991
 40
0.4354215533923327
 40
0.4354215533923327
 40
0.4354215533923327
 40
0.4354215533923327
 10
52.43014494748324
 20
0.215841813023407
 30
0.0
 10
52.43274511780172
 20
0.1996823242806732
 30
0.0
 10
52.44259887223458
 20
0.1638693637498602
 30
0.0
 10
52.47414964795772
 20
0.1034921400891629
 30
0.0
 10
52.5687987446707
 20
0.0070611497838819
 30
0.0
 10
52.68477005694938
 20
-0.0049464199278976
 30
0.0
 10
52.75885346207912
 20
0.0019816394095144
 30
0.0
  0
POLYLINE
  5
68
330
1F
100
AcDbEntity
  8
4 leg - arm 2d
 62
     7
100
AcDb2dPolyline
 66
     1
 10
0.0
 20
0.0
 30
0.0
  0
VERTEX
  5
69
330
68
100
AcDbEntity
  8
4 leg - arm 2d
 62
     7
100
AcDbVertex
100
AcDb2dVertex
 10
52.75885346207912
 20
0.0019816394095144
 30
0.0
  0
VERTEX
  5
6A
330
68
100
AcDbEntity
  8
4 leg - arm 2d
 62
     7
100
AcDbVertex
100
AcDb2dVertex
 10
52.93396243245075
 20
0.0312864620719054
 30
0.0
  0
SEQEND
  5
6B
330
68
100
AcDbEntity
  8
4 leg - arm 2d
 62
     7
  0
SPLINE
  5
6C
330
1F
100
AcDbEntity
  8
4 leg - arm 2d
 62
     7
100
AcDbSpline
210
0.0
220
0.0
230
1.0
 70
     8
 71
     3
 72
    11
 73
     7
 74
     0
 42
0.0000000001
 43
0.0000000001
 40
0.0
 40
0.0
 40
0.0
 40
0.0
 40
0.063414090591162
 40
0.1178366887026689
 40
0.2199773905888617
 40
0.428278161482584
 40
0.428278161482584
 40
0.428278161482584
 40
0.428278161482584
 10
52.93396243245075
 20
0.0312864620719054
 30
0.0
 10
52.95438171803703
 20
0.0366636326875512
 30
0.0
 10
52.99207018890854
 20
0.0481578599392215
 30
0.0
 10
53.05857782165049
 20
0.0793275532055046
 30
0.0
 10
53.15303484207597
 20
0.1597995725045771
 30
0.0
 10
53.18217594663766
 20
0.2680804333719448
 30
0.0
 10
53.17055979254972
 20
0.3367631374789471
 30
0.0
  0
SPLINE
  5
6D
330
1F
100
AcDbEntity
  8
4 leg - arm 2d
 62
     7
100
AcDbSpline
210
0.0
220
0.0
230
1.0
 70
    12
 71
     2
 72
     6
 73
     3
 74
     0
 42
0.0000000001
 43
0.0000000001
 40
-0.0016785321342753
 40
-0.0016785321342753
 40
-0.0016785321342753
 40
0.0
 40
0.0
 40
0.0
 10
53.17055979254972
 20
0.3367631374789471
 30
0.0
 41
0.9998459449830679
 10
53.17049282701196
 20
0.3375924726606543
 30
0.0
 41
0.993996700191517
 10
53.17026674745031
 20
0.3383929710233265
 30
0.0
 41
1.0
  0
SPLINE
  5
6E
330
1F
100
AcDbEntity
  8
4 leg - arm 2d
 62
     7
100
AcDbSpline
210
0.0
220
0.0
230
1.0
 70
    24
 71
     2
 72
     6
 73
     3
 74
     0
 42
0.0000000001
 43
0.0000000001
 40
0.0
 40
0.0
 40
0.0
 40
0.2472918405272693
 40
0.2472918405272693
 40
0.2472918405272693
 10
53.17026674745031
 20
0.3383929710233265
 30
0.0
 10
53.15028509442785
 20
0.4604136542714189
 30
0.0
 10
53.1303034414054
 20
0.5824343375195113
 30
0.0
  0
POLYLINE
  5
6F
330
1F
100
AcDbEntity
  8
4 leg - arm 2d
 62
     7
100
AcDb2dPolyline
 66
     1
 10
0.0
 20
0.0
 30
0.0
  0
VERTEX
  5
70
330
6F
100
AcDbEntity
  8
4 leg - arm 2d
 62
     7
100
AcDbVertex
100
AcDb2dVertex
 10
33.98265538489061
 20
0.636244569541524
 30
0.0
  0
VERTEX
  5
71
330
6F
100
AcDbEntity
  8
4 leg - arm 2d
 62
     7
100
AcDbVertex
100
AcDb2dVertex
 10
33.92028261151852
 20
0.3869453002823302
 30
0.0
  0
SEQEND
  5
72
330
6F
100
AcDbEntity
  8
4 leg - arm 2d
 62
     7
  0
SPLINE
  5
73
330
1F
100
AcDbEntity
  8
4 leg - arm 2d
 62
     7
100
AcDbSpline
210
0.0
220
0.0
230
1.0
 70
    12
 71
     2
 72
     6
 73
     3
 74
     0
 42
0.0000000001
 43
0.0000000001
 40
0.0
 40
0.0
 40
0.0
 40
0.4053817596806196
 40
0.4053817596806196
 40
0.4053817596806196
 10
33.92028261151852
 20
0.3869453002823302
 30
0.0
 41
1.0
 10
33.8671882336762
 20
0.1395299180350814
 30
0.0
 41
0.7265646711630038
 10
34.1112559738638
 20
0.0727143320485036
 30
0.0
 41
1.0
  0
POLYLINE
  5
74
330
1F
100
AcDbEntity
  8
4 leg - arm 2d
 62
     7
100
AcDb2dPolyline
 66
     1
 10
0.0
 20
0.0
 30
0.0
  0
VERTEX
  5
75
330
74
100
AcDbEntity
  8
4 leg - arm 2d
 62
     7
100
AcDbVertex
100
AcDb2dVertex
 10
34.1112559738638
 20
0.0727143320485036
 30
0.0
  0
VERTEX
  5
76
330
74
100
AcDbEntity
  8
4 leg - arm 2d
 62
     7
100
AcDbVertex
100
AcDb2dVertex
 10
34.33813979992097
 20
0.0169169047388966
 30
0.0
  0
SEQEND
  5
77
330
74
100
AcDbEntity
  8
4 leg - arm 2d
 62
     7
  0
SPLINE
  5
78
330
1F
100
AcDbEntity
  8
4 leg - arm 2d
 62
     7
100
AcDbSpline
210
0.0
220
0.0
230
1.0
 70
    12
 71
     2
 72
     6
 73
     3
 74
     0
 42
0.0000000001
 43
0.0000000001
 40
0.0
 40
0.0
 40
0.0
 40
0.4013183918321604
 40
0.4013183918321604
 40
0.4013183918321604
 10
34.33813979992097
 20
0.0169169047388966
 30
0.0
 41
1.0
 10
34.58290246748516
 20
-0.0337579058217101
 30
0.0
 41
0.7288137687097876
 10
34.64873698172089
 20
0.2073696881899144
 30
0.0
 41
1.0
  0
POLYLINE
  5
79
330
1F
100
AcDbEntity
  8
4 leg - arm 2d
 62
     7
100
AcDb2dPolyline
 66
     1
 10
0.0
 20
0.0
 30
0.0
  0
VERTEX
  5
7A
330
79
100
AcDbEntity
  8
4 leg - arm 2d
 62
     7
100
AcDbVertex
100
AcDb2dVertex
 10
34.64873698172089
 20
0.2073696881899144
 30
0.0
  0
VERTEX
  5
7B
330
79
100
AcDbEntity
  8
4 leg - arm 2d
 62
     7
100
AcDbVertex
100
AcDb2dVertex
 10
34.71024893087483
 20
0.4542887696361053
 30
0.0
  0
SEQEND
  5
7C
330
79
100
AcDbEntity
  8
4 leg - arm 2d
 62
     7
  0
SPLINE
  5
7D
330
1F
100
AcDbEntity
  8
4 leg - arm 2d
 62
     7
100
AcDbSpline
210
0.0
220
0.0
230
1.0
 70
     8
 71
     2
 72
     8
 73
     5
 74
     0
 42
0.0000000001
 43
0.0000000001
 40
-0.9029889848620102
 40
-0.9029889848620102
 40
-0.9029889848620102
 40
0.0
 40
3.500000013122785
 40
4.402988997985617
 40
4.402988997985617
 40
4.402988997985617
 10
-2.651285217849581
 20
13.30472807722285
 30
0.0
 10
-2.201494499000884
 20
13.32278981762467
 30
0.0
 10
-0.0000000000084865
 20
13.3227898175749
 30
0.0
 10
2.201494498984322
 20
13.32278981752513
 30
0.0
 10
2.651285217849584
 20
13.30472807722285
 30
0.0
  0
SPLINE
  5
7E
330
1F
100
AcDbEntity
  8
4 leg - arm 2d
 62
     7
100
AcDbSpline
210
0.0
220
0.0
230
1.0
 70
    24
 71
     2
 72
     6
 73
     3
 74
     0
 42
0.0000000001
 43
0.0000000001
 40
0.0
 40
0.0
 40
0.0
 40
0.2339146655468733
 40
0.2339146655468733
 40
0.2339146655468733
 10
8.976194793042914
 20
0.4774357423308674
 30
0.0
 10
8.992496377898968
 20
0.3614575819317145
 30
0.0
 10
9.008797962755022
 20
0.2454794215325615
 30
0.0
  0
SPLINE
  5
7F
330
1F
100
AcDbEntity
  8
4 leg - arm 2d
 62
     7
100
AcDbSpline
210
0.0
220
0.0
230
1.0
 70
     8
 71
     3
 72
    11
 73
     7
 74
     0
 42
0.0000000001
 43
0.0000000001
 40
0.0
 40
0.0
 40
0.0
 40
0.0
 40
0.0592816211002601
 40
0.1198019193715514
 40
0.2423759788815892
 40
0.5268425510291893
 40
0.5268425510291893
 40
0.5268425510291893
 40
0.5268425510291893
 10
9.008797962755022
 20
0.2454794215325615
 30
0.0
 10
9.011126184935
 20
0.2257787232920561
 30
0.0
 10
9.022520847943598
 20
0.1863879584597908
 30
0.0
 10
9.059219598665054
 20
0.1154683125209777
 30
0.0
 10
9.18212982017636
 20
0.007616888952881
 30
0.0
 10
9.328786746838361
 20
0.00824982910423
 30
0.0
 10
9.42057781046788
 20
0.0211652559280945
 30
0.0
  0
SPLINE
  5
80
330
1F
100
AcDbEntity
  8
4 leg - arm 2d
 62
     7
100
AcDbSpline
210
0.0
220
0.0
230
1.0
 70
    12
 71
     2
 72
     6
 73
     3
 74
     0
 42
0.0000000001
 43
0.0000000001
 40
0.0
 40
0.0
 40
0.0
 40
0.2639760169231865
 40
0.2639760169231865
 40
0.2639760169231865
 10
9.42057781046788
 20
0.0211652559280945
 30
0.0
 41
1.0
 10
9.555631604400212
 20
0.0336802058663593
 30
0.0
 41
0.9601784980021112
 10
9.662886979846615
 20
0.1167009000669779
 30
0.0
 41
1.0
  0
SPLINE
  5
81
330
1F
100
AcDbEntity
  8
4 leg - arm 2d
 62
     7
100
AcDbSpline
210
0.0
220
0.0
230
1.0
 70
    12
 71
     2
 72
     8
 73
     5
 74
     0
 42
0.0000000001
 43
0.0000000001
 40
0.8815242207769494
 40
0.8815242207769494
 40
0.8815242207769494
 40
1.570796326794897
 40
1.570796326794897
 40
3.141592653589793
 40
3.141592653589793
 40
3.141592653589793
 10
9.579586290297252
 20
0.5035913468075206
 30
0.0
 41
0.8557471137443328
 10
9.482178409748999
 20
0.4681578036623451
 30
0.0
 41
0.8714772104274953
 10
9.352559403186039
 20
0.4489259781512852
 30
0.0
 41
1.0
 10
8.988502815165761
 20
0.3949101901691657
 30
0.0
 41
0.7071067811865475
 10
8.974965774944698
 20
0.4861473794961946
 30
0.0
 41
1.0
  0
POLYLINE
  5
82
330
1F
100
AcDbEntity
  8
4 leg - arm 2d
 62
     7
100
AcDb2dPolyline
 66
     1
 10
0.0
 20
0.0
 30
0.0
  0
VERTEX
  5
83
330
82
100
AcDbEntity
  8
4 leg - arm 2d
 62
     7
100
AcDbVertex
100
AcDb2dVertex
 10
9.585004475889459
 20
0.4675604936168612
 30
0.0
  0
VERTEX
  5
84
330
82
100
AcDbEntity
  8
4 leg - arm 2d
 62
     7
100
AcDbVertex
100
AcDb2dVertex
 10
9.621741417175631
 20
0.2224807331200645
 30
0.0
  0
SEQEND
  5
85
330
82
100
AcDbEntity
  8
4 leg - arm 2d
 62
     7
  0
SPLINE
  5
86
330
1F
100
AcDbEntity
  8
4 leg - arm 2d
 62
     7
100
AcDbSpline
210
0.0
220
0.0
230
1.0
 70
    12
 71
     2
 72
     6
 73
     3
 74
     0
 42
0.0000000001
 43
0.0000000001
 40
0.0
 40
0.0
 40
0.0
 40
0.4023587728813611
 40
0.4023587728813611
 40
0.4023587728813611
 10
9.621741417175631
 20
0.2224807331200645
 30
0.0
 41
1.0
 10
9.665232148223332
 20
-0.0239717133811963
 30
0.0
 41
0.7344301430584195
 10
9.91329357080439
 20
0.0000116095893328
 30
0.0
 41
1.0
  0
SPLINE
  5
87
330
1F
100
AcDbEntity
  8
4 leg - arm 2d
 62
     7
100
AcDbSpline
210
0.0
220
0.0
230
1.0
 70
     8
 71
     3
 72
     8
 73
     4
 74
     0
 42
0.0000000001
 43
0.0000000001
 40
0.0
 40
0.0
 40
0.0
 40
0.0
 40
1.0
 40
1.0
 40
1.0
 40
1.0
 10
9.91329357080439
 20
0.0000116095893328
 30
0.0
 10
9.967870344995408
 20
0.0052882559476962
 30
0.0
 10
10.06191329863925
 20
0.0132297529758921
 30
0.0
 10
10.11477847555169
 20
0.0260273646483461
 30
0.0
  0
SPLINE
  5
88
330
1F
100
AcDbEntity
  8
4 leg - arm 2d
 62
     7
100
AcDbSpline
210
0.0
220
0.0
230
1.0
 70
     8
 71
     3
 72
    11
 73
     7
 74
     0
 42
0.0000000001
 43
0.0000000001
 40
0.0
 40
0.0
 40
0.0
 40
0.0
 40
0.0659070677799101
 40
0.1217736743073117
 40
0.2259137840214808
 40
0.4367046111686205
 40
0.4367046111686205
 40
0.4367046111686205
 40
0.4367046111686205
 10
10.11477847555169
 20
0.0260273646483461
 30
0.0
 10
10.13610861879812
 20
0.0311909696172235
 30
0.0
 10
10.17525551271213
 20
0.0423974511564566
 30
0.0
 10
10.24428999789365
 20
0.0727344979496756
 30
0.0
 10
10.3425708719717
 20
0.1517765511736162
 30
0.0
 10
10.37472142614139
 20
0.261083106431322
 30
0.0
 10
10.36424174620009
 20
0.3307995985125664
 30
0.0
  0
POLYLINE
  5
89
330
1F
100
AcDbEntity
  8
4 leg - arm 2d
 62
     7
100
AcDb2dPolyline
 66
     1
 10
0.0
 20
0.0
 30
0.0
  0
VERTEX
  5
8A
330
89
100
AcDbEntity
  8
4 leg - arm 2d
 62
     7
100
AcDbVertex
100
AcDb2dVertex
 10
10.36424174620009
 20
0.3307995985125664
 30
0.0
  0
VERTEX
  5
8B
330
89
100
AcDbEntity
  8
4 leg - arm 2d
 62
     7
100
AcDbVertex
100
AcDb2dVertex
 10
10.32568219703754
 20
0.5856293737836766
 30
0.0
  0
SEQEND
  5
8C
330
89
100
AcDbEntity
  8
4 leg - arm 2d
 62
     7
  0
SPLINE
  5
8D
330
1F
100
AcDbEntity
  8
4 leg - arm 2d
 62
     7
100
AcDbSpline
210
0.0
220
0.0
230
1.0
 70
    24
 71
     2
 72
     6
 73
     3
 74
     0
 42
0.0000000001
 43
0.0000000001
 40
0.0
 40
0.0
 40
0.0
 40
14.00402971758078
 40
14.00402971758078
 40
14.00402971758078
 10
7.01868100095845
 20
14.35286285988142
 30
0.0
 10
7.996823387951575
 20
7.419505119688806
 30
0.0
 10
8.9749657749447
 20
0.4861473794961945
 30
0.0
  0
SPLINE
  5
8E
330
1F
100
AcDbEntity
  8
4 leg - arm 2d
 62
     7
100
AcDbSpline
210
0.0
220
0.0
230
1.0
 70
    24
 71
     2
 72
     6
 73
     3
 74
     0
 42
0.0000000001
 43
0.0000000001
 40
0.0
 40
0.0
 40
0.0
 40
0.2339146655468733
 40
0.2339146655468733
 40
0.2339146655468733
 10
-8.976194793042914
 20
0.4774357423308674
 30
0.0
 10
-8.992496377898968
 20
0.3614575819317145
 30
0.0
 10
-9.008797962755022
 20
0.2454794215325615
 30
0.0
  0
SPLINE
  5
8F
330
1F
100
AcDbEntity
  8
4 leg - arm 2d
 62
     7
100
AcDbSpline
210
0.0
220
0.0
230
1.0
 70
     8
 71
     3
 72
    11
 73
     7
 74
     0
 42
0.0000000001
 43
0.0000000001
 40
0.0
 40
0.0
 40
0.0
 40
0.0
 40
0.0592816211002601
 40
0.1198019193715514
 40
0.2423759788815892
 40
0.5268425510291893
 40
0.5268425510291893
 40
0.5268425510291893
 40
0.5268425510291893
 10
-9.008797962755022
 20
0.2454794215325615
 30
0.0
 10
-9.011126184935
 20
0.2257787232920561
 30
0.0
 10
-9.022520847943598
 20
0.1863879584597908
 30
0.0
 10
-9.059219598665054
 20
0.1154683125209777
 30
0.0
 10
-9.18212982017636
 20
0.007616888952881
 30
0.0
 10
-9.328786746838361
 20
0.00824982910423
 30
0.0
 10
-9.42057781046788
 20
0.0211652559280945
 30
0.0
  0
SPLINE
  5
90
330
1F
100
AcDbEntity
  8
4 leg - arm 2d
 62
     7
100
AcDbSpline
210
0.0
220
0.0
230
1.0
 70
    12
 71
     2
 72
     6
 73
     3
 74
     0
 42
0.0000000001
 43
0.0000000001
 40
0.0
 40
0.0
 40
0.0
 40
0.2639760169231865
 40
0.2639760169231865
 40
0.2639760169231865
 10
-9.42057781046788
 20
0.0211652559280945
 30
0.0
 41
1.0
 10
-9.555631604400212
 20
0.0336802058663593
 30
0.0
 41
0.9601784980021112
 10
-9.662886979846615
 20
0.1167009000669779
 30
0.0
 41
1.0
  0
SPLINE
  5
91
330
1F
100
AcDbEntity
  8
4 leg - arm 2d
 62
     7
100
AcDbSpline
210
0.0
220
0.0
230
1.0
 70
    12
 71
     2
 72
     8
 73
     5
 74
     0
 42
0.0000000001
 43
0.0000000001
 40
0.8815242207769494
 40
0.8815242207769494
 40
0.8815242207769494
 40
1.570796326794897
 40
1.570796326794897
 40
3.141592653589793
 40
3.141592653589793
 40
3.141592653589793
 10
-9.579586290297252
 20
0.5035913468075206
 30
0.0
 41
0.8557471137443328
 10
-9.482178409748999
 20
0.4681578036623451
 30
0.0
 41
0.8714772104274953
 10
-9.352559403186039
 20
0.4489259781512852
 30
0.0
 41
1.0
 10
-8.988502815165761
 20
0.3949101901691657
 30
0.0
 41
0.7071067811865475
 10
-8.974965774944698
 20
0.4861473794961946
 30
0.0
 41
1.0
  0
POLYLINE
  5
92
330
1F
100
AcDbEntity
  8
4 leg - arm 2d
 62
     7
100
AcDb2dPolyline
 66
     1
 10
0.0
 20
0.0
 30
0.0
  0
VERTEX
  5
93
330
92
100
AcDbEntity
  8
4 leg - arm 2d
 62
     7
100
AcDbVertex
100
AcDb2dVertex
 10
-9.585004475889459
 20
0.4675604936168612
 30
0.0
  0
VERTEX
  5
94
330
92
100
AcDbEntity
  8
4 leg - arm 2d
 62
     7
100
AcDbVertex
100
AcDb2dVertex
 10
-9.621741417175631
 20
0.2224807331200645
 30
0.0
  0
SEQEND
  5
95
330
92
100
AcDbEntity
  8
4 leg - arm 2d
 62
     7
  0
SPLINE
  5
96
330
1F
100
AcDbEntity
  8
4 leg - arm 2d
 62
     7
100
AcDbSpline
210
0.0
220
0.0
230
1.0
 70
    12
 71
     2
 72
     6
 73
     3
 74
     0
 42
0.0000000001
 43
0.0000000001
 40
0.0
 40
0.0
 40
0.0
 40
0.4023587728813611
 40
0.4023587728813611
 40
0.4023587728813611
 10
-9.621741417175631
 20
0.2224807331200645
 30
0.0
 41
1.0
 10
-9.665232148223332
 20
-0.0239717133811963
 30
0.0
 41
0.7344301430584195
 10
-9.91329357080439
 20
0.0000116095893328
 30
0.0
 41
1.0
  0
SPLINE
  5
97
330
1F
100
AcDbEntity
  8
4 leg - arm 2d
 62
     7
100
AcDbSpline
210
0.0
220
0.0
230
1.0
 70
     8
 71
     3
 72
     8
 73
     4
 74
     0
 42
0.0000000001
 43
0.0000000001
 40
0.0
 40
0.0
 40
0.0
 40
0.0
 40
1.0
 40
1.0
 40
1.0
 40
1.0
 10
-9.91329357080439
 20
0.0000116095893328
 30
0.0
 10
-9.967870344995408
 20
0.0052882559476962
 30
0.0
 10
-10.06191329863925
 20
0.0132297529758921
 30
0.0
 10
-10.11477847555169
 20
0.0260273646483461
 30
0.0
  0
SPLINE
  5
98
330
1F
100
AcDbEntity
  8
4 leg - arm 2d
 62
     7
100
AcDbSpline
210
0.0
220
0.0
230
1.0
 70
     8
 71
     3
 72
    11
 73
     7
 74
     0
 42
0.0000000001
 43
0.0000000001
 40
0.0
 40
0.0
 40
0.0
 40
0.0
 40
0.0659070677799101
 40
0.1217736743073117
 40
0.2259137840214808
 40
0.4367046111686205
 40
0.4367046111686205
 40
0.4367046111686205
 40
0.4367046111686205
 10
-10.11477847555169
 20
0.0260273646483461
 30
0.0
 10
-10.13610861879812
 20
0.0311909696172235
 30
0.0
 10
-10.17525551271213
 20
0.0423974511564566
 30
0.0
 10
-10.24428999789365
 20
0.0727344979496756
 30
0.0
 10
-10.3425708719717
 20
0.1517765511736162
 30
0.0
 10
-10.37472142614139
 20
0.261083106431322
 30
0.0
 10
-10.36424174620009
 20
0.3307995985125664
 30
0.0
  0
POLYLINE
  5
99
330
1F
100
AcDbEntity
  8
4 leg - arm 2d
 62
     7
100
AcDb2dPolyline
 66
     1
 10
0.0
 20
0.0
 30
0.0
  0
VERTEX
  5
9A
330
99
100
AcDbEntity
  8
4 leg - arm 2d
 62
     7
100
AcDbVertex
100
AcDb2dVertex
 10
-10.36424174620009
 20
0.3307995985125664
 30
0.0
  0
VERTEX
  5
9B
330
99
100
AcDbEntity
  8
4 leg - arm 2d
 62
     7
100
AcDbVertex
100
AcDb2dVertex
 10
-10.32568219703754
 20
0.5856293737836766
 30
0.0
  0
SEQEND
  5
9C
330
99
100
AcDbEntity
  8
4 leg - arm 2d
 62
     7
  0
SPLINE
  5
9D
330
1F
100
AcDbEntity
  8
4 leg - arm 2d
 62
     7
100
AcDbSpline
210
0.0
220
0.0
230
1.0
 70
    24
 71
     2
 72
     6
 73
     3
 74
     0
 42
0.0000000001
 43
0.0000000001
 40
0.0
 40
0.0
 40
0.0
 40
14.00402971758078
 40
14.00402971758078
 40
14.00402971758078
 10
-7.01868100095845
 20
14.35286285988142
 30
0.0
 10
-7.996823387951575
 20
7.419505119688806
 30
0.0
 10
-8.9749657749447
 20
0.4861473794961945
 30
0.0
  0
SPLINE
  5
9E
330
1F
100
AcDbEntity
  8
4 leg - arm 2d
 62
     7
100
AcDbSpline
210
0.0
220
0.0
230
1.0
 70
     8
 71
     3
 72
    13
 73
     9
 74
     0
 42
0.0000000001
 43
0.0000000001
 40
0.0
 40
0.0
 40
0.0
 40
0.0
 40
0.221081552131047
 40
0.4532204846550357
 40
0.9832619185522135
 40
1.5024722513687
 40
1.989612707728416
 40
3.885149291570795
 40
3.885149291570795
 40
3.885149291570795
 40
3.885149291570795
 10
55.15968400874313
 20
16.21764138079162
 30
0.0
 10
55.21203208148822
 20
16.26939886058732
 30
0.0
 10
55.305620660885
 20
16.38994248652102
 30
0.0
 10
55.42958732062686
 20
16.69634571711317
 30
0.0
 10
55.4558673346673
 20
17.13074582422336
 30
0.0
 10
55.30345727694964
 20
17.62836419094209
 30
0.0
 10
54.66460733554213
 20
18.38565695554454
 30
0.0
 10
53.61810019610751
 20
18.31554258125414
 30
0.0
 10
53.25328437171896
 20
18.31402731467198
 30
0.0
  0
SPLINE
  5
9F
330
1F
100
AcDbEntity
  8
4 leg - arm 2d
 62
     7
100
AcDbSpline
210
0.0
220
0.0
230
1.0
 70
     8
 71
     3
 72
    14
 73
    10
 74
     0
 42
0.0000000001
 43
0.0000000001
 40
0.0115143888993895
 40
0.0115143888993895
 40
0.0115143888993895
 40
0.0115143888993895
 40
1.0
 40
2.0
 40
3.0
 40
4.0
 40
5.0
 40
6.0
 40
7.0
 40
7.0
 40
7.0
 40
7.0
 10
8.284104422280821
 20
17.89374652648139
 30
0.0
 10
7.95080911585223
 20
18.11882926344106
 30
0.0
 10
7.148542773252252
 20
18.19771027285915
 30
0.0
 10
5.967444718435604
 20
18.26148299751395
 30
0.0
 10
4.772854925378389
 20
18.29379653462215
 30
0.0
 10
3.579940338253927
 20
18.29436971070293
 30
0.0
 10
2.386556046866611
 20
18.30049433586367
 30
0.0
 10
1.193295964938117
 20
18.30444658417223
 30
0.0
 10
0.3977621819706307
 20
18.30707461771841
 30
0.0
 10
0.0000000000000036
 20
18.3082324037282
 30
0.0
  0
SPLINE
  5
A0
330
1F
100
AcDbEntity
  8
4 leg - arm 2d
 62
     7
100
AcDbSpline
210
0.0
220
0.0
230
1.0
 70
     8
 71
     3
 72
    14
 73
    10
 74
     0
 42
0.0000000001
 43
0.0000000001
 40
-7.0
 40
-7.0
 40
-7.0
 40
-7.0
 40
-6.0
 40
-5.0
 40
-4.0
 40
-3.0
 40
-2.0
 40
-1.0
 40
-0.0115143888994373
 40
-0.0115143888994373
 40
-0.0115143888994373
 40
-0.0115143888994373
 10
0.0000000000000036
 20
18.3082324037282
 30
0.0
 10
-0.3977621819706236
 20
18.30707461771841
 30
0.0
 10
-1.19329596493811
 20
18.30444658417221
 30
0.0
 10
-2.386556046866604
 20
18.30049433586364
 30
0.0
 10
-3.57994033825392
 20
18.2943697107029
 30
0.0
 10
-4.772854925378382
 20
18.2937965346221
 30
0.0
 10
-5.967444718435596
 20
18.26148299751388
 30
0.0
 10
-7.148542773252225
 20
18.19771027285908
 30
0.0
 10
-7.950809115852183
 20
18.11882926344098
 30
0.0
 10
-8.28410442228076
 20
17.89374652648133
 30
0.0
  0
SPLINE
  5
A1
330
1F
100
AcDbEntity
  8
4 leg - arm 2d
 62
     7
100
AcDbSpline
210
0.0
220
0.0
230
1.0
 70
     8
 71
     3
 72
    14
 73
    10
 74
     0
 42
0.0000000001
 43
0.0000000001
 40
0.0
 40
0.0
 40
0.0
 40
0.0
 40
1.0
 40
2.0
 40
3.0
 40
4.0
 40
5.0
 40
6.0
 40
7.0
 40
7.0
 40
7.0
 40
7.0
 10
9.47099543356499
 20
19.55647952632111
 30
0.0
 10
9.263845691907445
 20
19.09082038700913
 30
0.0
 10
8.71207518738171
 20
18.21762381634008
 30
0.0
 10
7.520346836321244
 20
17.22287110177934
 30
0.0
 10
6.090483877578968
 20
16.64429573931208
 30
0.0
 10
4.582490860708207
 20
16.36028857318202
 30
0.0
 10
3.059779571076865
 20
16.20107293633583
 30
0.0
 10
1.530738609525921
 20
16.11868281712855
 30
0.0
 10
0.5102760775281062
 20
16.10040705336621
 30
0.0
 10
0.0
 20
16.1012020170593
 30
0.0
  0
SPLINE
  5
A2
330
1F
100
AcDbEntity
  8
4 leg - arm 2d
 62
     7
100
AcDbSpline
210
0.0
220
0.0
230
1.0
 70
     8
 71
     3
 72
    14
 73
    10
 74
     0
 42
0.0000000001
 43
0.0000000001
 40
-7.0
 40
-7.0
 40
-7.0
 40
-7.0
 40
-6.0
 40
-5.0
 40
-4.0
 40
-3.0
 40
-2.0
 40
-1.0
 40
0.0
 40
0.0
 40
0.0
 40
0.0
 10
0.0
 20
16.1012020170593
 30
0.0
 10
-0.5102760775281062
 20
16.10040705336621
 30
0.0
 10
-1.530738609525921
 20
16.11868281712855
 30
0.0
 10
-3.059779571076865
 20
16.20107293633583
 30
0.0
 10
-4.582490860708207
 20
16.36028857318202
 30
0.0
 10
-6.090483877578968
 20
16.64429573931208
 30
0.0
 10
-7.520346836321244
 20
17.22287110177934
 30
0.0
 10
-8.71207518738171
 20
18.21762381634008
 30
0.0
 10
-9.263845691907445
 20
19.09082038700913
 30
0.0
 10
-9.47099543356499
 20
19.55647952632111
 30
0.0
  0
SPLINE
  5
A3
330
1F
100
AcDbEntity
  8
4 leg - arm 2d
 62
     7
100
AcDbSpline
210
0.0
220
0.0
230
1.0
 70
     8
 71
     3
 72
    24
 73
    20
 74
     0
 42
0.0000000001
 43
0.0000000001
 40
-17.0
 40
-17.0
 40
-17.0
 40
-17.0
 40
-16.0
 40
-15.0
 40
-14.0
 40
-13.0
 40
-12.0
 40
-11.0
 40
-10.0
 40
-9.0
 40
-8.0
 40
-7.0
 40
-6.0
 40
-5.0
 40
-4.0
 40
-3.0
 40
-2.0
 40
-1.0
 40
0.0
 40
0.0
 40
0.0
 40
0.0
 10
-13.22687778250006
 20
26.10530957215532
 30
0.0
 10
-13.03727270908051
 20
26.38949276115037
 30
0.0
 10
-12.38998461297896
 20
26.57097898352193
 30
0.0
 10
-11.60675314362203
 20
27.15999532298077
 30
0.0
 10
-11.03398993791485
 20
27.95705072891857
 30
0.0
 10
-10.57768706974786
 20
28.81425963739726
 30
0.0
 10
-10.16472613319136
 20
29.69587204215082
 30
0.0
 10
-9.803576221758599
 20
30.59634725769036
 30
0.0
 10
-9.397368669516466
 20
31.48905381718599
 30
0.0
 10
-8.680777016686983
 20
32.17107324612802
 30
0.0
 10
-7.779481228012351
 20
32.57185641277539
 30
0.0
 10
-6.804854037935051
 20
32.66905825096651
 30
0.0
 10
-5.833550023904063
 20
32.62225045258867
 30
0.0
 10
-4.86110609560509
 20
32.62251428751364
 30
0.0
 10
-3.888945765915074
 20
32.62932787867474
 30
0.0
 10
-2.916698846453024
 20
32.632449953071
 30
0.0
 10
-1.944466777385647
 20
32.6337001415239
 30
0.0
 10
-0.9722290823862377
 20
32.63258928319019
 30
0.0
 10
-0.3240754869563128
 20
32.63036599403783
 30
0.0
 10
0.0
 20
32.62887388916386
 30
0.0
  0
SPLINE
  5
A4
330
1F
100
AcDbEntity
  8
4 leg - arm 2d
 62
     7
100
AcDbSpline
210
0.0
220
0.0
230
1.0
 70
     8
 71
     3
 72
    24
 73
    20
 74
     0
 42
0.0000000001
 43
0.0000000001
 40
0.0
 40
0.0
 40
0.0
 40
0.0
 40
1.0
 40
2.0
 40
3.0
 40
4.0
 40
5.0
 40
6.0
 40
7.0
 40
8.0
 40
9.0
 40
10.0
 40
11.0
 40
12.0
 40
13.0
 40
14.0
 40
15.0
 40
16.0
 40
17.0
 40
17.0
 40
17.0
 40
17.0
 10
0.0
 20
32.62887388916386
 30
0.0
 10
0.3240754869563128
 20
32.63036599403783
 30
0.0
 10
0.9722290823862377
 20
32.63258928319019
 30
0.0
 10
1.944466777385647
 20
32.6337001415239
 30
0.0
 10
2.916698846453024
 20
32.632449953071
 30
0.0
 10
3.888945765915074
 20
32.62932787867474
 30
0.0
 10
4.86110609560509
 20
32.62251428751364
 30
0.0
 10
5.833550023904063
 20
32.62225045258867
 30
0.0
 10
6.804854037935051
 20
32.66905825096651
 30
0.0
 10
7.779481228012351
 20
32.57185641277539
 30
0.0
 10
8.680777016686983
 20
32.17107324612802
 30
0.0
 10
9.397368669516466
 20
31.48905381718599
 30
0.0
 10
9.803576221758599
 20
30.59634725769036
 30
0.0
 10
10.16472613319136
 20
29.69587204215082
 30
0.0
 10
10.57768706974786
 20
28.81425963739726
 30
0.0
 10
11.03398993791485
 20
27.95705072891857
 30
0.0
 10
11.60675314362203
 20
27.15999532298077
 30
0.0
 10
12.38998461297896
 20
26.57097898352193
 30
0.0
 10
13.03727270908051
 20
26.38949276115037
 30
0.0
 10
13.22687778250006
 20
26.10530957215532
 30
0.0
  0
SPLINE
  5
A5
330
1F
100
AcDbEntity
  8
4 leg - arm 2d
 62
     7
100
AcDbSpline
210
0.0
220
0.0
230
1.0
 70
     8
 71
     3
 72
    18
 73
    14
 74
     0
 42
0.0000000001
 43
0.0000000001
 40
0.0
 40
0.0
 40
0.0
 40
0.0
 40
1.0
 40
2.0
 40
3.0
 40
4.0
 40
5.0
 40
6.0
 40
7.0
 40
8.0
 40
9.0
 40
10.0
 40
11.0
 40
11.0
 40
11.0
 40
11.0
 10
8.737753314004635
 20
18.36982442436823
 30
0.0
 10
8.81599278815799
 20
18.66328080710937
 30
0.0
 10
8.970379603679916
 20
19.25074867127656
 30
0.0
 10
9.197961793426998
 20
20.13299097985963
 30
0.0
 10
9.42353979637363
 20
21.01574369312808
 30
0.0
 10
9.650021977908455
 20
21.89827274919842
 30
0.0
 10
9.876954266648182
 20
22.78065759893285
 30
0.0
 10
10.11784154255604
 20
23.65953412600791
 30
0.0
 10
10.43831459152528
 20
24.51472776683633
 30
0.0
 10
10.89311099323587
 20
25.30749099114246
 30
0.0
 10
11.5774539387845
 20
25.94811037455524
 30
0.0
 10
12.42294456289052
 20
26.23924586752377
 30
0.0
 10
13.10178237721163
 20
26.2994528779551
 30
0.0
 10
13.28184130189499
 20
26.01632878930689
 30
0.0
  0
SPLINE
  5
A6
330
1F
100
AcDbEntity
  8
4 leg - arm 2d
 62
     7
100
AcDbSpline
210
0.0
220
0.0
230
1.0
 70
     8
 71
     3
 72
     8
 73
     4
 74
     0
 42
0.0000000001
 43
0.0000000001
 40
0.0
 40
0.0
 40
0.0
 40
0.0
 40
1.0
 40
1.0
 40
1.0
 40
1.0
 10
13.28184130189499
 20
26.01632878930689
 30
0.0
 10
13.33962758983855
 20
25.92546581131703
 30
0.0
 10
13.38664312742956
 20
25.75833847529862
 30
0.0
 10
13.40250348508307
 20
25.6494547482395
 30
0.0
  0
SPLINE
  5
A7
330
1F
100
AcDbEntity
  8
4 leg - arm 2d
 62
     7
100
AcDbSpline
210
0.0
220
0.0
230
1.0
 70
     8
 71
     3
 72
    24
 73
    20
 74
     0
 42
0.0000000001
 43
0.0000000001
 40
-17.0
 40
-17.0
 40
-17.0
 40
-17.0
 40
-16.0
 40
-15.0
 40
-14.0
 40
-13.0
 40
-12.0
 40
-11.0
 40
-10.0
 40
-9.0
 40
-8.0
 40
-7.0
 40
-6.0
 40
-5.0
 40
-4.0
 40
-3.0
 40
-2.0
 40
-1.0
 40
0.0
 40
0.0
 40
0.0
 40
0.0
 10
13.40250348508307
 20
25.6494547482395
 30
0.0
 10
13.45726534912068
 20
25.27350636249814
 30
0.0
 10
13.33057999260149
 20
24.52054410086921
 30
0.0
 10
12.99547795216363
 20
23.4406909315669
 30
0.0
 10
12.5674111631989
 20
22.39143240406391
 30
0.0
 10
12.0698393916064
 20
21.37451855295666
 30
0.0
 10
11.50757093036468
 20
20.39171635265035
 30
0.0
 10
10.92218200642469
 20
19.42346462738146
 30
0.0
 10
10.29940648252018
 20
18.47677050068678
 30
0.0
 10
9.572450396552814
 20
17.60795688650094
 30
0.0
 10
8.75211736054488
 20
16.82265275475173
 30
0.0
 10
7.786621517799758
 20
16.22044114941972
 30
0.0
 10
6.732194773245511
 20
15.80053289222378
 30
0.0
 10
5.632962357528918
 20
15.52426775958839
 30
0.0
 10
4.515891979668266
 20
15.3395574208658
 30
0.0
 10
3.391490222559267
 20
15.20854577875535
 30
0.0
 10
2.262565867276946
 20
15.12563539628846
 30
0.0
 10
1.131700977994871
 20
15.07868310533615
 30
0.0
 10
0.377263611875386
 20
15.06466151424756
 30
0.0
 10
0.0
 20
15.06583526516749
 30
0.0
  0
SPLINE
  5
A8
330
1F
100
AcDbEntity
  8
4 leg - arm 2d
 62
     7
100
AcDbSpline
210
0.0
220
0.0
230
1.0
 70
     8
 71
     3
 72
    24
 73
    20
 74
     0
 42
0.0000000001
 43
0.0000000001
 40
0.0
 40
0.0
 40
0.0
 40
0.0
 40
1.0
 40
2.0
 40
3.0
 40
4.0
 40
5.0
 40
6.0
 40
7.0
 40
8.0
 40
9.0
 40
10.0
 40
11.0
 40
12.0
 40
13.0
 40
14.0
 40
15.0
 40
16.0
 40
17.0
 40
17.0
 40
17.0
 40
17.0
 10
0.0
 20
15.06583526516749
 30
0.0
 10
-0.377263611875386
 20
15.06466151424756
 30
0.0
 10
-1.131700977994871
 20
15.07868310533615
 30
0.0
 10
-2.262565867276946
 20
15.12563539628846
 30
0.0
 10
-3.391490222559267
 20
15.20854577875535
 30
0.0
 10
-4.515891979668266
 20
15.3395574208658
 30
0.0
 10
-5.632962357528918
 20
15.52426775958839
 30
0.0
 10
-6.732194773245511
 20
15.80053289222378
 30
0.0
 10
-7.786621517799758
 20
16.22044114941972
 30
0.0
 10
-8.75211736054488
 20
16.82265275475173
 30
0.0
 10
-9.572450396552814
 20
17.60795688650094
 30
0.0
 10
-10.29940648252018
 20
18.47677050068678
 30
0.0
 10
-10.92218200642469
 20
19.42346462738146
 30
0.0
 10
-11.50757093036468
 20
20.39171635265035
 30
0.0
 10
-12.0698393916064
 20
21.37451855295666
 30
0.0
 10
-12.5674111631989
 20
22.39143240406391
 30
0.0
 10
-12.99547795216363
 20
23.4406909315669
 30
0.0
 10
-13.33057999260149
 20
24.52054410086921
 30
0.0
 10
-13.45726534912068
 20
25.27350636249814
 30
0.0
 10
-13.40250348508307
 20
25.6494547482395
 30
0.0
  0
SPLINE
  5
A9
330
1F
100
AcDbEntity
  8
4 leg - arm 2d
 62
     7
100
AcDbSpline
210
0.0
220
0.0
230
1.0
 70
     8
 71
     3
 72
     8
 73
     4
 74
     0
 42
0.0000000001
 43
0.0000000001
 40
-1.0
 40
-1.0
 40
-1.0
 40
-1.0
 40
0.0
 40
0.0
 40
0.0
 40
0.0
 10
-13.40250348508307
 20
25.6494547482395
 30
0.0
 10
-13.38664312742956
 20
25.75833847529862
 30
0.0
 10
-13.33962758983855
 20
25.92546581131703
 30
0.0
 10
-13.28184130189499
 20
26.01632878930689
 30
0.0
  0
SPLINE
  5
AA
330
1F
100
AcDbEntity
  8
4 leg - arm 2d
 62
     7
100
AcDbSpline
210
0.0
220
0.0
230
1.0
 70
     8
 71
     3
 72
    18
 73
    14
 74
     0
 42
0.0000000001
 43
0.0000000001
 40
-11.0
 40
-11.0
 40
-11.0
 40
-11.0
 40
-10.0
 40
-9.0
 40
-8.0
 40
-7.0
 40
-6.0
 40
-5.0
 40
-4.0
 40
-3.0
 40
-2.0
 40
-1.0
 40
0.0
 40
0.0
 40
0.0
 40
0.0
 10
-13.28184130189499
 20
26.01632878930689
 30
0.0
 10
-13.10178237721163
 20
26.2994528779551
 30
0.0
 10
-12.42294456289052
 20
26.23924586752377
 30
0.0
 10
-11.5774539387845
 20
25.94811037455524
 30
0.0
 10
-10.89311099323587
 20
25.30749099114246
 30
0.0
 10
-10.43831459152528
 20
24.51472776683633
 30
0.0
 10
-10.11784154255604
 20
23.65953412600791
 30
0.0
 10
-9.876954266648182
 20
22.78065759893285
 30
0.0
 10
-9.650021977908455
 20
21.89827274919842
 30
0.0
 10
-9.42353979637363
 20
21.01574369312808
 30
0.0
 10
-9.197961793426998
 20
20.13299097985963
 30
0.0
 10
-8.970379603679916
 20
19.25074867127656
 30
0.0
 10
-8.81599278815799
 20
18.66328080710937
 30
0.0
 10
-8.737753314004635
 20
18.36982442436823
 30
0.0
  0
SPLINE
  5
AB
330
1F
100
AcDbEntity
  8
4 leg - arm 2d
 62
     7
100
AcDbSpline
210
0.0
220
0.0
230
1.0
 70
     8
 71
     3
 72
    29
 73
    25
 74
     0
 42
0.0000000001
 43
0.0000000001
 40
0.0
 40
0.0
 40
0.0
 40
0.0
 40
1.0
 40
2.0
 40
3.0
 40
4.0
 40
5.0
 40
6.0
 40
7.0
 40
8.0
 40
9.0
 40
10.0
 40
11.0
 40
12.0
 40
13.0
 40
14.0
 40
15.0
 40
16.0
 40
17.0
 40
18.0
 40
19.0
 40
20.0
 40
21.0
 40
22.0
 40
22.0
 40
22.0
 40
22.0
 10
-0.0000001445755551
 20
50.78161826211074
 30
0.0
 10
0.4541173052550052
 20
50.77955943356038
 30
0.0
 10
1.362180803256119
 20
50.80795204249995
 30
0.0
 10
2.719574114346257
 20
50.93722126383847
 30
0.0
 10
4.056647744910185
 20
51.20673536575131
 30
0.0
 10
5.361874527444674
 20
51.60487749425946
 30
0.0
 10
6.619408376795348
 20
52.12507715686283
 30
0.0
 10
7.741380550011224
 20
52.96482769291242
 30
0.0
 10
8.22202089959666
 20
54.28105826047115
 30
0.0
 10
8.4571432295489
 20
55.61744339471701
 30
0.0
 10
8.550913182603919
 20
56.97962824075113
 30
0.0
 10
8.587398945504434
 20
58.34079034123585
 30
0.0
 10
8.62005356078856
 20
59.70280675784084
 30
0.0
 10
8.634103374895643
 20
61.06511991433738
 30
0.0
 10
8.57065967698307
 20
62.4269266152214
 30
0.0
 10
8.428089666382355
 20
63.78078554856599
 30
0.0
 10
8.234824356548438
 20
65.13422118809777
 30
0.0
 10
7.667845436010083
 20
66.39757282566343
 30
0.0
 10
6.645559659476503
 20
67.33513039633117
 30
0.0
 10
5.405622502272972
 20
67.92147377698348
 30
0.0
 10
4.078481001410149
 20
68.24767625675632
 30
0.0
 10
2.724050307013022
 20
68.40751954377657
 30
0.0
 10
1.362184960972182
 20
68.45825094872978
 30
0.0
 10
0.4540989388088537
 20
68.4683820328977
 30
0.0
 10
-0.0000001445755551
 20
68.46351934106028
 30
0.0
  0
SPLINE
  5
AC
330
1F
100
AcDbEntity
  8
4 leg - arm 2d
 62
     7
100
AcDbSpline
210
0.0
220
0.0
230
1.0
 70
     8
 71
     3
 72
    29
 73
    25
 74
     0
 42
0.0000000001
 43
0.0000000001
 40
-22.0
 40
-22.0
 40
-22.0
 40
-22.0
 40
-21.0
 40
-20.0
 40
-19.0
 40
-18.0
 40
-17.0
 40
-16.0
 40
-15.0
 40
-14.0
 40
-13.0
 40
-12.0
 40
-11.0
 40
-10.0
 40
-9.0
 40
-8.0
 40
-7.0
 40
-6.0
 40
-5.0
 40
-4.0
 40
-3.0
 40
-2.0
 40
-1.0
 40
0.0
 40
0.0
 40
0.0
 40
0.0
 10
-0.0000001445755551
 20
68.46351934106028
 30
0.0
 10
-0.4540992279599639
 20
68.4683820328977
 30
0.0
 10
-1.362185250123293
 20
68.45825094872978
 30
0.0
 10
-2.724050596164132
 20
68.40751954377657
 30
0.0
 10
-4.07848129056126
 20
68.24767625675632
 30
0.0
 10
-5.405622791424082
 20
67.92147377698348
 30
0.0
 10
-6.645559948627613
 20
67.33513039633117
 30
0.0
 10
-7.667845725161193
 20
66.39757282566343
 30
0.0
 10
-8.234824645699549
 20
65.13422118809777
 30
0.0
 10
-8.428089955533466
 20
63.78078554856599
 30
0.0
 10
-8.57065996613418
 20
62.4269266152214
 30
0.0
 10
-8.634103664046753
 20
61.06511991433738
 30
0.0
 10
-8.620053849939671
 20
59.70280675784084
 30
0.0
 10
-8.587399234655544
 20
58.34079034123585
 30
0.0
 10
-8.55091347175503
 20
56.97962824075113
 30
0.0
 10
-8.45714351870001
 20
55.61744339471701
 30
0.0
 10
-8.222021188747771
 20
54.28105826047115
 30
0.0
 10
-7.741380839162334
 20
52.96482769291242
 30
0.0
 10
-6.619408665946458
 20
52.12507715686283
 30
0.0
 10
-5.361874816595784
 20
51.60487749425946
 30
0.0
 10
-4.056648034061295
 20
51.20673536575131
 30
0.0
 10
-2.719574403497367
 20
50.93722126383847
 30
0.0
 10
-1.362181092407229
 20
50.80795204249995
 30
0.0
 10
-0.4541175944061153
 20
50.77955943356038
 30
0.0
 10
-0.0000001445755551
 20
50.78161826211074
 30
0.0
  0
SPLINE
  5
AD
330
1F
100
AcDbEntity
  8
4 leg - arm 2d
 62
     7
100
AcDbSpline
210
0.0
220
0.0
230
1.0
 70
     8
 71
     3
 72
    44
 73
    40
 74
     0
 42
0.0000000001
 43
0.0000000001
 40
0.0
 40
0.0
 40
0.0
 40
0.0
 40
1.0
 40
2.0
 40
3.0
 40
4.0
 40
5.0
 40
6.0
 40
7.0
 40
8.0
 40
9.0
 40
10.0
 40
11.0
 40
12.0
 40
13.0
 40
14.0
 40
15.0
 40
16.0
 40
17.0
 40
18.0
 40
19.0
 40
20.0
 40
21.0
 40
22.0
 40
23.0
 40
24.0
 40
25.0
 40
26.0
 40
27.0
 40
28.0
 40
29.0
 40
30.0
 40
31.0
 40
32.0
 40
33.0
 40
34.0
 40
35.0
 40
36.0
 40
37.0
 40
37.0
 40
37.0
 40
37.0
 10
-0.0000001445755551
 20
50.46359782622011
 30
0.0
 10
0.3825280513065172
 20
50.46174402152487
 30
0.0
 10
1.147691543679177
 20
50.46542355485217
 30
0.0
 10
2.294612282279722
 20
50.51078551376808
 30
0.0
 10
3.438745315514122
 20
50.60464836267843
 30
0.0
 10
4.57617234688612
 20
50.76046988902488
 30
0.0
 10
5.701668916489962
 20
50.98962907762174
 30
0.0
 10
6.800227544110346
 20
51.32720759661874
 30
0.0
 10
7.857295607332759
 20
51.77622164093856
 30
0.0
 10
8.87556472167822
 20
52.31151987313912
 30
0.0
 10
9.77768869564077
 20
53.02774116179832
 30
0.0
 10
10.59725413517826
 20
53.83222314670065
 30
0.0
 10
11.30299071267933
 20
54.74041165960945
 30
0.0
 10
11.93389654417367
 20
55.69937192526304
 30
0.0
 10
12.46947414681376
 20
56.71723446162836
 30
0.0
 10
12.85198565247363
 20
57.80132998521585
 30
0.0
 10
13.14672632133691
 20
58.91115572127589
 30
0.0
 10
13.34659236171896
 20
60.04249573443997
 30
0.0
 10
13.43603200941683
 20
61.18807482968005
 30
0.0
 10
13.41870015289716
 20
62.33641507261631
 30
0.0
 10
13.33069864362064
 20
63.48102965349938
 30
0.0
 10
13.17894582526858
 20
64.61904490058325
 30
0.0
 10
12.96779705314506
 20
65.74746095458258
 30
0.0
 10
12.69349513163677
 20
66.86238069334622
 30
0.0
 10
12.34648335984738
 20
67.95695437779817
 30
0.0
 10
11.92820520770914
 20
69.02631012671345
 30
0.0
 10
11.4459803960693
 20
70.06810803647049
 30
0.0
 10
10.89930168212441
 20
71.07839172109654
 30
0.0
 10
10.30693593177787
 20
72.05887095160877
 30
0.0
 10
9.694552074314071
 20
73.03763290785307
 30
0.0
 10
8.856969365110293
 20
73.83039490744086
 30
0.0
 10
7.843349057310413
 20
74.38537212291328
 30
0.0
 10
6.772518542631428
 20
74.79867521688463
 30
0.0
 10
5.672369043796889
 20
75.1282802910982
 30
0.0
 10
4.557373403906386
 20
75.40108189875335
 30
0.0
 10
3.429234081717599
 20
75.61393525579257
 30
0.0
 10
2.291878855133217
 20
75.76986599689344
 30
0.0
 10
1.147641109653951
 20
75.86355563572451
 30
0.0
 10
0.382538473100876
 20
75.88375801536444
 30
0.0
 10
-0.0000001445755711
 20
75.88351765504707
 30
0.0
  0
SPLINE
  5
AE
330
1F
100
AcDbEntity
  8
4 leg - arm 2d
 62
     7
100
AcDbSpline
210
0.0
220
0.0
230
1.0
 70
     8
 71
     3
 72
    44
 73
    40
 74
     0
 42
0.0000000001
 43
0.0000000001
 40
-37.0
 40
-37.0
 40
-37.0
 40
-37.0
 40
-36.0
 40
-35.0
 40
-34.0
 40
-33.0
 40
-32.0
 40
-31.0
 40
-30.0
 40
-29.0
 40
-28.0
 40
-27.0
 40
-26.0
 40
-25.0
 40
-24.0
 40
-23.0
 40
-22.0
 40
-21.0
 40
-20.0
 40
-19.0
 40
-18.0
 40
-17.0
 40
-16.0
 40
-15.0
 40
-14.0
 40
-13.0
 40
-12.0
 40
-11.0
 40
-10.0
 40
-9.0
 40
-8.0
 40
-7.0
 40
-6.0
 40
-5.0
 40
-4.0
 40
-3.0
 40
-2.0
 40
-1.0
 40
0.0
 40
0.0
 40
0.0
 40
0.0
 10
-0.0000001445755391
 20
75.88351765504707
 30
0.0
 10
-0.3825387622519861
 20
75.88375801536444
 30
0.0
 10
-1.147641398805061
 20
75.86355563572451
 30
0.0
 10
-2.291879144284327
 20
75.76986599689344
 30
0.0
 10
-3.42923437086871
 20
75.61393525579257
 30
0.0
 10
-4.557373693057496
 20
75.40108189875335
 30
0.0
 10
-5.672369332947999
 20
75.1282802910982
 30
0.0
 10
-6.772518831782539
 20
74.79867521688463
 30
0.0
 10
-7.843349346461523
 20
74.38537212291328
 30
0.0
 10
-8.856969654261404
 20
73.83039490744086
 30
0.0
 10
-9.694552363465181
 20
73.03763290785307
 30
0.0
 10
-10.30693622092898
 20
72.05887095160877
 30
0.0
 10
-10.89930197127552
 20
71.07839172109654
 30
0.0
 10
-11.44598068522041
 20
70.06810803647049
 30
0.0
 10
-11.92820549686025
 20
69.02631012671345
 30
0.0
 10
-12.34648364899849
 20
67.95695437779817
 30
0.0
 10
-12.69349542078788
 20
66.86238069334622
 30
0.0
 10
-12.96779734229617
 20
65.74746095458258
 30
0.0
 10
-13.17894611441969
 20
64.61904490058325
 30
0.0
 10
-13.33069893277175
 20
63.48102965349938
 30
0.0
 10
-13.41870044204827
 20
62.33641507261631
 30
0.0
 10
-13.43603229856794
 20
61.18807482968005
 30
0.0
 10
-13.34659265087007
 20
60.04249573443997
 30
0.0
 10
-13.14672661048802
 20
58.91115572127589
 30
0.0
 10
-12.85198594162474
 20
57.80132998521585
 30
0.0
 10
-12.46947443596487
 20
56.71723446162836
 30
0.0
 10
-11.93389683332478
 20
55.69937192526304
 30
0.0
 10
-11.30299100183044
 20
54.74041165960945
 30
0.0
 10
-10.59725442432937
 20
53.83222314670065
 30
0.0
 10
-9.77768898479188
 20
53.02774116179832
 30
0.0
 10
-8.87556501082933
 20
52.31151987313912
 30
0.0
 10
-7.857295896483869
 20
51.77622164093856
 30
0.0
 10
-6.800227833261456
 20
51.32720759661874
 30
0.0
 10
-5.701669205641072
 20
50.98962907762174
 30
0.0
 10
-4.576172636037231
 20
50.76046988902488
 30
0.0
 10
-3.438745604665232
 20
50.60464836267843
 30
0.0
 10
-2.294612571430832
 20
50.51078551376808
 30
0.0
 10
-1.147691832830287
 20
50.46542355485217
 30
0.0
 10
-0.3825283404576273
 20
50.46174402152487
 30
0.0
 10
-0.0000001445755551
 20
50.46359782622011
 30
0.0
  0
SPLINE
  5
AF
330
1F
100
AcDbEntity
  8
4 leg - arm 2d
 62
     7
100
AcDbSpline
210
0.0
220
0.0
230
1.0
 70
     8
 71
     3
 72
     8
 73
     4
 74
     0
 42
0.0000000001
 43
0.0000000001
 40
6.436178449493866
 40
6.436178449493866
 40
6.436178449493866
 40
6.436178449493866
 40
6.902263876957228
 40
6.902263876957228
 40
6.902263876957228
 40
6.902263876957228
 10
38.24430028147836
 20
14.5601158077561
 30
0.0
 10
38.68953201119697
 20
14.36666365422561
 30
0.0
 10
39.15016069712021
 20
14.2089622384277
 30
0.0
 10
39.61937180666059
 20
14.08800583838179
 30
0.0
  0
SPLINE
  5
B0
330
1F
100
AcDbEntity
  8
4 leg - arm 2d
 62
     7
100
AcDbSpline
210
0.0
220
0.0
230
1.0
 70
     8
 71
     3
 72
     9
 73
     5
 74
     0
 42
0.0000000001
 43
0.0000000001
 40
7.889644923771392
 40
7.889644923771392
 40
7.889644923771392
 40
7.889644923771392
 40
8.0
 40
8.204926083459632
 40
8.204926083459632
 40
8.204926083459632
 40
8.204926083459632
 10
42.67381521805947
 20
13.72538273908715
 30
0.0
 10
42.78896742565629
 20
13.72249672063221
 30
0.0
 10
43.11796904118844
 20
13.71616270021772
 30
0.0
 10
43.44661342441393
 20
13.71386891318202
 30
0.0
 10
43.66010749729794
 20
13.71388884694518
 30
0.0
  0
SPLINE
  5
B1
330
1F
100
AcDbEntity
  8
4 leg - arm 2d
 62
     7
100
AcDbSpline
210
0.0
220
0.0
230
1.0
 70
     8
 71
     3
 72
     9
 73
     5
 74
     0
 42
0.0000000001
 43
0.0000000001
 40
9.644000323425196
 40
9.644000323425196
 40
9.644000323425196
 40
9.644000323425196
 40
10.0
 40
10.28312868009528
 40
10.28312868009528
 40
10.28312868009528
 40
10.28312868009528
 10
48.15009074817218
 20
13.87836006735317
 30
0.0
 10
48.51995487964929
 20
13.90311877390093
 30
0.0
 10
49.18362186544505
 20
13.95291581562266
 30
0.0
 10
49.84624976199774
 20
14.01358642074107
 30
0.0
 10
50.13950124541149
 20
14.04311867137942
 30
0.0
  0
SPLINE
  5
B2
330
1F
100
AcDbEntity
  8
4 leg - arm 2d
 62
     7
100
AcDbSpline
210
0.0
220
0.0
230
1.0
 70
     8
 71
     3
 72
     9
 73
     5
 74
     0
 42
0.0000000001
 43
0.0000000001
 40
10.52802013796965
 40
10.52802013796965
 40
10.52802013796965
 40
10.52802013796965
 40
11.0
 40
12.0
 40
12.0
 40
12.0
 40
12.0
 10
50.89974391753553
 20
14.12604826146686
 30
0.0
 10
51.38766613747415
 20
14.183588065121
 30
0.0
 10
52.90625088171733
 20
14.38996718280401
 30
0.0
 10
54.41136306105047
 20
14.703839013899
 30
0.0
 10
55.38968768650923
 20
15.06583689480381
 30
0.0
  0
SPLINE
  5
B3
330
1F
100
AcDbEntity
  8
4 leg - arm 2d
 62
     7
100
AcDbSpline
210
0.0
220
0.0
230
1.0
 70
     8
 71
     3
 72
    10
 73
     6
 74
     0
 42
0.0000000001
 43
0.0000000001
 40
0.0
 40
0.0
 40
0.0
 40
0.0
 40
1.0
 40
2.0
 40
3.0
 40
3.0
 40
3.0
 40
3.0
 10
55.38968768650923
 20
15.06583689480381
 30
0.0
 10
55.49289473957084
 20
15.10578084523488
 30
0.0
 10
55.68653653500406
 20
15.23751381317955
 30
0.0
 10
55.7954580252094
 20
15.57518747396434
 30
0.0
 10
55.69018412882004
 20
15.79100859495645
 30
0.0
 10
55.61352655984639
 20
15.87075402351357
 30
0.0
  0
SPLINE
  5
B4
330
1F
100
AcDbEntity
  8
4 leg - arm 2d
 62
     7
100
AcDbSpline
210
0.0
220
0.0
230
1.0
 70
     8
 71
     3
 72
    34
 73
    30
 74
     0
 42
0.0000000001
 43
0.0000000001
 40
-27.0
 40
-27.0
 40
-27.0
 40
-27.0
 40
-26.0
 40
-25.0
 40
-24.0
 40
-23.0
 40
-22.0
 40
-21.0
 40
-20.0
 40
-19.0
 40
-18.0
 40
-17.0
 40
-16.0
 40
-15.0
 40
-14.0
 40
-13.0
 40
-12.0
 40
-11.0
 40
-10.0
 40
-9.0
 40
-8.0
 40
-7.0
 40
-6.0
 40
-5.0
 40
-4.0
 40
-3.0
 40
-2.0
 40
-1.0
 40
0.0
 40
0.0
 40
0.0
 40
0.0
 10
55.61352655984639
 20
15.87075402351357
 30
0.0
 10
55.31617581763649
 20
16.12038336815544
 30
0.0
 10
54.67186285720483
 20
16.5664018448311
 30
0.0
 10
53.90284866365403
 20
17.45298369987544
 30
0.0
 10
53.19852924580324
 20
18.38311622605924
 30
0.0
 10
52.51355287705967
 20
19.32948402579496
 30
0.0
 10
51.79020471805839
 20
20.2466958560088
 30
0.0
 10
51.03920230292519
 20
21.14133981480397
 30
0.0
 10
50.24431804942405
 20
21.99766457387185
 30
0.0
 10
49.40705141820138
 20
22.81228104233686
 30
0.0
 10
48.52417696624634
 20
23.5777822116949
 30
0.0
 10
47.59575145908227
 20
24.28754336380345
 30
0.0
 10
46.60585248293317
 20
24.90960910125816
 30
0.0
 10
45.56918121995758
 20
25.44987239902528
 30
0.0
 10
44.47953331322758
 20
25.87635786702863
 30
0.0
 10
43.34612774274507
 20
26.16617982561717
 30
0.0
 10
42.19044782799205
 20
26.34039358019039
 30
0.0
 10
41.02919547833683
 20
26.46375404281996
 30
0.0
 10
39.86580200801559
 20
26.57259494163667
 30
0.0
 10
38.71022538061285
 20
26.73315989163954
 30
0.0
 10
37.57022499891774
 20
27.03012875953719
 30
0.0
 10
36.56531040403589
 20
27.64207776130208
 30
0.0
 10
35.69208210992819
 20
28.4254611215922
 30
0.0
 10
34.99272980650868
 20
29.36347308870382
 30
0.0
 10
34.3558983831963
 20
30.34302384343862
 30
0.0
 10
33.73386545074966
 20
31.32945499925875
 30
0.0
 10
32.97203877579979
 20
32.23286050782536
 30
0.0
 10
31.90894183251778
 20
32.7800126210153
 30
0.0
 10
31.10094353734472
 20
32.6349901435261
 30
0.0
 10
30.71778527480228
 20
32.60563943896038
 30
0.0
  0
SPLINE
  5
B5
330
1F
100
AcDbEntity
  8
4 leg - arm 2d
 62
     7
100
AcDbSpline
210
0.0
220
0.0
230
1.0
 70
     8
 71
     3
 72
     8
 73
     4
 74
     0
 42
0.0000000001
 43
0.0000000001
 40
0.0
 40
0.0
 40
0.0
 40
0.0
 40
1.0
 40
1.0
 40
1.0
 40
1.0
 10
30.71778527480228
 20
32.60563943896038
 30
0.0
 10
30.44407856185914
 20
32.58467294637859
 30
0.0
 10
30.32247491641085
 20
32.40620709309059
 30
0.0
 10
30.33260236122177
 20
32.12136769387737
 30
0.0
  0
SPLINE
  5
B6
330
1F
100
AcDbEntity
  8
4 leg - arm 2d
 62
     7
100
AcDbSpline
210
0.0
220
0.0
230
1.0
 70
     8
 71
     3
 72
    14
 73
    10
 74
     0
 42
0.0000000001
 43
0.0000000001
 40
0.0
 40
0.0
 40
0.0
 40
0.0
 40
1.0
 40
2.0
 40
3.0
 40
4.0
 40
5.0
 40
6.0
 40
6.196331614891029
 40
6.196331614891029
 40
6.196331614891029
 40
6.196331614891029
 10
30.33260236122177
 20
32.12136769387737
 30
0.0
 10
30.3696387365441
 20
31.07970130192856
 30
0.0
 10
30.68022486142307
 20
29.01715378954377
 30
0.0
 10
31.35678318340027
 20
25.96728021038011
 30
0.0
 10
32.18654865025871
 20
22.95580111252375
 30
0.0
 10
33.1476544088371
 20
19.9811261355704
 30
0.0
 10
34.59894662839405
 20
17.18718548406065
 30
0.0
 10
36.31294203239123
 20
15.61232378488361
 30
0.0
 10
37.39000207119597
 20
14.98390959028937
 30
0.0
 10
37.57011412189753
 20
14.88703247151716
 30
0.0
  0
SPLINE
  5
B7
330
1F
100
AcDbEntity
  8
4 leg - arm 2d
 62
     7
100
AcDbSpline
210
0.0
220
0.0
230
1.0
 70
     8
 71
     3
 72
    12
 73
     8
 74
     0
 42
0.0000000001
 43
0.0000000001
 40
-7.0
 40
-7.0
 40
-7.0
 40
-7.0
 40
-6.0
 40
-5.0
 40
-4.0
 40
-3.0
 40
-2.112119903483673
 40
-2.112119903483673
 40
-2.112119903483673
 40
-2.112119903483673
 10
-13.35483928056107
 20
24.75074671736353
 30
0.0
 10
-13.22705812985037
 20
23.96526458425808
 30
0.0
 10
-12.88378843732978
 20
22.4102516126739
 30
0.0
 10
-12.1211646869457
 20
20.14112367069326
 30
0.0
 10
-10.99954012608572
 20
18.02863557372586
 30
0.0
 10
-9.538125385445392
 20
16.21976849400684
 30
0.0
 10
-8.231013622993503
 20
15.45010740612611
 30
0.0
 10
-7.590745583568371
 20
15.14407574825407
 30
0.0
  0
SPLINE
  5
B8
330
1F
100
AcDbEntity
  8
4 leg - arm 2d
 62
     7
100
AcDbSpline
210
0.0
220
0.0
230
1.0
 70
     8
 71
     3
 72
    12
 73
     8
 74
     0
 42
0.0000000001
 43
0.0000000001
 40
2.112119903483676
 40
2.112119903483676
 40
2.112119903483676
 40
2.112119903483676
 40
3.0
 40
4.0
 40
5.0
 40
6.0
 40
7.0
 40
7.0
 40
7.0
 40
7.0
 10
7.590745583568378
 20
15.14407574825407
 30
0.0
 10
8.231013622993508
 20
15.45010740612612
 30
0.0
 10
9.538125385445394
 20
16.21976849400685
 30
0.0
 10
10.99954012608572
 20
18.02863557372586
 30
0.0
 10
12.1211646869457
 20
20.14112367069326
 30
0.0
 10
12.88378843732978
 20
22.4102516126739
 30
0.0
 10
13.22705812985037
 20
23.96526458425808
 30
0.0
 10
13.35483928056107
 20
24.75074671736353
 30
0.0
  0
ARC
  5
B9
330
1F
100
AcDbEntity
  8
4 leg - arm 2d
 62
     7
100
AcDbCircle
 10
-9.994256568286119
 20
53.41184479217947
 30
0.0
 40
0.3751324112693692
100
AcDbArc
 50
153.171174106134
 51
299.2127312668206
  0
ARC
  5
BA
330
1F
100
AcDbEntity
  8
4 leg - arm 2d
 62
     7
100
AcDbCircle
 10
9.994256568286119
 20
53.41184479217947
 30
0.0
 40
0.3751324112693692
100
AcDbArc
 50
240.7872376085031
 51
26.82885948062874
  0
ENDSEC
  0
SECTION
  2
OBJECTS
  0
DICTIONARY
  5
C
330
0
100
AcDbDictionary
281
     1
  3
ACAD_GROUP
350
D
  3
ACAD_LAYOUT
350
1A
  3
ACAD_MLEADERSTYLE
350
BC
  3
ACAD_MLINESTYLE
350
17
  3
ACAD_PLOTSETTINGS
350
19
  3
ACAD_PLOTSTYLENAME
350
E
  3
ACAD_TABLESTYLE
350
BB
  3
ACAD_VISUALSTYLE
350
2A
  0
DICTIONARY
  5
D
102
{ACAD_REACTORS
330
C
102
}
330
C
100
AcDbDictionary
281
     1
  0
DICTIONARY
  5
1A
102
{ACAD_REACTORS
330
C
102
}
330
C
100
AcDbDictionary
281
     1
  3
Layout1
350
1E
  3
Layout2
350
26
  3
Model
350
22
  0
DICTIONARY
  5
BC
102
{ACAD_REACTORS
330
C
102
}
330
C
100
AcDbDictionary
281
     1
  0
DICTIONARY
  5
17
102
{ACAD_REACTORS
330
C
102
}
330
C
100
AcDbDictionary
281
     1
  3
Standard
350
18
  0
DICTIONARY
  5
19
102
{ACAD_REACTORS
330
C
102
}
330
C
100
AcDbDictionary
281
     1
  0
ACDBDICTIONARYWDFLT
  5
E
102
{ACAD_REACTORS
330
C
102
}
330
C
100
AcDbDictionary
281
     1
  3
Normal
350
F
100
AcDbDictionaryWithDefault
340
F
  0
DICTIONARY
  5
BB
102
{ACAD_REACTORS
330
C
102
}
330
C
100
AcDbDictionary
281
     1
  0
DICTIONARY
  5
2A
102
{ACAD_REACTORS
330
C
102
}
330
C
100
AcDbDictionary
281
     1
  3
2dWireframe
350
2F
  3
3D Hidden
350
31
  3
3dWireframe
350
30
  3
Basic
350
32
  3
Brighten
350
36
  3
ColorChange
350
3A
  3
Conceptual
350
34
  3
Dim
350
35
  3
Facepattern
350
39
  3
Flat
350
2B
  3
FlatWithEdges
350
2C
  3
Gouraud
350
2D
  3
GouraudWithEdges
350
2E
  3
Linepattern
350
38
  3
Realistic
350
33
  3
Thicken
350
37
  0
LAYOUT
  5
1E
102
{ACAD_REACTORS
330
1A
102
}
330
1A
100
AcDbPlotSettings
  1

  2
none_device
  4

  6

 40
0.0
 41
0.0
 42
0.0
 43
0.0
 44
0.0
 45
0.0
 46
0.0
 47
0.0
 48
0.0
 49
0.0
140
0.0
141
0.0
142
1.0
143
1.0
 70
   688
 72
     0
 73
     0
 74
     5
  7

 75
    16
 76
     0
 77
     2
 78
   300
147
1.0
148
0.0
149
0.0
100
AcDbLayout
  1
Layout1
 70
     1
 71
     1
 10
0.0
 20
0.0
 11
12.0
 21
9.0
 12
0.0
 22
0.0
 32
0.0
 14
1.000000000000000E+20
 24
1.000000000000000E+20
 34
1.000000000000000E+20
 15
-1.000000000000000E+20
 25
-1.000000000000000E+20
 35
-1.000000000000000E+20
146
0.0
 13
0.0
 23
0.0
 33
0.0
 16
1.0
 26
0.0
 36
0.0
 17
0.0
 27
1.0
 37
0.0
 76
     0
330
1B
  0
LAYOUT
  5
26
102
{ACAD_REACTORS
330
1A
102
}
330
1A
100
AcDbPlotSettings
  1

  2
none_device
  4

  6

 40
0.0
 41
0.0
 42
0.0
 43
0.0
 44
0.0
 45
0.0
 46
0.0
 47
0.0
 48
0.0
 49
0.0
140
0.0
141
0.0
142
1.0
143
1.0
 70
   688
 72
     0
 73
     0
 74
     5
  7

 75
    16
 76
     0
 77
     2
 78
   300
147
1.0
148
0.0
149
0.0
100
AcDbLayout
  1
Layout2
 70
     1
 71
     2
 10
0.0
 20
0.0
 11
0.0
 21
0.0
 12
0.0
 22
0.0
 32
0.0
 14
0.0
 24
0.0
 34
0.0
 15
0.0
 25
0.0
 35
0.0
146
0.0
 13
0.0
 23
0.0
 33
0.0
 16
1.0
 26
0.0
 36
0.0
 17
0.0
 27
1.0
 37
0.0
 76
     0
330
23
  0
LAYOUT
  5
22
102
{ACAD_REACTORS
330
1A
102
}
330
1A
100
AcDbPlotSettings
  1

  2
none_device
  4

  6

 40
0.0
 41
0.0
 42
0.0
 43
0.0
 44
0.0
 45
0.0
 46
0.0
 47
0.0
 48
0.0
 49
0.0
140
0.0
141
0.0
142
1.0
143
1.0
 70
  1712
 72
     0
 73
     0
 74
     0
  7

 75
     0
 76
     0
 77
     2
 78
   300
147
1.0
148
0.0
149
0.0
100
AcDbLayout
  1
Model
 70
     1
 71
     0
 10
0.0
 20
0.0
 11
12.0
 21
9.0
 12
0.0
 22
0.0
 32
0.0
 14
-13.41823704786502
 24
-0.000388641260708
 34
0.0
 15
55.75098596941117
 25
75.88351765504716
 35
0.0
146
0.0
 13
0.0
 23
0.0
 33
0.0
 16
1.0
 26
0.0
 36
0.0
 17
0.0
 27
1.0
 37
0.0
 76
     0
330
1F
331
29
  0
MLINESTYLE
  5
18
102
{ACAD_REACTORS
330
17
102
}
330
17
100
AcDbMlineStyle
  2
Standard
 70
     0
  3

 62
   256
 51
90.0
 52
90.0
 71
     2
 49
0.5
 62
   256
  6
BYLAYER
 49
-0.5
 62
   256
  6
BYLAYER
  0
ACDBPLACEHOLDER
  5
F
102
{ACAD_REACTORS
330
E
102
}
330
E
  0
VISUALSTYLE
  5
2F
102
{ACAD_REACTORS
330
2A
102
}
330
2A
100
AcDbVisualStyle
  2
2dWireframe
 70
     4
 71
     0
 72
     2
 73
     0
 90
        0
 40
-0.6
 41
-30.0
 62
     5
 63
     7
421
 16777215
 74
     1
 91
        4
 64
     7
 65
   257
 75
     1
175
     1
 42
1.0
 92
        0
 66
   257
 43
1.0
 76
     1
 77
     6
 78
     2
 67
     7
 79
     5
170
     0
171
     0
290
     0
174
     0
 93
        1
 44
0.0
173
     0
291
     0
 45
0.0
1001
ACAD
1000
AcDbSavedByObjectVersion
1070
     0
  0
VISUALSTYLE
  5
31
102
{ACAD_REACTORS
330
2A
102
}
330
2A
100
AcDbVisualStyle
  2
3D Hidden
 70
     6
 71
     1
 72
     2
 73
     2
 90
        0
 40
-0.6
 41
-30.0
 62
     5
 63
     7
421
 16777215
 74
     2
 91
        2
 64
     7
 65
   257
 75
     2
175
     1
 42
40.0
 92
        0
 66
   257
 43
1.0
 76
     1
 77
     6
 78
     2
 67
     7
 79
     3
170
     0
171
     0
290
     0
174
     0
 93
        1
 44
0.0
173
     0
291
     0
 45
0.0
1001
ACAD
1000
AcDbSavedByObjectVersion
1070
     0
  0
VISUALSTYLE
  5
30
102
{ACAD_REACTORS
330
2A
102
}
330
2A
100
AcDbVisualStyle
  2
3dWireframe
 70
     5
 71
     0
 72
     2
 73
     0
 90
        0
 40
-0.6
 41
-30.0
 62
     5
 63
     7
421
 16777215
 74
     1
 91
        4
 64
     7
 65
   257
 75
     1
175
     1
 42
1.0
 92
        0
 66
   257
 43
1.0
 76
     1
 77
     6
 78
     2
 67
     7
 79
     5
170
     0
171
     0
290
     0
174
     0
 93
        1
 44
0.0
173
     0
291
     0
 45
0.0
1001
ACAD
1000
AcDbSavedByObjectVersion
1070
     0
  0
VISUALSTYLE
  5
32
102
{ACAD_REACTORS
330
2A
102
}
330
2A
100
AcDbVisualStyle
  2
Basic
 70
     7
 71
     1
 72
     0
 73
     1
 90
        0
 40
-0.6
 41
-30.0
 62
     5
 63
     7
421
 16777215
 74
     0
 91
        4
 64
     7
 65
   257
 75
     1
175
     1
 42
1.0
 92
        8
 66
     7
 43
1.0
 76
     1
 77
     6
 78
     2
 67
     7
 79
     5
170
     0
171
     0
290
     0
174
     0
 93
        1
 44
0.0
173
     0
291
     1
 45
0.0
1001
ACAD
1000
AcDbSavedByObjectVersion
1070
     0
  0
VISUALSTYLE
  5
36
102
{ACAD_REACTORS
330
2A
102
}
330
2A
100
AcDbVisualStyle
  2
Brighten
 70
    12
 71
     2
 72
     2
 73
     0
 90
        0
 40
-0.6
 41
-30.0
 62
     5
 63
     7
421
 16777215
 74
     1
 91
        4
 64
     7
 65
   257
 75
     1
175
     1
 42
1.0
 92
        8
 66
     7
 43
1.0
 76
     1
 77
     6
 78
     2
 67
     7
 79
     5
170
     0
171
     0
290
     0
174
     0
 93
        1
 44
50.0
173
     0
291
     1
 45
0.0
1001
ACAD
1000
AcDbSavedByObjectVersion
1070
     0
  0
VISUALSTYLE
  5
3A
102
{ACAD_REACTORS
330
2A
102
}
330
2A
100
AcDbVisualStyle
  2
ColorChange
 70
    16
 71
     2
 72
     2
 73
     3
 90
        0
 40
-0.6
 41
-30.0
 62
     5
 63
     8
421
  8421504
 74
     1
 91
        4
 64
     7
 65
   257
 75
     1
175
     1
 42
1.0
 92
        8
 66
     8
424
  8421504
 43
1.0
 76
     1
 77
     6
 78
     2
 67
     7
 79
     5
170
     0
171
     0
290
     0
174
     0
 93
        1
 44
0.0
173
     0
291
     1
 45
0.0
1001
ACAD
1000
AcDbSavedByObjectVersion
1070
     0
  0
VISUALSTYLE
  5
34
102
{ACAD_REACTORS
330
2A
102
}
330
2A
100
AcDbVisualStyle
  2
Conceptual
 70
     9
 71
     3
 72
     2
 73
     0
 90
        0
 40
-0.6
 41
-30.0
 62
     5
 63
     7
421
 16777215
 74
     2
 91
        2
 64
     7
 65
   257
 75
     1
175
     1
 42
40.0
 92
        8
 66
     7
 43
1.0
 76
     1
 77
     6
 78
     2
 67
     7
 79
     3
170
     0
171
     0
290
     0
174
     0
 93
        1
 44
0.0
173
     0
291
     0
 45
0.0
1001
ACAD
1000
AcDbSavedByObjectVersion
1070
     0
  0
VISUALSTYLE
  5
35
102
{ACAD_REACTORS
330
2A
102
}
330
2A
100
AcDbVisualStyle
  2
Dim
 70
    11
 71
     2
 72
     2
 73
     0
 90
        0
 40
-0.6
 41
-30.0
 62
     5
 63
     7
421
 16777215
 74
     1
 91
        4
 64
     7
 65
   257
 75
     1
175
     1
 42
1.0
 92
        8
 66
     7
 43
1.0
 76
     1
 77
     6
 78
     2
 67
     7
 79
     5
170
     0
171
     0
290
     0
174
     0
 93
        1
 44
-50.0
173
     0
291
     1
 45
0.0
1001
ACAD
1000
AcDbSavedByObjectVersion
1070
     0
  0
VISUALSTYLE
  5
39
102
{ACAD_REACTORS
330
2A
102
}
330
2A
100
AcDbVisualStyle
  2
Facepattern
 70
    15
 71
     2
 72
     2
 73
     0
 90
        0
 40
-0.6
 41
-30.0
 62
     5
 63
     7
421
 16777215
 74
     1
 91
        4
 64
     7
 65
   257
 75
     1
175
     1
 42
1.0
 92
        8
 66
     7
 43
1.0
 76
     1
 77
     6
 78
     2
 67
     7
 79
     5
170
     0
171
     0
290
     0
174
     0
 93
        1
 44
0.0
173
     0
291
     1
 45
0.0
1001
ACAD
1000
AcDbSavedByObjectVersion
1070
     0
  0
VISUALSTYLE
  5
2B
102
{ACAD_REACTORS
330
2A
102
}
330
2A
100
AcDbVisualStyle
  2
Flat
 70
     0
 71
     2
 72
     1
 73
     1
 90
        2
 40
-0.6
 41
30.0
 62
     5
 63
     7
421
 16777215
 74
     0
 91
        4
 64
     7
 65
   257
 75
     1
175
     1
 42
1.0
 92
        8
 66
     7
 43
1.0
 76
     1
 77
     6
 78
     2
 67
     7
 79
     5
170
     0
171
     0
290
     0
174
     0
 93
       13
 44
0.0
173
     0
291
     1
 45
0.0
1001
ACAD
1000
AcDbSavedByObjectVersion
1070
     0
  0
VISUALSTYLE
  5
2C
102
{ACAD_REACTORS
330
2A
102
}
330
2A
100
AcDbVisualStyle
  2
FlatWithEdges
 70
     1
 71
     2
 72
     1
 73
     1
 90
        2
 40
-0.6
 41
30.0
 62
     5
 63
     7
421
 16777215
 74
     1
 91
        4
 64
     7
 65
   257
 75
     1
175
     1
 42
1.0
 92
        0
 66
   257
 43
1.0
 76
     1
 77
     6
 78
     2
 67
     7
 79
     5
170
     0
171
     0
290
     0
174
     0
 93
       13
 44
0.0
173
     0
291
     1
 45
0.0
1001
ACAD
1000
AcDbSavedByObjectVersion
1070
     0
  0
VISUALSTYLE
  5
2D
102
{ACAD_REACTORS
330
2A
102
}
330
2A
100
AcDbVisualStyle
  2
Gouraud
 70
     2
 71
     2
 72
     2
 73
     1
 90
        2
 40
-0.6
 41
30.0
 62
     5
 63
     7
421
 16777215
 74
     0
 91
        4
 64
     7
 65
   257
 75
     1
175
     1
 42
1.0
 92
        0
 66
     7
 43
1.0
 76
     1
 77
     6
 78
     2
 67
     7
 79
     5
170
     0
171
     0
290
     0
174
     0
 93
       13
 44
0.0
173
     0
291
     1
 45
0.0
1001
ACAD
1000
AcDbSavedByObjectVersion
1070
     0
  0
VISUALSTYLE
  5
2E
102
{ACAD_REACTORS
330
2A
102
}
330
2A
100
AcDbVisualStyle
  2
GouraudWithEdges
 70
     3
 71
     2
 72
     2
 73
     1
 90
        2
 40
-0.6
 41
30.0
 62
     5
 63
     7
421
 16777215
 74
     1
 91
        4
 64
     7
 65
   257
 75
     1
175
     1
 42
1.0
 92
        0
 66
   257
 43
1.0
 76
     1
 77
     6
 78
     2
 67
     7
 79
     5
170
     0
171
     0
290
     0
174
     0
 93
       13
 44
0.0
173
     0
291
     1
 45
0.0
1001
ACAD
1000
AcDbSavedByObjectVersion
1070
     0
  0
VISUALSTYLE
  5
38
102
{ACAD_REACTORS
330
2A
102
}
330
2A
100
AcDbVisualStyle
  2
Linepattern
 70
    14
 71
     2
 72
     2
 73
     0
 90
        0
 40
-0.6
 41
-30.0
 62
     5
 63
     7
421
 16777215
 74
     1
 91
        4
 64
     7
 65
   257
 75
     7
175
     7
 42
1.0
 92
        8
 66
     7
 43
1.0
 76
     1
 77
     6
 78
     2
 67
     7
 79
     5
170
     0
171
     0
290
     0
174
     0
 93
        1
 44
0.0
173
     0
291
     1
 45
0.0
1001
ACAD
1000
AcDbSavedByObjectVersion
1070
     0
  0
VISUALSTYLE
  5
33
102
{ACAD_REACTORS
330
2A
102
}
330
2A
100
AcDbVisualStyle
  2
Realistic
 70
     8
 71
     2
 72
     2
 73
     0
 90
        0
 40
-0.6
 41
-30.0
 62
     5
 63
     7
421
 16777215
 74
     1
 91
        0
 64
     7
 65
   257
 75
     1
175
     1
 42
1.0
 92
        8
 66
     8
424
  7895160
 43
1.0
 76
     1
 77
     6
 78
     2
 67
     7
 79
     5
170
     0
171
     0
290
     0
174
     0
 93
       13
 44
0.0
173
     0
291
     0
 45
0.0
1001
ACAD
1000
AcDbSavedByObjectVersion
1070
     0
  0
VISUALSTYLE
  5
37
102
{ACAD_REACTORS
330
2A
102
}
330
2A
100
AcDbVisualStyle
  2
Thicken
 70
    13
 71
     2
 72
     2
 73
     0
 90
        0
 40
-0.6
 41
-30.0
 62
     5
 63
     7
421
 16777215
 74
     1
 91
        4
 64
     7
 65
   257
 75
     1
175
     1
 42
1.0
 92
       12
 66
     7
 43
1.0
 76
     1
 77
     6
 78
     2
 67
     7
 79
     5
170
     0
171
     0
290
     0
174
     0
 93
        1
 44
0.0
173
     0
291
     1
 45
0.0
1001
ACAD
1000
AcDbSavedByObjectVersion
1070
     0
  0
ENDSEC
  0
EOF
