  0
SECTION
  2
HEADER
  9
$ACADVER
  1
AC1018
  9
$ACADMAINTVER
 70
     0
  9
$DWGCODEPAGE
  3
ANSI_1252
  9
$INSBASE
 10
0.0
 20
0.0
 30
0.0
  9
$EXTMIN
 10
-13.41823704786502
 20
0.0000000000000004
 30
0.0
  9
$EXTMAX
 10
56.44468100205167
 20
75.35296818541505
 30
0.0
  9
$LIMMIN
 10
0.0
 20
0.0
  9
$LIMMAX
 10
12.0
 20
9.0
  9
$ORTHOMODE
 70
     0
  9
$REGENMODE
 70
     1
  9
$FILLMODE
 70
     1
  9
$QTEXTMODE
 70
     0
  9
$MIRRTEXT
 70
     1
  9
$LTSCALE
 40
0.0393700787401575
  9
$ATTMODE
 70
     1
  9
$TEXTSIZE
 40
0.2
  9
$TRACEWID
 40
0.05
  9
$TEXTSTYLE
  7
Standard
  9
$CLAYER
  8
0
  9
$CELTYPE
  6
ByLayer
  9
$CECOLOR
 62
   256
  9
$CELTSCALE
 40
1.0
  9
$DISPSILH
 70
     0
  9
$DIMSCALE
 40
1.0
  9
$DIMASZ
 40
0.18
  9
$DIMEXO
 40
0.0625
  9
$DIMDLI
 40
0.38
  9
$DIMRND
 40
0.0
  9
$DIMDLE
 40
0.0
  9
$DIMEXE
 40
0.18
  9
$DIMTP
 40
0.0
  9
$DIMTM
 40
0.0
  9
$DIMTXT
 40
0.18
  9
$DIMCEN
 40
0.09
  9
$DIMTSZ
 40
0.0
  9
$DIMTOL
 70
     0
  9
$DIMLIM
 70
     0
  9
$DIMTIH
 70
     1
  9
$DIMTOH
 70
     1
  9
$DIMSE1
 70
     0
  9
$DIMSE2
 70
     0
  9
$DIMTAD
 70
     0
  9
$DIMZIN
 70
     0
  9
$DIMBLK
  1

  9
$DIMASO
 70
     1
  9
$DIMSHO
 70
     1
  9
$DIMPOST
  1

  9
$DIMAPOST
  1

  9
$DIMALT
 70
     0
  9
$DIMALTD
 70
     2
  9
$DIMALTF
 40
25.4
  9
$DIMLFAC
 40
1.0
  9
$DIMTOFL
 70
     0
  9
$DIMTVP
 40
0.0
  9
$DIMTIX
 70
     0
  9
$DIMSOXD
 70
     0
  9
$DIMSAH
 70
     0
  9
$DIMBLK1
  1

  9
$DIMBLK2
  1

  9
$DIMSTYLE
  2
Standard
  9
$DIMCLRD
 70
     0
  9
$DIMCLRE
 70
     0
  9
$DIMCLRT
 70
     0
  9
$DIMTFAC
 40
1.0
  9
$DIMGAP
 40
0.09
  9
$DIMJUST
 70
     0
  9
$DIMSD1
 70
     0
  9
$DIMSD2
 70
     0
  9
$DIMTOLJ
 70
     1
  9
$DIMTZIN
 70
     0
  9
$DIMALTZ
 70
     0
  9
$DIMALTTZ
 70
     0
  9
$DIMUPT
 70
     0
  9
$DIMDEC
 70
     4
  9
$DIMTDEC
 70
     4
  9
$DIMALTU
 70
     2
  9
$DIMALTTD
 70
     2
  9
$DIMTXSTY
  7
Standard
  9
$DIMAUNIT
 70
     0
  9
$DIMADEC
 70
     0
  9
$DIMALTRND
 40
0.0
  9
$DIMAZIN
 70
     0
  9
$DIMDSEP
 70
    46
  9
$DIMATFIT
 70
     3
  9
$DIMFRAC
 70
     0
  9
$DIMLDRBLK
  1

  9
$DIMLUNIT
 70
     2
  9
$DIMLWD
 70
    -2
  9
$DIMLWE
 70
    -2
  9
$DIMTMOVE
 70
     2
  9
$LUNITS
 70
     2
  9
$LUPREC
 70
     3
  9
$SKETCHINC
 40
0.1
  9
$FILLETRAD
 40
0.5
  9
$AUNITS
 70
     0
  9
$AUPREC
 70
     0
  9
$MENU
  1
.
  9
$ELEVATION
 40
0.0
  9
$PELEVATION
 40
0.0
  9
$THICKNESS
 40
0.0
  9
$LIMCHECK
 70
     0
  9
$CHAMFERA
 40
0.5
  9
$CHAMFERB
 40
0.5
  9
$CHAMFERC
 40
1.0
  9
$CHAMFERD
 40
0.0
  9
$SKPOLY
 70
     0
  9
$TDCREATE
 40
2457883.506162523
  9
$TDUCREATE
 40
2457883.67282919
  9
$TDUPDATE
 40
2457883.506162535
  9
$TDUUPDATE
 40
2457883.672829201
  9
$TDINDWG
 40
0.0000000116
  9
$TDUSRTIMER
 40
0.0000000116
  9
$USRTIMER
 70
     1
  9
$ANGBASE
 50
0.0
  9
$ANGDIR
 70
     0
  9
$PDMODE
 70
     0
  9
$PDSIZE
 40
0.0
  9
$PLINEWID
 40
0.0
  9
$SPLFRAME
 70
     0
  9
$SPLINETYPE
 70
     6
  9
$SPLINESEGS
 70
     8
  9
$HANDSEED
  5
1CF
  9
$SURFTAB1
 70
     6
  9
$SURFTAB2
 70
     6
  9
$SURFTYPE
 70
     6
  9
$SURFU
 70
     6
  9
$SURFV
 70
     6
  9
$UCSBASE
  2

  9
$UCSNAME
  2

  9
$UCSORG
 10
0.0
 20
0.0
 30
0.0
  9
$UCSXDIR
 10
1.0
 20
0.0
 30
0.0
  9
$UCSYDIR
 10
0.0
 20
1.0
 30
0.0
  9
$UCSORTHOREF
  2

  9
$UCSORTHOVIEW
 70
     0
  9
$UCSORGTOP
 10
0.0
 20
0.0
 30
0.0
  9
$UCSORGBOTTOM
 10
0.0
 20
0.0
 30
0.0
  9
$UCSORGLEFT
 10
0.0
 20
0.0
 30
0.0
  9
$UCSORGRIGHT
 10
0.0
 20
0.0
 30
0.0
  9
$UCSORGFRONT
 10
0.0
 20
0.0
 30
0.0
  9
$UCSORGBACK
 10
0.0
 20
0.0
 30
0.0
  9
$PUCSBASE
  2

  9
$PUCSNAME
  2

  9
$PUCSORG
 10
0.0
 20
0.0
 30
0.0
  9
$PUCSXDIR
 10
1.0
 20
0.0
 30
0.0
  9
$PUCSYDIR
 10
0.0
 20
1.0
 30
0.0
  9
$PUCSORTHOREF
  2

  9
$PUCSORTHOVIEW
 70
     0
  9
$PUCSORGTOP
 10
0.0
 20
0.0
 30
0.0
  9
$PUCSORGBOTTOM
 10
0.0
 20
0.0
 30
0.0
  9
$PUCSORGLEFT
 10
0.0
 20
0.0
 30
0.0
  9
$PUCSORGRIGHT
 10
0.0
 20
0.0
 30
0.0
  9
$PUCSORGFRONT
 10
0.0
 20
0.0
 30
0.0
  9
$PUCSORGBACK
 10
0.0
 20
0.0
 30
0.0
  9
$USERI1
 70
     0
  9
$USERI2
 70
     0
  9
$USERI3
 70
     0
  9
$USERI4
 70
     0
  9
$USERI5
 70
     0
  9
$USERR1
 40
0.0
  9
$USERR2
 40
0.0
  9
$USERR3
 40
0.0
  9
$USERR4
 40
0.0
  9
$USERR5
 40
0.0
  9
$WORLDVIEW
 70
     1
  9
$SHADEDGE
 70
     3
  9
$SHADEDIF
 70
    70
  9
$TILEMODE
 70
     1
  9
$MAXACTVP
 70
    64
  9
$PINSBASE
 10
0.0
 20
0.0
 30
0.0
  9
$PLIMCHECK
 70
     0
  9
$PEXTMIN
 10
1.000000000000000E+20
 20
1.000000000000000E+20
 30
1.000000000000000E+20
  9
$PEXTMAX
 10
-1.000000000000000E+20
 20
-1.000000000000000E+20
 30
-1.000000000000000E+20
  9
$PLIMMIN
 10
0.0
 20
0.0
  9
$PLIMMAX
 10
12.0
 20
9.0
  9
$UNITMODE
 70
     0
  9
$VISRETAIN
 70
     1
  9
$PLINEGEN
 70
     0
  9
$PSLTSCALE
 70
     1
  9
$TREEDEPTH
 70
  3020
  9
$CMLSTYLE
  2
Standard
  9
$CMLJUST
 70
     0
  9
$CMLSCALE
 40
1.0
  9
$PROXYGRAPHICS
 70
     1
  9
$MEASUREMENT
 70
     0
  9
$CELWEIGHT
370
    -1
  9
$ENDCAPS
280
     0
  9
$JOINSTYLE
280
     0
  9
$LWDISPLAY
290
     0
  9
$INSUNITS
 70
     1
  9
$HYPERLINKBASE
  1

  9
$STYLESHEET
  1

  9
$XEDIT
290
     1
  9
$CEPSNTYPE
380
     0
  9
$PSTYLEMODE
290
     1
  9
$FINGERPRINTGUID
  2
{EED971DB-5A71-4407-BF33-901A8F3E9247}
  9
$VERSIONGUID
  2
{FAEB1C32-E019-11D5-929B-00C0DF256EC4}
  9
$EXTNAMES
290
     1
  9
$PSVPSCALE
 40
0.0
  9
$OLESTARTUP
290
     0
  9
$SORTENTS
280
   127
  9
$INDEXCTL
280
     0
  9
$HIDETEXT
280
     1
  9
$XCLIPFRAME
290
     0
  9
$HALOGAP
280
     0
  9
$OBSCOLOR
 70
   257
  9
$OBSLTYPE
280
     0
  9
$INTERSECTIONDISPLAY
280
     0
  9
$INTERSECTIONCOLOR
 70
   257
  9
$DIMASSOC
280
     2
  9
$PROJECTNAME
  1

  0
ENDSEC
  0
SECTION
  2
CLASSES
  0
CLASS
  1
ACDBDICTIONARYWDFLT
  2
AcDbDictionaryWithDefault
  3
ObjectDBX Classes
 90
        0
 91
        4
280
     0
281
     0
  0
CLASS
  1
VISUALSTYLE
  2
AcDbVisualStyle
  3
ObjectDBX Classes
 90
     4095
 91
        4
280
     0
281
     0
  0
ENDSEC
  0
SECTION
  2
TABLES
  0
TABLE
  2
VPORT
  5
8
330
0
100
AcDbSymbolTable
 70
     1
  0
VPORT
  5
29
330
8
100
AcDbSymbolTableRecord
100
AcDbViewportTableRecord
  2
*Active
 70
     0
 10
0.0
 20
0.0
 11
1.0
 21
1.0
 12
21.51322197709332
 22
37.67648409270753
 13
0.0
 23
0.0
 14
0.5
 24
0.5
 15
0.5
 25
0.5
 16
0.0
 26
0.0
 36
1.0
 17
0.0
 27
0.0
 37
0.0
 40
76.86002754912336
 41
0.9271422179151664
 42
50.0
 43
0.0
 44
0.0
 50
0.0
 51
0.0
 71
     0
 72
   100
 73
     1
 74
     3
 75
     0
 76
     0
 77
     0
 78
     0
281
     0
 65
     1
110
0.0
120
0.0
130
0.0
111
1.0
121
0.0
131
0.0
112
0.0
122
1.0
132
0.0
 79
     0
146
0.0
  0
ENDTAB
  0
TABLE
  2
LTYPE
  5
5
330
0
100
AcDbSymbolTable
 70
     1
  0
LTYPE
  5
14
330
5
100
AcDbSymbolTableRecord
100
AcDbLinetypeTableRecord
  2
ByBlock
 70
     0
  3

 72
    65
 73
     0
 40
0.0
  0
LTYPE
  5
15
330
5
100
AcDbSymbolTableRecord
100
AcDbLinetypeTableRecord
  2
ByLayer
 70
     0
  3

 72
    65
 73
     0
 40
0.0
  0
LTYPE
  5
16
330
5
100
AcDbSymbolTableRecord
100
AcDbLinetypeTableRecord
  2
Continuous
 70
     0
  3
Solid line
 72
    65
 73
     0
 40
0.0
  0
ENDTAB
  0
TABLE
  2
LAYER
  5
2
330
0
100
AcDbSymbolTable
 70
     2
  0
LAYER
  5
10
330
2
100
AcDbSymbolTableRecord
100
AcDbLayerTableRecord
  2
0
 70
     0
 62
     7
  6
Continuous
370
    -3
390
F
  0
LAYER
  5
3B
330
2
100
AcDbSymbolTableRecord
100
AcDbLayerTableRecord
  2
5 star - arm 2d
 70
     0
 62
     7
  6
Continuous
370
    -3
390
F
  0
ENDTAB
  0
TABLE
  2
STYLE
  5
3
330
0
100
AcDbSymbolTable
 70
     1
  0
STYLE
  5
11
330
3
100
AcDbSymbolTableRecord
100
AcDbTextStyleTableRecord
  2
Standard
 70
     0
 40
0.0
 41
1.0
 50
0.0
 71
     0
 42
0.2
  3
txt
  4

  0
ENDTAB
  0
TABLE
  2
VIEW
  5
6
330
0
100
AcDbSymbolTable
 70
     0
  0
ENDTAB
  0
TABLE
  2
UCS
  5
7
330
0
100
AcDbSymbolTable
 70
     0
  0
ENDTAB
  0
TABLE
  2
APPID
  5
9
330
0
100
AcDbSymbolTable
 70
     1
  0
APPID
  5
12
330
9
100
AcDbSymbolTableRecord
100
AcDbRegAppTableRecord
  2
ACAD
 70
     0
  0
ENDTAB
  0
TABLE
  2
DIMSTYLE
  5
A
330
0
100
AcDbSymbolTable
 70
     1
100
AcDbDimStyleTable
  0
DIMSTYLE
105
27
330
A
100
AcDbSymbolTableRecord
100
AcDbDimStyleTableRecord
  2
Standard
 70
     0
340
11
  0
ENDTAB
  0
TABLE
  2
BLOCK_RECORD
  5
1
330
0
100
AcDbSymbolTable
 70
     1
  0
BLOCK_RECORD
  5
1F
330
1
100
AcDbSymbolTableRecord
100
AcDbBlockTableRecord
  2
*Model_Space
340
22
  0
BLOCK_RECORD
  5
1B
330
1
100
AcDbSymbolTableRecord
100
AcDbBlockTableRecord
  2
*Paper_Space
340
1E
  0
BLOCK_RECORD
  5
23
330
1
100
AcDbSymbolTableRecord
100
AcDbBlockTableRecord
  2
*Paper_Space0
340
26
  0
ENDTAB
  0
ENDSEC
  0
SECTION
  2
BLOCKS
  0
BLOCK
  5
20
330
1F
100
AcDbEntity
  8
0
100
AcDbBlockBegin
  2
*Model_Space
 70
     0
 10
0.0
 20
0.0
 30
0.0
  3
*Model_Space
  1

  0
ENDBLK
  5
21
330
1F
100
AcDbEntity
  8
0
100
AcDbBlockEnd
  0
BLOCK
  5
1C
330
1B
100
AcDbEntity
 67
     1
  8
0
100
AcDbBlockBegin
  2
*Paper_Space
 70
     0
 10
0.0
 20
0.0
 30
0.0
  3
*Paper_Space
  1

  0
ENDBLK
  5
1D
330
1B
100
AcDbEntity
 67
     1
  8
0
100
AcDbBlockEnd
  0
BLOCK
  5
24
330
23
100
AcDbEntity
  8
0
100
AcDbBlockBegin
  2
*Paper_Space0
 70
     0
 10
0.0
 20
0.0
 30
0.0
  3
*Paper_Space0
  1

  0
ENDBLK
  5
25
330
23
100
AcDbEntity
  8
0
100
AcDbBlockEnd
  0
ENDSEC
  0
SECTION
  2
ENTITIES
  0
SPLINE
  5
3C
330
1F
100
AcDbEntity
  8
5 star - arm 2d
 62
     7
100
AcDbSpline
210
0.0
220
0.0
230
1.0
 70
    24
 71
     2
 72
     6
 73
     3
 74
     0
 42
0.0000000001
 43
0.0000000001
 40
0.0
 40
0.0
 40
0.0
 40
0.6875000000001208
 40
0.6875000000001208
 40
0.6875000000001208
 10
7.238679754571621
 20
2.641962854402996
 30
0.0
 10
7.582429754571681
 20
2.641962854402996
 30
0.0
 10
7.926179754571741
 20
2.641962854402996
 30
0.0
  0
SPLINE
  5
3D
330
1F
100
AcDbEntity
  8
5 star - arm 2d
 62
     7
100
AcDbSpline
210
0.0
220
0.0
230
1.0
 70
    24
 71
     2
 72
     6
 73
     3
 74
     0
 42
0.0000000001
 43
0.0000000001
 40
0.0
 40
0.0
 40
0.0
 40
0.6875000000001208
 40
0.6875000000001208
 40
0.6875000000001208
 10
11.92487906020544
 20
2.641962854402997
 30
0.0
 10
12.2686290602055
 20
2.641962854402997
 30
0.0
 10
12.61237906020556
 20
2.641962854402997
 30
0.0
  0
SPLINE
  5
3E
330
1F
100
AcDbEntity
  8
5 star - arm 2d
 62
     7
100
AcDbSpline
210
0.0
220
0.0
230
1.0
 70
    24
 71
     2
 72
     6
 73
     3
 74
     0
 42
0.0000000001
 43
0.0000000001
 40
0.0
 40
0.0
 40
0.0
 40
0.6875000000001208
 40
0.6875000000001208
 40
0.6875000000001208
 10
-7.238679754571613
 20
2.641962854402996
 30
0.0
 10
-7.582429754571673
 20
2.641962854402996
 30
0.0
 10
-7.926179754571733
 20
2.641962854402996
 30
0.0
  0
SPLINE
  5
3F
330
1F
100
AcDbEntity
  8
5 star - arm 2d
 62
     7
100
AcDbSpline
210
0.0
220
0.0
230
1.0
 70
    24
 71
     2
 72
     6
 73
     3
 74
     0
 42
0.0000000001
 43
0.0000000001
 40
0.0
 40
0.0
 40
0.0
 40
0.6875000000001208
 40
0.6875000000001208
 40
0.6875000000001208
 10
-11.92487906020543
 20
2.641962854402997
 30
0.0
 10
-12.26862906020549
 20
2.641962854402997
 30
0.0
 10
-12.61237906020555
 20
2.641962854402997
 30
0.0
  0
SPLINE
  5
40
330
1F
100
AcDbEntity
  8
5 star - arm 2d
 62
     7
100
AcDbSpline
210
0.0
220
0.0
230
1.0
 70
    24
 71
     2
 72
     6
 73
     3
 74
     0
 42
0.0000000001
 43
0.0000000001
 40
0.0
 40
0.0
 40
0.0
 40
0.6875000000001208
 40
0.6875000000001208
 40
0.6875000000001208
 10
0.3437500000000639
 20
2.641962854402996
 30
0.0
 10
0.0000000000000036
 20
2.641962854402996
 30
0.0
 10
-0.3437500000000568
 20
2.641962854402996
 30
0.0
  0
SPLINE
  5
41
330
1F
100
AcDbEntity
  8
5 star - arm 2d
 62
     7
100
AcDbSpline
210
0.0
220
0.0
230
1.0
 70
    24
 71
     2
 72
     6
 73
     3
 74
     0
 42
0.0000000001
 43
0.0000000001
 40
0.0
 40
0.0
 40
0.0
 40
5.118111959919872
 40
5.118111959919872
 40
5.118111959919872
 10
0.7874000000000052
 20
7.672385762575781
 30
0.0
 10
0.7874000000000052
 20
5.113329782615844
 30
0.0
 10
0.7874000000000052
 20
2.554273802655908
 30
0.0
  0
SPLINE
  5
42
330
1F
100
AcDbEntity
  8
5 star - arm 2d
 62
     7
100
AcDbSpline
210
0.0
220
0.0
230
1.0
 70
    24
 71
     2
 72
     6
 73
     3
 74
     0
 42
0.0000000001
 43
0.0000000001
 40
0.0
 40
0.0
 40
0.0
 40
0.7990000000004969
 40
0.7990000000004969
 40
0.7990000000004969
 10
0.5507850000000047
 20
11.4485000000005
 30
0.0
 10
0.5507850000000047
 20
11.04900000000025
 30
0.0
 10
0.5507850000000047
 20
10.6495
 30
0.0
  0
SPLINE
  5
43
330
1F
100
AcDbEntity
  8
5 star - arm 2d
 62
     7
100
AcDbSpline
210
0.0
220
0.0
230
1.0
 70
    24
 71
     2
 72
     6
 73
     3
 74
     0
 42
0.0000000001
 43
0.0000000001
 40
0.0
 40
0.0
 40
0.0
 40
0.7990000000000066
 40
0.7990000000000066
 40
0.7990000000000066
 10
-0.5507849999999959
 20
10.6495
 30
0.0
 10
-0.5507849999999959
 20
11.049
 30
0.0
 10
-0.5507849999999959
 20
11.44850000000001
 30
0.0
  0
SPLINE
  5
44
330
1F
100
AcDbEntity
  8
5 star - arm 2d
 62
     7
100
AcDbSpline
210
0.0
220
0.0
230
1.0
 70
    24
 71
     2
 72
     6
 73
     3
 74
     0
 42
0.0000000001
 43
0.0000000001
 40
0.0
 40
0.0
 40
0.0
 40
0.0819628544030055
 40
0.0819628544030055
 40
0.0819628544030055
 10
7.238679754571621
 20
2.55999999999999
 30
0.0
 10
7.238679754571621
 20
2.600981427201493
 30
0.0
 10
7.238679754571621
 20
2.641962854402996
 30
0.0
  0
SPLINE
  5
45
330
1F
100
AcDbEntity
  8
5 star - arm 2d
 62
     7
100
AcDbSpline
210
0.0
220
0.0
230
1.0
 70
    24
 71
     2
 72
     6
 73
     3
 74
     0
 42
0.0000000001
 43
0.0000000001
 40
0.0
 40
0.0
 40
0.0
 40
0.0819628544030055
 40
0.0819628544030055
 40
0.0819628544030055
 10
7.926179754571741
 20
2.641962854402996
 30
0.0
 10
7.926179754571741
 20
2.600981427201493
 30
0.0
 10
7.926179754571741
 20
2.55999999999999
 30
0.0
  0
SPLINE
  5
46
330
1F
100
AcDbEntity
  8
5 star - arm 2d
 62
     7
100
AcDbSpline
210
0.0
220
0.0
230
1.0
 70
    24
 71
     2
 72
     6
 73
     3
 74
     0
 42
0.0000000001
 43
0.0000000001
 40
0.0
 40
0.0
 40
0.0
 40
0.0819628544030055
 40
0.0819628544030055
 40
0.0819628544030055
 10
11.92487906020544
 20
2.559999999999991
 30
0.0
 10
11.92487906020544
 20
2.600981427201494
 30
0.0
 10
11.92487906020544
 20
2.641962854402997
 30
0.0
  0
SPLINE
  5
47
330
1F
100
AcDbEntity
  8
5 star - arm 2d
 62
     7
100
AcDbSpline
210
0.0
220
0.0
230
1.0
 70
    24
 71
     2
 72
     6
 73
     3
 74
     0
 42
0.0000000001
 43
0.0000000001
 40
0.0
 40
0.0
 40
0.0
 40
0.0819628544030055
 40
0.0819628544030055
 40
0.0819628544030055
 10
12.61237906020556
 20
2.641962854402997
 30
0.0
 10
12.61237906020556
 20
2.600981427201494
 30
0.0
 10
12.61237906020556
 20
2.559999999999991
 30
0.0
  0
SPLINE
  5
48
330
1F
100
AcDbEntity
  8
5 star - arm 2d
 62
     7
100
AcDbSpline
210
0.0
220
0.0
230
1.0
 70
    24
 71
     2
 72
     6
 73
     3
 74
     0
 42
0.0000000001
 43
0.0000000001
 40
0.0
 40
0.0
 40
0.0
 40
0.0819628544030055
 40
0.0819628544030055
 40
0.0819628544030055
 10
-7.238679754571613
 20
2.641962854402996
 30
0.0
 10
-7.238679754571613
 20
2.600981427201493
 30
0.0
 10
-7.238679754571613
 20
2.55999999999999
 30
0.0
  0
SPLINE
  5
49
330
1F
100
AcDbEntity
  8
5 star - arm 2d
 62
     7
100
AcDbSpline
210
0.0
220
0.0
230
1.0
 70
    24
 71
     2
 72
     6
 73
     3
 74
     0
 42
0.0000000001
 43
0.0000000001
 40
0.0
 40
0.0
 40
0.0
 40
0.0819628544030055
 40
0.0819628544030055
 40
0.0819628544030055
 10
-7.926179754571733
 20
2.55999999999999
 30
0.0
 10
-7.926179754571733
 20
2.600981427201493
 30
0.0
 10
-7.926179754571733
 20
2.641962854402996
 30
0.0
  0
SPLINE
  5
4A
330
1F
100
AcDbEntity
  8
5 star - arm 2d
 62
     7
100
AcDbSpline
210
0.0
220
0.0
230
1.0
 70
    24
 71
     2
 72
     6
 73
     3
 74
     0
 42
0.0000000001
 43
0.0000000001
 40
0.0
 40
0.0
 40
0.0
 40
0.0819628544030055
 40
0.0819628544030055
 40
0.0819628544030055
 10
-11.92487906020543
 20
2.641962854402997
 30
0.0
 10
-11.92487906020543
 20
2.600981427201494
 30
0.0
 10
-11.92487906020543
 20
2.559999999999991
 30
0.0
  0
SPLINE
  5
4B
330
1F
100
AcDbEntity
  8
5 star - arm 2d
 62
     7
100
AcDbSpline
210
0.0
220
0.0
230
1.0
 70
    24
 71
     2
 72
     6
 73
     3
 74
     0
 42
0.0000000001
 43
0.0000000001
 40
0.0
 40
0.0
 40
0.0
 40
0.0819628544030055
 40
0.0819628544030055
 40
0.0819628544030055
 10
-12.61237906020555
 20
2.559999999999991
 30
0.0
 10
-12.61237906020555
 20
2.600981427201494
 30
0.0
 10
-12.61237906020555
 20
2.641962854402997
 30
0.0
  0
SPLINE
  5
4C
330
1F
100
AcDbEntity
  8
5 star - arm 2d
 62
     7
100
AcDbSpline
210
0.0
220
0.0
230
1.0
 70
     8
 71
     3
 72
    14
 73
    10
 74
     0
 42
0.0000000001
 43
0.0000000001
 40
-7.0
 40
-7.0
 40
-7.0
 40
-7.0
 40
-6.0
 40
-5.0
 40
-4.0
 40
-3.0
 40
-2.0
 40
-1.0
 40
0.0
 40
0.0
 40
0.0
 40
0.0
 10
-13.35483928056107
 20
24.75074671736353
 30
0.0
 10
-13.22705812985037
 20
23.96526458425808
 30
0.0
 10
-12.88378843732978
 20
22.4102516126739
 30
0.0
 10
-12.1211646869457
 20
20.14112367069326
 30
0.0
 10
-10.99954012608572
 20
18.02863557372586
 30
0.0
 10
-9.481386991123596
 20
16.14954050821285
 30
0.0
 10
-7.371080556054651
 20
14.96544611471465
 30
0.0
 10
-5.116734843997917
 20
14.17314756742608
 30
0.0
 10
-3.537179522386734
 20
13.92478568257073
 30
0.0
 10
-2.746640474965336
 20
13.84290634537086
 30
0.0
  0
SPLINE
  5
4D
330
1F
100
AcDbEntity
  8
5 star - arm 2d
 62
     7
100
AcDbSpline
210
0.0
220
0.0
230
1.0
 70
     8
 71
     3
 72
     8
 73
     4
 74
     0
 42
0.0000000001
 43
0.0000000001
 40
0.0
 40
0.0
 40
0.0
 40
0.0
 40
1.0
 40
1.0
 40
1.0
 40
1.0
 10
-2.746640474965336
 20
13.84290634537086
 30
0.0
 10
-1.270177301272111
 20
13.68998306288868
 30
0.0
 10
1.270177301272111
 20
13.68998306288868
 30
0.0
 10
2.746640474965336
 20
13.84290634537086
 30
0.0
  0
SPLINE
  5
4E
330
1F
100
AcDbEntity
  8
5 star - arm 2d
 62
     7
100
AcDbSpline
210
0.0
220
0.0
230
1.0
 70
     8
 71
     3
 72
    14
 73
    10
 74
     0
 42
0.0000000001
 43
0.0000000001
 40
0.0
 40
0.0
 40
0.0
 40
0.0
 40
1.0
 40
2.0
 40
3.0
 40
4.0
 40
5.0
 40
6.0
 40
7.0
 40
7.0
 40
7.0
 40
7.0
 10
2.746640474965336
 20
13.84290634537086
 30
0.0
 10
3.537179522386734
 20
13.92478568257073
 30
0.0
 10
5.116734843997917
 20
14.17314756742608
 30
0.0
 10
7.371080556054651
 20
14.96544611471465
 30
0.0
 10
9.481386991123596
 20
16.14954050821285
 30
0.0
 10
10.99954012608572
 20
18.02863557372586
 30
0.0
 10
12.1211646869457
 20
20.14112367069326
 30
0.0
 10
12.88378843732978
 20
22.4102516126739
 30
0.0
 10
13.22705812985037
 20
23.96526458425808
 30
0.0
 10
13.35483928056107
 20
24.75074671736353
 30
0.0
  0
SPLINE
  5
4F
330
1F
100
AcDbEntity
  8
5 star - arm 2d
 62
     7
100
AcDbSpline
210
0.0
220
0.0
230
1.0
 70
     8
 71
     3
 72
    18
 73
    14
 74
     0
 42
0.0000000001
 43
0.0000000001
 40
0.0
 40
0.0
 40
0.0
 40
0.0
 40
1.0
 40
2.0
 40
3.0
 40
4.0
 40
5.0
 40
6.0
 40
7.0
 40
8.0
 40
9.0
 40
10.0
 40
11.0
 40
11.0
 40
11.0
 40
11.0
 10
8.737753314004635
 20
18.36982442436823
 30
0.0
 10
8.81599278815799
 20
18.66328080710937
 30
0.0
 10
8.970379603679916
 20
19.25074867127656
 30
0.0
 10
9.197961793426998
 20
20.13299097985963
 30
0.0
 10
9.42353979637363
 20
21.01574369312808
 30
0.0
 10
9.650021977908455
 20
21.89827274919842
 30
0.0
 10
9.876954266648182
 20
22.78065759893285
 30
0.0
 10
10.11784154255604
 20
23.65953412600791
 30
0.0
 10
10.43831459152528
 20
24.51472776683633
 30
0.0
 10
10.89311099323587
 20
25.30749099114246
 30
0.0
 10
11.5774539387845
 20
25.94811037455524
 30
0.0
 10
12.42294456289052
 20
26.23924586752377
 30
0.0
 10
13.10178237721163
 20
26.2994528779551
 30
0.0
 10
13.28184130189499
 20
26.01632878930689
 30
0.0
  0
SPLINE
  5
50
330
1F
100
AcDbEntity
  8
5 star - arm 2d
 62
     7
100
AcDbSpline
210
0.0
220
0.0
230
1.0
 70
     8
 71
     3
 72
     8
 73
     4
 74
     0
 42
0.0000000001
 43
0.0000000001
 40
0.0
 40
0.0
 40
0.0
 40
0.0
 40
1.0
 40
1.0
 40
1.0
 40
1.0
 10
13.28184130189499
 20
26.01632878930689
 30
0.0
 10
13.33962758983855
 20
25.92546581131703
 30
0.0
 10
13.38664312742956
 20
25.75833847529862
 30
0.0
 10
13.40250348508307
 20
25.6494547482395
 30
0.0
  0
SPLINE
  5
51
330
1F
100
AcDbEntity
  8
5 star - arm 2d
 62
     7
100
AcDbSpline
210
0.0
220
0.0
230
1.0
 70
     8
 71
     3
 72
    24
 73
    20
 74
     0
 42
0.0000000001
 43
0.0000000001
 40
-17.0
 40
-17.0
 40
-17.0
 40
-17.0
 40
-16.0
 40
-15.0
 40
-14.0
 40
-13.0
 40
-12.0
 40
-11.0
 40
-10.0
 40
-9.0
 40
-8.0
 40
-7.0
 40
-6.0
 40
-5.0
 40
-4.0
 40
-3.0
 40
-2.0
 40
-1.0
 40
0.0
 40
0.0
 40
0.0
 40
0.0
 10
13.40250348508307
 20
25.6494547482395
 30
0.0
 10
13.45726534912068
 20
25.27350636249814
 30
0.0
 10
13.33057999260149
 20
24.52054410086921
 30
0.0
 10
12.99547795216363
 20
23.4406909315669
 30
0.0
 10
12.5674111631989
 20
22.39143240406391
 30
0.0
 10
12.0698393916064
 20
21.37451855295666
 30
0.0
 10
11.50757093036468
 20
20.39171635265035
 30
0.0
 10
10.92218200642469
 20
19.42346462738146
 30
0.0
 10
10.29940648252018
 20
18.47677050068678
 30
0.0
 10
9.572450396552814
 20
17.60795688650094
 30
0.0
 10
8.75211736054488
 20
16.82265275475173
 30
0.0
 10
7.786621517799758
 20
16.22044114941972
 30
0.0
 10
6.732194773245511
 20
15.80053289222378
 30
0.0
 10
5.632962357528918
 20
15.52426775958839
 30
0.0
 10
4.515891979668266
 20
15.3395574208658
 30
0.0
 10
3.391490222559267
 20
15.20854577875535
 30
0.0
 10
2.262565867276946
 20
15.12563539628846
 30
0.0
 10
1.131700977994871
 20
15.07868310533615
 30
0.0
 10
0.377263611875386
 20
15.06466151424756
 30
0.0
 10
0.0
 20
15.06583526516749
 30
0.0
  0
SPLINE
  5
52
330
1F
100
AcDbEntity
  8
5 star - arm 2d
 62
     7
100
AcDbSpline
210
0.0
220
0.0
230
1.0
 70
     8
 71
     3
 72
    24
 73
    20
 74
     0
 42
0.0000000001
 43
0.0000000001
 40
0.0
 40
0.0
 40
0.0
 40
0.0
 40
1.0
 40
2.0
 40
3.0
 40
4.0
 40
5.0
 40
6.0
 40
7.0
 40
8.0
 40
9.0
 40
10.0
 40
11.0
 40
12.0
 40
13.0
 40
14.0
 40
15.0
 40
16.0
 40
17.0
 40
17.0
 40
17.0
 40
17.0
 10
0.0
 20
15.06583526516749
 30
0.0
 10
-0.377263611875386
 20
15.06466151424756
 30
0.0
 10
-1.131700977994871
 20
15.07868310533615
 30
0.0
 10
-2.262565867276946
 20
15.12563539628846
 30
0.0
 10
-3.391490222559267
 20
15.20854577875535
 30
0.0
 10
-4.515891979668266
 20
15.3395574208658
 30
0.0
 10
-5.632962357528918
 20
15.52426775958839
 30
0.0
 10
-6.732194773245511
 20
15.80053289222378
 30
0.0
 10
-7.786621517799758
 20
16.22044114941972
 30
0.0
 10
-8.75211736054488
 20
16.82265275475173
 30
0.0
 10
-9.572450396552814
 20
17.60795688650094
 30
0.0
 10
-10.29940648252018
 20
18.47677050068678
 30
0.0
 10
-10.92218200642469
 20
19.42346462738146
 30
0.0
 10
-11.50757093036468
 20
20.39171635265035
 30
0.0
 10
-12.0698393916064
 20
21.37451855295666
 30
0.0
 10
-12.5674111631989
 20
22.39143240406391
 30
0.0
 10
-12.99547795216363
 20
23.4406909315669
 30
0.0
 10
-13.33057999260149
 20
24.52054410086921
 30
0.0
 10
-13.45726534912068
 20
25.27350636249814
 30
0.0
 10
-13.40250348508307
 20
25.6494547482395
 30
0.0
  0
SPLINE
  5
53
330
1F
100
AcDbEntity
  8
5 star - arm 2d
 62
     7
100
AcDbSpline
210
0.0
220
0.0
230
1.0
 70
     8
 71
     3
 72
     8
 73
     4
 74
     0
 42
0.0000000001
 43
0.0000000001
 40
-1.0
 40
-1.0
 40
-1.0
 40
-1.0
 40
0.0
 40
0.0
 40
0.0
 40
0.0
 10
-13.40250348508307
 20
25.6494547482395
 30
0.0
 10
-13.38664312742956
 20
25.75833847529862
 30
0.0
 10
-13.33962758983855
 20
25.92546581131703
 30
0.0
 10
-13.28184130189499
 20
26.01632878930689
 30
0.0
  0
SPLINE
  5
54
330
1F
100
AcDbEntity
  8
5 star - arm 2d
 62
     7
100
AcDbSpline
210
0.0
220
0.0
230
1.0
 70
     8
 71
     3
 72
    18
 73
    14
 74
     0
 42
0.0000000001
 43
0.0000000001
 40
-11.0
 40
-11.0
 40
-11.0
 40
-11.0
 40
-10.0
 40
-9.0
 40
-8.0
 40
-7.0
 40
-6.0
 40
-5.0
 40
-4.0
 40
-3.0
 40
-2.0
 40
-1.0
 40
0.0
 40
0.0
 40
0.0
 40
0.0
 10
-13.28184130189499
 20
26.01632878930689
 30
0.0
 10
-13.10178237721163
 20
26.2994528779551
 30
0.0
 10
-12.42294456289052
 20
26.23924586752377
 30
0.0
 10
-11.5774539387845
 20
25.94811037455524
 30
0.0
 10
-10.89311099323587
 20
25.30749099114246
 30
0.0
 10
-10.43831459152528
 20
24.51472776683633
 30
0.0
 10
-10.11784154255604
 20
23.65953412600791
 30
0.0
 10
-9.876954266648182
 20
22.78065759893285
 30
0.0
 10
-9.650021977908455
 20
21.89827274919842
 30
0.0
 10
-9.42353979637363
 20
21.01574369312808
 30
0.0
 10
-9.197961793426998
 20
20.13299097985963
 30
0.0
 10
-8.970379603679916
 20
19.25074867127656
 30
0.0
 10
-8.81599278815799
 20
18.66328080710937
 30
0.0
 10
-8.737753314004635
 20
18.36982442436823
 30
0.0
  0
SPLINE
  5
55
330
1F
100
AcDbEntity
  8
5 star - arm 2d
 62
     7
100
AcDbSpline
210
0.0
220
0.0
230
1.0
 70
     8
 71
     3
 72
    24
 73
    20
 74
     0
 42
0.0000000001
 43
0.0000000001
 40
-17.0
 40
-17.0
 40
-17.0
 40
-17.0
 40
-16.0
 40
-15.0
 40
-14.0
 40
-13.0
 40
-12.0
 40
-11.0
 40
-10.0
 40
-9.0
 40
-8.0
 40
-7.0
 40
-6.0
 40
-5.0
 40
-4.0
 40
-3.0
 40
-2.0
 40
-1.0
 40
0.0
 40
0.0
 40
0.0
 40
0.0
 10
-13.22687778250006
 20
26.10530957215532
 30
0.0
 10
-13.03727270908051
 20
26.38949276115037
 30
0.0
 10
-12.38998461297896
 20
26.57097898352193
 30
0.0
 10
-11.60675314362203
 20
27.15999532298077
 30
0.0
 10
-11.03398993791485
 20
27.95705072891857
 30
0.0
 10
-10.57768706974786
 20
28.81425963739726
 30
0.0
 10
-10.16472613319136
 20
29.69587204215082
 30
0.0
 10
-9.803576221758599
 20
30.59634725769036
 30
0.0
 10
-9.397368669516466
 20
31.48905381718599
 30
0.0
 10
-8.680777016686983
 20
32.17107324612802
 30
0.0
 10
-7.779481228012351
 20
32.57185641277539
 30
0.0
 10
-6.804854037935051
 20
32.66905825096651
 30
0.0
 10
-5.833550023904063
 20
32.62225045258867
 30
0.0
 10
-4.86110609560509
 20
32.62251428751364
 30
0.0
 10
-3.888945765915074
 20
32.62932787867474
 30
0.0
 10
-2.916698846453024
 20
32.632449953071
 30
0.0
 10
-1.944466777385647
 20
32.6337001415239
 30
0.0
 10
-0.9722290823862377
 20
32.63258928319019
 30
0.0
 10
-0.3240754869563128
 20
32.63036599403783
 30
0.0
 10
0.0
 20
32.62887388916386
 30
0.0
  0
SPLINE
  5
56
330
1F
100
AcDbEntity
  8
5 star - arm 2d
 62
     7
100
AcDbSpline
210
0.0
220
0.0
230
1.0
 70
     8
 71
     3
 72
    24
 73
    20
 74
     0
 42
0.0000000001
 43
0.0000000001
 40
0.0
 40
0.0
 40
0.0
 40
0.0
 40
1.0
 40
2.0
 40
3.0
 40
4.0
 40
5.0
 40
6.0
 40
7.0
 40
8.0
 40
9.0
 40
10.0
 40
11.0
 40
12.0
 40
13.0
 40
14.0
 40
15.0
 40
16.0
 40
17.0
 40
17.0
 40
17.0
 40
17.0
 10
0.0
 20
32.62887388916386
 30
0.0
 10
0.3240754869563128
 20
32.63036599403783
 30
0.0
 10
0.9722290823862377
 20
32.63258928319019
 30
0.0
 10
1.944466777385647
 20
32.6337001415239
 30
0.0
 10
2.916698846453024
 20
32.632449953071
 30
0.0
 10
3.888945765915074
 20
32.62932787867474
 30
0.0
 10
4.86110609560509
 20
32.62251428751364
 30
0.0
 10
5.833550023904063
 20
32.62225045258867
 30
0.0
 10
6.804854037935051
 20
32.66905825096651
 30
0.0
 10
7.779481228012351
 20
32.57185641277539
 30
0.0
 10
8.680777016686983
 20
32.17107324612802
 30
0.0
 10
9.397368669516466
 20
31.48905381718599
 30
0.0
 10
9.803576221758599
 20
30.59634725769036
 30
0.0
 10
10.16472613319136
 20
29.69587204215082
 30
0.0
 10
10.57768706974786
 20
28.81425963739726
 30
0.0
 10
11.03398993791485
 20
27.95705072891857
 30
0.0
 10
11.60675314362203
 20
27.15999532298077
 30
0.0
 10
12.38998461297896
 20
26.57097898352193
 30
0.0
 10
13.03727270908051
 20
26.38949276115037
 30
0.0
 10
13.22687778250006
 20
26.10530957215532
 30
0.0
  0
SPLINE
  5
57
330
1F
100
AcDbEntity
  8
5 star - arm 2d
 62
     7
100
AcDbSpline
210
0.0
220
0.0
230
1.0
 70
     8
 71
     3
 72
    14
 73
    10
 74
     0
 42
0.0000000001
 43
0.0000000001
 40
0.0
 40
0.0
 40
0.0
 40
0.0
 40
1.0
 40
2.0
 40
3.0
 40
4.0
 40
5.0
 40
6.0
 40
7.0
 40
7.0
 40
7.0
 40
7.0
 10
9.47099543356499
 20
19.55647952632111
 30
0.0
 10
9.263845691907445
 20
19.09082038700913
 30
0.0
 10
8.71207518738171
 20
18.21762381634008
 30
0.0
 10
7.520346836321244
 20
17.22287110177934
 30
0.0
 10
6.090483877578968
 20
16.64429573931208
 30
0.0
 10
4.582490860708207
 20
16.36028857318202
 30
0.0
 10
3.059779571076865
 20
16.20107293633583
 30
0.0
 10
1.530738609525921
 20
16.11868281712855
 30
0.0
 10
0.5102760775281062
 20
16.10040705336621
 30
0.0
 10
0.0
 20
16.1012020170593
 30
0.0
  0
SPLINE
  5
58
330
1F
100
AcDbEntity
  8
5 star - arm 2d
 62
     7
100
AcDbSpline
210
0.0
220
0.0
230
1.0
 70
     8
 71
     3
 72
    14
 73
    10
 74
     0
 42
0.0000000001
 43
0.0000000001
 40
-7.0
 40
-7.0
 40
-7.0
 40
-7.0
 40
-6.0
 40
-5.0
 40
-4.0
 40
-3.0
 40
-2.0
 40
-1.0
 40
0.0
 40
0.0
 40
0.0
 40
0.0
 10
0.0
 20
16.1012020170593
 30
0.0
 10
-0.5102760775281062
 20
16.10040705336621
 30
0.0
 10
-1.530738609525921
 20
16.11868281712855
 30
0.0
 10
-3.059779571076865
 20
16.20107293633583
 30
0.0
 10
-4.582490860708207
 20
16.36028857318202
 30
0.0
 10
-6.090483877578968
 20
16.64429573931208
 30
0.0
 10
-7.520346836321244
 20
17.22287110177934
 30
0.0
 10
-8.71207518738171
 20
18.21762381634008
 30
0.0
 10
-9.263845691907445
 20
19.09082038700913
 30
0.0
 10
-9.47099543356499
 20
19.55647952632111
 30
0.0
  0
SPLINE
  5
59
330
1F
100
AcDbEntity
  8
5 star - arm 2d
 62
     7
100
AcDbSpline
210
0.0
220
0.0
230
1.0
 70
     8
 71
     3
 72
    14
 73
    10
 74
     0
 42
0.0000000001
 43
0.0000000001
 40
0.0115143888993895
 40
0.0115143888993895
 40
0.0115143888993895
 40
0.0115143888993895
 40
1.0
 40
2.0
 40
3.0
 40
4.0
 40
5.0
 40
6.0
 40
7.0
 40
7.0
 40
7.0
 40
7.0
 10
8.284104422280821
 20
17.89374652648139
 30
0.0
 10
7.95080911585223
 20
18.11882926344106
 30
0.0
 10
7.148542773252252
 20
18.19771027285915
 30
0.0
 10
5.967444718435604
 20
18.26148299751395
 30
0.0
 10
4.772854925378389
 20
18.29379653462215
 30
0.0
 10
3.579940338253927
 20
18.29436971070293
 30
0.0
 10
2.386556046866611
 20
18.30049433586367
 30
0.0
 10
1.193295964938117
 20
18.30444658417223
 30
0.0
 10
0.3977621819706307
 20
18.30707461771841
 30
0.0
 10
0.0000000000000036
 20
18.3082324037282
 30
0.0
  0
SPLINE
  5
5A
330
1F
100
AcDbEntity
  8
5 star - arm 2d
 62
     7
100
AcDbSpline
210
0.0
220
0.0
230
1.0
 70
     8
 71
     3
 72
    14
 73
    10
 74
     0
 42
0.0000000001
 43
0.0000000001
 40
-7.0
 40
-7.0
 40
-7.0
 40
-7.0
 40
-6.0
 40
-5.0
 40
-4.0
 40
-3.0
 40
-2.0
 40
-1.0
 40
-0.0115143888994373
 40
-0.0115143888994373
 40
-0.0115143888994373
 40
-0.0115143888994373
 10
0.0000000000000036
 20
18.3082324037282
 30
0.0
 10
-0.3977621819706236
 20
18.30707461771841
 30
0.0
 10
-1.19329596493811
 20
18.30444658417221
 30
0.0
 10
-2.386556046866604
 20
18.30049433586364
 30
0.0
 10
-3.57994033825392
 20
18.2943697107029
 30
0.0
 10
-4.772854925378382
 20
18.2937965346221
 30
0.0
 10
-5.967444718435596
 20
18.26148299751388
 30
0.0
 10
-7.148542773252225
 20
18.19771027285908
 30
0.0
 10
-7.950809115852183
 20
18.11882926344098
 30
0.0
 10
-8.28410442228076
 20
17.89374652648133
 30
0.0
  0
SPLINE
  5
5B
330
1F
100
AcDbEntity
  8
5 star - arm 2d
 62
     7
100
AcDbSpline
210
0.0
220
0.0
230
1.0
 70
    24
 71
     2
 72
     6
 73
     3
 74
     0
 42
0.0000000001
 43
0.0000000001
 40
0.0
 40
0.0
 40
0.0
 40
5.415527854385247
 40
5.415527854385247
 40
5.415527854385247
 10
43.88208100202739
 20
7.010027854385248
 30
0.0
 10
43.88208100202739
 20
4.302263927192625
 30
0.0
 10
43.8820810020274
 20
1.594500000000001
 30
0.0
  0
SPLINE
  5
5C
330
1F
100
AcDbEntity
  8
5 star - arm 2d
 62
     7
100
AcDbSpline
210
0.0
220
0.0
230
1.0
 70
    24
 71
     2
 72
     6
 73
     3
 74
     0
 42
0.0000000001
 43
0.0000000001
 40
0.0
 40
0.0
 40
0.0
 40
1.571614895041904
 40
1.571614895041904
 40
1.571614895041904
 10
43.8820810020274
 20
1.594500000000001
 30
0.0
 10
43.09627355450645
 20
1.594500000000001
 30
0.0
 10
42.31046610698549
 20
1.594500000000001
 30
0.0
  0
SPLINE
  5
5D
330
1F
100
AcDbEntity
  8
5 star - arm 2d
 62
     7
100
AcDbSpline
210
0.0
220
0.0
230
1.0
 70
    24
 71
     2
 72
     6
 73
     3
 74
     0
 42
0.0000000001
 43
0.0000000001
 40
0.0
 40
0.0
 40
0.0
 40
0.7989999999998556
 40
0.7989999999998556
 40
0.7989999999998556
 10
43.6454660020274
 20
11.44849999999986
 30
0.0
 10
43.6454660020274
 20
11.04899999999993
 30
0.0
 10
43.6454660020274
 20
10.6495
 30
0.0
  0
SPLINE
  5
5E
330
1F
100
AcDbEntity
  8
5 star - arm 2d
 62
     7
100
AcDbSpline
210
0.0
220
0.0
230
1.0
 70
    24
 71
     2
 72
     6
 73
     3
 74
     0
 42
0.0000000001
 43
0.0000000001
 40
0.0
 40
0.0
 40
0.0
 40
0.6875000000001279
 40
0.6875000000001279
 40
0.6875000000001279
 10
33.0021117745906
 20
2.641962854402995
 30
0.0
 10
32.65836177459054
 20
2.641962854402996
 30
0.0
 10
32.31461177459047
 20
2.641962854402996
 30
0.0
  0
SPLINE
  5
5F
330
1F
100
AcDbEntity
  8
5 star - arm 2d
 62
     7
100
AcDbSpline
210
0.0
220
0.0
230
1.0
 70
    24
 71
     2
 72
     6
 73
     3
 74
     0
 42
0.0000000001
 43
0.0000000001
 40
0.0
 40
0.0
 40
0.0
 40
0.0819628544030055
 40
0.0819628544030055
 40
0.0819628544030055
 10
32.31461177459047
 20
2.559999999999991
 30
0.0
 10
32.31461177459047
 20
2.600981427201494
 30
0.0
 10
32.31461177459047
 20
2.641962854402996
 30
0.0
  0
SPLINE
  5
60
330
1F
100
AcDbEntity
  8
5 star - arm 2d
 62
     7
100
AcDbSpline
210
0.0
220
0.0
230
1.0
 70
    24
 71
     2
 72
     6
 73
     3
 74
     0
 42
0.0000000001
 43
0.0000000001
 40
0.0
 40
0.0
 40
0.0
 40
0.6875000000001208
 40
0.6875000000001208
 40
0.6875000000001208
 10
47.42475022946191
 20
2.641962854402996
 30
0.0
 10
47.08100022946185
 20
2.641962854402997
 30
0.0
 10
46.73725022946179
 20
2.641962854402997
 30
0.0
  0
SPLINE
  5
61
330
1F
100
AcDbEntity
  8
5 star - arm 2d
 62
     7
100
AcDbSpline
210
0.0
220
0.0
230
1.0
 70
    24
 71
     2
 72
     6
 73
     3
 74
     0
 42
0.0000000001
 43
0.0000000001
 40
0.0
 40
0.0
 40
0.0
 40
0.0819628544030055
 40
0.0819628544030055
 40
0.0819628544030055
 10
46.73725022946179
 20
2.559999999999992
 30
0.0
 10
46.73725022946179
 20
2.600981427201495
 30
0.0
 10
46.73725022946179
 20
2.641962854402997
 30
0.0
  0
SPLINE
  5
62
330
1F
100
AcDbEntity
  8
5 star - arm 2d
 62
     7
100
AcDbSpline
210
0.0
220
0.0
230
1.0
 70
    24
 71
     2
 72
     6
 73
     3
 74
     0
 42
0.0000000001
 43
0.0000000001
 40
0.0
 40
0.0
 40
0.0
 40
0.6875000000001208
 40
0.6875000000001208
 40
0.6875000000001208
 10
55.65093100202353
 20
2.641962854402997
 30
0.0
 10
55.99468100202358
 20
2.641962854402996
 30
0.0
 10
56.33843100202365
 20
2.641962854402996
 30
0.0
  0
SPLINE
  5
63
330
1F
100
AcDbEntity
  8
5 star - arm 2d
 62
     7
100
AcDbSpline
210
0.0
220
0.0
230
1.0
 70
    24
 71
     2
 72
     6
 73
     3
 74
     0
 42
0.0000000001
 43
0.0000000001
 40
0.0
 40
0.0
 40
0.0
 40
0.0819628544030055
 40
0.0819628544030055
 40
0.0819628544030055
 10
55.65093100202353
 20
2.559999999999991
 30
0.0
 10
55.65093100202353
 20
2.600981427201494
 30
0.0
 10
55.65093100202353
 20
2.641962854402997
 30
0.0
  0
SPLINE
  5
64
330
1F
100
AcDbEntity
  8
5 star - arm 2d
 62
     7
100
AcDbSpline
210
0.0
220
0.0
230
1.0
 70
    24
 71
     2
 72
     6
 73
     3
 74
     0
 42
0.0000000001
 43
0.0000000001
 40
0.0
 40
0.0
 40
0.0
 40
6.037627544110311
 40
6.037627544110311
 40
6.037627544110311
 10
42.30728100202739
 20
7.632127544110312
 30
0.0
 10
42.30728100202739
 20
4.613313772055156
 30
0.0
 10
42.30728100202739
 20
1.5945
 30
0.0
  0
SPLINE
  5
65
330
1F
100
AcDbEntity
  8
5 star - arm 2d
 62
     7
100
AcDbSpline
210
0.0
220
0.0
230
1.0
 70
    24
 71
     2
 72
     6
 73
     3
 74
     0
 42
0.0000000001
 43
0.0000000001
 40
0.0
 40
0.0
 40
0.0
 40
0.7989999999999959
 40
0.7989999999999959
 40
0.7989999999999959
 10
42.5438960020274
 20
11.4485
 30
0.0
 10
42.5438960020274
 20
11.049
 30
0.0
 10
42.5438960020274
 20
10.6495
 30
0.0
  0
SPLINE
  5
66
330
1F
100
AcDbEntity
  8
5 star - arm 2d
 62
     7
100
AcDbSpline
210
0.0
220
0.0
230
1.0
 70
    24
 71
     2
 72
     6
 73
     3
 74
     0
 42
0.0000000001
 43
0.0000000001
 40
0.0
 40
0.0
 40
0.0
 40
0.0819628544030051
 40
0.0819628544030051
 40
0.0819628544030051
 10
33.0021117745906
 20
2.55999999999999
 30
0.0
 10
33.0021117745906
 20
2.600981427201493
 30
0.0
 10
33.0021117745906
 20
2.641962854402995
 30
0.0
  0
SPLINE
  5
67
330
1F
100
AcDbEntity
  8
5 star - arm 2d
 62
     7
100
AcDbSpline
210
0.0
220
0.0
230
1.0
 70
    24
 71
     2
 72
     6
 73
     3
 74
     0
 42
0.0000000001
 43
0.0000000001
 40
0.0
 40
0.0
 40
0.0
 40
0.0819628544030055
 40
0.0819628544030055
 40
0.0819628544030055
 10
47.42475022946191
 20
2.559999999999991
 30
0.0
 10
47.42475022946191
 20
2.600981427201494
 30
0.0
 10
47.42475022946191
 20
2.641962854402996
 30
0.0
  0
SPLINE
  5
68
330
1F
100
AcDbEntity
  8
5 star - arm 2d
 62
     7
100
AcDbSpline
210
0.0
220
0.0
230
1.0
 70
    24
 71
     2
 72
     6
 73
     3
 74
     0
 42
0.0000000001
 43
0.0000000001
 40
0.0
 40
0.0
 40
0.0
 40
0.0819628544030055
 40
0.0819628544030055
 40
0.0819628544030055
 10
56.33843100202365
 20
2.55999999999999
 30
0.0
 10
56.33843100202365
 20
2.600981427201493
 30
0.0
 10
56.33843100202365
 20
2.641962854402996
 30
0.0
  0
SPLINE
  5
69
330
1F
100
AcDbEntity
  8
5 star - arm 2d
 62
     7
100
AcDbSpline
210
0.0
220
0.0
230
1.0
 70
     8
 71
     3
 72
    13
 73
     9
 74
     0
 42
0.0000000001
 43
0.0000000001
 40
0.0
 40
0.0
 40
0.0
 40
0.0
 40
0.2981212301897408
 40
0.6520033169486873
 40
1.758667477961158
 40
2.027920145093279
 40
2.255864737809852
 40
2.398137421766556
 40
2.398137421766556
 40
2.398137421766556
 40
2.398137421766556
 10
40.87973850500006
 20
13.43934109768011
 30
0.0
 10
40.92443272586447
 20
13.35050118606836
 30
0.0
 10
41.03279204071114
 20
13.16208929473772
 30
0.0
 10
41.35795910109579
 20
12.67367285548259
 30
0.0
 10
41.72466109466762
 20
12.22778141601311
 30
0.0
 10
42.03970388287377
 20
11.79589389131447
 30
0.0
 10
42.15093359046721
 20
11.61353389510526
 30
0.0
 10
42.19370811827841
 20
11.49659361000831
 30
0.0
 10
42.19467849631443
 20
11.44850000000026
 30
0.0
  0
SPLINE
  5
6A
330
1F
100
AcDbEntity
  8
5 star - arm 2d
 62
     7
100
AcDbSpline
210
0.0
220
0.0
230
1.0
 70
     8
 71
     3
 72
    15
 73
    11
 74
     0
 42
0.0000000001
 43
0.0000000001
 40
0.0
 40
0.0
 40
0.0
 40
0.0
 40
0.088124537773681
 40
0.2036322619253983
 40
0.5536785235545323
 40
0.9663894600886468
 40
2.317551417327644
 40
3.055061107656346
 40
3.592815813003493
 40
4.012655738350881
 40
4.012655738350881
 40
4.012655738350881
 40
4.012655738350881
 10
43.99468334841906
 20
11.44850000000006
 30
0.0
 10
43.99527958264739
 20
11.47745775224647
 30
0.0
 10
44.01540190044006
 20
11.54494407003988
 30
0.0
 10
44.13701656561458
 20
11.68606875203309
 30
0.0
 10
44.38051271275182
 20
11.85146864294019
 30
0.0
 10
44.99978223326541
 20
12.18678443185859
 30
0.0
 10
45.7566797438328
 20
12.53919912979094
 30
0.0
 10
46.51111582423577
 20
12.98530508446312
 30
0.0
 10
46.95709825171792
 20
13.33535713629871
 30
0.0
 10
47.15983669539897
 20
13.58573020979586
 30
0.0
 10
47.22490726390367
 20
13.71003368292902
 30
0.0
  0
SPLINE
  5
6B
330
1F
100
AcDbEntity
  8
5 star - arm 2d
 62
     7
100
AcDbSpline
210
0.0
220
0.0
230
1.0
 70
     8
 71
     3
 72
     8
 73
     4
 74
     0
 42
0.0000000001
 43
0.0000000001
 40
0.0
 40
0.0
 40
0.0
 40
0.0
 40
1.0
 40
1.0
 40
1.0
 40
1.0
 10
30.71778527480228
 20
32.60563943896038
 30
0.0
 10
30.44407856185914
 20
32.58467294637859
 30
0.0
 10
30.32247491641085
 20
32.40620709309059
 30
0.0
 10
30.33260236122177
 20
32.12136769387737
 30
0.0
  0
SPLINE
  5
6C
330
1F
100
AcDbEntity
  8
5 star - arm 2d
 62
     7
100
AcDbSpline
210
0.0
220
0.0
230
1.0
 70
     8
 71
     3
 72
    19
 73
    15
 74
     0
 42
0.0000000001
 43
0.0000000001
 40
0.0
 40
0.0
 40
0.0
 40
0.0
 40
1.0
 40
2.0
 40
3.0
 40
4.0
 40
5.0
 40
6.0
 40
7.0
 40
8.0
 40
9.0
 40
10.0
 40
11.0
 40
12.0
 40
12.0
 40
12.0
 40
12.0
 10
30.33260236122177
 20
32.12136769387737
 30
0.0
 10
30.3696387365441
 20
31.07970130192856
 30
0.0
 10
30.68022486142307
 20
29.01715378954377
 30
0.0
 10
31.35678318340027
 20
25.96728021038011
 30
0.0
 10
32.18654865025871
 20
22.95580111252375
 30
0.0
 10
33.1476544088371
 20
19.9811261355704
 30
0.0
 10
34.59894662839405
 20
17.18718548406065
 30
0.0
 10
36.94011686750054
 20
15.03605991381495
 30
0.0
 10
39.88268640392833
 20
13.84666220229159
 30
0.0
 10
43.02283251801251
 20
13.67791231924028
 30
0.0
 10
46.14141579312741
 20
13.75303428126253
 30
0.0
 10
49.26151204094185
 20
13.93534785221607
 30
0.0
 10
52.36634570971647
 20
14.27737688735597
 30
0.0
 10
54.41136306105047
 20
14.703839013899
 30
0.0
 10
55.38968768650923
 20
15.06583689480381
 30
0.0
  0
SPLINE
  5
6D
330
1F
100
AcDbEntity
  8
5 star - arm 2d
 62
     7
100
AcDbSpline
210
0.0
220
0.0
230
1.0
 70
     8
 71
     3
 72
    10
 73
     6
 74
     0
 42
0.0000000001
 43
0.0000000001
 40
0.0
 40
0.0
 40
0.0
 40
0.0
 40
1.0
 40
2.0
 40
3.0
 40
3.0
 40
3.0
 40
3.0
 10
55.38968768650923
 20
15.06583689480381
 30
0.0
 10
55.49289473957084
 20
15.10578084523488
 30
0.0
 10
55.68653653500406
 20
15.23751381317955
 30
0.0
 10
55.7954580252094
 20
15.57518747396434
 30
0.0
 10
55.69018412882004
 20
15.79100859495645
 30
0.0
 10
55.61352655984639
 20
15.87075402351357
 30
0.0
  0
SPLINE
  5
6E
330
1F
100
AcDbEntity
  8
5 star - arm 2d
 62
     7
100
AcDbSpline
210
0.0
220
0.0
230
1.0
 70
     8
 71
     3
 72
    34
 73
    30
 74
     0
 42
0.0000000001
 43
0.0000000001
 40
-27.0
 40
-27.0
 40
-27.0
 40
-27.0
 40
-26.0
 40
-25.0
 40
-24.0
 40
-23.0
 40
-22.0
 40
-21.0
 40
-20.0
 40
-19.0
 40
-18.0
 40
-17.0
 40
-16.0
 40
-15.0
 40
-14.0
 40
-13.0
 40
-12.0
 40
-11.0
 40
-10.0
 40
-9.0
 40
-8.0
 40
-7.0
 40
-6.0
 40
-5.0
 40
-4.0
 40
-3.0
 40
-2.0
 40
-1.0
 40
0.0
 40
0.0
 40
0.0
 40
0.0
 10
55.61352655984639
 20
15.87075402351357
 30
0.0
 10
55.31617581763649
 20
16.12038336815544
 30
0.0
 10
54.67186285720483
 20
16.5664018448311
 30
0.0
 10
53.90284866365403
 20
17.45298369987544
 30
0.0
 10
53.19852924580324
 20
18.38311622605924
 30
0.0
 10
52.51355287705967
 20
19.32948402579496
 30
0.0
 10
51.79020471805839
 20
20.2466958560088
 30
0.0
 10
51.03920230292519
 20
21.14133981480397
 30
0.0
 10
50.24431804942405
 20
21.99766457387185
 30
0.0
 10
49.40705141820138
 20
22.81228104233686
 30
0.0
 10
48.52417696624634
 20
23.5777822116949
 30
0.0
 10
47.59575145908227
 20
24.28754336380345
 30
0.0
 10
46.60585248293317
 20
24.90960910125816
 30
0.0
 10
45.56918121995758
 20
25.44987239902528
 30
0.0
 10
44.47953331322758
 20
25.87635786702863
 30
0.0
 10
43.34612774274507
 20
26.16617982561717
 30
0.0
 10
42.19044782799205
 20
26.34039358019039
 30
0.0
 10
41.02919547833683
 20
26.46375404281996
 30
0.0
 10
39.86580200801559
 20
26.57259494163667
 30
0.0
 10
38.71022538061285
 20
26.73315989163954
 30
0.0
 10
37.57022499891774
 20
27.03012875953719
 30
0.0
 10
36.56531040403589
 20
27.64207776130208
 30
0.0
 10
35.69208210992819
 20
28.4254611215922
 30
0.0
 10
34.99272980650868
 20
29.36347308870382
 30
0.0
 10
34.3558983831963
 20
30.34302384343862
 30
0.0
 10
33.73386545074966
 20
31.32945499925875
 30
0.0
 10
32.97203877579979
 20
32.23286050782536
 30
0.0
 10
31.90894183251778
 20
32.7800126210153
 30
0.0
 10
31.10094353734472
 20
32.6349901435261
 30
0.0
 10
30.71778527480228
 20
32.60563943896038
 30
0.0
  0
SPLINE
  5
6F
330
1F
100
AcDbEntity
  8
5 star - arm 2d
 62
     7
100
AcDbSpline
210
0.0
220
0.0
230
1.0
 70
     8
 71
     3
 72
    13
 73
     9
 74
     0
 42
0.0000000001
 43
0.0000000001
 40
0.0
 40
0.0
 40
0.0
 40
0.0
 40
0.221081552131047
 40
0.4532204846550357
 40
0.9832619185522135
 40
1.5024722513687
 40
1.989612707728416
 40
3.885149291570795
 40
3.885149291570795
 40
3.885149291570795
 40
3.885149291570795
 10
55.15968400874313
 20
16.21764138079162
 30
0.0
 10
55.21203208148822
 20
16.26939886058732
 30
0.0
 10
55.305620660885
 20
16.38994248652102
 30
0.0
 10
55.42958732062686
 20
16.69634571711317
 30
0.0
 10
55.4558673346673
 20
17.13074582422336
 30
0.0
 10
55.30345727694964
 20
17.62836419094209
 30
0.0
 10
54.66460733554213
 20
18.38565695554454
 30
0.0
 10
53.61810019610751
 20
18.31554258125414
 30
0.0
 10
53.25328437171896
 20
18.31402731467198
 30
0.0
  0
POLYLINE
  5
70
330
1F
100
AcDbEntity
  8
5 star - arm 2d
 62
     7
100
AcDb2dPolyline
 66
     1
 10
0.0
 20
0.0
 30
0.0
  0
VERTEX
  5
71
330
70
100
AcDbEntity
  8
5 star - arm 2d
 62
     7
100
AcDbVertex
100
AcDb2dVertex
 10
43.99468334841906
 20
11.44850000000006
 30
0.0
  0
VERTEX
  5
72
330
70
100
AcDbEntity
  8
5 star - arm 2d
 62
     7
100
AcDbVertex
100
AcDb2dVertex
 10
42.19467849631443
 20
11.44850000000026
 30
0.0
  0
SEQEND
  5
73
330
70
100
AcDbEntity
  8
5 star - arm 2d
 62
     7
  0
LINE
  5
74
330
1F
100
AcDbEntity
  8
5 star - arm 2d
 62
     7
100
AcDbLine
 10
47.67981209627867
 20
13.84846052056485
 30
0.0
 11
47.6753615098907
 21
13.82179986645542
 31
0.0
  0
ARC
  5
75
330
1F
100
AcDbEntity
  8
5 star - arm 2d
 62
     7
100
AcDbCircle
 10
47.62617073201359
 20
13.83001151068345
 30
0.0
 40
0.0498714720966085
100
AcDbArc
 50
280.2642652631743
 51
350.5227403102793
  0
SPLINE
  5
76
330
1F
100
AcDbEntity
  8
5 star - arm 2d
 62
     7
100
AcDbSpline
210
0.0
220
0.0
230
1.0
 70
     8
 71
     3
 72
    12
 73
     8
 74
     0
 42
0.0000000001
 43
0.0000000001
 40
0.0
 40
0.0
 40
0.0
 40
0.0
 40
1.0
 40
2.0
 40
3.0
 40
4.0
 40
5.0
 40
5.0
 40
5.0
 40
5.0
 10
47.63505725692819
 20
13.78093816349758
 30
0.0
 10
47.16643300907461
 20
13.69521955351942
 30
0.0
 10
46.22439225714676
 20
13.54949985752081
 30
0.0
 10
44.80178620526481
 20
13.40882917422387
 30
0.0
 10
43.37254723827583
 20
13.34669266167634
 30
0.0
 10
41.94592824464897
 20
13.36275072100859
 30
0.0
 10
40.98723418514349
 20
13.42667253936713
 30
0.0
 10
40.52696617583102
 20
13.47002899673343
 30
0.0
  0
SPLINE
  5
77
330
1F
100
AcDbEntity
  8
5 star - arm 2d
 62
     7
100
AcDbSpline
210
0.0
220
0.0
230
1.0
 70
     8
 71
     3
 72
     8
 73
     4
 74
     0
 42
0.0000000001
 43
0.0000000001
 40
0.0
 40
0.0
 40
0.0
 40
0.0
 40
1.0
 40
1.0
 40
1.0
 40
1.0
 10
40.52696617583102
 20
13.47002899673343
 30
0.0
 10
40.50116609835923
 20
13.47245931979808
 30
0.0
 10
40.48299046509908
 20
13.48637659166176
 30
0.0
 10
40.47841170298165
 20
13.51108137796573
 30
0.0
  0
SPLINE
  5
78
330
1F
100
AcDbEntity
  8
5 star - arm 2d
 62
     7
100
AcDbSpline
210
0.0
220
0.0
230
1.0
 70
    24
 71
     2
 72
     6
 73
     3
 74
     0
 42
0.0000000001
 43
0.0000000001
 40
-0.4665619595548645
 40
-0.4665619595548645
 40
-0.4665619595548645
 40
-0.0496360617664248
 40
-0.0496360617664248
 40
-0.0496360617664248
 10
40.47841170298165
 20
13.51108137796573
 30
0.0
 10
40.44042234298222
 20
13.71605359459156
 30
0.0
 10
40.40243298298279
 20
13.9210258112174
 30
0.0
  0
SPLINE
  5
79
330
1F
100
AcDbEntity
  8
5 star - arm 2d
 62
     7
100
AcDbSpline
210
0.0
220
0.0
230
1.0
 70
    24
 71
     2
 72
     6
 73
     3
 74
     0
 42
0.0000000001
 43
0.0000000001
 40
-0.1769999999999996
 40
-0.1769999999999996
 40
-0.1769999999999996
 40
0.0
 40
0.0
 40
0.0
 10
42.0120060020274
 20
10.4725
 30
0.0
 10
42.01310088185679
 20
10.56100000309944
 30
0.0
 10
42.01419576168617
 20
10.64950000619888
 30
0.0
  0
SPLINE
  5
7A
330
1F
100
AcDbEntity
  8
5 star - arm 2d
 62
     7
100
AcDbSpline
210
0.0
220
0.0
230
1.0
 70
    12
 71
     2
 72
    10
 73
     7
 74
     0
 42
0.0000000001
 43
0.0000000001
 40
0.0
 40
0.0
 40
0.0
 40
0.0021911685109025
 40
0.0021911685109025
 40
1.703947257026892
 40
1.703947257026892
 40
3.405703345542882
 40
3.405703345542882
 40
3.405703345542882
 10
42.01419576168617
 20
10.64950000619888
 30
0.0
 41
1.0
 10
42.01310088185679
 20
10.64950001239777
 30
0.0
 41
1.0
 10
42.0120060020274
 20
10.64950001239777
 30
0.0
 41
1.0
 10
42.01200600202739
 20
10.6495
 30
0.0
 41
0.7071067811865476
 10
43.0946810020274
 20
10.6495
 30
0.0
 41
1.0
 10
44.17735600202739
 20
10.6495
 30
0.0
 41
0.7071067811865476
 10
44.17735600202739
 20
10.6495
 30
0.0
 41
1.0
  0
SPLINE
  5
7B
330
1F
100
AcDbEntity
  8
5 star - arm 2d
 62
     7
100
AcDbSpline
210
0.0
220
0.0
230
1.0
 70
    24
 71
     2
 72
     6
 73
     3
 74
     0
 42
0.0000000001
 43
0.0000000001
 40
0.0
 40
0.0
 40
0.0
 40
0.1769999999999996
 40
0.1769999999999996
 40
0.1769999999999996
 10
44.17735600202739
 20
10.6495
 30
0.0
 10
44.17735600202739
 20
10.561
 30
0.0
 10
44.17735600202739
 20
10.4725
 30
0.0
  0
SPLINE
  5
7C
330
1F
100
AcDbEntity
  8
5 star - arm 2d
 62
     7
100
AcDbSpline
210
0.0
220
0.0
230
1.0
 70
    12
 71
     3
 72
    21
 73
    17
 74
     0
 42
0.0000000001
 43
0.0000000001
 40
-7.148995450957644
 40
-7.148995450957644
 40
-7.148995450957644
 40
-7.148995450957644
 40
-6.999997746876256
 40
-6.5
 40
-6.5
 40
-6.25
 40
-6.25
 40
-6.0
 40
-6.0
 40
-6.0
 40
-5.0
 40
-4.0
 40
-3.0
 40
-2.0
 40
-1.0
 40
0.0
 40
0.0
 40
0.0
 40
0.0
 10
56.39511566006564
 20
4.079334364497554
 30
0.0
 41
1.0
 10
55.88610925067466
 20
4.273995294915755
 30
0.0
 41
1.0
 10
53.73159932945487
 20
5.300552222585149
 30
0.0
 41
1.0
 10
51.57696891871927
 20
6.326833849022997
 30
0.0
 41
1.0
 10
49.08596316758858
 20
7.510546542405122
 30
0.0
 41
1.0
 10
48.25547496988823
 20
7.904805171738998
 30
0.0
 41
1.0
 10
46.59310763796956
 20
8.69020748263841
 30
0.0
 41
1.0
 10
45.76238286335919
 20
9.084245044542454
 30
0.0
 41
1.0
 10
44.92526611131455
 20
9.462949896847803
 30
0.0
 41
1.0
 10
44.83132194155611
 20
9.505449479906463
 30
0.0
 41
1.0
 10
44.60591117431252
 20
9.61463227854975
 30
0.0
 41
1.0
 10
44.51070139950453
 20
9.654118594415573
 30
0.0
 41
1.0
 10
44.41188508106041
 20
9.685243090258787
 30
0.0
 41
1.0
 10
44.31184339585272
 20
9.704680174701346
 30
0.0
 41
1.0
 10
44.19950155968233
 20
9.679964009554032
 30
0.0
 41
1.0
 10
44.19437563537945
 20
9.599503485292313
 30
0.0
 41
1.0
 10
44.21318958323924
 20
9.568760899524662
 30
0.0
 41
1.0
  0
POLYLINE
  5
7D
330
1F
100
AcDbEntity
  8
5 star - arm 2d
 62
     7
100
AcDb2dPolyline
 66
     1
 10
0.0
 20
0.0
 30
0.0
  0
VERTEX
  5
7E
330
7D
100
AcDbEntity
  8
5 star - arm 2d
 62
     7
100
AcDbVertex
100
AcDb2dVertex
 10
44.21318958323924
 20
9.568760899524662
 30
0.0
  0
VERTEX
  5
7F
330
7D
100
AcDbEntity
  8
5 star - arm 2d
 62
     7
100
AcDbVertex
100
AcDb2dVertex
 10
47.45859922051678
 20
4.265658920678066
 30
0.0
  0
SEQEND
  5
80
330
7D
100
AcDbEntity
  8
5 star - arm 2d
 62
     7
  0
SPLINE
  5
81
330
1F
100
AcDbEntity
  8
5 star - arm 2d
 62
     7
100
AcDbSpline
210
0.0
220
0.0
230
1.0
 70
     8
 71
     3
 72
     8
 73
     4
 74
     0
 42
0.0000000001
 43
0.0000000001
 40
0.0
 40
0.0
 40
0.0
 40
0.0
 40
1.0
 40
1.0
 40
1.0
 40
1.0
 10
47.45859922051678
 20
4.265658920678066
 30
0.0
 10
47.47300167333083
 20
4.242124857322507
 30
0.0
 10
47.48163550484331
 20
4.200330909825125
 30
0.0
 10
47.48253206447097
 20
4.172003142402237
 30
0.0
  0
SPLINE
  5
82
330
1F
100
AcDbEntity
  8
5 star - arm 2d
 62
     7
100
AcDbSpline
210
0.0
220
0.0
230
1.0
 70
    12
 71
     2
 72
     6
 73
     3
 74
     0
 42
0.0000000001
 43
0.0000000001
 40
-1.512756969035545
 40
-1.512756969035545
 40
-1.512756969035545
 40
0.0
 40
0.0
 40
0.0
 10
47.48253206447097
 20
4.172003142402237
 30
0.0
 41
1.0
 10
47.50645908413505
 20
3.416003176248295
 30
0.0
 41
0.9999999485412034
 10
47.53087116009347
 20
2.660018717650004
 30
0.0
 41
1.0
  0
POLYLINE
  5
83
330
1F
100
AcDbEntity
  8
5 star - arm 2d
 62
     7
100
AcDb2dPolyline
 66
     1
 10
0.0
 20
0.0
 30
0.0
  0
VERTEX
  5
84
330
83
100
AcDbEntity
  8
5 star - arm 2d
 62
     7
100
AcDbVertex
100
AcDb2dVertex
 10
47.53087116009347
 20
2.660018717650004
 30
0.0
  0
VERTEX
  5
85
330
83
100
AcDbEntity
  8
5 star - arm 2d
 62
     7
100
AcDbVertex
100
AcDb2dVertex
 10
46.63117911630125
 20
2.660168991875378
 30
0.0
  0
SEQEND
  5
86
330
83
100
AcDbEntity
  8
5 star - arm 2d
 62
     7
  0
SPLINE
  5
87
330
1F
100
AcDbEntity
  8
5 star - arm 2d
 62
     7
100
AcDbSpline
210
0.0
220
0.0
230
1.0
 70
    12
 71
     2
 72
     6
 73
     3
 74
     0
 42
0.0000000001
 43
0.0000000001
 40
-1.245793831308005
 40
-1.245793831308005
 40
-1.245793831308005
 40
-0.3022830972799434
 40
-0.3022830972799434
 40
-0.3022830972799434
 10
46.63117911630125
 20
2.660168991875378
 30
0.0
 41
1.0
 10
46.66312211202106
 20
3.131786774104664
 30
0.0
 41
0.996441755678691
 10
46.62568188706698
 20
3.603000013568393
 30
0.0
 41
0.9982732341623577
  0
SPLINE
  5
88
330
1F
100
AcDbEntity
  8
5 star - arm 2d
 62
     7
100
AcDbSpline
210
0.0
220
0.0
230
1.0
 70
    12
 71
     3
 72
    27
 73
    23
 74
     0
 42
0.0000000001
 43
0.0000000001
 40
-4.752632627550671
 40
-4.752632627550671
 40
-4.752632627550671
 40
-4.752632627550671
 40
0.0
 40
0.0
 40
0.0
 40
1.0
 40
2.0
 40
3.0
 40
4.0
 40
5.0
 40
5.0
 40
5.0
 40
13.53766226575111
 40
13.53766226575111
 40
13.53766226575111
 40
14.53766226575111
 40
14.53766226575111
 40
14.53766226575111
 40
15.43738962158345
 40
15.43738962158345
 40
15.43738962158345
 40
16.88644113557532
 40
16.88644113557532
 40
16.88644113557532
 40
16.88644113557532
 10
46.62568188706699
 20
3.603000013568392
 30
0.0
 41
1.0
 10
45.63198633467423
 20
4.83681246519216
 30
0.0
 41
1.0
 10
44.63829078228148
 20
6.070624916815835
 30
0.0
 41
1.0
 10
43.64459522988871
 20
7.304437368439513
 30
0.0
 41
1.0
 10
43.53690055014339
 20
7.428400774618882
 30
0.0
 41
1.0
 10
43.24744738936143
 20
7.594334340050533
 30
0.0
 41
1.0
 10
42.76417130274181
 20
7.698992582068023
 30
0.0
 41
1.0
 10
42.27314237880135
 20
7.639441152800283
 30
0.0
 41
1.0
 10
41.80390486015385
 20
7.499181342977608
 30
0.0
 41
1.0
 10
41.50203925173376
 20
7.37391067205007
 30
0.0
 41
1.0
 10
41.3544529999745
 20
7.304437368438134
 30
0.0
 41
1.0
 10
38.78279254347336
 20
6.085569912048854
 30
0.0
 41
0.9999999800532681
 10
36.21143032639016
 20
4.866073405972472
 30
0.0
 41
0.9999999800532681
 10
33.64036650259575
 20
3.6459479231839
 30
0.0
 41
1.0
 10
33.2765530819655
 20
3.473296423293735
 30
0.0
 41
1.0
 10
33.10819782206021
 20
3.087066298520889
 30
0.0
 41
1.0
 10
33.10819782206021
 20
2.660000000000137
 30
0.0
 41
1.0
 10
32.80828870483509
 20
2.660028829766123
 30
0.0
 41
1.0
 10
32.50837958760999
 20
2.660057659532109
 30
0.0
 41
1.0
 10
32.2084704703849
 20
2.660086489298094
 30
0.0
 41
1.0
 10
32.22497806911657
 20
3.142821502051313
 30
0.0
 41
0.9999999761964694
 10
32.24135666713964
 20
3.625560908854334
 30
0.0
 41
0.9999999761964694
 10
32.25806376839803
 20
4.116482490286194
 30
0.0
 41
1.0
  0
SPLINE
  5
89
330
1F
100
AcDbEntity
  8
5 star - arm 2d
 62
     7
100
AcDbSpline
210
0.0
220
0.0
230
1.0
 70
    12
 71
     2
 72
     6
 73
     3
 74
     0
 42
0.0000000001
 43
0.0000000001
 40
-0.1475718051851499
 40
-0.1475718051851499
 40
-0.1475718051851499
 40
0.0
 40
0.0
 40
0.0
 10
32.25806376839803
 20
4.116482490286194
 30
0.0
 41
1.0
 10
32.27756493522882
 20
4.19147370520915
 30
0.0
 41
0.9298992403779746
 10
32.34308811207873
 20
4.2328342071268
 30
0.0
 41
1.0
  0
LINE
  5
8A
330
1F
100
AcDbEntity
  8
5 star - arm 2d
 62
     7
100
AcDbLine
 10
32.34308811207873
 20
4.2328342071268
 30
0.0
 11
41.25267882920324
 21
9.530657053041132
 31
0.0
  0
SPLINE
  5
8B
330
1F
100
AcDbEntity
  8
5 star - arm 2d
 62
     7
100
AcDbSpline
210
0.0
220
0.0
230
1.0
 70
     8
 71
     3
 72
     8
 73
     4
 74
     0
 42
0.0000000001
 43
0.0000000001
 40
0.0
 40
0.0
 40
0.0
 40
0.0
 40
1.0
 40
1.0
 40
1.0
 40
1.0
 10
41.25267882920324
 20
9.530657053041132
 30
0.0
 10
41.36354958712955
 20
9.596576583270489
 30
0.0
 10
41.54937019516137
 20
9.72099660626138
 30
0.0
 10
41.66473866307581
 20
9.777064126742816
 30
0.0
  0
SPLINE
  5
8C
330
1F
100
AcDbEntity
  8
5 star - arm 2d
 62
     7
100
AcDbSpline
210
0.0
220
0.0
230
1.0
 70
    12
 71
     2
 72
     6
 73
     3
 74
     0
 42
0.0000000001
 43
0.0000000001
 40
-0.5156585066182181
 40
-0.5156585066182181
 40
-0.5156585066182181
 40
0.0
 40
0.0
 40
0.0
 10
41.66473866307581
 20
9.777064126742816
 30
0.0
 41
1.0
 10
41.91961919341376
 20
9.900932629232077
 30
0.0
 41
0.8700566014254595
 10
41.94438566874348
 20
10.18337301756451
 30
0.0
 41
1.0
  0
SPLINE
  5
8D
330
1F
100
AcDbEntity
  8
5 star - arm 2d
 62
     7
100
AcDbSpline
210
0.0
220
0.0
230
1.0
 70
    24
 71
     2
 72
     6
 73
     3
 74
     0
 42
0.0000000001
 43
0.0000000001
 40
-0.235113173942888
 40
-0.235113173942888
 40
-0.235113173942888
 40
0.0
 40
0.0
 40
0.0
 10
41.94438566874348
 20
10.18337301756451
 30
0.0
 10
41.95463743159432
 20
10.30055120314601
 30
0.0
 10
41.96488919444517
 20
10.4177293887275
 30
0.0
  0
SPLINE
  5
8E
330
1F
100
AcDbEntity
  8
5 star - arm 2d
 62
     7
100
AcDbSpline
210
0.0
220
0.0
230
1.0
 70
     8
 71
     3
 72
     8
 73
     4
 74
     0
 42
0.0000000001
 43
0.0000000001
 40
0.0
 40
0.0
 40
0.0
 40
0.0
 40
1.0
 40
1.0
 40
1.0
 40
1.0
 10
41.96488919444517
 20
10.4177293887275
 30
0.0
 10
41.96785550526011
 20
10.45163447648856
 30
0.0
 10
41.98403918391547
 20
10.4725
 30
0.0
 10
42.01638552134495
 20
10.4725
 30
0.0
  0
SPLINE
  5
8F
330
1F
100
AcDbEntity
  8
5 star - arm 2d
 62
     7
100
AcDbSpline
210
0.0
220
0.0
230
1.0
 70
    24
 71
     2
 72
     6
 73
     3
 74
     0
 42
0.0000000001
 43
0.0000000001
 40
-2.160970480682444
 40
-2.160970480682444
 40
-2.160970480682444
 40
0.0
 40
0.0
 40
0.0
 10
42.01638552134495
 20
10.4725
 30
0.0
 10
43.09687076168618
 20
10.4725
 30
0.0
 10
44.17735600202739
 20
10.4725
 30
0.0
  0
SPLINE
  5
90
330
1F
100
AcDbEntity
  8
5 star - arm 2d
 62
     7
100
AcDbSpline
210
0.0
220
0.0
230
1.0
 70
     8
 71
     3
 72
     8
 73
     4
 74
     0
 42
0.0000000001
 43
0.0000000001
 40
-1.0
 40
-1.0
 40
-1.0
 40
-1.0
 40
0.0
 40
0.0
 40
0.0
 40
0.0
 10
44.17735600202739
 20
10.4725
 30
0.0
 10
44.20793926924253
 20
10.4725
 30
0.0
 10
44.22158439578226
 20
10.45074410980692
 30
0.0
 10
44.22447280960618
 20
10.4177293887275
 30
0.0
  0
SPLINE
  5
91
330
1F
100
AcDbEntity
  8
5 star - arm 2d
 62
     7
100
AcDbSpline
210
0.0
220
0.0
230
1.0
 70
    24
 71
     2
 72
     6
 73
     3
 74
     0
 42
0.0000000001
 43
0.0000000001
 40
-0.2350597603612618
 40
-0.2350597603612618
 40
-0.2350597603612618
 40
0.0
 40
0.0
 40
0.0
 10
44.22447280960618
 20
10.4177293887275
 30
0.0
 10
44.23472340863193
 20
10.30056450572771
 30
0.0
 10
44.24497400765768
 20
10.18339962272792
 30
0.0
  0
SPLINE
  5
92
330
1F
100
AcDbEntity
  8
5 star - arm 2d
 62
     7
100
AcDbSpline
210
0.0
220
0.0
230
1.0
 70
    12
 71
     2
 72
     6
 73
     3
 74
     0
 42
0.0000000001
 43
0.0000000001
 40
-0.5149846699089362
 40
-0.5149846699089362
 40
-0.5149846699089362
 40
0.0
 40
0.0
 40
0.0
 10
44.24497400765768
 20
10.18339962272792
 30
0.0
 41
1.0
 10
44.26967325389887
 20
9.901361811503376
 30
0.0
 41
0.8703382287571477
 10
44.52591924683104
 20
9.77644189009399
 30
0.0
 41
1.0
  0
POLYLINE
  5
93
330
1F
100
AcDbEntity
  8
5 star - arm 2d
 62
     7
100
AcDb2dPolyline
 66
     1
 10
0.0
 20
0.0
 30
0.0
  0
VERTEX
  5
94
330
93
100
AcDbEntity
  8
5 star - arm 2d
 62
     7
100
AcDbVertex
100
AcDb2dVertex
 10
44.52591924683104
 20
9.77644189009399
 30
0.0
  0
VERTEX
  5
95
330
93
100
AcDbEntity
  8
5 star - arm 2d
 62
     7
100
AcDbVertex
100
AcDb2dVertex
 10
56.36098389651022
 20
4.131395388087267
 30
0.0
  0
SEQEND
  5
96
330
93
100
AcDbEntity
  8
5 star - arm 2d
 62
     7
  0
SPLINE
  5
97
330
1F
100
AcDbEntity
  8
5 star - arm 2d
 62
     7
100
AcDbSpline
210
0.0
220
0.0
230
1.0
 70
     8
 71
     3
 72
     8
 73
     4
 74
     0
 42
0.0000000001
 43
0.0000000001
 40
0.0
 40
0.0
 40
0.0
 40
0.0
 40
1.0
 40
1.0
 40
1.0
 40
1.0
 10
56.36098389651022
 20
4.131395388087267
 30
0.0
 10
56.38140198527852
 20
4.12165644166062
 30
0.0
 10
56.39432614489724
 20
4.101942621898829
 30
0.0
 10
56.39511566006564
 20
4.079334364497554
 30
0.0
  0
SPLINE
  5
98
330
1F
100
AcDbEntity
  8
5 star - arm 2d
 62
     7
100
AcDbSpline
210
0.0
220
0.0
230
1.0
 70
    24
 71
     2
 72
     6
 73
     3
 74
     0
 42
0.0000000001
 43
0.0000000001
 40
0.0
 40
0.0
 40
0.0
 40
1.420199549843337
 40
1.420199549843337
 40
1.420199549843337
 10
56.39511566006564
 20
4.079334364497554
 30
0.0
 10
56.41989833105865
 20
3.369667182247834
 30
0.0
 10
56.44468100205167
 20
2.659999999998115
 30
0.0
  0
POLYLINE
  5
99
330
1F
100
AcDbEntity
  8
5 star - arm 2d
 62
     7
100
AcDb2dPolyline
 66
     1
 10
0.0
 20
0.0
 30
0.0
  0
VERTEX
  5
9A
330
99
100
AcDbEntity
  8
5 star - arm 2d
 62
     7
100
AcDbVertex
100
AcDb2dVertex
 10
56.44468100205167
 20
2.659999999998115
 30
0.0
  0
VERTEX
  5
9B
330
99
100
AcDbEntity
  8
5 star - arm 2d
 62
     7
100
AcDbVertex
100
AcDb2dVertex
 10
55.57333079139435
 20
2.659999999999798
 30
0.0
  0
SEQEND
  5
9C
330
99
100
AcDbEntity
  8
5 star - arm 2d
 62
     7
  0
SPLINE
  5
9D
330
1F
100
AcDbEntity
  8
5 star - arm 2d
 62
     7
100
AcDbSpline
210
0.0
220
0.0
230
1.0
 70
     8
 71
     3
 72
    11
 73
     7
 74
     0
 42
0.0000000001
 43
0.0000000001
 40
0.0
 40
0.0
 40
0.0
 40
0.0
 40
0.1838468384547168
 40
0.3546873507427598
 40
0.678130839169078
 40
1.258468549423676
 40
1.258468549423676
 40
1.258468549423676
 40
1.258468549423676
 10
55.57333079139435
 20
2.659999999999798
 30
0.0
 10
55.56374381958794
 20
2.720256541745729
 30
0.0
 10
55.54179871856417
 20
2.83731322084425
 30
0.0
 10
55.47680088456323
 20
3.05292411362444
 30
0.0
 10
55.32237917438471
 20
3.380989735269258
 30
0.0
 10
55.07776292616118
 20
3.578706641517335
 30
0.0
 10
54.89565012342467
 20
3.645947923180264
 30
0.0
  0
SPLINE
  5
9E
330
1F
100
AcDbEntity
  8
5 star - arm 2d
 62
     7
100
AcDbSpline
210
0.0
220
0.0
230
1.0
 70
    12
 71
     2
 72
     6
 73
     3
 74
     0
 42
0.0000000001
 43
0.0000000001
 40
-9.876756628477734
 40
-9.876756628477734
 40
-9.876756628477734
 40
0.0
 40
0.0
 40
0.0
 10
54.89565012342467
 20
3.645947923180264
 30
0.0
 41
1.0
 10
50.28533774402013
 20
5.415863347432047
 30
0.0
 41
0.9999999855414793
 10
45.67442368261955
 20
7.184210701056145
 30
0.0
 41
1.0
  0
SPLINE
  5
9F
330
1F
100
AcDbEntity
  8
5 star - arm 2d
 62
     7
100
AcDbSpline
210
0.0
220
0.0
230
1.0
 70
     8
 71
     3
 72
    12
 73
     8
 74
     0
 42
0.0000000001
 43
0.0000000001
 40
0.0190854443871113
 40
0.0190854443871113
 40
0.0190854443871113
 40
0.0190854443871113
 40
1.0
 40
2.0
 40
3.0
 40
4.0
 40
5.0
 40
5.0
 40
5.0
 40
5.0
 10
47.4813173074337
 20
4.188335321023694
 30
0.0
 10
47.47206695677295
 20
4.127770030612327
 30
0.0
 10
47.35175407196727
 20
4.084375629488101
 30
0.0
 10
47.18439504458995
 20
4.075085696906435
 30
0.0
 10
47.01081222965132
 20
4.092591549989262
 30
0.0
 10
46.84447883111809
 20
4.138307367413491
 30
0.0
 10
46.73543250405734
 20
4.188601989399761
 30
0.0
 10
46.70219790629263
 20
4.236347963296361
 30
0.0
  0
POLYLINE
  5
A0
330
1F
100
AcDbEntity
  8
5 star - arm 2d
 62
     7
100
AcDb2dPolyline
 66
     1
 10
0.0
 20
0.0
 30
0.0
  0
VERTEX
  5
A1
330
A0
100
AcDbEntity
  8
5 star - arm 2d
 62
     7
100
AcDbVertex
100
AcDb2dVertex
 10
46.70219790629263
 20
4.236347963296361
 30
0.0
  0
VERTEX
  5
A2
330
A0
100
AcDbEntity
  8
5 star - arm 2d
 62
     7
100
AcDbVertex
100
AcDb2dVertex
 10
43.02134645819994
 20
9.524386603094161
 30
0.0
  0
SEQEND
  5
A3
330
A0
100
AcDbEntity
  8
5 star - arm 2d
 62
     7
  0
SPLINE
  5
A4
330
1F
100
AcDbEntity
  8
5 star - arm 2d
 62
     7
100
AcDbSpline
210
0.0
220
0.0
230
1.0
 70
     8
 71
     3
 72
    12
 73
     8
 74
     0
 42
0.0000000001
 43
0.0000000001
 40
-5.0
 40
-5.0
 40
-5.0
 40
-5.0
 40
-4.0
 40
-3.0
 40
-2.0
 40
-1.0
 40
0.0
 40
0.0
 40
0.0
 40
0.0
 10
43.02134645819994
 20
9.524386603094161
 30
0.0
 10
42.98241373120394
 20
9.580431631864315
 30
0.0
 10
42.86992668785113
 20
9.662601223761358
 30
0.0
 10
42.66783103465931
 20
9.708135038005448
 30
0.0
 10
42.46447814785268
 20
9.682034333934617
 30
0.0
 10
42.26916840801529
 20
9.624112700698767
 30
0.0
 10
42.14836860604732
 20
9.561024410441593
 30
0.0
 10
42.09141027952669
 20
9.524386581732957
 30
0.0
  0
POLYLINE
  5
A5
330
1F
100
AcDbEntity
  8
5 star - arm 2d
 62
     7
100
AcDb2dPolyline
 66
     1
 10
0.0
 20
0.0
 30
0.0
  0
VERTEX
  5
A6
330
A5
100
AcDbEntity
  8
5 star - arm 2d
 62
     7
100
AcDbVertex
100
AcDb2dVertex
 10
42.09141027952669
 20
9.524386581732957
 30
0.0
  0
VERTEX
  5
A7
330
A5
100
AcDbEntity
  8
5 star - arm 2d
 62
     7
100
AcDbVertex
100
AcDb2dVertex
 10
32.88729763854425
 20
4.236347272652739
 30
0.0
  0
SEQEND
  5
A8
330
A5
100
AcDbEntity
  8
5 star - arm 2d
 62
     7
  0
SPLINE
  5
A9
330
1F
100
AcDbEntity
  8
5 star - arm 2d
 62
     7
100
AcDbSpline
210
0.0
220
0.0
230
1.0
 70
     8
 71
     3
 72
    16
 73
    12
 74
     0
 42
0.0000000001
 43
0.0000000001
 40
0.0
 40
0.0
 40
0.0
 40
0.0
 40
1.0
 40
2.0
 40
3.0
 40
4.0
 40
5.0
 40
6.0
 40
7.0
 40
8.0
 40
8.967926270977635
 40
8.967926270977635
 40
8.967926270977635
 40
8.967926270977635
 10
32.88729763854425
 20
4.236347272652739
 30
0.0
 10
32.86490910857357
 20
4.225221143588899
 30
0.0
 10
32.81946227014303
 20
4.204332729709999
 30
0.0
 10
32.74987950098846
 20
4.176300911919954
 30
0.0
 10
32.67919299899764
 20
4.151173346051229
 30
0.0
 10
32.60763173980621
 20
4.128747070130943
 30
0.0
 10
32.53513473320606
 20
4.109164564507171
 30
0.0
 10
32.46218185159317
 20
4.092974928333794
 30
0.0
 10
32.38692661709403
 20
4.081207282133645
 30
0.0
 10
32.31682920244944
 20
4.077286034355463
 30
0.0
 10
32.25767292444067
 20
4.085807223443951
 30
0.0
 10
32.25862190127664
 20
4.113692278456513
 30
0.0
  0
SPLINE
  5
AA
330
1F
100
AcDbEntity
  8
5 star - arm 2d
 62
     7
100
AcDbSpline
210
0.0
220
0.0
230
1.0
 70
     8
 71
     3
 72
     8
 73
     4
 74
     0
 42
0.0000000001
 43
0.0000000001
 40
8.967926270977635
 40
8.967926270977635
 40
8.967926270977635
 40
8.967926270977635
 40
9.0
 40
9.0
 40
9.0
 40
9.0
 10
32.25862190127664
 20
4.113692278456513
 30
0.0
 10
32.25865334708692
 20
4.114616292738452
 30
0.0
 10
32.25871778326866
 20
4.115566323643144
 30
0.0
 10
32.258816414595
 20
4.116543135380835
 30
0.0
  0
CIRCLE
  5
AB
330
1F
100
AcDbEntity
  8
5 star - arm 2d
 62
     7
100
AcDbCircle
 10
55.0740560020236
 20
1.280000000000006
 30
0.0
 40
1.280000000000006
  0
CIRCLE
  5
AC
330
1F
100
AcDbEntity
  8
5 star - arm 2d
 62
     7
100
AcDbCircle
 10
55.0740560020236
 20
1.279999999999995
 30
0.0
 40
1.154999999999998
  0
CIRCLE
  5
AD
330
1F
100
AcDbEntity
  8
5 star - arm 2d
 62
     7
100
AcDbCircle
 10
55.07405600202359
 20
1.280000000000002
 30
0.0
 40
1.062500000000002
  0
SPLINE
  5
AE
330
1F
100
AcDbEntity
  8
5 star - arm 2d
 62
     7
100
AcDbSpline
210
0.0
220
0.0
230
1.0
 70
    24
 71
     2
 72
     6
 73
     3
 74
     0
 42
0.0000000001
 43
0.0000000001
 40
0.0
 40
0.0
 40
0.0
 40
1.164986319490937
 40
1.164986319490937
 40
1.164986319490937
 10
56.35405600202359
 20
1.395013680509063
 30
0.0
 10
56.35405600202359
 20
1.977506840254532
 30
0.0
 10
56.35405600202359
 20
2.56
 30
0.0
  0
LINE
  5
AF
330
1F
100
AcDbEntity
  8
5 star - arm 2d
 62
     7
100
AcDbLine
 10
56.35405600202359
 20
2.56
 30
0.0
 11
55.0740560020236
 21
2.56
 31
0.0
  0
CIRCLE
  5
B0
330
1F
100
AcDbEntity
  8
5 star - arm 2d
 62
     7
100
AcDbCircle
 10
46.16037522946186
 20
1.280000000000006
 30
0.0
 40
1.280000000000006
  0
CIRCLE
  5
B1
330
1F
100
AcDbEntity
  8
5 star - arm 2d
 62
     7
100
AcDbCircle
 10
46.16037522946186
 20
1.279999999999995
 30
0.0
 40
1.154999999999998
  0
CIRCLE
  5
B2
330
1F
100
AcDbEntity
  8
5 star - arm 2d
 62
     7
100
AcDbCircle
 10
46.16037522946186
 20
1.280000000000002
 30
0.0
 40
1.062500000000002
  0
SPLINE
  5
B3
330
1F
100
AcDbEntity
  8
5 star - arm 2d
 62
     7
100
AcDbSpline
210
0.0
220
0.0
230
1.0
 70
    24
 71
     2
 72
     6
 73
     3
 74
     0
 42
0.0000000001
 43
0.0000000001
 40
0.0
 40
0.0
 40
0.0
 40
1.164986319490937
 40
1.164986319490937
 40
1.164986319490937
 10
47.44037522946186
 20
1.395013680509063
 30
0.0
 10
47.44037522946186
 20
1.977506840254532
 30
0.0
 10
47.44037522946186
 20
2.56
 30
0.0
  0
LINE
  5
B4
330
1F
100
AcDbEntity
  8
5 star - arm 2d
 62
     7
100
AcDbLine
 10
47.44037522946186
 20
2.56
 30
0.0
 11
46.16037522946187
 21
2.56
 31
0.0
  0
CIRCLE
  5
B5
330
1F
100
AcDbEntity
  8
5 star - arm 2d
 62
     7
100
AcDbCircle
 10
31.73773677459056
 20
1.280000000000006
 30
0.0
 40
1.280000000000006
  0
CIRCLE
  5
B6
330
1F
100
AcDbEntity
  8
5 star - arm 2d
 62
     7
100
AcDbCircle
 10
31.73773677459056
 20
1.279999999999995
 30
0.0
 40
1.154999999999998
  0
CIRCLE
  5
B7
330
1F
100
AcDbEntity
  8
5 star - arm 2d
 62
     7
100
AcDbCircle
 10
31.73773677459054
 20
1.280000000000002
 30
0.0
 40
1.062500000000002
  0
SPLINE
  5
B8
330
1F
100
AcDbEntity
  8
5 star - arm 2d
 62
     7
100
AcDbSpline
210
0.0
220
0.0
230
1.0
 70
    24
 71
     2
 72
     6
 73
     3
 74
     0
 42
0.0000000001
 43
0.0000000001
 40
0.0
 40
0.0
 40
0.0
 40
1.164986319490937
 40
1.164986319490937
 40
1.164986319490937
 10
33.01773677459055
 20
1.395013680509063
 30
0.0
 10
33.01773677459055
 20
1.977506840254532
 30
0.0
 10
33.01773677459055
 20
2.56
 30
0.0
  0
LINE
  5
B9
330
1F
100
AcDbEntity
  8
5 star - arm 2d
 62
     7
100
AcDbLine
 10
33.01773677459055
 20
2.56
 30
0.0
 11
31.73773677459057
 21
2.56
 31
0.0
  0
SPLINE
  5
BA
330
1F
100
AcDbEntity
  8
5 star - arm 2d
 62
     7
100
AcDbSpline
210
0.0
220
0.0
230
1.0
 70
     8
 71
     3
 72
    19
 73
    15
 74
     0
 42
0.0000000001
 43
0.0000000001
 40
0.0
 40
0.0
 40
0.0
 40
0.0
 40
1.0
 40
2.0
 40
3.0
 40
4.0
 40
5.0
 40
6.0
 40
7.0
 40
8.0
 40
9.0
 40
10.0
 40
11.0
 40
12.0
 40
12.0
 40
12.0
 40
12.0
 10
-2.187976980674199
 20
13.39281977119995
 30
0.0
 10
-2.214696491683464
 20
13.39117541456924
 30
0.0
 10
-2.268119886136946
 20
13.38805845132386
 30
0.0
 10
-2.348307634377524
 20
13.38264297561173
 30
0.0
 10
-2.428316054187455
 20
13.37941644112307
 30
0.0
 10
-2.508960040034149
 20
13.3677207142861
 30
0.0
 10
-2.584263833631135
 20
13.35713872978663
 30
0.0
 10
-2.68044530988323
 20
13.35176263054494
 30
0.0
 10
-2.688309923395676
 20
13.44563044911696
 30
0.0
 10
-2.697686128558395
 20
13.52164572908877
 30
0.0
 10
-2.706657280159594
 20
13.60244489330821
 30
0.0
 10
-2.71573705895158
 20
13.681961099618
 30
0.0
 10
-2.724787379403272
 20
13.76182522566791
 30
0.0
 10
-2.730827065161356
 20
13.81499550750197
 30
0.0
 10
-2.733845678932846
 20
13.84159513030346
 30
0.0
  0
SPLINE
  5
BB
330
1F
100
AcDbEntity
  8
5 star - arm 2d
 62
     7
100
AcDbSpline
210
0.0
220
0.0
230
1.0
 70
    12
 71
     2
 72
     6
 73
     3
 74
     0
 42
0.0000000001
 43
0.0000000001
 40
0.0
 40
0.0
 40
0.0
 40
0.1444678751488982
 40
0.1444678751488982
 40
0.1444678751488982
 10
-2.633571598060509
 20
13.36872649665654
 30
0.0
 41
1.0
 10
-2.633581589306188
 20
13.44102908337531
 30
0.0
 41
0.9985763888708227
 10
-2.625889210271994
 20
13.51292130444856
 30
0.0
 41
1.0
  0
SPLINE
  5
BC
330
1F
100
AcDbEntity
  8
5 star - arm 2d
 62
     7
100
AcDbSpline
210
0.0
220
0.0
230
1.0
 70
     8
 71
     3
 72
    10
 73
     6
 74
     0
 42
0.0000000001
 43
0.0000000001
 40
0.0
 40
0.0
 40
0.0
 40
0.0
 40
0.0178188664837946
 40
0.0501644827938637
 40
0.1612053680803479
 40
0.1612053680803479
 40
0.1612053680803479
 40
0.1612053680803479
 10
-2.625889210271994
 20
13.51292130444856
 30
0.0
 10
-2.625123751837995
 20
13.51914382415383
 30
0.0
 10
-2.612223030625197
 20
13.53072859840596
 30
0.0
 10
-2.562726747455775
 20
13.55183754005106
 30
0.0
 10
-2.515457206600349
 20
13.56131826132961
 30
0.0
 10
-2.479236533972994
 20
13.5683746669929
 30
0.0
  0
SPLINE
  5
BD
330
1F
100
AcDbEntity
  8
5 star - arm 2d
 62
     7
100
AcDbSpline
210
0.0
220
0.0
230
1.0
 70
     8
 71
     3
 72
    10
 73
     6
 74
     0
 42
0.0000000001
 43
0.0000000001
 40
0.0
 40
0.0
 40
0.0
 40
0.0
 40
0.5636717606533941
 40
1.186982375384731
 40
1.521532845026047
 40
1.521532845026047
 40
1.521532845026047
 40
1.521532845026047
 10
-2.479236533972994
 20
13.5683746669929
 30
0.0
 10
-2.294496373294573
 20
13.60266023744518
 30
0.0
 10
-1.903006978191247
 20
13.66108211656503
 30
0.0
 10
-1.398254546975793
 20
13.71166776143814
 30
0.0
 10
-1.07971818428932
 20
13.73374451993302
 30
0.0
 10
-0.9683939017846293
 20
13.74028821113174
 30
0.0
  0
SPLINE
  5
BE
330
1F
100
AcDbEntity
  8
5 star - arm 2d
 62
     7
100
AcDbSpline
210
0.0
220
0.0
230
1.0
 70
     8
 71
     3
 72
    19
 73
    15
 74
     0
 42
0.0000000001
 43
0.0000000001
 40
0.0
 40
0.0
 40
0.0
 40
0.0
 40
1.0
 40
2.0
 40
3.0
 40
4.0
 40
5.0
 40
6.0
 40
7.0
 40
8.0
 40
9.0
 40
10.0
 40
11.0
 40
12.0
 40
12.0
 40
12.0
 40
12.0
 10
2.187976980674199
 20
13.39281977119995
 30
0.0
 10
2.214696491683464
 20
13.39117541456924
 30
0.0
 10
2.268119886136946
 20
13.38805845132386
 30
0.0
 10
2.348307634377524
 20
13.38264297561173
 30
0.0
 10
2.428316054187455
 20
13.37941644112307
 30
0.0
 10
2.508960040034149
 20
13.3677207142861
 30
0.0
 10
2.584263833631135
 20
13.35713872978663
 30
0.0
 10
2.68044530988323
 20
13.35176263054494
 30
0.0
 10
2.688309923395676
 20
13.44563044911696
 30
0.0
 10
2.697686128558395
 20
13.52164572908877
 30
0.0
 10
2.706657280159594
 20
13.60244489330821
 30
0.0
 10
2.71573705895158
 20
13.681961099618
 30
0.0
 10
2.724787379403272
 20
13.76182522566791
 30
0.0
 10
2.730827065161356
 20
13.81499550750197
 30
0.0
 10
2.733845678932846
 20
13.84159513030346
 30
0.0
  0
SPLINE
  5
BF
330
1F
100
AcDbEntity
  8
5 star - arm 2d
 62
     7
100
AcDbSpline
210
0.0
220
0.0
230
1.0
 70
    12
 71
     2
 72
     6
 73
     3
 74
     0
 42
0.0000000001
 43
0.0000000001
 40
0.0
 40
0.0
 40
0.0
 40
0.1444678751488982
 40
0.1444678751488982
 40
0.1444678751488982
 10
2.633571598060509
 20
13.36872649665654
 30
0.0
 41
1.0
 10
2.633581589306188
 20
13.44102908337531
 30
0.0
 41
0.9985763888708227
 10
2.625889210271994
 20
13.51292130444856
 30
0.0
 41
1.0
  0
SPLINE
  5
C0
330
1F
100
AcDbEntity
  8
5 star - arm 2d
 62
     7
100
AcDbSpline
210
0.0
220
0.0
230
1.0
 70
     8
 71
     3
 72
    10
 73
     6
 74
     0
 42
0.0000000001
 43
0.0000000001
 40
0.0
 40
0.0
 40
0.0
 40
0.0
 40
0.0178188664837946
 40
0.0501644827938637
 40
0.1612053680803479
 40
0.1612053680803479
 40
0.1612053680803479
 40
0.1612053680803479
 10
2.625889210271994
 20
13.51292130444856
 30
0.0
 10
2.625123751837995
 20
13.51914382415383
 30
0.0
 10
2.612223030625197
 20
13.53072859840596
 30
0.0
 10
2.562726747455775
 20
13.55183754005106
 30
0.0
 10
2.515457206600349
 20
13.56131826132961
 30
0.0
 10
2.479236533972994
 20
13.5683746669929
 30
0.0
  0
SPLINE
  5
C1
330
1F
100
AcDbEntity
  8
5 star - arm 2d
 62
     7
100
AcDbSpline
210
0.0
220
0.0
230
1.0
 70
     8
 71
     3
 72
    10
 73
     6
 74
     0
 42
0.0000000001
 43
0.0000000001
 40
0.0
 40
0.0
 40
0.0
 40
0.0
 40
0.5636717606533941
 40
1.186982375384731
 40
1.521532845026047
 40
1.521532845026047
 40
1.521532845026047
 40
1.521532845026047
 10
2.479236533972994
 20
13.5683746669929
 30
0.0
 10
2.294496373294573
 20
13.60266023744518
 30
0.0
 10
1.903006978191247
 20
13.66108211656503
 30
0.0
 10
1.398254546975793
 20
13.71166776143814
 30
0.0
 10
1.07971818428932
 20
13.73374451993302
 30
0.0
 10
0.9683939017846293
 20
13.74028821113174
 30
0.0
  0
SPLINE
  5
C2
330
1F
100
AcDbEntity
  8
5 star - arm 2d
 62
     7
100
AcDbSpline
210
0.0
220
0.0
230
1.0
 70
     8
 71
     3
 72
    14
 73
    10
 74
     0
 42
0.0000000001
 43
0.0000000001
 40
-7.0
 40
-7.0
 40
-7.0
 40
-7.0
 40
-6.0
 40
-5.0
 40
-4.0
 40
-3.0
 40
-2.0
 40
-1.0
 40
0.0
 40
0.0
 40
0.0
 40
0.0
 10
-2.282451751425832
 20
13.60248661933031
 30
0.0
 10
-2.238941525632338
 20
13.48769707951759
 30
0.0
 10
-2.126499710322346
 20
13.26916840212577
 30
0.0
 10
-1.924778497563966
 20
12.96123817340739
 30
0.0
 10
-1.709929771591231
 20
12.66259166008012
 30
0.0
 10
-1.484910100056712
 20
12.37172422083471
 30
0.0
 10
-1.258237259099148
 20
12.08139416742226
 30
0.0
 10
-1.041691820143475
 20
11.78622624793546
 30
0.0
 10
-0.9114477633500729
 20
11.57253329377188
 30
0.0
 10
-0.9000143515904391
 20
11.44849999999983
 30
0.0
  0
POLYLINE
  5
C3
330
1F
100
AcDbEntity
  8
5 star - arm 2d
 62
     7
100
AcDb2dPolyline
 66
     1
 10
0.0
 20
0.0
 30
0.0
  0
VERTEX
  5
C4
330
C3
100
AcDbEntity
  8
5 star - arm 2d
 62
     7
100
AcDbVertex
100
AcDb2dVertex
 10
-0.9000143515904391
 20
11.44849999999983
 30
0.0
  0
VERTEX
  5
C5
330
C3
100
AcDbEntity
  8
5 star - arm 2d
 62
     7
100
AcDbVertex
100
AcDb2dVertex
 10
0.9000143515904391
 20
11.44849999999983
 30
0.0
  0
SEQEND
  5
C6
330
C3
100
AcDbEntity
  8
5 star - arm 2d
 62
     7
  0
SPLINE
  5
C7
330
1F
100
AcDbEntity
  8
5 star - arm 2d
 62
     7
100
AcDbSpline
210
0.0
220
0.0
230
1.0
 70
     8
 71
     3
 72
    14
 73
    10
 74
     0
 42
0.0000000001
 43
0.0000000001
 40
0.0
 40
0.0
 40
0.0
 40
0.0
 40
1.0
 40
2.0
 40
3.0
 40
4.0
 40
5.0
 40
6.0
 40
7.0
 40
7.0
 40
7.0
 40
7.0
 10
0.9000143515904391
 20
11.44849999999983
 30
0.0
 10
0.9114477633500729
 20
11.57253329377188
 30
0.0
 10
1.041691820143475
 20
11.78622624793546
 30
0.0
 10
1.258237259099148
 20
12.08139416742226
 30
0.0
 10
1.484910100056712
 20
12.37172422083471
 30
0.0
 10
1.709929771591231
 20
12.66259166008012
 30
0.0
 10
1.924778497563966
 20
12.96123817340739
 30
0.0
 10
2.126499710322346
 20
13.26916840212577
 30
0.0
 10
2.238941525632338
 20
13.48769707951759
 30
0.0
 10
2.282451751425832
 20
13.60248661933031
 30
0.0
  0
SPLINE
  5
C8
330
1F
100
AcDbEntity
  8
5 star - arm 2d
 62
     7
100
AcDbSpline
210
0.0
220
0.0
230
1.0
 70
    12
 71
     2
 72
     6
 73
     3
 74
     0
 42
0.0000000001
 43
0.0000000001
 40
0.0
 40
0.0
 40
0.0
 40
6.308542238486094
 40
6.308542238486094
 40
6.308542238486094
 10
-1.890673812329711
 20
12.91636087371808
 30
0.0
 41
1.0
 10
-5.044945517448187
 20
12.91960129411546
 30
0.0
 41
0.9999989298635602
 10
-8.199559750629685
 20
12.91360987863227
 30
0.0
 41
1.0
  0
SPLINE
  5
C9
330
1F
100
AcDbEntity
  8
5 star - arm 2d
 62
     7
100
AcDbSpline
210
0.0
220
0.0
230
1.0
 70
    12
 71
     2
 72
     6
 73
     3
 74
     0
 42
0.0000000001
 43
0.0000000001
 40
0.0
 40
0.0
 40
0.0
 40
0.0785930999812277
 40
0.0785930999812277
 40
0.0785930999812277
 10
-8.199559750629685
 20
12.91360987863227
 30
0.0
 41
1.0
 10
-8.249908052167518
 20
12.91360387313677
 30
0.0
 41
0.7077328719522822
 10
-8.249999999979906
 20
12.96360554143091
 30
0.0
 41
1.0
  0
POLYLINE
  5
CA
330
1F
100
AcDbEntity
  8
5 star - arm 2d
 62
     7
100
AcDb2dPolyline
 66
     1
 10
0.0
 20
0.0
 30
0.0
  0
VERTEX
  5
CB
330
CA
100
AcDbEntity
  8
5 star - arm 2d
 62
     7
100
AcDbVertex
100
AcDb2dVertex
 10
-8.249999999979906
 20
12.96360554143091
 30
0.0
  0
VERTEX
  5
CC
330
CA
100
AcDbEntity
  8
5 star - arm 2d
 62
     7
100
AcDbVertex
100
AcDb2dVertex
 10
-8.24999999999876
 20
13.18340604054627
 30
0.0
  0
SEQEND
  5
CD
330
CA
100
AcDbEntity
  8
5 star - arm 2d
 62
     7
  0
SPLINE
  5
CE
330
1F
100
AcDbEntity
  8
5 star - arm 2d
 62
     7
100
AcDbSpline
210
0.0
220
0.0
230
1.0
 70
    12
 71
     2
 72
     6
 73
     3
 74
     0
 42
0.0000000001
 43
0.0000000001
 40
0.0
 40
0.0
 40
0.0
 40
0.0785685110721466
 40
0.0785685110721466
 40
0.0785685110721466
 10
-8.24999999999876
 20
13.18340604054627
 30
0.0
 41
1.0
 10
-8.249849193889352
 20
13.23334875303002
 30
0.0
 41
0.7085750313660297
 10
-8.199567102470692
 20
13.23339653682782
 30
0.0
 41
1.0
  0
SPLINE
  5
CF
330
1F
100
AcDbEntity
  8
5 star - arm 2d
 62
     7
100
AcDbSpline
210
0.0
220
0.0
230
1.0
 70
    12
 71
     2
 72
     6
 73
     3
 74
     0
 42
0.0000000001
 43
0.0000000001
 40
0.0
 40
0.0
 40
0.0
 40
6.104384663792418
 40
6.104384663792418
 40
6.104384663792418
 10
-8.199567102470692
 20
13.23339653682782
 30
0.0
 41
1.0
 10
-5.147039044420685
 20
13.2275996659359
 30
0.0
 41
0.9999990022101463
 10
-2.094845999339448
 20
13.23043518668576
 30
0.0
 41
1.0
  0
SPLINE
  5
D0
330
1F
100
AcDbEntity
  8
5 star - arm 2d
 62
     7
100
AcDbSpline
210
0.0
220
0.0
230
1.0
 70
    24
 71
     2
 72
     6
 73
     3
 74
     0
 42
0.0000000001
 43
0.0000000001
 40
0.0
 40
0.0
 40
0.0
 40
2.31
 40
2.31
 40
2.31
 10
-11.39362906020549
 20
0.1250000000000011
 30
0.0
 10
-11.39362906020549
 20
1.280000000000001
 30
0.0
 10
-11.39362906020549
 20
2.435000000000001
 30
0.0
  0
SPLINE
  5
D1
330
1F
100
AcDbEntity
  8
5 star - arm 2d
 62
     7
100
AcDbSpline
210
0.0
220
0.0
230
1.0
 70
    12
 71
     2
 72
     6
 73
     3
 74
     0
 42
0.0000000001
 43
0.0000000001
 40
0.0
 40
0.0
 40
0.0
 40
0.1963495408493616
 40
0.1963495408493616
 40
0.1963495408493616
 10
-11.39362906020549
 20
2.435000000000001
 30
0.0
 41
1.0
 10
-11.39362906020549
 20
2.56
 30
0.0
 41
0.7071067811865519
 10
-11.51862906020549
 20
2.56
 30
0.0
 41
1.0
  0
SPLINE
  5
D2
330
1F
100
AcDbEntity
  8
5 star - arm 2d
 62
     7
100
AcDbSpline
210
0.0
220
0.0
230
1.0
 70
    24
 71
     2
 72
     6
 73
     3
 74
     0
 42
0.0000000001
 43
0.0000000001
 40
-0.3437499999999991
 40
-0.3437499999999991
 40
-0.3437499999999991
 40
0.0
 40
0.0
 40
0.0
 10
-11.51862906020549
 20
2.56
 30
0.0
 10
-11.69050406020549
 20
2.560000000000001
 30
0.0
 10
-11.86237906020549
 20
2.560000000000001
 30
0.0
  0
SPLINE
  5
D3
330
1F
100
AcDbEntity
  8
5 star - arm 2d
 62
     7
100
AcDbSpline
210
0.0
220
0.0
230
1.0
 70
    12
 71
     2
 72
     8
 73
     5
 74
     0
 42
0.0000000001
 43
0.0000000001
 40
0.0
 40
0.0
 40
0.0
 40
0.0245437074331718
 40
0.0245437074331718
 40
0.0490874148663445
 40
0.0490874148663445
 40
0.0490874148663445
 10
-11.86237906020549
 20
2.560000000000001
 30
0.0
 41
1.0
 10
-11.87532324271511
 20
2.560000000000003
 30
0.0
 41
0.9238794417264912
 10
-11.88447615760184
 20
2.550847076427806
 30
0.0
 41
1.0
 10
-11.89362907248858
 20
2.541694152855611
 30
0.0
 41
0.9238794417265509
 10
-11.89362906020549
 20
2.528749970346001
 30
0.0
 41
1.0
  0
SPLINE
  5
D4
330
1F
100
AcDbEntity
  8
5 star - arm 2d
 62
     7
100
AcDbSpline
210
0.0
220
0.0
230
1.0
 70
    24
 71
     2
 72
     6
 73
     3
 74
     0
 42
0.0000000001
 43
0.0000000001
 40
0.0
 40
0.0
 40
0.0
 40
2.492448632942286
 40
2.492448632942286
 40
2.492448632942286
 10
-11.89362906020549
 20
2.528749970346001
 30
0.0
 10
-11.89362906020549
 20
1.28126282693743
 30
0.0
 10
-11.89362906020549
 20
0.0337756835288582
 30
0.0
  0
SPLINE
  5
D5
330
1F
100
AcDbEntity
  8
5 star - arm 2d
 62
     7
100
AcDbSpline
210
0.0
220
0.0
230
1.0
 70
    12
 71
     2
 72
     8
 73
     5
 74
     0
 42
0.0000000001
 43
0.0000000001
 40
0.0
 40
0.0
 40
0.0
 40
0.0245437074331721
 40
0.0245437074331721
 40
0.0490874148663438
 40
0.0490874148663438
 40
0.0490874148663438
 10
-11.89362906020549
 20
0.0337756835288582
 30
0.0
 41
1.0
 10
-11.89362907248858
 20
0.0183058471443908
 30
0.0
 41
0.9238794417265652
 10
-11.88447615760184
 20
0.0091529235721958
 30
0.0
 41
1.0
 10
-11.87532324271511
 20
0.0
 30
0.0
 41
0.9238794417265086
 10
-11.86237906020549
 20
0.0000000000000009
 30
0.0
 41
1.0
  0
SPLINE
  5
D6
330
1F
100
AcDbEntity
  8
5 star - arm 2d
 62
     7
100
AcDbSpline
210
0.0
220
0.0
230
1.0
 70
    24
 71
     2
 72
     6
 73
     3
 74
     0
 42
0.0000000001
 43
0.0000000001
 40
-0.3437499999999991
 40
-0.3437499999999991
 40
-0.3437499999999991
 40
0.0
 40
0.0
 40
0.0
 10
-11.86237906020549
 20
0.0000000000000009
 30
0.0
 10
-11.69050406020549
 20
0.000000000000001
 30
0.0
 10
-11.51862906020549
 20
0.0000000000000011
 30
0.0
  0
SPLINE
  5
D7
330
1F
100
AcDbEntity
  8
5 star - arm 2d
 62
     7
100
AcDbSpline
210
0.0
220
0.0
230
1.0
 70
    12
 71
     2
 72
     6
 73
     3
 74
     0
 42
0.0000000001
 43
0.0000000001
 40
0.0
 40
0.0
 40
0.0
 40
0.1963495408493621
 40
0.1963495408493621
 40
0.1963495408493621
 10
-11.51862906020549
 20
0.0000000000000011
 30
0.0
 41
1.0
 10
-11.39362906020549
 20
0.0
 30
0.0
 41
0.7071067811865478
 10
-11.39362906020549
 20
0.1250000000000011
 30
0.0
 41
1.0
  0
POLYLINE
  5
D8
330
1F
100
AcDbEntity
  8
5 star - arm 2d
 62
     7
100
AcDb2dPolyline
 66
     1
 10
0.0
 20
0.0
 30
0.0
  0
VERTEX
  5
D9
330
D8
100
AcDbEntity
  8
5 star - arm 2d
 62
     7
100
AcDbVertex
100
AcDb2dVertex
 10
-12.62800406020549
 20
0.8425000000000009
 30
0.0
  0
VERTEX
  5
DA
330
D8
100
AcDbEntity
  8
5 star - arm 2d
 62
     7
100
AcDbVertex
100
AcDb2dVertex
 10
-11.90925406020549
 20
0.8425000000000009
 30
0.0
  0
VERTEX
  5
DB
330
D8
100
AcDbEntity
  8
5 star - arm 2d
 62
     7
100
AcDbVertex
100
AcDb2dVertex
 10
-11.90925406020549
 20
2.560000000000001
 30
0.0
  0
VERTEX
  5
DC
330
D8
100
AcDbEntity
  8
5 star - arm 2d
 62
     7
100
AcDbVertex
100
AcDb2dVertex
 10
-12.62800406020549
 20
2.560000000000001
 30
0.0
  0
VERTEX
  5
DD
330
D8
100
AcDbEntity
  8
5 star - arm 2d
 62
     7
100
AcDbVertex
100
AcDb2dVertex
 10
-12.62800406020549
 20
0.8425000000000009
 30
0.0
  0
SEQEND
  5
DE
330
D8
100
AcDbEntity
  8
5 star - arm 2d
 62
     7
  0
SPLINE
  5
DF
330
1F
100
AcDbEntity
  8
5 star - arm 2d
 62
     7
100
AcDbSpline
210
0.0
220
0.0
230
1.0
 70
    24
 71
     2
 72
     6
 73
     3
 74
     0
 42
0.0000000001
 43
0.0000000001
 40
0.0
 40
0.0
 40
0.0
 40
2.31
 40
2.31
 40
2.31
 10
-13.14362906020549
 20
0.1250000000000011
 30
0.0
 10
-13.14362906020549
 20
1.280000000000001
 30
0.0
 10
-13.14362906020549
 20
2.435000000000001
 30
0.0
  0
SPLINE
  5
E0
330
1F
100
AcDbEntity
  8
5 star - arm 2d
 62
     7
100
AcDbSpline
210
0.0
220
0.0
230
1.0
 70
    12
 71
     2
 72
     6
 73
     3
 74
     0
 42
0.0000000001
 43
0.0000000001
 40
0.0
 40
0.0
 40
0.0
 40
0.1963495408493616
 40
0.1963495408493616
 40
0.1963495408493616
 10
-13.14362906020549
 20
2.435000000000001
 30
0.0
 41
1.0
 10
-13.14362906020549
 20
2.56
 30
0.0
 41
0.7071067811865519
 10
-13.01862906020549
 20
2.56
 30
0.0
 41
1.0
  0
SPLINE
  5
E1
330
1F
100
AcDbEntity
  8
5 star - arm 2d
 62
     7
100
AcDbSpline
210
0.0
220
0.0
230
1.0
 70
    24
 71
     2
 72
     6
 73
     3
 74
     0
 42
0.0000000001
 43
0.0000000001
 40
-0.3437499999999991
 40
-0.3437499999999991
 40
-0.3437499999999991
 40
0.0
 40
0.0
 40
0.0
 10
-13.01862906020549
 20
2.56
 30
0.0
 10
-12.84675406020549
 20
2.560000000000001
 30
0.0
 10
-12.67487906020549
 20
2.560000000000001
 30
0.0
  0
SPLINE
  5
E2
330
1F
100
AcDbEntity
  8
5 star - arm 2d
 62
     7
100
AcDbSpline
210
0.0
220
0.0
230
1.0
 70
    12
 71
     2
 72
     8
 73
     5
 74
     0
 42
0.0000000001
 43
0.0000000001
 40
0.0
 40
0.0
 40
0.0
 40
0.0245437074331718
 40
0.0245437074331718
 40
0.0490874148663445
 40
0.0490874148663445
 40
0.0490874148663445
 10
-12.67487906020549
 20
2.560000000000001
 30
0.0
 41
1.0
 10
-12.66193487769588
 20
2.560000000000003
 30
0.0
 41
0.9238794417264912
 10
-12.65278196280914
 20
2.550847076427806
 30
0.0
 41
1.0
 10
-12.64362904792241
 20
2.541694152855611
 30
0.0
 41
0.9238794417265509
 10
-12.6436290602055
 20
2.528749970346001
 30
0.0
 41
1.0
  0
SPLINE
  5
E3
330
1F
100
AcDbEntity
  8
5 star - arm 2d
 62
     7
100
AcDbSpline
210
0.0
220
0.0
230
1.0
 70
    24
 71
     2
 72
     6
 73
     3
 74
     0
 42
0.0000000001
 43
0.0000000001
 40
0.0
 40
0.0
 40
0.0
 40
2.492448632942286
 40
2.492448632942286
 40
2.492448632942286
 10
-12.6436290602055
 20
2.528749970346001
 30
0.0
 10
-12.6436290602055
 20
1.28126282693743
 30
0.0
 10
-12.6436290602055
 20
0.0337756835288582
 30
0.0
  0
SPLINE
  5
E4
330
1F
100
AcDbEntity
  8
5 star - arm 2d
 62
     7
100
AcDbSpline
210
0.0
220
0.0
230
1.0
 70
    12
 71
     2
 72
     8
 73
     5
 74
     0
 42
0.0000000001
 43
0.0000000001
 40
0.0
 40
0.0
 40
0.0
 40
0.0245437074331721
 40
0.0245437074331721
 40
0.0490874148663438
 40
0.0490874148663438
 40
0.0490874148663438
 10
-12.6436290602055
 20
0.0337756835288582
 30
0.0
 41
1.0
 10
-12.64362904792241
 20
0.0183058471443908
 30
0.0
 41
0.9238794417265652
 10
-12.65278196280914
 20
0.0091529235721958
 30
0.0
 41
1.0
 10
-12.66193487769588
 20
0.0
 30
0.0
 41
0.9238794417265086
 10
-12.67487906020549
 20
0.0000000000000009
 30
0.0
 41
1.0
  0
SPLINE
  5
E5
330
1F
100
AcDbEntity
  8
5 star - arm 2d
 62
     7
100
AcDbSpline
210
0.0
220
0.0
230
1.0
 70
    24
 71
     2
 72
     6
 73
     3
 74
     0
 42
0.0000000001
 43
0.0000000001
 40
-0.3437499999999991
 40
-0.3437499999999991
 40
-0.3437499999999991
 40
0.0
 40
0.0
 40
0.0
 10
-12.67487906020549
 20
0.0000000000000009
 30
0.0
 10
-12.84675406020549
 20
0.000000000000001
 30
0.0
 10
-13.01862906020549
 20
0.0000000000000011
 30
0.0
  0
SPLINE
  5
E6
330
1F
100
AcDbEntity
  8
5 star - arm 2d
 62
     7
100
AcDbSpline
210
0.0
220
0.0
230
1.0
 70
    12
 71
     2
 72
     6
 73
     3
 74
     0
 42
0.0000000001
 43
0.0000000001
 40
0.0
 40
0.0
 40
0.0
 40
0.1963495408493621
 40
0.1963495408493621
 40
0.1963495408493621
 10
-13.01862906020549
 20
0.0000000000000011
 30
0.0
 41
1.0
 10
-13.14362906020549
 20
0.0
 30
0.0
 41
0.7071067811865478
 10
-13.14362906020549
 20
0.1250000000000011
 30
0.0
 41
1.0
  0
SPLINE
  5
E7
330
1F
100
AcDbEntity
  8
5 star - arm 2d
 62
     7
100
AcDbSpline
210
0.0
220
0.0
230
1.0
 70
    24
 71
     2
 72
     6
 73
     3
 74
     0
 42
0.0000000001
 43
0.0000000001
 40
0.0
 40
0.0
 40
0.0
 40
2.31
 40
2.31
 40
2.31
 10
-6.707429754571675
 20
0.1250000000000011
 30
0.0
 10
-6.707429754571675
 20
1.280000000000001
 30
0.0
 10
-6.707429754571675
 20
2.435000000000001
 30
0.0
  0
SPLINE
  5
E8
330
1F
100
AcDbEntity
  8
5 star - arm 2d
 62
     7
100
AcDbSpline
210
0.0
220
0.0
230
1.0
 70
    12
 71
     2
 72
     6
 73
     3
 74
     0
 42
0.0000000001
 43
0.0000000001
 40
0.0
 40
0.0
 40
0.0
 40
0.1963495408493616
 40
0.1963495408493616
 40
0.1963495408493616
 10
-6.707429754571675
 20
2.435000000000001
 30
0.0
 41
1.0
 10
-6.707429754571674
 20
2.56
 30
0.0
 41
0.7071067811865519
 10
-6.832429754571675
 20
2.56
 30
0.0
 41
1.0
  0
SPLINE
  5
E9
330
1F
100
AcDbEntity
  8
5 star - arm 2d
 62
     7
100
AcDbSpline
210
0.0
220
0.0
230
1.0
 70
    24
 71
     2
 72
     6
 73
     3
 74
     0
 42
0.0000000001
 43
0.0000000001
 40
-0.3437499999999991
 40
-0.3437499999999991
 40
-0.3437499999999991
 40
0.0
 40
0.0
 40
0.0
 10
-6.832429754571675
 20
2.56
 30
0.0
 10
-7.004304754571674
 20
2.560000000000001
 30
0.0
 10
-7.176179754571673
 20
2.560000000000001
 30
0.0
  0
SPLINE
  5
EA
330
1F
100
AcDbEntity
  8
5 star - arm 2d
 62
     7
100
AcDbSpline
210
0.0
220
0.0
230
1.0
 70
    12
 71
     2
 72
     8
 73
     5
 74
     0
 42
0.0000000001
 43
0.0000000001
 40
0.0
 40
0.0
 40
0.0
 40
0.0245437074331718
 40
0.0245437074331718
 40
0.0490874148663445
 40
0.0490874148663445
 40
0.0490874148663445
 10
-7.176179754571673
 20
2.560000000000001
 30
0.0
 41
1.0
 10
-7.18912393708129
 20
2.560000000000003
 30
0.0
 41
0.9238794417264912
 10
-7.198276851968024
 20
2.550847076427806
 30
0.0
 41
1.0
 10
-7.20742976685476
 20
2.541694152855611
 30
0.0
 41
0.9238794417265509
 10
-7.207429754571666
 20
2.528749970346001
 30
0.0
 41
1.0
  0
SPLINE
  5
EB
330
1F
100
AcDbEntity
  8
5 star - arm 2d
 62
     7
100
AcDbSpline
210
0.0
220
0.0
230
1.0
 70
    24
 71
     2
 72
     6
 73
     3
 74
     0
 42
0.0000000001
 43
0.0000000001
 40
0.0
 40
0.0
 40
0.0
 40
2.492448632942286
 40
2.492448632942286
 40
2.492448632942286
 10
-7.207429754571666
 20
2.528749970346001
 30
0.0
 10
-7.207429754571666
 20
1.28126282693743
 30
0.0
 10
-7.207429754571666
 20
0.0337756835288582
 30
0.0
  0
SPLINE
  5
EC
330
1F
100
AcDbEntity
  8
5 star - arm 2d
 62
     7
100
AcDbSpline
210
0.0
220
0.0
230
1.0
 70
    12
 71
     2
 72
     8
 73
     5
 74
     0
 42
0.0000000001
 43
0.0000000001
 40
0.0
 40
0.0
 40
0.0
 40
0.0245437074331721
 40
0.0245437074331721
 40
0.0490874148663438
 40
0.0490874148663438
 40
0.0490874148663438
 10
-7.207429754571666
 20
0.0337756835288582
 30
0.0
 41
1.0
 10
-7.207429766854759
 20
0.0183058471443908
 30
0.0
 41
0.9238794417265652
 10
-7.198276851968024
 20
0.0091529235721958
 30
0.0
 41
1.0
 10
-7.189123937081289
 20
0.0
 30
0.0
 41
0.9238794417265086
 10
-7.176179754571673
 20
0.0000000000000009
 30
0.0
 41
1.0
  0
SPLINE
  5
ED
330
1F
100
AcDbEntity
  8
5 star - arm 2d
 62
     7
100
AcDbSpline
210
0.0
220
0.0
230
1.0
 70
    24
 71
     2
 72
     6
 73
     3
 74
     0
 42
0.0000000001
 43
0.0000000001
 40
-0.3437499999999991
 40
-0.3437499999999991
 40
-0.3437499999999991
 40
0.0
 40
0.0
 40
0.0
 10
-7.176179754571673
 20
0.0000000000000009
 30
0.0
 10
-7.004304754571674
 20
0.000000000000001
 30
0.0
 10
-6.832429754571675
 20
0.0000000000000011
 30
0.0
  0
SPLINE
  5
EE
330
1F
100
AcDbEntity
  8
5 star - arm 2d
 62
     7
100
AcDbSpline
210
0.0
220
0.0
230
1.0
 70
    12
 71
     2
 72
     6
 73
     3
 74
     0
 42
0.0000000001
 43
0.0000000001
 40
0.0
 40
0.0
 40
0.0
 40
0.1963495408493621
 40
0.1963495408493621
 40
0.1963495408493621
 10
-6.832429754571675
 20
0.0000000000000011
 30
0.0
 41
1.0
 10
-6.707429754571675
 20
0.0
 30
0.0
 41
0.7071067811865478
 10
-6.707429754571675
 20
0.1250000000000011
 30
0.0
 41
1.0
  0
POLYLINE
  5
EF
330
1F
100
AcDbEntity
  8
5 star - arm 2d
 62
     7
100
AcDb2dPolyline
 66
     1
 10
0.0
 20
0.0
 30
0.0
  0
VERTEX
  5
F0
330
EF
100
AcDbEntity
  8
5 star - arm 2d
 62
     7
100
AcDbVertex
100
AcDb2dVertex
 10
-7.941804754571673
 20
0.8425000000000009
 30
0.0
  0
VERTEX
  5
F1
330
EF
100
AcDbEntity
  8
5 star - arm 2d
 62
     7
100
AcDbVertex
100
AcDb2dVertex
 10
-7.223054754571673
 20
0.8425000000000009
 30
0.0
  0
VERTEX
  5
F2
330
EF
100
AcDbEntity
  8
5 star - arm 2d
 62
     7
100
AcDbVertex
100
AcDb2dVertex
 10
-7.223054754571673
 20
2.560000000000001
 30
0.0
  0
VERTEX
  5
F3
330
EF
100
AcDbEntity
  8
5 star - arm 2d
 62
     7
100
AcDbVertex
100
AcDb2dVertex
 10
-7.941804754571673
 20
2.560000000000001
 30
0.0
  0
VERTEX
  5
F4
330
EF
100
AcDbEntity
  8
5 star - arm 2d
 62
     7
100
AcDbVertex
100
AcDb2dVertex
 10
-7.941804754571673
 20
0.8425000000000009
 30
0.0
  0
SEQEND
  5
F5
330
EF
100
AcDbEntity
  8
5 star - arm 2d
 62
     7
  0
SPLINE
  5
F6
330
1F
100
AcDbEntity
  8
5 star - arm 2d
 62
     7
100
AcDbSpline
210
0.0
220
0.0
230
1.0
 70
    24
 71
     2
 72
     6
 73
     3
 74
     0
 42
0.0000000001
 43
0.0000000001
 40
0.0
 40
0.0
 40
0.0
 40
2.31
 40
2.31
 40
2.31
 10
-8.45742975457167
 20
0.1250000000000011
 30
0.0
 10
-8.45742975457167
 20
1.280000000000001
 30
0.0
 10
-8.45742975457167
 20
2.435000000000001
 30
0.0
  0
SPLINE
  5
F7
330
1F
100
AcDbEntity
  8
5 star - arm 2d
 62
     7
100
AcDbSpline
210
0.0
220
0.0
230
1.0
 70
    12
 71
     2
 72
     6
 73
     3
 74
     0
 42
0.0000000001
 43
0.0000000001
 40
0.0
 40
0.0
 40
0.0
 40
0.1963495408493616
 40
0.1963495408493616
 40
0.1963495408493616
 10
-8.45742975457167
 20
2.435000000000001
 30
0.0
 41
1.0
 10
-8.457429754571672
 20
2.56
 30
0.0
 41
0.7071067811865519
 10
-8.33242975457167
 20
2.56
 30
0.0
 41
1.0
  0
SPLINE
  5
F8
330
1F
100
AcDbEntity
  8
5 star - arm 2d
 62
     7
100
AcDbSpline
210
0.0
220
0.0
230
1.0
 70
    24
 71
     2
 72
     6
 73
     3
 74
     0
 42
0.0000000001
 43
0.0000000001
 40
-0.3437499999999991
 40
-0.3437499999999991
 40
-0.3437499999999991
 40
0.0
 40
0.0
 40
0.0
 10
-8.33242975457167
 20
2.56
 30
0.0
 10
-8.160554754571672
 20
2.560000000000001
 30
0.0
 10
-7.988679754571673
 20
2.560000000000001
 30
0.0
  0
SPLINE
  5
F9
330
1F
100
AcDbEntity
  8
5 star - arm 2d
 62
     7
100
AcDbSpline
210
0.0
220
0.0
230
1.0
 70
    12
 71
     2
 72
     8
 73
     5
 74
     0
 42
0.0000000001
 43
0.0000000001
 40
0.0
 40
0.0
 40
0.0
 40
0.0245437074331718
 40
0.0245437074331718
 40
0.0490874148663445
 40
0.0490874148663445
 40
0.0490874148663445
 10
-7.988679754571673
 20
2.560000000000001
 30
0.0
 41
1.0
 10
-7.975735572062056
 20
2.560000000000003
 30
0.0
 41
0.9238794417264912
 10
-7.966582657175322
 20
2.550847076427806
 30
0.0
 41
1.0
 10
-7.957429742288586
 20
2.541694152855611
 30
0.0
 41
0.9238794417265509
 10
-7.95742975457168
 20
2.528749970346001
 30
0.0
 41
1.0
  0
SPLINE
  5
FA
330
1F
100
AcDbEntity
  8
5 star - arm 2d
 62
     7
100
AcDbSpline
210
0.0
220
0.0
230
1.0
 70
    24
 71
     2
 72
     6
 73
     3
 74
     0
 42
0.0000000001
 43
0.0000000001
 40
0.0
 40
0.0
 40
0.0
 40
2.492448632942286
 40
2.492448632942286
 40
2.492448632942286
 10
-7.95742975457168
 20
2.528749970346001
 30
0.0
 10
-7.95742975457168
 20
1.28126282693743
 30
0.0
 10
-7.95742975457168
 20
0.0337756835288582
 30
0.0
  0
SPLINE
  5
FB
330
1F
100
AcDbEntity
  8
5 star - arm 2d
 62
     7
100
AcDbSpline
210
0.0
220
0.0
230
1.0
 70
    12
 71
     2
 72
     8
 73
     5
 74
     0
 42
0.0000000001
 43
0.0000000001
 40
0.0
 40
0.0
 40
0.0
 40
0.0245437074331721
 40
0.0245437074331721
 40
0.0490874148663438
 40
0.0490874148663438
 40
0.0490874148663438
 10
-7.95742975457168
 20
0.0337756835288582
 30
0.0
 41
1.0
 10
-7.957429742288588
 20
0.0183058471443908
 30
0.0
 41
0.9238794417265652
 10
-7.966582657175322
 20
0.0091529235721958
 30
0.0
 41
1.0
 10
-7.975735572062057
 20
0.0
 30
0.0
 41
0.9238794417265086
 10
-7.988679754571673
 20
0.0000000000000009
 30
0.0
 41
1.0
  0
SPLINE
  5
FC
330
1F
100
AcDbEntity
  8
5 star - arm 2d
 62
     7
100
AcDbSpline
210
0.0
220
0.0
230
1.0
 70
    24
 71
     2
 72
     6
 73
     3
 74
     0
 42
0.0000000001
 43
0.0000000001
 40
-0.3437499999999991
 40
-0.3437499999999991
 40
-0.3437499999999991
 40
0.0
 40
0.0
 40
0.0
 10
-7.988679754571673
 20
0.0000000000000009
 30
0.0
 10
-8.160554754571672
 20
0.000000000000001
 30
0.0
 10
-8.33242975457167
 20
0.0000000000000011
 30
0.0
  0
SPLINE
  5
FD
330
1F
100
AcDbEntity
  8
5 star - arm 2d
 62
     7
100
AcDbSpline
210
0.0
220
0.0
230
1.0
 70
    12
 71
     2
 72
     6
 73
     3
 74
     0
 42
0.0000000001
 43
0.0000000001
 40
0.0
 40
0.0
 40
0.0
 40
0.1963495408493621
 40
0.1963495408493621
 40
0.1963495408493621
 10
-8.33242975457167
 20
0.0000000000000011
 30
0.0
 41
1.0
 10
-8.45742975457167
 20
0.0
 30
0.0
 41
0.7071067811865478
 10
-8.45742975457167
 20
0.1250000000000011
 30
0.0
 41
1.0
  0
SPLINE
  5
FE
330
1F
100
AcDbEntity
  8
5 star - arm 2d
 62
     7
100
AcDbSpline
210
0.0
220
0.0
230
1.0
 70
    24
 71
     2
 72
     6
 73
     3
 74
     0
 42
0.0000000001
 43
0.0000000001
 40
0.0
 40
0.0
 40
0.0
 40
2.31
 40
2.31
 40
2.31
 10
0.8750000000000018
 20
0.1250000000000011
 30
0.0
 10
0.8750000000000018
 20
1.280000000000001
 30
0.0
 10
0.8750000000000018
 20
2.435000000000001
 30
0.0
  0
SPLINE
  5
FF
330
1F
100
AcDbEntity
  8
5 star - arm 2d
 62
     7
100
AcDbSpline
210
0.0
220
0.0
230
1.0
 70
    12
 71
     2
 72
     6
 73
     3
 74
     0
 42
0.0000000001
 43
0.0000000001
 40
0.0
 40
0.0
 40
0.0
 40
0.1963495408493616
 40
0.1963495408493616
 40
0.1963495408493616
 10
0.8750000000000018
 20
2.435000000000001
 30
0.0
 41
1.0
 10
0.8750000000000026
 20
2.56
 30
0.0
 41
0.7071067811865519
 10
0.7500000000000018
 20
2.56
 30
0.0
 41
1.0
  0
SPLINE
  5
100
330
1F
100
AcDbEntity
  8
5 star - arm 2d
 62
     7
100
AcDbSpline
210
0.0
220
0.0
230
1.0
 70
    24
 71
     2
 72
     6
 73
     3
 74
     0
 42
0.0000000001
 43
0.0000000001
 40
-0.3437499999999991
 40
-0.3437499999999991
 40
-0.3437499999999991
 40
0.0
 40
0.0
 40
0.0
 10
0.7500000000000018
 20
2.56
 30
0.0
 10
0.5781250000000027
 20
2.560000000000001
 30
0.0
 10
0.4062500000000036
 20
2.560000000000001
 30
0.0
  0
SPLINE
  5
101
330
1F
100
AcDbEntity
  8
5 star - arm 2d
 62
     7
100
AcDbSpline
210
0.0
220
0.0
230
1.0
 70
    12
 71
     2
 72
     8
 73
     5
 74
     0
 42
0.0000000001
 43
0.0000000001
 40
0.0
 40
0.0
 40
0.0
 40
0.0245437074331718
 40
0.0245437074331718
 40
0.0490874148663445
 40
0.0490874148663445
 40
0.0490874148663445
 10
0.4062500000000036
 20
2.560000000000001
 30
0.0
 41
1.0
 10
0.3933058174903861
 20
2.560000000000003
 30
0.0
 41
0.9238794417264912
 10
0.3841529026036525
 20
2.550847076427806
 30
0.0
 41
1.0
 10
0.3749999877169167
 20
2.541694152855611
 30
0.0
 41
0.9238794417265509
 10
0.3750000000000107
 20
2.528749970346001
 30
0.0
 41
1.0
  0
SPLINE
  5
102
330
1F
100
AcDbEntity
  8
5 star - arm 2d
 62
     7
100
AcDbSpline
210
0.0
220
0.0
230
1.0
 70
    24
 71
     2
 72
     6
 73
     3
 74
     0
 42
0.0000000001
 43
0.0000000001
 40
0.0
 40
0.0
 40
0.0
 40
2.492448632942286
 40
2.492448632942286
 40
2.492448632942286
 10
0.3750000000000107
 20
2.528749970346001
 30
0.0
 10
0.3750000000000107
 20
1.28126282693743
 30
0.0
 10
0.3750000000000107
 20
0.0337756835288582
 30
0.0
  0
SPLINE
  5
103
330
1F
100
AcDbEntity
  8
5 star - arm 2d
 62
     7
100
AcDbSpline
210
0.0
220
0.0
230
1.0
 70
    12
 71
     2
 72
     8
 73
     5
 74
     0
 42
0.0000000001
 43
0.0000000001
 40
0.0
 40
0.0
 40
0.0
 40
0.0245437074331721
 40
0.0245437074331721
 40
0.0490874148663438
 40
0.0490874148663438
 40
0.0490874148663438
 10
0.3750000000000107
 20
0.0337756835288582
 30
0.0
 41
1.0
 10
0.3749999877169184
 20
0.0183058471443908
 30
0.0
 41
0.9238794417265652
 10
0.3841529026036525
 20
0.0091529235721958
 30
0.0
 41
1.0
 10
0.3933058174903872
 20
0.0
 30
0.0
 41
0.9238794417265086
 10
0.4062500000000036
 20
0.0000000000000009
 30
0.0
 41
1.0
  0
SPLINE
  5
104
330
1F
100
AcDbEntity
  8
5 star - arm 2d
 62
     7
100
AcDbSpline
210
0.0
220
0.0
230
1.0
 70
    24
 71
     2
 72
     6
 73
     3
 74
     0
 42
0.0000000001
 43
0.0000000001
 40
-0.3437499999999991
 40
-0.3437499999999991
 40
-0.3437499999999991
 40
0.0
 40
0.0
 40
0.0
 10
0.4062500000000036
 20
0.0000000000000009
 30
0.0
 10
0.5781250000000027
 20
0.000000000000001
 30
0.0
 10
0.7500000000000018
 20
0.0000000000000011
 30
0.0
  0
SPLINE
  5
105
330
1F
100
AcDbEntity
  8
5 star - arm 2d
 62
     7
100
AcDbSpline
210
0.0
220
0.0
230
1.0
 70
    12
 71
     2
 72
     6
 73
     3
 74
     0
 42
0.0000000001
 43
0.0000000001
 40
0.0
 40
0.0
 40
0.0
 40
0.1963495408493621
 40
0.1963495408493621
 40
0.1963495408493621
 10
0.7500000000000018
 20
0.0000000000000011
 30
0.0
 41
1.0
 10
0.8750000000000017
 20
0.0
 30
0.0
 41
0.7071067811865478
 10
0.8750000000000018
 20
0.1250000000000011
 30
0.0
 41
1.0
  0
POLYLINE
  5
106
330
1F
100
AcDbEntity
  8
5 star - arm 2d
 62
     7
100
AcDb2dPolyline
 66
     1
 10
0.0
 20
0.0
 30
0.0
  0
VERTEX
  5
107
330
106
100
AcDbEntity
  8
5 star - arm 2d
 62
     7
100
AcDbVertex
100
AcDb2dVertex
 10
-0.3593749999999964
 20
0.8425000000000009
 30
0.0
  0
VERTEX
  5
108
330
106
100
AcDbEntity
  8
5 star - arm 2d
 62
     7
100
AcDbVertex
100
AcDb2dVertex
 10
0.3593750000000036
 20
0.8425000000000009
 30
0.0
  0
VERTEX
  5
109
330
106
100
AcDbEntity
  8
5 star - arm 2d
 62
     7
100
AcDbVertex
100
AcDb2dVertex
 10
0.3593750000000036
 20
2.560000000000001
 30
0.0
  0
VERTEX
  5
10A
330
106
100
AcDbEntity
  8
5 star - arm 2d
 62
     7
100
AcDbVertex
100
AcDb2dVertex
 10
-0.3593749999999964
 20
2.560000000000001
 30
0.0
  0
VERTEX
  5
10B
330
106
100
AcDbEntity
  8
5 star - arm 2d
 62
     7
100
AcDbVertex
100
AcDb2dVertex
 10
-0.3593749999999964
 20
0.8425000000000009
 30
0.0
  0
SEQEND
  5
10C
330
106
100
AcDbEntity
  8
5 star - arm 2d
 62
     7
  0
SPLINE
  5
10D
330
1F
100
AcDbEntity
  8
5 star - arm 2d
 62
     7
100
AcDbSpline
210
0.0
220
0.0
230
1.0
 70
    24
 71
     2
 72
     6
 73
     3
 74
     0
 42
0.0000000001
 43
0.0000000001
 40
0.0
 40
0.0
 40
0.0
 40
2.31
 40
2.31
 40
2.31
 10
-0.8749999999999947
 20
0.1250000000000011
 30
0.0
 10
-0.8749999999999947
 20
1.280000000000001
 30
0.0
 10
-0.8749999999999947
 20
2.435000000000001
 30
0.0
  0
SPLINE
  5
10E
330
1F
100
AcDbEntity
  8
5 star - arm 2d
 62
     7
100
AcDbSpline
210
0.0
220
0.0
230
1.0
 70
    12
 71
     2
 72
     6
 73
     3
 74
     0
 42
0.0000000001
 43
0.0000000001
 40
0.0
 40
0.0
 40
0.0
 40
0.1963495408493616
 40
0.1963495408493616
 40
0.1963495408493616
 10
-0.8749999999999947
 20
2.435000000000001
 30
0.0
 41
1.0
 10
-0.8749999999999957
 20
2.56
 30
0.0
 41
0.7071067811865519
 10
-0.7499999999999947
 20
2.56
 30
0.0
 41
1.0
  0
SPLINE
  5
10F
330
1F
100
AcDbEntity
  8
5 star - arm 2d
 62
     7
100
AcDbSpline
210
0.0
220
0.0
230
1.0
 70
    24
 71
     2
 72
     6
 73
     3
 74
     0
 42
0.0000000001
 43
0.0000000001
 40
-0.3437499999999991
 40
-0.3437499999999991
 40
-0.3437499999999991
 40
0.0
 40
0.0
 40
0.0
 10
-0.7499999999999947
 20
2.56
 30
0.0
 10
-0.5781249999999956
 20
2.560000000000001
 30
0.0
 10
-0.4062499999999964
 20
2.560000000000001
 30
0.0
  0
SPLINE
  5
110
330
1F
100
AcDbEntity
  8
5 star - arm 2d
 62
     7
100
AcDbSpline
210
0.0
220
0.0
230
1.0
 70
    12
 71
     2
 72
     8
 73
     5
 74
     0
 42
0.0000000001
 43
0.0000000001
 40
0.0
 40
0.0
 40
0.0
 40
0.0245437074331718
 40
0.0245437074331718
 40
0.0490874148663445
 40
0.0490874148663445
 40
0.0490874148663445
 10
-0.4062499999999964
 20
2.560000000000001
 30
0.0
 41
1.0
 10
-0.393305817490379
 20
2.560000000000003
 30
0.0
 41
0.9238794417264912
 10
-0.3841529026036454
 20
2.550847076427806
 30
0.0
 41
1.0
 10
-0.3749999877169095
 20
2.541694152855611
 30
0.0
 41
0.9238794417265509
 10
-0.3750000000000036
 20
2.528749970346001
 30
0.0
 41
1.0
  0
SPLINE
  5
111
330
1F
100
AcDbEntity
  8
5 star - arm 2d
 62
     7
100
AcDbSpline
210
0.0
220
0.0
230
1.0
 70
    24
 71
     2
 72
     6
 73
     3
 74
     0
 42
0.0000000001
 43
0.0000000001
 40
0.0
 40
0.0
 40
0.0
 40
2.492448632942286
 40
2.492448632942286
 40
2.492448632942286
 10
-0.3750000000000036
 20
2.528749970346001
 30
0.0
 10
-0.3750000000000036
 20
1.28126282693743
 30
0.0
 10
-0.3750000000000036
 20
0.0337756835288582
 30
0.0
  0
SPLINE
  5
112
330
1F
100
AcDbEntity
  8
5 star - arm 2d
 62
     7
100
AcDbSpline
210
0.0
220
0.0
230
1.0
 70
    12
 71
     2
 72
     8
 73
     5
 74
     0
 42
0.0000000001
 43
0.0000000001
 40
0.0
 40
0.0
 40
0.0
 40
0.0245437074331721
 40
0.0245437074331721
 40
0.0490874148663438
 40
0.0490874148663438
 40
0.0490874148663438
 10
-0.3750000000000036
 20
0.0337756835288582
 30
0.0
 41
1.0
 10
-0.3749999877169115
 20
0.0183058471443908
 30
0.0
 41
0.9238794417265652
 10
-0.3841529026036454
 20
0.0091529235721958
 30
0.0
 41
1.0
 10
-0.3933058174903805
 20
0.0
 30
0.0
 41
0.9238794417265086
 10
-0.4062499999999964
 20
0.0000000000000009
 30
0.0
 41
1.0
  0
SPLINE
  5
113
330
1F
100
AcDbEntity
  8
5 star - arm 2d
 62
     7
100
AcDbSpline
210
0.0
220
0.0
230
1.0
 70
    24
 71
     2
 72
     6
 73
     3
 74
     0
 42
0.0000000001
 43
0.0000000001
 40
-0.3437499999999991
 40
-0.3437499999999991
 40
-0.3437499999999991
 40
0.0
 40
0.0
 40
0.0
 10
-0.4062499999999964
 20
0.0000000000000009
 30
0.0
 10
-0.5781249999999956
 20
0.000000000000001
 30
0.0
 10
-0.7499999999999947
 20
0.0000000000000011
 30
0.0
  0
SPLINE
  5
114
330
1F
100
AcDbEntity
  8
5 star - arm 2d
 62
     7
100
AcDbSpline
210
0.0
220
0.0
230
1.0
 70
    12
 71
     2
 72
     6
 73
     3
 74
     0
 42
0.0000000001
 43
0.0000000001
 40
0.0
 40
0.0
 40
0.0
 40
0.1963495408493621
 40
0.1963495408493621
 40
0.1963495408493621
 10
-0.7499999999999947
 20
0.0000000000000011
 30
0.0
 41
1.0
 10
-0.8749999999999941
 20
0.0
 30
0.0
 41
0.7071067811865478
 10
-0.8749999999999947
 20
0.1250000000000011
 30
0.0
 41
1.0
  0
SPLINE
  5
115
330
1F
100
AcDbEntity
  8
5 star - arm 2d
 62
     7
100
AcDbSpline
210
0.0
220
0.0
230
1.0
 70
    24
 71
     2
 72
     6
 73
     3
 74
     0
 42
0.0000000001
 43
0.0000000001
 40
0.0
 40
0.0
 40
0.0
 40
2.31
 40
2.31
 40
2.31
 10
8.457429754571681
 20
0.1250000000000011
 30
0.0
 10
8.457429754571681
 20
1.280000000000001
 30
0.0
 10
8.457429754571681
 20
2.435000000000001
 30
0.0
  0
SPLINE
  5
116
330
1F
100
AcDbEntity
  8
5 star - arm 2d
 62
     7
100
AcDbSpline
210
0.0
220
0.0
230
1.0
 70
    12
 71
     2
 72
     6
 73
     3
 74
     0
 42
0.0000000001
 43
0.0000000001
 40
0.0
 40
0.0
 40
0.0
 40
0.1963495408493616
 40
0.1963495408493616
 40
0.1963495408493616
 10
8.457429754571681
 20
2.435000000000001
 30
0.0
 41
1.0
 10
8.457429754571681
 20
2.56
 30
0.0
 41
0.7071067811865519
 10
8.332429754571681
 20
2.56
 30
0.0
 41
1.0
  0
SPLINE
  5
117
330
1F
100
AcDbEntity
  8
5 star - arm 2d
 62
     7
100
AcDbSpline
210
0.0
220
0.0
230
1.0
 70
    24
 71
     2
 72
     6
 73
     3
 74
     0
 42
0.0000000001
 43
0.0000000001
 40
-0.3437499999999991
 40
-0.3437499999999991
 40
-0.3437499999999991
 40
0.0
 40
0.0
 40
0.0
 10
8.332429754571681
 20
2.56
 30
0.0
 10
8.160554754571681
 20
2.560000000000001
 30
0.0
 10
7.988679754571683
 20
2.560000000000001
 30
0.0
  0
SPLINE
  5
118
330
1F
100
AcDbEntity
  8
5 star - arm 2d
 62
     7
100
AcDbSpline
210
0.0
220
0.0
230
1.0
 70
    12
 71
     2
 72
     8
 73
     5
 74
     0
 42
0.0000000001
 43
0.0000000001
 40
0.0
 40
0.0
 40
0.0
 40
0.0245437074331718
 40
0.0245437074331718
 40
0.0490874148663445
 40
0.0490874148663445
 40
0.0490874148663445
 10
7.988679754571683
 20
2.560000000000001
 30
0.0
 41
1.0
 10
7.975735572062066
 20
2.560000000000003
 30
0.0
 41
0.9238794417264912
 10
7.966582657175332
 20
2.550847076427806
 30
0.0
 41
1.0
 10
7.957429742288597
 20
2.541694152855611
 30
0.0
 41
0.9238794417265509
 10
7.95742975457169
 20
2.528749970346001
 30
0.0
 41
1.0
  0
SPLINE
  5
119
330
1F
100
AcDbEntity
  8
5 star - arm 2d
 62
     7
100
AcDbSpline
210
0.0
220
0.0
230
1.0
 70
    24
 71
     2
 72
     6
 73
     3
 74
     0
 42
0.0000000001
 43
0.0000000001
 40
0.0
 40
0.0
 40
0.0
 40
2.492448632942286
 40
2.492448632942286
 40
2.492448632942286
 10
7.95742975457169
 20
2.528749970346001
 30
0.0
 10
7.95742975457169
 20
1.28126282693743
 30
0.0
 10
7.95742975457169
 20
0.0337756835288582
 30
0.0
  0
SPLINE
  5
11A
330
1F
100
AcDbEntity
  8
5 star - arm 2d
 62
     7
100
AcDbSpline
210
0.0
220
0.0
230
1.0
 70
    12
 71
     2
 72
     8
 73
     5
 74
     0
 42
0.0000000001
 43
0.0000000001
 40
0.0
 40
0.0
 40
0.0
 40
0.0245437074331721
 40
0.0245437074331721
 40
0.0490874148663438
 40
0.0490874148663438
 40
0.0490874148663438
 10
7.95742975457169
 20
0.0337756835288582
 30
0.0
 41
1.0
 10
7.957429742288598
 20
0.0183058471443908
 30
0.0
 41
0.9238794417265652
 10
7.966582657175332
 20
0.0091529235721958
 30
0.0
 41
1.0
 10
7.975735572062066
 20
0.0
 30
0.0
 41
0.9238794417265086
 10
7.988679754571683
 20
0.0000000000000009
 30
0.0
 41
1.0
  0
SPLINE
  5
11B
330
1F
100
AcDbEntity
  8
5 star - arm 2d
 62
     7
100
AcDbSpline
210
0.0
220
0.0
230
1.0
 70
    24
 71
     2
 72
     6
 73
     3
 74
     0
 42
0.0000000001
 43
0.0000000001
 40
-0.3437499999999991
 40
-0.3437499999999991
 40
-0.3437499999999991
 40
0.0
 40
0.0
 40
0.0
 10
7.988679754571683
 20
0.0000000000000009
 30
0.0
 10
8.160554754571681
 20
0.000000000000001
 30
0.0
 10
8.332429754571681
 20
0.0000000000000011
 30
0.0
  0
SPLINE
  5
11C
330
1F
100
AcDbEntity
  8
5 star - arm 2d
 62
     7
100
AcDbSpline
210
0.0
220
0.0
230
1.0
 70
    12
 71
     2
 72
     6
 73
     3
 74
     0
 42
0.0000000001
 43
0.0000000001
 40
0.0
 40
0.0
 40
0.0
 40
0.1963495408493621
 40
0.1963495408493621
 40
0.1963495408493621
 10
8.332429754571681
 20
0.0000000000000011
 30
0.0
 41
1.0
 10
8.457429754571681
 20
0.0
 30
0.0
 41
0.7071067811865478
 10
8.457429754571681
 20
0.1250000000000011
 30
0.0
 41
1.0
  0
POLYLINE
  5
11D
330
1F
100
AcDbEntity
  8
5 star - arm 2d
 62
     7
100
AcDb2dPolyline
 66
     1
 10
0.0
 20
0.0
 30
0.0
  0
VERTEX
  5
11E
330
11D
100
AcDbEntity
  8
5 star - arm 2d
 62
     7
100
AcDbVertex
100
AcDb2dVertex
 10
7.223054754571683
 20
0.8425000000000009
 30
0.0
  0
VERTEX
  5
11F
330
11D
100
AcDbEntity
  8
5 star - arm 2d
 62
     7
100
AcDbVertex
100
AcDb2dVertex
 10
7.941804754571683
 20
0.8425000000000009
 30
0.0
  0
VERTEX
  5
120
330
11D
100
AcDbEntity
  8
5 star - arm 2d
 62
     7
100
AcDbVertex
100
AcDb2dVertex
 10
7.941804754571683
 20
2.560000000000001
 30
0.0
  0
VERTEX
  5
121
330
11D
100
AcDbEntity
  8
5 star - arm 2d
 62
     7
100
AcDbVertex
100
AcDb2dVertex
 10
7.223054754571683
 20
2.560000000000001
 30
0.0
  0
VERTEX
  5
122
330
11D
100
AcDbEntity
  8
5 star - arm 2d
 62
     7
100
AcDbVertex
100
AcDb2dVertex
 10
7.223054754571683
 20
0.8425000000000009
 30
0.0
  0
SEQEND
  5
123
330
11D
100
AcDbEntity
  8
5 star - arm 2d
 62
     7
  0
SPLINE
  5
124
330
1F
100
AcDbEntity
  8
5 star - arm 2d
 62
     7
100
AcDbSpline
210
0.0
220
0.0
230
1.0
 70
    24
 71
     2
 72
     6
 73
     3
 74
     0
 42
0.0000000001
 43
0.0000000001
 40
0.0
 40
0.0
 40
0.0
 40
2.31
 40
2.31
 40
2.31
 10
6.707429754571685
 20
0.1250000000000011
 30
0.0
 10
6.707429754571685
 20
1.280000000000001
 30
0.0
 10
6.707429754571685
 20
2.435000000000001
 30
0.0
  0
SPLINE
  5
125
330
1F
100
AcDbEntity
  8
5 star - arm 2d
 62
     7
100
AcDbSpline
210
0.0
220
0.0
230
1.0
 70
    12
 71
     2
 72
     6
 73
     3
 74
     0
 42
0.0000000001
 43
0.0000000001
 40
0.0
 40
0.0
 40
0.0
 40
0.1963495408493616
 40
0.1963495408493616
 40
0.1963495408493616
 10
6.707429754571685
 20
2.435000000000001
 30
0.0
 41
1.0
 10
6.707429754571683
 20
2.56
 30
0.0
 41
0.7071067811865519
 10
6.832429754571685
 20
2.56
 30
0.0
 41
1.0
  0
SPLINE
  5
126
330
1F
100
AcDbEntity
  8
5 star - arm 2d
 62
     7
100
AcDbSpline
210
0.0
220
0.0
230
1.0
 70
    24
 71
     2
 72
     6
 73
     3
 74
     0
 42
0.0000000001
 43
0.0000000001
 40
-0.3437499999999991
 40
-0.3437499999999991
 40
-0.3437499999999991
 40
0.0
 40
0.0
 40
0.0
 10
6.832429754571685
 20
2.56
 30
0.0
 10
7.004304754571684
 20
2.560000000000001
 30
0.0
 10
7.176179754571683
 20
2.560000000000001
 30
0.0
  0
SPLINE
  5
127
330
1F
100
AcDbEntity
  8
5 star - arm 2d
 62
     7
100
AcDbSpline
210
0.0
220
0.0
230
1.0
 70
    12
 71
     2
 72
     8
 73
     5
 74
     0
 42
0.0000000001
 43
0.0000000001
 40
0.0
 40
0.0
 40
0.0
 40
0.0245437074331718
 40
0.0245437074331718
 40
0.0490874148663445
 40
0.0490874148663445
 40
0.0490874148663445
 10
7.176179754571683
 20
2.560000000000001
 30
0.0
 41
1.0
 10
7.189123937081301
 20
2.560000000000003
 30
0.0
 41
0.9238794417264912
 10
7.198276851968034
 20
2.550847076427806
 30
0.0
 41
1.0
 10
7.207429766854771
 20
2.541694152855611
 30
0.0
 41
0.9238794417265509
 10
7.207429754571676
 20
2.528749970346001
 30
0.0
 41
1.0
  0
SPLINE
  5
128
330
1F
100
AcDbEntity
  8
5 star - arm 2d
 62
     7
100
AcDbSpline
210
0.0
220
0.0
230
1.0
 70
    24
 71
     2
 72
     6
 73
     3
 74
     0
 42
0.0000000001
 43
0.0000000001
 40
0.0
 40
0.0
 40
0.0
 40
2.492448632942286
 40
2.492448632942286
 40
2.492448632942286
 10
7.207429754571676
 20
2.528749970346001
 30
0.0
 10
7.207429754571676
 20
1.28126282693743
 30
0.0
 10
7.207429754571676
 20
0.0337756835288582
 30
0.0
  0
SPLINE
  5
129
330
1F
100
AcDbEntity
  8
5 star - arm 2d
 62
     7
100
AcDbSpline
210
0.0
220
0.0
230
1.0
 70
    12
 71
     2
 72
     8
 73
     5
 74
     0
 42
0.0000000001
 43
0.0000000001
 40
0.0
 40
0.0
 40
0.0
 40
0.0245437074331721
 40
0.0245437074331721
 40
0.0490874148663438
 40
0.0490874148663438
 40
0.0490874148663438
 10
7.207429754571676
 20
0.0337756835288582
 30
0.0
 41
1.0
 10
7.207429766854768
 20
0.0183058471443908
 30
0.0
 41
0.9238794417265652
 10
7.198276851968034
 20
0.0091529235721958
 30
0.0
 41
1.0
 10
7.189123937081299
 20
0.0
 30
0.0
 41
0.9238794417265086
 10
7.176179754571683
 20
0.0000000000000009
 30
0.0
 41
1.0
  0
SPLINE
  5
12A
330
1F
100
AcDbEntity
  8
5 star - arm 2d
 62
     7
100
AcDbSpline
210
0.0
220
0.0
230
1.0
 70
    24
 71
     2
 72
     6
 73
     3
 74
     0
 42
0.0000000001
 43
0.0000000001
 40
-0.3437499999999991
 40
-0.3437499999999991
 40
-0.3437499999999991
 40
0.0
 40
0.0
 40
0.0
 10
7.176179754571683
 20
0.0000000000000009
 30
0.0
 10
7.004304754571684
 20
0.000000000000001
 30
0.0
 10
6.832429754571685
 20
0.0000000000000011
 30
0.0
  0
SPLINE
  5
12B
330
1F
100
AcDbEntity
  8
5 star - arm 2d
 62
     7
100
AcDbSpline
210
0.0
220
0.0
230
1.0
 70
    12
 71
     2
 72
     6
 73
     3
 74
     0
 42
0.0000000001
 43
0.0000000001
 40
0.0
 40
0.0
 40
0.0
 40
0.1963495408493621
 40
0.1963495408493621
 40
0.1963495408493621
 10
6.832429754571685
 20
0.0000000000000011
 30
0.0
 41
1.0
 10
6.707429754571685
 20
0.0
 30
0.0
 41
0.7071067811865478
 10
6.707429754571685
 20
0.1250000000000011
 30
0.0
 41
1.0
  0
SPLINE
  5
12C
330
1F
100
AcDbEntity
  8
5 star - arm 2d
 62
     7
100
AcDbSpline
210
0.0
220
0.0
230
1.0
 70
    24
 71
     2
 72
     6
 73
     3
 74
     0
 42
0.0000000001
 43
0.0000000001
 40
0.0
 40
0.0
 40
0.0
 40
2.31
 40
2.31
 40
2.31
 10
13.1436290602055
 20
0.1250000000000011
 30
0.0
 10
13.1436290602055
 20
1.280000000000001
 30
0.0
 10
13.1436290602055
 20
2.435000000000001
 30
0.0
  0
SPLINE
  5
12D
330
1F
100
AcDbEntity
  8
5 star - arm 2d
 62
     7
100
AcDbSpline
210
0.0
220
0.0
230
1.0
 70
    12
 71
     2
 72
     6
 73
     3
 74
     0
 42
0.0000000001
 43
0.0000000001
 40
0.0
 40
0.0
 40
0.0
 40
0.1963495408493616
 40
0.1963495408493616
 40
0.1963495408493616
 10
13.1436290602055
 20
2.435000000000001
 30
0.0
 41
1.0
 10
13.1436290602055
 20
2.56
 30
0.0
 41
0.7071067811865519
 10
13.0186290602055
 20
2.56
 30
0.0
 41
1.0
  0
SPLINE
  5
12E
330
1F
100
AcDbEntity
  8
5 star - arm 2d
 62
     7
100
AcDbSpline
210
0.0
220
0.0
230
1.0
 70
    24
 71
     2
 72
     6
 73
     3
 74
     0
 42
0.0000000001
 43
0.0000000001
 40
-0.3437499999999991
 40
-0.3437499999999991
 40
-0.3437499999999991
 40
0.0
 40
0.0
 40
0.0
 10
13.0186290602055
 20
2.56
 30
0.0
 10
12.8467540602055
 20
2.560000000000001
 30
0.0
 10
12.6748790602055
 20
2.560000000000001
 30
0.0
  0
SPLINE
  5
12F
330
1F
100
AcDbEntity
  8
5 star - arm 2d
 62
     7
100
AcDbSpline
210
0.0
220
0.0
230
1.0
 70
    12
 71
     2
 72
     8
 73
     5
 74
     0
 42
0.0000000001
 43
0.0000000001
 40
0.0
 40
0.0
 40
0.0
 40
0.0245437074331718
 40
0.0245437074331718
 40
0.0490874148663445
 40
0.0490874148663445
 40
0.0490874148663445
 10
12.6748790602055
 20
2.560000000000001
 30
0.0
 41
1.0
 10
12.66193487769588
 20
2.560000000000003
 30
0.0
 41
0.9238794417264912
 10
12.65278196280915
 20
2.550847076427806
 30
0.0
 41
1.0
 10
12.64362904792242
 20
2.541694152855611
 30
0.0
 41
0.9238794417265509
 10
12.64362906020551
 20
2.528749970346001
 30
0.0
 41
1.0
  0
SPLINE
  5
130
330
1F
100
AcDbEntity
  8
5 star - arm 2d
 62
     7
100
AcDbSpline
210
0.0
220
0.0
230
1.0
 70
    24
 71
     2
 72
     6
 73
     3
 74
     0
 42
0.0000000001
 43
0.0000000001
 40
0.0
 40
0.0
 40
0.0
 40
2.492448632942286
 40
2.492448632942286
 40
2.492448632942286
 10
12.64362906020551
 20
2.528749970346001
 30
0.0
 10
12.64362906020551
 20
1.28126282693743
 30
0.0
 10
12.64362906020551
 20
0.0337756835288582
 30
0.0
  0
SPLINE
  5
131
330
1F
100
AcDbEntity
  8
5 star - arm 2d
 62
     7
100
AcDbSpline
210
0.0
220
0.0
230
1.0
 70
    12
 71
     2
 72
     8
 73
     5
 74
     0
 42
0.0000000001
 43
0.0000000001
 40
0.0
 40
0.0
 40
0.0
 40
0.0245437074331721
 40
0.0245437074331721
 40
0.0490874148663438
 40
0.0490874148663438
 40
0.0490874148663438
 10
12.64362906020551
 20
0.0337756835288582
 30
0.0
 41
1.0
 10
12.64362904792242
 20
0.0183058471443908
 30
0.0
 41
0.9238794417265652
 10
12.65278196280915
 20
0.0091529235721958
 30
0.0
 41
1.0
 10
12.66193487769588
 20
0.0
 30
0.0
 41
0.9238794417265086
 10
12.6748790602055
 20
0.0000000000000009
 30
0.0
 41
1.0
  0
SPLINE
  5
132
330
1F
100
AcDbEntity
  8
5 star - arm 2d
 62
     7
100
AcDbSpline
210
0.0
220
0.0
230
1.0
 70
    24
 71
     2
 72
     6
 73
     3
 74
     0
 42
0.0000000001
 43
0.0000000001
 40
-0.3437499999999991
 40
-0.3437499999999991
 40
-0.3437499999999991
 40
0.0
 40
0.0
 40
0.0
 10
12.6748790602055
 20
0.0000000000000009
 30
0.0
 10
12.8467540602055
 20
0.000000000000001
 30
0.0
 10
13.0186290602055
 20
0.0000000000000011
 30
0.0
  0
SPLINE
  5
133
330
1F
100
AcDbEntity
  8
5 star - arm 2d
 62
     7
100
AcDbSpline
210
0.0
220
0.0
230
1.0
 70
    12
 71
     2
 72
     6
 73
     3
 74
     0
 42
0.0000000001
 43
0.0000000001
 40
0.0
 40
0.0
 40
0.0
 40
0.1963495408493621
 40
0.1963495408493621
 40
0.1963495408493621
 10
13.0186290602055
 20
0.0000000000000011
 30
0.0
 41
1.0
 10
13.1436290602055
 20
0.0
 30
0.0
 41
0.7071067811865478
 10
13.1436290602055
 20
0.1250000000000011
 30
0.0
 41
1.0
  0
POLYLINE
  5
134
330
1F
100
AcDbEntity
  8
5 star - arm 2d
 62
     7
100
AcDb2dPolyline
 66
     1
 10
0.0
 20
0.0
 30
0.0
  0
VERTEX
  5
135
330
134
100
AcDbEntity
  8
5 star - arm 2d
 62
     7
100
AcDbVertex
100
AcDb2dVertex
 10
11.9092540602055
 20
0.8425000000000009
 30
0.0
  0
VERTEX
  5
136
330
134
100
AcDbEntity
  8
5 star - arm 2d
 62
     7
100
AcDbVertex
100
AcDb2dVertex
 10
12.6280040602055
 20
0.8425000000000009
 30
0.0
  0
VERTEX
  5
137
330
134
100
AcDbEntity
  8
5 star - arm 2d
 62
     7
100
AcDbVertex
100
AcDb2dVertex
 10
12.6280040602055
 20
2.560000000000001
 30
0.0
  0
VERTEX
  5
138
330
134
100
AcDbEntity
  8
5 star - arm 2d
 62
     7
100
AcDbVertex
100
AcDb2dVertex
 10
11.9092540602055
 20
2.560000000000001
 30
0.0
  0
VERTEX
  5
139
330
134
100
AcDbEntity
  8
5 star - arm 2d
 62
     7
100
AcDbVertex
100
AcDb2dVertex
 10
11.9092540602055
 20
0.8425000000000009
 30
0.0
  0
SEQEND
  5
13A
330
134
100
AcDbEntity
  8
5 star - arm 2d
 62
     7
  0
SPLINE
  5
13B
330
1F
100
AcDbEntity
  8
5 star - arm 2d
 62
     7
100
AcDbSpline
210
0.0
220
0.0
230
1.0
 70
    24
 71
     2
 72
     6
 73
     3
 74
     0
 42
0.0000000001
 43
0.0000000001
 40
0.0
 40
0.0
 40
0.0
 40
2.31
 40
2.31
 40
2.31
 10
11.3936290602055
 20
0.1250000000000011
 30
0.0
 10
11.3936290602055
 20
1.280000000000001
 30
0.0
 10
11.3936290602055
 20
2.435000000000001
 30
0.0
  0
SPLINE
  5
13C
330
1F
100
AcDbEntity
  8
5 star - arm 2d
 62
     7
100
AcDbSpline
210
0.0
220
0.0
230
1.0
 70
    12
 71
     2
 72
     6
 73
     3
 74
     0
 42
0.0000000001
 43
0.0000000001
 40
0.0
 40
0.0
 40
0.0
 40
0.1963495408493616
 40
0.1963495408493616
 40
0.1963495408493616
 10
11.3936290602055
 20
2.435000000000001
 30
0.0
 41
1.0
 10
11.3936290602055
 20
2.56
 30
0.0
 41
0.7071067811865519
 10
11.5186290602055
 20
2.56
 30
0.0
 41
1.0
  0
SPLINE
  5
13D
330
1F
100
AcDbEntity
  8
5 star - arm 2d
 62
     7
100
AcDbSpline
210
0.0
220
0.0
230
1.0
 70
    24
 71
     2
 72
     6
 73
     3
 74
     0
 42
0.0000000001
 43
0.0000000001
 40
-0.3437499999999991
 40
-0.3437499999999991
 40
-0.3437499999999991
 40
0.0
 40
0.0
 40
0.0
 10
11.5186290602055
 20
2.56
 30
0.0
 10
11.6905040602055
 20
2.560000000000001
 30
0.0
 10
11.8623790602055
 20
2.560000000000001
 30
0.0
  0
SPLINE
  5
13E
330
1F
100
AcDbEntity
  8
5 star - arm 2d
 62
     7
100
AcDbSpline
210
0.0
220
0.0
230
1.0
 70
    12
 71
     2
 72
     8
 73
     5
 74
     0
 42
0.0000000001
 43
0.0000000001
 40
0.0
 40
0.0
 40
0.0
 40
0.0245437074331718
 40
0.0245437074331718
 40
0.0490874148663445
 40
0.0490874148663445
 40
0.0490874148663445
 10
11.8623790602055
 20
2.560000000000001
 30
0.0
 41
1.0
 10
11.87532324271512
 20
2.560000000000003
 30
0.0
 41
0.9238794417264912
 10
11.88447615760185
 20
2.550847076427806
 30
0.0
 41
1.0
 10
11.89362907248859
 20
2.541694152855611
 30
0.0
 41
0.9238794417265509
 10
11.89362906020549
 20
2.528749970346001
 30
0.0
 41
1.0
  0
SPLINE
  5
13F
330
1F
100
AcDbEntity
  8
5 star - arm 2d
 62
     7
100
AcDbSpline
210
0.0
220
0.0
230
1.0
 70
    24
 71
     2
 72
     6
 73
     3
 74
     0
 42
0.0000000001
 43
0.0000000001
 40
0.0
 40
0.0
 40
0.0
 40
2.492448632942286
 40
2.492448632942286
 40
2.492448632942286
 10
11.89362906020549
 20
2.528749970346001
 30
0.0
 10
11.89362906020549
 20
1.28126282693743
 30
0.0
 10
11.89362906020549
 20
0.0337756835288582
 30
0.0
  0
SPLINE
  5
140
330
1F
100
AcDbEntity
  8
5 star - arm 2d
 62
     7
100
AcDbSpline
210
0.0
220
0.0
230
1.0
 70
    12
 71
     2
 72
     8
 73
     5
 74
     0
 42
0.0000000001
 43
0.0000000001
 40
0.0
 40
0.0
 40
0.0
 40
0.0245437074331721
 40
0.0245437074331721
 40
0.0490874148663438
 40
0.0490874148663438
 40
0.0490874148663438
 10
11.89362906020549
 20
0.0337756835288582
 30
0.0
 41
1.0
 10
11.89362907248858
 20
0.0183058471443908
 30
0.0
 41
0.9238794417265652
 10
11.88447615760185
 20
0.0091529235721958
 30
0.0
 41
1.0
 10
11.87532324271512
 20
0.0
 30
0.0
 41
0.9238794417265086
 10
11.8623790602055
 20
0.0000000000000009
 30
0.0
 41
1.0
  0
SPLINE
  5
141
330
1F
100
AcDbEntity
  8
5 star - arm 2d
 62
     7
100
AcDbSpline
210
0.0
220
0.0
230
1.0
 70
    24
 71
     2
 72
     6
 73
     3
 74
     0
 42
0.0000000001
 43
0.0000000001
 40
-0.3437499999999991
 40
-0.3437499999999991
 40
-0.3437499999999991
 40
0.0
 40
0.0
 40
0.0
 10
11.8623790602055
 20
0.0000000000000009
 30
0.0
 10
11.6905040602055
 20
0.000000000000001
 30
0.0
 10
11.5186290602055
 20
0.0000000000000011
 30
0.0
  0
SPLINE
  5
142
330
1F
100
AcDbEntity
  8
5 star - arm 2d
 62
     7
100
AcDbSpline
210
0.0
220
0.0
230
1.0
 70
    12
 71
     2
 72
     6
 73
     3
 74
     0
 42
0.0000000001
 43
0.0000000001
 40
0.0
 40
0.0
 40
0.0
 40
0.1963495408493621
 40
0.1963495408493621
 40
0.1963495408493621
 10
11.5186290602055
 20
0.0000000000000011
 30
0.0
 41
1.0
 10
11.3936290602055
 20
0.0
 30
0.0
 41
0.7071067811865478
 10
11.3936290602055
 20
0.1250000000000011
 30
0.0
 41
1.0
  0
SPLINE
  5
143
330
1F
100
AcDbEntity
  8
5 star - arm 2d
 62
     7
100
AcDbSpline
210
0.0
220
0.0
230
1.0
 70
    24
 71
     2
 72
     6
 73
     3
 74
     0
 42
0.0000000001
 43
0.0000000001
 40
0.0
 40
0.0
 40
0.0
 40
0.0819628544030055
 40
0.0819628544030055
 40
0.0819628544030055
 10
0.3437500000000631
 20
2.641962854402996
 30
0.0
 10
0.3437500000000631
 20
2.600981427201493
 30
0.0
 10
0.3437500000000631
 20
2.55999999999999
 30
0.0
  0
SPLINE
  5
144
330
1F
100
AcDbEntity
  8
5 star - arm 2d
 62
     7
100
AcDbSpline
210
0.0
220
0.0
230
1.0
 70
    24
 71
     2
 72
     6
 73
     3
 74
     0
 42
0.0000000001
 43
0.0000000001
 40
0.0
 40
0.0
 40
0.0
 40
0.0819628544030055
 40
0.0819628544030055
 40
0.0819628544030055
 10
-0.3437500000000577
 20
2.55999999999999
 30
0.0
 10
-0.3437500000000577
 20
2.600981427201493
 30
0.0
 10
-0.3437500000000577
 20
2.641962854402996
 30
0.0
  0
SPLINE
  5
145
330
1F
100
AcDbEntity
  8
5 star - arm 2d
 62
     7
100
AcDbSpline
210
0.0
220
0.0
230
1.0
 70
     8
 71
     3
 72
    11
 73
     7
 74
     0
 42
0.0000000001
 43
0.0000000001
 40
-0.0227663985737254
 40
-0.0227663985737254
 40
-0.0227663985737254
 40
-0.0227663985737254
 40
0.0
 40
0.5000863922600962
 40
0.5000863922600962
 40
1.0
 40
1.0
 40
1.0
 40
1.0
 10
12.669334540688
 20
4.082024772809717
 30
0.0
 10
12.48864601139351
 20
4.070618271341579
 30
0.0
 10
8.590567169160227
 20
5.993301383403359
 30
0.0
 10
6.534952004088657
 20
7.014883681485883
 30
0.0
 10
3.449683567373598
 20
8.542026197984807
 30
0.0
 10
2.334069080783038
 20
9.09182700546496
 30
0.0
 10
1.41943790234119
 20
9.524386560788034
 30
0.0
  0
SPLINE
  5
146
330
1F
100
AcDbEntity
  8
5 star - arm 2d
 62
     7
100
AcDbSpline
210
0.0
220
0.0
230
1.0
 70
     8
 71
     3
 72
    12
 73
     8
 74
     0
 42
0.0000000001
 43
0.0000000001
 40
1.0
 40
1.0
 40
1.0
 40
1.0
 40
2.0
 40
3.0
 40
4.0
 40
5.0
 40
6.0
 40
6.0
 40
6.0
 40
6.0
 10
1.41943790234119
 20
9.524386560788034
 30
0.0
 10
1.367301391420744
 20
9.552201802990847
 30
0.0
 10
1.260990687675529
 20
9.604006880283261
 30
0.0
 10
1.094709500003511
 20
9.666445299279573
 30
0.0
 10
0.9211941158361983
 20
9.704756355468733
 30
0.0
 10
0.7393674804862157
 20
9.691102831114906
 30
0.0
 10
0.6439217537898404
 20
9.605008923804657
 30
0.0
 10
0.6317207338636273
 20
9.54524533905047
 30
0.0
  0
SPLINE
  5
147
330
1F
100
AcDbEntity
  8
5 star - arm 2d
 62
     7
100
AcDbSpline
210
0.0
220
0.0
230
1.0
 70
    12
 71
     3
 72
    14
 73
    10
 74
     0
 42
0.0000000001
 43
0.0000000001
 40
0.0
 40
0.0
 40
0.0
 40
0.0
 40
4.708296515032774
 40
4.708296515032774
 40
4.708296515032774
 40
5.708296515032774
 40
5.708296515032774
 40
5.708296515032774
 40
7.285405322274421
 40
7.285405322274421
 40
7.285405322274421
 40
7.285405322274421
 10
0.6317207338636273
 20
9.54524533905047
 30
0.0
 41
1.0
 10
0.551228490869521
 20
7.905794238483141
 30
0.0
 41
0.9999995426182293
 10
0.4783533397450975
 20
6.338054566078696
 30
0.0
 41
0.9999995426182293
 10
0.4073146667084018
 20
4.770230604335735
 30
0.0
 41
1.0
 10
0.4008564130360064
 20
4.627696905073567
 30
0.0
 41
1.0
 10
0.3965884214344776
 20
4.378882805564188
 30
0.0
 41
1.0
 10
0.4010174673831912
 20
4.236347963292882
 30
0.0
 41
1.0
 10
0.4173449782554594
 20
3.710898642195255
 30
0.0
 41
1.0
 10
0.4336724891277275
 20
3.185449321097627
 30
0.0
 41
1.0
 10
0.4499999999999957
 20
2.660000000000001
 30
0.0
 41
1.0
  0
POLYLINE
  5
148
330
1F
100
AcDbEntity
  8
5 star - arm 2d
 62
     7
100
AcDb2dPolyline
 66
     1
 10
0.0
 20
0.0
 30
0.0
  0
VERTEX
  5
149
330
148
100
AcDbEntity
  8
5 star - arm 2d
 62
     7
100
AcDbVertex
100
AcDb2dVertex
 10
0.4499999999999957
 20
2.660000000000001
 30
0.0
  0
VERTEX
  5
14A
330
148
100
AcDbEntity
  8
5 star - arm 2d
 62
     7
100
AcDbVertex
100
AcDb2dVertex
 10
-0.4499999999999957
 20
2.660000000000001
 30
0.0
  0
SEQEND
  5
14B
330
148
100
AcDbEntity
  8
5 star - arm 2d
 62
     7
  0
SPLINE
  5
14C
330
1F
100
AcDbEntity
  8
5 star - arm 2d
 62
     7
100
AcDbSpline
210
0.0
220
0.0
230
1.0
 70
    12
 71
     3
 72
    14
 73
    10
 74
     0
 42
0.0000000001
 43
0.0000000001
 40
-7.285405322274421
 40
-7.285405322274421
 40
-7.285405322274421
 40
-7.285405322274421
 40
-5.708296515032774
 40
-5.708296515032774
 40
-5.708296515032774
 40
-4.708296515032774
 40
-4.708296515032774
 40
-4.708296515032774
 40
0.0
 40
0.0
 40
0.0
 40
0.0
 10
-0.4499999999999957
 20
2.660000000000001
 30
0.0
 41
1.0
 10
-0.4336724891277275
 20
3.185449321097627
 30
0.0
 41
1.0
 10
-0.4173449782554594
 20
3.710898642195255
 30
0.0
 41
1.0
 10
-0.4010174673831912
 20
4.236347963292882
 30
0.0
 41
1.0
 10
-0.3965884214344776
 20
4.378882805564188
 30
0.0
 41
1.0
 10
-0.4008564130360064
 20
4.627696905073567
 30
0.0
 41
1.0
 10
-0.4073146667084018
 20
4.770230604335735
 30
0.0
 41
1.0
 10
-0.4783533397450975
 20
6.338054566078696
 30
0.0
 41
0.9999995426182293
 10
-0.551228490869521
 20
7.905794238483141
 30
0.0
 41
0.9999995426182293
 10
-0.6317207338636273
 20
9.54524533905047
 30
0.0
 41
1.0
  0
SPLINE
  5
14D
330
1F
100
AcDbEntity
  8
5 star - arm 2d
 62
     7
100
AcDbSpline
210
0.0
220
0.0
230
1.0
 70
     8
 71
     3
 72
    12
 73
     8
 74
     0
 42
0.0000000001
 43
0.0000000001
 40
-6.0
 40
-6.0
 40
-6.0
 40
-6.0
 40
-5.0
 40
-4.0
 40
-3.0
 40
-2.0
 40
-1.0
 40
-1.0
 40
-1.0
 40
-1.0
 10
-0.6317207338636273
 20
9.54524533905047
 30
0.0
 10
-0.6439217537898404
 20
9.605008923804657
 30
0.0
 10
-0.7393674804862157
 20
9.691102831114906
 30
0.0
 10
-0.9211941158361983
 20
9.704756355468733
 30
0.0
 10
-1.094709500003511
 20
9.666445299279573
 30
0.0
 10
-1.260990687675529
 20
9.604006880283261
 30
0.0
 10
-1.367301391420744
 20
9.552201802990847
 30
0.0
 10
-1.41943790234119
 20
9.524386560788034
 30
0.0
  0
SPLINE
  5
14E
330
1F
100
AcDbEntity
  8
5 star - arm 2d
 62
     7
100
AcDbSpline
210
0.0
220
0.0
230
1.0
 70
     8
 71
     3
 72
    11
 73
     7
 74
     0
 42
0.0000000001
 43
0.0000000001
 40
-1.0
 40
-1.0
 40
-1.0
 40
-1.0
 40
-0.5000863922600962
 40
-0.5000863922600962
 40
0.0
 40
0.0227663985737254
 40
0.0227663985737254
 40
0.0227663985737254
 40
0.0227663985737254
 10
-1.41943790234119
 20
9.524386560788034
 30
0.0
 10
-2.334069080783038
 20
9.09182700546496
 30
0.0
 10
-3.449683567373598
 20
8.542026197984807
 30
0.0
 10
-6.534952004088657
 20
7.014883681485883
 30
0.0
 10
-8.590567169160227
 20
5.993301383403359
 30
0.0
 10
-12.48864601139351
 20
4.070618271341579
 30
0.0
 10
-12.669334540688
 20
4.082024772809717
 30
0.0
  0
SPLINE
  5
14F
330
1F
100
AcDbEntity
  8
5 star - arm 2d
 62
     7
100
AcDbSpline
210
0.0
220
0.0
230
1.0
 70
     8
 71
     3
 72
    10
 73
     6
 74
     0
 42
0.0000000001
 43
0.0000000001
 40
0.0
 40
0.0
 40
0.0
 40
0.0
 40
1.0
 40
2.0
 40
3.0
 40
3.0
 40
3.0
 40
3.0
 10
-0.5394249362035648
 20
7.645750761471225
 30
0.0
 10
-0.6856666967267334
 20
7.682283137681661
 30
0.0
 10
-0.988744687258691
 20
7.671406726769478
 30
0.0
 10
-1.423965262146095
 20
7.557189420706779
 30
0.0
 10
-1.706374638989255
 20
7.457613499194579
 30
0.0
 10
-1.846582304721547
 20
7.405165259965104
 30
0.0
  0
SPLINE
  5
150
330
1F
100
AcDbEntity
  8
5 star - arm 2d
 62
     7
100
AcDbSpline
210
0.0
220
0.0
230
1.0
 70
    12
 71
     2
 72
     6
 73
     3
 74
     0
 42
0.0000000001
 43
0.0000000001
 40
0.0
 40
0.0
 40
0.0
 40
9.778618425108075
 40
9.778618425108075
 40
9.778618425108075
 10
-1.846582304721547
 20
7.405165259965104
 30
0.0
 41
1.0
 10
-6.640738614590225
 20
5.476186611334741
 30
0.0
 41
0.9999999759726289
 10
-11.1745638964201
 20
3.645947923170293
 30
0.0
 41
1.0
  0
SPLINE
  5
151
330
1F
100
AcDbEntity
  8
5 star - arm 2d
 62
     7
100
AcDbSpline
210
0.0
220
0.0
230
1.0
 70
     8
 71
     3
 72
    11
 73
     7
 74
     0
 42
0.0000000001
 43
0.0000000001
 40
-1.237126295615228
 40
-1.237126295615228
 40
-1.237126295615228
 40
-1.237126295615228
 40
-0.6739521984522766
 40
-0.3536765832265739
 40
-0.1835100850311604
 40
0.0
 40
0.0
 40
0.0
 40
0.0
 10
-11.1745638964201
 20
3.645947923170293
 30
0.0
 10
-11.35042574661137
 20
3.577574237612902
 30
0.0
 10
-11.58292283466607
 20
3.376562126298547
 30
0.0
 10
-11.72734253959063
 20
3.052321508561273
 30
0.0
 10
-11.7892195062877
 20
2.83706233551386
 30
0.0
 10
-11.8099174002777
 20
2.720250205958004
 30
0.0
 10
-11.8190765116316
 20
2.660000000000237
 30
0.0
  0
POLYLINE
  5
152
330
1F
100
AcDbEntity
  8
5 star - arm 2d
 62
     7
100
AcDb2dPolyline
 66
     1
 10
0.0
 20
0.0
 30
0.0
  0
VERTEX
  5
153
330
152
100
AcDbEntity
  8
5 star - arm 2d
 62
     7
100
AcDbVertex
100
AcDb2dVertex
 10
-11.8190765116316
 20
2.660000000000237
 30
0.0
  0
VERTEX
  5
154
330
152
100
AcDbEntity
  8
5 star - arm 2d
 62
     7
100
AcDbVertex
100
AcDb2dVertex
 10
-12.71849989818274
 20
2.660020100939267
 30
0.0
  0
SEQEND
  5
155
330
152
100
AcDbEntity
  8
5 star - arm 2d
 62
     7
  0
SPLINE
  5
156
330
1F
100
AcDbEntity
  8
5 star - arm 2d
 62
     7
100
AcDbSpline
210
0.0
220
0.0
230
1.0
 70
    12
 71
     2
 72
     6
 73
     3
 74
     0
 42
0.0000000001
 43
0.0000000001
 40
-1.422854359340725
 40
-1.422854359340725
 40
-1.422854359340725
 40
0.0
 40
0.0
 40
0.0
 10
-12.71849989818274
 20
2.660020100939267
 30
0.0
 41
1.0
 10
-12.69383650897093
 20
3.371019646335965
 30
0.0
 41
0.9999999935570074
 10
-12.669334540688
 20
4.082024772809717
 30
0.0
 41
1.0
  0
SPLINE
  5
157
330
1F
100
AcDbEntity
  8
5 star - arm 2d
 62
     7
100
AcDbSpline
210
0.0
220
0.0
230
1.0
 70
     8
 71
     3
 72
     8
 73
     4
 74
     0
 42
0.0000000001
 43
0.0000000001
 40
-1.0
 40
-1.0
 40
-1.0
 40
-1.0
 40
0.0
 40
0.0
 40
0.0
 40
0.0
 10
-12.669334540688
 20
4.082024772809717
 30
0.0
 10
-12.66673166835248
 20
4.157555667011272
 30
0.0
 10
-12.53080387477361
 20
4.225619894273357
 30
0.0
 10
-12.404762584217
 20
4.288651883417316
 30
0.0
  0
POLYLINE
  5
158
330
1F
100
AcDbEntity
  8
5 star - arm 2d
 62
     7
100
AcDb2dPolyline
 66
     1
 10
0.0
 20
0.0
 30
0.0
  0
VERTEX
  5
159
330
158
100
AcDbEntity
  8
5 star - arm 2d
 62
     7
100
AcDbVertex
100
AcDb2dVertex
 10
-12.404762584217
 20
4.288651883417316
 30
0.0
  0
VERTEX
  5
15A
330
158
100
AcDbEntity
  8
5 star - arm 2d
 62
     7
100
AcDbVertex
100
AcDb2dVertex
 10
-1.428810411965161
 20
9.777615818257765
 30
0.0
  0
SEQEND
  5
15B
330
158
100
AcDbEntity
  8
5 star - arm 2d
 62
     7
  0
SPLINE
  5
15C
330
1F
100
AcDbEntity
  8
5 star - arm 2d
 62
     7
100
AcDbSpline
210
0.0
220
0.0
230
1.0
 70
    12
 71
     2
 72
     6
 73
     3
 74
     0
 42
0.0000000001
 43
0.0000000001
 40
-0.5143993363304881
 40
-0.5143993363304881
 40
-0.5143993363304881
 40
0.0
 40
0.0
 40
0.0
 10
-1.428810411965161
 20
9.777615818257765
 30
0.0
 41
1.0
 10
-1.174989238541619
 20
9.901760596580477
 30
0.0
 41
0.8706766192815005
 10
-1.15029618138231
 20
10.18336332373594
 30
0.0
 41
1.0
  0
SPLINE
  5
15D
330
1F
100
AcDbEntity
  8
5 star - arm 2d
 62
     7
100
AcDbSpline
210
0.0
220
0.0
230
1.0
 70
    24
 71
     2
 72
     6
 73
     3
 74
     0
 42
0.0000000001
 43
0.0000000001
 40
-0.2351326356577222
 40
-0.2351326356577222
 40
-0.2351326356577222
 40
0.0
 40
0.0
 40
0.0
 10
-1.15029618138231
 20
10.18336332373594
 30
0.0
 10
-1.140038040999818
 20
10.30061261273565
 30
0.0
 10
-1.129779900617326
 20
10.41786190173536
 30
0.0
  0
SPLINE
  5
15E
330
1F
100
AcDbEntity
  8
5 star - arm 2d
 62
     7
100
AcDbSpline
210
0.0
220
0.0
230
1.0
 70
    12
 71
     2
 72
     6
 73
     3
 74
     0
 42
0.0000000001
 43
0.0000000001
 40
-0.0804448054991407
 40
-0.0804448054991407
 40
-0.0804448054991407
 40
0.0
 40
0.0
 40
0.0
 10
-1.129779900617326
 20
10.41786190173536
 30
0.0
 41
1.0
 10
-1.125289877866597
 20
10.46532261967116
 30
0.0
 41
0.7843366948440615
 10
-1.078203018148649
 20
10.47186785798688
 30
0.0
 41
1.0
  0
POLYLINE
  5
15F
330
1F
100
AcDbEntity
  8
5 star - arm 2d
 62
     7
100
AcDb2dPolyline
 66
     1
 10
0.0
 20
0.0
 30
0.0
  0
VERTEX
  5
160
330
15F
100
AcDbEntity
  8
5 star - arm 2d
 62
     7
100
AcDbVertex
100
AcDb2dVertex
 10
-1.078203018148649
 20
10.47186785798688
 30
0.0
  0
VERTEX
  5
161
330
15F
100
AcDbEntity
  8
5 star - arm 2d
 62
     7
100
AcDbVertex
100
AcDb2dVertex
 10
1.078203018148649
 20
10.47186785798688
 30
0.0
  0
SEQEND
  5
162
330
15F
100
AcDbEntity
  8
5 star - arm 2d
 62
     7
  0
SPLINE
  5
163
330
1F
100
AcDbEntity
  8
5 star - arm 2d
 62
     7
100
AcDbSpline
210
0.0
220
0.0
230
1.0
 70
    12
 71
     2
 72
     6
 73
     3
 74
     0
 42
0.0000000001
 43
0.0000000001
 40
0.0
 40
0.0
 40
0.0
 40
0.0804448054991407
 40
0.0804448054991407
 40
0.0804448054991407
 10
1.078203018148649
 20
10.47186785798688
 30
0.0
 41
1.0
 10
1.125289877866597
 20
10.46532261967116
 30
0.0
 41
0.7843366948440615
 10
1.129779900617326
 20
10.41786190173536
 30
0.0
 41
1.0
  0
SPLINE
  5
164
330
1F
100
AcDbEntity
  8
5 star - arm 2d
 62
     7
100
AcDbSpline
210
0.0
220
0.0
230
1.0
 70
    24
 71
     2
 72
     6
 73
     3
 74
     0
 42
0.0000000001
 43
0.0000000001
 40
0.0
 40
0.0
 40
0.0
 40
0.2351326356577222
 40
0.2351326356577222
 40
0.2351326356577222
 10
1.129779900617326
 20
10.41786190173536
 30
0.0
 10
1.140038040999818
 20
10.30061261273565
 30
0.0
 10
1.15029618138231
 20
10.18336332373594
 30
0.0
  0
SPLINE
  5
165
330
1F
100
AcDbEntity
  8
5 star - arm 2d
 62
     7
100
AcDbSpline
210
0.0
220
0.0
230
1.0
 70
    12
 71
     2
 72
     6
 73
     3
 74
     0
 42
0.0000000001
 43
0.0000000001
 40
0.0
 40
0.0
 40
0.0
 40
0.5143993363304881
 40
0.5143993363304881
 40
0.5143993363304881
 10
1.15029618138231
 20
10.18336332373594
 30
0.0
 41
1.0
 10
1.174989238541619
 20
9.901760596580477
 30
0.0
 41
0.8706766192815005
 10
1.428810411965161
 20
9.777615818257765
 30
0.0
 41
1.0
  0
POLYLINE
  5
166
330
1F
100
AcDbEntity
  8
5 star - arm 2d
 62
     7
100
AcDb2dPolyline
 66
     1
 10
0.0
 20
0.0
 30
0.0
  0
VERTEX
  5
167
330
166
100
AcDbEntity
  8
5 star - arm 2d
 62
     7
100
AcDbVertex
100
AcDb2dVertex
 10
1.428810411965161
 20
9.777615818257765
 30
0.0
  0
VERTEX
  5
168
330
166
100
AcDbEntity
  8
5 star - arm 2d
 62
     7
100
AcDbVertex
100
AcDb2dVertex
 10
12.404762584217
 20
4.288651883417316
 30
0.0
  0
SEQEND
  5
169
330
166
100
AcDbEntity
  8
5 star - arm 2d
 62
     7
  0
SPLINE
  5
16A
330
1F
100
AcDbEntity
  8
5 star - arm 2d
 62
     7
100
AcDbSpline
210
0.0
220
0.0
230
1.0
 70
     8
 71
     3
 72
     8
 73
     4
 74
     0
 42
0.0000000001
 43
0.0000000001
 40
0.0
 40
0.0
 40
0.0
 40
0.0
 40
1.0
 40
1.0
 40
1.0
 40
1.0
 10
12.404762584217
 20
4.288651883417316
 30
0.0
 10
12.53080387477361
 20
4.225619894273357
 30
0.0
 10
12.66673166835248
 20
4.157555667011272
 30
0.0
 10
12.669334540688
 20
4.082024772809717
 30
0.0
  0
SPLINE
  5
16B
330
1F
100
AcDbEntity
  8
5 star - arm 2d
 62
     7
100
AcDbSpline
210
0.0
220
0.0
230
1.0
 70
    12
 71
     2
 72
     6
 73
     3
 74
     0
 42
0.0000000001
 43
0.0000000001
 40
0.0
 40
0.0
 40
0.0
 40
1.422854359340725
 40
1.422854359340725
 40
1.422854359340725
 10
12.669334540688
 20
4.082024772809717
 30
0.0
 41
1.0
 10
12.69383650897093
 20
3.371019646335965
 30
0.0
 41
0.9999999935570074
 10
12.71849989818274
 20
2.660020100939267
 30
0.0
 41
1.0
  0
POLYLINE
  5
16C
330
1F
100
AcDbEntity
  8
5 star - arm 2d
 62
     7
100
AcDb2dPolyline
 66
     1
 10
0.0
 20
0.0
 30
0.0
  0
VERTEX
  5
16D
330
16C
100
AcDbEntity
  8
5 star - arm 2d
 62
     7
100
AcDbVertex
100
AcDb2dVertex
 10
12.71849989818274
 20
2.660020100939267
 30
0.0
  0
VERTEX
  5
16E
330
16C
100
AcDbEntity
  8
5 star - arm 2d
 62
     7
100
AcDbVertex
100
AcDb2dVertex
 10
11.8190765116316
 20
2.660000000000237
 30
0.0
  0
SEQEND
  5
16F
330
16C
100
AcDbEntity
  8
5 star - arm 2d
 62
     7
  0
SPLINE
  5
170
330
1F
100
AcDbEntity
  8
5 star - arm 2d
 62
     7
100
AcDbSpline
210
0.0
220
0.0
230
1.0
 70
     8
 71
     3
 72
    11
 73
     7
 74
     0
 42
0.0000000001
 43
0.0000000001
 40
0.0
 40
0.0
 40
0.0
 40
0.0
 40
0.1835100850311604
 40
0.3536765832265739
 40
0.6739521984522766
 40
1.237126295615228
 40
1.237126295615228
 40
1.237126295615228
 40
1.237126295615228
 10
11.8190765116316
 20
2.660000000000237
 30
0.0
 10
11.8099174002777
 20
2.720250205958004
 30
0.0
 10
11.7892195062877
 20
2.83706233551386
 30
0.0
 10
11.72734253959063
 20
3.052321508561273
 30
0.0
 10
11.58292283466607
 20
3.376562126298547
 30
0.0
 10
11.35042574661137
 20
3.577574237612902
 30
0.0
 10
11.1745638964201
 20
3.645947923170293
 30
0.0
  0
SPLINE
  5
171
330
1F
100
AcDbEntity
  8
5 star - arm 2d
 62
     7
100
AcDbSpline
210
0.0
220
0.0
230
1.0
 70
    12
 71
     2
 72
     6
 73
     3
 74
     0
 42
0.0000000001
 43
0.0000000001
 40
-9.778618425108075
 40
-9.778618425108075
 40
-9.778618425108075
 40
0.0
 40
0.0
 40
0.0
 10
11.1745638964201
 20
3.645947923170293
 30
0.0
 41
1.0
 10
6.640738614590225
 20
5.476186611334741
 30
0.0
 41
0.9999999759726289
 10
1.846582304721547
 20
7.405165259965104
 30
0.0
 41
1.0
  0
SPLINE
  5
172
330
1F
100
AcDbEntity
  8
5 star - arm 2d
 62
     7
100
AcDbSpline
210
0.0
220
0.0
230
1.0
 70
     8
 71
     3
 72
    10
 73
     6
 74
     0
 42
0.0000000001
 43
0.0000000001
 40
-3.0
 40
-3.0
 40
-3.0
 40
-3.0
 40
-2.0
 40
-1.0
 40
0.0
 40
0.0
 40
0.0
 40
0.0
 10
1.846582304721547
 20
7.405165259965104
 30
0.0
 10
1.706374638989255
 20
7.457613499194579
 30
0.0
 10
1.423965262146095
 20
7.557189420706779
 30
0.0
 10
0.988744687258691
 20
7.671406726769478
 30
0.0
 10
0.6856666967267334
 20
7.682283137681661
 30
0.0
 10
0.5394249362035648
 20
7.645750761471225
 30
0.0
  0
SPLINE
  5
173
330
1F
100
AcDbEntity
  8
5 star - arm 2d
 62
     7
100
AcDbSpline
210
0.0
220
0.0
230
1.0
 70
    24
 71
     2
 72
     6
 73
     3
 74
     0
 42
0.0000000001
 43
0.0000000001
 40
0.0
 40
0.0
 40
0.0
 40
0.1769999999999996
 40
0.1769999999999996
 40
0.1769999999999996
 10
-1.082674999999995
 20
10.4725
 30
0.0
 10
-1.082674999999995
 20
10.561
 30
0.0
 10
-1.082674999999995
 20
10.6495
 30
0.0
  0
POLYLINE
  5
174
330
1F
100
AcDbEntity
  8
5 star - arm 2d
 62
     7
100
AcDb2dPolyline
 66
     1
 10
0.0
 20
0.0
 30
0.0
  0
VERTEX
  5
175
330
174
100
AcDbEntity
  8
5 star - arm 2d
 62
     7
100
AcDbVertex
100
AcDb2dVertex
 10
-1.082674999999995
 20
10.6495
 30
0.0
  0
VERTEX
  5
176
330
174
100
AcDbEntity
  8
5 star - arm 2d
 62
     7
100
AcDbVertex
100
AcDb2dVertex
 10
1.082675000000005
 20
10.6495
 30
0.0
  0
SEQEND
  5
177
330
174
100
AcDbEntity
  8
5 star - arm 2d
 62
     7
  0
SPLINE
  5
178
330
1F
100
AcDbEntity
  8
5 star - arm 2d
 62
     7
100
AcDbSpline
210
0.0
220
0.0
230
1.0
 70
    24
 71
     2
 72
     6
 73
     3
 74
     0
 42
0.0000000001
 43
0.0000000001
 40
0.0
 40
0.0
 40
0.0
 40
0.1769999999999996
 40
0.1769999999999996
 40
0.1769999999999996
 10
1.082675000000005
 20
10.6495
 30
0.0
 10
1.082675000000005
 20
10.561
 30
0.0
 10
1.082675000000005
 20
10.4725
 30
0.0
  0
SPLINE
  5
179
330
1F
100
AcDbEntity
  8
5 star - arm 2d
 62
     7
100
AcDbSpline
210
0.0
220
0.0
230
1.0
 70
    24
 71
     2
 72
     6
 73
     3
 74
     0
 42
0.0000000001
 43
0.0000000001
 40
0.0
 40
0.0
 40
0.0
 40
5.118111959919872
 40
5.118111959919872
 40
5.118111959919872
 10
-0.7874000000000052
 20
7.672385762575781
 30
0.0
 10
-0.7874000000000052
 20
5.113329782615844
 30
0.0
 10
-0.7874000000000052
 20
2.554273802655908
 30
0.0
  0
POLYLINE
  5
17A
330
1F
100
AcDbEntity
  8
5 star - arm 2d
 62
     7
100
AcDb2dPolyline
 66
     1
 10
0.0
 20
0.0
 30
0.0
  0
VERTEX
  5
17B
330
17A
100
AcDbEntity
  8
5 star - arm 2d
 62
     7
100
AcDbVertex
100
AcDb2dVertex
 10
6.283471123658785
 20
5.619794208225358
 30
0.0
  0
VERTEX
  5
17C
330
17A
100
AcDbEntity
  8
5 star - arm 2d
 62
     7
100
AcDbVertex
100
AcDb2dVertex
 10
7.900472332307988
 20
4.280587207048232
 30
0.0
  0
SEQEND
  5
17D
330
17A
100
AcDbEntity
  8
5 star - arm 2d
 62
     7
  0
SPLINE
  5
17E
330
1F
100
AcDbEntity
  8
5 star - arm 2d
 62
     7
100
AcDbSpline
210
0.0
220
0.0
230
1.0
 70
     8
 71
     3
 72
     8
 73
     4
 74
     0
 42
0.0000000001
 43
0.0000000001
 40
0.0
 40
0.0
 40
0.0
 40
0.0
 40
1.0
 40
1.0
 40
1.0
 40
1.0
 10
7.900472332307988
 20
4.280587207048232
 30
0.0
 10
7.941830880601102
 20
4.246333888537154
 30
0.0
 10
7.981250136803257
 20
4.195449843763782
 30
0.0
 10
7.982882927762205
 20
4.145850840474651
 30
0.0
  0
SPLINE
  5
17F
330
1F
100
AcDbEntity
  8
5 star - arm 2d
 62
     7
100
AcDbSpline
210
0.0
220
0.0
230
1.0
 70
    12
 71
     2
 72
     6
 73
     3
 74
     0
 42
0.0000000001
 43
0.0000000001
 40
0.0
 40
0.0
 40
0.0
 40
1.486490662363551
 40
1.486490662363551
 40
1.486490662363551
 10
7.982882927762205
 20
4.145850840474651
 30
0.0
 41
1.0
 10
8.007337194625807
 20
3.403007884397551
 30
0.0
 41
0.9999999372240983
 10
8.032317882704355
 20
2.660182444752197
 30
0.0
 41
1.0
  0
POLYLINE
  5
180
330
1F
100
AcDbEntity
  8
5 star - arm 2d
 62
     7
100
AcDb2dPolyline
 66
     1
 10
0.0
 20
0.0
 30
0.0
  0
VERTEX
  5
181
330
180
100
AcDbEntity
  8
5 star - arm 2d
 62
     7
100
AcDbVertex
100
AcDb2dVertex
 10
8.032317882704355
 20
2.660182444752197
 30
0.0
  0
VERTEX
  5
182
330
180
100
AcDbEntity
  8
5 star - arm 2d
 62
     7
100
AcDbVertex
100
AcDb2dVertex
 10
7.206941629606618
 20
2.660091222376047
 30
0.0
  0
SEQEND
  5
183
330
180
100
AcDbEntity
  8
5 star - arm 2d
 62
     7
  0
SPLINE
  5
184
330
1F
100
AcDbEntity
  8
5 star - arm 2d
 62
     7
100
AcDbSpline
210
0.0
220
0.0
230
1.0
 70
     8
 71
     3
 72
    11
 73
     7
 74
     0
 42
0.0000000001
 43
0.0000000001
 40
0.0
 40
0.0
 40
0.0
 40
0.0
 40
0.1814498249441664
 40
0.3476272405609105
 40
0.64864645319008
 40
1.096741901308591
 40
1.096741901308591
 40
1.096741901308591
 40
1.096741901308591
 10
7.206941629606618
 20
2.660091222376047
 30
0.0
 10
7.201293114428714
 20
2.720534083876652
 30
0.0
 10
7.188645437624943
 20
2.835068671095413
 30
0.0
 10
7.151043585641219
 20
3.049233111696905
 30
0.0
 10
7.07084391448187
 20
3.342234920487725
 30
0.0
 10
6.935236368483093
 20
3.562489421161987
 30
0.0
 10
6.808610927183533
 20
3.645947923198254
 30
0.0
  0
SPLINE
  5
185
330
1F
100
AcDbEntity
  8
5 star - arm 2d
 62
     7
100
AcDbSpline
210
0.0
220
0.0
230
1.0
 70
    12
 71
     2
 72
     6
 73
     3
 74
     0
 42
0.0000000001
 43
0.0000000001
 40
-6.692997899576671
 40
-6.692997899576671
 40
-6.692997899576671
 40
0.0
 40
0.0
 40
0.0
 10
6.808610927183533
 20
3.645947923198254
 30
0.0
 41
1.0
 10
4.006833986816259
 20
5.476003064931003
 30
0.0
 41
0.9999999581824843
 10
1.203999021443925
 20
7.304437368439123
 30
0.0
 41
1.0
  0
SPLINE
  5
186
330
1F
100
AcDbEntity
  8
5 star - arm 2d
 62
     7
100
AcDbSpline
210
0.0
220
0.0
230
1.0
 70
     8
 71
     3
 72
     8
 73
     4
 74
     0
 42
0.0000000001
 43
0.0000000001
 40
-1.0
 40
-1.0
 40
-1.0
 40
-1.0
 40
0.0
 40
0.0
 40
0.0
 40
0.0
 10
1.203999021443925
 20
7.304437368439123
 30
0.0
 10
1.073274773418667
 20
7.389077854070121
 30
0.0
 10
0.9321442579829953
 20
7.456623245532784
 30
0.0
 10
0.7873999999780334
 20
7.513535821404582
 30
0.0
  0
SPLINE
  5
187
330
1F
100
AcDbEntity
  8
5 star - arm 2d
 62
     7
100
AcDbSpline
210
0.0
220
0.0
230
1.0
 70
    12
 71
     3
 72
     9
 73
     5
 74
     0
 42
0.0000000001
 43
0.0000000001
 40
-0.615690415669101
 40
-0.615690415669101
 40
-0.615690415669101
 40
-0.615690415669101
 40
-0.499999982829117
 40
0.0
 40
0.0
 40
0.0
 40
0.0
 10
1.175790711580971
 20
7.620298125990329
 30
0.0
 41
1.0
 10
1.175111151753802
 20
7.610666917705123
 30
0.0
 41
1.0
 10
1.181904525208889
 20
7.553726881039982
 30
0.0
 41
1.0
 10
1.23554478068345
 20
7.462605741707486
 30
0.0
 41
1.0
 10
1.323065457136464
 20
7.405165259965018
 30
0.0
 41
1.0
  0
SPLINE
  5
188
330
1F
100
AcDbEntity
  8
5 star - arm 2d
 62
     7
100
AcDbSpline
210
0.0
220
0.0
230
1.0
 70
    12
 71
     2
 72
     6
 73
     3
 74
     0
 42
0.0000000001
 43
0.0000000001
 40
0.0
 40
0.0
 40
0.0
 40
6.692997897124932
 40
6.692997897124932
 40
6.692997897124932
 10
1.323065457136464
 20
7.405165259965018
 30
0.0
 41
1.0
 10
4.262483358513094
 20
5.476003064924657
 30
0.0
 41
0.9999999581824843
 10
7.064260297413307
 20
3.645947923186589
 30
0.0
 41
1.0
  0
SPLINE
  5
189
330
1F
100
AcDbEntity
  8
5 star - arm 2d
 62
     7
100
AcDbSpline
210
0.0
220
0.0
230
1.0
 70
     8
 71
     3
 72
    11
 73
     7
 74
     0
 42
0.0000000001
 43
0.0000000001
 40
-1.096741901292832
 40
-1.096741901292832
 40
-1.096741901292832
 40
-1.096741901292832
 40
-0.6486834231616089
 40
-0.3476890460350227
 40
-0.1815253408372604
 40
0.0
 40
0.0
 40
0.0
 40
0.0
 10
7.064260297413307
 20
3.645947923186589
 30
0.0
 10
7.190885738711227
 20
3.562489421153828
 30
0.0
 10
7.326493284704814
 20
3.342234920480313
 30
0.0
 10
7.406692955860382
 20
3.049233111693944
 30
0.0
 10
7.444300053741998
 20
2.835038792630647
 30
0.0
 10
7.456949068984375
 20
2.720474452934373
 30
0.0
 10
7.46259099981998
 20
2.660000000000305
 30
0.0
  0
POLYLINE
  5
18A
330
1F
100
AcDbEntity
  8
5 star - arm 2d
 62
     7
100
AcDb2dPolyline
 66
     1
 10
0.0
 20
0.0
 30
0.0
  0
VERTEX
  5
18B
330
18A
100
AcDbEntity
  8
5 star - arm 2d
 62
     7
100
AcDbVertex
100
AcDb2dVertex
 10
-6.283471123658785
 20
5.619794208225358
 30
0.0
  0
VERTEX
  5
18C
330
18A
100
AcDbEntity
  8
5 star - arm 2d
 62
     7
100
AcDbVertex
100
AcDb2dVertex
 10
-7.900472332307988
 20
4.280587207048232
 30
0.0
  0
SEQEND
  5
18D
330
18A
100
AcDbEntity
  8
5 star - arm 2d
 62
     7
  0
SPLINE
  5
18E
330
1F
100
AcDbEntity
  8
5 star - arm 2d
 62
     7
100
AcDbSpline
210
0.0
220
0.0
230
1.0
 70
     8
 71
     3
 72
     8
 73
     4
 74
     0
 42
0.0000000001
 43
0.0000000001
 40
0.0
 40
0.0
 40
0.0
 40
0.0
 40
1.0
 40
1.0
 40
1.0
 40
1.0
 10
-7.900472332307988
 20
4.280587207048232
 30
0.0
 10
-7.941830880601102
 20
4.246333888537154
 30
0.0
 10
-7.981250136803257
 20
4.195449843763782
 30
0.0
 10
-7.982882927762205
 20
4.145850840474651
 30
0.0
  0
SPLINE
  5
18F
330
1F
100
AcDbEntity
  8
5 star - arm 2d
 62
     7
100
AcDbSpline
210
0.0
220
0.0
230
1.0
 70
    12
 71
     2
 72
     6
 73
     3
 74
     0
 42
0.0000000001
 43
0.0000000001
 40
0.0
 40
0.0
 40
0.0
 40
1.486490662363551
 40
1.486490662363551
 40
1.486490662363551
 10
-7.982882927762205
 20
4.145850840474651
 30
0.0
 41
1.0
 10
-8.007337194625807
 20
3.403007884397551
 30
0.0
 41
0.9999999372240983
 10
-8.032317882704355
 20
2.660182444752197
 30
0.0
 41
1.0
  0
POLYLINE
  5
190
330
1F
100
AcDbEntity
  8
5 star - arm 2d
 62
     7
100
AcDb2dPolyline
 66
     1
 10
0.0
 20
0.0
 30
0.0
  0
VERTEX
  5
191
330
190
100
AcDbEntity
  8
5 star - arm 2d
 62
     7
100
AcDbVertex
100
AcDb2dVertex
 10
-8.032317882704355
 20
2.660182444752197
 30
0.0
  0
VERTEX
  5
192
330
190
100
AcDbEntity
  8
5 star - arm 2d
 62
     7
100
AcDbVertex
100
AcDb2dVertex
 10
-7.206941629606618
 20
2.660091222376047
 30
0.0
  0
SEQEND
  5
193
330
190
100
AcDbEntity
  8
5 star - arm 2d
 62
     7
  0
SPLINE
  5
194
330
1F
100
AcDbEntity
  8
5 star - arm 2d
 62
     7
100
AcDbSpline
210
0.0
220
0.0
230
1.0
 70
     8
 71
     3
 72
    11
 73
     7
 74
     0
 42
0.0000000001
 43
0.0000000001
 40
0.0
 40
0.0
 40
0.0
 40
0.0
 40
0.1814498249441664
 40
0.3476272405609105
 40
0.64864645319008
 40
1.096741901308591
 40
1.096741901308591
 40
1.096741901308591
 40
1.096741901308591
 10
-7.206941629606618
 20
2.660091222376047
 30
0.0
 10
-7.201293114428714
 20
2.720534083876652
 30
0.0
 10
-7.188645437624943
 20
2.835068671095413
 30
0.0
 10
-7.151043585641219
 20
3.049233111696905
 30
0.0
 10
-7.07084391448187
 20
3.342234920487725
 30
0.0
 10
-6.935236368483093
 20
3.562489421161987
 30
0.0
 10
-6.808610927183533
 20
3.645947923198254
 30
0.0
  0
SPLINE
  5
195
330
1F
100
AcDbEntity
  8
5 star - arm 2d
 62
     7
100
AcDbSpline
210
0.0
220
0.0
230
1.0
 70
    12
 71
     2
 72
     6
 73
     3
 74
     0
 42
0.0000000001
 43
0.0000000001
 40
-6.692997899576671
 40
-6.692997899576671
 40
-6.692997899576671
 40
0.0
 40
0.0
 40
0.0
 10
-6.808610927183533
 20
3.645947923198254
 30
0.0
 41
1.0
 10
-4.006833986816259
 20
5.476003064931003
 30
0.0
 41
0.9999999581824843
 10
-1.203999021443925
 20
7.304437368439123
 30
0.0
 41
1.0
  0
SPLINE
  5
196
330
1F
100
AcDbEntity
  8
5 star - arm 2d
 62
     7
100
AcDbSpline
210
0.0
220
0.0
230
1.0
 70
     8
 71
     3
 72
     8
 73
     4
 74
     0
 42
0.0000000001
 43
0.0000000001
 40
-1.0
 40
-1.0
 40
-1.0
 40
-1.0
 40
0.0
 40
0.0
 40
0.0
 40
0.0
 10
-1.203999021443925
 20
7.304437368439123
 30
0.0
 10
-1.073274773418667
 20
7.389077854070121
 30
0.0
 10
-0.9321442579829953
 20
7.456623245532784
 30
0.0
 10
-0.7873999999780334
 20
7.513535821404582
 30
0.0
  0
SPLINE
  5
197
330
1F
100
AcDbEntity
  8
5 star - arm 2d
 62
     7
100
AcDbSpline
210
0.0
220
0.0
230
1.0
 70
    12
 71
     3
 72
     9
 73
     5
 74
     0
 42
0.0000000001
 43
0.0000000001
 40
-0.615690415669101
 40
-0.615690415669101
 40
-0.615690415669101
 40
-0.615690415669101
 40
-0.499999982829117
 40
0.0
 40
0.0
 40
0.0
 40
0.0
 10
-1.175790711580971
 20
7.620298125990329
 30
0.0
 41
1.0
 10
-1.175111151753802
 20
7.610666917705123
 30
0.0
 41
1.0
 10
-1.181904525208889
 20
7.553726881039982
 30
0.0
 41
1.0
 10
-1.23554478068345
 20
7.462605741707486
 30
0.0
 41
1.0
 10
-1.323065457136464
 20
7.405165259965018
 30
0.0
 41
1.0
  0
SPLINE
  5
198
330
1F
100
AcDbEntity
  8
5 star - arm 2d
 62
     7
100
AcDbSpline
210
0.0
220
0.0
230
1.0
 70
    12
 71
     2
 72
     6
 73
     3
 74
     0
 42
0.0000000001
 43
0.0000000001
 40
0.0
 40
0.0
 40
0.0
 40
6.692997897124932
 40
6.692997897124932
 40
6.692997897124932
 10
-1.323065457136464
 20
7.405165259965018
 30
0.0
 41
1.0
 10
-4.262483358513094
 20
5.476003064924657
 30
0.0
 41
0.9999999581824843
 10
-7.064260297413307
 20
3.645947923186589
 30
0.0
 41
1.0
  0
SPLINE
  5
199
330
1F
100
AcDbEntity
  8
5 star - arm 2d
 62
     7
100
AcDbSpline
210
0.0
220
0.0
230
1.0
 70
     8
 71
     3
 72
    11
 73
     7
 74
     0
 42
0.0000000001
 43
0.0000000001
 40
-1.096741901292832
 40
-1.096741901292832
 40
-1.096741901292832
 40
-1.096741901292832
 40
-0.6486834231616089
 40
-0.3476890460350227
 40
-0.1815253408372604
 40
0.0
 40
0.0
 40
0.0
 40
0.0
 10
-7.064260297413307
 20
3.645947923186589
 30
0.0
 10
-7.190885738711227
 20
3.562489421153828
 30
0.0
 10
-7.326493284704814
 20
3.342234920480313
 30
0.0
 10
-7.406692955860382
 20
3.049233111693944
 30
0.0
 10
-7.444300053741998
 20
2.835038792630647
 30
0.0
 10
-7.456949068984375
 20
2.720474452934373
 30
0.0
 10
-7.46259099981998
 20
2.660000000000305
 30
0.0
  0
SPLINE
  5
19A
330
1F
100
AcDbEntity
  8
5 star - arm 2d
 62
     7
100
AcDbSpline
210
0.0
220
0.0
230
1.0
 70
     8
 71
     3
 72
    12
 73
     8
 74
     0
 42
0.0000000001
 43
0.0000000001
 40
0.0
 40
0.0
 40
0.0
 40
0.0
 40
1.0
 40
2.0
 40
3.0
 40
4.0
 40
5.0
 40
5.0
 40
5.0
 40
5.0
 10
0.4010174673831912
 20
4.236347963292883
 30
0.0
 10
0.3888354087001908
 20
4.172283123968813
 30
0.0
 10
0.2704788970756829
 20
4.111629415167748
 30
0.0
 10
0.0929127082460317
 20
4.077928343666329
 30
0.0
 10
-0.0929507977680629
 20
4.077928337967565
 30
0.0
 10
-0.2705170178230783
 20
4.11162942560388
 30
0.0
 10
-0.3888734951972935
 20
4.172283103746749
 30
0.0
 10
-0.4010555741368549
 20
4.236347963292883
 30
0.0
  0
LINE
  5
19B
330
1F
100
AcDbEntity
  8
5 star - arm 2d
 62
     7
100
AcDbLine
 10
-7.941804899147232
 20
73.7795062156956
 30
0.0
 11
-7.941804899147231
 21
75.22749175184143
 31
0.0
  0
SPLINE
  5
19C
330
1F
100
AcDbEntity
  8
5 star - arm 2d
 62
     7
100
AcDbSpline
210
0.0
220
0.0
230
1.0
 70
    24
 71
     2
 72
     6
 73
     3
 74
     0
 42
0.0000000001
 43
0.0000000001
 40
0.0
 40
0.0
 40
0.0
 40
0.71875
 40
0.71875
 40
0.71875
 10
-7.941804899147231
 20
75.22749175184143
 30
0.0
 10
-7.582429899147231
 20
75.22749175184143
 30
0.0
 10
-7.223054899147231
 20
75.22749175184143
 30
0.0
  0
SPLINE
  5
19D
330
1F
100
AcDbEntity
  8
5 star - arm 2d
 62
     7
100
AcDbSpline
210
0.0
220
0.0
230
1.0
 70
    24
 71
     2
 72
     6
 73
     3
 74
     0
 42
0.0000000001
 43
0.0000000001
 40
0.0
 40
0.0
 40
0.0
 40
1.137396814741948
 40
1.137396814741948
 40
1.137396814741948
 10
-7.223054899147231
 20
75.22749175184143
 30
0.0
 10
-7.223054899147231
 20
74.65879334447045
 30
0.0
 10
-7.223054899147231
 20
74.09009493709948
 30
0.0
  0
LINE
  5
19E
330
1F
100
AcDbEntity
  8
5 star - arm 2d
 62
     7
100
AcDbLine
 10
-8.457429899148261
 20
73.50047777285386
 30
0.0
 11
-8.457429899144579
 21
75.10015628749585
 31
0.0
  0
ARC
  5
19F
330
1F
100
AcDbEntity
  8
5 star - arm 2d
 62
     7
100
AcDbCircle
 10
-8.331190770886618
 20
75.10125393306167
 30
0.0
 40
0.1262439001659804
100
AcDbArc
 50
90.56238724841576
 51
180.4981725901478
  0
SPLINE
  5
1A0
330
1F
100
AcDbEntity
  8
5 star - arm 2d
 62
     7
100
AcDbSpline
210
0.0
220
0.0
230
1.0
 70
    24
 71
     2
 72
     6
 73
     3
 74
     0
 42
0.0000000001
 43
0.0000000001
 40
0.0
 40
0.0
 40
0.0
 40
0.34375
 40
0.34375
 40
0.34375
 10
-8.332429899147233
 20
75.22749175184143
 30
0.0
 10
-8.160554899147233
 20
75.22749175184143
 30
0.0
 10
-7.988679899147232
 20
75.22749175184143
 30
0.0
  0
ARC
  5
1A1
330
1F
100
AcDbEntity
  8
5 star - arm 2d
 62
     7
100
AcDbCircle
 10
-7.990125871581913
 20
75.19480947406166
 30
0.0
 40
0.0327142494512088
100
AcDbArc
 50
358.0846770001484
 51
87.46669665574143
  0
LINE
  5
1A2
330
1F
100
AcDbEntity
  8
5 star - arm 2d
 62
     7
100
AcDbLine
 10
-7.957429899147243
 20
75.19371608314006
 30
0.0
 11
-7.957429899147241
 21
73.77185269925799
 31
0.0
  0
LINE
  5
1A3
330
1F
100
AcDbEntity
  8
5 star - arm 2d
 62
     7
100
AcDbLine
 10
-6.707429899147982
 20
74.27448244731463
 30
0.0
 11
-6.707429899149883
 21
75.10015628749585
 31
0.0
  0
ARC
  5
1A4
330
1F
100
AcDbEntity
  8
5 star - arm 2d
 62
     7
100
AcDbCircle
 10
-6.833669027407844
 20
75.10125393306167
 30
0.0
 40
0.1262439001659804
100
AcDbArc
 50
359.5018274098522
 51
89.43761275158425
  0
SPLINE
  5
1A5
330
1F
100
AcDbEntity
  8
5 star - arm 2d
 62
     7
100
AcDbSpline
210
0.0
220
0.0
230
1.0
 70
    24
 71
     2
 72
     6
 73
     3
 74
     0
 42
0.0000000001
 43
0.0000000001
 40
0.0
 40
0.0
 40
0.0
 40
0.34375
 40
0.34375
 40
0.34375
 10
-6.832429899147229
 20
75.22749175184143
 30
0.0
 10
-7.004304899147229
 20
75.22749175184143
 30
0.0
 10
-7.17617989914723
 20
75.22749175184143
 30
0.0
  0
ARC
  5
1A6
330
1F
100
AcDbEntity
  8
5 star - arm 2d
 62
     7
100
AcDbCircle
 10
-7.174733926712548
 20
75.19480947406166
 30
0.0
 40
0.0327142494512088
100
AcDbArc
 50
92.53330334425857
 51
181.9153229998516
  0
LINE
  5
1A7
330
1F
100
AcDbEntity
  8
5 star - arm 2d
 62
     7
100
AcDbLine
 10
-7.207429899147218
 20
75.19371608314006
 30
0.0
 11
-7.20742989914722
 21
74.0961567540372
 31
0.0
  0
SPLINE
  5
1A8
330
1F
100
AcDbEntity
  8
5 star - arm 2d
 62
     7
100
AcDbSpline
210
0.0
220
0.0
230
1.0
 70
     8
 71
     3
 72
    44
 73
    40
 74
     0
 42
0.0000000001
 43
0.0000000001
 40
0.0
 40
0.0
 40
0.0
 40
0.0
 40
1.0
 40
2.0
 40
3.0
 40
4.0
 40
5.0
 40
6.0
 40
7.0
 40
8.0
 40
9.0
 40
10.0
 40
11.0
 40
12.0
 40
13.0
 40
14.0
 40
15.0
 40
16.0
 40
17.0
 40
18.0
 40
19.0
 40
20.0
 40
21.0
 40
22.0
 40
23.0
 40
24.0
 40
25.0
 40
26.0
 40
27.0
 40
28.0
 40
29.0
 40
30.0
 40
31.0
 40
32.0
 40
33.0
 40
34.0
 40
35.0
 40
36.0
 40
37.0
 40
37.0
 40
37.0
 40
37.0
 10
-0.0000001445755551
 20
49.933048356588
 30
0.0
 10
0.3825280513065172
 20
49.93119455189277
 30
0.0
 10
1.147691543679177
 20
49.93487408522006
 30
0.0
 10
2.294612282279722
 20
49.98023604413598
 30
0.0
 10
3.438745315514122
 20
50.07409889304632
 30
0.0
 10
4.57617234688612
 20
50.22992041939277
 30
0.0
 10
5.701668916489962
 20
50.45907960798964
 30
0.0
 10
6.800227544110346
 20
50.79665812698664
 30
0.0
 10
7.857295607332759
 20
51.24567217130645
 30
0.0
 10
8.87556472167822
 20
51.78097040350701
 30
0.0
 10
9.77768869564077
 20
52.49719169216621
 30
0.0
 10
10.59725413517826
 20
53.30167367706854
 30
0.0
 10
11.30299071267933
 20
54.20986218997734
 30
0.0
 10
11.93389654417367
 20
55.16882245563093
 30
0.0
 10
12.46947414681376
 20
56.18668499199625
 30
0.0
 10
12.85198565247363
 20
57.27078051558374
 30
0.0
 10
13.14672632133691
 20
58.38060625164378
 30
0.0
 10
13.34659236171896
 20
59.51194626480787
 30
0.0
 10
13.43603200941683
 20
60.65752536004795
 30
0.0
 10
13.41870015289716
 20
61.80586560298421
 30
0.0
 10
13.33069864362064
 20
62.95048018386727
 30
0.0
 10
13.17894582526858
 20
64.08849543095114
 30
0.0
 10
12.96779705314506
 20
65.21691148495047
 30
0.0
 10
12.69349513163677
 20
66.33183122371412
 30
0.0
 10
12.34648335984738
 20
67.42640490816606
 30
0.0
 10
11.92820520770914
 20
68.49576065708135
 30
0.0
 10
11.4459803960693
 20
69.53755856683838
 30
0.0
 10
10.89930168212441
 20
70.54784225146443
 30
0.0
 10
10.30693593177787
 20
71.52832148197666
 30
0.0
 10
9.694552074314071
 20
72.50708343822096
 30
0.0
 10
8.856969365110293
 20
73.29984543780876
 30
0.0
 10
7.843349057310413
 20
73.85482265328118
 30
0.0
 10
6.772518542631428
 20
74.26812574725253
 30
0.0
 10
5.672369043796889
 20
74.5977308214661
 30
0.0
 10
4.557373403906386
 20
74.87053242912124
 30
0.0
 10
3.429234081717599
 20
75.08338578616046
 30
0.0
 10
2.291878855133217
 20
75.23931652726134
 30
0.0
 10
1.147641109653951
 20
75.3330061660924
 30
0.0
 10
0.382538473100876
 20
75.35320854573233
 30
0.0
 10
-0.0000001445755711
 20
75.35296818541497
 30
0.0
  0
SPLINE
  5
1A9
330
1F
100
AcDbEntity
  8
5 star - arm 2d
 62
     7
100
AcDbSpline
210
0.0
220
0.0
230
1.0
 70
     8
 71
     3
 72
    44
 73
    40
 74
     0
 42
0.0000000001
 43
0.0000000001
 40
-37.0
 40
-37.0
 40
-37.0
 40
-37.0
 40
-36.0
 40
-35.0
 40
-34.0
 40
-33.0
 40
-32.0
 40
-31.0
 40
-30.0
 40
-29.0
 40
-28.0
 40
-27.0
 40
-26.0
 40
-25.0
 40
-24.0
 40
-23.0
 40
-22.0
 40
-21.0
 40
-20.0
 40
-19.0
 40
-18.0
 40
-17.0
 40
-16.0
 40
-15.0
 40
-14.0
 40
-13.0
 40
-12.0
 40
-11.0
 40
-10.0
 40
-9.0
 40
-8.0
 40
-7.0
 40
-6.0
 40
-5.0
 40
-4.0
 40
-3.0
 40
-2.0
 40
-1.0
 40
0.0
 40
0.0
 40
0.0
 40
0.0
 10
-0.0000001445755391
 20
75.35296818541497
 30
0.0
 10
-0.3825387622519861
 20
75.35320854573233
 30
0.0
 10
-1.147641398805061
 20
75.3330061660924
 30
0.0
 10
-2.291879144284327
 20
75.23931652726134
 30
0.0
 10
-3.42923437086871
 20
75.08338578616046
 30
0.0
 10
-4.557373693057496
 20
74.87053242912124
 30
0.0
 10
-5.672369332947999
 20
74.5977308214661
 30
0.0
 10
-6.772518831782539
 20
74.26812574725253
 30
0.0
 10
-7.843349346461523
 20
73.85482265328118
 30
0.0
 10
-8.856969654261404
 20
73.29984543780876
 30
0.0
 10
-9.694552363465181
 20
72.50708343822096
 30
0.0
 10
-10.30693622092898
 20
71.52832148197666
 30
0.0
 10
-10.89930197127552
 20
70.54784225146443
 30
0.0
 10
-11.44598068522041
 20
69.53755856683838
 30
0.0
 10
-11.92820549686025
 20
68.49576065708135
 30
0.0
 10
-12.34648364899849
 20
67.42640490816606
 30
0.0
 10
-12.69349542078788
 20
66.33183122371412
 30
0.0
 10
-12.96779734229617
 20
65.21691148495047
 30
0.0
 10
-13.17894611441969
 20
64.08849543095114
 30
0.0
 10
-13.33069893277175
 20
62.95048018386727
 30
0.0
 10
-13.41870044204827
 20
61.80586560298421
 30
0.0
 10
-13.43603229856794
 20
60.65752536004795
 30
0.0
 10
-13.34659265087007
 20
59.51194626480787
 30
0.0
 10
-13.14672661048802
 20
58.38060625164378
 30
0.0
 10
-12.85198594162474
 20
57.27078051558374
 30
0.0
 10
-12.46947443596487
 20
56.18668499199625
 30
0.0
 10
-11.93389683332478
 20
55.16882245563093
 30
0.0
 10
-11.30299100183044
 20
54.20986218997734
 30
0.0
 10
-10.59725442432937
 20
53.30167367706854
 30
0.0
 10
-9.77768898479188
 20
52.49719169216621
 30
0.0
 10
-8.87556501082933
 20
51.78097040350701
 30
0.0
 10
-7.857295896483869
 20
51.24567217130645
 30
0.0
 10
-6.800227833261456
 20
50.79665812698664
 30
0.0
 10
-5.701669205641072
 20
50.45907960798964
 30
0.0
 10
-4.576172636037231
 20
50.22992041939277
 30
0.0
 10
-3.438745604665232
 20
50.07409889304632
 30
0.0
 10
-2.294612571430832
 20
49.98023604413598
 30
0.0
 10
-1.147691832830287
 20
49.93487408522006
 30
0.0
 10
-0.3825283404576273
 20
49.93119455189277
 30
0.0
 10
-0.0000001445755551
 20
49.933048356588
 30
0.0
  0
POLYLINE
  5
1AA
330
1F
100
AcDbEntity
  8
5 star - arm 2d
 62
     7
100
AcDb2dPolyline
 66
     1
 10
0.0
 20
0.0
 30
0.0
  0
VERTEX
  5
1AB
330
1AA
100
AcDbEntity
  8
5 star - arm 2d
 62
     7
100
AcDbVertex
100
AcDb2dVertex
 10
-0.4064787642203243
 20
49.93239850121135
 30
0.0
  0
VERTEX
  5
1AC
330
1AA
100
AcDbEntity
  8
5 star - arm 2d
 62
     7
100
AcDbVertex
100
AcDb2dVertex
 10
-0.4009411964983425
 20
49.67262398469305
 30
0.0
  0
SEQEND
  5
1AD
330
1AA
100
AcDbEntity
  8
5 star - arm 2d
 62
     7
  0
SPLINE
  5
1AE
330
1F
100
AcDbEntity
  8
5 star - arm 2d
 62
     7
100
AcDbSpline
210
0.0
220
0.0
230
1.0
 70
     8
 71
     3
 72
    11
 73
     7
 74
     0
 42
0.0000000001
 43
0.0000000001
 40
0.0
 40
0.0
 40
0.0
 40
0.0
 40
1.0
 40
2.0
 40
3.0
 40
4.0
 40
4.0
 40
4.0
 40
4.0
 10
-0.4009411964983425
 20
49.67262398469305
 30
0.0
 10
-0.3968443682137972
 20
49.57065903268143
 30
0.0
 10
-0.3051884357378742
 20
49.37159106995284
 30
0.0
 10
-0.0001119905559173
 20
49.2493153198752
 30
0.0
 10
0.3048432585990356
 20
49.37182412362379
 30
0.0
 10
0.396532699468663
 20
49.57081751514885
 30
0.0
 10
0.4007030954311972
 20
49.67278220949495
 30
0.0
  0
POLYLINE
  5
1AF
330
1F
100
AcDbEntity
  8
5 star - arm 2d
 62
     7
100
AcDb2dPolyline
 66
     1
 10
0.0
 20
0.0
 30
0.0
  0
VERTEX
  5
1B0
330
1AF
100
AcDbEntity
  8
5 star - arm 2d
 62
     7
100
AcDbVertex
100
AcDb2dVertex
 10
0.4007030954311972
 20
49.67278220949495
 30
0.0
  0
VERTEX
  5
1B1
330
1AF
100
AcDbEntity
  8
5 star - arm 2d
 62
     7
100
AcDbVertex
100
AcDb2dVertex
 10
0.4064807135475625
 20
49.93239856521233
 30
0.0
  0
SEQEND
  5
1B2
330
1AF
100
AcDbEntity
  8
5 star - arm 2d
 62
     7
  0
ARC
  5
1B3
330
1F
100
AcDbEntity
  8
5 star - arm 2d
 62
     7
100
AcDbCircle
 10
-0.0000001446591031
 20
49.69054752446384
 30
0.0
 40
0.4505699971767498
100
AcDbArc
 50
154.1571530446633
 51
25.85410525655074
  0
SPLINE
  5
1B4
330
1F
100
AcDbEntity
  8
5 star - arm 2d
 62
     7
100
AcDbSpline
210
0.0
220
0.0
230
1.0
 70
    12
 71
     2
 72
     8
 73
     5
 74
     0
 42
0.0000000001
 43
0.0000000001
 40
-0.4690344867060143
 40
-0.4690344867060143
 40
-0.4690344867060143
 40
-0.0025393128060464
 40
-0.0025393128060464
 40
0.0
 40
0.0
 40
0.0
 10
-0.375000144575565
 20
49.44055801604991
 30
0.0
 41
0.8942131309603288
 10
-0.3750001445755638
 20
49.36242255406137
 30
0.0
 41
0.9307186749905532
 10
-0.3750000499280244
 20
49.36242255406137
 30
0.0
 41
1.0
 10
-0.3750000499280235
 20
49.36368537358666
 30
0.0
 41
1.0
 10
-0.3750000972517871
 20
49.36494819311196
 30
0.0
 41
1.0
  0
SPLINE
  5
1B5
330
1F
100
AcDbEntity
  8
5 star - arm 2d
 62
     7
100
AcDbSpline
210
0.0
220
0.0
230
1.0
 70
    12
 71
     2
 72
     6
 73
     3
 74
     0
 42
0.0000000001
 43
0.0000000001
 40
0.0
 40
0.0
 40
0.0
 40
0.0490228526923067
 40
0.0490228526923067
 40
0.0490228526923067
 10
-0.3750000972517871
 20
49.36494819311196
 30
0.0
 41
1.0
 10
-0.3751503782936514
 20
49.33132275813091
 30
0.0
 41
0.7105143135969407
 10
-0.4062501445755542
 20
49.33117252440836
 30
0.0
 41
1.0
  0
SPLINE
  5
1B6
330
1F
100
AcDbEntity
  8
5 star - arm 2d
 62
     7
100
AcDbSpline
210
0.0
220
0.0
230
1.0
 70
    24
 71
     2
 72
     6
 73
     3
 74
     0
 42
0.0000000001
 43
0.0000000001
 40
0.0
 40
0.0
 40
0.0
 40
0.34375
 40
0.34375
 40
0.34375
 10
-0.4062501445755542
 20
49.33117252440836
 30
0.0
 10
-0.5781251445755538
 20
49.33117252440836
 30
0.0
 10
-0.7500001445755533
 20
49.33117252440837
 30
0.0
  0
SPLINE
  5
1B7
330
1F
100
AcDbEntity
  8
5 star - arm 2d
 62
     7
100
AcDbSpline
210
0.0
220
0.0
230
1.0
 70
    12
 71
     2
 72
     6
 73
     3
 74
     0
 42
0.0000000001
 43
0.0000000001
 40
0.0
 40
0.0
 40
0.0
 40
0.1963097587114482
 40
0.1963097587114482
 40
0.1963097587114482
 10
-0.7500001445755533
 20
49.33117252440837
 30
0.0
 41
1.0
 10
-0.8749089997280077
 20
49.33126251822952
 30
0.0
 41
0.70761930653121
 10
-0.8750001445729039
 20
49.45850798875394
 30
0.0
 41
1.0
  0
SPLINE
  5
1B8
330
1F
100
AcDbEntity
  8
5 star - arm 2d
 62
     7
100
AcDbSpline
210
0.0
220
0.0
230
1.0
 70
    24
 71
     2
 72
     6
 73
     3
 74
     0
 42
0.0000000001
 43
0.0000000001
 40
-0.4758210510135541
 40
-0.4758210510135541
 40
-0.4758210510135541
 40
0.0
 40
0.0
 40
0.0
 10
-0.8750001445729039
 20
49.45850798875394
 30
0.0
 10
-0.8750001445742286
 20
49.69758682236399
 30
0.0
 10
-0.8750001445755533
 20
49.93666565597405
 30
0.0
  0
SPLINE
  5
1B9
330
1F
100
AcDbEntity
  8
5 star - arm 2d
 62
     7
100
AcDbSpline
210
0.0
220
0.0
230
1.0
 70
    12
 71
     2
 72
     8
 73
     5
 74
     0
 42
0.0000000001
 43
0.0000000001
 40
-0.4690344867060143
 40
-0.4690344867060143
 40
-0.4690344867060143
 40
-0.0025393128060464
 40
-0.0025393128060464
 40
0.0
 40
0.0
 40
0.0
 10
0.375000144575565
 20
49.44055801604991
 30
0.0
 41
0.8942131309603288
 10
0.3750001445755638
 20
49.36242255406137
 30
0.0
 41
0.9307186749905532
 10
0.3750000499280244
 20
49.36242255406137
 30
0.0
 41
1.0
 10
0.3750000499280235
 20
49.36368537358666
 30
0.0
 41
1.0
 10
0.3750000972517871
 20
49.36494819311196
 30
0.0
 41
1.0
  0
SPLINE
  5
1BA
330
1F
100
AcDbEntity
  8
5 star - arm 2d
 62
     7
100
AcDbSpline
210
0.0
220
0.0
230
1.0
 70
    12
 71
     2
 72
     6
 73
     3
 74
     0
 42
0.0000000001
 43
0.0000000001
 40
0.0
 40
0.0
 40
0.0
 40
0.0490228526923067
 40
0.0490228526923067
 40
0.0490228526923067
 10
0.3750000972517871
 20
49.36494819311196
 30
0.0
 41
1.0
 10
0.3751503782936514
 20
49.33132275813091
 30
0.0
 41
0.7105143135969407
 10
0.4062501445755542
 20
49.33117252440836
 30
0.0
 41
1.0
  0
SPLINE
  5
1BB
330
1F
100
AcDbEntity
  8
5 star - arm 2d
 62
     7
100
AcDbSpline
210
0.0
220
0.0
230
1.0
 70
    24
 71
     2
 72
     6
 73
     3
 74
     0
 42
0.0000000001
 43
0.0000000001
 40
0.0
 40
0.0
 40
0.0
 40
0.34375
 40
0.34375
 40
0.34375
 10
0.4062501445755542
 20
49.33117252440836
 30
0.0
 10
0.5781251445755538
 20
49.33117252440836
 30
0.0
 10
0.7500001445755533
 20
49.33117252440837
 30
0.0
  0
SPLINE
  5
1BC
330
1F
100
AcDbEntity
  8
5 star - arm 2d
 62
     7
100
AcDbSpline
210
0.0
220
0.0
230
1.0
 70
    12
 71
     2
 72
     6
 73
     3
 74
     0
 42
0.0000000001
 43
0.0000000001
 40
0.0
 40
0.0
 40
0.0
 40
0.1963097587114482
 40
0.1963097587114482
 40
0.1963097587114482
 10
0.7500001445755533
 20
49.33117252440837
 30
0.0
 41
1.0
 10
0.8749089997280077
 20
49.33126251822952
 30
0.0
 41
0.70761930653121
 10
0.8750001445729039
 20
49.45850798875394
 30
0.0
 41
1.0
  0
SPLINE
  5
1BD
330
1F
100
AcDbEntity
  8
5 star - arm 2d
 62
     7
100
AcDbSpline
210
0.0
220
0.0
230
1.0
 70
    24
 71
     2
 72
     6
 73
     3
 74
     0
 42
0.0000000001
 43
0.0000000001
 40
-0.4758210510135541
 40
-0.4758210510135541
 40
-0.4758210510135541
 40
0.0
 40
0.0
 40
0.0
 10
0.8750001445729039
 20
49.45850798875394
 30
0.0
 10
0.8750001445742286
 20
49.69758682236399
 30
0.0
 10
0.8750001445755533
 20
49.93666565597405
 30
0.0
  0
SPLINE
  5
1BE
330
1F
100
AcDbEntity
  8
5 star - arm 2d
 62
     7
100
AcDbSpline
210
0.0
220
0.0
230
1.0
 70
     8
 71
     3
 72
    29
 73
    25
 74
     0
 42
0.0000000001
 43
0.0000000001
 40
0.0
 40
0.0
 40
0.0
 40
0.0
 40
1.0
 40
2.0
 40
3.0
 40
4.0
 40
5.0
 40
6.0
 40
7.0
 40
8.0
 40
9.0
 40
10.0
 40
11.0
 40
12.0
 40
13.0
 40
14.0
 40
15.0
 40
16.0
 40
17.0
 40
18.0
 40
19.0
 40
20.0
 40
21.0
 40
22.0
 40
22.0
 40
22.0
 40
22.0
 10
-0.0000001445755551
 20
50.25106879247863
 30
0.0
 10
0.4541173052550052
 20
50.24900996392827
 30
0.0
 10
1.362180803256119
 20
50.27740257286784
 30
0.0
 10
2.719574114346257
 20
50.40667179420636
 30
0.0
 10
4.056647744910185
 20
50.67618589611921
 30
0.0
 10
5.361874527444674
 20
51.07432802462736
 30
0.0
 10
6.619408376795348
 20
51.59452768723072
 30
0.0
 10
7.741380550011224
 20
52.43427822328032
 30
0.0
 10
8.22202089959666
 20
53.75050879083904
 30
0.0
 10
8.4571432295489
 20
55.0868939250849
 30
0.0
 10
8.550913182603919
 20
56.44907877111903
 30
0.0
 10
8.587398945504434
 20
57.81024087160374
 30
0.0
 10
8.62005356078856
 20
59.17225728820873
 30
0.0
 10
8.634103374895643
 20
60.53457044470527
 30
0.0
 10
8.57065967698307
 20
61.89637714558929
 30
0.0
 10
8.428089666382355
 20
63.25023607893388
 30
0.0
 10
8.234824356548438
 20
64.60367171846566
 30
0.0
 10
7.667845436010083
 20
65.86702335603132
 30
0.0
 10
6.645559659476503
 20
66.80458092669906
 30
0.0
 10
5.405622502272972
 20
67.39092430735137
 30
0.0
 10
4.078481001410149
 20
67.71712678712422
 30
0.0
 10
2.724050307013022
 20
67.87697007414447
 30
0.0
 10
1.362184960972182
 20
67.92770147909768
 30
0.0
 10
0.4540989388088537
 20
67.93783256326559
 30
0.0
 10
-0.0000001445755551
 20
67.93296987142817
 30
0.0
  0
SPLINE
  5
1BF
330
1F
100
AcDbEntity
  8
5 star - arm 2d
 62
     7
100
AcDbSpline
210
0.0
220
0.0
230
1.0
 70
     8
 71
     3
 72
    29
 73
    25
 74
     0
 42
0.0000000001
 43
0.0000000001
 40
-22.0
 40
-22.0
 40
-22.0
 40
-22.0
 40
-21.0
 40
-20.0
 40
-19.0
 40
-18.0
 40
-17.0
 40
-16.0
 40
-15.0
 40
-14.0
 40
-13.0
 40
-12.0
 40
-11.0
 40
-10.0
 40
-9.0
 40
-8.0
 40
-7.0
 40
-6.0
 40
-5.0
 40
-4.0
 40
-3.0
 40
-2.0
 40
-1.0
 40
0.0
 40
0.0
 40
0.0
 40
0.0
 10
-0.0000001445755551
 20
67.93296987142817
 30
0.0
 10
-0.4540992279599639
 20
67.93783256326559
 30
0.0
 10
-1.362185250123293
 20
67.92770147909768
 30
0.0
 10
-2.724050596164132
 20
67.87697007414447
 30
0.0
 10
-4.07848129056126
 20
67.71712678712422
 30
0.0
 10
-5.405622791424082
 20
67.39092430735137
 30
0.0
 10
-6.645559948627613
 20
66.80458092669906
 30
0.0
 10
-7.667845725161193
 20
65.86702335603132
 30
0.0
 10
-8.234824645699549
 20
64.60367171846566
 30
0.0
 10
-8.428089955533466
 20
63.25023607893388
 30
0.0
 10
-8.57065996613418
 20
61.89637714558929
 30
0.0
 10
-8.634103664046753
 20
60.53457044470527
 30
0.0
 10
-8.620053849939671
 20
59.17225728820873
 30
0.0
 10
-8.587399234655544
 20
57.81024087160374
 30
0.0
 10
-8.55091347175503
 20
56.44907877111903
 30
0.0
 10
-8.45714351870001
 20
55.0868939250849
 30
0.0
 10
-8.222021188747771
 20
53.75050879083904
 30
0.0
 10
-7.741380839162334
 20
52.43427822328032
 30
0.0
 10
-6.619408665946458
 20
51.59452768723072
 30
0.0
 10
-5.361874816595784
 20
51.07432802462736
 30
0.0
 10
-4.056648034061295
 20
50.67618589611921
 30
0.0
 10
-2.719574403497367
 20
50.40667179420636
 30
0.0
 10
-1.362181092407229
 20
50.27740257286784
 30
0.0
 10
-0.4541175944061153
 20
50.24900996392827
 30
0.0
 10
-0.0000001445755551
 20
50.25106879247863
 30
0.0
  0
LINE
  5
1C0
330
1F
100
AcDbEntity
  8
5 star - arm 2d
 62
     7
100
AcDbLine
 10
7.941804899147232
 20
73.7795062156956
 30
0.0
 11
7.941804899147231
 21
75.22749175184143
 31
0.0
  0
SPLINE
  5
1C1
330
1F
100
AcDbEntity
  8
5 star - arm 2d
 62
     7
100
AcDbSpline
210
0.0
220
0.0
230
1.0
 70
    24
 71
     2
 72
     6
 73
     3
 74
     0
 42
0.0000000001
 43
0.0000000001
 40
0.0
 40
0.0
 40
0.0
 40
0.71875
 40
0.71875
 40
0.71875
 10
7.941804899147231
 20
75.22749175184143
 30
0.0
 10
7.582429899147231
 20
75.22749175184143
 30
0.0
 10
7.223054899147231
 20
75.22749175184143
 30
0.0
  0
SPLINE
  5
1C2
330
1F
100
AcDbEntity
  8
5 star - arm 2d
 62
     7
100
AcDbSpline
210
0.0
220
0.0
230
1.0
 70
    24
 71
     2
 72
     6
 73
     3
 74
     0
 42
0.0000000001
 43
0.0000000001
 40
0.0
 40
0.0
 40
0.0
 40
1.137396814741948
 40
1.137396814741948
 40
1.137396814741948
 10
7.223054899147231
 20
75.22749175184143
 30
0.0
 10
7.223054899147231
 20
74.65879334447045
 30
0.0
 10
7.223054899147231
 20
74.09009493709948
 30
0.0
  0
LINE
  5
1C3
330
1F
100
AcDbEntity
  8
5 star - arm 2d
 62
     7
100
AcDbLine
 10
8.457429899148261
 20
73.50047777285386
 30
0.0
 11
8.457429899144579
 21
75.10015628749585
 31
0.0
  0
ARC
  5
1C4
330
1F
100
AcDbEntity
  8
5 star - arm 2d
 62
     7
100
AcDbCircle
 10
8.331190770886618
 20
75.10125393306167
 30
0.0
 40
0.1262439001659804
100
AcDbArc
 50
359.5018274098522
 51
89.43761275158505
  0
SPLINE
  5
1C5
330
1F
100
AcDbEntity
  8
5 star - arm 2d
 62
     7
100
AcDbSpline
210
0.0
220
0.0
230
1.0
 70
    24
 71
     2
 72
     6
 73
     3
 74
     0
 42
0.0000000001
 43
0.0000000001
 40
0.0
 40
0.0
 40
0.0
 40
0.34375
 40
0.34375
 40
0.34375
 10
8.332429899147233
 20
75.22749175184143
 30
0.0
 10
8.160554899147233
 20
75.22749175184143
 30
0.0
 10
7.988679899147232
 20
75.22749175184143
 30
0.0
  0
ARC
  5
1C6
330
1F
100
AcDbEntity
  8
5 star - arm 2d
 62
     7
100
AcDbCircle
 10
7.990125871581913
 20
75.19480947406166
 30
0.0
 40
0.0327142494512088
100
AcDbArc
 50
92.53330334425857
 51
181.9153229998516
  0
LINE
  5
1C7
330
1F
100
AcDbEntity
  8
5 star - arm 2d
 62
     7
100
AcDbLine
 10
7.957429899147243
 20
75.19371608314006
 30
0.0
 11
7.957429899147241
 21
73.77185269925799
 31
0.0
  0
LINE
  5
1C8
330
1F
100
AcDbEntity
  8
5 star - arm 2d
 62
     7
100
AcDbLine
 10
6.707429899147982
 20
74.27448244731463
 30
0.0
 11
6.707429899149883
 21
75.10015628749585
 31
0.0
  0
ARC
  5
1C9
330
1F
100
AcDbEntity
  8
5 star - arm 2d
 62
     7
100
AcDbCircle
 10
6.833669027407844
 20
75.10125393306167
 30
0.0
 40
0.1262439001659804
100
AcDbArc
 50
90.56238724841576
 51
180.4981725901478
  0
SPLINE
  5
1CA
330
1F
100
AcDbEntity
  8
5 star - arm 2d
 62
     7
100
AcDbSpline
210
0.0
220
0.0
230
1.0
 70
    24
 71
     2
 72
     6
 73
     3
 74
     0
 42
0.0000000001
 43
0.0000000001
 40
0.0
 40
0.0
 40
0.0
 40
0.34375
 40
0.34375
 40
0.34375
 10
6.832429899147229
 20
75.22749175184143
 30
0.0
 10
7.004304899147229
 20
75.22749175184143
 30
0.0
 10
7.17617989914723
 20
75.22749175184143
 30
0.0
  0
ARC
  5
1CB
330
1F
100
AcDbEntity
  8
5 star - arm 2d
 62
     7
100
AcDbCircle
 10
7.174733926712548
 20
75.19480947406166
 30
0.0
 40
0.0327142494512088
100
AcDbArc
 50
358.0846770001484
 51
87.46669665574143
  0
LINE
  5
1CC
330
1F
100
AcDbEntity
  8
5 star - arm 2d
 62
     7
100
AcDbLine
 10
7.207429899147218
 20
75.19371608314006
 30
0.0
 11
7.20742989914722
 21
74.0961567540372
 31
0.0
  0
ENDSEC
  0
SECTION
  2
OBJECTS
  0
DICTIONARY
  5
C
330
0
100
AcDbDictionary
281
     1
  3
ACAD_GROUP
350
D
  3
ACAD_LAYOUT
350
1A
  3
ACAD_MLEADERSTYLE
350
1CE
  3
ACAD_MLINESTYLE
350
17
  3
ACAD_PLOTSETTINGS
350
19
  3
ACAD_PLOTSTYLENAME
350
E
  3
ACAD_TABLESTYLE
350
1CD
  3
ACAD_VISUALSTYLE
350
2A
  0
DICTIONARY
  5
D
102
{ACAD_REACTORS
330
C
102
}
330
C
100
AcDbDictionary
281
     1
  0
DICTIONARY
  5
1A
102
{ACAD_REACTORS
330
C
102
}
330
C
100
AcDbDictionary
281
     1
  3
Layout1
350
1E
  3
Layout2
350
26
  3
Model
350
22
  0
DICTIONARY
  5
1CE
102
{ACAD_REACTORS
330
C
102
}
330
C
100
AcDbDictionary
281
     1
  0
DICTIONARY
  5
17
102
{ACAD_REACTORS
330
C
102
}
330
C
100
AcDbDictionary
281
     1
  3
Standard
350
18
  0
DICTIONARY
  5
19
102
{ACAD_REACTORS
330
C
102
}
330
C
100
AcDbDictionary
281
     1
  0
ACDBDICTIONARYWDFLT
  5
E
102
{ACAD_REACTORS
330
C
102
}
330
C
100
AcDbDictionary
281
     1
  3
Normal
350
F
100
AcDbDictionaryWithDefault
340
F
  0
DICTIONARY
  5
1CD
102
{ACAD_REACTORS
330
C
102
}
330
C
100
AcDbDictionary
281
     1
  0
DICTIONARY
  5
2A
102
{ACAD_REACTORS
330
C
102
}
330
C
100
AcDbDictionary
281
     1
  3
2dWireframe
350
2F
  3
3D Hidden
350
31
  3
3dWireframe
350
30
  3
Basic
350
32
  3
Brighten
350
36
  3
ColorChange
350
3A
  3
Conceptual
350
34
  3
Dim
350
35
  3
Facepattern
350
39
  3
Flat
350
2B
  3
FlatWithEdges
350
2C
  3
Gouraud
350
2D
  3
GouraudWithEdges
350
2E
  3
Linepattern
350
38
  3
Realistic
350
33
  3
Thicken
350
37
  0
LAYOUT
  5
1E
102
{ACAD_REACTORS
330
1A
102
}
330
1A
100
AcDbPlotSettings
  1

  2
none_device
  4

  6

 40
0.0
 41
0.0
 42
0.0
 43
0.0
 44
0.0
 45
0.0
 46
0.0
 47
0.0
 48
0.0
 49
0.0
140
0.0
141
0.0
142
1.0
143
1.0
 70
   688
 72
     0
 73
     0
 74
     5
  7

 75
    16
 76
     0
 77
     2
 78
   300
147
1.0
148
0.0
149
0.0
100
AcDbLayout
  1
Layout1
 70
     1
 71
     1
 10
0.0
 20
0.0
 11
12.0
 21
9.0
 12
0.0
 22
0.0
 32
0.0
 14
1.000000000000000E+20
 24
1.000000000000000E+20
 34
1.000000000000000E+20
 15
-1.000000000000000E+20
 25
-1.000000000000000E+20
 35
-1.000000000000000E+20
146
0.0
 13
0.0
 23
0.0
 33
0.0
 16
1.0
 26
0.0
 36
0.0
 17
0.0
 27
1.0
 37
0.0
 76
     0
330
1B
  0
LAYOUT
  5
26
102
{ACAD_REACTORS
330
1A
102
}
330
1A
100
AcDbPlotSettings
  1

  2
none_device
  4

  6

 40
0.0
 41
0.0
 42
0.0
 43
0.0
 44
0.0
 45
0.0
 46
0.0
 47
0.0
 48
0.0
 49
0.0
140
0.0
141
0.0
142
1.0
143
1.0
 70
   688
 72
     0
 73
     0
 74
     5
  7

 75
    16
 76
     0
 77
     2
 78
   300
147
1.0
148
0.0
149
0.0
100
AcDbLayout
  1
Layout2
 70
     1
 71
     2
 10
0.0
 20
0.0
 11
0.0
 21
0.0
 12
0.0
 22
0.0
 32
0.0
 14
0.0
 24
0.0
 34
0.0
 15
0.0
 25
0.0
 35
0.0
146
0.0
 13
0.0
 23
0.0
 33
0.0
 16
1.0
 26
0.0
 36
0.0
 17
0.0
 27
1.0
 37
0.0
 76
     0
330
23
  0
LAYOUT
  5
22
102
{ACAD_REACTORS
330
1A
102
}
330
1A
100
AcDbPlotSettings
  1

  2
none_device
  4

  6

 40
0.0
 41
0.0
 42
0.0
 43
0.0
 44
0.0
 45
0.0
 46
0.0
 47
0.0
 48
0.0
 49
0.0
140
0.0
141
0.0
142
1.0
143
1.0
 70
  1712
 72
     0
 73
     0
 74
     0
  7

 75
     0
 76
     0
 77
     2
 78
   300
147
1.0
148
0.0
149
0.0
100
AcDbLayout
  1
Model
 70
     1
 71
     0
 10
0.0
 20
0.0
 11
12.0
 21
9.0
 12
0.0
 22
0.0
 32
0.0
 14
-13.41823704786502
 24
0.0000000000000004
 34
0.0
 15
56.44468100205167
 25
75.35296818541505
 35
0.0
146
0.0
 13
0.0
 23
0.0
 33
0.0
 16
1.0
 26
0.0
 36
0.0
 17
0.0
 27
1.0
 37
0.0
 76
     0
330
1F
331
29
  0
MLINESTYLE
  5
18
102
{ACAD_REACTORS
330
17
102
}
330
17
100
AcDbMlineStyle
  2
Standard
 70
     0
  3

 62
   256
 51
90.0
 52
90.0
 71
     2
 49
0.5
 62
   256
  6
BYLAYER
 49
-0.5
 62
   256
  6
BYLAYER
  0
ACDBPLACEHOLDER
  5
F
102
{ACAD_REACTORS
330
E
102
}
330
E
  0
VISUALSTYLE
  5
2F
102
{ACAD_REACTORS
330
2A
102
}
330
2A
100
AcDbVisualStyle
  2
2dWireframe
 70
     4
 71
     0
 72
     2
 73
     0
 90
        0
 40
-0.6
 41
-30.0
 62
     5
 63
     7
421
 16777215
 74
     1
 91
        4
 64
     7
 65
   257
 75
     1
175
     1
 42
1.0
 92
        0
 66
   257
 43
1.0
 76
     1
 77
     6
 78
     2
 67
     7
 79
     5
170
     0
171
     0
290
     0
174
     0
 93
        1
 44
0.0
173
     0
291
     0
 45
0.0
1001
ACAD
1000
AcDbSavedByObjectVersion
1070
     0
  0
VISUALSTYLE
  5
31
102
{ACAD_REACTORS
330
2A
102
}
330
2A
100
AcDbVisualStyle
  2
3D Hidden
 70
     6
 71
     1
 72
     2
 73
     2
 90
        0
 40
-0.6
 41
-30.0
 62
     5
 63
     7
421
 16777215
 74
     2
 91
        2
 64
     7
 65
   257
 75
     2
175
     1
 42
40.0
 92
        0
 66
   257
 43
1.0
 76
     1
 77
     6
 78
     2
 67
     7
 79
     3
170
     0
171
     0
290
     0
174
     0
 93
        1
 44
0.0
173
     0
291
     0
 45
0.0
1001
ACAD
1000
AcDbSavedByObjectVersion
1070
     0
  0
VISUALSTYLE
  5
30
102
{ACAD_REACTORS
330
2A
102
}
330
2A
100
AcDbVisualStyle
  2
3dWireframe
 70
     5
 71
     0
 72
     2
 73
     0
 90
        0
 40
-0.6
 41
-30.0
 62
     5
 63
     7
421
 16777215
 74
     1
 91
        4
 64
     7
 65
   257
 75
     1
175
     1
 42
1.0
 92
        0
 66
   257
 43
1.0
 76
     1
 77
     6
 78
     2
 67
     7
 79
     5
170
     0
171
     0
290
     0
174
     0
 93
        1
 44
0.0
173
     0
291
     0
 45
0.0
1001
ACAD
1000
AcDbSavedByObjectVersion
1070
     0
  0
VISUALSTYLE
  5
32
102
{ACAD_REACTORS
330
2A
102
}
330
2A
100
AcDbVisualStyle
  2
Basic
 70
     7
 71
     1
 72
     0
 73
     1
 90
        0
 40
-0.6
 41
-30.0
 62
     5
 63
     7
421
 16777215
 74
     0
 91
        4
 64
     7
 65
   257
 75
     1
175
     1
 42
1.0
 92
        8
 66
     7
 43
1.0
 76
     1
 77
     6
 78
     2
 67
     7
 79
     5
170
     0
171
     0
290
     0
174
     0
 93
        1
 44
0.0
173
     0
291
     1
 45
0.0
1001
ACAD
1000
AcDbSavedByObjectVersion
1070
     0
  0
VISUALSTYLE
  5
36
102
{ACAD_REACTORS
330
2A
102
}
330
2A
100
AcDbVisualStyle
  2
Brighten
 70
    12
 71
     2
 72
     2
 73
     0
 90
        0
 40
-0.6
 41
-30.0
 62
     5
 63
     7
421
 16777215
 74
     1
 91
        4
 64
     7
 65
   257
 75
     1
175
     1
 42
1.0
 92
        8
 66
     7
 43
1.0
 76
     1
 77
     6
 78
     2
 67
     7
 79
     5
170
     0
171
     0
290
     0
174
     0
 93
        1
 44
50.0
173
     0
291
     1
 45
0.0
1001
ACAD
1000
AcDbSavedByObjectVersion
1070
     0
  0
VISUALSTYLE
  5
3A
102
{ACAD_REACTORS
330
2A
102
}
330
2A
100
AcDbVisualStyle
  2
ColorChange
 70
    16
 71
     2
 72
     2
 73
     3
 90
        0
 40
-0.6
 41
-30.0
 62
     5
 63
     8
421
  8421504
 74
     1
 91
        4
 64
     7
 65
   257
 75
     1
175
     1
 42
1.0
 92
        8
 66
     8
424
  8421504
 43
1.0
 76
     1
 77
     6
 78
     2
 67
     7
 79
     5
170
     0
171
     0
290
     0
174
     0
 93
        1
 44
0.0
173
     0
291
     1
 45
0.0
1001
ACAD
1000
AcDbSavedByObjectVersion
1070
     0
  0
VISUALSTYLE
  5
34
102
{ACAD_REACTORS
330
2A
102
}
330
2A
100
AcDbVisualStyle
  2
Conceptual
 70
     9
 71
     3
 72
     2
 73
     0
 90
        0
 40
-0.6
 41
-30.0
 62
     5
 63
     7
421
 16777215
 74
     2
 91
        2
 64
     7
 65
   257
 75
     1
175
     1
 42
40.0
 92
        8
 66
     7
 43
1.0
 76
     1
 77
     6
 78
     2
 67
     7
 79
     3
170
     0
171
     0
290
     0
174
     0
 93
        1
 44
0.0
173
     0
291
     0
 45
0.0
1001
ACAD
1000
AcDbSavedByObjectVersion
1070
     0
  0
VISUALSTYLE
  5
35
102
{ACAD_REACTORS
330
2A
102
}
330
2A
100
AcDbVisualStyle
  2
Dim
 70
    11
 71
     2
 72
     2
 73
     0
 90
        0
 40
-0.6
 41
-30.0
 62
     5
 63
     7
421
 16777215
 74
     1
 91
        4
 64
     7
 65
   257
 75
     1
175
     1
 42
1.0
 92
        8
 66
     7
 43
1.0
 76
     1
 77
     6
 78
     2
 67
     7
 79
     5
170
     0
171
     0
290
     0
174
     0
 93
        1
 44
-50.0
173
     0
291
     1
 45
0.0
1001
ACAD
1000
AcDbSavedByObjectVersion
1070
     0
  0
VISUALSTYLE
  5
39
102
{ACAD_REACTORS
330
2A
102
}
330
2A
100
AcDbVisualStyle
  2
Facepattern
 70
    15
 71
     2
 72
     2
 73
     0
 90
        0
 40
-0.6
 41
-30.0
 62
     5
 63
     7
421
 16777215
 74
     1
 91
        4
 64
     7
 65
   257
 75
     1
175
     1
 42
1.0
 92
        8
 66
     7
 43
1.0
 76
     1
 77
     6
 78
     2
 67
     7
 79
     5
170
     0
171
     0
290
     0
174
     0
 93
        1
 44
0.0
173
     0
291
     1
 45
0.0
1001
ACAD
1000
AcDbSavedByObjectVersion
1070
     0
  0
VISUALSTYLE
  5
2B
102
{ACAD_REACTORS
330
2A
102
}
330
2A
100
AcDbVisualStyle
  2
Flat
 70
     0
 71
     2
 72
     1
 73
     1
 90
        2
 40
-0.6
 41
30.0
 62
     5
 63
     7
421
 16777215
 74
     0
 91
        4
 64
     7
 65
   257
 75
     1
175
     1
 42
1.0
 92
        8
 66
     7
 43
1.0
 76
     1
 77
     6
 78
     2
 67
     7
 79
     5
170
     0
171
     0
290
     0
174
     0
 93
       13
 44
0.0
173
     0
291
     1
 45
0.0
1001
ACAD
1000
AcDbSavedByObjectVersion
1070
     0
  0
VISUALSTYLE
  5
2C
102
{ACAD_REACTORS
330
2A
102
}
330
2A
100
AcDbVisualStyle
  2
FlatWithEdges
 70
     1
 71
     2
 72
     1
 73
     1
 90
        2
 40
-0.6
 41
30.0
 62
     5
 63
     7
421
 16777215
 74
     1
 91
        4
 64
     7
 65
   257
 75
     1
175
     1
 42
1.0
 92
        0
 66
   257
 43
1.0
 76
     1
 77
     6
 78
     2
 67
     7
 79
     5
170
     0
171
     0
290
     0
174
     0
 93
       13
 44
0.0
173
     0
291
     1
 45
0.0
1001
ACAD
1000
AcDbSavedByObjectVersion
1070
     0
  0
VISUALSTYLE
  5
2D
102
{ACAD_REACTORS
330
2A
102
}
330
2A
100
AcDbVisualStyle
  2
Gouraud
 70
     2
 71
     2
 72
     2
 73
     1
 90
        2
 40
-0.6
 41
30.0
 62
     5
 63
     7
421
 16777215
 74
     0
 91
        4
 64
     7
 65
   257
 75
     1
175
     1
 42
1.0
 92
        0
 66
     7
 43
1.0
 76
     1
 77
     6
 78
     2
 67
     7
 79
     5
170
     0
171
     0
290
     0
174
     0
 93
       13
 44
0.0
173
     0
291
     1
 45
0.0
1001
ACAD
1000
AcDbSavedByObjectVersion
1070
     0
  0
VISUALSTYLE
  5
2E
102
{ACAD_REACTORS
330
2A
102
}
330
2A
100
AcDbVisualStyle
  2
GouraudWithEdges
 70
     3
 71
     2
 72
     2
 73
     1
 90
        2
 40
-0.6
 41
30.0
 62
     5
 63
     7
421
 16777215
 74
     1
 91
        4
 64
     7
 65
   257
 75
     1
175
     1
 42
1.0
 92
        0
 66
   257
 43
1.0
 76
     1
 77
     6
 78
     2
 67
     7
 79
     5
170
     0
171
     0
290
     0
174
     0
 93
       13
 44
0.0
173
     0
291
     1
 45
0.0
1001
ACAD
1000
AcDbSavedByObjectVersion
1070
     0
  0
VISUALSTYLE
  5
38
102
{ACAD_REACTORS
330
2A
102
}
330
2A
100
AcDbVisualStyle
  2
Linepattern
 70
    14
 71
     2
 72
     2
 73
     0
 90
        0
 40
-0.6
 41
-30.0
 62
     5
 63
     7
421
 16777215
 74
     1
 91
        4
 64
     7
 65
   257
 75
     7
175
     7
 42
1.0
 92
        8
 66
     7
 43
1.0
 76
     1
 77
     6
 78
     2
 67
     7
 79
     5
170
     0
171
     0
290
     0
174
     0
 93
        1
 44
0.0
173
     0
291
     1
 45
0.0
1001
ACAD
1000
AcDbSavedByObjectVersion
1070
     0
  0
VISUALSTYLE
  5
33
102
{ACAD_REACTORS
330
2A
102
}
330
2A
100
AcDbVisualStyle
  2
Realistic
 70
     8
 71
     2
 72
     2
 73
     0
 90
        0
 40
-0.6
 41
-30.0
 62
     5
 63
     7
421
 16777215
 74
     1
 91
        0
 64
     7
 65
   257
 75
     1
175
     1
 42
1.0
 92
        8
 66
     8
424
  7895160
 43
1.0
 76
     1
 77
     6
 78
     2
 67
     7
 79
     5
170
     0
171
     0
290
     0
174
     0
 93
       13
 44
0.0
173
     0
291
     0
 45
0.0
1001
ACAD
1000
AcDbSavedByObjectVersion
1070
     0
  0
VISUALSTYLE
  5
37
102
{ACAD_REACTORS
330
2A
102
}
330
2A
100
AcDbVisualStyle
  2
Thicken
 70
    13
 71
     2
 72
     2
 73
     0
 90
        0
 40
-0.6
 41
-30.0
 62
     5
 63
     7
421
 16777215
 74
     1
 91
        4
 64
     7
 65
   257
 75
     1
175
     1
 42
1.0
 92
       12
 66
     7
 43
1.0
 76
     1
 77
     6
 78
     2
 67
     7
 79
     5
170
     0
171
     0
290
     0
174
     0
 93
        1
 44
0.0
173
     0
291
     1
 45
0.0
1001
ACAD
1000
AcDbSavedByObjectVersion
1070
     0
  0
ENDSEC
  0
EOF
