  0
SECTION
  2
HEADER
  9
$ACADVER
  1
AC1018
  9
$ACADMAINTVER
 70
     0
  9
$DWGCODEPAGE
  3
ANSI_1252
  9
$INSBASE
 10
0.0
 20
0.0
 30
0.0
  9
$EXTMIN
 10
-13.41871520066399
 20
-0.0000008859445404
 30
0.0
  9
$EXTMAX
 10
53.70850108428228
 20
74.57108915590955
 30
0.0
  9
$LIMMIN
 10
0.0
 20
0.0
  9
$LIMMAX
 10
12.0
 20
9.0
  9
$ORTHOMODE
 70
     0
  9
$REGENMODE
 70
     1
  9
$FILLMODE
 70
     1
  9
$QTEXTMODE
 70
     0
  9
$MIRRTEXT
 70
     1
  9
$LTSCALE
 40
0.0393700787401575
  9
$ATTMODE
 70
     1
  9
$TEXTSIZE
 40
0.2
  9
$TRACEWID
 40
0.05
  9
$TEXTSTYLE
  7
Standard
  9
$CLAYER
  8
0
  9
$CELTYPE
  6
ByLayer
  9
$CECOLOR
 62
   256
  9
$CELTSCALE
 40
1.0
  9
$DISPSILH
 70
     0
  9
$DIMSCALE
 40
1.0
  9
$DIMASZ
 40
0.18
  9
$DIMEXO
 40
0.0625
  9
$DIMDLI
 40
0.38
  9
$DIMRND
 40
0.0
  9
$DIMDLE
 40
0.0
  9
$DIMEXE
 40
0.18
  9
$DIMTP
 40
0.0
  9
$DIMTM
 40
0.0
  9
$DIMTXT
 40
0.18
  9
$DIMCEN
 40
0.09
  9
$DIMTSZ
 40
0.0
  9
$DIMTOL
 70
     0
  9
$DIMLIM
 70
     0
  9
$DIMTIH
 70
     1
  9
$DIMTOH
 70
     1
  9
$DIMSE1
 70
     0
  9
$DIMSE2
 70
     0
  9
$DIMTAD
 70
     0
  9
$DIMZIN
 70
     0
  9
$DIMBLK
  1

  9
$DIMASO
 70
     1
  9
$DIMSHO
 70
     1
  9
$DIMPOST
  1

  9
$DIMAPOST
  1

  9
$DIMALT
 70
     0
  9
$DIMALTD
 70
     2
  9
$DIMALTF
 40
25.4
  9
$DIMLFAC
 40
1.0
  9
$DIMTOFL
 70
     0
  9
$DIMTVP
 40
0.0
  9
$DIMTIX
 70
     0
  9
$DIMSOXD
 70
     0
  9
$DIMSAH
 70
     0
  9
$DIMBLK1
  1

  9
$DIMBLK2
  1

  9
$DIMSTYLE
  2
Standard
  9
$DIMCLRD
 70
     0
  9
$DIMCLRE
 70
     0
  9
$DIMCLRT
 70
     0
  9
$DIMTFAC
 40
1.0
  9
$DIMGAP
 40
0.09
  9
$DIMJUST
 70
     0
  9
$DIMSD1
 70
     0
  9
$DIMSD2
 70
     0
  9
$DIMTOLJ
 70
     1
  9
$DIMTZIN
 70
     0
  9
$DIMALTZ
 70
     0
  9
$DIMALTTZ
 70
     0
  9
$DIMUPT
 70
     0
  9
$DIMDEC
 70
     4
  9
$DIMTDEC
 70
     4
  9
$DIMALTU
 70
     2
  9
$DIMALTTD
 70
     2
  9
$DIMTXSTY
  7
Standard
  9
$DIMAUNIT
 70
     0
  9
$DIMADEC
 70
     0
  9
$DIMALTRND
 40
0.0
  9
$DIMAZIN
 70
     0
  9
$DIMDSEP
 70
    46
  9
$DIMATFIT
 70
     3
  9
$DIMFRAC
 70
     0
  9
$DIMLDRBLK
  1

  9
$DIMLUNIT
 70
     2
  9
$DIMLWD
 70
    -2
  9
$DIMLWE
 70
    -2
  9
$DIMTMOVE
 70
     2
  9
$LUNITS
 70
     2
  9
$LUPREC
 70
     3
  9
$SKETCHINC
 40
0.1
  9
$FILLETRAD
 40
0.5
  9
$AUNITS
 70
     0
  9
$AUPREC
 70
     0
  9
$MENU
  1
.
  9
$ELEVATION
 40
0.0
  9
$PELEVATION
 40
0.0
  9
$THICKNESS
 40
0.0
  9
$LIMCHECK
 70
     0
  9
$CHAMFERA
 40
0.5
  9
$CHAMFERB
 40
0.5
  9
$CHAMFERC
 40
1.0
  9
$CHAMFERD
 40
0.0
  9
$SKPOLY
 70
     0
  9
$TDCREATE
 40
2457883.506636759
  9
$TDUCREATE
 40
2457883.673303426
  9
$TDUPDATE
 40
2457883.506636771
  9
$TDUUPDATE
 40
2457883.673303437
  9
$TDINDWG
 40
0.0000000116
  9
$TDUSRTIMER
 40
0.0000000116
  9
$USRTIMER
 70
     1
  9
$ANGBASE
 50
0.0
  9
$ANGDIR
 70
     0
  9
$PDMODE
 70
     0
  9
$PDSIZE
 40
0.0
  9
$PLINEWID
 40
0.0
  9
$SPLFRAME
 70
     0
  9
$SPLINETYPE
 70
     6
  9
$SPLINESEGS
 70
     8
  9
$HANDSEED
  5
B2
  9
$SURFTAB1
 70
     6
  9
$SURFTAB2
 70
     6
  9
$SURFTYPE
 70
     6
  9
$SURFU
 70
     6
  9
$SURFV
 70
     6
  9
$UCSBASE
  2

  9
$UCSNAME
  2

  9
$UCSORG
 10
0.0
 20
0.0
 30
0.0
  9
$UCSXDIR
 10
1.0
 20
0.0
 30
0.0
  9
$UCSYDIR
 10
0.0
 20
1.0
 30
0.0
  9
$UCSORTHOREF
  2

  9
$UCSORTHOVIEW
 70
     0
  9
$UCSORGTOP
 10
0.0
 20
0.0
 30
0.0
  9
$UCSORGBOTTOM
 10
0.0
 20
0.0
 30
0.0
  9
$UCSORGLEFT
 10
0.0
 20
0.0
 30
0.0
  9
$UCSORGRIGHT
 10
0.0
 20
0.0
 30
0.0
  9
$UCSORGFRONT
 10
0.0
 20
0.0
 30
0.0
  9
$UCSORGBACK
 10
0.0
 20
0.0
 30
0.0
  9
$PUCSBASE
  2

  9
$PUCSNAME
  2

  9
$PUCSORG
 10
0.0
 20
0.0
 30
0.0
  9
$PUCSXDIR
 10
1.0
 20
0.0
 30
0.0
  9
$PUCSYDIR
 10
0.0
 20
1.0
 30
0.0
  9
$PUCSORTHOREF
  2

  9
$PUCSORTHOVIEW
 70
     0
  9
$PUCSORGTOP
 10
0.0
 20
0.0
 30
0.0
  9
$PUCSORGBOTTOM
 10
0.0
 20
0.0
 30
0.0
  9
$PUCSORGLEFT
 10
0.0
 20
0.0
 30
0.0
  9
$PUCSORGRIGHT
 10
0.0
 20
0.0
 30
0.0
  9
$PUCSORGFRONT
 10
0.0
 20
0.0
 30
0.0
  9
$PUCSORGBACK
 10
0.0
 20
0.0
 30
0.0
  9
$USERI1
 70
     0
  9
$USERI2
 70
     0
  9
$USERI3
 70
     0
  9
$USERI4
 70
     0
  9
$USERI5
 70
     0
  9
$USERR1
 40
0.0
  9
$USERR2
 40
0.0
  9
$USERR3
 40
0.0
  9
$USERR4
 40
0.0
  9
$USERR5
 40
0.0
  9
$WORLDVIEW
 70
     1
  9
$SHADEDGE
 70
     3
  9
$SHADEDIF
 70
    70
  9
$TILEMODE
 70
     1
  9
$MAXACTVP
 70
    64
  9
$PINSBASE
 10
0.0
 20
0.0
 30
0.0
  9
$PLIMCHECK
 70
     0
  9
$PEXTMIN
 10
1.000000000000000E+20
 20
1.000000000000000E+20
 30
1.000000000000000E+20
  9
$PEXTMAX
 10
-1.000000000000000E+20
 20
-1.000000000000000E+20
 30
-1.000000000000000E+20
  9
$PLIMMIN
 10
0.0
 20
0.0
  9
$PLIMMAX
 10
12.0
 20
9.0
  9
$UNITMODE
 70
     0
  9
$VISRETAIN
 70
     1
  9
$PLINEGEN
 70
     0
  9
$PSLTSCALE
 70
     1
  9
$TREEDEPTH
 70
  3020
  9
$CMLSTYLE
  2
Standard
  9
$CMLJUST
 70
     0
  9
$CMLSCALE
 40
1.0
  9
$PROXYGRAPHICS
 70
     1
  9
$MEASUREMENT
 70
     0
  9
$CELWEIGHT
370
    -1
  9
$ENDCAPS
280
     0
  9
$JOINSTYLE
280
     0
  9
$LWDISPLAY
290
     0
  9
$INSUNITS
 70
     1
  9
$HYPERLINKBASE
  1

  9
$STYLESHEET
  1

  9
$XEDIT
290
     1
  9
$CEPSNTYPE
380
     0
  9
$PSTYLEMODE
290
     1
  9
$FINGERPRINTGUID
  2
{750C8741-044A-42D9-ACA3-EEA0776C4C0F}
  9
$VERSIONGUID
  2
{FAEB1C32-E019-11D5-929B-00C0DF256EC4}
  9
$EXTNAMES
290
     1
  9
$PSVPSCALE
 40
0.0
  9
$OLESTARTUP
290
     0
  9
$SORTENTS
280
   127
  9
$INDEXCTL
280
     0
  9
$HIDETEXT
280
     1
  9
$XCLIPFRAME
290
     0
  9
$HALOGAP
280
     0
  9
$OBSCOLOR
 70
   257
  9
$OBSLTYPE
280
     0
  9
$INTERSECTIONDISPLAY
280
     0
  9
$INTERSECTIONCOLOR
 70
   257
  9
$DIMASSOC
280
     2
  9
$PROJECTNAME
  1

  0
ENDSEC
  0
SECTION
  2
CLASSES
  0
CLASS
  1
ACDBDICTIONARYWDFLT
  2
AcDbDictionaryWithDefault
  3
ObjectDBX Classes
 90
        0
 91
        4
280
     0
281
     0
  0
CLASS
  1
VISUALSTYLE
  2
AcDbVisualStyle
  3
ObjectDBX Classes
 90
     4095
 91
        4
280
     0
281
     0
  0
ENDSEC
  0
SECTION
  2
TABLES
  0
TABLE
  2
VPORT
  5
8
330
0
100
AcDbSymbolTable
 70
     1
  0
VPORT
  5
29
330
8
100
AcDbSymbolTableRecord
100
AcDbViewportTableRecord
  2
*Active
 70
     0
 10
0.0
 20
0.0
 11
1.0
 21
1.0
 12
20.14489294180914
 22
37.2855441349825
 13
0.0
 23
0.0
 14
0.5
 24
0.5
 15
0.5
 25
0.5
 16
0.0
 26
0.0
 36
1.0
 17
0.0
 27
0.0
 37
0.0
 40
76.06251184269118
 41
0.9001774849646177
 42
50.0
 43
0.0
 44
0.0
 50
0.0
 51
0.0
 71
     0
 72
   100
 73
     1
 74
     3
 75
     0
 76
     0
 77
     0
 78
     0
281
     0
 65
     1
110
0.0
120
0.0
130
0.0
111
1.0
121
0.0
131
0.0
112
0.0
122
1.0
132
0.0
 79
     0
146
0.0
  0
ENDTAB
  0
TABLE
  2
LTYPE
  5
5
330
0
100
AcDbSymbolTable
 70
     1
  0
LTYPE
  5
14
330
5
100
AcDbSymbolTableRecord
100
AcDbLinetypeTableRecord
  2
ByBlock
 70
     0
  3

 72
    65
 73
     0
 40
0.0
  0
LTYPE
  5
15
330
5
100
AcDbSymbolTableRecord
100
AcDbLinetypeTableRecord
  2
ByLayer
 70
     0
  3

 72
    65
 73
     0
 40
0.0
  0
LTYPE
  5
16
330
5
100
AcDbSymbolTableRecord
100
AcDbLinetypeTableRecord
  2
Continuous
 70
     0
  3
Solid line
 72
    65
 73
     0
 40
0.0
  0
ENDTAB
  0
TABLE
  2
LAYER
  5
2
330
0
100
AcDbSymbolTable
 70
     2
  0
LAYER
  5
10
330
2
100
AcDbSymbolTableRecord
100
AcDbLayerTableRecord
  2
0
 70
     0
 62
     7
  6
Continuous
370
    -3
390
F
  0
LAYER
  5
3B
330
2
100
AcDbSymbolTableRecord
100
AcDbLayerTableRecord
  2
sled lng - arm 2d
 70
     0
 62
     7
  6
Continuous
370
    -3
390
F
  0
ENDTAB
  0
TABLE
  2
STYLE
  5
3
330
0
100
AcDbSymbolTable
 70
     1
  0
STYLE
  5
11
330
3
100
AcDbSymbolTableRecord
100
AcDbTextStyleTableRecord
  2
Standard
 70
     0
 40
0.0
 41
1.0
 50
0.0
 71
     0
 42
0.2
  3
txt
  4

  0
ENDTAB
  0
TABLE
  2
VIEW
  5
6
330
0
100
AcDbSymbolTable
 70
     0
  0
ENDTAB
  0
TABLE
  2
UCS
  5
7
330
0
100
AcDbSymbolTable
 70
     0
  0
ENDTAB
  0
TABLE
  2
APPID
  5
9
330
0
100
AcDbSymbolTable
 70
     1
  0
APPID
  5
12
330
9
100
AcDbSymbolTableRecord
100
AcDbRegAppTableRecord
  2
ACAD
 70
     0
  0
ENDTAB
  0
TABLE
  2
DIMSTYLE
  5
A
330
0
100
AcDbSymbolTable
 70
     1
100
AcDbDimStyleTable
  0
DIMSTYLE
105
27
330
A
100
AcDbSymbolTableRecord
100
AcDbDimStyleTableRecord
  2
Standard
 70
     0
340
11
  0
ENDTAB
  0
TABLE
  2
BLOCK_RECORD
  5
1
330
0
100
AcDbSymbolTable
 70
     1
  0
BLOCK_RECORD
  5
1F
330
1
100
AcDbSymbolTableRecord
100
AcDbBlockTableRecord
  2
*Model_Space
340
22
  0
BLOCK_RECORD
  5
1B
330
1
100
AcDbSymbolTableRecord
100
AcDbBlockTableRecord
  2
*Paper_Space
340
1E
  0
BLOCK_RECORD
  5
23
330
1
100
AcDbSymbolTableRecord
100
AcDbBlockTableRecord
  2
*Paper_Space0
340
26
  0
ENDTAB
  0
ENDSEC
  0
SECTION
  2
BLOCKS
  0
BLOCK
  5
20
330
1F
100
AcDbEntity
  8
0
100
AcDbBlockBegin
  2
*Model_Space
 70
     0
 10
0.0
 20
0.0
 30
0.0
  3
*Model_Space
  1

  0
ENDBLK
  5
21
330
1F
100
AcDbEntity
  8
0
100
AcDbBlockEnd
  0
BLOCK
  5
1C
330
1B
100
AcDbEntity
 67
     1
  8
0
100
AcDbBlockBegin
  2
*Paper_Space
 70
     0
 10
0.0
 20
0.0
 30
0.0
  3
*Paper_Space
  1

  0
ENDBLK
  5
1D
330
1B
100
AcDbEntity
 67
     1
  8
0
100
AcDbBlockEnd
  0
BLOCK
  5
24
330
23
100
AcDbEntity
  8
0
100
AcDbBlockBegin
  2
*Paper_Space0
 70
     0
 10
0.0
 20
0.0
 30
0.0
  3
*Paper_Space0
  1

  0
ENDBLK
  5
25
330
23
100
AcDbEntity
  8
0
100
AcDbBlockEnd
  0
ENDSEC
  0
SECTION
  2
ENTITIES
  0
SPLINE
  5
3C
330
1F
100
AcDbEntity
  8
sled lng - arm 2d
100
AcDbSpline
210
0.0
220
0.0
230
1.0
 70
    12
 71
     2
 72
     6
 73
     3
 74
     0
 42
0.0000000001
 43
0.0000000001
 40
0.0
 40
0.0
 40
0.0
 40
2.906725970563562
 40
2.906725970563562
 40
2.906725970563562
 10
3.92099224687793
 20
11.55828891555227
 30
0.0
 41
1.0
 10
5.35566444310018
 20
11.82310593688264
 30
0.0
 41
0.9943086072583335
 10
6.701663324192364
 20
12.38586643433965
 30
0.0
 41
1.0
  0
SPLINE
  5
3D
330
1F
100
AcDbEntity
  8
sled lng - arm 2d
100
AcDbSpline
210
0.0
220
0.0
230
1.0
 70
     8
 71
     3
 72
    16
 73
    12
 74
     0
 42
0.0000000001
 43
0.0000000001
 40
0.0
 40
0.0
 40
0.0
 40
0.0
 40
1.0
 40
2.0
 40
3.0
 40
4.0
 40
5.0
 40
6.0
 40
7.0
 40
8.0
 40
9.0
 40
9.0
 40
9.0
 40
9.0
 10
7.102848333523777
 20
12.56196743067649
 30
0.0
 10
7.524339911783306
 20
12.74895198490512
 30
0.0
 10
8.337003932555632
 20
13.18409806714052
 30
0.0
 10
9.481866197178089
 20
13.96997102780703
 30
0.0
 10
10.42855353985284
 20
14.98638447282039
 30
0.0
 10
11.21289689941426
 20
16.12717119705131
 30
0.0
 10
11.87301733132614
 20
17.34383719025219
 30
0.0
 10
12.40202997985375
 20
18.62250596394631
 30
0.0
 10
12.82904662948232
 20
19.93820473478608
 30
0.0
 10
13.15105033537319
 20
21.28339101500669
 30
0.0
 10
13.31528518662814
 20
22.19042862872461
 30
0.0
 10
13.38265806136315
 20
22.6462697227423
 30
0.0
  0
SPLINE
  5
3E
330
1F
100
AcDbEntity
  8
sled lng - arm 2d
100
AcDbSpline
210
0.0
220
0.0
230
1.0
 70
    12
 71
     2
 72
     6
 73
     3
 74
     0
 42
0.0000000001
 43
0.0000000001
 40
0.0
 40
0.0
 40
0.0
 40
2.906725970563562
 40
2.906725970563562
 40
2.906725970563562
 10
-3.92099224687793
 20
11.55828891555227
 30
0.0
 41
1.0
 10
-5.35566444310018
 20
11.82310593688264
 30
0.0
 41
0.9943086072583335
 10
-6.701663324192364
 20
12.38586643433965
 30
0.0
 41
1.0
  0
SPLINE
  5
3F
330
1F
100
AcDbEntity
  8
sled lng - arm 2d
100
AcDbSpline
210
0.0
220
0.0
230
1.0
 70
     8
 71
     3
 72
    16
 73
    12
 74
     0
 42
0.0000000001
 43
0.0000000001
 40
0.0
 40
0.0
 40
0.0
 40
0.0
 40
1.0
 40
2.0
 40
3.0
 40
4.0
 40
5.0
 40
6.0
 40
7.0
 40
8.0
 40
9.0
 40
9.0
 40
9.0
 40
9.0
 10
-7.102848333523777
 20
12.56196743067649
 30
0.0
 10
-7.524339911783306
 20
12.74895198490512
 30
0.0
 10
-8.337003932555632
 20
13.18409806714052
 30
0.0
 10
-9.481866197178089
 20
13.96997102780703
 30
0.0
 10
-10.42855353985284
 20
14.98638447282039
 30
0.0
 10
-11.21289689941426
 20
16.12717119705131
 30
0.0
 10
-11.87301733132614
 20
17.34383719025219
 30
0.0
 10
-12.40202997985375
 20
18.62250596394631
 30
0.0
 10
-12.82904662948232
 20
19.93820473478608
 30
0.0
 10
-13.15105033537319
 20
21.28339101500669
 30
0.0
 10
-13.31528518662814
 20
22.19042862872461
 30
0.0
 10
-13.38265806136315
 20
22.6462697227423
 30
0.0
  0
SPLINE
  5
40
330
1F
100
AcDbEntity
  8
sled lng - arm 2d
100
AcDbSpline
210
0.0
220
0.0
230
1.0
 70
     8
 71
     3
 72
    34
 73
    30
 74
     0
 42
0.0000000001
 43
0.0000000001
 40
0.0
 40
0.0
 40
0.0
 40
0.0
 40
1.0
 40
2.0
 40
3.0
 40
4.0
 40
5.0
 40
6.0
 40
7.0
 40
8.0
 40
9.0
 40
10.0
 40
11.0
 40
12.0
 40
13.0
 40
14.0
 40
15.0
 40
16.0
 40
17.0
 40
18.0
 40
19.0
 40
20.0
 40
21.0
 40
22.0
 40
23.0
 40
24.0
 40
25.0
 40
26.0
 40
27.0
 40
27.0
 40
27.0
 40
27.0
 10
12.74207541394065
 20
20.8092628602898
 30
0.0
 10
12.80281441516846
 20
20.99382113771162
 30
0.0
 10
12.84466203605097
 20
21.51884558347664
 30
0.0
 10
12.13948170402508
 20
21.68202813294831
 30
0.0
 10
11.5253727546009
 20
21.63112603992076
 30
0.0
 10
10.98503527302017
 20
21.2725207819149
 30
0.0
 10
10.60052263910816
 20
20.77533057406152
 30
0.0
 10
10.31245004633881
 20
20.21736907951323
 30
0.0
 10
10.08663335652583
 20
19.63304006020146
 30
0.0
 10
9.8932776903251
 20
19.03718171848376
 30
0.0
 10
9.70922152574778
 20
18.43989216146947
 30
0.0
 10
9.569024815454627
 20
17.82392240003794
 30
0.0
 10
9.214553467611681
 20
17.29861965245133
 30
0.0
 10
8.851406526213815
 20
16.79049889757547
 30
0.0
 10
8.422172215513031
 20
16.33180233885451
 30
0.0
 10
7.935439553034843
 20
15.9353489543548
 30
0.0
 10
7.388984796314543
 20
15.62584982818105
 30
0.0
 10
6.8198549406748
 20
15.36404748544373
 30
0.0
 10
6.22169676122483
 20
15.17530519645865
 30
0.0
 10
5.612677881287417
 20
15.02941137906732
 30
0.0
 10
4.995848033465969
 20
14.9206093713861
 30
0.0
 10
4.375351247412755
 20
14.83651213935211
 30
0.0
 10
3.752564722624417
 20
14.77154712585045
 30
0.0
 10
3.12835946771983
 20
14.7224124642826
 30
0.0
 10
2.503359123649757
 20
14.68499769317506
 30
0.0
 10
1.877906565318199
 20
14.65624538694481
 30
0.0
 10
1.25211047711376
 20
14.63627243399734
 30
0.0
 10
0.6261027943343335
 20
14.62477045859879
 30
0.0
 10
0.2086999611391581
 20
14.62261912923755
 30
0.0
 10
-0.0000009973121955
 20
14.62288376930472
 30
0.0
  0
SPLINE
  5
41
330
1F
100
AcDbEntity
  8
sled lng - arm 2d
100
AcDbSpline
210
0.0
220
0.0
230
1.0
 70
     8
 71
     3
 72
    34
 73
    30
 74
     0
 42
0.0000000001
 43
0.0000000001
 40
-27.0
 40
-27.0
 40
-27.0
 40
-27.0
 40
-26.0
 40
-25.0
 40
-24.0
 40
-23.0
 40
-22.0
 40
-21.0
 40
-20.0
 40
-19.0
 40
-18.0
 40
-17.0
 40
-16.0
 40
-15.0
 40
-14.0
 40
-13.0
 40
-12.0
 40
-11.0
 40
-10.0
 40
-9.0
 40
-8.0
 40
-7.0
 40
-6.0
 40
-5.0
 40
-4.0
 40
-3.0
 40
-2.0
 40
-1.0
 40
0.0
 40
0.0
 40
0.0
 40
0.0
 10
-0.0000009973121955
 20
14.62288376930472
 30
0.0
 10
-0.2087019557635491
 20
14.62261912923755
 30
0.0
 10
-0.6261047889587245
 20
14.62477045859879
 30
0.0
 10
-1.252112471738151
 20
14.63627243399734
 30
0.0
 10
-1.87790855994259
 20
14.65624538694481
 30
0.0
 10
-2.503361118274148
 20
14.68499769317506
 30
0.0
 10
-3.128361462344221
 20
14.7224124642826
 30
0.0
 10
-3.752566717248808
 20
14.77154712585045
 30
0.0
 10
-4.375353242037146
 20
14.83651213935211
 30
0.0
 10
-4.99585002809036
 20
14.9206093713861
 30
0.0
 10
-5.612679875911808
 20
15.02941137906732
 30
0.0
 10
-6.22169875584922
 20
15.17530519645865
 30
0.0
 10
-6.819856935299191
 20
15.36404748544373
 30
0.0
 10
-7.388986790938934
 20
15.62584982818105
 30
0.0
 10
-7.935441547659234
 20
15.9353489543548
 30
0.0
 10
-8.422174210137422
 20
16.33180233885451
 30
0.0
 10
-8.851408520838206
 20
16.79049889757547
 30
0.0
 10
-9.214555462236072
 20
17.29861965245133
 30
0.0
 10
-9.569026810079018
 20
17.82392240003794
 30
0.0
 10
-9.709223520372172
 20
18.43989216146947
 30
0.0
 10
-9.89327968494949
 20
19.03718171848376
 30
0.0
 10
-10.08663535115022
 20
19.63304006020146
 30
0.0
 10
-10.3124520409632
 20
20.21736907951323
 30
0.0
 10
-10.60052463373255
 20
20.77533057406152
 30
0.0
 10
-10.98503726764456
 20
21.2725207819149
 30
0.0
 10
-11.52537474922529
 20
21.63112603992076
 30
0.0
 10
-12.13948369864947
 20
21.68202813294831
 30
0.0
 10
-12.84466403067536
 20
21.51884558347664
 30
0.0
 10
-12.80281640979286
 20
20.99382113771162
 30
0.0
 10
-12.74207740856504
 20
20.8092628602898
 30
0.0
  0
SPLINE
  5
42
330
1F
100
AcDbEntity
  8
sled lng - arm 2d
100
AcDbSpline
210
0.0
220
0.0
230
1.0
 70
     8
 71
     3
 72
    59
 73
    55
 74
     0
 42
0.0000000001
 43
0.0000000001
 40
0.0
 40
0.0
 40
0.0
 40
0.0
 40
1.0
 40
2.0
 40
3.0
 40
4.0
 40
5.0
 40
6.0
 40
7.0
 40
8.0
 40
9.0
 40
10.0
 40
11.0
 40
12.0
 40
13.0
 40
14.0
 40
15.0
 40
16.0
 40
17.0
 40
18.0
 40
19.0
 40
20.0
 40
21.0
 40
22.0
 40
23.0
 40
24.0
 40
25.0
 40
26.0
 40
27.0
 40
28.0
 40
29.0
 40
30.0
 40
31.0
 40
32.0
 40
33.0
 40
34.0
 40
35.0
 40
36.0
 40
37.0
 40
38.0
 40
39.0
 40
40.0
 40
41.0
 40
42.0
 40
43.0
 40
44.0
 40
45.0
 40
46.0
 40
47.0
 40
48.0
 40
49.0
 40
50.0
 40
51.0
 40
52.0
 40
52.0
 40
52.0
 40
52.0
 10
-0.0000009973121795
 20
13.60971683824645
 30
0.0
 10
0.2238524413123322
 20
13.60907201858537
 30
0.0
 10
0.6715635143225365
 20
13.61292330555779
 30
0.0
 10
1.342923397094933
 20
13.62995323884756
 30
0.0
 10
2.014041533467477
 20
13.65467843444684
 30
0.0
 10
2.684699144805482
 20
13.69004443940092
 30
0.0
 10
3.354538560581993
 20
13.73858302824228
 30
0.0
 10
4.023138491135441
 20
13.8021216585514
 30
0.0
 10
4.689898076325663
 20
13.8827132199876
 30
0.0
 10
5.35424770397039
 20
13.98146032278928
 30
0.0
 10
6.014184475190591
 20
14.1069325058532
 30
0.0
 10
6.66614960489646
 20
14.26930056705047
 30
0.0
 10
7.305127099505341
 20
14.47790432584374
 30
0.0
 10
7.921401402697573
 20
14.74693321162616
 30
0.0
 10
8.505982662208597
 20
15.07949193781752
 30
0.0
 10
9.047076653098182
 20
15.47958465744575
 30
0.0
 10
9.536746600113208
 20
15.940100915456
 30
0.0
 10
10.00115481518851
 20
16.42564148940836
 30
0.0
 10
10.41917823335968
 20
16.9520182409587
 30
0.0
 10
10.80866132044285
 20
17.49917905090469
 30
0.0
 10
11.18131182984151
 20
18.05793366105009
 30
0.0
 10
11.54183109683783
 20
18.62455612970455
 30
0.0
 10
11.89346736879895
 20
19.19669961452967
 30
0.0
 10
12.23192777470618
 20
19.77690595085408
 30
0.0
 10
12.53989691505125
 20
20.3738656130385
 30
0.0
 10
12.82531204764693
 20
20.98208779176252
 30
0.0
 10
13.08013451672877
 20
21.60297884863648
 30
0.0
 10
13.29469217063368
 20
22.24261258254482
 30
0.0
 10
13.45618855734472
 20
22.88456134824227
 30
0.0
 10
13.38073535507029
 20
23.62332601640873
 30
0.0
 10
12.70856744740221
 20
23.87586294446986
 30
0.0
 10
12.03304813132461
 20
23.91726653841799
 30
0.0
 10
11.49213387999899
 20
24.36150582977191
 30
0.0
 10
11.0696613532199
 20
24.87754335783378
 30
0.0
 10
10.71422888486233
 20
25.45000925570157
 30
0.0
 10
10.40144750600436
 20
26.0441988521244
 30
0.0
 10
10.11539584983698
 20
26.65202496759125
 30
0.0
 10
9.844405178491469
 20
27.26612302390032
 30
0.0
 10
9.583522558709657
 20
27.88644833249113
 30
0.0
 10
9.19011041261421
 20
28.43904842337878
 30
0.0
 10
8.658643781815847
 20
28.85833612843539
 30
0.0
 10
8.047356778336322
 20
29.14642824035826
 30
0.0
 10
7.386804714538357
 20
29.28757327919548
 30
0.0
 10
6.713854144038154
 20
29.3070657203905
 30
0.0
 10
6.043626828307564
 20
29.26469769900032
 30
0.0
 10
5.372243639075025
 20
29.24645201831407
 30
0.0
 10
4.700819301283737
 20
29.23340794557189
 30
0.0
 10
4.029280823573922
 20
29.22690592180076
 30
0.0
 10
3.357737769968976
 20
29.22237144790888
 30
0.0
 10
2.686188998115912
 20
29.21814584131893
 30
0.0
 10
2.014640121194449
 20
29.21428016280402
 30
0.0
 10
1.343091140146903
 20
29.21041260801412
 30
0.0
 10
0.6715424477902628
 20
29.20629208836374
 30
0.0
 10
0.2238467514854338
 20
29.20318904040013
 30
0.0
 10
-0.0000009973121955
 20
29.20150321228116
 30
0.0
  0
SPLINE
  5
43
330
1F
100
AcDbEntity
  8
sled lng - arm 2d
100
AcDbSpline
210
0.0
220
0.0
230
1.0
 70
     8
 71
     3
 72
    59
 73
    55
 74
     0
 42
0.0000000001
 43
0.0000000001
 40
-52.0
 40
-52.0
 40
-52.0
 40
-52.0
 40
-51.0
 40
-50.0
 40
-49.0
 40
-48.0
 40
-47.0
 40
-46.0
 40
-45.0
 40
-44.0
 40
-43.0
 40
-42.0
 40
-41.0
 40
-40.0
 40
-39.0
 40
-38.0
 40
-37.0
 40
-36.0
 40
-35.0
 40
-34.0
 40
-33.0
 40
-32.0
 40
-31.0
 40
-30.0
 40
-29.0
 40
-28.0
 40
-27.0
 40
-26.0
 40
-25.0
 40
-24.0
 40
-23.0
 40
-22.0
 40
-21.0
 40
-20.0
 40
-19.0
 40
-18.0
 40
-17.0
 40
-16.0
 40
-15.0
 40
-14.0
 40
-13.0
 40
-12.0
 40
-11.0
 40
-10.0
 40
-9.0
 40
-8.0
 40
-7.0
 40
-6.0
 40
-5.0
 40
-4.0
 40
-3.0
 40
-2.0
 40
-1.0
 40
0.0
 40
0.0
 40
0.0
 40
0.0
 10
-0.0000009973121955
 20
29.20150321228116
 30
0.0
 10
-0.2238487461098248
 20
29.20318904040013
 30
0.0
 10
-0.6715444424146538
 20
29.20629208836374
 30
0.0
 10
-1.343093134771294
 20
29.21041260801412
 30
0.0
 10
-2.01464211581884
 20
29.21428016280402
 30
0.0
 10
-2.686190992740303
 20
29.21814584131893
 30
0.0
 10
-3.357739764593367
 20
29.22237144790888
 30
0.0
 10
-4.029282818198313
 20
29.22690592180076
 30
0.0
 10
-4.700821295908128
 20
29.23340794557189
 30
0.0
 10
-5.372245633699416
 20
29.24645201831407
 30
0.0
 10
-6.043628822931955
 20
29.26469769900032
 30
0.0
 10
-6.713856138662545
 20
29.3070657203905
 30
0.0
 10
-7.386806709162748
 20
29.28757327919548
 30
0.0
 10
-8.047358772960713
 20
29.14642824035826
 30
0.0
 10
-8.658645776440238
 20
28.85833612843539
 30
0.0
 10
-9.190112407238601
 20
28.43904842337878
 30
0.0
 10
-9.583524553334048
 20
27.88644833249113
 30
0.0
 10
-9.84440717311586
 20
27.26612302390032
 30
0.0
 10
-10.11539784446137
 20
26.65202496759125
 30
0.0
 10
-10.40144950062875
 20
26.0441988521244
 30
0.0
 10
-10.71423087948672
 20
25.45000925570157
 30
0.0
 10
-11.06966334784429
 20
24.87754335783378
 30
0.0
 10
-11.49213587462338
 20
24.36150582977191
 30
0.0
 10
-12.033050125949
 20
23.91726653841799
 30
0.0
 10
-12.7085694420266
 20
23.87586294446986
 30
0.0
 10
-13.38073734969468
 20
23.62332601640873
 30
0.0
 10
-13.45619055196911
 20
22.88456134824227
 30
0.0
 10
-13.29469416525808
 20
22.24261258254482
 30
0.0
 10
-13.08013651135316
 20
21.60297884863648
 30
0.0
 10
-12.82531404227132
 20
20.98208779176252
 30
0.0
 10
-12.53989890967564
 20
20.3738656130385
 30
0.0
 10
-12.23192976933057
 20
19.77690595085408
 30
0.0
 10
-11.89346936342334
 20
19.19669961452967
 30
0.0
 10
-11.54183309146222
 20
18.62455612970455
 30
0.0
 10
-11.1813138244659
 20
18.05793366105009
 30
0.0
 10
-10.80866331506724
 20
17.49917905090469
 30
0.0
 10
-10.41918022798407
 20
16.9520182409587
 30
0.0
 10
-10.0011568098129
 20
16.42564148940836
 30
0.0
 10
-9.536748594737599
 20
15.940100915456
 30
0.0
 10
-9.047078647722573
 20
15.47958465744575
 30
0.0
 10
-8.505984656832988
 20
15.07949193781752
 30
0.0
 10
-7.921403397321964
 20
14.74693321162616
 30
0.0
 10
-7.305129094129732
 20
14.47790432584374
 30
0.0
 10
-6.666151599520851
 20
14.26930056705047
 30
0.0
 10
-6.014186469814982
 20
14.1069325058532
 30
0.0
 10
-5.354249698594781
 20
13.98146032278928
 30
0.0
 10
-4.689900070950054
 20
13.8827132199876
 30
0.0
 10
-4.023140485759832
 20
13.8021216585514
 30
0.0
 10
-3.354540555206384
 20
13.73858302824228
 30
0.0
 10
-2.684701139429873
 20
13.69004443940092
 30
0.0
 10
-2.014043528091868
 20
13.65467843444684
 30
0.0
 10
-1.342925391719324
 20
13.62995323884756
 30
0.0
 10
-0.6715655089469275
 20
13.61292330555779
 30
0.0
 10
-0.2238544359367232
 20
13.60907201858537
 30
0.0
 10
-0.0000009973121795
 20
13.60971683824645
 30
0.0
  0
SPLINE
  5
44
330
1F
100
AcDbEntity
  8
sled lng - arm 2d
100
AcDbSpline
210
0.0
220
0.0
230
1.0
 70
     8
 71
     3
 72
    16
 73
    12
 74
     0
 42
0.0000000001
 43
0.0000000001
 40
-9.0
 40
-9.0
 40
-9.0
 40
-9.0
 40
-8.0
 40
-7.0
 40
-6.0
 40
-5.0
 40
-4.0
 40
-3.0
 40
-2.0
 40
-1.0
 40
0.0
 40
0.0
 40
0.0
 40
0.0
 10
-8.180487820507633
 20
16.14039333804202
 30
0.0
 10
-7.928142795588093
 20
16.32276951792379
 30
0.0
 10
-7.323265217655113
 20
16.45257590472834
 30
0.0
 10
-6.414740752834341
 20
16.55949448857628
 30
0.0
 10
-5.49895173924339
 20
16.61703977743829
 30
0.0
 10
-4.583263130944016
 20
16.65754086274614
 30
0.0
 10
-3.666811496338006
 20
16.6842013866425
 30
0.0
 10
-2.750230913221677
 20
16.70212327854223
 30
0.0
 10
-1.833515638843785
 20
16.71255183814985
 30
0.0
 10
-0.916764754569986
 20
16.71764269638931
 30
0.0
 10
-0.3055887000791643
 20
16.71875037780783
 30
0.0
 10
-0.0000009973121955
 20
16.71906351180763
 30
0.0
  0
SPLINE
  5
45
330
1F
100
AcDbEntity
  8
sled lng - arm 2d
100
AcDbSpline
210
0.0
220
0.0
230
1.0
 70
     8
 71
     3
 72
    16
 73
    12
 74
     0
 42
0.0000000001
 43
0.0000000001
 40
0.0
 40
0.0
 40
0.0
 40
0.0
 40
1.0
 40
2.0
 40
3.0
 40
4.0
 40
5.0
 40
6.0
 40
7.0
 40
8.0
 40
9.0
 40
9.0
 40
9.0
 40
9.0
 10
-0.0000009973121955
 20
16.71906351180763
 30
0.0
 10
0.3055867054547733
 20
16.71875037780783
 30
0.0
 10
0.916762759945595
 20
16.71764269638931
 30
0.0
 10
1.833513644219394
 20
16.71255183814985
 30
0.0
 10
2.750228918597286
 20
16.70212327854223
 30
0.0
 10
3.666809501713615
 20
16.6842013866425
 30
0.0
 10
4.583261136319625
 20
16.65754086274614
 30
0.0
 10
5.498949744618999
 20
16.61703977743829
 30
0.0
 10
6.41473875820995
 20
16.55949448857628
 30
0.0
 10
7.323263223030722
 20
16.45257590472834
 30
0.0
 10
7.928140800963702
 20
16.32276951792379
 30
0.0
 10
8.180485825883242
 20
16.14039333804202
 30
0.0
  0
SPLINE
  5
46
330
1F
100
AcDbEntity
  8
sled lng - arm 2d
 62
     7
100
AcDbSpline
210
0.0
220
0.0
230
1.0
 70
     8
 71
     3
 72
    13
 73
     9
 74
     0
 42
0.0000000001
 43
0.0000000001
 40
0.0
 40
0.0
 40
0.0
 40
0.0
 40
0.221081552131047
 40
0.4532204846550357
 40
0.9832619185522135
 40
1.5024722513687
 40
1.989612707728416
 40
3.885149291570795
 40
3.885149291570795
 40
3.885149291570795
 40
3.885149291570795
 10
53.06424078381308
 20
14.72964930887191
 30
0.0
 10
53.1123920881002
 20
14.78533242417964
 30
0.0
 10
53.1962926777256
 20
14.9128090063713
 30
0.0
 10
53.2959810759198
 20
15.22794849248869
 30
0.0
 10
53.2882962588393
 20
15.66307495201712
 30
0.0
 10
53.09753457460399
 20
16.1472885871174
 30
0.0
 10
52.40155962076077
 20
16.85244136671804
 30
0.0
 10
51.36371027630491
 20
16.70090933517902
 30
0.0
 10
51.00012421279135
 20
16.67094174976041
 30
0.0
  0
SPLINE
  5
47
330
1F
100
AcDbEntity
  8
sled lng - arm 2d
 62
     7
100
AcDbSpline
210
0.0
220
0.0
230
1.0
 70
     8
 71
     3
 72
     9
 73
     5
 74
     0
 42
0.0000000001
 43
0.0000000001
 40
6.475946348718082
 40
6.475946348718082
 40
6.475946348718082
 40
6.475946348718082
 40
7.0
 40
7.224128929954908
 40
7.224128929954908
 40
7.224128929954908
 40
7.224128929954908
 10
36.4474409719109
 20
11.71804149356768
 30
0.0
 10
36.96584262925262
 20
11.5473138282959
 30
0.0
 10
37.72756972310102
 20
11.37013709086458
 30
0.0
 10
38.50024609636474
 20
11.28933062847712
 30
0.0
 10
38.73239881413866
 20
11.27228680840855
 30
0.0
  0
SPLINE
  5
48
330
1F
100
AcDbEntity
  8
sled lng - arm 2d
 62
     7
100
AcDbSpline
210
0.0
220
0.0
230
1.0
 70
     8
 71
     3
 72
     8
 73
     4
 74
     0
 42
0.0000000001
 43
0.0000000001
 40
8.032801778778932
 40
8.032801778778932
 40
8.032801778778932
 40
8.032801778778932
 40
8.671973278171421
 40
8.671973278171421
 40
8.671973278171421
 40
8.671973278171421
 10
41.25815804751625
 20
11.29778718768234
 30
0.0
 10
41.92335882827169
 20
11.34152310129845
 30
0.0
 10
42.58587579446277
 20
11.40139881498847
 30
0.0
 10
43.24717417671115
 20
11.471562302146
 30
0.0
  0
SPLINE
  5
49
330
1F
100
AcDbEntity
  8
sled lng - arm 2d
 62
     7
100
AcDbSpline
210
0.0
220
0.0
230
1.0
 70
     8
 71
     3
 72
     9
 73
     5
 74
     0
 42
0.0000000001
 43
0.0000000001
 40
9.658498815705642
 40
9.658498815705642
 40
9.658498815705642
 40
9.658498815705642
 40
10.0
 40
10.53126345920865
 40
10.53126345920865
 40
10.53126345920865
 40
10.53126345920865
 10
46.30329110758747
 20
11.85727774277977
 30
0.0
 10
46.65512474652672
 20
11.90886294305161
 30
0.0
 10
47.55327423209452
 20
12.0476821894605
 30
0.0
 10
48.44791036249836
 20
12.20656487392398
 30
0.0
 10
48.9903673214111
 20
12.3141069809999
 30
0.0
  0
SPLINE
  5
4A
330
1F
100
AcDbEntity
  8
sled lng - arm 2d
 62
     7
100
AcDbSpline
210
0.0
220
0.0
230
1.0
 70
     8
 71
     3
 72
     9
 73
     5
 74
     0
 42
0.0000000001
 43
0.0000000001
 40
10.67587064785152
 40
10.67587064785152
 40
10.67587064785152
 40
10.67587064785152
 40
11.0
 40
12.0
 40
12.0
 40
12.0
 40
12.0
 10
49.43284162221875
 20
12.40439942021645
 30
0.0
 10
49.7630591408055
 20
12.47376181589019
 30
0.0
 10
51.10849742986632
 20
12.77499078547168
 30
0.0
 10
52.43628189517327
 20
13.16208767341906
 30
0.0
 10
53.38338851755677
 20
13.5992953865211
 30
0.0
  0
SPLINE
  5
4B
330
1F
100
AcDbEntity
  8
sled lng - arm 2d
 62
     7
100
AcDbSpline
210
0.0
220
0.0
230
1.0
 70
     8
 71
     3
 72
    10
 73
     6
 74
     0
 42
0.0000000001
 43
0.0000000001
 40
0.0
 40
0.0
 40
0.0
 40
0.0
 40
1.0
 40
2.0
 40
3.0
 40
3.0
 40
3.0
 40
3.0
 10
53.38338851755677
 20
13.5992953865211
 30
0.0
 10
53.48316533634351
 20
13.64716814924166
 30
0.0
 10
53.66594147925485
 20
13.79360448818992
 30
0.0
 10
53.74819134423434
 20
14.13874554910156
 30
0.0
 10
53.62640339164857
 20
14.34569734090887
 30
0.0
 10
53.54375896425599
 20
14.41922022766979
 30
0.0
  0
SPLINE
  5
4C
330
1F
100
AcDbEntity
  8
sled lng - arm 2d
 62
     7
100
AcDbSpline
210
0.0
220
0.0
230
1.0
 70
     8
 71
     3
 72
    34
 73
    30
 74
     0
 42
0.0000000001
 43
0.0000000001
 40
-27.0
 40
-27.0
 40
-27.0
 40
-27.0
 40
-26.0
 40
-25.0
 40
-24.0
 40
-23.0
 40
-22.0
 40
-21.0
 40
-20.0
 40
-19.0
 40
-18.0
 40
-17.0
 40
-16.0
 40
-15.0
 40
-14.0
 40
-13.0
 40
-12.0
 40
-11.0
 40
-10.0
 40
-9.0
 40
-8.0
 40
-7.0
 40
-6.0
 40
-5.0
 40
-4.0
 40
-3.0
 40
-2.0
 40
-1.0
 40
0.0
 40
0.0
 40
0.0
 40
0.0
 10
53.54375896425599
 20
14.41922022766979
 30
0.0
 10
53.22784224660526
 20
14.64489455298816
 30
0.0
 10
52.55070142400707
 20
15.03929533758084
 30
0.0
 10
51.71487380782398
 20
15.8631899980819
 30
0.0
 10
50.94014673981714
 20
16.73554905760054
 30
0.0
 10
50.18343737493781
 20
17.62560274992347
 30
0.0
 10
49.39074740521325
 20
18.48359617210854
 30
0.0
 10
48.57224781414467
 20
19.31693335474541
 30
0.0
 10
47.71298912344167
 20
20.10864515326055
 30
0.0
 10
46.81473058619225
 20
20.85546976634712
 30
0.0
 10
45.87483436013959
 20
21.54977115800309
 30
0.0
 10
44.8938737894949
 20
22.18494922298626
 30
0.0
 10
43.85846760979916
 20
22.7279039243601
 30
0.0
 10
42.7828125368134
 20
23.18565702631966
 30
0.0
 10
41.66321731228342
 20
23.52584660327463
 30
0.0
 10
40.51065799136978
 20
23.72637581973936
 30
0.0
 10
39.34491004666298
 20
23.80991160283808
 30
0.0
 10
38.17757338400175
 20
23.84231437011036
 30
0.0
 10
37.0092347022721
 20
23.86007479847082
 30
0.0
 10
35.844654385654
 20
23.93001142059825
 30
0.0
 10
34.68496286296901
 20
24.13715135150966
 30
0.0
 10
33.63537595740524
 20
24.66884887025191
 30
0.0
 10
32.70370162344251
 20
25.38173040195601
 30
0.0
 10
31.93331191096485
 20
26.2623323470205
 30
0.0
 10
31.22201240884815
 20
27.18922336602335
 30
0.0
 10
30.52492961194806
 20
28.12412815715812
 30
0.0
 10
29.69495530958005
 20
28.96535586294438
 30
0.0
 10
28.59241772104704
 20
29.42791549332254
 30
0.0
 10
27.79819360272984
 20
29.2203081382916
 30
0.0
 10
27.41849225246811
 20
29.16115915163539
 30
0.0
  0
SPLINE
  5
4D
330
1F
100
AcDbEntity
  8
sled lng - arm 2d
 62
     7
100
AcDbSpline
210
0.0
220
0.0
230
1.0
 70
     8
 71
     3
 72
     8
 73
     4
 74
     0
 42
0.0000000001
 43
0.0000000001
 40
0.0
 40
0.0
 40
0.0
 40
0.0
 40
1.0
 40
1.0
 40
1.0
 40
1.0
 10
27.41849225246811
 20
29.16115915163539
 30
0.0
 10
27.14725496323256
 20
29.11890644226103
 30
0.0
 10
27.03994280758737
 20
28.93149884202318
 30
0.0
 10
27.072257884147
 20
28.64831730253042
 30
0.0
  0
SPLINE
  5
4E
330
1F
100
AcDbEntity
  8
sled lng - arm 2d
 62
     7
100
AcDbSpline
210
0.0
220
0.0
230
1.0
 70
     8
 71
     3
 72
    14
 73
    10
 74
     0
 42
0.0000000001
 43
0.0000000001
 40
0.0
 40
0.0
 40
0.0
 40
0.0
 40
1.0
 40
2.0
 40
3.0
 40
4.0
 40
5.0
 40
6.0
 40
6.332592997867835
 40
6.332592997867835
 40
6.332592997867835
 40
6.332592997867835
 10
27.072257884147
 20
28.64831730253042
 30
0.0
 10
27.19043510716601
 20
27.61271375426874
 30
0.0
 10
27.6609609647527
 20
25.58067748511547
 30
0.0
 10
28.57335888674526
 20
22.59287058977219
 30
0.0
 10
29.63550223717751
 20
19.65529189466476
 30
0.0
 10
30.82571484322798
 20
16.76465019253641
 30
0.0
 10
32.49052242913613
 20
14.09242842542802
 30
0.0
 10
34.4357746352913
 20
12.56695021243601
 30
0.0
 10
35.70233200716908
 20
11.9931128570874
 30
0.0
 10
36.02561757935078
 20
11.86860125503017
 30
0.0
  0
SPLINE
  5
4F
330
1F
100
AcDbEntity
  8
sled lng - arm 2d
100
AcDbSpline
210
0.0
220
0.0
230
1.0
 70
    24
 71
     3
 72
     8
 73
     4
 74
     0
 42
0.0000000001
 43
0.0000000001
 40
-6.510203413740075
 40
-6.510203413740075
 40
-6.510203413740075
 40
-6.510203413740075
 40
-5.133188463563241
 40
-5.133188463563241
 40
-5.133188463563241
 40
-5.133188463563241
 10
49.45415790268134
 20
0.1510000002812479
 30
0.0
 10
45.98938197320219
 20
0.1510000002241486
 30
0.0
 10
43.53855128152529
 20
0.151000000178634
 30
0.0
 10
41.8436622526213
 20
0.1510000000711877
 30
0.0
  0
SPLINE
  5
50
330
1F
100
AcDbEntity
  8
sled lng - arm 2d
100
AcDbSpline
210
0.0
220
0.0
230
1.0
 70
    12
 71
     2
 72
    12
 73
     9
 74
     0
 42
0.0000000001
 43
0.0000000001
 40
-0.6880414423441226
 40
-0.6880414423441226
 40
-0.6880414423441226
 40
-0.5160310817580919
 40
-0.5160310817580919
 40
-0.3440207211720613
 40
-0.3440207211720613
 40
-0.1720103605860306
 40
-0.1720103605860306
 40
0.0
 40
0.0
 40
0.0
 10
41.8436622526213
 20
0.1510000000711877
 30
0.0
 41
1.0
 10
41.75294470105781
 20
0.150993079795619
 30
0.0
 41
0.9238724008752841
 10
41.68879520252884
 20
0.2151375733086316
 30
0.0
 41
1.0
 10
41.62464570399984
 20
0.2792820668216442
 30
0.0
 41
0.9238724008752841
 10
41.62464554604278
 20
0.3699996186489329
 30
0.0
 41
1.0
 10
41.62464538808571
 20
0.4607171704762215
 30
0.0
 41
0.9238724008752841
 10
41.688794663238
 20
0.524861887382588
 30
0.0
 41
1.0
 10
41.75294393839027
 20
0.5890066042889545
 30
0.0
 41
0.9238724008752841
 10
41.84366148997731
 20
0.5890000000694138
 30
0.0
 41
1.0
  0
SPLINE
  5
51
330
1F
100
AcDbEntity
  8
sled lng - arm 2d
100
AcDbSpline
210
0.0
220
0.0
230
1.0
 70
     8
 71
     3
 72
     8
 73
     4
 74
     0
 42
0.0000000001
 43
0.0000000001
 40
6.043369021572395
 40
6.043369021572395
 40
6.043369021572395
 40
6.043369021572395
 40
7.673721745918916
 40
7.673721745918916
 40
7.673721745918916
 40
7.673721745918916
 10
41.84366148997731
 20
0.5890000000694138
 30
0.0
 10
43.8551793864177
 20
0.5890000001822302
 30
0.0
 10
46.92475775676095
 20
0.5890000002369511
 30
0.0
 10
51.47821994914266
 20
0.5889986875258573
 30
0.0
  0
SPLINE
  5
52
330
1F
100
AcDbEntity
  8
sled lng - arm 2d
100
AcDbSpline
210
0.0
220
0.0
230
1.0
 70
     8
 71
     3
 72
    12
 73
     8
 74
     0
 42
0.0000000001
 43
0.0000000001
 40
-1.464171962113743
 40
-1.464171962113743
 40
-1.464171962113743
 40
-1.464171962113743
 40
-1.158426102045908
 40
-0.8157997105717723
 40
-0.4309312568666824
 40
-0.2260283211312448
 40
0.0
 40
0.0
 40
0.0
 40
0.0
 10
51.47821994914266
 20
0.5889986875258573
 30
0.0
 10
51.58032006635056
 20
0.5875403386277275
 30
0.0
 10
51.79487564801606
 20
0.6636820988369342
 30
0.0
 10
52.00368710340001
 20
0.9528440396268073
 30
0.0
 10
52.06436576543436
 20
1.262418304922938
 30
0.0
 10
52.05195133164806
 20
1.534845644192946
 30
0.0
 10
52.02215272409349
 20
1.675897822024263
 30
0.0
 10
52.00059614989655
 20
1.753027459493496
 30
0.0
  0
SPLINE
  5
53
330
1F
100
AcDbEntity
  8
sled lng - arm 2d
100
AcDbSpline
210
0.0
220
0.0
230
1.0
 70
    24
 71
     2
 72
     6
 73
     3
 74
     0
 42
0.0000000001
 43
0.0000000001
 40
-10.61541081785377
 40
-10.61541081785377
 40
-10.61541081785377
 40
0.0
 40
0.0
 40
0.0
 10
52.00059614989655
 20
1.753027459493496
 30
0.0
 10
50.55921946659508
 20
6.86376360899078
 30
0.0
 10
49.11784278329361
 20
11.97449975848807
 30
0.0
  0
SPLINE
  5
54
330
1F
100
AcDbEntity
  8
sled lng - arm 2d
100
AcDbSpline
210
0.0
220
0.0
230
1.0
 70
     8
 71
     3
 72
     8
 73
     4
 74
     0
 42
0.0000000001
 43
0.0000000001
 40
0.0
 40
0.0
 40
0.0
 40
0.0
 40
1.0
 40
1.0
 40
1.0
 40
1.0
 10
49.11784278329361
 20
11.97449975848807
 30
0.0
 10
48.97296350520995
 20
12.48820292324252
 30
0.0
 10
48.73057533855373
 20
12.79364977352129
 30
0.0
 10
48.29019077506292
 20
12.59720936562509
 30
0.0
  0
SPLINE
  5
55
330
1F
100
AcDbEntity
  8
sled lng - arm 2d
100
AcDbSpline
210
0.0
220
0.0
230
1.0
 70
    12
 71
     3
 72
    13
 73
     9
 74
     0
 42
0.0000000001
 43
0.0000000001
 40
-5.695865940744944
 40
-5.695865940744944
 40
-5.695865940744944
 40
-5.695865940744944
 40
-2.641953105665184
 40
-1.761301962729088
 40
-1.761301962729088
 40
-0.2201627194196982
 40
-0.2201627194196982
 40
-0.001696238080245
 40
-0.001696238080245
 40
-0.001696238080245
 40
-0.001696238080245
 10
48.29019077506292
 20
12.59720936562509
 30
0.0
 41
1.0
 10
47.51939216041922
 20
12.25338261323805
 30
0.0
 41
1.0
 10
46.50380757510513
 20
11.88960540035235
 30
0.0
 41
1.0
 10
45.46954475908102
 20
11.62721943622047
 30
0.0
 41
1.0
 10
44.83000835912377
 20
11.4825359986561
 30
0.0
 41
1.0
 10
44.42022448559766
 20
11.40890678591358
 30
0.0
 41
1.0
 10
43.94923029860242
 20
11.35269239449546
 30
0.0
 41
1.0
 10
43.89074748189056
 20
11.34621052292627
 30
0.0
 41
1.0
 10
43.83218282279475
 20
11.34023543584496
 30
0.0
 41
1.0
  0
SPLINE
  5
56
330
1F
100
AcDbEntity
  8
sled lng - arm 2d
100
AcDbSpline
210
0.0
220
0.0
230
1.0
 70
     8
 71
     3
 72
    11
 73
     7
 74
     0
 42
0.0000000001
 43
0.0000000001
 40
-1.258820856633601
 40
-1.258820856633601
 40
-1.258820856633601
 40
-1.258820856633601
 40
-0.9497091102361168
 40
-0.7117465017715054
 40
-0.7117465017715054
 40
-0.6055970153889699
 40
-0.6055970153889699
 40
-0.6055970153889699
 40
-0.6055970153889699
 10
43.83218282279475
 20
11.34023543584496
 30
0.0
 10
43.66379109616621
 20
11.32305519018297
 30
0.0
 10
43.44778743261578
 20
11.36478688029176
 30
0.0
 10
43.34072635019636
 20
11.41209502629373
 30
0.0
 10
43.28029128934621
 20
11.44783000791862
 30
0.0
 10
43.26299665258969
 20
11.45954226387945
 30
0.0
 10
43.24717417671116
 20
11.471562302146
 30
0.0
  0
SPLINE
  5
57
330
1F
100
AcDbEntity
  8
sled lng - arm 2d
100
AcDbSpline
210
0.0
220
0.0
230
1.0
 70
     8
 71
     3
 72
    10
 73
     6
 74
     0
 42
0.0000000001
 43
0.0000000001
 40
-19.07376985737198
 40
-19.07376985737198
 40
-19.07376985737198
 40
-19.07376985737198
 40
-18.40060027057202
 40
-16.68060271070969
 40
-13.88976199370684
 40
-13.88976199370684
 40
-13.88976199370684
 40
-13.88976199370684
 10
43.24717417671116
 20
11.471562302146
 30
0.0
 10
43.34032900027959
 20
11.73821119313778
 30
0.0
 10
44.13725224395709
 20
11.79153740233603
 30
0.0
 10
45.83795257458635
 20
12.11991518572191
 30
0.0
 10
47.26216657148975
 20
12.61825735146169
 30
0.0
 10
48.11175544818657
 20
12.99722972996532
 30
0.0
  0
SPLINE
  5
58
330
1F
100
AcDbEntity
  8
sled lng - arm 2d
100
AcDbSpline
210
0.0
220
0.0
230
1.0
 70
     8
 71
     3
 72
     8
 73
     4
 74
     0
 42
0.0000000001
 43
0.0000000001
 40
-13.88976199370684
 40
-13.88976199370684
 40
-13.88976199370684
 40
-13.88976199370684
 40
-12.88976199370684
 40
-12.88976199370684
 40
-12.88976199370684
 40
-12.88976199370684
 10
48.11175544818657
 20
12.99722972996532
 30
0.0
 10
48.85066249012122
 20
13.32683074859422
 30
0.0
 10
49.30524952229277
 20
12.92361917973968
 30
0.0
 10
49.53935822197713
 20
12.09353234485842
 30
0.0
  0
SPLINE
  5
59
330
1F
100
AcDbEntity
  8
sled lng - arm 2d
100
AcDbSpline
210
0.0
220
0.0
230
1.0
 70
    24
 71
     2
 72
     6
 73
     3
 74
     0
 42
0.0000000001
 43
0.0000000001
 40
-10.61546687147417
 40
-10.61546687147417
 40
-10.61546687147417
 40
0.0
 40
0.0
 40
0.0
 10
49.53935822197713
 20
12.09353234485842
 30
0.0
 10
50.98073899214484
 20
6.982781642384059
 30
0.0
 10
52.42211976231254
 20
1.872030939909697
 30
0.0
  0
SPLINE
  5
5A
330
1F
100
AcDbEntity
  8
sled lng - arm 2d
100
AcDbSpline
210
0.0
220
0.0
230
1.0
 70
     8
 71
     3
 72
    12
 73
     8
 74
     0
 42
0.0000000001
 43
0.0000000001
 40
-2.274295122232672
 40
-2.274295122232672
 40
-2.274295122232672
 40
-2.274295122232672
 40
-1.644715582724334
 40
-1.056978607943644
 40
-0.5173400709982579
 40
-0.2507577307951385
 40
0.0
 40
0.0
 40
0.0
 40
0.0
 10
52.42211976231254
 20
1.872030939909697
 30
0.0
 10
52.48070290036878
 20
1.665503008864774
 30
0.0
 10
52.52973301517681
 20
1.256810852379953
 30
0.0
 10
52.37719175653883
 20
0.6778508800482692
 30
0.0
 10
52.05889277250344
 20
0.3184404573224936
 30
0.0
 10
51.73216951121107
 20
0.1738803717182437
 30
0.0
 10
51.56031190220878
 20
0.1507695240254409
 30
0.0
 10
51.47649631945044
 20
0.1509992691411023
 30
0.0
  0
POLYLINE
  5
5B
330
1F
100
AcDbEntity
  8
sled lng - arm 2d
100
AcDb2dPolyline
 66
     1
 10
0.0
 20
0.0
 30
0.0
  0
VERTEX
  5
5C
330
5B
100
AcDbEntity
  8
sled lng - arm 2d
100
AcDbVertex
100
AcDb2dVertex
 10
51.47649631945044
 20
0.1509992691411023
 30
0.0
  0
VERTEX
  5
5D
330
5B
100
AcDbEntity
  8
sled lng - arm 2d
100
AcDbVertex
100
AcDb2dVertex
 10
51.33618508785413
 20
0.1509997018280992
 30
0.0
  0
SEQEND
  5
5E
330
5B
100
AcDbEntity
  8
sled lng - arm 2d
  0
POLYLINE
  5
5F
330
1F
100
AcDbEntity
  8
sled lng - arm 2d
100
AcDb2dPolyline
 66
     1
 10
0.0
 20
0.0
 30
0.0
  0
VERTEX
  5
60
330
5F
100
AcDbEntity
  8
sled lng - arm 2d
100
AcDbVertex
100
AcDb2dVertex
 10
33.43669980241042
 20
0.1509997018280992
 30
0.0
  0
VERTEX
  5
61
330
5F
100
AcDbEntity
  8
sled lng - arm 2d
100
AcDbVertex
100
AcDb2dVertex
 10
33.35639356563788
 20
0.1509889012441983
 30
0.0
  0
SEQEND
  5
62
330
5F
100
AcDbEntity
  8
sled lng - arm 2d
  0
SPLINE
  5
63
330
1F
100
AcDbEntity
  8
sled lng - arm 2d
100
AcDbSpline
210
0.0
220
0.0
230
1.0
 70
     8
 71
     3
 72
    12
 73
     8
 74
     0
 42
0.0000000001
 43
0.0000000001
 40
-2.26787472629437
 40
-2.26787472629437
 40
-2.26787472629437
 40
-2.26787472629437
 40
-1.754364578787313
 40
-1.224941810375229
 40
-0.6229595918350144
 40
-0.3072893560521184
 40
0.0
 40
0.0
 40
0.0
 40
0.0
 10
33.35639356563788
 20
0.1509889012441983
 30
0.0
 10
33.18557092932812
 20
0.1486580070477552
 30
0.0
 10
32.83753293127614
 20
0.2578142627011359
 30
0.0
 10
32.47417526357562
 20
0.6921485659591786
 30
0.0
 10
32.36518189582914
 20
1.174199412433165
 30
0.0
 10
32.38988937334494
 20
1.582167613633494
 30
0.0
 10
32.44130269435352
 20
1.785217230597159
 30
0.0
 10
32.47704498918353
 20
1.883498229047373
 30
0.0
  0
SPLINE
  5
64
330
1F
100
AcDbEntity
  8
sled lng - arm 2d
100
AcDbSpline
210
0.0
220
0.0
230
1.0
 70
    24
 71
     2
 72
     6
 73
     3
 74
     0
 42
0.0000000001
 43
0.0000000001
 40
-10.37001559530908
 40
-10.37001559530908
 40
-10.37001559530908
 40
0.0
 40
0.0
 40
0.0
 10
32.47704498918353
 20
1.883498229047373
 30
0.0
 10
34.20824398656852
 20
6.77225370068236
 30
0.0
 10
35.9394429839535
 20
11.66100917231735
 30
0.0
  0
SPLINE
  5
65
330
1F
100
AcDbEntity
  8
sled lng - arm 2d
100
AcDbSpline
210
0.0
220
0.0
230
1.0
 70
     8
 71
     3
 72
     8
 73
     4
 74
     0
 42
0.0000000001
 43
0.0000000001
 40
12.63789032160344
 40
12.63789032160344
 40
12.63789032160344
 40
12.63789032160344
 40
13.63789032160344
 40
13.63789032160344
 40
13.63789032160344
 40
13.63789032160344
 10
35.9394429839535
 20
11.66100917231735
 30
0.0
 10
36.21343984841477
 20
12.43475249839901
 30
0.0
 10
36.74624164291252
 20
12.64548763069569
 30
0.0
 10
37.46459207916443
 20
12.25265284772107
 30
0.0
  0
SPLINE
  5
66
330
1F
100
AcDbEntity
  8
sled lng - arm 2d
100
AcDbSpline
210
0.0
220
0.0
230
1.0
 70
    12
 71
     2
 72
     7
 73
     4
 74
     0
 42
0.0000000001
 43
0.0000000001
 40
13.63789032160344
 40
13.63789032160344
 40
13.63789032160344
 40
16.42304165639755
 40
17.86740336649549
 40
17.86740336649549
 40
17.86740336649549
 10
37.46459207916443
 20
12.25265284772107
 30
0.0
 41
1.0
 10
38.62414267551681
 20
11.61854478029526
 30
0.0
 41
0.9792669580925595
 10
40.60129964475077
 20
11.43522339305792
 30
0.0
 41
1.010752023235095
 10
41.2595680880034
 20
11.29954991504664
 30
0.0
 41
1.0
  0
SPLINE
  5
67
330
1F
100
AcDbEntity
  8
sled lng - arm 2d
100
AcDbSpline
210
0.0
220
0.0
230
1.0
 70
     8
 71
     3
 72
    11
 73
     7
 74
     0
 42
0.0000000001
 43
0.0000000001
 40
-0.7568461232925572
 40
-0.7568461232925572
 40
-0.7568461232925572
 40
-0.7568461232925572
 40
-0.410762572206105
 40
-0.2125786689102793
 40
-0.1056503418239303
 40
0.0
 40
0.0
 40
0.0
 40
0.0
 10
41.2595680880034
 20
11.29954991504664
 30
0.0
 10
41.18779166053336
 20
11.20941455279775
 30
0.0
 10
41.03047215503527
 20
11.1099396488729
 30
0.0
 10
40.82333438118241
 20
11.04982178279159
 30
0.0
 10
40.68762013129133
 20
11.03158610154954
 30
0.0
 10
40.61755371479596
 20
11.02794211752105
 30
0.0
 10
40.5823756347589
 20
11.02755490460219
 30
0.0
  0
ARC
  5
68
330
1F
100
AcDbEntity
  8
sled lng - arm 2d
100
AcDbCircle
 10
40.55238737588119
 20
17.91540385585974
 30
0.0
 40
6.887914232262935
100
AcDbArc
 50
241.3927469812812
 51
270.2494523071672
  0
SPLINE
  5
69
330
1F
100
AcDbEntity
  8
sled lng - arm 2d
100
AcDbSpline
210
0.0
220
0.0
230
1.0
 70
     8
 71
     3
 72
     8
 73
     4
 74
     0
 42
0.0000000001
 43
0.0000000001
 40
-9.072680762936951
 40
-9.072680762936951
 40
-9.072680762936951
 40
-9.072680762936951
 40
-8.072680762936951
 40
-8.072680762936951
 40
-8.072680762936951
 40
-8.072680762936951
 10
37.25443339741616
 20
11.86834986015762
 30
0.0
 10
36.82859052188886
 20
12.10059686945246
 30
0.0
 10
36.51428134802583
 20
11.97216504139533
 30
0.0
 10
36.35151863438645
 20
11.51253890257291
 30
0.0
  0
SPLINE
  5
6A
330
1F
100
AcDbEntity
  8
sled lng - arm 2d
100
AcDbSpline
210
0.0
220
0.0
230
1.0
 70
    24
 71
     2
 72
     6
 73
     3
 74
     0
 42
0.0000000001
 43
0.0000000001
 40
-10.36748958337489
 40
-10.36748958337489
 40
-10.36748958337489
 40
0.0
 40
0.0
 40
0.0
 10
36.35151863438645
 20
11.51253890257291
 30
0.0
 10
34.62030115431716
 20
6.623748417123496
 30
0.0
 10
32.88908367424786
 20
1.734957931674077
 30
0.0
  0
SPLINE
  5
6B
330
1F
100
AcDbEntity
  8
sled lng - arm 2d
100
AcDbSpline
210
0.0
220
0.0
230
1.0
 70
     8
 71
     3
 72
    12
 73
     8
 74
     0
 42
0.0000000001
 43
0.0000000001
 40
-1.421312459259256
 40
-1.421312459259256
 40
-1.421312459259256
 40
-1.421312459259256
 40
-1.018134435032834
 40
-0.6304037881567464
 40
-0.298877621512718
 40
-0.1517070196758271
 40
0.0
 40
0.0
 40
0.0
 40
0.0
 10
32.88908367424786
 20
1.734957931674077
 30
0.0
 10
32.84251909924458
 20
1.603565661010827
 30
0.0
 10
32.79580626907155
 20
1.340358663987167
 30
0.0
 10
32.85541771971819
 20
0.9652332836422955
 30
0.0
 10
33.01729825456702
 20
0.7150044397162084
 30
0.0
 10
33.20198198751343
 20
0.6064634599027199
 30
0.0
 10
33.30130370936982
 20
0.5890642560963116
 30
0.0
 10
33.35198386972267
 20
0.5889906357759755
 30
0.0
  0
SPLINE
  5
6C
330
1F
100
AcDbEntity
  8
sled lng - arm 2d
100
AcDbSpline
210
0.0
220
0.0
230
1.0
 70
     8
 71
     3
 72
     8
 73
     4
 74
     0
 42
0.0000000001
 43
0.0000000001
 40
-7.304454755878153
 40
-7.304454755878153
 40
-7.304454755878153
 40
-7.304454755878153
 40
-5.8652901717477
 40
-5.8652901717477
 40
-5.8652901717477
 40
-5.8652901717477
 10
33.35198386972267
 20
0.5889906357759755
 30
0.0
 10
37.07578186954496
 20
0.5889999999211545
 30
0.0
 10
39.65839335259583
 20
0.5889999999379925
 30
0.0
 10
41.40567598367385
 20
0.5889999998041411
 30
0.0
  0
ARC
  5
6D
330
1F
100
AcDbEntity
  8
sled lng - arm 2d
100
AcDbCircle
 10
41.40566985577469
 20
0.3699999998898829
 30
0.0
 40
0.2189999999999914
100
AcDbArc
 50
269.9983967910533
 51
89.99839679105516
  0
SPLINE
  5
6E
330
1F
100
AcDbEntity
  8
sled lng - arm 2d
100
AcDbSpline
210
0.0
220
0.0
230
1.0
 70
    24
 71
     3
 72
     8
 73
     4
 74
     0
 42
0.0000000001
 43
0.0000000001
 40
5.843294654963796
 40
5.843294654963796
 40
5.843294654963796
 40
5.843294654963796
 40
7.014814616518302
 40
7.014814616518302
 40
7.014814616518302
 40
7.014814616518302
 10
41.40566372787553
 20
0.1509999999756247
 30
0.0
 10
39.98623378443651
 20
0.1509999999404536
 30
0.0
 10
38.01251986168177
 20
0.1509999999272384
 30
0.0
 10
35.31872698752205
 20
0.1509999999110935
 30
0.0
  0
SPLINE
  5
6F
330
1F
100
AcDbEntity
  8
sled lng - arm 2d
100
AcDbSpline
210
0.0
220
0.0
230
1.0
 70
     8
 71
     3
 72
    19
 73
    15
 74
     0
 42
0.0000000001
 43
0.0000000001
 40
0.0
 40
0.0
 40
0.0
 40
0.0
 40
1.0
 40
2.0
 40
3.0
 40
4.0
 40
5.0
 40
6.0
 40
7.0
 40
8.0
 40
9.0
 40
10.0
 40
11.0
 40
12.0
 40
12.0
 40
12.0
 40
12.0
 10
50.8686128750871
 20
0.5162255291868224
 30
0.0
 10
50.88391959081088
 20
0.5092298578375806
 30
0.0
 10
50.89748052731147
 20
0.4780528552904191
 30
0.0
 10
50.9017509586144
 20
0.4304238636138101
 30
0.0
 10
50.9025341447786
 20
0.3821831249564345
 30
0.0
 10
50.89781632563409
 20
0.3343411357281062
 30
0.0
 10
50.89390703838975
 20
0.2864112009485511
 30
0.0
 10
50.88826332460632
 20
0.2386347978596185
 30
0.0
 10
50.87945009166086
 20
0.1913259931430568
 30
0.0
 10
50.87568437192583
 20
0.143304171058783
 30
0.0
 10
50.8796722322655
 20
0.0951491380418264
 30
0.0
 10
50.89514556757285
 20
0.0490565004196343
 30
0.0
 10
50.92701868215392
 20
0.0113908369364908
 30
0.0
 10
50.95845130600658
 20
0.0000250655855447
 30
0.0
 10
50.97454974864188
 20
-0.0000008859445287
 30
0.0
  0
SPLINE
  5
70
330
1F
100
AcDbEntity
  8
sled lng - arm 2d
100
AcDbSpline
210
0.0
220
0.0
230
1.0
 70
    12
 71
     3
 72
    38
 73
    34
 74
     0
 42
0.0000000001
 43
0.0000000001
 40
0.0
 40
0.0
 40
0.0
 40
0.0
 40
0.1614600355755542
 40
0.1614600355755542
 40
0.1614600355755542
 40
1.161460035575554
 40
1.161460035575554
 40
1.161460035575554
 40
1.342084376998089
 40
1.342084376998089
 40
1.342084376998089
 40
1.47755436390012
 40
1.47755436390012
 40
1.47755436390012
 40
1.584196495078726
 40
1.584196495078726
 40
1.584196495078726
 40
2.578062432122167
 40
2.578062432122167
 40
2.578062432122167
 40
2.821910699658148
 40
2.821910699658148
 40
2.821910699658148
 40
3.017666951507059
 40
3.017666951507059
 40
3.017666951507059
 40
4.017666951507058
 40
4.017666951507058
 40
4.017666951507058
 40
5.201975398962436
 40
5.201975398962436
 40
5.201975398962436
 40
5.449644478992974
 40
5.449644478992974
 40
5.449644478992974
 40
5.449644478992974
 10
51.33618508785413
 20
0.1509997018280992
 30
0.0
 41
1.0
 10
51.28236507599596
 20
0.1509995061705524
 30
0.0
 41
1.0
 10
51.22854506413781
 20
0.1509993105130056
 30
0.0
 41
1.0
 10
51.17472505227965
 20
0.1509991148554588
 30
0.0
 41
1.0
 10
51.13895701358632
 20
0.1509991148554639
 30
0.0
 41
1.0
 10
51.09555936873887
 20
0.1636792748485901
 30
0.0
 41
1.0
 10
51.0716142535526
 20
0.1881362046807062
 30
0.0
 41
1.0
 10
51.02854609501173
 20
0.2321249231829305
 30
0.0
 41
0.9567820019755179
 10
51.00384188061497
 20
0.2886438287821699
 30
0.0
 41
0.9567820019755179
 10
51.0007046104293
 20
0.350365019626823
 30
0.0
 41
1.0
 10
50.99879748934359
 20
0.3957467673293118
 30
0.0
 41
0.9990772271169964
 10
50.99452381604812
 20
0.4408604608233561
 30
0.0
 41
0.9990772271169964
 10
50.98789542143238
 20
0.4855812110299308
 30
0.0
 41
1.0
 10
50.97090008502611
 20
0.5189632398283067
 30
0.0
 41
0.9033337581835719
 10
50.93907317344592
 20
0.5386857545133873
 30
0.0
 41
0.9033337581835719
 10
50.90164445048504
 20
0.5390292509638442
 30
0.0
 41
1.0
 10
50.5703558048039
 20
0.5390292509638442
 30
0.0
 41
1.0
 10
50.23906715912275
 20
0.5390292509638442
 30
0.0
 41
1.0
 10
49.57794306991171
 20
0.5390292509638442
 30
0.0
 41
1.0
 10
49.49152335151579
 20
0.524543606057893
 30
0.0
 41
0.8396995359144742
 10
49.43530549842686
 20
0.4573293618082891
 30
0.0
 41
0.8396995359144742
 10
49.43632475446509
 20
0.3697099418541409
 30
0.0
 41
1.0
 10
49.44133108470604
 20
0.3046501914911941
 30
0.0
 41
1.0
 10
49.44633741494701
 20
0.2395904411282475
 30
0.0
 41
1.0
 10
49.45134374518796
 20
0.174530690765301
 30
0.0
 41
1.0
 10
49.46038460725021
 20
0.0570401936297284
 30
0.0
 41
1.0
 10
49.53502778546884
 20
-0.0000008859445412
 30
0.0
 41
1.0
 10
49.65622982582653
 20
-0.0000008859445404
 30
0.0
 41
1.0
 10
50.38083475184155
 20
-0.0000008859445379
 30
0.0
 41
1.0
 10
50.77560423432667
 20
-0.0000008859445354
 30
0.0
 41
1.0
 10
51.1703737168118
 20
-0.0000008859445329
 30
0.0
 41
1.0
 10
51.2574169016501
 20
0.010283499779469
 30
0.0
 41
0.8890408430660882
 10
51.32429135626721
 20
0.0669411730124337
 30
0.0
 41
0.8890408430660882
 10
51.34873608134895
 20
0.1511120707870607
 30
0.0
 41
1.0
  0
SPLINE
  5
71
330
1F
100
AcDbEntity
  8
sled lng - arm 2d
100
AcDbSpline
210
0.0
220
0.0
230
1.0
 70
    12
 71
     3
 72
    38
 73
    34
 74
     0
 42
0.0000000001
 43
0.0000000001
 40
0.0
 40
0.0
 40
0.0
 40
0.0
 40
0.1614600355755542
 40
0.1614600355755542
 40
0.1614600355755542
 40
1.161460035575554
 40
1.161460035575554
 40
1.161460035575554
 40
1.342084376998089
 40
1.342084376998089
 40
1.342084376998089
 40
1.47755436390012
 40
1.47755436390012
 40
1.47755436390012
 40
1.584196495078726
 40
1.584196495078726
 40
1.584196495078726
 40
2.578062432122167
 40
2.578062432122167
 40
2.578062432122167
 40
2.821910699658148
 40
2.821910699658148
 40
2.821910699658148
 40
3.017666951507059
 40
3.017666951507059
 40
3.017666951507059
 40
4.017666951507058
 40
4.017666951507058
 40
4.017666951507058
 40
5.201975398962436
 40
5.201975398962436
 40
5.201975398962436
 40
5.449644478992974
 40
5.449644478992974
 40
5.449644478992974
 40
5.449644478992974
 10
33.43669980241042
 20
0.1509997018280992
 30
0.0
 41
1.0
 10
33.49051981426859
 20
0.1509995061705524
 30
0.0
 41
1.0
 10
33.54433982612674
 20
0.1509993105130056
 30
0.0
 41
1.0
 10
33.59815983798491
 20
0.1509991148554588
 30
0.0
 41
1.0
 10
33.63392787667824
 20
0.1509991148554639
 30
0.0
 41
1.0
 10
33.67732552152569
 20
0.1636792748485901
 30
0.0
 41
1.0
 10
33.70127063671196
 20
0.1881362046807062
 30
0.0
 41
1.0
 10
33.74433879525283
 20
0.2321249231829305
 30
0.0
 41
0.9567820019755179
 10
33.76904300964959
 20
0.2886438287821699
 30
0.0
 41
0.9567820019755179
 10
33.77218027983525
 20
0.350365019626823
 30
0.0
 41
1.0
 10
33.77408740092095
 20
0.3957467673293118
 30
0.0
 41
0.9990772271169964
 10
33.77836107421643
 20
0.4408604608233561
 30
0.0
 41
0.9990772271169964
 10
33.78498946883218
 20
0.4855812110299308
 30
0.0
 41
1.0
 10
33.80198480523845
 20
0.5189632398283067
 30
0.0
 41
0.9033337581835719
 10
33.83381171681864
 20
0.5386857545133873
 30
0.0
 41
0.9033337581835719
 10
33.87124043977951
 20
0.5390292509638442
 30
0.0
 41
1.0
 10
34.20252908546065
 20
0.5390292509638442
 30
0.0
 41
1.0
 10
34.5338177311418
 20
0.5390292509638442
 30
0.0
 41
1.0
 10
35.19494182035285
 20
0.5390292509638442
 30
0.0
 41
1.0
 10
35.28136153874878
 20
0.524543606057893
 30
0.0
 41
0.8396995359144742
 10
35.33757939183769
 20
0.4573293618082891
 30
0.0
 41
0.8396995359144742
 10
35.33656013579947
 20
0.3697099418541409
 30
0.0
 41
1.0
 10
35.33155380555851
 20
0.3046501914911941
 30
0.0
 41
1.0
 10
35.32654747531755
 20
0.2395904411282475
 30
0.0
 41
1.0
 10
35.32154114507659
 20
0.174530690765301
 30
0.0
 41
1.0
 10
35.31250028301435
 20
0.0570401936297284
 30
0.0
 41
1.0
 10
35.23785710479572
 20
-0.0000008859445412
 30
0.0
 41
1.0
 10
35.11665506443803
 20
-0.0000008859445404
 30
0.0
 41
1.0
 10
34.39205013842301
 20
-0.0000008859445379
 30
0.0
 41
1.0
 10
33.99728065593789
 20
-0.0000008859445354
 30
0.0
 41
1.0
 10
33.60251117345275
 20
-0.0000008859445329
 30
0.0
 41
1.0
 10
33.51546798861447
 20
0.010283499779469
 30
0.0
 41
0.8890408430660882
 10
33.44859353399735
 20
0.0669411730124337
 30
0.0
 41
0.8890408430660882
 10
33.4241488089156
 20
0.1511120707870607
 30
0.0
 41
1.0
  0
SPLINE
  5
72
330
1F
100
AcDbEntity
  8
sled lng - arm 2d
100
AcDbSpline
210
0.0
220
0.0
230
1.0
 70
     8
 71
     3
 72
    19
 73
    15
 74
     0
 42
0.0000000001
 43
0.0000000001
 40
0.0
 40
0.0
 40
0.0
 40
0.0
 40
1.0
 40
2.0
 40
3.0
 40
4.0
 40
5.0
 40
6.0
 40
7.0
 40
8.0
 40
9.0
 40
10.0
 40
11.0
 40
12.0
 40
12.0
 40
12.0
 40
12.0
 10
33.90427201517745
 20
0.5162255291868224
 30
0.0
 10
33.88896529945367
 20
0.5092298578375806
 30
0.0
 10
33.87540436295309
 20
0.4780528552904191
 30
0.0
 10
33.87113393165016
 20
0.4304238636138101
 30
0.0
 10
33.87035074548596
 20
0.3821831249564345
 30
0.0
 10
33.87506856463047
 20
0.3343411357281062
 30
0.0
 10
33.87897785187481
 20
0.2864112009485511
 30
0.0
 10
33.88462156565824
 20
0.2386347978596185
 30
0.0
 10
33.89343479860369
 20
0.1913259931430568
 30
0.0
 10
33.89720051833873
 20
0.143304171058783
 30
0.0
 10
33.89321265799906
 20
0.0951491380418264
 30
0.0
 10
33.87773932269171
 20
0.0490565004196343
 30
0.0
 10
33.84586620811064
 20
0.0113908369364908
 30
0.0
 10
33.81443358425798
 20
0.0000250655855447
 30
0.0
 10
33.79833514162267
 20
-0.0000008859445287
 30
0.0
  0
SPLINE
  5
73
330
1F
100
AcDbEntity
  8
sled lng - arm 2d
100
AcDbSpline
210
0.0
220
0.0
230
1.0
 70
     8
 71
     3
 72
    11
 73
     7
 74
     0
 42
0.0000000001
 43
0.0000000001
 40
-0.6889034893045316
 40
-0.6889034893045316
 40
-0.6889034893045316
 40
-0.6889034893045316
 40
-0.5450160488261866
 40
-0.3853705266391287
 40
-0.2087918748906699
 40
0.0
 40
0.0
 40
0.0
 40
0.0
 10
6.385535443893236
 20
12.25796647967515
 30
0.0
 10
6.418456028034939
 20
12.22308960693837
 30
0.0
 10
6.481157049698633
 20
12.14318629659449
 30
0.0
 10
6.558109791961538
 20
12.00235651624751
 30
0.0
 10
6.624139760579003
 20
11.83282762872992
 30
0.0
 10
6.662620031285674
 20
11.694878457364
 30
0.0
 10
6.679086091135982
 20
11.62726529820402
 30
0.0
  0
SPLINE
  5
74
330
1F
100
AcDbEntity
  8
sled lng - arm 2d
100
AcDbSpline
210
0.0
220
0.0
230
1.0
 70
    24
 71
     2
 72
     6
 73
     3
 74
     0
 42
0.0000000001
 43
0.0000000001
 40
-10.05111052892765
 40
-10.05111052892765
 40
-10.05111052892765
 40
0.0
 40
0.0
 40
0.0
 10
6.679086091135982
 20
11.62726529820402
 30
0.0
 10
7.868221431656842
 20
6.744421571633985
 30
0.0
 10
9.057356772177702
 20
1.861577845063947
 30
0.0
  0
SPLINE
  5
75
330
1F
100
AcDbEntity
  8
sled lng - arm 2d
100
AcDbSpline
210
0.0
220
0.0
230
1.0
 70
    12
 71
     3
 72
    12
 73
     8
 74
     0
 42
0.0000000001
 43
0.0000000001
 40
-2.358706949376457
 40
-2.358706949376457
 40
-2.358706949376457
 40
-2.358706949376457
 40
-2.124605928124024
 40
-1.808121943467982
 40
-1.450357372507128
 40
-1.147631505907923
 40
-1.04863415699448
 40
-1.04863415699448
 40
-1.04863415699448
 40
-1.04863415699448
 10
9.057356772177702
 20
1.861577845063947
 30
0.0
 41
1.0
 10
9.075041239321363
 20
1.788961645286098
 30
0.0
 41
1.0
 10
9.109434851760126
 20
1.598005787782278
 30
0.0
 41
1.0
 10
9.119977714742502
 20
1.294240236005354
 30
0.0
 41
1.0
 10
9.075173912067907
 20
0.9701573144154476
 30
0.0
 41
1.0
 10
8.994195855873532
 20
0.7404713270662872
 30
0.0
 41
1.0
 10
8.938129452193792
 20
0.630760836949914
 30
0.0
 41
1.0
 10
8.923502407009824
 20
0.6045405582502195
 30
0.0
 41
1.0
  0
SPLINE
  5
76
330
1F
100
AcDbEntity
  8
sled lng - arm 2d
100
AcDbSpline
210
0.0
220
0.0
230
1.0
 70
     8
 71
     3
 72
    12
 73
     8
 74
     0
 42
0.0000000001
 43
0.0000000001
 40
-1.355229029210944
 40
-1.355229029210944
 40
-1.355229029210944
 40
-1.355229029210944
 40
-1.114114782037147
 40
-0.7827363469594232
 40
-0.4056229505997581
 40
-0.2012861508322142
 40
0.0
 40
0.0
 40
0.0
 40
0.0
 10
-8.24243502261394
 20
0.5889812716492517
 30
0.0
 10
-8.32589429505146
 20
0.5888534381233682
 30
0.0
 10
-8.49235450141318
 20
0.7013043439056758
 30
0.0
 10
-8.633496414713335
 20
0.991929895306578
 30
0.0
 10
-8.681806482465406
 20
1.293832234284489
 30
0.0
 10
-8.671067108398047
 20
1.556099912780108
 30
0.0
 10
-8.649102733047567
 20
1.689067522762979
 30
0.0
 10
-8.632441615924519
 20
1.755302384389656
 30
0.0
  0
SPLINE
  5
77
330
1F
100
AcDbEntity
  8
sled lng - arm 2d
100
AcDbSpline
210
0.0
220
0.0
230
1.0
 70
    24
 71
     2
 72
     6
 73
     3
 74
     0
 42
0.0000000001
 43
0.0000000001
 40
-10.06393413170215
 40
-10.06393413170215
 40
-10.06393413170215
 40
0.0
 40
0.0
 40
0.0
 10
-8.632441615924519
 20
1.755302384389656
 30
0.0
 10
-7.441679822675215
 20
6.644815004642775
 30
0.0
 10
-6.250918029425911
 20
11.53432762489589
 30
0.0
  0
SPLINE
  5
78
330
1F
100
AcDbEntity
  8
sled lng - arm 2d
100
AcDbSpline
210
0.0
220
0.0
230
1.0
 70
     8
 71
     3
 72
     8
 73
     4
 74
     0
 42
0.0000000001
 43
0.0000000001
 40
-1.0
 40
-1.0
 40
-1.0
 40
-1.0
 40
0.0
 40
0.0
 40
0.0
 40
0.0
 10
-6.250918029425911
 20
11.53432762489589
 30
0.0
 10
-6.156042403407949
 20
11.92390721228188
 30
0.0
 10
-6.025648769750762
 20
12.15426247911881
 30
0.0
 10
-5.627221992587685
 20
11.88248651051467
 30
0.0
  0
SPLINE
  5
79
330
1F
100
AcDbEntity
  8
sled lng - arm 2d
100
AcDbSpline
210
0.0
220
0.0
230
1.0
 70
    12
 71
     2
 72
     6
 73
     3
 74
     0
 42
0.0000000001
 43
0.0000000001
 40
-2.89936982658151
 40
-2.89936982658151
 40
-2.89936982658151
 40
0.0
 40
0.0
 40
0.0
 10
-5.627221992587685
 20
11.88248651051467
 30
0.0
 41
1.0
 10
-4.393684943005716
 20
11.04106282698044
 30
0.0
 41
0.9568668874167652
 10
-2.900559375425713
 20
11.02751633877848
 30
0.0
 41
1.0
  0
SPLINE
  5
7A
330
1F
100
AcDbEntity
  8
sled lng - arm 2d
100
AcDbSpline
210
0.0
220
0.0
230
1.0
 70
     8
 71
     3
 72
    11
 73
     7
 74
     0
 42
0.0000000001
 43
0.0000000001
 40
-0.943386202016466
 40
-0.943386202016466
 40
-0.943386202016466
 40
-0.943386202016466
 40
-0.7443598263524457
 40
-0.2683100324577205
 40
-0.1349453748761032
 40
0.0
 40
0.0
 40
0.0
 40
0.0
 10
-2.900559375425713
 20
11.02751633877848
 30
0.0
 10
-2.834066874994208
 20
11.02691308082606
 30
0.0
 10
-2.508779412261205
 20
11.07694449772256
 30
0.0
 10
-2.255536113715412
 20
11.17405903812442
 30
0.0
 10
-2.009199884647723
 20
11.21098382454478
 30
0.0
 10
-1.920081907636517
 20
11.21552186600681
 30
0.0
 10
-1.8749999985315
 20
11.21546137935436
 30
0.0
  0
POLYLINE
  5
7B
330
1F
100
AcDbEntity
  8
sled lng - arm 2d
100
AcDb2dPolyline
 66
     1
 10
0.0
 20
0.0
 30
0.0
  0
VERTEX
  5
7C
330
7B
100
AcDbEntity
  8
sled lng - arm 2d
100
AcDbVertex
100
AcDb2dVertex
 10
-1.8749999985315
 20
11.21546137935436
 30
0.0
  0
VERTEX
  5
7D
330
7B
100
AcDbEntity
  8
sled lng - arm 2d
100
AcDbVertex
100
AcDb2dVertex
 10
1.8749999985315
 20
11.21546137935436
 30
0.0
  0
SEQEND
  5
7E
330
7B
100
AcDbEntity
  8
sled lng - arm 2d
  0
SPLINE
  5
7F
330
1F
100
AcDbEntity
  8
sled lng - arm 2d
100
AcDbSpline
210
0.0
220
0.0
230
1.0
 70
     8
 71
     3
 72
    11
 73
     7
 74
     0
 42
0.0000000001
 43
0.0000000001
 40
0.0
 40
0.0
 40
0.0
 40
0.0
 40
0.1349453748761032
 40
0.2683100324577205
 40
0.7443598263524457
 40
0.943386202016466
 40
0.943386202016466
 40
0.943386202016466
 40
0.943386202016466
 10
1.8749999985315
 20
11.21546137935436
 30
0.0
 10
1.920081907636517
 20
11.21552186600681
 30
0.0
 10
2.009199884647723
 20
11.21098382454478
 30
0.0
 10
2.255536113715412
 20
11.17405903812442
 30
0.0
 10
2.508779412261205
 20
11.07694449772256
 30
0.0
 10
2.834066874994208
 20
11.02691308082606
 30
0.0
 10
2.900559375425713
 20
11.02751633877848
 30
0.0
  0
SPLINE
  5
80
330
1F
100
AcDbEntity
  8
sled lng - arm 2d
100
AcDbSpline
210
0.0
220
0.0
230
1.0
 70
    12
 71
     2
 72
     6
 73
     3
 74
     0
 42
0.0000000001
 43
0.0000000001
 40
0.0
 40
0.0
 40
0.0
 40
2.89936982658151
 40
2.89936982658151
 40
2.89936982658151
 10
2.900559375425713
 20
11.02751633877848
 30
0.0
 41
1.0
 10
4.393684943005716
 20
11.04106282698044
 30
0.0
 41
0.9568668874167652
 10
5.627221992587685
 20
11.88248651051467
 30
0.0
 41
1.0
  0
SPLINE
  5
81
330
1F
100
AcDbEntity
  8
sled lng - arm 2d
100
AcDbSpline
210
0.0
220
0.0
230
1.0
 70
     8
 71
     3
 72
     8
 73
     4
 74
     0
 42
0.0000000001
 43
0.0000000001
 40
0.0
 40
0.0
 40
0.0
 40
0.0
 40
1.0
 40
1.0
 40
1.0
 40
1.0
 10
5.627221992587685
 20
11.88248651051467
 30
0.0
 10
6.025648769750762
 20
12.15426247911881
 30
0.0
 10
6.156042403407949
 20
11.92390721228188
 30
0.0
 10
6.250918029425911
 20
11.53432762489589
 30
0.0
  0
SPLINE
  5
82
330
1F
100
AcDbEntity
  8
sled lng - arm 2d
100
AcDbSpline
210
0.0
220
0.0
230
1.0
 70
    24
 71
     2
 72
     6
 73
     3
 74
     0
 42
0.0000000001
 43
0.0000000001
 40
0.0
 40
0.0
 40
0.0
 40
10.06393413170215
 40
10.06393413170215
 40
10.06393413170215
 10
6.250918029425911
 20
11.53432762489589
 30
0.0
 10
7.441679822675215
 20
6.644815004642775
 30
0.0
 10
8.632441615924519
 20
1.755302384389656
 30
0.0
  0
SPLINE
  5
83
330
1F
100
AcDbEntity
  8
sled lng - arm 2d
100
AcDbSpline
210
0.0
220
0.0
230
1.0
 70
     8
 71
     3
 72
    12
 73
     8
 74
     0
 42
0.0000000001
 43
0.0000000001
 40
0.0
 40
0.0
 40
0.0
 40
0.0
 40
0.2012861508322142
 40
0.4056229505997581
 40
0.7827363469594232
 40
1.114114782037147
 40
1.355229029210944
 40
1.355229029210944
 40
1.355229029210944
 40
1.355229029210944
 10
8.632441615924519
 20
1.755302384389656
 30
0.0
 10
8.649102733047567
 20
1.689067522762979
 30
0.0
 10
8.671067108398047
 20
1.556099912780108
 30
0.0
 10
8.681806482465406
 20
1.293832234284489
 30
0.0
 10
8.633496414713335
 20
0.991929895306578
 30
0.0
 10
8.49235450141318
 20
0.7013043439056758
 30
0.0
 10
8.32589429505146
 20
0.5888534381233682
 30
0.0
 10
8.24243502261394
 20
0.5889812716492517
 30
0.0
  0
SPLINE
  5
84
330
1F
100
AcDbEntity
  8
sled lng - arm 2d
100
AcDbSpline
210
0.0
220
0.0
230
1.0
 70
     8
 71
     3
 72
    11
 73
     7
 74
     0
 42
0.0000000001
 43
0.0000000001
 40
-0.6889034893045316
 40
-0.6889034893045316
 40
-0.6889034893045316
 40
-0.6889034893045316
 40
-0.5450160488261866
 40
-0.3853705266391287
 40
-0.2087918748906699
 40
0.0
 40
0.0
 40
0.0
 40
0.0
 10
-6.385535443893236
 20
12.25796647967515
 30
0.0
 10
-6.418456028034939
 20
12.22308960693837
 30
0.0
 10
-6.481157049698633
 20
12.14318629659449
 30
0.0
 10
-6.558109791961538
 20
12.00235651624751
 30
0.0
 10
-6.624139760579003
 20
11.83282762872992
 30
0.0
 10
-6.662620031285674
 20
11.694878457364
 30
0.0
 10
-6.679086091135982
 20
11.62726529820402
 30
0.0
  0
SPLINE
  5
85
330
1F
100
AcDbEntity
  8
sled lng - arm 2d
100
AcDbSpline
210
0.0
220
0.0
230
1.0
 70
    24
 71
     2
 72
     6
 73
     3
 74
     0
 42
0.0000000001
 43
0.0000000001
 40
-10.05111052892765
 40
-10.05111052892765
 40
-10.05111052892765
 40
0.0
 40
0.0
 40
0.0
 10
-6.679086091135982
 20
11.62726529820402
 30
0.0
 10
-7.868221431656842
 20
6.744421571633985
 30
0.0
 10
-9.057356772177702
 20
1.861577845063947
 30
0.0
  0
SPLINE
  5
86
330
1F
100
AcDbEntity
  8
sled lng - arm 2d
100
AcDbSpline
210
0.0
220
0.0
230
1.0
 70
    12
 71
     3
 72
    12
 73
     8
 74
     0
 42
0.0000000001
 43
0.0000000001
 40
-2.358706949376457
 40
-2.358706949376457
 40
-2.358706949376457
 40
-2.358706949376457
 40
-2.124605928124024
 40
-1.808121943467982
 40
-1.450357372507128
 40
-1.147631505907923
 40
-1.04863415699448
 40
-1.04863415699448
 40
-1.04863415699448
 40
-1.04863415699448
 10
-9.057356772177702
 20
1.861577845063947
 30
0.0
 41
1.0
 10
-9.075041239321363
 20
1.788961645286098
 30
0.0
 41
1.0
 10
-9.109434851760126
 20
1.598005787782278
 30
0.0
 41
1.0
 10
-9.119977714742502
 20
1.294240236005354
 30
0.0
 41
1.0
 10
-9.075173912067907
 20
0.9701573144154476
 30
0.0
 41
1.0
 10
-8.994195855873532
 20
0.7404713270662872
 30
0.0
 41
1.0
 10
-8.938129452193792
 20
0.630760836949914
 30
0.0
 41
1.0
 10
-8.923502407009824
 20
0.6045405582502195
 30
0.0
 41
1.0
  0
LINE
  5
87
330
1F
100
AcDbEntity
  8
sled lng - arm 2d
100
AcDbLine
 10
7.359597436921754
 20
0.1510000000000098
 30
0.0
 11
-7.359597436921755
 21
0.1510000000000098
 31
0.0
  0
SPLINE
  5
88
330
1F
100
AcDbEntity
  8
sled lng - arm 2d
100
AcDbSpline
210
0.0
220
0.0
230
1.0
 70
    12
 71
     3
 72
    38
 73
    34
 74
     0
 42
0.0000000001
 43
0.0000000001
 40
0.0
 40
0.0
 40
0.0
 40
0.0
 40
0.1614600355755542
 40
0.1614600355755542
 40
0.1614600355755542
 40
1.161460035575554
 40
1.161460035575554
 40
1.161460035575554
 40
1.342084376998089
 40
1.342084376998089
 40
1.342084376998089
 40
1.47755436390012
 40
1.47755436390012
 40
1.47755436390012
 40
1.584196495078726
 40
1.584196495078726
 40
1.584196495078726
 40
2.578062432122167
 40
2.578062432122167
 40
2.578062432122167
 40
2.821910699658148
 40
2.821910699658148
 40
2.821910699658148
 40
3.017666951507059
 40
3.017666951507059
 40
3.017666951507059
 40
4.017666951507058
 40
4.017666951507058
 40
4.017666951507058
 40
5.201975398962436
 40
5.201975398962436
 40
5.201975398962436
 40
5.449644478992974
 40
5.449644478992974
 40
5.449644478992974
 40
5.449644478992974
 10
8.87469312895156
 20
0.1509997018280992
 30
0.0
 41
1.0
 10
8.820873117093388
 20
0.1509995061705524
 30
0.0
 41
1.0
 10
8.767053105235238
 20
0.1509993105130056
 30
0.0
 41
1.0
 10
8.713233093377074
 20
0.1509991148554588
 30
0.0
 41
1.0
 10
8.677465054683747
 20
0.1509991148554639
 30
0.0
 41
1.0
 10
8.634067409836295
 20
0.1636792748485901
 30
0.0
 41
1.0
 10
8.610122294650022
 20
0.1881362046807062
 30
0.0
 41
1.0
 10
8.567054136109151
 20
0.2321249231829305
 30
0.0
 41
0.9567820019755179
 10
8.542349921712397
 20
0.2886438287821699
 30
0.0
 41
0.9567820019755179
 10
8.539212651526729
 20
0.350365019626823
 30
0.0
 41
1.0
 10
8.537305530441024
 20
0.3957467673293118
 30
0.0
 41
0.9990772271169964
 10
8.533031857145552
 20
0.4408604608233561
 30
0.0
 41
0.9990772271169964
 10
8.526403462529803
 20
0.4855812110299308
 30
0.0
 41
1.0
 10
8.50940812612353
 20
0.5189632398283067
 30
0.0
 41
0.9033337581835719
 10
8.477581214543344
 20
0.5386857545133873
 30
0.0
 41
0.9033337581835719
 10
8.44015249158247
 20
0.5390292509638442
 30
0.0
 41
1.0
 10
8.108863845901329
 20
0.5390292509638442
 30
0.0
 41
1.0
 10
7.777575200220181
 20
0.5390292509638442
 30
0.0
 41
1.0
 10
7.483382604105651
 20
0.5390292509638442
 30
0.0
 41
1.0
 10
7.396962885709724
 20
0.524543606057893
 30
0.0
 41
0.8396995359144742
 10
7.340745032620805
 20
0.4573293618082891
 30
0.0
 41
0.8396995359144742
 10
7.34176428865903
 20
0.3697099418541409
 30
0.0
 41
1.0
 10
7.346770618899982
 20
0.3046501914911941
 30
0.0
 41
1.0
 10
7.351776949140949
 20
0.2395904411282475
 30
0.0
 41
1.0
 10
7.356783279381902
 20
0.174530690765301
 30
0.0
 41
1.0
 10
7.365824141444144
 20
0.0570401936297284
 30
0.0
 41
1.0
 10
7.440467319662781
 20
-0.0000008859445412
 30
0.0
 41
1.0
 10
7.561669360020468
 20
-0.0000008859445404
 30
0.0
 41
1.0
 10
7.919342792938974
 20
-0.0000008859445379
 30
0.0
 41
1.0
 10
8.314112275424097
 20
-0.0000008859445354
 30
0.0
 41
1.0
 10
8.708881757909229
 20
-0.0000008859445329
 30
0.0
 41
1.0
 10
8.79592494274752
 20
0.010283499779469
 30
0.0
 41
0.8890408430660882
 10
8.86279939736463
 20
0.0669411730124337
 30
0.0
 41
0.8890408430660882
 10
8.88724412244638
 20
0.1511120707870607
 30
0.0
 41
1.0
  0
SPLINE
  5
89
330
1F
100
AcDbEntity
  8
sled lng - arm 2d
100
AcDbSpline
210
0.0
220
0.0
230
1.0
 70
     8
 71
     3
 72
    19
 73
    15
 74
     0
 42
0.0000000001
 43
0.0000000001
 40
0.0
 40
0.0
 40
0.0
 40
0.0
 40
1.0
 40
2.0
 40
3.0
 40
4.0
 40
5.0
 40
6.0
 40
7.0
 40
8.0
 40
9.0
 40
10.0
 40
11.0
 40
12.0
 40
12.0
 40
12.0
 40
12.0
 10
8.407120916184528
 20
0.5162255291868224
 30
0.0
 10
8.42242763190831
 20
0.5092298578375806
 30
0.0
 10
8.435988568408892
 20
0.4780528552904191
 30
0.0
 10
8.440258999711826
 20
0.4304238636138101
 30
0.0
 10
8.441042185876025
 20
0.3821831249564345
 30
0.0
 10
8.436324366731515
 20
0.3343411357281062
 30
0.0
 10
8.432415079487175
 20
0.2864112009485511
 30
0.0
 10
8.426771365703747
 20
0.2386347978596185
 30
0.0
 10
8.41795813275829
 20
0.1913259931430568
 30
0.0
 10
8.414192413023255
 20
0.143304171058783
 30
0.0
 10
8.418180273362925
 20
0.0951491380418264
 30
0.0
 10
8.433653608670273
 20
0.0490565004196343
 30
0.0
 10
8.465526723251347
 20
0.0113908369364908
 30
0.0
 10
8.496959347104006
 20
0.0000250655855447
 30
0.0
 10
8.51305778973931
 20
-0.0000008859445287
 30
0.0
  0
SPLINE
  5
8A
330
1F
100
AcDbEntity
  8
sled lng - arm 2d
100
AcDbSpline
210
0.0
220
0.0
230
1.0
 70
    12
 71
     3
 72
    38
 73
    34
 74
     0
 42
0.0000000001
 43
0.0000000001
 40
0.0
 40
0.0
 40
0.0
 40
0.0
 40
0.1614600355755542
 40
0.1614600355755542
 40
0.1614600355755542
 40
1.161460035575554
 40
1.161460035575554
 40
1.161460035575554
 40
1.342084376998089
 40
1.342084376998089
 40
1.342084376998089
 40
1.47755436390012
 40
1.47755436390012
 40
1.47755436390012
 40
1.584196495078726
 40
1.584196495078726
 40
1.584196495078726
 40
2.578062432122167
 40
2.578062432122167
 40
2.578062432122167
 40
2.821910699658148
 40
2.821910699658148
 40
2.821910699658148
 40
3.017666951507059
 40
3.017666951507059
 40
3.017666951507059
 40
4.017666951507058
 40
4.017666951507058
 40
4.017666951507058
 40
5.201975398962436
 40
5.201975398962436
 40
5.201975398962436
 40
5.449644478992974
 40
5.449644478992974
 40
5.449644478992974
 40
5.449644478992974
 10
-8.87469312895156
 20
0.1509997018280992
 30
0.0
 41
1.0
 10
-8.820873117093388
 20
0.1509995061705524
 30
0.0
 41
1.0
 10
-8.767053105235238
 20
0.1509993105130056
 30
0.0
 41
1.0
 10
-8.713233093377074
 20
0.1509991148554588
 30
0.0
 41
1.0
 10
-8.677465054683747
 20
0.1509991148554639
 30
0.0
 41
1.0
 10
-8.634067409836295
 20
0.1636792748485901
 30
0.0
 41
1.0
 10
-8.610122294650022
 20
0.1881362046807062
 30
0.0
 41
1.0
 10
-8.567054136109151
 20
0.2321249231829305
 30
0.0
 41
0.9567820019755179
 10
-8.542349921712397
 20
0.2886438287821699
 30
0.0
 41
0.9567820019755179
 10
-8.539212651526729
 20
0.350365019626823
 30
0.0
 41
1.0
 10
-8.537305530441024
 20
0.3957467673293118
 30
0.0
 41
0.9990772271169964
 10
-8.533031857145552
 20
0.4408604608233561
 30
0.0
 41
0.9990772271169964
 10
-8.526403462529803
 20
0.4855812110299308
 30
0.0
 41
1.0
 10
-8.50940812612353
 20
0.5189632398283067
 30
0.0
 41
0.9033337581835719
 10
-8.477581214543344
 20
0.5386857545133873
 30
0.0
 41
0.9033337581835719
 10
-8.44015249158247
 20
0.5390292509638442
 30
0.0
 41
1.0
 10
-8.108863845901329
 20
0.5390292509638442
 30
0.0
 41
1.0
 10
-7.777575200220181
 20
0.5390292509638442
 30
0.0
 41
1.0
 10
-7.483382604105651
 20
0.5390292509638442
 30
0.0
 41
1.0
 10
-7.396962885709724
 20
0.524543606057893
 30
0.0
 41
0.8396995359144742
 10
-7.340745032620805
 20
0.4573293618082891
 30
0.0
 41
0.8396995359144742
 10
-7.34176428865903
 20
0.3697099418541409
 30
0.0
 41
1.0
 10
-7.346770618899982
 20
0.3046501914911941
 30
0.0
 41
1.0
 10
-7.351776949140949
 20
0.2395904411282475
 30
0.0
 41
1.0
 10
-7.356783279381902
 20
0.174530690765301
 30
0.0
 41
1.0
 10
-7.365824141444144
 20
0.0570401936297284
 30
0.0
 41
1.0
 10
-7.440467319662781
 20
-0.0000008859445412
 30
0.0
 41
1.0
 10
-7.561669360020468
 20
-0.0000008859445404
 30
0.0
 41
1.0
 10
-7.919342792938974
 20
-0.0000008859445379
 30
0.0
 41
1.0
 10
-8.314112275424097
 20
-0.0000008859445354
 30
0.0
 41
1.0
 10
-8.708881757909229
 20
-0.0000008859445329
 30
0.0
 41
1.0
 10
-8.79592494274752
 20
0.010283499779469
 30
0.0
 41
0.8890408430660882
 10
-8.86279939736463
 20
0.0669411730124337
 30
0.0
 41
0.8890408430660882
 10
-8.88724412244638
 20
0.1511120707870607
 30
0.0
 41
1.0
  0
SPLINE
  5
8B
330
1F
100
AcDbEntity
  8
sled lng - arm 2d
100
AcDbSpline
210
0.0
220
0.0
230
1.0
 70
     8
 71
     3
 72
    19
 73
    15
 74
     0
 42
0.0000000001
 43
0.0000000001
 40
0.0
 40
0.0
 40
0.0
 40
0.0
 40
1.0
 40
2.0
 40
3.0
 40
4.0
 40
5.0
 40
6.0
 40
7.0
 40
8.0
 40
9.0
 40
10.0
 40
11.0
 40
12.0
 40
12.0
 40
12.0
 40
12.0
 10
-8.407120916184528
 20
0.5162255291868224
 30
0.0
 10
-8.42242763190831
 20
0.5092298578375806
 30
0.0
 10
-8.435988568408892
 20
0.4780528552904191
 30
0.0
 10
-8.440258999711826
 20
0.4304238636138101
 30
0.0
 10
-8.441042185876025
 20
0.3821831249564345
 30
0.0
 10
-8.436324366731515
 20
0.3343411357281062
 30
0.0
 10
-8.432415079487175
 20
0.2864112009485511
 30
0.0
 10
-8.426771365703747
 20
0.2386347978596185
 30
0.0
 10
-8.41795813275829
 20
0.1913259931430568
 30
0.0
 10
-8.414192413023255
 20
0.143304171058783
 30
0.0
 10
-8.418180273362925
 20
0.0951491380418264
 30
0.0
 10
-8.433653608670273
 20
0.0490565004196343
 30
0.0
 10
-8.465526723251347
 20
0.0113908369364908
 30
0.0
 10
-8.496959347104006
 20
0.0000250655855447
 30
0.0
 10
-8.51305778973931
 20
-0.0000008859445287
 30
0.0
  0
LINE
  5
8C
330
1F
100
AcDbEntity
  8
sled lng - arm 2d
100
AcDbLine
 10
-8.852451725192598
 20
0.588998687371694
 30
0.0
 11
8.852451725192598
 21
0.588998687371694
 31
0.0
  0
SPLINE
  5
8D
330
1F
100
AcDbEntity
  8
sled lng - arm 2d
100
AcDbSpline
210
0.0
220
0.0
230
1.0
 70
     8
 71
     3
 72
    12
 73
     8
 74
     0
 42
0.0000000001
 43
0.0000000001
 40
-1.316184059930414
 40
-1.316184059930414
 40
-1.316184059930414
 40
-1.316184059930414
 40
-1.107415238305369
 40
-0.7943908620222387
 40
-0.4118030117738189
 40
-0.2144581684050181
 40
0.0
 40
0.0
 40
0.0
 40
0.0
 10
8.852451725192598
 20
0.588998687371694
 30
0.0
 10
8.925905186354294
 20
0.5888179053568725
 30
0.0
 10
9.067979844109246
 20
0.7060640584712105
 30
0.0
 10
9.177616550112207
 20
0.9918511678187438
 30
0.0
 10
9.205987722816552
 20
1.289768344924281
 30
0.0
 10
9.185938812968857
 20
1.554573125825061
 30
0.0
 10
9.162444069776747
 20
1.689686626590867
 30
0.0
 10
9.146035649006063
 20
1.761270723309108
 30
0.0
  0
SPLINE
  5
8E
330
1F
100
AcDbEntity
  8
sled lng - arm 2d
100
AcDbSpline
210
0.0
220
0.0
230
1.0
 70
    24
 71
     2
 72
     6
 73
     3
 74
     0
 42
0.0000000001
 43
0.0000000001
 40
-10.48301310761942
 40
-10.48301310761942
 40
-10.48301310761942
 40
0.0
 40
0.0
 40
0.0
 10
9.146035649006063
 20
1.761270723309108
 30
0.0
 10
7.984584001087535
 20
6.873419244619523
 30
0.0
 10
6.823132353169007
 20
11.98556776592994
 30
0.0
  0
SPLINE
  5
8F
330
1F
100
AcDbEntity
  8
sled lng - arm 2d
100
AcDbSpline
210
0.0
220
0.0
230
1.0
 70
     8
 71
     3
 72
     8
 73
     4
 74
     0
 42
0.0000000001
 43
0.0000000001
 40
0.0
 40
0.0
 40
0.0
 40
0.0
 40
1.0
 40
1.0
 40
1.0
 40
1.0
 10
6.823132353169007
 20
11.98556776592994
 30
0.0
 10
6.726260968417059
 20
12.41194875842027
 30
0.0
 10
6.605265727284734
 20
12.79538030457842
 30
0.0
 10
6.272252615103329
 20
12.59770104817632
 30
0.0
  0
SPLINE
  5
90
330
1F
100
AcDbEntity
  8
sled lng - arm 2d
100
AcDbSpline
210
0.0
220
0.0
230
1.0
 70
    12
 71
     3
 72
    11
 73
     7
 74
     0
 42
0.0000000001
 43
0.0000000001
 40
-5.661020882322123
 40
-5.661020882322123
 40
-5.661020882322123
 40
-5.661020882322123
 40
-3.082277025264758
 40
-3.082277025264758
 40
-1.541137805068354
 40
-0.0065702091019564
 40
-0.0065702091019564
 40
-0.0065702091019564
 40
-0.0065702091019564
 10
6.272252615103329
 20
12.59770104817632
 30
0.0
 41
1.0
 10
5.781754359215714
 20
12.30653734637717
 30
0.0
 41
1.0
 10
5.281355125573236
 20
12.05940584621414
 30
0.0
 41
1.0
 10
4.471240269760621
 20
11.73427755771529
 30
0.0
 41
1.0
 10
3.861614559911583
 20
11.5212343121483
 30
0.0
 41
1.0
 10
3.239752217981131
 20
11.38434483856059
 30
0.0
 41
1.0
 10
2.926947921663645
 20
11.34152039483708
 30
0.0
 41
1.0
  0
SPLINE
  5
91
330
1F
100
AcDbEntity
  8
sled lng - arm 2d
100
AcDbSpline
210
0.0
220
0.0
230
1.0
 70
     8
 71
     3
 72
    11
 73
     7
 74
     0
 42
0.0000000001
 43
0.0000000001
 40
-0.9943687182837089
 40
-0.9943687182837089
 40
-0.9943687182837089
 40
-0.9943687182837089
 40
-0.7720452795028627
 40
-0.2185007452731595
 40
-0.100024069711327
 40
0.0
 40
0.0
 40
0.0
 40
0.0
 10
2.926947921663645
 20
11.34152039483708
 30
0.0
 10
2.853461818118259
 20
11.33145978651812
 30
0.0
 10
2.521499277500771
 20
11.35605060223155
 30
0.0
 10
2.235587569728207
 20
11.44553419980731
 30
0.0
 10
1.981246491291961
 20
11.48588420548892
 30
0.0
 10
1.908356707320994
 20
11.48984213757707
 30
0.0
 10
1.875042629346176
 20
11.48966779020551
 30
0.0
  0
POLYLINE
  5
92
330
1F
100
AcDbEntity
  8
sled lng - arm 2d
100
AcDb2dPolyline
 66
     1
 10
0.0
 20
0.0
 30
0.0
  0
VERTEX
  5
93
330
92
100
AcDbEntity
  8
sled lng - arm 2d
100
AcDbVertex
100
AcDb2dVertex
 10
1.875042629346176
 20
11.48966779020551
 30
0.0
  0
VERTEX
  5
94
330
92
100
AcDbEntity
  8
sled lng - arm 2d
100
AcDbVertex
100
AcDb2dVertex
 10
-1.875042629346176
 20
11.48966779020551
 30
0.0
  0
SEQEND
  5
95
330
92
100
AcDbEntity
  8
sled lng - arm 2d
  0
SPLINE
  5
96
330
1F
100
AcDbEntity
  8
sled lng - arm 2d
100
AcDbSpline
210
0.0
220
0.0
230
1.0
 70
     8
 71
     3
 72
    11
 73
     7
 74
     0
 42
0.0000000001
 43
0.0000000001
 40
0.0
 40
0.0
 40
0.0
 40
0.0
 40
0.100024069711327
 40
0.2185007452731595
 40
0.7720452795028627
 40
0.9943687182837089
 40
0.9943687182837089
 40
0.9943687182837089
 40
0.9943687182837089
 10
-1.875042629346176
 20
11.48966779020551
 30
0.0
 10
-1.908356707320994
 20
11.48984213757707
 30
0.0
 10
-1.981246491291961
 20
11.48588420548892
 30
0.0
 10
-2.235587569728207
 20
11.44553419980731
 30
0.0
 10
-2.521499277500771
 20
11.35605060223155
 30
0.0
 10
-2.853461818118259
 20
11.33145978651812
 30
0.0
 10
-2.926947921663645
 20
11.34152039483708
 30
0.0
  0
SPLINE
  5
97
330
1F
100
AcDbEntity
  8
sled lng - arm 2d
100
AcDbSpline
210
0.0
220
0.0
230
1.0
 70
    12
 71
     3
 72
    11
 73
     7
 74
     0
 42
0.0000000001
 43
0.0000000001
 40
0.0065702091019564
 40
0.0065702091019564
 40
0.0065702091019564
 40
0.0065702091019564
 40
1.541137805068354
 40
3.082277025264758
 40
3.082277025264758
 40
5.661020882322123
 40
5.661020882322123
 40
5.661020882322123
 40
5.661020882322123
 10
-2.926947921663645
 20
11.34152039483708
 30
0.0
 41
1.0
 10
-3.239752217981131
 20
11.38434483856059
 30
0.0
 41
1.0
 10
-3.861614559911583
 20
11.5212343121483
 30
0.0
 41
1.0
 10
-4.471240269760621
 20
11.73427755771529
 30
0.0
 41
1.0
 10
-5.281355125573236
 20
12.05940584621414
 30
0.0
 41
1.0
 10
-5.781754359215714
 20
12.30653734637717
 30
0.0
 41
1.0
 10
-6.272252615103329
 20
12.59770104817632
 30
0.0
 41
1.0
  0
SPLINE
  5
98
330
1F
100
AcDbEntity
  8
sled lng - arm 2d
100
AcDbSpline
210
0.0
220
0.0
230
1.0
 70
     8
 71
     3
 72
     8
 73
     4
 74
     0
 42
0.0000000001
 43
0.0000000001
 40
-1.0
 40
-1.0
 40
-1.0
 40
-1.0
 40
0.0
 40
0.0
 40
0.0
 40
0.0
 10
-6.272252615103329
 20
12.59770104817632
 30
0.0
 10
-6.605265727284734
 20
12.79538030457842
 30
0.0
 10
-6.726260968417059
 20
12.41194875842027
 30
0.0
 10
-6.823132353169007
 20
11.98556776592994
 30
0.0
  0
SPLINE
  5
99
330
1F
100
AcDbEntity
  8
sled lng - arm 2d
100
AcDbSpline
210
0.0
220
0.0
230
1.0
 70
    24
 71
     2
 72
     6
 73
     3
 74
     0
 42
0.0000000001
 43
0.0000000001
 40
0.0
 40
0.0
 40
0.0
 40
10.48301310761942
 40
10.48301310761942
 40
10.48301310761942
 10
-6.823132353169007
 20
11.98556776592994
 30
0.0
 10
-7.984584001087535
 20
6.873419244619523
 30
0.0
 10
-9.146035649006063
 20
1.761270723309108
 30
0.0
  0
SPLINE
  5
9A
330
1F
100
AcDbEntity
  8
sled lng - arm 2d
100
AcDbSpline
210
0.0
220
0.0
230
1.0
 70
     8
 71
     3
 72
    12
 73
     8
 74
     0
 42
0.0000000001
 43
0.0000000001
 40
0.0
 40
0.0
 40
0.0
 40
0.0
 40
0.2144581684050181
 40
0.4118030117738189
 40
0.7943908620222387
 40
1.107415238305369
 40
1.316184059930414
 40
1.316184059930414
 40
1.316184059930414
 40
1.316184059930414
 10
-9.146035649006063
 20
1.761270723309108
 30
0.0
 10
-9.162444069776747
 20
1.689686626590867
 30
0.0
 10
-9.185938812968857
 20
1.554573125825061
 30
0.0
 10
-9.205987722816552
 20
1.289768344924281
 30
0.0
 10
-9.177616550112207
 20
0.9918511678187438
 30
0.0
 10
-9.067979844109246
 20
0.7060640584712105
 30
0.0
 10
-8.925905186354294
 20
0.5888179053568725
 30
0.0
 10
-8.852451725192598
 20
0.588998687371694
 30
0.0
  0
SPLINE
  5
9B
330
1F
100
AcDbEntity
  8
sled lng - arm 2d
100
AcDbSpline
210
0.0
220
0.0
230
1.0
 70
     8
 71
     3
 72
    12
 73
     8
 74
     0
 42
0.0000000001
 43
0.0000000001
 40
0.0
 40
0.0
 40
0.0
 40
0.0
 40
0.204846491955015
 40
0.4214618998977446
 40
0.8929999723393295
 40
1.468507439927334
 40
2.101053696080463
 40
2.101053696080463
 40
2.101053696080463
 40
2.101053696080463
 10
-8.851171041534903
 20
0.1509980106562719
 30
0.0
 10
-8.919807455142717
 20
0.1512126284547936
 30
0.0
 10
-9.059317053259875
 20
0.173851852030194
 30
0.0
 10
-9.324540085121004
 20
0.3237271338792115
 30
0.0
 10
-9.562135251430588
 20
0.686730392495706
 30
0.0
 10
-9.662203426084332
 20
1.245092527547185
 30
0.0
 10
-9.621087086572459
 20
1.648714502836126
 30
0.0
 10
-9.572880421988689
 20
1.859496814030648
 30
0.0
  0
SPLINE
  5
9C
330
1F
100
AcDbEntity
  8
sled lng - arm 2d
100
AcDbSpline
210
0.0
220
0.0
230
1.0
 70
    24
 71
     2
 72
     6
 73
     3
 74
     0
 42
0.0000000001
 43
0.0000000001
 40
0.0
 40
0.0
 40
0.0
 40
10.47647704162769
 40
10.47647704162769
 40
10.47647704162769
 10
-9.572880421988689
 20
1.859496814030648
 30
0.0
 10
-8.411778073864776
 20
6.970109584625515
 30
0.0
 10
-7.250675725740863
 20
12.08072235522038
 30
0.0
  0
SPLINE
  5
9D
330
1F
100
AcDbEntity
  8
sled lng - arm 2d
100
AcDbSpline
210
0.0
220
0.0
230
1.0
 70
     8
 71
     3
 72
     8
 73
     4
 74
     0
 42
0.0000000001
 43
0.0000000001
 40
0.0
 40
0.0
 40
0.0
 40
0.0
 40
1.0
 40
1.0
 40
1.0
 40
1.0
 10
-7.250675725740863
 20
12.08072235522038
 30
0.0
 10
-7.068227554476496
 20
12.88377098037367
 30
0.0
 10
-6.701388874482294
 20
13.36181160446182
 30
0.0
 10
-6.04866950074636
 20
12.97435214500042
 30
0.0
  0
SPLINE
  5
9E
330
1F
100
AcDbEntity
  8
sled lng - arm 2d
100
AcDbSpline
210
0.0
220
0.0
230
1.0
 70
     8
 71
     3
 72
     9
 73
     5
 74
     0
 42
0.0000000001
 43
0.0000000001
 40
-3.420629572010786
 40
-3.420629572010786
 40
-3.420629572010786
 40
-3.420629572010786
 40
-1.349292166344126
 40
0.0
 40
0.0
 40
0.0
 40
0.0
 10
-6.04866950074636
 20
12.97435214500042
 30
0.0
 10
-5.45494940245861
 20
12.62191512901718
 30
0.0
 10
-4.420067120764066
 20
12.13107855645281
 30
0.0
 10
-3.313143415754405
 20
11.83649130679194
 30
0.0
 10
-2.867535973837375
 20
11.77548546050464
 30
0.0
  0
SPLINE
  5
9F
330
1F
100
AcDbEntity
  8
sled lng - arm 2d
100
AcDbSpline
210
0.0
220
0.0
230
1.0
 70
     8
 71
     3
 72
     8
 73
     4
 74
     0
 42
0.0000000001
 43
0.0000000001
 40
0.0
 40
0.0
 40
0.0
 40
0.0
 40
1.0
 40
1.0
 40
1.0
 40
1.0
 10
-2.867535973837375
 20
11.77548546050464
 30
0.0
 10
-1.317309136281624
 20
11.56325179637302
 30
0.0
 10
1.317309136281624
 20
11.56325179637302
 30
0.0
 10
2.867535973837375
 20
11.77548546050464
 30
0.0
  0
SPLINE
  5
A0
330
1F
100
AcDbEntity
  8
sled lng - arm 2d
100
AcDbSpline
210
0.0
220
0.0
230
1.0
 70
     8
 71
     3
 72
     9
 73
     5
 74
     0
 42
0.0000000001
 43
0.0000000001
 40
0.0
 40
0.0
 40
0.0
 40
0.0
 40
1.349292166344126
 40
3.420629572010786
 40
3.420629572010786
 40
3.420629572010786
 40
3.420629572010786
 10
2.867535973837375
 20
11.77548546050464
 30
0.0
 10
3.313143415754405
 20
11.83649130679194
 30
0.0
 10
4.420067120764066
 20
12.13107855645281
 30
0.0
 10
5.45494940245861
 20
12.62191512901718
 30
0.0
 10
6.04866950074636
 20
12.97435214500042
 30
0.0
  0
SPLINE
  5
A1
330
1F
100
AcDbEntity
  8
sled lng - arm 2d
100
AcDbSpline
210
0.0
220
0.0
230
1.0
 70
     8
 71
     3
 72
     8
 73
     4
 74
     0
 42
0.0000000001
 43
0.0000000001
 40
-1.0
 40
-1.0
 40
-1.0
 40
-1.0
 40
0.0
 40
0.0
 40
0.0
 40
0.0
 10
6.04866950074636
 20
12.97435214500042
 30
0.0
 10
6.701388874482294
 20
13.36181160446182
 30
0.0
 10
7.068227554476496
 20
12.88377098037367
 30
0.0
 10
7.250675725740863
 20
12.08072235522038
 30
0.0
  0
SPLINE
  5
A2
330
1F
100
AcDbEntity
  8
sled lng - arm 2d
100
AcDbSpline
210
0.0
220
0.0
230
1.0
 70
    24
 71
     2
 72
     6
 73
     3
 74
     0
 42
0.0000000001
 43
0.0000000001
 40
-10.47647704162769
 40
-10.47647704162769
 40
-10.47647704162769
 40
0.0
 40
0.0
 40
0.0
 10
7.250675725740863
 20
12.08072235522038
 30
0.0
 10
8.411778073864776
 20
6.970109584625515
 30
0.0
 10
9.572880421988689
 20
1.859496814030648
 30
0.0
  0
SPLINE
  5
A3
330
1F
100
AcDbEntity
  8
sled lng - arm 2d
100
AcDbSpline
210
0.0
220
0.0
230
1.0
 70
     8
 71
     3
 72
    12
 73
     8
 74
     0
 42
0.0000000001
 43
0.0000000001
 40
-2.101053696080463
 40
-2.101053696080463
 40
-2.101053696080463
 40
-2.101053696080463
 40
-1.468507439927334
 40
-0.8929999723393295
 40
-0.4214618998977446
 40
-0.204846491955015
 40
0.0
 40
0.0
 40
0.0
 40
0.0
 10
9.572880421988689
 20
1.859496814030648
 30
0.0
 10
9.621087086572459
 20
1.648714502836126
 30
0.0
 10
9.662203426084332
 20
1.245092527547185
 30
0.0
 10
9.562135251430588
 20
0.686730392495706
 30
0.0
 10
9.324540085121004
 20
0.3237271338792115
 30
0.0
 10
9.059317053259875
 20
0.173851852030194
 30
0.0
 10
8.919807455142717
 20
0.1512126284547936
 30
0.0
 10
8.851171041534903
 20
0.1509980106562719
 30
0.0
  0
LINE
  5
A4
330
1F
100
AcDbEntity
  8
sled lng - arm 2d
100
AcDbLine
 10
-8.73775106958721
 20
49.85086255964652
 30
0.0
 11
-9.189444795811571
 21
49.29014983294534
 31
0.0
  0
SPLINE
  5
A5
330
1F
100
AcDbEntity
  8
sled lng - arm 2d
100
AcDbSpline
210
0.0
220
0.0
230
1.0
 70
     8
 71
     3
 72
    15
 73
    11
 74
     0
 42
0.0000000001
 43
0.0000000001
 40
0.9331786182637601
 40
0.9331786182637601
 40
0.9331786182637601
 40
0.9331786182637601
 40
1.02317770488213
 40
1.08855774010105
 40
1.227154061638006
 40
1.51543375808294
 40
1.604968450722375
 40
1.708690952681963
 40
2.094120098362511
 40
2.469704591321855
 40
2.469704591321855
 40
2.469704591321855
 40
2.469704591321855
 10
-9.189444795811571
 20
49.29014983294534
 30
0.0
 10
-9.223439882681784
 20
49.24896969897909
 30
0.0
 10
-9.25687497793012
 20
49.20700584652535
 30
0.0
 10
-9.33620234324262
 20
49.15162037551368
 30
0.0
 10
-9.511414619871703
 20
49.12340670038278
 30
0.0
 10
-9.651227255101071
 20
49.27555410636079
 30
0.0
 10
-9.629253139073075
 20
49.44199268779503
 30
0.0
 10
-9.527439960465355
 20
49.60575319974695
 30
0.0
 10
-9.358791903498467
 20
49.83997773146697
 30
0.0
 10
-9.210507647824326
 20
50.04558821744043
 30
0.0
 10
-9.136456091700676
 20
50.14650424709326
 30
0.0
  0
SPLINE
  5
A6
330
1F
100
AcDbEntity
  8
sled lng - arm 2d
100
AcDbSpline
210
0.0
220
0.0
230
1.0
 70
    24
 71
     2
 72
     6
 73
     3
 74
     0
 42
0.0000000001
 43
0.0000000001
 40
0.0
 40
0.0
 40
0.0
 40
0.7005582910886277
 40
0.7005582910886277
 40
0.7005582910886277
 10
-9.530543654212849
 20
49.56491440294623
 30
0.0
 10
-9.310800699560115
 20
49.83769364277899
 30
0.0
 10
-9.09105774490738
 20
50.11047288261176
 30
0.0
  0
SPLINE
  5
A7
330
1F
100
AcDbEntity
  8
sled lng - arm 2d
100
AcDbSpline
210
0.0
220
0.0
230
1.0
 70
    12
 71
     2
 72
     6
 73
     3
 74
     0
 42
0.0000000001
 43
0.0000000001
 40
0.0
 40
0.0
 40
0.0
 40
0.157945185191938
 40
0.157945185191938
 40
0.157945185191938
 10
-8.090127454253585
 20
62.90822254017883
 30
0.0
 41
1.0
 10
-8.064207176535014
 20
62.98283113552171
 30
0.0
 41
0.9998036815467056
 10
-8.03535122815898
 20
63.05635417639572
 30
0.0
 41
1.0
  0
SPLINE
  5
A8
330
1F
100
AcDbEntity
  8
sled lng - arm 2d
100
AcDbSpline
210
0.0
220
0.0
230
1.0
 70
     8
 71
     3
 72
    34
 73
    30
 74
     0
 42
0.0000000001
 43
0.0000000001
 40
0.0
 40
0.0
 40
0.0
 40
0.0
 40
0.9999999999825254
 40
1.999999999983197
 40
2.99999999998387
 40
3.999999999984542
 40
4.999999999985214
 40
5.999999999985886
 40
6.999999999986558
 40
7.999999999987231
 40
8.999999999987903
 40
9.999999999988574
 40
10.99999999998925
 40
11.99999999998992
 40
12.99999999999059
 40
13.99999999999126
 40
14.99999999999194
 40
15.99999999999261
 40
16.99999999999328
 40
17.99999999999395
 40
18.99999999999462
 40
19.9999999999953
 40
20.99999999999597
 40
21.99999999999664
 40
22.99999999999731
 40
23.99999999999798
 40
24.99999999999866
 40
25.99999999999933
 40
27.0
 40
27.0
 40
27.0
 40
27.0
 10
-0.0000000000200835
 20
65.94630317185678
 30
0.0
 10
0.3689705655015526
 20
65.9500001391146
 30
0.0
 10
1.10704110792548
 20
65.94617763539586
 30
0.0
 10
2.213465149293848
 20
65.91184831592167
 30
0.0
 10
3.318725626432717
 20
65.83717470060661
 30
0.0
 10
4.412321236589063
 20
65.660374811535
 30
0.0
 10
5.486397012734698
 20
65.38001381894466
 30
0.0
 10
6.487402762349812
 20
64.89096020146856
 30
0.0
 10
7.373569092861318
 20
64.22177278776462
 30
0.0
 10
8.00091713145844
 20
63.28549932075389
 30
0.0
 10
8.302999059577676
 20
62.21352787581221
 30
0.0
 10
8.451433700100022
 20
61.11602204512442
 30
0.0
 10
8.562824396662242
 20
60.01457680432246
 30
0.0
 10
8.623938083679949
 20
58.90889368899981
 30
0.0
 10
8.628983141573752
 20
57.80169801296033
 30
0.0
 10
8.605545278938846
 20
56.69495420167917
 30
0.0
 10
8.579024328268257
 20
55.58832187277341
 30
0.0
 10
8.543757205511513
 20
54.48179664591597
 30
0.0
 10
8.464644759968726
 20
53.37742894211282
 30
0.0
 10
8.301735425774218
 20
52.28041486280281
 30
0.0
 10
7.990852177506031
 20
51.21632538059515
 30
0.0
 10
7.413414704458309
 20
50.24431761061934
 30
0.0
 10
6.451618853284137
 20
49.65152516573775
 30
0.0
 10
5.440818569380744
 20
49.20907576947686
 30
0.0
 10
4.384153385223704
 20
48.87062075823597
 30
0.0
 10
3.307049429469447
 20
48.61359559338278
 30
0.0
 10
2.211513301020476
 20
48.44706981372575
 30
0.0
 10
1.106885753184334
 20
48.36753288955071
 30
0.0
 10
0.3690206657538913
 20
48.34751818921253
 30
0.0
 10
-0.0000000000200835
 20
48.34956638048682
 30
0.0
  0
SPLINE
  5
A9
330
1F
100
AcDbEntity
  8
sled lng - arm 2d
100
AcDbSpline
210
0.0
220
0.0
230
1.0
 70
     8
 71
     3
 72
    34
 73
    30
 74
     0
 42
0.0000000001
 43
0.0000000001
 40
-27.0
 40
-27.0
 40
-27.0
 40
-27.0
 40
-25.99999999999933
 40
-24.99999999999866
 40
-23.99999999999798
 40
-22.99999999999731
 40
-21.99999999999664
 40
-20.99999999999597
 40
-19.9999999999953
 40
-18.99999999999462
 40
-17.99999999999395
 40
-16.99999999999328
 40
-15.99999999999261
 40
-14.99999999999194
 40
-13.99999999999126
 40
-12.99999999999059
 40
-11.99999999998992
 40
-10.99999999998925
 40
-9.999999999988574
 40
-8.999999999987903
 40
-7.999999999987231
 40
-6.999999999986558
 40
-5.999999999985886
 40
-4.999999999985214
 40
-3.999999999984542
 40
-2.99999999998387
 40
-1.999999999983197
 40
-0.9999999999825254
 40
0.0
 40
0.0
 40
0.0
 40
0.0
 10
-0.0000000000200835
 20
48.34956638048682
 30
0.0
 10
-0.3690206657940583
 20
48.34751818921253
 30
0.0
 10
-1.106885753224501
 20
48.36753288955071
 30
0.0
 10
-2.211513301060643
 20
48.44706981372575
 30
0.0
 10
-3.307049429509614
 20
48.61359559338278
 30
0.0
 10
-4.384153385263871
 20
48.87062075823597
 30
0.0
 10
-5.440818569420911
 20
49.20907576947686
 30
0.0
 10
-6.451618853324304
 20
49.65152516573775
 30
0.0
 10
-7.413414704498476
 20
50.24431761061934
 30
0.0
 10
-7.990852177546198
 20
51.21632538059515
 30
0.0
 10
-8.301735425814385
 20
52.28041486280281
 30
0.0
 10
-8.464644760008893
 20
53.37742894211282
 30
0.0
 10
-8.54375720555168
 20
54.48179664591597
 30
0.0
 10
-8.579024328308424
 20
55.58832187277341
 30
0.0
 10
-8.605545278979013
 20
56.69495420167917
 30
0.0
 10
-8.628983141613919
 20
57.80169801296033
 30
0.0
 10
-8.623938083720116
 20
58.90889368899981
 30
0.0
 10
-8.562824396702409
 20
60.01457680432246
 30
0.0
 10
-8.45143370014019
 20
61.11602204512442
 30
0.0
 10
-8.302999059617843
 20
62.21352787581221
 30
0.0
 10
-8.000917131498607
 20
63.28549932075389
 30
0.0
 10
-7.373569092901485
 20
64.22177278776462
 30
0.0
 10
-6.487402762389979
 20
64.89096020146856
 30
0.0
 10
-5.486397012774865
 20
65.38001381894466
 30
0.0
 10
-4.41232123662923
 20
65.660374811535
 30
0.0
 10
-3.318725626472884
 20
65.83717470060661
 30
0.0
 10
-2.213465149334015
 20
65.91184831592167
 30
0.0
 10
-1.107041107965647
 20
65.94617763539586
 30
0.0
 10
-0.3689705655417196
 20
65.9500001391146
 30
0.0
 10
-0.0000000000200835
 20
65.94630317185678
 30
0.0
  0
SPLINE
  5
AA
330
1F
100
AcDbEntity
  8
sled lng - arm 2d
100
AcDbSpline
210
0.0
220
0.0
230
1.0
 70
    12
 71
     2
 72
     6
 73
     3
 74
     0
 42
0.0000000001
 43
0.0000000001
 40
0.0
 40
0.0
 40
0.0
 40
0.2458638797029846
 40
0.2458638797029846
 40
0.2458638797029846
 10
-13.39922735404845
 20
60.60503935473457
 30
0.0
 41
1.0
 10
-13.404092443965
 20
60.4822013163705
 30
0.0
 41
0.9999706739373122
 10
-13.40707552990113
 20
60.35930317168422
 30
0.0
 41
1.0
  0
SPLINE
  5
AB
330
1F
100
AcDbEntity
  8
sled lng - arm 2d
100
AcDbSpline
210
0.0
220
0.0
230
1.0
 70
     8
 71
     3
 72
    34
 73
    30
 74
     0
 42
0.0000000001
 43
0.0000000001
 40
0.0
 40
0.0
 40
0.0
 40
0.0
 40
1.000000001386443
 40
2.000000002772885
 40
3.000000004159328
 40
4.00000000554577
 40
5.000000006932213
 40
6.000000008318655
 40
7.000000009705097
 40
8.00000001109154
 40
9.000000012477983
 40
10.00000001386443
 40
11.00000001525087
 40
12.00000001663731
 40
13.00000001802375
 40
14.00000001941019
 40
15.00000002079664
 40
16.00000002218308
 40
17.00000002356952
 40
18.00000002495596
 40
19.00000002634241
 40
20.00000002772885
 40
21.00000002911529
 40
22.00000003050173
 40
23.00000003188818
 40
24.00000003327462
 40
25.00000003466106
 40
26.0000000360475
 40
27.0
 40
27.0
 40
27.0
 40
27.0
 10
-0.0000000602187065
 20
74.57108915590946
 30
0.0
 10
0.536230009777933
 20
74.57134835987318
 30
0.0
 10
1.608740873593421
 20
74.53164074507431
 30
0.0
 10
3.208142703883255
 20
74.34733315567698
 30
0.0
 10
4.789248084588736
 20
74.04807984289084
 30
0.0
 10
6.347770116487255
 20
73.63779888367307
 30
0.0
 10
7.857488203213332
 20
73.09485436301715
 30
0.0
 10
9.272014325532545
 20
72.2480919834394
 30
0.0
 10
10.11596014784199
 20
70.85212372253042
 30
0.0
 10
10.90319296962283
 20
69.4563625525985
 30
0.0
 10
11.62509544926831
 20
68.01599135760219
 30
0.0
 10
12.24286893292516
 20
66.52979897690432
 30
0.0
 10
12.73553487324831
 20
64.9966542819202
 30
0.0
 10
13.08976976658475
 20
63.42602707096255
 30
0.0
 10
13.32571460836084
 20
61.83369351079764
 30
0.0
 10
13.44465078114528
 20
60.2281787958816
 30
0.0
 10
13.40797274841751
 20
58.61688154192603
 30
0.0
 10
13.15904543957545
 20
57.02504940632543
 30
0.0
 10
12.75811895107386
 20
55.46424892735812
 30
0.0
 10
12.15302713109705
 20
53.9692513432195
 30
0.0
 10
11.32751049686342
 20
52.58440543162472
 30
0.0
 10
10.3806502883918
 20
51.28176348317162
 30
0.0
 10
9.228287885006692
 20
50.14371739904414
 30
0.0
 10
7.857540797678129
 20
49.29167413064031
 30
0.0
 10
6.372080793309838
 20
48.6603374558307
 30
0.0
 10
4.809034186645396
 20
48.26524463149475
 30
0.0
 10
3.214867964724237
 20
48.03887471171233
 30
0.0
 10
1.60891605528253
 20
47.93148761345296
 30
0.0
 10
0.5362049635393497
 20
47.92023911071425
 30
0.0
 10
-0.0000000602187065
 20
47.92324685450122
 30
0.0
  0
SPLINE
  5
AC
330
1F
100
AcDbEntity
  8
sled lng - arm 2d
100
AcDbSpline
210
0.0
220
0.0
230
1.0
 70
     8
 71
     3
 72
    34
 73
    30
 74
     0
 42
0.0000000001
 43
0.0000000001
 40
-27.0
 40
-27.0
 40
-27.0
 40
-27.0
 40
-26.0000000360475
 40
-25.00000003466106
 40
-24.00000003327462
 40
-23.00000003188818
 40
-22.00000003050173
 40
-21.00000002911529
 40
-20.00000002772885
 40
-19.00000002634241
 40
-18.00000002495596
 40
-17.00000002356952
 40
-16.00000002218308
 40
-15.00000002079664
 40
-14.00000001941019
 40
-13.00000001802375
 40
-12.00000001663731
 40
-11.00000001525087
 40
-10.00000001386443
 40
-9.000000012477983
 40
-8.00000001109154
 40
-7.000000009705097
 40
-6.000000008318655
 40
-5.000000006932213
 40
-4.00000000554577
 40
-3.000000004159328
 40
-2.000000002772885
 40
-1.000000001386443
 40
0.0
 40
0.0
 40
0.0
 40
0.0
 10
-0.0000000602187065
 20
47.92324685450122
 30
0.0
 10
-0.5362050839767626
 20
47.92023911071425
 30
0.0
 10
-1.608916175719943
 20
47.93148761345296
 30
0.0
 10
-3.21486808516165
 20
48.03887471171233
 30
0.0
 10
-4.809034307082809
 20
48.26524463149475
 30
0.0
 10
-6.372080913747251
 20
48.6603374558307
 30
0.0
 10
-7.857540918115542
 20
49.29167413064031
 30
0.0
 10
-9.228288005444105
 20
50.14371739904414
 30
0.0
 10
-10.38065040882921
 20
51.28176348317162
 30
0.0
 10
-11.32751061730084
 20
52.58440543162472
 30
0.0
 10
-12.15302725153446
 20
53.9692513432195
 30
0.0
 10
-12.75811907151127
 20
55.46424892735812
 30
0.0
 10
-13.15904556001286
 20
57.02504940632543
 30
0.0
 10
-13.40797286885493
 20
58.61688154192603
 30
0.0
 10
-13.4446509015827
 20
60.2281787958816
 30
0.0
 10
-13.32571472879826
 20
61.83369351079764
 30
0.0
 10
-13.08976988702216
 20
63.42602707096255
 30
0.0
 10
-12.73553499368573
 20
64.9966542819202
 30
0.0
 10
-12.24286905336257
 20
66.52979897690432
 30
0.0
 10
-11.62509556970572
 20
68.01599135760219
 30
0.0
 10
-10.90319309006024
 20
69.4563625525985
 30
0.0
 10
-10.1159602682794
 20
70.85212372253042
 30
0.0
 10
-9.272014445969958
 20
72.2480919834394
 30
0.0
 10
-7.857488323650745
 20
73.09485436301715
 30
0.0
 10
-6.347770236924668
 20
73.63779888367307
 30
0.0
 10
-4.789248205026149
 20
74.04807984289084
 30
0.0
 10
-3.208142824320668
 20
74.34733315567698
 30
0.0
 10
-1.608740994030834
 20
74.53164074507431
 30
0.0
 10
-0.5362301302153459
 20
74.57134835987318
 30
0.0
 10
-0.0000000602187065
 20
74.57108915590946
 30
0.0
  0
LINE
  5
AD
330
1F
100
AcDbEntity
  8
sled lng - arm 2d
100
AcDbLine
 10
8.73775106958721
 20
49.85086255964652
 30
0.0
 11
9.189444795811571
 21
49.29014983294534
 31
0.0
  0
SPLINE
  5
AE
330
1F
100
AcDbEntity
  8
sled lng - arm 2d
100
AcDbSpline
210
0.0
220
0.0
230
1.0
 70
     8
 71
     3
 72
    15
 73
    11
 74
     0
 42
0.0000000001
 43
0.0000000001
 40
0.9331786182637601
 40
0.9331786182637601
 40
0.9331786182637601
 40
0.9331786182637601
 40
1.02317770488213
 40
1.08855774010105
 40
1.227154061638006
 40
1.51543375808294
 40
1.604968450722375
 40
1.708690952681963
 40
2.094120098362511
 40
2.469704591321855
 40
2.469704591321855
 40
2.469704591321855
 40
2.469704591321855
 10
9.189444795811571
 20
49.29014983294534
 30
0.0
 10
9.223439882681784
 20
49.24896969897909
 30
0.0
 10
9.25687497793012
 20
49.20700584652535
 30
0.0
 10
9.33620234324262
 20
49.15162037551368
 30
0.0
 10
9.511414619871703
 20
49.12340670038278
 30
0.0
 10
9.651227255101071
 20
49.27555410636079
 30
0.0
 10
9.629253139073075
 20
49.44199268779503
 30
0.0
 10
9.527439960465355
 20
49.60575319974695
 30
0.0
 10
9.358791903498467
 20
49.83997773146697
 30
0.0
 10
9.210507647824326
 20
50.04558821744043
 30
0.0
 10
9.136456091700676
 20
50.14650424709326
 30
0.0
  0
SPLINE
  5
AF
330
1F
100
AcDbEntity
  8
sled lng - arm 2d
100
AcDbSpline
210
0.0
220
0.0
230
1.0
 70
    24
 71
     2
 72
     6
 73
     3
 74
     0
 42
0.0000000001
 43
0.0000000001
 40
0.0
 40
0.0
 40
0.0
 40
0.7005582910886277
 40
0.7005582910886277
 40
0.7005582910886277
 10
9.530543654212849
 20
49.56491440294623
 30
0.0
 10
9.310800699560115
 20
49.83769364277899
 30
0.0
 10
9.09105774490738
 20
50.11047288261176
 30
0.0
  0
ENDSEC
  0
SECTION
  2
OBJECTS
  0
DICTIONARY
  5
C
330
0
100
AcDbDictionary
281
     1
  3
ACAD_GROUP
350
D
  3
ACAD_LAYOUT
350
1A
  3
ACAD_MLEADERSTYLE
350
B1
  3
ACAD_MLINESTYLE
350
17
  3
ACAD_PLOTSETTINGS
350
19
  3
ACAD_PLOTSTYLENAME
350
E
  3
ACAD_TABLESTYLE
350
B0
  3
ACAD_VISUALSTYLE
350
2A
  0
DICTIONARY
  5
D
102
{ACAD_REACTORS
330
C
102
}
330
C
100
AcDbDictionary
281
     1
  0
DICTIONARY
  5
1A
102
{ACAD_REACTORS
330
C
102
}
330
C
100
AcDbDictionary
281
     1
  3
Layout1
350
1E
  3
Layout2
350
26
  3
Model
350
22
  0
DICTIONARY
  5
B1
102
{ACAD_REACTORS
330
C
102
}
330
C
100
AcDbDictionary
281
     1
  0
DICTIONARY
  5
17
102
{ACAD_REACTORS
330
C
102
}
330
C
100
AcDbDictionary
281
     1
  3
Standard
350
18
  0
DICTIONARY
  5
19
102
{ACAD_REACTORS
330
C
102
}
330
C
100
AcDbDictionary
281
     1
  0
ACDBDICTIONARYWDFLT
  5
E
102
{ACAD_REACTORS
330
C
102
}
330
C
100
AcDbDictionary
281
     1
  3
Normal
350
F
100
AcDbDictionaryWithDefault
340
F
  0
DICTIONARY
  5
B0
102
{ACAD_REACTORS
330
C
102
}
330
C
100
AcDbDictionary
281
     1
  0
DICTIONARY
  5
2A
102
{ACAD_REACTORS
330
C
102
}
330
C
100
AcDbDictionary
281
     1
  3
2dWireframe
350
2F
  3
3D Hidden
350
31
  3
3dWireframe
350
30
  3
Basic
350
32
  3
Brighten
350
36
  3
ColorChange
350
3A
  3
Conceptual
350
34
  3
Dim
350
35
  3
Facepattern
350
39
  3
Flat
350
2B
  3
FlatWithEdges
350
2C
  3
Gouraud
350
2D
  3
GouraudWithEdges
350
2E
  3
Linepattern
350
38
  3
Realistic
350
33
  3
Thicken
350
37
  0
LAYOUT
  5
1E
102
{ACAD_REACTORS
330
1A
102
}
330
1A
100
AcDbPlotSettings
  1

  2
none_device
  4

  6

 40
0.0
 41
0.0
 42
0.0
 43
0.0
 44
0.0
 45
0.0
 46
0.0
 47
0.0
 48
0.0
 49
0.0
140
0.0
141
0.0
142
1.0
143
1.0
 70
   688
 72
     0
 73
     0
 74
     5
  7

 75
    16
 76
     0
 77
     2
 78
   300
147
1.0
148
0.0
149
0.0
100
AcDbLayout
  1
Layout1
 70
     1
 71
     1
 10
0.0
 20
0.0
 11
12.0
 21
9.0
 12
0.0
 22
0.0
 32
0.0
 14
1.000000000000000E+20
 24
1.000000000000000E+20
 34
1.000000000000000E+20
 15
-1.000000000000000E+20
 25
-1.000000000000000E+20
 35
-1.000000000000000E+20
146
0.0
 13
0.0
 23
0.0
 33
0.0
 16
1.0
 26
0.0
 36
0.0
 17
0.0
 27
1.0
 37
0.0
 76
     0
330
1B
  0
LAYOUT
  5
26
102
{ACAD_REACTORS
330
1A
102
}
330
1A
100
AcDbPlotSettings
  1

  2
none_device
  4

  6

 40
0.0
 41
0.0
 42
0.0
 43
0.0
 44
0.0
 45
0.0
 46
0.0
 47
0.0
 48
0.0
 49
0.0
140
0.0
141
0.0
142
1.0
143
1.0
 70
   688
 72
     0
 73
     0
 74
     5
  7

 75
    16
 76
     0
 77
     2
 78
   300
147
1.0
148
0.0
149
0.0
100
AcDbLayout
  1
Layout2
 70
     1
 71
     2
 10
0.0
 20
0.0
 11
0.0
 21
0.0
 12
0.0
 22
0.0
 32
0.0
 14
0.0
 24
0.0
 34
0.0
 15
0.0
 25
0.0
 35
0.0
146
0.0
 13
0.0
 23
0.0
 33
0.0
 16
1.0
 26
0.0
 36
0.0
 17
0.0
 27
1.0
 37
0.0
 76
     0
330
23
  0
LAYOUT
  5
22
102
{ACAD_REACTORS
330
1A
102
}
330
1A
100
AcDbPlotSettings
  1

  2
none_device
  4

  6

 40
0.0
 41
0.0
 42
0.0
 43
0.0
 44
0.0
 45
0.0
 46
0.0
 47
0.0
 48
0.0
 49
0.0
140
0.0
141
0.0
142
1.0
143
1.0
 70
  1712
 72
     0
 73
     0
 74
     0
  7

 75
     0
 76
     0
 77
     2
 78
   300
147
1.0
148
0.0
149
0.0
100
AcDbLayout
  1
Model
 70
     1
 71
     0
 10
0.0
 20
0.0
 11
12.0
 21
9.0
 12
0.0
 22
0.0
 32
0.0
 14
-13.41871520066399
 24
-0.0000008859445404
 34
0.0
 15
53.70850108428228
 25
74.57108915590955
 35
0.0
146
0.0
 13
0.0
 23
0.0
 33
0.0
 16
1.0
 26
0.0
 36
0.0
 17
0.0
 27
1.0
 37
0.0
 76
     0
330
1F
331
29
  0
MLINESTYLE
  5
18
102
{ACAD_REACTORS
330
17
102
}
330
17
100
AcDbMlineStyle
  2
Standard
 70
     0
  3

 62
   256
 51
90.0
 52
90.0
 71
     2
 49
0.5
 62
   256
  6
BYLAYER
 49
-0.5
 62
   256
  6
BYLAYER
  0
ACDBPLACEHOLDER
  5
F
102
{ACAD_REACTORS
330
E
102
}
330
E
  0
VISUALSTYLE
  5
2F
102
{ACAD_REACTORS
330
2A
102
}
330
2A
100
AcDbVisualStyle
  2
2dWireframe
 70
     4
 71
     0
 72
     2
 73
     0
 90
        0
 40
-0.6
 41
-30.0
 62
     5
 63
     7
421
 16777215
 74
     1
 91
        4
 64
     7
 65
   257
 75
     1
175
     1
 42
1.0
 92
        0
 66
   257
 43
1.0
 76
     1
 77
     6
 78
     2
 67
     7
 79
     5
170
     0
171
     0
290
     0
174
     0
 93
        1
 44
0.0
173
     0
291
     0
 45
0.0
1001
ACAD
1000
AcDbSavedByObjectVersion
1070
     0
  0
VISUALSTYLE
  5
31
102
{ACAD_REACTORS
330
2A
102
}
330
2A
100
AcDbVisualStyle
  2
3D Hidden
 70
     6
 71
     1
 72
     2
 73
     2
 90
        0
 40
-0.6
 41
-30.0
 62
     5
 63
     7
421
 16777215
 74
     2
 91
        2
 64
     7
 65
   257
 75
     2
175
     1
 42
40.0
 92
        0
 66
   257
 43
1.0
 76
     1
 77
     6
 78
     2
 67
     7
 79
     3
170
     0
171
     0
290
     0
174
     0
 93
        1
 44
0.0
173
     0
291
     0
 45
0.0
1001
ACAD
1000
AcDbSavedByObjectVersion
1070
     0
  0
VISUALSTYLE
  5
30
102
{ACAD_REACTORS
330
2A
102
}
330
2A
100
AcDbVisualStyle
  2
3dWireframe
 70
     5
 71
     0
 72
     2
 73
     0
 90
        0
 40
-0.6
 41
-30.0
 62
     5
 63
     7
421
 16777215
 74
     1
 91
        4
 64
     7
 65
   257
 75
     1
175
     1
 42
1.0
 92
        0
 66
   257
 43
1.0
 76
     1
 77
     6
 78
     2
 67
     7
 79
     5
170
     0
171
     0
290
     0
174
     0
 93
        1
 44
0.0
173
     0
291
     0
 45
0.0
1001
ACAD
1000
AcDbSavedByObjectVersion
1070
     0
  0
VISUALSTYLE
  5
32
102
{ACAD_REACTORS
330
2A
102
}
330
2A
100
AcDbVisualStyle
  2
Basic
 70
     7
 71
     1
 72
     0
 73
     1
 90
        0
 40
-0.6
 41
-30.0
 62
     5
 63
     7
421
 16777215
 74
     0
 91
        4
 64
     7
 65
   257
 75
     1
175
     1
 42
1.0
 92
        8
 66
     7
 43
1.0
 76
     1
 77
     6
 78
     2
 67
     7
 79
     5
170
     0
171
     0
290
     0
174
     0
 93
        1
 44
0.0
173
     0
291
     1
 45
0.0
1001
ACAD
1000
AcDbSavedByObjectVersion
1070
     0
  0
VISUALSTYLE
  5
36
102
{ACAD_REACTORS
330
2A
102
}
330
2A
100
AcDbVisualStyle
  2
Brighten
 70
    12
 71
     2
 72
     2
 73
     0
 90
        0
 40
-0.6
 41
-30.0
 62
     5
 63
     7
421
 16777215
 74
     1
 91
        4
 64
     7
 65
   257
 75
     1
175
     1
 42
1.0
 92
        8
 66
     7
 43
1.0
 76
     1
 77
     6
 78
     2
 67
     7
 79
     5
170
     0
171
     0
290
     0
174
     0
 93
        1
 44
50.0
173
     0
291
     1
 45
0.0
1001
ACAD
1000
AcDbSavedByObjectVersion
1070
     0
  0
VISUALSTYLE
  5
3A
102
{ACAD_REACTORS
330
2A
102
}
330
2A
100
AcDbVisualStyle
  2
ColorChange
 70
    16
 71
     2
 72
     2
 73
     3
 90
        0
 40
-0.6
 41
-30.0
 62
     5
 63
     8
421
  8421504
 74
     1
 91
        4
 64
     7
 65
   257
 75
     1
175
     1
 42
1.0
 92
        8
 66
     8
424
  8421504
 43
1.0
 76
     1
 77
     6
 78
     2
 67
     7
 79
     5
170
     0
171
     0
290
     0
174
     0
 93
        1
 44
0.0
173
     0
291
     1
 45
0.0
1001
ACAD
1000
AcDbSavedByObjectVersion
1070
     0
  0
VISUALSTYLE
  5
34
102
{ACAD_REACTORS
330
2A
102
}
330
2A
100
AcDbVisualStyle
  2
Conceptual
 70
     9
 71
     3
 72
     2
 73
     0
 90
        0
 40
-0.6
 41
-30.0
 62
     5
 63
     7
421
 16777215
 74
     2
 91
        2
 64
     7
 65
   257
 75
     1
175
     1
 42
40.0
 92
        8
 66
     7
 43
1.0
 76
     1
 77
     6
 78
     2
 67
     7
 79
     3
170
     0
171
     0
290
     0
174
     0
 93
        1
 44
0.0
173
     0
291
     0
 45
0.0
1001
ACAD
1000
AcDbSavedByObjectVersion
1070
     0
  0
VISUALSTYLE
  5
35
102
{ACAD_REACTORS
330
2A
102
}
330
2A
100
AcDbVisualStyle
  2
Dim
 70
    11
 71
     2
 72
     2
 73
     0
 90
        0
 40
-0.6
 41
-30.0
 62
     5
 63
     7
421
 16777215
 74
     1
 91
        4
 64
     7
 65
   257
 75
     1
175
     1
 42
1.0
 92
        8
 66
     7
 43
1.0
 76
     1
 77
     6
 78
     2
 67
     7
 79
     5
170
     0
171
     0
290
     0
174
     0
 93
        1
 44
-50.0
173
     0
291
     1
 45
0.0
1001
ACAD
1000
AcDbSavedByObjectVersion
1070
     0
  0
VISUALSTYLE
  5
39
102
{ACAD_REACTORS
330
2A
102
}
330
2A
100
AcDbVisualStyle
  2
Facepattern
 70
    15
 71
     2
 72
     2
 73
     0
 90
        0
 40
-0.6
 41
-30.0
 62
     5
 63
     7
421
 16777215
 74
     1
 91
        4
 64
     7
 65
   257
 75
     1
175
     1
 42
1.0
 92
        8
 66
     7
 43
1.0
 76
     1
 77
     6
 78
     2
 67
     7
 79
     5
170
     0
171
     0
290
     0
174
     0
 93
        1
 44
0.0
173
     0
291
     1
 45
0.0
1001
ACAD
1000
AcDbSavedByObjectVersion
1070
     0
  0
VISUALSTYLE
  5
2B
102
{ACAD_REACTORS
330
2A
102
}
330
2A
100
AcDbVisualStyle
  2
Flat
 70
     0
 71
     2
 72
     1
 73
     1
 90
        2
 40
-0.6
 41
30.0
 62
     5
 63
     7
421
 16777215
 74
     0
 91
        4
 64
     7
 65
   257
 75
     1
175
     1
 42
1.0
 92
        8
 66
     7
 43
1.0
 76
     1
 77
     6
 78
     2
 67
     7
 79
     5
170
     0
171
     0
290
     0
174
     0
 93
       13
 44
0.0
173
     0
291
     1
 45
0.0
1001
ACAD
1000
AcDbSavedByObjectVersion
1070
     0
  0
VISUALSTYLE
  5
2C
102
{ACAD_REACTORS
330
2A
102
}
330
2A
100
AcDbVisualStyle
  2
FlatWithEdges
 70
     1
 71
     2
 72
     1
 73
     1
 90
        2
 40
-0.6
 41
30.0
 62
     5
 63
     7
421
 16777215
 74
     1
 91
        4
 64
     7
 65
   257
 75
     1
175
     1
 42
1.0
 92
        0
 66
   257
 43
1.0
 76
     1
 77
     6
 78
     2
 67
     7
 79
     5
170
     0
171
     0
290
     0
174
     0
 93
       13
 44
0.0
173
     0
291
     1
 45
0.0
1001
ACAD
1000
AcDbSavedByObjectVersion
1070
     0
  0
VISUALSTYLE
  5
2D
102
{ACAD_REACTORS
330
2A
102
}
330
2A
100
AcDbVisualStyle
  2
Gouraud
 70
     2
 71
     2
 72
     2
 73
     1
 90
        2
 40
-0.6
 41
30.0
 62
     5
 63
     7
421
 16777215
 74
     0
 91
        4
 64
     7
 65
   257
 75
     1
175
     1
 42
1.0
 92
        0
 66
     7
 43
1.0
 76
     1
 77
     6
 78
     2
 67
     7
 79
     5
170
     0
171
     0
290
     0
174
     0
 93
       13
 44
0.0
173
     0
291
     1
 45
0.0
1001
ACAD
1000
AcDbSavedByObjectVersion
1070
     0
  0
VISUALSTYLE
  5
2E
102
{ACAD_REACTORS
330
2A
102
}
330
2A
100
AcDbVisualStyle
  2
GouraudWithEdges
 70
     3
 71
     2
 72
     2
 73
     1
 90
        2
 40
-0.6
 41
30.0
 62
     5
 63
     7
421
 16777215
 74
     1
 91
        4
 64
     7
 65
   257
 75
     1
175
     1
 42
1.0
 92
        0
 66
   257
 43
1.0
 76
     1
 77
     6
 78
     2
 67
     7
 79
     5
170
     0
171
     0
290
     0
174
     0
 93
       13
 44
0.0
173
     0
291
     1
 45
0.0
1001
ACAD
1000
AcDbSavedByObjectVersion
1070
     0
  0
VISUALSTYLE
  5
38
102
{ACAD_REACTORS
330
2A
102
}
330
2A
100
AcDbVisualStyle
  2
Linepattern
 70
    14
 71
     2
 72
     2
 73
     0
 90
        0
 40
-0.6
 41
-30.0
 62
     5
 63
     7
421
 16777215
 74
     1
 91
        4
 64
     7
 65
   257
 75
     7
175
     7
 42
1.0
 92
        8
 66
     7
 43
1.0
 76
     1
 77
     6
 78
     2
 67
     7
 79
     5
170
     0
171
     0
290
     0
174
     0
 93
        1
 44
0.0
173
     0
291
     1
 45
0.0
1001
ACAD
1000
AcDbSavedByObjectVersion
1070
     0
  0
VISUALSTYLE
  5
33
102
{ACAD_REACTORS
330
2A
102
}
330
2A
100
AcDbVisualStyle
  2
Realistic
 70
     8
 71
     2
 72
     2
 73
     0
 90
        0
 40
-0.6
 41
-30.0
 62
     5
 63
     7
421
 16777215
 74
     1
 91
        0
 64
     7
 65
   257
 75
     1
175
     1
 42
1.0
 92
        8
 66
     8
424
  7895160
 43
1.0
 76
     1
 77
     6
 78
     2
 67
     7
 79
     5
170
     0
171
     0
290
     0
174
     0
 93
       13
 44
0.0
173
     0
291
     0
 45
0.0
1001
ACAD
1000
AcDbSavedByObjectVersion
1070
     0
  0
VISUALSTYLE
  5
37
102
{ACAD_REACTORS
330
2A
102
}
330
2A
100
AcDbVisualStyle
  2
Thicken
 70
    13
 71
     2
 72
     2
 73
     0
 90
        0
 40
-0.6
 41
-30.0
 62
     5
 63
     7
421
 16777215
 74
     1
 91
        4
 64
     7
 65
   257
 75
     1
175
     1
 42
1.0
 92
       12
 66
     7
 43
1.0
 76
     1
 77
     6
 78
     2
 67
     7
 79
     5
170
     0
171
     0
290
     0
174
     0
 93
        1
 44
0.0
173
     0
291
     1
 45
0.0
1001
ACAD
1000
AcDbSavedByObjectVersion
1070
     0
  0
ENDSEC
  0
EOF
