  0
SECTION
  2
HEADER
  9
$ACADVER
  1
AC1018
  9
$ACADMAINTVER
 70
     0
  9
$DWGCODEPAGE
  3
ANSI_1252
  9
$INSBASE
 10
0.0
 20
0.0
 30
0.0
  9
$EXTMIN
 10
-11.80615073394798
 20
-0.000388641260708
 30
0.0
  9
$EXTMAX
 10
55.74632300799733
 20
75.95295677303952
 30
0.0
  9
$LIMMIN
 10
0.0
 20
0.0
  9
$LIMMAX
 10
12.0
 20
9.0
  9
$ORTHOMODE
 70
     0
  9
$REGENMODE
 70
     1
  9
$FILLMODE
 70
     1
  9
$QTEXTMODE
 70
     0
  9
$MIRRTEXT
 70
     1
  9
$LTSCALE
 40
0.0393700787401575
  9
$ATTMODE
 70
     1
  9
$TEXTSIZE
 40
0.2
  9
$TRACEWID
 40
0.05
  9
$TEXTSTYLE
  7
Standard
  9
$CLAYER
  8
0
  9
$CELTYPE
  6
ByLayer
  9
$CECOLOR
 62
   256
  9
$CELTSCALE
 40
1.0
  9
$DISPSILH
 70
     0
  9
$DIMSCALE
 40
1.0
  9
$DIMASZ
 40
0.18
  9
$DIMEXO
 40
0.0625
  9
$DIMDLI
 40
0.38
  9
$DIMRND
 40
0.0
  9
$DIMDLE
 40
0.0
  9
$DIMEXE
 40
0.18
  9
$DIMTP
 40
0.0
  9
$DIMTM
 40
0.0
  9
$DIMTXT
 40
0.18
  9
$DIMCEN
 40
0.09
  9
$DIMTSZ
 40
0.0
  9
$DIMTOL
 70
     0
  9
$DIMLIM
 70
     0
  9
$DIMTIH
 70
     1
  9
$DIMTOH
 70
     1
  9
$DIMSE1
 70
     0
  9
$DIMSE2
 70
     0
  9
$DIMTAD
 70
     0
  9
$DIMZIN
 70
     0
  9
$DIMBLK
  1

  9
$DIMASO
 70
     1
  9
$DIMSHO
 70
     1
  9
$DIMPOST
  1

  9
$DIMAPOST
  1

  9
$DIMALT
 70
     0
  9
$DIMALTD
 70
     2
  9
$DIMALTF
 40
25.4
  9
$DIMLFAC
 40
1.0
  9
$DIMTOFL
 70
     0
  9
$DIMTVP
 40
0.0
  9
$DIMTIX
 70
     0
  9
$DIMSOXD
 70
     0
  9
$DIMSAH
 70
     0
  9
$DIMBLK1
  1

  9
$DIMBLK2
  1

  9
$DIMSTYLE
  2
Standard
  9
$DIMCLRD
 70
     0
  9
$DIMCLRE
 70
     0
  9
$DIMCLRT
 70
     0
  9
$DIMTFAC
 40
1.0
  9
$DIMGAP
 40
0.09
  9
$DIMJUST
 70
     0
  9
$DIMSD1
 70
     0
  9
$DIMSD2
 70
     0
  9
$DIMTOLJ
 70
     1
  9
$DIMTZIN
 70
     0
  9
$DIMALTZ
 70
     0
  9
$DIMALTTZ
 70
     0
  9
$DIMUPT
 70
     0
  9
$DIMDEC
 70
     4
  9
$DIMTDEC
 70
     4
  9
$DIMALTU
 70
     2
  9
$DIMALTTD
 70
     2
  9
$DIMTXSTY
  7
Standard
  9
$DIMAUNIT
 70
     0
  9
$DIMADEC
 70
     0
  9
$DIMALTRND
 40
0.0
  9
$DIMAZIN
 70
     0
  9
$DIMDSEP
 70
    46
  9
$DIMATFIT
 70
     3
  9
$DIMFRAC
 70
     0
  9
$DIMLDRBLK
  1

  9
$DIMLUNIT
 70
     2
  9
$DIMLWD
 70
    -2
  9
$DIMLWE
 70
    -2
  9
$DIMTMOVE
 70
     2
  9
$LUNITS
 70
     2
  9
$LUPREC
 70
     3
  9
$SKETCHINC
 40
0.1
  9
$FILLETRAD
 40
0.5
  9
$AUNITS
 70
     0
  9
$AUPREC
 70
     0
  9
$MENU
  1
.
  9
$ELEVATION
 40
0.0
  9
$PELEVATION
 40
0.0
  9
$THICKNESS
 40
0.0
  9
$LIMCHECK
 70
     0
  9
$CHAMFERA
 40
0.5
  9
$CHAMFERB
 40
0.5
  9
$CHAMFERC
 40
1.0
  9
$CHAMFERD
 40
0.0
  9
$SKPOLY
 70
     0
  9
$TDCREATE
 40
2457883.507209363
  9
$TDUCREATE
 40
2457883.67387603
  9
$TDUPDATE
 40
2457883.507209375
  9
$TDUUPDATE
 40
2457883.673876042
  9
$TDINDWG
 40
0.0000000116
  9
$TDUSRTIMER
 40
0.0000000116
  9
$USRTIMER
 70
     1
  9
$ANGBASE
 50
0.0
  9
$ANGDIR
 70
     0
  9
$PDMODE
 70
     0
  9
$PDSIZE
 40
0.0
  9
$PLINEWID
 40
0.0
  9
$SPLFRAME
 70
     0
  9
$SPLINETYPE
 70
     6
  9
$SPLINESEGS
 70
     8
  9
$HANDSEED
  5
CF
  9
$SURFTAB1
 70
     6
  9
$SURFTAB2
 70
     6
  9
$SURFTYPE
 70
     6
  9
$SURFU
 70
     6
  9
$SURFV
 70
     6
  9
$UCSBASE
  2

  9
$UCSNAME
  2

  9
$UCSORG
 10
0.0
 20
0.0
 30
0.0
  9
$UCSXDIR
 10
1.0
 20
0.0
 30
0.0
  9
$UCSYDIR
 10
0.0
 20
1.0
 30
0.0
  9
$UCSORTHOREF
  2

  9
$UCSORTHOVIEW
 70
     0
  9
$UCSORGTOP
 10
0.0
 20
0.0
 30
0.0
  9
$UCSORGBOTTOM
 10
0.0
 20
0.0
 30
0.0
  9
$UCSORGLEFT
 10
0.0
 20
0.0
 30
0.0
  9
$UCSORGRIGHT
 10
0.0
 20
0.0
 30
0.0
  9
$UCSORGFRONT
 10
0.0
 20
0.0
 30
0.0
  9
$UCSORGBACK
 10
0.0
 20
0.0
 30
0.0
  9
$PUCSBASE
  2

  9
$PUCSNAME
  2

  9
$PUCSORG
 10
0.0
 20
0.0
 30
0.0
  9
$PUCSXDIR
 10
1.0
 20
0.0
 30
0.0
  9
$PUCSYDIR
 10
0.0
 20
1.0
 30
0.0
  9
$PUCSORTHOREF
  2

  9
$PUCSORTHOVIEW
 70
     0
  9
$PUCSORGTOP
 10
0.0
 20
0.0
 30
0.0
  9
$PUCSORGBOTTOM
 10
0.0
 20
0.0
 30
0.0
  9
$PUCSORGLEFT
 10
0.0
 20
0.0
 30
0.0
  9
$PUCSORGRIGHT
 10
0.0
 20
0.0
 30
0.0
  9
$PUCSORGFRONT
 10
0.0
 20
0.0
 30
0.0
  9
$PUCSORGBACK
 10
0.0
 20
0.0
 30
0.0
  9
$USERI1
 70
     0
  9
$USERI2
 70
     0
  9
$USERI3
 70
     0
  9
$USERI4
 70
     0
  9
$USERI5
 70
     0
  9
$USERR1
 40
0.0
  9
$USERR2
 40
0.0
  9
$USERR3
 40
0.0
  9
$USERR4
 40
0.0
  9
$USERR5
 40
0.0
  9
$WORLDVIEW
 70
     1
  9
$SHADEDGE
 70
     3
  9
$SHADEDIF
 70
    70
  9
$TILEMODE
 70
     1
  9
$MAXACTVP
 70
    64
  9
$PINSBASE
 10
0.0
 20
0.0
 30
0.0
  9
$PLIMCHECK
 70
     0
  9
$PEXTMIN
 10
1.000000000000000E+20
 20
1.000000000000000E+20
 30
1.000000000000000E+20
  9
$PEXTMAX
 10
-1.000000000000000E+20
 20
-1.000000000000000E+20
 30
-1.000000000000000E+20
  9
$PLIMMIN
 10
0.0
 20
0.0
  9
$PLIMMAX
 10
12.0
 20
9.0
  9
$UNITMODE
 70
     0
  9
$VISRETAIN
 70
     1
  9
$PLINEGEN
 70
     0
  9
$PSLTSCALE
 70
     1
  9
$TREEDEPTH
 70
  3020
  9
$CMLSTYLE
  2
Standard
  9
$CMLJUST
 70
     0
  9
$CMLSCALE
 40
1.0
  9
$PROXYGRAPHICS
 70
     1
  9
$MEASUREMENT
 70
     0
  9
$CELWEIGHT
370
    -1
  9
$ENDCAPS
280
     0
  9
$JOINSTYLE
280
     0
  9
$LWDISPLAY
290
     0
  9
$INSUNITS
 70
     1
  9
$HYPERLINKBASE
  1

  9
$STYLESHEET
  1

  9
$XEDIT
290
     1
  9
$CEPSNTYPE
380
     0
  9
$PSTYLEMODE
290
     1
  9
$FINGERPRINTGUID
  2
{A34ED3E9-FDB4-4209-8CC4-5245883CA852}
  9
$VERSIONGUID
  2
{FAEB1C32-E019-11D5-929B-00C0DF256EC4}
  9
$EXTNAMES
290
     1
  9
$PSVPSCALE
 40
0.0
  9
$OLESTARTUP
290
     0
  9
$SORTENTS
280
   127
  9
$INDEXCTL
280
     0
  9
$HIDETEXT
280
     1
  9
$XCLIPFRAME
290
     0
  9
$HALOGAP
280
     0
  9
$OBSCOLOR
 70
   257
  9
$OBSLTYPE
280
     0
  9
$INTERSECTIONDISPLAY
280
     0
  9
$INTERSECTIONCOLOR
 70
   257
  9
$DIMASSOC
280
     2
  9
$PROJECTNAME
  1

  0
ENDSEC
  0
SECTION
  2
CLASSES
  0
CLASS
  1
ACDBDICTIONARYWDFLT
  2
AcDbDictionaryWithDefault
  3
ObjectDBX Classes
 90
        0
 91
        4
280
     0
281
     0
  0
CLASS
  1
VISUALSTYLE
  2
AcDbVisualStyle
  3
ObjectDBX Classes
 90
     4095
 91
        4
280
     0
281
     0
  0
ENDSEC
  0
SECTION
  2
TABLES
  0
TABLE
  2
VPORT
  5
8
330
0
100
AcDbSymbolTable
 70
     1
  0
VPORT
  5
29
330
8
100
AcDbSymbolTableRecord
100
AcDbViewportTableRecord
  2
*Active
 70
     0
 10
0.0
 20
0.0
 11
1.0
 21
1.0
 12
21.97008613702467
 22
37.9762840658894
 13
0.0
 23
0.0
 14
0.5
 24
0.5
 15
0.5
 25
0.5
 16
0.0
 26
0.0
 36
1.0
 17
0.0
 27
0.0
 37
0.0
 40
77.47241232258624
 41
0.889394316648846
 42
50.0
 43
0.0
 44
0.0
 50
0.0
 51
0.0
 71
     0
 72
   100
 73
     1
 74
     3
 75
     0
 76
     0
 77
     0
 78
     0
281
     0
 65
     1
110
0.0
120
0.0
130
0.0
111
1.0
121
0.0
131
0.0
112
0.0
122
1.0
132
0.0
 79
     0
146
0.0
  0
ENDTAB
  0
TABLE
  2
LTYPE
  5
5
330
0
100
AcDbSymbolTable
 70
     1
  0
LTYPE
  5
14
330
5
100
AcDbSymbolTableRecord
100
AcDbLinetypeTableRecord
  2
ByBlock
 70
     0
  3

 72
    65
 73
     0
 40
0.0
  0
LTYPE
  5
15
330
5
100
AcDbSymbolTableRecord
100
AcDbLinetypeTableRecord
  2
ByLayer
 70
     0
  3

 72
    65
 73
     0
 40
0.0
  0
LTYPE
  5
16
330
5
100
AcDbSymbolTableRecord
100
AcDbLinetypeTableRecord
  2
Continuous
 70
     0
  3
Solid line
 72
    65
 73
     0
 40
0.0
  0
ENDTAB
  0
TABLE
  2
LAYER
  5
2
330
0
100
AcDbSymbolTable
 70
     2
  0
LAYER
  5
10
330
2
100
AcDbSymbolTableRecord
100
AcDbLayerTableRecord
  2
0
 70
     0
 62
     7
  6
Continuous
370
    -3
390
F
  0
LAYER
  5
3B
330
2
100
AcDbSymbolTableRecord
100
AcDbLayerTableRecord
  2
4 leg - armless 2d
 70
     0
 62
     7
  6
Continuous
370
    -3
390
F
  0
ENDTAB
  0
TABLE
  2
STYLE
  5
3
330
0
100
AcDbSymbolTable
 70
     1
  0
STYLE
  5
11
330
3
100
AcDbSymbolTableRecord
100
AcDbTextStyleTableRecord
  2
Standard
 70
     0
 40
0.0
 41
1.0
 50
0.0
 71
     0
 42
0.2
  3
txt
  4

  0
ENDTAB
  0
TABLE
  2
VIEW
  5
6
330
0
100
AcDbSymbolTable
 70
     0
  0
ENDTAB
  0
TABLE
  2
UCS
  5
7
330
0
100
AcDbSymbolTable
 70
     0
  0
ENDTAB
  0
TABLE
  2
APPID
  5
9
330
0
100
AcDbSymbolTable
 70
     1
  0
APPID
  5
12
330
9
100
AcDbSymbolTableRecord
100
AcDbRegAppTableRecord
  2
ACAD
 70
     0
  0
ENDTAB
  0
TABLE
  2
DIMSTYLE
  5
A
330
0
100
AcDbSymbolTable
 70
     1
100
AcDbDimStyleTable
  0
DIMSTYLE
105
27
330
A
100
AcDbSymbolTableRecord
100
AcDbDimStyleTableRecord
  2
Standard
 70
     0
340
11
  0
ENDTAB
  0
TABLE
  2
BLOCK_RECORD
  5
1
330
0
100
AcDbSymbolTable
 70
     1
  0
BLOCK_RECORD
  5
1F
330
1
100
AcDbSymbolTableRecord
100
AcDbBlockTableRecord
  2
*Model_Space
340
22
  0
BLOCK_RECORD
  5
1B
330
1
100
AcDbSymbolTableRecord
100
AcDbBlockTableRecord
  2
*Paper_Space
340
1E
  0
BLOCK_RECORD
  5
23
330
1
100
AcDbSymbolTableRecord
100
AcDbBlockTableRecord
  2
*Paper_Space0
340
26
  0
ENDTAB
  0
ENDSEC
  0
SECTION
  2
BLOCKS
  0
BLOCK
  5
20
330
1F
100
AcDbEntity
  8
0
100
AcDbBlockBegin
  2
*Model_Space
 70
     0
 10
0.0
 20
0.0
 30
0.0
  3
*Model_Space
  1

  0
ENDBLK
  5
21
330
1F
100
AcDbEntity
  8
0
100
AcDbBlockEnd
  0
BLOCK
  5
1C
330
1B
100
AcDbEntity
 67
     1
  8
0
100
AcDbBlockBegin
  2
*Paper_Space
 70
     0
 10
0.0
 20
0.0
 30
0.0
  3
*Paper_Space
  1

  0
ENDBLK
  5
1D
330
1B
100
AcDbEntity
 67
     1
  8
0
100
AcDbBlockEnd
  0
BLOCK
  5
24
330
23
100
AcDbEntity
  8
0
100
AcDbBlockBegin
  2
*Paper_Space0
 70
     0
 10
0.0
 20
0.0
 30
0.0
  3
*Paper_Space0
  1

  0
ENDBLK
  5
25
330
23
100
AcDbEntity
  8
0
100
AcDbBlockEnd
  0
ENDSEC
  0
SECTION
  2
ENTITIES
  0
SPLINE
  5
3C
330
1F
100
AcDbEntity
  8
4 leg - armless 2d
100
AcDbSpline
210
0.0
220
0.0
230
1.0
 70
    24
 71
     2
 72
     6
 73
     3
 74
     0
 42
0.0000000001
 43
0.0000000001
 40
0.0
 40
0.0
 40
0.0
 40
14.00402971758078
 40
14.00402971758078
 40
14.00402971758078
 10
-7.01868100095845
 20
14.35286285988142
 30
0.0
 10
-7.996823387951575
 20
7.419505119688806
 30
0.0
 10
-8.9749657749447
 20
0.4861473794961945
 30
0.0
  0
POLYLINE
  5
3D
330
1F
100
AcDbEntity
  8
4 leg - armless 2d
100
AcDb2dPolyline
 66
     1
 10
0.0
 20
0.0
 30
0.0
  0
VERTEX
  5
3E
330
3D
100
AcDbEntity
  8
4 leg - armless 2d
100
AcDbVertex
100
AcDb2dVertex
 10
-9.585004475889459
 20
0.4675604936168612
 30
0.0
  0
VERTEX
  5
3F
330
3D
100
AcDbEntity
  8
4 leg - armless 2d
100
AcDbVertex
100
AcDb2dVertex
 10
-9.621741417175631
 20
0.2224807331200645
 30
0.0
  0
SEQEND
  5
40
330
3D
100
AcDbEntity
  8
4 leg - armless 2d
  0
SPLINE
  5
41
330
1F
100
AcDbEntity
  8
4 leg - armless 2d
100
AcDbSpline
210
0.0
220
0.0
230
1.0
 70
    12
 71
     2
 72
     6
 73
     3
 74
     0
 42
0.0000000001
 43
0.0000000001
 40
0.0
 40
0.0
 40
0.0
 40
0.4023587728813611
 40
0.4023587728813611
 40
0.4023587728813611
 10
-9.621741417175631
 20
0.2224807331200645
 30
0.0
 41
1.0
 10
-9.665232148223332
 20
-0.0239717133811963
 30
0.0
 41
0.7344301430584195
 10
-9.91329357080439
 20
0.0000116095893328
 30
0.0
 41
1.0
  0
SPLINE
  5
42
330
1F
100
AcDbEntity
  8
4 leg - armless 2d
100
AcDbSpline
210
0.0
220
0.0
230
1.0
 70
     8
 71
     3
 72
     8
 73
     4
 74
     0
 42
0.0000000001
 43
0.0000000001
 40
0.0
 40
0.0
 40
0.0
 40
0.0
 40
1.0
 40
1.0
 40
1.0
 40
1.0
 10
-9.91329357080439
 20
0.0000116095893328
 30
0.0
 10
-9.967870344995408
 20
0.0052882559476962
 30
0.0
 10
-10.06191329863925
 20
0.0132297529758921
 30
0.0
 10
-10.11477847555169
 20
0.0260273646483461
 30
0.0
  0
SPLINE
  5
43
330
1F
100
AcDbEntity
  8
4 leg - armless 2d
100
AcDbSpline
210
0.0
220
0.0
230
1.0
 70
     8
 71
     3
 72
    11
 73
     7
 74
     0
 42
0.0000000001
 43
0.0000000001
 40
0.0
 40
0.0
 40
0.0
 40
0.0
 40
0.0659070677799101
 40
0.1217736743073117
 40
0.2259137840214808
 40
0.4367046111686205
 40
0.4367046111686205
 40
0.4367046111686205
 40
0.4367046111686205
 10
-10.11477847555169
 20
0.0260273646483461
 30
0.0
 10
-10.13610861879812
 20
0.0311909696172235
 30
0.0
 10
-10.17525551271213
 20
0.0423974511564566
 30
0.0
 10
-10.24428999789365
 20
0.0727344979496756
 30
0.0
 10
-10.3425708719717
 20
0.1517765511736162
 30
0.0
 10
-10.37472142614139
 20
0.261083106431322
 30
0.0
 10
-10.36424174620009
 20
0.3307995985125664
 30
0.0
  0
POLYLINE
  5
44
330
1F
100
AcDbEntity
  8
4 leg - armless 2d
100
AcDb2dPolyline
 66
     1
 10
0.0
 20
0.0
 30
0.0
  0
VERTEX
  5
45
330
44
100
AcDbEntity
  8
4 leg - armless 2d
100
AcDbVertex
100
AcDb2dVertex
 10
-10.36424174620009
 20
0.3307995985125664
 30
0.0
  0
VERTEX
  5
46
330
44
100
AcDbEntity
  8
4 leg - armless 2d
100
AcDbVertex
100
AcDb2dVertex
 10
-10.32568219703754
 20
0.5856293737836766
 30
0.0
  0
SEQEND
  5
47
330
44
100
AcDbEntity
  8
4 leg - armless 2d
  0
SPLINE
  5
48
330
1F
100
AcDbEntity
  8
4 leg - armless 2d
100
AcDbSpline
210
0.0
220
0.0
230
1.0
 70
    12
 71
     2
 72
     8
 73
     5
 74
     0
 42
0.0000000001
 43
0.0000000001
 40
0.8815242207769494
 40
0.8815242207769494
 40
0.8815242207769494
 40
1.570796326794897
 40
1.570796326794897
 40
3.141592653589793
 40
3.141592653589793
 40
3.141592653589793
 10
-9.579586290297252
 20
0.5035913468075206
 30
0.0
 41
0.8557471137443328
 10
-9.482178409748999
 20
0.4681578036623451
 30
0.0
 41
0.8714772104274953
 10
-9.352559403186039
 20
0.4489259781512852
 30
0.0
 41
1.0
 10
-8.988502815165761
 20
0.3949101901691657
 30
0.0
 41
0.7071067811865475
 10
-8.974965774944698
 20
0.4861473794961946
 30
0.0
 41
1.0
  0
SPLINE
  5
49
330
1F
100
AcDbEntity
  8
4 leg - armless 2d
100
AcDbSpline
210
0.0
220
0.0
230
1.0
 70
    24
 71
     2
 72
     6
 73
     3
 74
     0
 42
0.0000000001
 43
0.0000000001
 40
0.0
 40
0.0
 40
0.0
 40
0.2339146655468733
 40
0.2339146655468733
 40
0.2339146655468733
 10
-8.976194793042914
 20
0.4774357423308674
 30
0.0
 10
-8.992496377898968
 20
0.3614575819317145
 30
0.0
 10
-9.008797962755022
 20
0.2454794215325615
 30
0.0
  0
SPLINE
  5
4A
330
1F
100
AcDbEntity
  8
4 leg - armless 2d
100
AcDbSpline
210
0.0
220
0.0
230
1.0
 70
     8
 71
     3
 72
    11
 73
     7
 74
     0
 42
0.0000000001
 43
0.0000000001
 40
0.0
 40
0.0
 40
0.0
 40
0.0
 40
0.0592816211002601
 40
0.1198019193715514
 40
0.2423759788815892
 40
0.5268425510291893
 40
0.5268425510291893
 40
0.5268425510291893
 40
0.5268425510291893
 10
-9.008797962755022
 20
0.2454794215325615
 30
0.0
 10
-9.011126184935
 20
0.2257787232920561
 30
0.0
 10
-9.022520847943598
 20
0.1863879584597908
 30
0.0
 10
-9.059219598665054
 20
0.1154683125209777
 30
0.0
 10
-9.18212982017636
 20
0.007616888952881
 30
0.0
 10
-9.328786746838361
 20
0.00824982910423
 30
0.0
 10
-9.42057781046788
 20
0.0211652559280945
 30
0.0
  0
SPLINE
  5
4B
330
1F
100
AcDbEntity
  8
4 leg - armless 2d
100
AcDbSpline
210
0.0
220
0.0
230
1.0
 70
    12
 71
     2
 72
     6
 73
     3
 74
     0
 42
0.0000000001
 43
0.0000000001
 40
0.0
 40
0.0
 40
0.0
 40
0.2639760169231865
 40
0.2639760169231865
 40
0.2639760169231865
 10
-9.42057781046788
 20
0.0211652559280945
 30
0.0
 41
1.0
 10
-9.555631604400212
 20
0.0336802058663593
 30
0.0
 41
0.9601784980021112
 10
-9.662886979846615
 20
0.1167009000669779
 30
0.0
 41
1.0
  0
SPLINE
  5
4C
330
1F
100
AcDbEntity
  8
4 leg - armless 2d
100
AcDbSpline
210
0.0
220
0.0
230
1.0
 70
    24
 71
     2
 72
     6
 73
     3
 74
     0
 42
0.0000000001
 43
0.0000000001
 40
0.0
 40
0.0
 40
0.0
 40
14.00402971758078
 40
14.00402971758078
 40
14.00402971758078
 10
7.01868100095845
 20
14.35286285988142
 30
0.0
 10
7.996823387951575
 20
7.419505119688806
 30
0.0
 10
8.9749657749447
 20
0.4861473794961945
 30
0.0
  0
POLYLINE
  5
4D
330
1F
100
AcDbEntity
  8
4 leg - armless 2d
100
AcDb2dPolyline
 66
     1
 10
0.0
 20
0.0
 30
0.0
  0
VERTEX
  5
4E
330
4D
100
AcDbEntity
  8
4 leg - armless 2d
100
AcDbVertex
100
AcDb2dVertex
 10
9.585004475889459
 20
0.4675604936168612
 30
0.0
  0
VERTEX
  5
4F
330
4D
100
AcDbEntity
  8
4 leg - armless 2d
100
AcDbVertex
100
AcDb2dVertex
 10
9.621741417175631
 20
0.2224807331200645
 30
0.0
  0
SEQEND
  5
50
330
4D
100
AcDbEntity
  8
4 leg - armless 2d
  0
SPLINE
  5
51
330
1F
100
AcDbEntity
  8
4 leg - armless 2d
100
AcDbSpline
210
0.0
220
0.0
230
1.0
 70
    12
 71
     2
 72
     6
 73
     3
 74
     0
 42
0.0000000001
 43
0.0000000001
 40
0.0
 40
0.0
 40
0.0
 40
0.4023587728813611
 40
0.4023587728813611
 40
0.4023587728813611
 10
9.621741417175631
 20
0.2224807331200645
 30
0.0
 41
1.0
 10
9.665232148223332
 20
-0.0239717133811963
 30
0.0
 41
0.7344301430584195
 10
9.91329357080439
 20
0.0000116095893328
 30
0.0
 41
1.0
  0
SPLINE
  5
52
330
1F
100
AcDbEntity
  8
4 leg - armless 2d
100
AcDbSpline
210
0.0
220
0.0
230
1.0
 70
     8
 71
     3
 72
     8
 73
     4
 74
     0
 42
0.0000000001
 43
0.0000000001
 40
0.0
 40
0.0
 40
0.0
 40
0.0
 40
1.0
 40
1.0
 40
1.0
 40
1.0
 10
9.91329357080439
 20
0.0000116095893328
 30
0.0
 10
9.967870344995408
 20
0.0052882559476962
 30
0.0
 10
10.06191329863925
 20
0.0132297529758921
 30
0.0
 10
10.11477847555169
 20
0.0260273646483461
 30
0.0
  0
SPLINE
  5
53
330
1F
100
AcDbEntity
  8
4 leg - armless 2d
100
AcDbSpline
210
0.0
220
0.0
230
1.0
 70
     8
 71
     3
 72
    11
 73
     7
 74
     0
 42
0.0000000001
 43
0.0000000001
 40
0.0
 40
0.0
 40
0.0
 40
0.0
 40
0.0659070677799101
 40
0.1217736743073117
 40
0.2259137840214808
 40
0.4367046111686205
 40
0.4367046111686205
 40
0.4367046111686205
 40
0.4367046111686205
 10
10.11477847555169
 20
0.0260273646483461
 30
0.0
 10
10.13610861879812
 20
0.0311909696172235
 30
0.0
 10
10.17525551271213
 20
0.0423974511564566
 30
0.0
 10
10.24428999789365
 20
0.0727344979496756
 30
0.0
 10
10.3425708719717
 20
0.1517765511736162
 30
0.0
 10
10.37472142614139
 20
0.261083106431322
 30
0.0
 10
10.36424174620009
 20
0.3307995985125664
 30
0.0
  0
POLYLINE
  5
54
330
1F
100
AcDbEntity
  8
4 leg - armless 2d
100
AcDb2dPolyline
 66
     1
 10
0.0
 20
0.0
 30
0.0
  0
VERTEX
  5
55
330
54
100
AcDbEntity
  8
4 leg - armless 2d
100
AcDbVertex
100
AcDb2dVertex
 10
10.36424174620009
 20
0.3307995985125664
 30
0.0
  0
VERTEX
  5
56
330
54
100
AcDbEntity
  8
4 leg - armless 2d
100
AcDbVertex
100
AcDb2dVertex
 10
10.32568219703754
 20
0.5856293737836766
 30
0.0
  0
SEQEND
  5
57
330
54
100
AcDbEntity
  8
4 leg - armless 2d
  0
SPLINE
  5
58
330
1F
100
AcDbEntity
  8
4 leg - armless 2d
100
AcDbSpline
210
0.0
220
0.0
230
1.0
 70
    12
 71
     2
 72
     8
 73
     5
 74
     0
 42
0.0000000001
 43
0.0000000001
 40
0.8815242207769494
 40
0.8815242207769494
 40
0.8815242207769494
 40
1.570796326794897
 40
1.570796326794897
 40
3.141592653589793
 40
3.141592653589793
 40
3.141592653589793
 10
9.579586290297252
 20
0.5035913468075206
 30
0.0
 41
0.8557471137443328
 10
9.482178409748999
 20
0.4681578036623451
 30
0.0
 41
0.8714772104274953
 10
9.352559403186039
 20
0.4489259781512852
 30
0.0
 41
1.0
 10
8.988502815165761
 20
0.3949101901691657
 30
0.0
 41
0.7071067811865475
 10
8.974965774944698
 20
0.4861473794961946
 30
0.0
 41
1.0
  0
SPLINE
  5
59
330
1F
100
AcDbEntity
  8
4 leg - armless 2d
100
AcDbSpline
210
0.0
220
0.0
230
1.0
 70
    24
 71
     2
 72
     6
 73
     3
 74
     0
 42
0.0000000001
 43
0.0000000001
 40
0.0
 40
0.0
 40
0.0
 40
0.2339146655468733
 40
0.2339146655468733
 40
0.2339146655468733
 10
8.976194793042914
 20
0.4774357423308674
 30
0.0
 10
8.992496377898968
 20
0.3614575819317145
 30
0.0
 10
9.008797962755022
 20
0.2454794215325615
 30
0.0
  0
SPLINE
  5
5A
330
1F
100
AcDbEntity
  8
4 leg - armless 2d
100
AcDbSpline
210
0.0
220
0.0
230
1.0
 70
     8
 71
     3
 72
    11
 73
     7
 74
     0
 42
0.0000000001
 43
0.0000000001
 40
0.0
 40
0.0
 40
0.0
 40
0.0
 40
0.0592816211002601
 40
0.1198019193715514
 40
0.2423759788815892
 40
0.5268425510291893
 40
0.5268425510291893
 40
0.5268425510291893
 40
0.5268425510291893
 10
9.008797962755022
 20
0.2454794215325615
 30
0.0
 10
9.011126184935
 20
0.2257787232920561
 30
0.0
 10
9.022520847943598
 20
0.1863879584597908
 30
0.0
 10
9.059219598665054
 20
0.1154683125209777
 30
0.0
 10
9.18212982017636
 20
0.007616888952881
 30
0.0
 10
9.328786746838361
 20
0.00824982910423
 30
0.0
 10
9.42057781046788
 20
0.0211652559280945
 30
0.0
  0
SPLINE
  5
5B
330
1F
100
AcDbEntity
  8
4 leg - armless 2d
100
AcDbSpline
210
0.0
220
0.0
230
1.0
 70
    12
 71
     2
 72
     6
 73
     3
 74
     0
 42
0.0000000001
 43
0.0000000001
 40
0.0
 40
0.0
 40
0.0
 40
0.2639760169231865
 40
0.2639760169231865
 40
0.2639760169231865
 10
9.42057781046788
 20
0.0211652559280945
 30
0.0
 41
1.0
 10
9.555631604400212
 20
0.0336802058663593
 30
0.0
 41
0.9601784980021112
 10
9.662886979846615
 20
0.1167009000669779
 30
0.0
 41
1.0
  0
SPLINE
  5
5C
330
1F
100
AcDbEntity
  8
4 leg - armless 2d
100
AcDbSpline
210
0.0
220
0.0
230
1.0
 70
     8
 71
     2
 72
     8
 73
     5
 74
     0
 42
0.0000000001
 43
0.0000000001
 40
-0.9029889848620102
 40
-0.9029889848620102
 40
-0.9029889848620102
 40
0.0
 40
3.500000013122785
 40
4.402988997985617
 40
4.402988997985617
 40
4.402988997985617
 10
-2.651285217849581
 20
13.30472807722285
 30
0.0
 10
-2.201494499000884
 20
13.32278981762467
 30
0.0
 10
-0.0000000000084865
 20
13.3227898175749
 30
0.0
 10
2.201494498984322
 20
13.32278981752513
 30
0.0
 10
2.651285217849584
 20
13.30472807722285
 30
0.0
  0
SPLINE
  5
5D
330
1F
100
AcDbEntity
  8
4 leg - armless 2d
100
AcDbSpline
210
0.0
220
0.0
230
1.0
 70
    12
 71
     2
 72
     6
 73
     3
 74
     0
 42
0.0000000001
 43
0.0000000001
 40
0.0
 40
0.0
 40
0.0
 40
0.0477029564274636
 40
0.0477029564274636
 40
0.0477029564274636
 10
50.94255372182084
 20
14.14952002409106
 30
0.0
 41
1.0
 10
50.91887079381417
 20
14.14668946468229
 30
0.0
 41
0.999999825245947
 10
50.89518453555424
 20
14.14388690956618
 30
0.0
 41
1.0
  0
SPLINE
  5
5E
330
1F
100
AcDbEntity
  8
4 leg - armless 2d
100
AcDbSpline
210
0.0
220
0.0
230
1.0
 70
    12
 71
     2
 72
     6
 73
     3
 74
     0
 42
0.0000000001
 43
0.0000000001
 40
0.0
 40
0.0
 40
0.0
 40
0.0579387245931085
 40
0.0579387245931085
 40
0.0579387245931085
 10
42.34511178130598
 20
19.38868749378412
 30
0.0
 41
1.0
 10
42.3473847395901
 20
19.41756754940234
 30
0.0
 41
0.9999999999981439
 10
42.34965780916127
 20
19.44644759626166
 30
0.0
 41
1.0
  0
POLYLINE
  5
5F
330
1F
100
AcDbEntity
  8
4 leg - armless 2d
100
AcDb2dPolyline
 66
     1
 10
0.0
 20
0.0
 30
0.0
  0
VERTEX
  5
60
330
5F
100
AcDbEntity
  8
4 leg - armless 2d
100
AcDbVertex
100
AcDb2dVertex
 10
33.98265538489061
 20
0.636244569541524
 30
0.0
  0
VERTEX
  5
61
330
5F
100
AcDbEntity
  8
4 leg - armless 2d
100
AcDbVertex
100
AcDb2dVertex
 10
33.92028261151852
 20
0.3869453002823302
 30
0.0
  0
SEQEND
  5
62
330
5F
100
AcDbEntity
  8
4 leg - armless 2d
  0
SPLINE
  5
63
330
1F
100
AcDbEntity
  8
4 leg - armless 2d
100
AcDbSpline
210
0.0
220
0.0
230
1.0
 70
    12
 71
     2
 72
     6
 73
     3
 74
     0
 42
0.0000000001
 43
0.0000000001
 40
0.0
 40
0.0
 40
0.0
 40
0.4053817596806196
 40
0.4053817596806196
 40
0.4053817596806196
 10
33.92028261151852
 20
0.3869453002823302
 30
0.0
 41
1.0
 10
33.8671882336762
 20
0.1395299180350814
 30
0.0
 41
0.7265646711630038
 10
34.1112559738638
 20
0.0727143320485036
 30
0.0
 41
1.0
  0
POLYLINE
  5
64
330
1F
100
AcDbEntity
  8
4 leg - armless 2d
100
AcDb2dPolyline
 66
     1
 10
0.0
 20
0.0
 30
0.0
  0
VERTEX
  5
65
330
64
100
AcDbEntity
  8
4 leg - armless 2d
100
AcDbVertex
100
AcDb2dVertex
 10
34.1112559738638
 20
0.0727143320485036
 30
0.0
  0
VERTEX
  5
66
330
64
100
AcDbEntity
  8
4 leg - armless 2d
100
AcDbVertex
100
AcDb2dVertex
 10
34.33813979992097
 20
0.0169169047388966
 30
0.0
  0
SEQEND
  5
67
330
64
100
AcDbEntity
  8
4 leg - armless 2d
  0
SPLINE
  5
68
330
1F
100
AcDbEntity
  8
4 leg - armless 2d
100
AcDbSpline
210
0.0
220
0.0
230
1.0
 70
    12
 71
     2
 72
     6
 73
     3
 74
     0
 42
0.0000000001
 43
0.0000000001
 40
0.0
 40
0.0
 40
0.0
 40
0.4013183918321604
 40
0.4013183918321604
 40
0.4013183918321604
 10
34.33813979992097
 20
0.0169169047388966
 30
0.0
 41
1.0
 10
34.58290246748516
 20
-0.0337579058217101
 30
0.0
 41
0.7288137687097876
 10
34.64873698172089
 20
0.2073696881899144
 30
0.0
 41
1.0
  0
POLYLINE
  5
69
330
1F
100
AcDbEntity
  8
4 leg - armless 2d
100
AcDb2dPolyline
 66
     1
 10
0.0
 20
0.0
 30
0.0
  0
VERTEX
  5
6A
330
69
100
AcDbEntity
  8
4 leg - armless 2d
100
AcDbVertex
100
AcDb2dVertex
 10
34.64873698172089
 20
0.2073696881899144
 30
0.0
  0
VERTEX
  5
6B
330
69
100
AcDbEntity
  8
4 leg - armless 2d
100
AcDbVertex
100
AcDb2dVertex
 10
34.71024893087483
 20
0.4542887696361053
 30
0.0
  0
SEQEND
  5
6C
330
69
100
AcDbEntity
  8
4 leg - armless 2d
  0
LINE
  5
6D
330
1F
100
AcDbEntity
  8
4 leg - armless 2d
100
AcDbLine
 10
52.3887820609721
 20
0.4698240286169413
 30
0.0
 11
52.43014494748324
 21
0.215841813023407
 31
0.0
  0
SPLINE
  5
6E
330
1F
100
AcDbEntity
  8
4 leg - armless 2d
100
AcDbSpline
210
0.0
220
0.0
230
1.0
 70
     8
 71
     3
 72
    11
 73
     7
 74
     0
 42
0.0000000001
 43
0.0000000001
 40
0.0
 40
0.0
 40
0.0
 40
0.0
 40
0.0504225346209004
 40
0.1068774996290179
 40
0.2099831463653991
 40
0.4354215533923327
 40
0.4354215533923327
 40
0.4354215533923327
 40
0.4354215533923327
 10
52.43014494748324
 20
0.215841813023407
 30
0.0
 10
52.43274511780172
 20
0.1996823242806732
 30
0.0
 10
52.44259887223458
 20
0.1638693637498602
 30
0.0
 10
52.47414964795772
 20
0.1034921400891629
 30
0.0
 10
52.5687987446707
 20
0.0070611497838819
 30
0.0
 10
52.68477005694938
 20
-0.0049464199278976
 30
0.0
 10
52.75885346207912
 20
0.0019816394095144
 30
0.0
  0
POLYLINE
  5
6F
330
1F
100
AcDbEntity
  8
4 leg - armless 2d
100
AcDb2dPolyline
 66
     1
 10
0.0
 20
0.0
 30
0.0
  0
VERTEX
  5
70
330
6F
100
AcDbEntity
  8
4 leg - armless 2d
100
AcDbVertex
100
AcDb2dVertex
 10
52.75885346207912
 20
0.0019816394095144
 30
0.0
  0
VERTEX
  5
71
330
6F
100
AcDbEntity
  8
4 leg - armless 2d
100
AcDbVertex
100
AcDb2dVertex
 10
52.93396243245075
 20
0.0312864620719054
 30
0.0
  0
SEQEND
  5
72
330
6F
100
AcDbEntity
  8
4 leg - armless 2d
  0
SPLINE
  5
73
330
1F
100
AcDbEntity
  8
4 leg - armless 2d
100
AcDbSpline
210
0.0
220
0.0
230
1.0
 70
     8
 71
     3
 72
    11
 73
     7
 74
     0
 42
0.0000000001
 43
0.0000000001
 40
0.0
 40
0.0
 40
0.0
 40
0.0
 40
0.063414090591162
 40
0.1178366887026689
 40
0.2199773905888617
 40
0.428278161482584
 40
0.428278161482584
 40
0.428278161482584
 40
0.428278161482584
 10
52.93396243245075
 20
0.0312864620719054
 30
0.0
 10
52.95438171803703
 20
0.0366636326875512
 30
0.0
 10
52.99207018890854
 20
0.0481578599392215
 30
0.0
 10
53.05857782165049
 20
0.0793275532055046
 30
0.0
 10
53.15303484207597
 20
0.1597995725045771
 30
0.0
 10
53.18217594663766
 20
0.2680804333719448
 30
0.0
 10
53.17055979254972
 20
0.3367631374789471
 30
0.0
  0
SPLINE
  5
74
330
1F
100
AcDbEntity
  8
4 leg - armless 2d
100
AcDbSpline
210
0.0
220
0.0
230
1.0
 70
    12
 71
     2
 72
     6
 73
     3
 74
     0
 42
0.0000000001
 43
0.0000000001
 40
-0.0016785321342753
 40
-0.0016785321342753
 40
-0.0016785321342753
 40
0.0
 40
0.0
 40
0.0
 10
53.17055979254972
 20
0.3367631374789471
 30
0.0
 41
0.9998459449830679
 10
53.17049282701196
 20
0.3375924726606543
 30
0.0
 41
0.993996700191517
 10
53.17026674745031
 20
0.3383929710233265
 30
0.0
 41
1.0
  0
SPLINE
  5
75
330
1F
100
AcDbEntity
  8
4 leg - armless 2d
100
AcDbSpline
210
0.0
220
0.0
230
1.0
 70
    24
 71
     2
 72
     6
 73
     3
 74
     0
 42
0.0000000001
 43
0.0000000001
 40
0.0
 40
0.0
 40
0.0
 40
0.2472918405272693
 40
0.2472918405272693
 40
0.2472918405272693
 10
53.17026674745031
 20
0.3383929710233265
 30
0.0
 10
53.15028509442785
 20
0.4604136542714189
 30
0.0
 10
53.1303034414054
 20
0.5824343375195113
 30
0.0
  0
SPLINE
  5
76
330
1F
100
AcDbEntity
  8
4 leg - armless 2d
100
AcDbSpline
210
0.0
220
0.0
230
1.0
 70
    12
 71
     2
 72
     6
 73
     3
 74
     0
 42
0.0000000001
 43
0.0000000001
 40
0.0
 40
0.0
 40
0.0
 40
0.0017513649355207
 40
0.0017513649355207
 40
0.0017513649355207
 10
34.6489107066721
 20
0.2095622241745335
 30
0.0
 41
1.0
 10
34.64898278351998
 20
0.2086847600244279
 30
0.0
 41
0.9919489520935115
 10
34.64883209655297
 20
0.2078173317307376
 30
0.0
 41
1.0
  0
SPLINE
  5
77
330
1F
100
AcDbEntity
  8
4 leg - armless 2d
100
AcDbSpline
210
0.0
220
0.0
230
1.0
 70
     8
 71
     3
 72
     8
 73
     4
 74
     0
 42
0.0000000001
 43
0.0000000001
 40
0.0
 40
0.0
 40
0.0
 40
0.0
 40
1.0
 40
1.0
 40
1.0
 40
1.0
 10
41.91429085391758
 20
13.30109545349776
 30
0.0
 10
42.03704803658139
 20
13.29949506716751
 30
0.0
 10
42.24681701709239
 20
13.30701939797147
 30
0.0
 10
42.36685416851621
 20
13.32882420811253
 30
0.0
  0
ARC
  5
78
330
1F
100
AcDbEntity
  8
4 leg - armless 2d
100
AcDbCircle
 10
42.29983201385194
 20
13.69778630758243
 30
0.0
 40
0.3750000000814424
100
AcDbArc
 50
280.2955468963895
 51
98.44056000817376
  0
SPLINE
  5
79
330
1F
100
AcDbEntity
  8
4 leg - armless 2d
100
AcDbSpline
210
0.0
220
0.0
230
1.0
 70
     8
 71
     3
 72
     8
 73
     4
 74
     0
 42
0.0000000001
 43
0.0000000001
 40
-1.0
 40
-1.0
 40
-1.0
 40
-1.0
 40
0.0
 40
0.0
 40
0.0
 40
0.0
 10
42.24478827506073
 20
14.06872455969586
 30
0.0
 10
42.15947255794229
 20
14.05606451177388
 30
0.0
 10
42.01053076545711
 20
14.04956742839932
 30
0.0
 10
41.92406338508943
 20
14.05069470429919
 30
0.0
  0
SPLINE
  5
7A
330
1F
100
AcDbEntity
  8
4 leg - armless 2d
100
AcDbSpline
210
0.0
220
0.0
230
1.0
 70
     8
 71
     3
 72
    10
 73
     6
 74
     0
 42
0.0000000001
 43
0.0000000001
 40
-3.046983878489926
 40
-3.046983878489926
 40
-3.046983878489926
 40
-3.046983878489926
 40
-2.272254615435641
 40
-1.25212480716688
 40
0.0
 40
0.0
 40
0.0
 40
0.0
 10
41.92406338508943
 20
14.05069470429919
 30
0.0
 10
41.66584224056594
 20
14.05406113533735
 30
0.0
 10
41.07701377027816
 20
14.19046630646986
 30
0.0
 10
40.14774217664295
 20
14.60636251488994
 30
0.0
 10
39.49785725399749
 20
15.05918171723033
 30
0.0
 10
39.18721334102181
 20
15.33793285408961
 30
0.0
  0
SPLINE
  5
7B
330
1F
100
AcDbEntity
  8
4 leg - armless 2d
100
AcDbSpline
210
0.0
220
0.0
230
1.0
 70
     8
 71
     3
 72
    12
 73
     8
 74
     0
 42
0.0000000001
 43
0.0000000001
 40
0.0
 40
0.0
 40
0.0
 40
0.0
 40
0.3115002585622718
 40
0.5914352905042524
 40
1.138310215837138
 40
1.714288365023321
 40
2.421167907314276
 40
2.421167907314276
 40
2.421167907314276
 40
2.421167907314276
 10
39.18721334102181
 20
15.33793285408961
 30
0.0
 10
39.10971715808377
 20
15.40747276198385
 30
0.0
 10
38.94724803315811
 20
15.52047322129764
 30
0.0
 10
38.58816510756156
 20
15.65634336441854
 30
0.0
 10
38.09732770769219
 20
15.58527103191535
 30
0.0
 10
37.65038604643814
 20
15.13828603442763
 30
0.0
 10
37.49932007742
 20
14.73261131466341
 30
0.0
 10
37.43913358469624
 20
14.49938829250315
 30
0.0
  0
SPLINE
  5
7C
330
1F
100
AcDbEntity
  8
4 leg - armless 2d
100
AcDbSpline
210
0.0
220
0.0
230
1.0
 70
    24
 71
     2
 72
     6
 73
     3
 74
     0
 42
0.0000000001
 43
0.0000000001
 40
0.0
 40
0.0
 40
0.0
 40
14.28231151296977
 40
14.28231151296977
 40
14.28231151296977
 10
37.43913358469624
 20
14.49938829250315
 30
0.0
 10
35.71089448479343
 20
7.567816431022338
 30
0.0
 10
33.98265538489061
 20
0.636244569541524
 30
0.0
  0
SPLINE
  5
7D
330
1F
100
AcDbEntity
  8
4 leg - armless 2d
100
AcDbSpline
210
0.0
220
0.0
230
1.0
 70
    12
 71
     2
 72
     8
 73
     5
 74
     0
 42
0.0000000001
 43
0.0000000001
 40
-3.141592653589793
 40
-3.141592653589793
 40
-3.141592653589793
 40
-1.570796326794897
 40
-1.570796326794897
 40
0.0
 40
0.0
 40
0.0
 10
33.98265538489061
 20
0.636244569541524
 30
0.0
 41
1.0
 10
33.99329656555741
 20
0.6787958615522013
 30
0.0
 41
0.7071067811865475
 10
34.35709333854952
 20
0.587817961599492
 30
0.0
 41
1.0
 10
34.72089011154163
 20
0.4968400616467825
 30
0.0
 41
0.7071067811865475
 10
34.71024893087483
 20
0.4542887696361053
 30
0.0
 41
1.0
  0
SPLINE
  5
7E
330
1F
100
AcDbEntity
  8
4 leg - armless 2d
100
AcDbSpline
210
0.0
220
0.0
230
1.0
 70
    24
 71
     2
 72
     6
 73
     3
 74
     0
 42
0.0000000001
 43
0.0000000001
 40
0.0
 40
0.0
 40
0.0
 40
14.28457660047625
 40
14.28457660047625
 40
14.28457660047625
 10
34.71024893087483
 20
0.4542887696361053
 30
0.0
 10
36.43812485564544
 20
7.384420583123964
 30
0.0
 10
38.16600078041605
 20
14.31455239661182
 30
0.0
  0
SPLINE
  5
7F
330
1F
100
AcDbEntity
  8
4 leg - armless 2d
100
AcDbSpline
210
0.0
220
0.0
230
1.0
 70
     8
 71
     3
 72
     8
 73
     4
 74
     0
 42
0.0000000001
 43
0.0000000001
 40
0.0
 40
0.0
 40
0.0
 40
0.0
 40
1.0
 40
1.0
 40
1.0
 40
1.0
 10
38.16600078041605
 20
14.31455239661182
 30
0.0
 10
38.26169994508648
 20
14.69838078156648
 30
0.0
 10
38.43472931458287
 20
15.00196127446704
 30
0.0
 10
38.71291333984579
 20
14.75617100575064
 30
0.0
  0
SPLINE
  5
80
330
1F
100
AcDbEntity
  8
4 leg - armless 2d
100
AcDbSpline
210
0.0
220
0.0
230
1.0
 70
     8
 71
     3
 72
    12
 73
     8
 74
     0
 42
0.0000000001
 43
0.0000000001
 40
0.0
 40
0.0
 40
0.0
 40
0.0
 40
0.4776574914837461
 40
0.9446773987455398
 40
1.893585872554088
 40
2.811925226525107
 40
3.579688955960529
 40
3.579688955960529
 40
3.579688955960529
 40
3.579688955960529
 10
38.71291333984579
 20
14.75617100575064
 30
0.0
 10
38.83234491554466
 20
14.6506469050892
 30
0.0
 10
39.07667338874047
 20
14.45252922260132
 30
0.0
 10
39.5929681859388
 20
14.08713371737522
 30
0.0
 10
40.27760640524481
 20
13.71539402259088
 30
0.0
 10
41.10033074590351
 20
13.39871453646321
 30
0.0
 10
41.6579439500524
 20
13.30443745004612
 30
0.0
 10
41.91429085391758
 20
13.30109545349776
 30
0.0
  0
SPLINE
  5
81
330
1F
100
AcDbEntity
  8
4 leg - armless 2d
100
AcDbSpline
210
0.0
220
0.0
230
1.0
 70
     8
 71
     3
 72
    12
 73
     8
 74
     0
 42
0.0000000001
 43
0.0000000001
 40
-2.615625519365534
 40
-2.615625519365534
 40
-2.615625519365534
 40
-2.615625519365534
 40
-1.97289356833674
 40
-1.380535869883827
 40
-0.7568752671333088
 40
-0.4114196472580751
 40
0.0
 40
0.0
 40
0.0
 40
0.0
 10
49.15186098401664
 20
15.0612836656055
 30
0.0
 10
49.3489244668317
 20
15.15116541262945
 30
0.0
 10
49.75620310344696
 20
15.26802539272502
 30
0.0
 10
50.38094586836397
 20
15.0840420877395
 30
0.0
 10
50.71193839786894
 20
14.65738023380496
 30
0.0
 10
50.8815649737038
 20
14.23185524986491
 30
0.0
 10
50.93816060240447
 20
13.96922151264281
 30
0.0
 10
50.96018700893794
 20
13.83471341294228
 30
0.0
  0
SPLINE
  5
82
330
1F
100
AcDbEntity
  8
4 leg - armless 2d
100
AcDbSpline
210
0.0
220
0.0
230
1.0
 70
    24
 71
     2
 72
     6
 73
     3
 74
     0
 42
0.0000000001
 43
0.0000000001
 40
-13.42878646872521
 40
-13.42878646872521
 40
-13.42878646872521
 40
0.0
 40
0.0
 40
0.0
 10
50.96018700893794
 20
13.83471341294228
 30
0.0
 10
52.04525191868602
 20
7.208574971335906
 30
0.0
 10
53.1303168284341
 20
0.5824365297295352
 30
0.0
  0
SPLINE
  5
83
330
1F
100
AcDbEntity
  8
4 leg - armless 2d
100
AcDbSpline
210
0.0
220
0.0
230
1.0
 70
    12
 71
     2
 72
     8
 73
     5
 74
     0
 42
0.0000000001
 43
0.0000000001
 40
0.0
 40
0.0
 40
0.0
 40
1.570794579897446
 40
1.570794579897446
 40
3.141592653589793
 40
3.141592653589793
 40
3.141592653589793
 10
53.13031682843411
 20
0.5824365297295352
 30
0.0
 41
0.9999986970870728
 10
53.12280454609564
 20
0.6318055409646752
 30
0.0
 41
0.7071074326444601
 10
52.75204502211199
 20
0.5755005636220507
 30
0.0
 41
1.0
 10
52.38128433189534
 20
0.5191954091707656
 30
0.0
 41
0.7071067811865475
 10
52.3887820609721
 20
0.4698240286169413
 30
0.0
 41
1.0
  0
SPLINE
  5
84
330
1F
100
AcDbEntity
  8
4 leg - armless 2d
100
AcDbSpline
210
0.0
220
0.0
230
1.0
 70
    24
 71
     2
 72
     6
 73
     3
 74
     0
 42
0.0000000001
 43
0.0000000001
 40
-13.42184191264083
 40
-13.42184191264083
 40
-13.42184191264083
 40
0.0
 40
0.0
 40
0.0
 10
52.3887820609721
 20
0.4698240286169413
 30
0.0
 10
51.30427159110933
 20
7.092534736683429
 30
0.0
 10
50.21976112124656
 20
13.71524544474992
 30
0.0
  0
SPLINE
  5
85
330
1F
100
AcDbEntity
  8
4 leg - armless 2d
100
AcDbSpline
210
0.0
220
0.0
230
1.0
 70
     8
 71
     3
 72
     8
 73
     4
 74
     0
 42
0.0000000001
 43
0.0000000001
 40
0.0
 40
0.0
 40
0.0
 40
0.0
 40
1.0
 40
1.0
 40
1.0
 40
1.0
 10
50.21976112124656
 20
13.71524544474992
 30
0.0
 10
50.13173096953673
 20
14.25281354073622
 30
0.0
 10
49.91434267639717
 20
14.58556935041579
 30
0.0
 10
49.46099329163358
 20
14.37815079174625
 30
0.0
  0
SPLINE
  5
86
330
1F
100
AcDbEntity
  8
4 leg - armless 2d
100
AcDbSpline
210
0.0
220
0.0
230
1.0
 70
     8
 71
     3
 72
     9
 73
     5
 74
     0
 42
0.0000000001
 43
0.0000000001
 40
-2.0
 40
-2.0
 40
-2.0
 40
-2.0
 40
-1.0
 40
0.0
 40
0.0
 40
0.0
 40
0.0
 10
49.46099329163358
 20
14.37815079174625
 30
0.0
 10
48.71886856205764
 20
14.0393568404568
 30
0.0
 10
47.16150327305905
 20
13.5462651368323
 30
0.0
 10
45.54895768699825
 20
13.26967258606762
 30
0.0
 10
44.73224113548114
 20
13.26468251211064
 30
0.0
  0
SPLINE
  5
87
330
1F
100
AcDbEntity
  8
4 leg - armless 2d
100
AcDbSpline
210
0.0
220
0.0
230
1.0
 70
     8
 71
     3
 72
     8
 73
     4
 74
     0
 42
0.0000000001
 43
0.0000000001
 40
0.0
 40
0.0
 40
0.0
 40
0.0
 40
1.0
 40
1.0
 40
1.0
 40
1.0
 10
44.73224113548114
 20
13.26468251211064
 30
0.0
 10
44.48816050788074
 20
13.26319119865442
 30
0.0
 10
44.10443013050788
 20
13.3347491453968
 30
0.0
 10
43.88132381334091
 20
13.43112469889858
 30
0.0
  0
ARC
  5
88
330
1F
100
AcDbEntity
  8
4 leg - armless 2d
100
AcDbCircle
 10
44.03003178153096
 20
13.7753788786232
 30
0.0
 40
0.3750000000814412
100
AcDbArc
 50
66.77081080911468
 51
246.6370353278855
  0
SPLINE
  5
89
330
1F
100
AcDbEntity
  8
4 leg - armless 2d
100
AcDbSpline
210
0.0
220
0.0
230
1.0
 70
     8
 71
     3
 72
     8
 73
     4
 74
     0
 42
0.0000000001
 43
0.0000000001
 40
-1.0
 40
-1.0
 40
-1.0
 40
-1.0
 40
0.0
 40
0.0
 40
0.0
 40
0.0
 10
44.17793557267742
 20
14.11997932642556
 30
0.0
 10
44.32129228320092
 20
14.05845009421495
 30
0.0
 10
44.56795236310442
 20
14.0132301894213
 30
0.0
 10
44.724687076446
 20
14.01430740187862
 30
0.0
  0
SPLINE
  5
8A
330
1F
100
AcDbEntity
  8
4 leg - armless 2d
100
AcDbSpline
210
0.0
220
0.0
230
1.0
 70
     8
 71
     3
 72
     9
 73
     5
 74
     0
 42
0.0000000001
 43
0.0000000001
 40
0.0
 40
0.0
 40
0.0
 40
0.0
 40
1.0
 40
2.0
 40
2.0
 40
2.0
 40
2.0
 10
44.724687076446
 20
14.01430740187862
 30
0.0
 10
45.48890772598055
 20
14.01955976739657
 30
0.0
 10
46.99742087530684
 20
14.28164011543964
 30
0.0
 10
48.45419459423381
 20
14.74398371622359
 30
0.0
 10
49.15186098401664
 20
15.0612836656055
 30
0.0
  0
SPLINE
  5
8B
330
1F
100
AcDbEntity
  8
4 leg - armless 2d
 62
     7
100
AcDbSpline
210
0.0
220
0.0
230
1.0
 70
     8
 71
     3
 72
    16
 73
    12
 74
     0
 42
0.0000000001
 43
0.0000000001
 40
0.0
 40
0.0
 40
0.0
 40
0.0
 40
1.0
 40
2.0
 40
3.0
 40
4.0
 40
5.0
 40
6.0
 40
7.0
 40
8.0
 40
9.0
 40
9.0
 40
9.0
 40
9.0
 10
55.15662014268636
 20
16.21465315844867
 30
0.0
 10
55.2892988584529
 20
16.3413600590468
 30
0.0
 10
55.44578320881936
 20
16.68297039880787
 30
0.0
 10
55.44204283433044
 20
17.23738709298493
 30
0.0
 10
55.23563210081208
 20
17.75446245504481
 30
0.0
 10
54.8161034083229
 20
18.12670072876974
 30
0.0
 10
54.28411777077847
 20
18.27814640856432
 30
0.0
 10
53.74003570141458
 20
18.31446059770265
 30
0.0
 10
53.19497554567805
 20
18.31649463129623
 30
0.0
 10
52.65083296783116
 20
18.28710427365816
 30
0.0
 10
52.28785340743297
 20
18.27420553987351
 30
0.0
 10
52.10633206494981
 20
18.26846575359694
 30
0.0
  0
SPLINE
  5
8C
330
1F
100
AcDbEntity
  8
4 leg - armless 2d
 62
     7
100
AcDbSpline
210
0.0
220
0.0
230
1.0
 70
     8
 71
     3
 72
    16
 73
    12
 74
     0
 42
0.0000000001
 43
0.0000000001
 40
0.0
 40
0.0
 40
0.0
 40
0.0
 40
1.0
 40
2.0
 40
3.0
 40
4.0
 40
5.0
 40
6.0
 40
7.0
 40
8.0
 40
9.0
 40
9.0
 40
9.0
 40
9.0
 10
10.96235056640844
 20
19.08480335581085
 30
0.0
 10
10.52545998736396
 20
19.08457140628759
 30
0.0
 10
9.71384773322487
 20
18.75361682461634
 30
0.0
 10
8.674412329486454
 20
17.98623603842598
 30
0.0
 10
7.55858037217244
 20
17.33719445161707
 30
0.0
 10
6.40039727523847
 20
16.76310019811599
 30
0.0
 10
5.139441986968351
 20
16.45967452617903
 30
0.0
 10
3.865087373886174
 20
16.26282997483084
 30
0.0
 10
2.578938066768703
 20
16.15116347711506
 30
0.0
 10
1.290307209940694
 20
16.08696139086998
 30
0.0
 10
0.4298397038460747
 20
16.088386218443
 30
0.0
 10
0.0000000000000355
 20
16.101203807561
 30
0.0
  0
SPLINE
  5
8D
330
1F
100
AcDbEntity
  8
4 leg - armless 2d
 62
     7
100
AcDbSpline
210
0.0
220
0.0
230
1.0
 70
     8
 71
     3
 72
    16
 73
    12
 74
     0
 42
0.0000000001
 43
0.0000000001
 40
-9.0
 40
-9.0
 40
-9.0
 40
-9.0
 40
-8.0
 40
-7.0
 40
-6.0
 40
-5.0
 40
-4.0
 40
-3.0
 40
-2.0
 40
-1.0
 40
0.0
 40
0.0
 40
0.0
 40
0.0
 10
0.0000000000000355
 20
16.101203807561
 30
0.0
 10
-0.429839703846002
 20
16.08838621844295
 30
0.0
 10
-1.290307209940621
 20
16.08696139086982
 30
0.0
 10
-2.578938066768639
 20
16.15116347711474
 30
0.0
 10
-3.865087373886123
 20
16.26282997483036
 30
0.0
 10
-5.139441986968325
 20
16.45967452617839
 30
0.0
 10
-6.400397275238482
 20
16.76310019811519
 30
0.0
 10
-7.558580372172522
 20
17.33719445161613
 30
0.0
 10
-8.674412329486618
 20
17.9862360384249
 30
0.0
 10
-9.71384773322513
 20
18.75361682461514
 30
0.0
 10
-10.52545998736426
 20
19.08457140628628
 30
0.0
 10
-10.96235056640874
 20
19.08480335580949
 30
0.0
  0
SPLINE
  5
8E
330
1F
100
AcDbEntity
  8
4 leg - armless 2d
 62
     7
100
AcDbSpline
210
0.0
220
0.0
230
1.0
 70
     8
 71
     3
 72
    24
 73
    20
 74
     0
 42
0.0000000001
 43
0.0000000001
 40
0.0
 40
0.0
 40
0.0
 40
0.0
 40
1.000000000000052
 40
2.000000000000103
 40
3.000000000000155
 40
4.000000000000206
 40
5.000000000000258
 40
6.000000000000309
 40
7.000000000000361
 40
8.000000000000412
 40
9.000000000000465
 40
10.00000000000052
 40
11.00000000000057
 40
12.00000000000062
 40
13.00000000000067
 40
14.00000000000072
 40
15.00000000000077
 40
16.00000000000082
 40
17.0
 40
17.0
 40
17.0
 40
17.0
 10
11.52507519942585
 20
19.23163863087122
 30
0.0
 10
11.25165540233726
 20
19.61203396747379
 30
0.0
 10
10.7461756237223
 20
20.41110315548941
 30
0.0
 10
10.37047227128025
 20
21.7808344419042
 30
0.0
 10
10.15938871296819
 20
23.1715561162773
 30
0.0
 10
9.969379924255811
 20
24.56696114061913
 30
0.0
 10
9.824755244212994
 20
25.96608846315588
 30
0.0
 10
9.673809798957736
 20
27.36628887138937
 30
0.0
 10
9.56616727845562
 20
28.76973953597775
 30
0.0
 10
9.441143458072311
 20
30.17329231340651
 30
0.0
 10
9.303520418012589
 20
31.57001168332867
 30
0.0
 10
9.224575204307406
 20
32.99314995304859
 30
0.0
 10
8.427908284645412
 20
34.24679660020651
 30
0.0
 10
7.038860240801675
 20
34.70747870960616
 30
0.0
 10
5.6314602951683
 20
34.68530243622465
 30
0.0
 10
4.223626659137829
 20
34.66417290875804
 30
0.0
 10
2.815769317640474
 20
34.68273262840216
 30
0.0
 10
1.407886839490161
 20
34.68376607882799
 30
0.0
 10
0.4692940555517276
 20
34.68009976295789
 30
0.0
 10
-0.0000000000012325
 20
34.68206691991522
 30
0.0
  0
SPLINE
  5
8F
330
1F
100
AcDbEntity
  8
4 leg - armless 2d
 62
     7
100
AcDbSpline
210
0.0
220
0.0
230
1.0
 70
     8
 71
     3
 72
    24
 73
    20
 74
     0
 42
0.0000000001
 43
0.0000000001
 40
-17.0
 40
-17.0
 40
-17.0
 40
-17.0
 40
-16.00000000000082
 40
-15.00000000000077
 40
-14.00000000000072
 40
-13.00000000000067
 40
-12.00000000000062
 40
-11.00000000000057
 40
-10.00000000000052
 40
-9.000000000000465
 40
-8.000000000000412
 40
-7.000000000000361
 40
-6.000000000000309
 40
-5.000000000000258
 40
-4.000000000000206
 40
-3.000000000000155
 40
-2.000000000000103
 40
-1.000000000000052
 40
0.0
 40
0.0
 40
0.0
 40
0.0
 10
-0.0000000000012325
 20
34.68206691991522
 30
0.0
 10
-0.4692940555541922
 20
34.68009976295783
 30
0.0
 10
-1.407886839492626
 20
34.68376607882779
 30
0.0
 10
-2.815769317642939
 20
34.68273262840178
 30
0.0
 10
-4.223626659140291
 20
34.66417290875746
 30
0.0
 10
-5.631460295170766
 20
34.68530243622389
 30
0.0
 10
-7.038860240804143
 20
34.7074787096052
 30
0.0
 10
-8.427908284647817
 20
34.24679660020536
 30
0.0
 10
-9.224575204309641
 20
32.99314995304733
 30
0.0
 10
-9.30352041801463
 20
31.5700116833274
 30
0.0
 10
-9.44114345807416
 20
30.17329231340522
 30
0.0
 10
-9.566167278457277
 20
28.76973953597644
 30
0.0
 10
-9.673809798959203
 20
27.36628887138805
 30
0.0
 10
-9.82475524421427
 20
25.96608846315454
 30
0.0
 10
-9.969379924256895
 20
24.56696114061777
 30
0.0
 10
-10.15938871296909
 20
23.17155611627592
 30
0.0
 10
-10.37047227128096
 20
21.78083444190278
 30
0.0
 10
-10.74617562372281
 20
20.41110315548795
 30
0.0
 10
-11.25165540233767
 20
19.61203396747226
 30
0.0
 10
-11.52507519942621
 20
19.23163863086965
 30
0.0
  0
SPLINE
  5
90
330
1F
100
AcDbEntity
  8
4 leg - armless 2d
 62
     7
100
AcDbSpline
210
0.0
220
0.0
230
1.0
 70
     8
 71
     3
 72
    34
 73
    30
 74
     0
 42
0.0000000001
 43
0.0000000001
 40
-27.0
 40
-27.0
 40
-27.0
 40
-27.0
 40
-26.0
 40
-25.0
 40
-24.0
 40
-23.0
 40
-22.0
 40
-21.0
 40
-20.0
 40
-19.0
 40
-18.0
 40
-17.0
 40
-16.0
 40
-15.0
 40
-14.0
 40
-13.0
 40
-12.0
 40
-11.0
 40
-10.0
 40
-9.0
 40
-8.0
 40
-7.0
 40
-6.0
 40
-5.0
 40
-4.0
 40
-3.0
 40
-2.0
 40
-1.0
 40
0.0
 40
0.0
 40
0.0
 40
0.0
 10
-9.307909748206153
 20
18.43847416145792
 30
0.0
 10
-9.432373012583211
 20
18.59198836765389
 30
0.0
 10
-9.695720138183843
 20
18.88805021206882
 30
0.0
 10
-10.16696322159556
 20
19.25499883641112
 30
0.0
 10
-10.73241421263687
 20
19.46494075925062
 30
0.0
 10
-11.34474840793477
 20
19.40593443797653
 30
0.0
 10
-11.82359078749591
 20
19.00834809942727
 30
0.0
 10
-11.83793370266554
 20
18.26030035107947
 30
0.0
 10
-11.13542354785498
 20
18.23090165410214
 30
0.0
 10
-10.64814868446377
 20
17.91038004315227
 30
0.0
 10
-10.14306055854293
 20
17.59458748349948
 30
0.0
 10
-9.646050498836273
 20
17.27232813695962
 30
0.0
 10
-9.147820529036718
 20
16.95040367039158
 30
0.0
 10
-8.644221506299223
 20
16.63695064693423
 30
0.0
 10
-8.120733676151898
 20
16.35753610399815
 30
0.0
 10
-7.580066544658572
 20
16.11331519380727
 30
0.0
 10
-7.028822281012984
 20
15.89413828763472
 30
0.0
 10
-6.465565643714027
 20
15.70771527687967
 30
0.0
 10
-5.892712415857315
 20
15.55353148878916
 30
0.0
 10
-5.313244849189434
 20
15.42675800226715
 30
0.0
 10
-4.729234462445022
 20
15.32312199931283
 30
0.0
 10
-4.142113035422093
 20
15.23907946984418
 30
0.0
 10
-3.552847539317742
 20
15.1718641388452
 30
0.0
 10
-2.962179446912192
 20
15.11857335479594
 30
0.0
 10
-2.370657681234666
 20
15.07594915784258
 30
0.0
 10
-1.778534325115342
 20
15.04271668892752
 30
0.0
 10
-1.185941599798493
 20
15.01927688633296
 30
0.0
 10
-0.5930414325889006
 20
15.00565122817441
 30
0.0
 10
-0.1976782028013729
 20
15.00318582493006
 30
0.0
 10
0.0
 20
15.0036199204551
 30
0.0
  0
SPLINE
  5
91
330
1F
100
AcDbEntity
  8
4 leg - armless 2d
 62
     7
100
AcDbSpline
210
0.0
220
0.0
230
1.0
 70
     8
 71
     3
 72
    34
 73
    30
 74
     0
 42
0.0000000001
 43
0.0000000001
 40
0.0
 40
0.0
 40
0.0
 40
0.0
 40
1.0
 40
2.0
 40
3.0
 40
4.0
 40
5.0
 40
6.0
 40
7.0
 40
8.0
 40
9.0
 40
10.0
 40
11.0
 40
12.0
 40
13.0
 40
14.0
 40
15.0
 40
16.0
 40
17.0
 40
18.0
 40
19.0
 40
20.0
 40
21.0
 40
22.0
 40
23.0
 40
24.0
 40
25.0
 40
26.0
 40
27.0
 40
27.0
 40
27.0
 40
27.0
 10
0.0
 20
15.0036199204551
 30
0.0
 10
0.1976782028013729
 20
15.00318582493006
 30
0.0
 10
0.5930414325889006
 20
15.00565122817441
 30
0.0
 10
1.185941599798493
 20
15.01927688633296
 30
0.0
 10
1.778534325115342
 20
15.04271668892752
 30
0.0
 10
2.370657681234666
 20
15.07594915784258
 30
0.0
 10
2.962179446912192
 20
15.11857335479594
 30
0.0
 10
3.552847539317742
 20
15.1718641388452
 30
0.0
 10
4.142113035422093
 20
15.23907946984418
 30
0.0
 10
4.729234462445022
 20
15.32312199931283
 30
0.0
 10
5.313244849189434
 20
15.42675800226715
 30
0.0
 10
5.892712415857315
 20
15.55353148878916
 30
0.0
 10
6.465565643714027
 20
15.70771527687967
 30
0.0
 10
7.028822281012984
 20
15.89413828763472
 30
0.0
 10
7.580066544658572
 20
16.11331519380727
 30
0.0
 10
8.120733676151898
 20
16.35753610399815
 30
0.0
 10
8.644221506299223
 20
16.63695064693423
 30
0.0
 10
9.147820529036718
 20
16.95040367039158
 30
0.0
 10
9.646050498836273
 20
17.27232813695962
 30
0.0
 10
10.14306055854293
 20
17.59458748349948
 30
0.0
 10
10.64814868446377
 20
17.91038004315227
 30
0.0
 10
11.13542354785498
 20
18.23090165410214
 30
0.0
 10
11.83793370266554
 20
18.26030035107947
 30
0.0
 10
11.82359078749591
 20
19.00834809942727
 30
0.0
 10
11.34474840793477
 20
19.40593443797653
 30
0.0
 10
10.73241421263687
 20
19.46494075925062
 30
0.0
 10
10.16696322159556
 20
19.25499883641112
 30
0.0
 10
9.695720138183843
 20
18.88805021206882
 30
0.0
 10
9.432373012583211
 20
18.59198836765389
 30
0.0
 10
9.307909748206153
 20
18.43847416145792
 30
0.0
  0
SPLINE
  5
92
330
1F
100
AcDbEntity
  8
4 leg - armless 2d
 62
     7
100
AcDbSpline
210
0.0
220
0.0
230
1.0
 70
     8
 71
     3
 72
    49
 73
    45
 74
     0
 42
0.0000000001
 43
0.0000000001
 40
0.0
 40
0.0
 40
0.0
 40
0.0
 40
1.0
 40
2.0
 40
3.0
 40
4.0
 40
5.0
 40
6.0
 40
7.0
 40
8.0
 40
9.0
 40
10.0
 40
11.0
 40
12.0
 40
13.0
 40
14.0
 40
15.0
 40
16.0
 40
17.0
 40
18.0
 40
19.0
 40
20.0
 40
21.0
 40
22.0
 40
23.0
 40
24.0
 40
25.0
 40
26.0
 40
27.0
 40
28.0
 40
29.0
 40
30.0
 40
31.0
 40
32.0
 40
33.0
 40
34.0
 40
35.0
 40
36.0
 40
37.0
 40
38.0
 40
39.0
 40
40.0
 40
41.0
 40
42.0
 40
42.0
 40
42.0
 40
42.0
 10
0.000000000004642
 20
50.46359782622011
 30
0.0
 10
0.3246969020869367
 20
50.46174641922795
 30
0.0
 10
0.9741000222044298
 20
50.47467204663238
 30
0.0
 10
1.946690435363557
 20
50.53098692558774
 30
0.0
 10
2.917032350911859
 20
50.61754861294036
 30
0.0
 10
3.884293813313259
 20
50.73347309424882
 30
0.0
 10
4.846645132820617
 20
50.88629374464769
 30
0.0
 10
5.797087794451677
 20
51.10304537178015
 30
0.0
 10
6.724778445237894
 20
51.40356741019684
 30
0.0
 10
7.619073204779787
 20
51.79291683878991
 30
0.0
 10
8.455778183482286
 20
52.29898757100506
 30
0.0
 10
9.1806894535718
 20
52.95643136951986
 30
0.0
 10
9.778932616958109
 20
53.7273412379136
 30
0.0
 10
10.30825573571527
 20
54.54687956605667
 30
0.0
 10
10.7281337258586
 20
55.42772662416558
 30
0.0
 10
11.0806302766414
 20
56.33640679296514
 30
0.0
 10
11.3422267610356
 20
57.27575233528889
 30
0.0
 10
11.54815561181327
 20
58.22805846599195
 30
0.0
 10
11.69902369462766
 20
59.19098172947999
 30
0.0
 10
11.77690778738228
 20
60.16253893033424
 30
0.0
 10
11.80377472230092
 20
61.1364108781213
 30
0.0
 10
11.80192997970336
 20
62.11052475063154
 30
0.0
 10
11.76726469665433
 20
63.08446594217122
 30
0.0
 10
11.65710821891756
 20
64.05297211204746
 30
0.0
 10
11.48647509883293
 20
65.01222580637963
 30
0.0
 10
11.26668716452036
 20
65.96198340459726
 30
0.0
 10
10.96963401404532
 20
66.89002479769408
 30
0.0
 10
10.71368565027763
 20
67.83004704174186
 30
0.0
 10
10.41510086338943
 20
68.75744208563098
 30
0.0
 10
10.15966624523466
 20
69.6977359970065
 30
0.0
 10
9.910156384121962
 20
70.63883521291801
 30
0.0
 10
9.649085992551791
 20
71.57861591178505
 30
0.0
 10
9.400531022011997
 20
72.51390256717079
 30
0.0
 10
9.206360371855773
 20
73.4946633613503
 30
0.0
 10
8.519273357348778
 20
74.21598976166463
 30
0.0
 10
7.653901117637064
 20
74.67667735670595
 30
0.0
 10
6.722361687364415
 20
74.96762850780289
 30
0.0
 10
5.784565861547558
 20
75.22976989879527
 30
0.0
 10
4.835863531742132
 20
75.45230103439104
 30
0.0
 10
3.878880400750409
 20
75.63486635114536
 30
0.0
 10
2.915370216828777
 20
75.77932953102707
 30
0.0
 10
1.946694090912058
 20
75.88408655754976
 30
0.0
 10
0.9741285110295438
 20
75.94294430477255
 30
0.0
 10
0.3246898952355133
 20
75.95371704384439
 30
0.0
 10
0.0000000000054401
 20
75.9529567730393
 30
0.0
  0
SPLINE
  5
93
330
1F
100
AcDbEntity
  8
4 leg - armless 2d
 62
     7
100
AcDbSpline
210
0.0
220
0.0
230
1.0
 70
     8
 71
     3
 72
    49
 73
    45
 74
     0
 42
0.0000000001
 43
0.0000000001
 40
-42.0
 40
-42.0
 40
-42.0
 40
-42.0
 40
-41.0
 40
-40.0
 40
-39.0
 40
-38.0
 40
-37.0
 40
-36.0
 40
-35.0
 40
-34.0
 40
-33.0
 40
-32.0
 40
-31.0
 40
-30.0
 40
-29.0
 40
-28.0
 40
-27.0
 40
-26.0
 40
-25.0
 40
-24.0
 40
-23.0
 40
-22.0
 40
-21.0
 40
-20.0
 40
-19.0
 40
-18.0
 40
-17.0
 40
-16.0
 40
-15.0
 40
-14.0
 40
-13.0
 40
-12.0
 40
-11.0
 40
-10.0
 40
-9.0
 40
-8.0
 40
-7.0
 40
-6.0
 40
-5.0
 40
-4.0
 40
-3.0
 40
-2.0
 40
-1.0
 40
0.0
 40
0.0
 40
0.0
 40
0.0
 10
0.0000000000054401
 20
75.9529567730393
 30
0.0
 10
-0.3246898952246331
 20
75.9537170438444
 30
0.0
 10
-0.9741285110186643
 20
75.94294430477261
 30
0.0
 10
-1.946694090901182
 20
75.88408655754989
 30
0.0
 10
-2.915370216817908
 20
75.77932953102726
 30
0.0
 10
-3.878880400739549
 20
75.6348663511456
 30
0.0
 10
-4.835863531731283
 20
75.45230103439134
 30
0.0
 10
-5.784565861536723
 20
75.22976989879562
 30
0.0
 10
-6.722361687353596
 20
74.96762850780331
 30
0.0
 10
-7.653901117626264
 20
74.67667735670643
 30
0.0
 10
-8.519273357338005
 20
74.21598976166517
 30
0.0
 10
-9.206360371845046
 20
73.49466336135089
 30
0.0
 10
-9.40053102200133
 20
72.51390256717137
 30
0.0
 10
-9.649085992541183
 20
71.57861591178566
 30
0.0
 10
-9.910156384111412
 20
70.63883521291864
 30
0.0
 10
-10.15966624522417
 20
69.69773599700714
 30
0.0
 10
-10.415100863379
 20
68.75744208563164
 30
0.0
 10
-10.71368565026725
 20
67.83004704174253
 30
0.0
 10
-10.969634014035
 20
66.89002479769476
 30
0.0
 10
-11.2666871645101
 20
65.96198340459797
 30
0.0
 10
-11.48647509882274
 20
65.01222580638036
 30
0.0
 10
-11.65710821890743
 20
64.05297211204818
 30
0.0
 10
-11.76726469664425
 20
63.08446594217196
 30
0.0
 10
-11.80192997969334
 20
62.11052475063228
 30
0.0
 10
-11.80377472229097
 20
61.13641087812204
 30
0.0
 10
-11.77690778737239
 20
60.16253893033497
 30
0.0
 10
-11.69902369461783
 20
59.19098172948072
 30
0.0
 10
-11.5481556118035
 20
58.22805846599267
 30
0.0
 10
-11.34222676102589
 20
57.2757523352896
 30
0.0
 10
-11.08063027663174
 20
56.33640679296583
 30
0.0
 10
-10.728133725849
 20
55.42772662416625
 30
0.0
 10
-10.30825573570573
 20
54.54687956605732
 30
0.0
 10
-9.77893261694862
 20
53.72734123791421
 30
0.0
 10
-9.180689453562358
 20
52.95643136952044
 30
0.0
 10
-8.455778183472885
 20
52.29898757100559
 30
0.0
 10
-7.619073204770419
 20
51.79291683879039
 30
0.0
 10
-6.724778445228552
 20
51.40356741019725
 30
0.0
 10
-5.797087794442353
 20
51.10304537178051
 30
0.0
 10
-4.846645132811306
 20
50.88629374464799
 30
0.0
 10
-3.884293813303958
 20
50.73347309424906
 30
0.0
 10
-2.917032350902565
 20
50.61754861294055
 30
0.0
 10
-1.946690435354269
 20
50.53098692558786
 30
0.0
 10
-0.9741000221951451
 20
50.47467204663244
 30
0.0
 10
-0.3246969020776528
 20
50.46174641922797
 30
0.0
 10
0.000000000004642
 20
50.46359782622011
 30
0.0
  0
SPLINE
  5
94
330
1F
100
AcDbEntity
  8
4 leg - armless 2d
 62
     7
100
AcDbSpline
210
0.0
220
0.0
230
1.0
 70
     8
 71
     3
 72
    30
 73
    26
 74
     0
 42
0.0000000001
 43
0.0000000001
 40
0.0
 40
0.0
 40
0.0
 40
0.0
 40
1.0
 40
2.0
 40
3.0
 40
4.0
 40
5.0
 40
6.0
 40
7.0
 40
8.0
 40
9.0
 40
10.0
 40
11.0
 40
12.0
 40
13.0
 40
14.0
 40
15.0
 40
16.0
 40
17.0
 40
18.0
 40
19.0
 40
20.0
 40
21.0
 40
22.0
 40
23.0
 40
23.0
 40
23.0
 40
23.0
 10
0.0000000000053886
 20
50.77925623057352
 30
0.0
 10
0.43437183833063
 20
50.77712733873953
 30
0.0
 10
1.302879489620316
 20
50.80373041817467
 30
0.0
 10
2.60183131372174
 20
50.92008368940734
 30
0.0
 10
3.883159286403184
 20
51.1633164126474
 30
0.0
 10
5.137733266552364
 20
51.52691986992282
 30
0.0
 10
6.345924785364113
 20
51.99966441648025
 30
0.0
 10
7.494852916510645
 20
52.68653046203006
 30
0.0
 10
8.114374530482756
 20
53.87109859271337
 30
0.0
 10
8.392588337071231
 20
55.14607440402654
 30
0.0
 10
8.523219113132093
 20
56.44399068618102
 30
0.0
 10
8.57506955652885
 20
57.74608541390373
 30
0.0
 10
8.603602677917596
 20
59.04876887245307
 30
0.0
 10
8.632397085344845
 20
60.35150610237051
 30
0.0
 10
8.617093745991582
 20
61.65473236633574
 30
0.0
 10
8.521036505813395
 20
62.95528012510137
 30
0.0
 10
8.370097439767106
 20
64.24758328363099
 30
0.0
 10
8.116389062097477
 20
65.53633608126958
 30
0.0
 10
7.423837850639766
 20
66.66758658496865
 30
0.0
 10
6.388354483706644
 20
67.48544387753925
 30
0.0
 10
5.176789750456556
 20
67.98709320876273
 30
0.0
 10
3.90260998606592
 20
68.2725324419201
 30
0.0
 10
2.605544547053029
 20
68.41143422525539
 30
0.0
 10
1.302958205028293
 20
68.45676108937552
 30
0.0
 10
0.4343380469412434
 20
68.46581547911983
 30
0.0
 10
0.0000000000053886
 20
68.46115730952293
 30
0.0
  0
SPLINE
  5
95
330
1F
100
AcDbEntity
  8
4 leg - armless 2d
 62
     7
100
AcDbSpline
210
0.0
220
0.0
230
1.0
 70
     8
 71
     3
 72
    30
 73
    26
 74
     0
 42
0.0000000001
 43
0.0000000001
 40
-23.0
 40
-23.0
 40
-23.0
 40
-23.0
 40
-22.0
 40
-21.0
 40
-20.0
 40
-19.0
 40
-18.0
 40
-17.0
 40
-16.0
 40
-15.0
 40
-14.0
 40
-13.0
 40
-12.0
 40
-11.0
 40
-10.0
 40
-9.0
 40
-8.0
 40
-7.0
 40
-6.0
 40
-5.0
 40
-4.0
 40
-3.0
 40
-2.0
 40
-1.0
 40
0.0
 40
0.0
 40
0.0
 40
0.0
 10
0.0000000000053886
 20
68.46115730952293
 30
0.0
 10
-0.4343380469304663
 20
68.46581547911983
 30
0.0
 10
-1.302958205017516
 20
68.45676108937552
 30
0.0
 10
-2.605544547042252
 20
68.41143422525539
 30
0.0
 10
-3.902609986055143
 20
68.2725324419201
 30
0.0
 10
-5.176789750445779
 20
67.98709320876273
 30
0.0
 10
-6.388354483695867
 20
67.48544387753925
 30
0.0
 10
-7.423837850628989
 20
66.66758658496865
 30
0.0
 10
-8.116389062086698
 20
65.53633608126958
 30
0.0
 10
-8.370097439756327
 20
64.24758328363099
 30
0.0
 10
-8.521036505802616
 20
62.95528012510137
 30
0.0
 10
-8.617093745980803
 20
61.65473236633574
 30
0.0
 10
-8.632397085334066
 20
60.35150610237051
 30
0.0
 10
-8.603602677906817
 20
59.04876887245307
 30
0.0
 10
-8.575069556518072
 20
57.74608541390373
 30
0.0
 10
-8.523219113121314
 20
56.44399068618102
 30
0.0
 10
-8.392588337060452
 20
55.14607440402654
 30
0.0
 10
-8.114374530471977
 20
53.87109859271337
 30
0.0
 10
-7.494852916499868
 20
52.68653046203006
 30
0.0
 10
-6.345924785353335
 20
51.99966441648025
 30
0.0
 10
-5.137733266541587
 20
51.52691986992282
 30
0.0
 10
-3.883159286392407
 20
51.1633164126474
 30
0.0
 10
-2.601831313710963
 20
50.92008368940734
 30
0.0
 10
-1.302879489609538
 20
50.80373041817467
 30
0.0
 10
-0.4343718383198529
 20
50.77712733873953
 30
0.0
 10
0.0000000000053886
 20
50.77925623057352
 30
0.0
  0
SPLINE
  5
96
330
1F
100
AcDbEntity
  8
4 leg - armless 2d
 62
     7
100
AcDbSpline
210
0.0
220
0.0
230
1.0
 70
     8
 71
     3
 72
     9
 73
     5
 74
     0
 42
0.0000000001
 43
0.0000000001
 40
1.719662768545668
 40
1.719662768545668
 40
1.719662768545668
 40
1.719662768545668
 40
2.0
 40
2.380644959931601
 40
2.380644959931601
 40
2.380644959931601
 40
2.380644959931601
 10
50.13987695681389
 20
14.04205554369445
 30
0.0
 10
49.85951997636764
 20
14.01390741192654
 30
0.0
 10
49.19786605416525
 20
13.95343537524641
 30
0.0
 10
48.53519229254768
 20
13.90442610051743
 30
0.0
 10
48.15336947554992
 20
13.87939650030164
 30
0.0
  0
SPLINE
  5
97
330
1F
100
AcDbEntity
  8
4 leg - armless 2d
 62
     7
100
AcDbSpline
210
0.0
220
0.0
230
1.0
 70
     8
 71
     3
 72
     9
 73
     5
 74
     0
 42
0.0000000001
 43
0.0000000001
 40
3.872183534391581
 40
3.872183534391581
 40
3.872183534391581
 40
3.872183534391581
 40
4.0
 40
4.198661754914816
 40
4.198661754914816
 40
4.198661754914816
 40
4.198661754914816
 10
43.66000350394584
 20
13.71451777570455
 30
0.0
 10
43.53141950859135
 20
13.71413986716659
 30
0.0
 10
43.20287576933799
 20
13.71444001475965
 30
0.0
 10
42.87402278669638
 20
13.71820838556665
 30
0.0
 10
42.67400403088701
 20
13.72269216490554
 30
0.0
  0
SPLINE
  5
98
330
1F
100
AcDbEntity
  8
4 leg - armless 2d
 62
     7
100
AcDbSpline
210
0.0
220
0.0
230
1.0
 70
     8
 71
     3
 72
     8
 73
     4
 74
     0
 42
0.0000000001
 43
0.0000000001
 40
5.222356300502582
 40
5.222356300502582
 40
5.222356300502582
 40
5.222356300502582
 40
5.703973262965668
 40
5.703973262965668
 40
5.703973262965668
 40
5.703973262965668
 10
39.61709500043692
 20
14.08939232051674
 30
0.0
 10
39.1483485286383
 20
14.21083343405156
 30
0.0
 10
38.68825142534823
 20
14.36714663013838
 30
0.0
 10
38.24401684914745
 20
14.55942602546244
 30
0.0
  0
SPLINE
  5
99
330
1F
100
AcDbEntity
  8
4 leg - armless 2d
 62
     7
100
AcDbSpline
210
0.0
220
0.0
230
1.0
 70
     8
 71
     3
 72
    15
 73
    11
 74
     0
 42
0.0000000001
 43
0.0000000001
 40
5.952598480080852
 40
5.952598480080852
 40
5.952598480080852
 40
5.952598480080852
 40
6.0
 40
7.0
 40
8.0
 40
9.0
 40
10.0
 40
11.0
 40
12.0
 40
13.0
 40
13.0
 40
13.0
 40
13.0
 10
37.56970906252963
 20
14.88611211993413
 30
0.0
 10
37.52778786270665
 20
14.90872002251406
 30
0.0
 10
36.60567381576831
 20
15.41609182563952
 30
0.0
 10
34.99081720039294
 20
16.74660293218443
 30
0.0
 10
33.45568159030679
 20
19.3856174337988
 30
0.0
 10
32.62219587767807
 20
22.29329680377162
 30
0.0
 10
31.97875726053534
 20
25.23791725971071
 30
0.0
 10
31.36108142107984
 20
28.18988803158945
 30
0.0
 10
30.79301968207592
 20
31.15133719781478
 30
0.0
 10
30.44430428245725
 20
33.13123187200121
 30
0.0
 10
30.26726339544233
 20
34.12065727259129
 30
0.0
  0
SPLINE
  5
9A
330
1F
100
AcDbEntity
  8
4 leg - armless 2d
 62
     7
100
AcDbSpline
210
0.0
220
0.0
230
1.0
 70
    12
 71
     2
 72
     8
 73
     5
 74
     0
 42
0.0000000001
 43
0.0000000001
 40
0.0
 40
0.0
 40
0.0
 40
0.4142959691772323
 40
0.4142959691772323
 40
0.828588430205433
 40
0.828588430205433
 40
0.828588430205433
 10
30.26726339544233
 20
34.12065727259129
 30
0.0
 41
1.0
 10
30.23013136500082
 20
34.33851899477089
 30
0.0
 41
0.9085535971351912
 10
30.37134599400596
 20
34.50852177777966
 30
0.0
 41
1.0
 10
30.51255930688926
 20
34.67852297636069
 30
0.0
 41
0.9085543714792195
 10
30.73353615349194
 20
34.68181965912337
 30
0.0
 41
0.9999984513250574
  0
SPLINE
  5
9B
330
1F
100
AcDbEntity
  8
4 leg - armless 2d
 62
     7
100
AcDbSpline
210
0.0
220
0.0
230
1.0
 70
     8
 71
     3
 72
    34
 73
    30
 74
     0
 42
0.0000000001
 43
0.0000000001
 40
0.0
 40
0.0
 40
0.0
 40
0.0
 40
1.0
 40
2.0
 40
3.0
 40
4.0
 40
5.0
 40
6.0
 40
7.0
 40
8.0
 40
9.0
 40
10.0
 40
11.0
 40
12.0
 40
13.0
 40
14.0
 40
15.0
 40
16.0
 40
17.0
 40
18.0
 40
19.0
 40
20.0
 40
21.0
 40
22.0
 40
23.0
 40
24.0
 40
25.0
 40
26.0
 40
27.0
 40
27.0
 40
27.0
 40
27.0
 10
30.73353615349195
 20
34.68181965912336
 30
0.0
 10
31.14555315412783
 20
34.63294414137031
 30
0.0
 10
32.0837789801401
 20
34.84724895898987
 30
0.0
 10
32.99425263938533
 20
33.77975006567408
 30
0.0
 10
33.612007576228
 20
32.69180216831792
 30
0.0
 10
34.01800667740422
 20
31.46625517326252
 30
0.0
 10
34.42496237114774
 20
30.25792666497983
 30
0.0
 10
34.84874207030206
 20
29.05083150063549
 30
0.0
 10
35.26445536113857
 20
27.84204031856444
 30
0.0
 10
35.67707713611568
 20
26.63237889692767
 30
0.0
 10
36.07710881157424
 20
25.41687693194141
 30
0.0
 10
36.66738427585979
 20
24.27943798245006
 30
0.0
 10
37.22292095490361
 20
23.12832393816655
 30
0.0
 10
37.88426460049121
 20
22.03238593813457
 30
0.0
 10
38.68424686089389
 20
21.02631100864845
 30
0.0
 10
39.74554334681348
 20
20.29209820678572
 30
0.0
 10
40.91791085558235
 20
19.77147633257862
 30
0.0
 10
42.15813172819264
 20
19.45487477200634
 30
0.0
 10
43.41565138359159
 20
19.21489875015778
 30
0.0
 10
44.69217660445826
 20
19.12382029038718
 30
0.0
 10
45.9702844167252
 20
19.09586170303887
 30
0.0
 10
47.24854402061393
 20
19.08593262731588
 30
0.0
 10
48.52743763003291
 20
19.06914340088738
 30
0.0
 10
49.80115108941926
 20
18.94614275496439
 30
0.0
 10
51.05288855426787
 20
18.66965056915279
 30
0.0
 10
52.25399013263242
 20
18.22881082463667
 30
0.0
 10
53.41563000146411
 20
17.68272834724441
 30
0.0
 10
54.43539245296659
 20
16.90414651244044
 30
0.0
 10
55.00992345938283
 20
16.26500657288629
 30
0.0
 10
55.3768992990156
 20
16.04430473022096
 30
0.0
  0
SPLINE
  5
9C
330
1F
100
AcDbEntity
  8
4 leg - armless 2d
 62
     7
100
AcDbSpline
210
0.0
220
0.0
230
1.0
 70
     8
 71
     3
 72
    13
 73
     9
 74
     0
 42
0.0000000001
 43
0.0000000001
 40
-6.0
 40
-6.0
 40
-6.0
 40
-6.0
 40
-5.0
 40
-4.0
 40
-3.0
 40
-2.0
 40
-1.0
 40
0.0
 40
0.0
 40
0.0
 40
0.0
 10
55.3768992990156
 20
16.04430473022096
 30
0.0
 10
55.45060360101873
 20
16.00913874285336
 30
0.0
 10
55.58658103382672
 20
15.91652303695468
 30
0.0
 10
55.73809254251122
 20
15.71677926584272
 30
0.0
 10
55.76539075820396
 20
15.46382919998189
 30
0.0
 10
55.65680743359635
 20
15.23399746397078
 30
0.0
 10
55.45354375838206
 20
15.08958440197771
 30
0.0
 10
55.3019703430714
 20
15.0286677195248
 30
0.0
 10
55.22429212237534
 20
15.0036199204551
 30
0.0
  0
SPLINE
  5
9D
330
1F
100
AcDbEntity
  8
4 leg - armless 2d
 62
     7
100
AcDbSpline
210
0.0
220
0.0
230
1.0
 70
     8
 71
     3
 72
     9
 73
     5
 74
     0
 42
0.0000000001
 43
0.0000000001
 40
0.0
 40
0.0
 40
0.0
 40
0.0
 40
1.0
 40
1.466057282967753
 40
1.466057282967753
 40
1.466057282967753
 40
1.466057282967753
 10
55.22429212237534
 20
15.0036199204551
 30
0.0
 10
54.27293817965222
 20
14.67487946844551
 30
0.0
 10
52.82557127928354
 20
14.37775899304336
 30
0.0
 10
51.36521697130036
 20
14.17982616419532
 30
0.0
 10
50.90003555189842
 20
14.1249117881225
 30
0.0
  0
SPLINE
  5
9E
330
1F
100
AcDbEntity
  8
4 leg - armless 2d
 62
     7
100
AcDbSpline
210
0.0
220
0.0
230
1.0
 70
     8
 71
     3
 72
    11
 73
     7
 74
     0
 42
0.0000000001
 43
0.0000000001
 40
0.0
 40
0.0
 40
0.0
 40
0.0
 40
1.0
 40
2.0
 40
3.0
 40
3.570797806264587
 40
3.570797806264587
 40
3.570797806264587
 40
3.570797806264587
 10
-11.68917313649623
 20
18.33626318658785
 30
0.0
 10
-11.40508255662792
 20
17.93682315471598
 30
0.0
 10
-10.73928811285886
 20
17.21237875828073
 30
0.0
 10
-9.585160457270879
 20
16.29834586310647
 30
0.0
 10
-8.517643829678759
 20
15.62786779968347
 30
0.0
 10
-7.836834495317452
 20
15.26866389706676
 30
0.0
 10
-7.585596662205693
 20
15.14614667596198
 30
0.0
  0
SPLINE
  5
9F
330
1F
100
AcDbEntity
  8
4 leg - armless 2d
 62
     7
100
AcDbSpline
210
0.0
220
0.0
230
1.0
 70
     8
 71
     3
 72
    11
 73
     7
 74
     0
 42
0.0000000001
 43
0.0000000001
 40
-3.570797806264588
 40
-3.570797806264588
 40
-3.570797806264588
 40
-3.570797806264588
 40
-3.0
 40
-2.0
 40
-1.0
 40
0.0
 40
0.0
 40
0.0
 40
0.0
 10
7.585596662205691
 20
15.14614667596198
 30
0.0
 10
7.836834495317451
 20
15.26866389706676
 30
0.0
 10
8.517643829678757
 20
15.62786779968347
 30
0.0
 10
9.585160457270879
 20
16.29834586310647
 30
0.0
 10
10.73928811285886
 20
17.21237875828073
 30
0.0
 10
11.40508255662792
 20
17.93682315471598
 30
0.0
 10
11.68917313649623
 20
18.33626318658785
 30
0.0
  0
SPLINE
  5
A0
330
1F
100
AcDbEntity
  8
4 leg - armless 2d
100
AcDbSpline
210
0.0
220
0.0
230
1.0
 70
     8
 71
     3
 72
     8
 73
     4
 74
     0
 42
0.0000000001
 43
0.0000000001
 40
0.0
 40
0.0
 40
0.0
 40
0.0
 40
1.0
 40
1.0
 40
1.0
 40
1.0
 10
-3.122563975444191
 20
14.0143238071951
 30
0.0
 10
-1.457093221584461
 20
13.99917667031791
 30
0.0
 10
1.457093221584461
 20
13.99917667031791
 30
0.0
 10
3.122563975444191
 20
14.0143238071951
 30
0.0
  0
SPLINE
  5
A1
330
1F
100
AcDbEntity
  8
4 leg - armless 2d
100
AcDbSpline
210
0.0
220
0.0
230
1.0
 70
     8
 71
     3
 72
    10
 73
     6
 74
     0
 42
0.0000000001
 43
0.0000000001
 40
0.0
 40
0.0
 40
0.0
 40
0.0
 40
1.268756985817898
 40
2.237317524824375
 40
3.753710493746765
 40
3.753710493746765
 40
3.753710493746765
 40
3.753710493746765
 10
3.122563975444191
 20
14.0143238071951
 30
0.0
 10
3.545465480816544
 20
14.01817001522523
 30
0.0
 10
4.2871887110506
 20
14.12984443515762
 30
0.0
 10
5.489165721055395
 20
14.47789786133218
 30
0.0
 10
6.258211083233818
 20
14.79443993451458
 30
0.0
 10
6.737356635864918
 20
15.05861756321475
 30
0.0
  0
SPLINE
  5
A2
330
1F
100
AcDbEntity
  8
4 leg - armless 2d
100
AcDbSpline
210
0.0
220
0.0
230
1.0
 70
     8
 71
     3
 72
    13
 73
     9
 74
     0
 42
0.0000000001
 43
0.0000000001
 40
-2.465674222230888
 40
-2.465674222230888
 40
-2.465674222230888
 40
-2.465674222230888
 40
-2.158649100441919
 40
-1.887753326022497
 40
-1.341694178010078
 40
-0.7591265492602681
 40
-0.4199709130222754
 40
0.0
 40
0.0
 40
0.0
 40
0.0
 10
6.737356635864918
 20
15.05861756321475
 30
0.0
 10
6.827690582971983
 20
15.10641110757657
 30
0.0
 10
7.005762565183511
 20
15.18405379494724
 30
0.0
 10
7.380557830338371
 20
15.23557578156598
 30
0.0
 10
7.845383101074322
 20
15.067923017887
 30
0.0
 10
8.120244033949161
 20
14.64073969697074
 30
0.0
 10
8.265258216425481
 20
14.22186707853043
 30
0.0
 10
8.31230229671803
 20
13.96911909078251
 30
0.0
 10
8.333763756845553
 20
13.8318487574681
 30
0.0
  0
SPLINE
  5
A3
330
1F
100
AcDbEntity
  8
4 leg - armless 2d
100
AcDbSpline
210
0.0
220
0.0
230
1.0
 70
    24
 71
     2
 72
     6
 73
     3
 74
     0
 42
0.0000000001
 43
0.0000000001
 40
-13.39491381413434
 40
-13.39491381413434
 40
-13.39491381413434
 40
0.0
 40
0.0
 40
0.0
 10
8.333763756845553
 20
13.8318487574681
 30
0.0
 10
9.329722976941543
 20
7.208739065625889
 30
0.0
 10
10.32568219703754
 20
0.5856293737836766
 30
0.0
  0
SPLINE
  5
A4
330
1F
100
AcDbEntity
  8
4 leg - armless 2d
100
AcDbSpline
210
0.0
220
0.0
230
1.0
 70
    12
 71
     2
 72
     8
 73
     5
 74
     0
 42
0.0000000001
 43
0.0000000001
 40
0.0
 40
0.0
 40
0.0
 40
1.570796326794897
 40
1.570796326794897
 40
3.141592653589793
 40
3.141592653589793
 40
3.141592653589793
 10
10.32568219703754
 20
0.5856293737836766
 30
0.0
 41
1.0
 10
10.31713178335855
 20
0.6392684098250125
 30
0.0
 41
0.7071067811865475
 10
9.946792922784507
 20
0.5802339697416048
 30
0.0
 41
1.0
 10
9.576454062210468
 20
0.521199529658197
 30
0.0
 41
0.7071067811865475
 10
9.585004475889459
 20
0.4675604936168612
 30
0.0
 41
1.0
  0
SPLINE
  5
A5
330
1F
100
AcDbEntity
  8
4 leg - armless 2d
100
AcDbSpline
210
0.0
220
0.0
230
1.0
 70
    24
 71
     2
 72
     6
 73
     3
 74
     0
 42
0.0000000001
 43
0.0000000001
 40
-13.40105391213546
 40
-13.40105391213546
 40
-13.40105391213546
 40
0.0
 40
0.0
 40
0.0
 10
9.585004475889459
 20
0.4675604936168612
 30
0.0
 10
8.58860697480451
 20
7.093588980487555
 30
0.0
 10
7.592209473719558
 20
13.71961746735825
 30
0.0
  0
SPLINE
  5
A6
330
1F
100
AcDbEntity
  8
4 leg - armless 2d
100
AcDbSpline
210
0.0
220
0.0
230
1.0
 70
     8
 71
     3
 72
     8
 73
     4
 74
     0
 42
0.0000000001
 43
0.0000000001
 40
0.0
 40
0.0
 40
0.0
 40
0.0
 40
1.0
 40
1.0
 40
1.0
 40
1.0
 10
7.592209473719558
 20
13.71961746735825
 30
0.0
 10
7.52475827353424
 20
14.16816694024922
 30
0.0
 10
7.4195799581609
 20
14.57870494523864
 30
0.0
 10
7.062811746371187
 20
14.38200024941363
 30
0.0
  0
SPLINE
  5
A7
330
1F
100
AcDbEntity
  8
4 leg - armless 2d
100
AcDbSpline
210
0.0
220
0.0
230
1.0
 70
     8
 71
     3
 72
    11
 73
     7
 74
     0
 42
0.0000000001
 43
0.0000000001
 40
-4.124608493135663
 40
-4.124608493135663
 40
-4.124608493135663
 40
-4.124608493135663
 40
-1.931744291642014
 40
-0.9193934764265195
 40
-0.439515042886951
 40
0.0
 40
0.0
 40
0.0
 40
0.0
 10
7.062811746371187
 20
14.38200024941363
 30
0.0
 10
6.421793907687421
 20
14.0285740897674
 30
0.0
 10
5.416826329511374
 20
13.64989742578357
 30
0.0
 10
4.222102183347723
 20
13.361607041816
 30
0.0
 10
3.581757475533522
 20
13.28193079406875
 30
0.0
 10
3.276062058326431
 20
13.266025888679
 30
0.0
 10
3.129381734144706
 20
13.26469185928075
 30
0.0
  0
SPLINE
  5
A8
330
1F
100
AcDbEntity
  8
4 leg - armless 2d
100
AcDbSpline
210
0.0
220
0.0
230
1.0
 70
     8
 71
     3
 72
     9
 73
     5
 74
     0
 42
0.0000000001
 43
0.0000000001
 40
-2.0
 40
-2.0
 40
-2.0
 40
-2.0
 40
-1.0
 40
0.0
 40
0.0
 40
0.0
 40
0.0
 10
3.129381734144706
 20
13.26469185928075
 30
0.0
 10
2.904012088900001
 20
13.26264216560911
 30
0.0
 10
2.436704625731139
 20
13.34157030237492
 30
0.0
 10
1.990103098170164
 20
13.3965244213353
 30
0.0
 10
1.764945188382198
 20
13.39832957507327
 30
0.0
  0
POLYLINE
  5
A9
330
1F
100
AcDbEntity
  8
4 leg - armless 2d
100
AcDb2dPolyline
 66
     1
 10
0.0
 20
0.0
 30
0.0
  0
VERTEX
  5
AA
330
A9
100
AcDbEntity
  8
4 leg - armless 2d
100
AcDbVertex
100
AcDb2dVertex
 10
1.764945188382198
 20
13.39832957507327
 30
0.0
  0
VERTEX
  5
AB
330
A9
100
AcDbEntity
  8
4 leg - armless 2d
100
AcDbVertex
100
AcDb2dVertex
 10
-1.764945188382198
 20
13.39832957507327
 30
0.0
  0
SEQEND
  5
AC
330
A9
100
AcDbEntity
  8
4 leg - armless 2d
  0
SPLINE
  5
AD
330
1F
100
AcDbEntity
  8
4 leg - armless 2d
100
AcDbSpline
210
0.0
220
0.0
230
1.0
 70
     8
 71
     3
 72
     9
 73
     5
 74
     0
 42
0.0000000001
 43
0.0000000001
 40
0.0
 40
0.0
 40
0.0
 40
0.0
 40
1.0
 40
2.0
 40
2.0
 40
2.0
 40
2.0
 10
-1.764945188382198
 20
13.39832957507327
 30
0.0
 10
-1.990103098170164
 20
13.3965244213353
 30
0.0
 10
-2.436704625731139
 20
13.34157030237492
 30
0.0
 10
-2.904012088900001
 20
13.26264216560911
 30
0.0
 10
-3.129381734144706
 20
13.26469185928075
 30
0.0
  0
SPLINE
  5
AE
330
1F
100
AcDbEntity
  8
4 leg - armless 2d
100
AcDbSpline
210
0.0
220
0.0
230
1.0
 70
     8
 71
     3
 72
    11
 73
     7
 74
     0
 42
0.0000000001
 43
0.0000000001
 40
0.0
 40
0.0
 40
0.0
 40
0.0
 40
0.439515042886951
 40
0.9193934764265195
 40
1.931744291642014
 40
4.124608493135663
 40
4.124608493135663
 40
4.124608493135663
 40
4.124608493135663
 10
-3.129381734144706
 20
13.26469185928075
 30
0.0
 10
-3.276062058326431
 20
13.266025888679
 30
0.0
 10
-3.581757475533522
 20
13.28193079406875
 30
0.0
 10
-4.222102183347723
 20
13.361607041816
 30
0.0
 10
-5.416826329511374
 20
13.64989742578357
 30
0.0
 10
-6.421793907687421
 20
14.0285740897674
 30
0.0
 10
-7.062811746371187
 20
14.38200024941363
 30
0.0
  0
SPLINE
  5
AF
330
1F
100
AcDbEntity
  8
4 leg - armless 2d
100
AcDbSpline
210
0.0
220
0.0
230
1.0
 70
     8
 71
     3
 72
     8
 73
     4
 74
     0
 42
0.0000000001
 43
0.0000000001
 40
-1.0
 40
-1.0
 40
-1.0
 40
-1.0
 40
0.0
 40
0.0
 40
0.0
 40
0.0
 10
-7.062811746371187
 20
14.38200024941363
 30
0.0
 10
-7.4195799581609
 20
14.57870494523864
 30
0.0
 10
-7.52475827353424
 20
14.16816694024922
 30
0.0
 10
-7.592209473719558
 20
13.71961746735825
 30
0.0
  0
SPLINE
  5
B0
330
1F
100
AcDbEntity
  8
4 leg - armless 2d
100
AcDbSpline
210
0.0
220
0.0
230
1.0
 70
    24
 71
     2
 72
     6
 73
     3
 74
     0
 42
0.0000000001
 43
0.0000000001
 40
0.0
 40
0.0
 40
0.0
 40
13.40105391213546
 40
13.40105391213546
 40
13.40105391213546
 10
-7.592209473719558
 20
13.71961746735825
 30
0.0
 10
-8.58860697480451
 20
7.093588980487555
 30
0.0
 10
-9.585004475889459
 20
0.4675604936168612
 30
0.0
  0
SPLINE
  5
B1
330
1F
100
AcDbEntity
  8
4 leg - armless 2d
100
AcDbSpline
210
0.0
220
0.0
230
1.0
 70
    12
 71
     2
 72
     8
 73
     5
 74
     0
 42
0.0000000001
 43
0.0000000001
 40
-3.141592653589793
 40
-3.141592653589793
 40
-3.141592653589793
 40
-1.570796326794897
 40
-1.570796326794897
 40
0.0
 40
0.0
 40
0.0
 10
-9.585004475889459
 20
0.4675604936168612
 30
0.0
 41
1.0
 10
-9.576454062210468
 20
0.521199529658197
 30
0.0
 41
0.7071067811865475
 10
-9.946792922784507
 20
0.5802339697416048
 30
0.0
 41
1.0
 10
-10.31713178335855
 20
0.6392684098250125
 30
0.0
 41
0.7071067811865475
 10
-10.32568219703754
 20
0.5856293737836766
 30
0.0
 41
1.0
  0
SPLINE
  5
B2
330
1F
100
AcDbEntity
  8
4 leg - armless 2d
100
AcDbSpline
210
0.0
220
0.0
230
1.0
 70
    24
 71
     2
 72
     6
 73
     3
 74
     0
 42
0.0000000001
 43
0.0000000001
 40
0.0
 40
0.0
 40
0.0
 40
13.39491381413434
 40
13.39491381413434
 40
13.39491381413434
 10
-10.32568219703754
 20
0.5856293737836766
 30
0.0
 10
-9.329722976941543
 20
7.208739065625889
 30
0.0
 10
-8.333763756845553
 20
13.8318487574681
 30
0.0
  0
SPLINE
  5
B3
330
1F
100
AcDbEntity
  8
4 leg - armless 2d
100
AcDbSpline
210
0.0
220
0.0
230
1.0
 70
     8
 71
     3
 72
    13
 73
     9
 74
     0
 42
0.0000000001
 43
0.0000000001
 40
0.0
 40
0.0
 40
0.0
 40
0.0
 40
0.4199709130222754
 40
0.7591265492602681
 40
1.341694178010078
 40
1.887753326022497
 40
2.158649100441919
 40
2.465674222230888
 40
2.465674222230888
 40
2.465674222230888
 40
2.465674222230888
 10
-8.333763756845553
 20
13.8318487574681
 30
0.0
 10
-8.31230229671803
 20
13.96911909078251
 30
0.0
 10
-8.265258216425481
 20
14.22186707853043
 30
0.0
 10
-8.120244033949161
 20
14.64073969697074
 30
0.0
 10
-7.845383101074322
 20
15.067923017887
 30
0.0
 10
-7.380557830338371
 20
15.23557578156598
 30
0.0
 10
-7.005762565183511
 20
15.18405379494724
 30
0.0
 10
-6.827690582971983
 20
15.10641110757657
 30
0.0
 10
-6.737356635864918
 20
15.05861756321475
 30
0.0
  0
SPLINE
  5
B4
330
1F
100
AcDbEntity
  8
4 leg - armless 2d
100
AcDbSpline
210
0.0
220
0.0
230
1.0
 70
     8
 71
     3
 72
    10
 73
     6
 74
     0
 42
0.0000000001
 43
0.0000000001
 40
-3.753710493746765
 40
-3.753710493746765
 40
-3.753710493746765
 40
-3.753710493746765
 40
-2.237317524824375
 40
-1.268756985817898
 40
0.0
 40
0.0
 40
0.0
 40
0.0
 10
-6.737356635864918
 20
15.05861756321475
 30
0.0
 10
-6.258211083233818
 20
14.79443993451458
 30
0.0
 10
-5.489165721055395
 20
14.47789786133218
 30
0.0
 10
-4.2871887110506
 20
14.12984443515762
 30
0.0
 10
-3.545465480816544
 20
14.01817001522523
 30
0.0
 10
-3.122563975444191
 20
14.0143238071951
 30
0.0
  0
POLYLINE
  5
B5
330
1F
100
AcDbEntity
  8
4 leg - armless 2d
100
AcDb2dPolyline
 66
     1
 10
0.0
 20
0.0
 30
0.0
  0
VERTEX
  5
B6
330
B5
100
AcDbEntity
  8
4 leg - armless 2d
100
AcDbVertex
100
AcDb2dVertex
 10
-9.953590207950397
 20
54.01057691562261
 30
0.0
  0
VERTEX
  5
B7
330
B5
100
AcDbEntity
  8
4 leg - armless 2d
100
AcDbVertex
100
AcDb2dVertex
 10
-10.27049917110514
 20
53.66564461560836
 30
0.0
  0
SEQEND
  5
B8
330
B5
100
AcDbEntity
  8
4 leg - armless 2d
  0
ARC
  5
B9
330
1F
100
AcDbEntity
  8
4 leg - armless 2d
100
AcDbCircle
 10
-9.994256568286119
 20
53.41184479217947
 30
0.0
 40
0.3751324112693692
100
AcDbArc
 50
137.4245397375285
 51
317.466220888652
  0
POLYLINE
  5
BA
330
1F
100
AcDbEntity
  8
4 leg - armless 2d
100
AcDb2dPolyline
 66
     1
 10
0.0
 20
0.0
 30
0.0
  0
VERTEX
  5
BB
330
BA
100
AcDbEntity
  8
4 leg - armless 2d
100
AcDbVertex
100
AcDb2dVertex
 10
-9.717829405978618
 20
53.15824599501475
 30
0.0
  0
VERTEX
  5
BC
330
BA
100
AcDbEntity
  8
4 leg - armless 2d
100
AcDbVertex
100
AcDb2dVertex
 10
-9.50911198306195
 20
53.38575166769942
 30
0.0
  0
SEQEND
  5
BD
330
BA
100
AcDbEntity
  8
4 leg - armless 2d
  0
ARC
  5
BE
330
1F
100
AcDbEntity
  8
4 leg - armless 2d
100
AcDbCircle
 10
-9.377686497157159
 20
71.91838799117322
 30
0.0
 40
0.3720764438126365
100
AcDbArc
 50
104.7572176031841
 51
156.331505514038
  0
SPLINE
  5
BF
330
1F
100
AcDbEntity
  8
4 leg - armless 2d
100
AcDbSpline
210
0.0
220
0.0
230
1.0
 70
    12
 71
     2
 72
     7
 73
     4
 74
     0
 42
0.0000000001
 43
0.0000000001
 40
0.3349213118508659
 40
0.3349213118508659
 40
0.3349213118508659
 40
0.6698426237017318
 40
0.8126394380606023
 40
0.8126394380606023
 40
0.8126394380606023
 10
-9.718465163821252
 20
72.06775592744768
 30
0.0
 41
1.0
 10
-9.79063110244695
 20
71.9031114062953
 30
0.0
 41
0.9004164060249653
 10
-9.675513718434074
 20
71.6857456529243
 30
0.0
 41
1.042458390908173
 10
-9.638588776060939
 20
71.6242189526495
 30
0.0
 41
0.9981741318453473
  0
POLYLINE
  5
C0
330
1F
100
AcDbEntity
  8
4 leg - armless 2d
100
AcDb2dPolyline
 66
     1
 10
0.0
 20
0.0
 30
0.0
  0
VERTEX
  5
C1
330
C0
100
AcDbEntity
  8
4 leg - armless 2d
100
AcDbVertex
100
AcDb2dVertex
 10
9.953590207950397
 20
54.01057691562261
 30
0.0
  0
VERTEX
  5
C2
330
C0
100
AcDbEntity
  8
4 leg - armless 2d
100
AcDbVertex
100
AcDb2dVertex
 10
10.27049917110514
 20
53.66564461560836
 30
0.0
  0
SEQEND
  5
C3
330
C0
100
AcDbEntity
  8
4 leg - armless 2d
  0
ARC
  5
C4
330
1F
100
AcDbEntity
  8
4 leg - armless 2d
100
AcDbCircle
 10
9.994256568286119
 20
53.41184479217947
 30
0.0
 40
0.3751324112693692
100
AcDbArc
 50
222.533779111348
 51
42.57546026247146
  0
POLYLINE
  5
C5
330
1F
100
AcDbEntity
  8
4 leg - armless 2d
100
AcDb2dPolyline
 66
     1
 10
0.0
 20
0.0
 30
0.0
  0
VERTEX
  5
C6
330
C5
100
AcDbEntity
  8
4 leg - armless 2d
100
AcDbVertex
100
AcDb2dVertex
 10
9.717829405978618
 20
53.15824599501475
 30
0.0
  0
VERTEX
  5
C7
330
C5
100
AcDbEntity
  8
4 leg - armless 2d
100
AcDbVertex
100
AcDb2dVertex
 10
9.50911198306195
 20
53.38575166769942
 30
0.0
  0
SEQEND
  5
C8
330
C5
100
AcDbEntity
  8
4 leg - armless 2d
  0
ARC
  5
C9
330
1F
100
AcDbEntity
  8
4 leg - armless 2d
100
AcDbCircle
 10
9.377686497157159
 20
71.91838799117322
 30
0.0
 40
0.3720764438126365
100
AcDbArc
 50
23.66849448596199
 51
75.24278239681561
  0
SPLINE
  5
CA
330
1F
100
AcDbEntity
  8
4 leg - armless 2d
100
AcDbSpline
210
0.0
220
0.0
230
1.0
 70
    12
 71
     2
 72
     7
 73
     4
 74
     0
 42
0.0000000001
 43
0.0000000001
 40
0.3349213118508659
 40
0.3349213118508659
 40
0.3349213118508659
 40
0.6698426237017318
 40
0.8126394380606023
 40
0.8126394380606023
 40
0.8126394380606023
 10
9.718465163821252
 20
72.06775592744768
 30
0.0
 41
1.0
 10
9.79063110244695
 20
71.9031114062953
 30
0.0
 41
0.9004164060249653
 10
9.675513718434074
 20
71.6857456529243
 30
0.0
 41
1.042458390908173
 10
9.638588776060939
 20
71.6242189526495
 30
0.0
 41
0.9981741318453473
  0
SPLINE
  5
CB
330
1F
100
AcDbEntity
  8
4 leg - armless 2d
 62
     7
100
AcDbSpline
210
0.0
220
0.0
230
1.0
 70
     8
 71
     3
 72
    16
 73
    12
 74
     0
 42
0.0000000001
 43
0.0000000001
 40
0.0
 40
0.0
 40
0.0
 40
0.0
 40
1.0
 40
2.0
 40
3.0
 40
4.0
 40
5.0
 40
6.0
 40
7.0
 40
8.0
 40
9.0
 40
9.0
 40
9.0
 40
9.0
 10
8.373478374282083
 20
17.82219764782866
 30
0.0
 10
8.133413717406896
 20
18.03375495148768
 30
0.0
 10
7.510402573247199
 20
18.18594880346744
 30
0.0
 10
6.574011808716242
 20
18.2242031366443
 30
0.0
 10
5.635525905002955
 20
18.27589984454891
 30
0.0
 10
4.696401972921957
 20
18.29236371462474
 30
0.0
 10
3.757094296682017
 20
18.29404575896864
 30
0.0
 10
2.817830283530704
 20
18.2986436191316
 30
0.0
 10
1.878552709133207
 20
18.30204738477539
 30
0.0
 10
0.9392775642960596
 20
18.30536163290779
 30
0.0
 10
0.3130925894307828
 20
18.30730510787297
 30
0.0
 10
0.0
 20
18.3082324037282
 30
0.0
  0
SPLINE
  5
CC
330
1F
100
AcDbEntity
  8
4 leg - armless 2d
 62
     7
100
AcDbSpline
210
0.0
220
0.0
230
1.0
 70
     8
 71
     3
 72
    16
 73
    12
 74
     0
 42
0.0000000001
 43
0.0000000001
 40
-9.0
 40
-9.0
 40
-9.0
 40
-9.0
 40
-8.0
 40
-7.0
 40
-6.0
 40
-5.0
 40
-4.0
 40
-3.0
 40
-2.0
 40
-1.0
 40
0.0
 40
0.0
 40
0.0
 40
0.0
 10
0.0
 20
18.3082324037282
 30
0.0
 10
-0.3130925894307828
 20
18.30730510787297
 30
0.0
 10
-0.9392775642960596
 20
18.30536163290779
 30
0.0
 10
-1.878552709133207
 20
18.30204738477539
 30
0.0
 10
-2.817830283530704
 20
18.2986436191316
 30
0.0
 10
-3.757094296682017
 20
18.29404575896864
 30
0.0
 10
-4.696401972921957
 20
18.29236371462474
 30
0.0
 10
-5.635525905002955
 20
18.27589984454891
 30
0.0
 10
-6.574011808716242
 20
18.2242031366443
 30
0.0
 10
-7.510402573247199
 20
18.18594880346744
 30
0.0
 10
-8.133413717406896
 20
18.03375495148768
 30
0.0
 10
-8.373478374282083
 20
17.82219764782866
 30
0.0
  0
ENDSEC
  0
SECTION
  2
OBJECTS
  0
DICTIONARY
  5
C
330
0
100
AcDbDictionary
281
     1
  3
ACAD_GROUP
350
D
  3
ACAD_LAYOUT
350
1A
  3
ACAD_MLEADERSTYLE
350
CE
  3
ACAD_MLINESTYLE
350
17
  3
ACAD_PLOTSETTINGS
350
19
  3
ACAD_PLOTSTYLENAME
350
E
  3
ACAD_TABLESTYLE
350
CD
  3
ACAD_VISUALSTYLE
350
2A
  0
DICTIONARY
  5
D
102
{ACAD_REACTORS
330
C
102
}
330
C
100
AcDbDictionary
281
     1
  0
DICTIONARY
  5
1A
102
{ACAD_REACTORS
330
C
102
}
330
C
100
AcDbDictionary
281
     1
  3
Layout1
350
1E
  3
Layout2
350
26
  3
Model
350
22
  0
DICTIONARY
  5
CE
102
{ACAD_REACTORS
330
C
102
}
330
C
100
AcDbDictionary
281
     1
  0
DICTIONARY
  5
17
102
{ACAD_REACTORS
330
C
102
}
330
C
100
AcDbDictionary
281
     1
  3
Standard
350
18
  0
DICTIONARY
  5
19
102
{ACAD_REACTORS
330
C
102
}
330
C
100
AcDbDictionary
281
     1
  0
ACDBDICTIONARYWDFLT
  5
E
102
{ACAD_REACTORS
330
C
102
}
330
C
100
AcDbDictionary
281
     1
  3
Normal
350
F
100
AcDbDictionaryWithDefault
340
F
  0
DICTIONARY
  5
CD
102
{ACAD_REACTORS
330
C
102
}
330
C
100
AcDbDictionary
281
     1
  0
DICTIONARY
  5
2A
102
{ACAD_REACTORS
330
C
102
}
330
C
100
AcDbDictionary
281
     1
  3
2dWireframe
350
2F
  3
3D Hidden
350
31
  3
3dWireframe
350
30
  3
Basic
350
32
  3
Brighten
350
36
  3
ColorChange
350
3A
  3
Conceptual
350
34
  3
Dim
350
35
  3
Facepattern
350
39
  3
Flat
350
2B
  3
FlatWithEdges
350
2C
  3
Gouraud
350
2D
  3
GouraudWithEdges
350
2E
  3
Linepattern
350
38
  3
Realistic
350
33
  3
Thicken
350
37
  0
LAYOUT
  5
1E
102
{ACAD_REACTORS
330
1A
102
}
330
1A
100
AcDbPlotSettings
  1

  2
none_device
  4

  6

 40
0.0
 41
0.0
 42
0.0
 43
0.0
 44
0.0
 45
0.0
 46
0.0
 47
0.0
 48
0.0
 49
0.0
140
0.0
141
0.0
142
1.0
143
1.0
 70
   688
 72
     0
 73
     0
 74
     5
  7

 75
    16
 76
     0
 77
     2
 78
   300
147
1.0
148
0.0
149
0.0
100
AcDbLayout
  1
Layout1
 70
     1
 71
     1
 10
0.0
 20
0.0
 11
12.0
 21
9.0
 12
0.0
 22
0.0
 32
0.0
 14
1.000000000000000E+20
 24
1.000000000000000E+20
 34
1.000000000000000E+20
 15
-1.000000000000000E+20
 25
-1.000000000000000E+20
 35
-1.000000000000000E+20
146
0.0
 13
0.0
 23
0.0
 33
0.0
 16
1.0
 26
0.0
 36
0.0
 17
0.0
 27
1.0
 37
0.0
 76
     0
330
1B
  0
LAYOUT
  5
26
102
{ACAD_REACTORS
330
1A
102
}
330
1A
100
AcDbPlotSettings
  1

  2
none_device
  4

  6

 40
0.0
 41
0.0
 42
0.0
 43
0.0
 44
0.0
 45
0.0
 46
0.0
 47
0.0
 48
0.0
 49
0.0
140
0.0
141
0.0
142
1.0
143
1.0
 70
   688
 72
     0
 73
     0
 74
     5
  7

 75
    16
 76
     0
 77
     2
 78
   300
147
1.0
148
0.0
149
0.0
100
AcDbLayout
  1
Layout2
 70
     1
 71
     2
 10
0.0
 20
0.0
 11
0.0
 21
0.0
 12
0.0
 22
0.0
 32
0.0
 14
0.0
 24
0.0
 34
0.0
 15
0.0
 25
0.0
 35
0.0
146
0.0
 13
0.0
 23
0.0
 33
0.0
 16
1.0
 26
0.0
 36
0.0
 17
0.0
 27
1.0
 37
0.0
 76
     0
330
23
  0
LAYOUT
  5
22
102
{ACAD_REACTORS
330
1A
102
}
330
1A
100
AcDbPlotSettings
  1

  2
none_device
  4

  6

 40
0.0
 41
0.0
 42
0.0
 43
0.0
 44
0.0
 45
0.0
 46
0.0
 47
0.0
 48
0.0
 49
0.0
140
0.0
141
0.0
142
1.0
143
1.0
 70
  1712
 72
     0
 73
     0
 74
     0
  7

 75
     0
 76
     0
 77
     2
 78
   300
147
1.0
148
0.0
149
0.0
100
AcDbLayout
  1
Model
 70
     1
 71
     0
 10
0.0
 20
0.0
 11
12.0
 21
9.0
 12
0.0
 22
0.0
 32
0.0
 14
-11.80615073394798
 24
-0.000388641260708
 34
0.0
 15
55.74632300799733
 25
75.95295677303952
 35
0.0
146
0.0
 13
0.0
 23
0.0
 33
0.0
 16
1.0
 26
0.0
 36
0.0
 17
0.0
 27
1.0
 37
0.0
 76
     0
330
1F
331
29
  0
MLINESTYLE
  5
18
102
{ACAD_REACTORS
330
17
102
}
330
17
100
AcDbMlineStyle
  2
Standard
 70
     0
  3

 62
   256
 51
90.0
 52
90.0
 71
     2
 49
0.5
 62
   256
  6
BYLAYER
 49
-0.5
 62
   256
  6
BYLAYER
  0
ACDBPLACEHOLDER
  5
F
102
{ACAD_REACTORS
330
E
102
}
330
E
  0
VISUALSTYLE
  5
2F
102
{ACAD_REACTORS
330
2A
102
}
330
2A
100
AcDbVisualStyle
  2
2dWireframe
 70
     4
 71
     0
 72
     2
 73
     0
 90
        0
 40
-0.6
 41
-30.0
 62
     5
 63
     7
421
 16777215
 74
     1
 91
        4
 64
     7
 65
   257
 75
     1
175
     1
 42
1.0
 92
        0
 66
   257
 43
1.0
 76
     1
 77
     6
 78
     2
 67
     7
 79
     5
170
     0
171
     0
290
     0
174
     0
 93
        1
 44
0.0
173
     0
291
     0
 45
0.0
1001
ACAD
1000
AcDbSavedByObjectVersion
1070
     0
  0
VISUALSTYLE
  5
31
102
{ACAD_REACTORS
330
2A
102
}
330
2A
100
AcDbVisualStyle
  2
3D Hidden
 70
     6
 71
     1
 72
     2
 73
     2
 90
        0
 40
-0.6
 41
-30.0
 62
     5
 63
     7
421
 16777215
 74
     2
 91
        2
 64
     7
 65
   257
 75
     2
175
     1
 42
40.0
 92
        0
 66
   257
 43
1.0
 76
     1
 77
     6
 78
     2
 67
     7
 79
     3
170
     0
171
     0
290
     0
174
     0
 93
        1
 44
0.0
173
     0
291
     0
 45
0.0
1001
ACAD
1000
AcDbSavedByObjectVersion
1070
     0
  0
VISUALSTYLE
  5
30
102
{ACAD_REACTORS
330
2A
102
}
330
2A
100
AcDbVisualStyle
  2
3dWireframe
 70
     5
 71
     0
 72
     2
 73
     0
 90
        0
 40
-0.6
 41
-30.0
 62
     5
 63
     7
421
 16777215
 74
     1
 91
        4
 64
     7
 65
   257
 75
     1
175
     1
 42
1.0
 92
        0
 66
   257
 43
1.0
 76
     1
 77
     6
 78
     2
 67
     7
 79
     5
170
     0
171
     0
290
     0
174
     0
 93
        1
 44
0.0
173
     0
291
     0
 45
0.0
1001
ACAD
1000
AcDbSavedByObjectVersion
1070
     0
  0
VISUALSTYLE
  5
32
102
{ACAD_REACTORS
330
2A
102
}
330
2A
100
AcDbVisualStyle
  2
Basic
 70
     7
 71
     1
 72
     0
 73
     1
 90
        0
 40
-0.6
 41
-30.0
 62
     5
 63
     7
421
 16777215
 74
     0
 91
        4
 64
     7
 65
   257
 75
     1
175
     1
 42
1.0
 92
        8
 66
     7
 43
1.0
 76
     1
 77
     6
 78
     2
 67
     7
 79
     5
170
     0
171
     0
290
     0
174
     0
 93
        1
 44
0.0
173
     0
291
     1
 45
0.0
1001
ACAD
1000
AcDbSavedByObjectVersion
1070
     0
  0
VISUALSTYLE
  5
36
102
{ACAD_REACTORS
330
2A
102
}
330
2A
100
AcDbVisualStyle
  2
Brighten
 70
    12
 71
     2
 72
     2
 73
     0
 90
        0
 40
-0.6
 41
-30.0
 62
     5
 63
     7
421
 16777215
 74
     1
 91
        4
 64
     7
 65
   257
 75
     1
175
     1
 42
1.0
 92
        8
 66
     7
 43
1.0
 76
     1
 77
     6
 78
     2
 67
     7
 79
     5
170
     0
171
     0
290
     0
174
     0
 93
        1
 44
50.0
173
     0
291
     1
 45
0.0
1001
ACAD
1000
AcDbSavedByObjectVersion
1070
     0
  0
VISUALSTYLE
  5
3A
102
{ACAD_REACTORS
330
2A
102
}
330
2A
100
AcDbVisualStyle
  2
ColorChange
 70
    16
 71
     2
 72
     2
 73
     3
 90
        0
 40
-0.6
 41
-30.0
 62
     5
 63
     8
421
  8421504
 74
     1
 91
        4
 64
     7
 65
   257
 75
     1
175
     1
 42
1.0
 92
        8
 66
     8
424
  8421504
 43
1.0
 76
     1
 77
     6
 78
     2
 67
     7
 79
     5
170
     0
171
     0
290
     0
174
     0
 93
        1
 44
0.0
173
     0
291
     1
 45
0.0
1001
ACAD
1000
AcDbSavedByObjectVersion
1070
     0
  0
VISUALSTYLE
  5
34
102
{ACAD_REACTORS
330
2A
102
}
330
2A
100
AcDbVisualStyle
  2
Conceptual
 70
     9
 71
     3
 72
     2
 73
     0
 90
        0
 40
-0.6
 41
-30.0
 62
     5
 63
     7
421
 16777215
 74
     2
 91
        2
 64
     7
 65
   257
 75
     1
175
     1
 42
40.0
 92
        8
 66
     7
 43
1.0
 76
     1
 77
     6
 78
     2
 67
     7
 79
     3
170
     0
171
     0
290
     0
174
     0
 93
        1
 44
0.0
173
     0
291
     0
 45
0.0
1001
ACAD
1000
AcDbSavedByObjectVersion
1070
     0
  0
VISUALSTYLE
  5
35
102
{ACAD_REACTORS
330
2A
102
}
330
2A
100
AcDbVisualStyle
  2
Dim
 70
    11
 71
     2
 72
     2
 73
     0
 90
        0
 40
-0.6
 41
-30.0
 62
     5
 63
     7
421
 16777215
 74
     1
 91
        4
 64
     7
 65
   257
 75
     1
175
     1
 42
1.0
 92
        8
 66
     7
 43
1.0
 76
     1
 77
     6
 78
     2
 67
     7
 79
     5
170
     0
171
     0
290
     0
174
     0
 93
        1
 44
-50.0
173
     0
291
     1
 45
0.0
1001
ACAD
1000
AcDbSavedByObjectVersion
1070
     0
  0
VISUALSTYLE
  5
39
102
{ACAD_REACTORS
330
2A
102
}
330
2A
100
AcDbVisualStyle
  2
Facepattern
 70
    15
 71
     2
 72
     2
 73
     0
 90
        0
 40
-0.6
 41
-30.0
 62
     5
 63
     7
421
 16777215
 74
     1
 91
        4
 64
     7
 65
   257
 75
     1
175
     1
 42
1.0
 92
        8
 66
     7
 43
1.0
 76
     1
 77
     6
 78
     2
 67
     7
 79
     5
170
     0
171
     0
290
     0
174
     0
 93
        1
 44
0.0
173
     0
291
     1
 45
0.0
1001
ACAD
1000
AcDbSavedByObjectVersion
1070
     0
  0
VISUALSTYLE
  5
2B
102
{ACAD_REACTORS
330
2A
102
}
330
2A
100
AcDbVisualStyle
  2
Flat
 70
     0
 71
     2
 72
     1
 73
     1
 90
        2
 40
-0.6
 41
30.0
 62
     5
 63
     7
421
 16777215
 74
     0
 91
        4
 64
     7
 65
   257
 75
     1
175
     1
 42
1.0
 92
        8
 66
     7
 43
1.0
 76
     1
 77
     6
 78
     2
 67
     7
 79
     5
170
     0
171
     0
290
     0
174
     0
 93
       13
 44
0.0
173
     0
291
     1
 45
0.0
1001
ACAD
1000
AcDbSavedByObjectVersion
1070
     0
  0
VISUALSTYLE
  5
2C
102
{ACAD_REACTORS
330
2A
102
}
330
2A
100
AcDbVisualStyle
  2
FlatWithEdges
 70
     1
 71
     2
 72
     1
 73
     1
 90
        2
 40
-0.6
 41
30.0
 62
     5
 63
     7
421
 16777215
 74
     1
 91
        4
 64
     7
 65
   257
 75
     1
175
     1
 42
1.0
 92
        0
 66
   257
 43
1.0
 76
     1
 77
     6
 78
     2
 67
     7
 79
     5
170
     0
171
     0
290
     0
174
     0
 93
       13
 44
0.0
173
     0
291
     1
 45
0.0
1001
ACAD
1000
AcDbSavedByObjectVersion
1070
     0
  0
VISUALSTYLE
  5
2D
102
{ACAD_REACTORS
330
2A
102
}
330
2A
100
AcDbVisualStyle
  2
Gouraud
 70
     2
 71
     2
 72
     2
 73
     1
 90
        2
 40
-0.6
 41
30.0
 62
     5
 63
     7
421
 16777215
 74
     0
 91
        4
 64
     7
 65
   257
 75
     1
175
     1
 42
1.0
 92
        0
 66
     7
 43
1.0
 76
     1
 77
     6
 78
     2
 67
     7
 79
     5
170
     0
171
     0
290
     0
174
     0
 93
       13
 44
0.0
173
     0
291
     1
 45
0.0
1001
ACAD
1000
AcDbSavedByObjectVersion
1070
     0
  0
VISUALSTYLE
  5
2E
102
{ACAD_REACTORS
330
2A
102
}
330
2A
100
AcDbVisualStyle
  2
GouraudWithEdges
 70
     3
 71
     2
 72
     2
 73
     1
 90
        2
 40
-0.6
 41
30.0
 62
     5
 63
     7
421
 16777215
 74
     1
 91
        4
 64
     7
 65
   257
 75
     1
175
     1
 42
1.0
 92
        0
 66
   257
 43
1.0
 76
     1
 77
     6
 78
     2
 67
     7
 79
     5
170
     0
171
     0
290
     0
174
     0
 93
       13
 44
0.0
173
     0
291
     1
 45
0.0
1001
ACAD
1000
AcDbSavedByObjectVersion
1070
     0
  0
VISUALSTYLE
  5
38
102
{ACAD_REACTORS
330
2A
102
}
330
2A
100
AcDbVisualStyle
  2
Linepattern
 70
    14
 71
     2
 72
     2
 73
     0
 90
        0
 40
-0.6
 41
-30.0
 62
     5
 63
     7
421
 16777215
 74
     1
 91
        4
 64
     7
 65
   257
 75
     7
175
     7
 42
1.0
 92
        8
 66
     7
 43
1.0
 76
     1
 77
     6
 78
     2
 67
     7
 79
     5
170
     0
171
     0
290
     0
174
     0
 93
        1
 44
0.0
173
     0
291
     1
 45
0.0
1001
ACAD
1000
AcDbSavedByObjectVersion
1070
     0
  0
VISUALSTYLE
  5
33
102
{ACAD_REACTORS
330
2A
102
}
330
2A
100
AcDbVisualStyle
  2
Realistic
 70
     8
 71
     2
 72
     2
 73
     0
 90
        0
 40
-0.6
 41
-30.0
 62
     5
 63
     7
421
 16777215
 74
     1
 91
        0
 64
     7
 65
   257
 75
     1
175
     1
 42
1.0
 92
        8
 66
     8
424
  7895160
 43
1.0
 76
     1
 77
     6
 78
     2
 67
     7
 79
     5
170
     0
171
     0
290
     0
174
     0
 93
       13
 44
0.0
173
     0
291
     0
 45
0.0
1001
ACAD
1000
AcDbSavedByObjectVersion
1070
     0
  0
VISUALSTYLE
  5
37
102
{ACAD_REACTORS
330
2A
102
}
330
2A
100
AcDbVisualStyle
  2
Thicken
 70
    13
 71
     2
 72
     2
 73
     0
 90
        0
 40
-0.6
 41
-30.0
 62
     5
 63
     7
421
 16777215
 74
     1
 91
        4
 64
     7
 65
   257
 75
     1
175
     1
 42
1.0
 92
       12
 66
     7
 43
1.0
 76
     1
 77
     6
 78
     2
 67
     7
 79
     5
170
     0
171
     0
290
     0
174
     0
 93
        1
 44
0.0
173
     0
291
     1
 45
0.0
1001
ACAD
1000
AcDbSavedByObjectVersion
1070
     0
  0
ENDSEC
  0
EOF
