  0
SECTION
  2
HEADER
  9
$ACADVER
  1
AC1018
  9
$ACADMAINTVER
 70
     0
  9
$DWGCODEPAGE
  3
ANSI_1252
  9
$INSBASE
 10
0.0
 20
0.0
 30
0.0
  9
$EXTMIN
 10
-13.14362906020549
 20
0.0000000000000004
 30
0.0
  9
$EXTMAX
 10
56.44468100205167
 20
75.42240730340741
 30
0.0
  9
$LIMMIN
 10
0.0
 20
0.0
  9
$LIMMAX
 10
12.0
 20
9.0
  9
$ORTHOMODE
 70
     0
  9
$REGENMODE
 70
     1
  9
$FILLMODE
 70
     1
  9
$QTEXTMODE
 70
     0
  9
$MIRRTEXT
 70
     1
  9
$LTSCALE
 40
0.0393700787401575
  9
$ATTMODE
 70
     1
  9
$TEXTSIZE
 40
0.2
  9
$TRACEWID
 40
0.05
  9
$TEXTSTYLE
  7
Standard
  9
$CLAYER
  8
0
  9
$CELTYPE
  6
ByLayer
  9
$CECOLOR
 62
   256
  9
$CELTSCALE
 40
1.0
  9
$DISPSILH
 70
     0
  9
$DIMSCALE
 40
1.0
  9
$DIMASZ
 40
0.18
  9
$DIMEXO
 40
0.0625
  9
$DIMDLI
 40
0.38
  9
$DIMRND
 40
0.0
  9
$DIMDLE
 40
0.0
  9
$DIMEXE
 40
0.18
  9
$DIMTP
 40
0.0
  9
$DIMTM
 40
0.0
  9
$DIMTXT
 40
0.18
  9
$DIMCEN
 40
0.09
  9
$DIMTSZ
 40
0.0
  9
$DIMTOL
 70
     0
  9
$DIMLIM
 70
     0
  9
$DIMTIH
 70
     1
  9
$DIMTOH
 70
     1
  9
$DIMSE1
 70
     0
  9
$DIMSE2
 70
     0
  9
$DIMTAD
 70
     0
  9
$DIMZIN
 70
     0
  9
$DIMBLK
  1

  9
$DIMASO
 70
     1
  9
$DIMSHO
 70
     1
  9
$DIMPOST
  1

  9
$DIMAPOST
  1

  9
$DIMALT
 70
     0
  9
$DIMALTD
 70
     2
  9
$DIMALTF
 40
25.4
  9
$DIMLFAC
 40
1.0
  9
$DIMTOFL
 70
     0
  9
$DIMTVP
 40
0.0
  9
$DIMTIX
 70
     0
  9
$DIMSOXD
 70
     0
  9
$DIMSAH
 70
     0
  9
$DIMBLK1
  1

  9
$DIMBLK2
  1

  9
$DIMSTYLE
  2
Standard
  9
$DIMCLRD
 70
     0
  9
$DIMCLRE
 70
     0
  9
$DIMCLRT
 70
     0
  9
$DIMTFAC
 40
1.0
  9
$DIMGAP
 40
0.09
  9
$DIMJUST
 70
     0
  9
$DIMSD1
 70
     0
  9
$DIMSD2
 70
     0
  9
$DIMTOLJ
 70
     1
  9
$DIMTZIN
 70
     0
  9
$DIMALTZ
 70
     0
  9
$DIMALTTZ
 70
     0
  9
$DIMUPT
 70
     0
  9
$DIMDEC
 70
     4
  9
$DIMTDEC
 70
     4
  9
$DIMALTU
 70
     2
  9
$DIMALTTD
 70
     2
  9
$DIMTXSTY
  7
Standard
  9
$DIMAUNIT
 70
     0
  9
$DIMADEC
 70
     0
  9
$DIMALTRND
 40
0.0
  9
$DIMAZIN
 70
     0
  9
$DIMDSEP
 70
    46
  9
$DIMATFIT
 70
     3
  9
$DIMFRAC
 70
     0
  9
$DIMLDRBLK
  1

  9
$DIMLUNIT
 70
     2
  9
$DIMLWD
 70
    -2
  9
$DIMLWE
 70
    -2
  9
$DIMTMOVE
 70
     2
  9
$LUNITS
 70
     2
  9
$LUPREC
 70
     3
  9
$SKETCHINC
 40
0.1
  9
$FILLETRAD
 40
0.5
  9
$AUNITS
 70
     0
  9
$AUPREC
 70
     0
  9
$MENU
  1
.
  9
$ELEVATION
 40
0.0
  9
$PELEVATION
 40
0.0
  9
$THICKNESS
 40
0.0
  9
$LIMCHECK
 70
     0
  9
$CHAMFERA
 40
0.5
  9
$CHAMFERB
 40
0.5
  9
$CHAMFERC
 40
1.0
  9
$CHAMFERD
 40
0.0
  9
$SKPOLY
 70
     0
  9
$TDCREATE
 40
2457883.507451771
  9
$TDUCREATE
 40
2457883.674118437
  9
$TDUPDATE
 40
2457883.507451782
  9
$TDUUPDATE
 40
2457883.674118449
  9
$TDINDWG
 40
0.0000000116
  9
$TDUSRTIMER
 40
0.0000000116
  9
$USRTIMER
 70
     1
  9
$ANGBASE
 50
0.0
  9
$ANGDIR
 70
     0
  9
$PDMODE
 70
     0
  9
$PDSIZE
 40
0.0
  9
$PLINEWID
 40
0.0
  9
$SPLFRAME
 70
     0
  9
$SPLINETYPE
 70
     6
  9
$SPLINESEGS
 70
     8
  9
$HANDSEED
  5
221
  9
$SURFTAB1
 70
     6
  9
$SURFTAB2
 70
     6
  9
$SURFTYPE
 70
     6
  9
$SURFU
 70
     6
  9
$SURFV
 70
     6
  9
$UCSBASE
  2

  9
$UCSNAME
  2

  9
$UCSORG
 10
0.0
 20
0.0
 30
0.0
  9
$UCSXDIR
 10
1.0
 20
0.0
 30
0.0
  9
$UCSYDIR
 10
0.0
 20
1.0
 30
0.0
  9
$UCSORTHOREF
  2

  9
$UCSORTHOVIEW
 70
     0
  9
$UCSORGTOP
 10
0.0
 20
0.0
 30
0.0
  9
$UCSORGBOTTOM
 10
0.0
 20
0.0
 30
0.0
  9
$UCSORGLEFT
 10
0.0
 20
0.0
 30
0.0
  9
$UCSORGRIGHT
 10
0.0
 20
0.0
 30
0.0
  9
$UCSORGFRONT
 10
0.0
 20
0.0
 30
0.0
  9
$UCSORGBACK
 10
0.0
 20
0.0
 30
0.0
  9
$PUCSBASE
  2

  9
$PUCSNAME
  2

  9
$PUCSORG
 10
0.0
 20
0.0
 30
0.0
  9
$PUCSXDIR
 10
1.0
 20
0.0
 30
0.0
  9
$PUCSYDIR
 10
0.0
 20
1.0
 30
0.0
  9
$PUCSORTHOREF
  2

  9
$PUCSORTHOVIEW
 70
     0
  9
$PUCSORGTOP
 10
0.0
 20
0.0
 30
0.0
  9
$PUCSORGBOTTOM
 10
0.0
 20
0.0
 30
0.0
  9
$PUCSORGLEFT
 10
0.0
 20
0.0
 30
0.0
  9
$PUCSORGRIGHT
 10
0.0
 20
0.0
 30
0.0
  9
$PUCSORGFRONT
 10
0.0
 20
0.0
 30
0.0
  9
$PUCSORGBACK
 10
0.0
 20
0.0
 30
0.0
  9
$USERI1
 70
     0
  9
$USERI2
 70
     0
  9
$USERI3
 70
     0
  9
$USERI4
 70
     0
  9
$USERI5
 70
     0
  9
$USERR1
 40
0.0
  9
$USERR2
 40
0.0
  9
$USERR3
 40
0.0
  9
$USERR4
 40
0.0
  9
$USERR5
 40
0.0
  9
$WORLDVIEW
 70
     1
  9
$SHADEDGE
 70
     3
  9
$SHADEDIF
 70
    70
  9
$TILEMODE
 70
     1
  9
$MAXACTVP
 70
    64
  9
$PINSBASE
 10
0.0
 20
0.0
 30
0.0
  9
$PLIMCHECK
 70
     0
  9
$PEXTMIN
 10
1.000000000000000E+20
 20
1.000000000000000E+20
 30
1.000000000000000E+20
  9
$PEXTMAX
 10
-1.000000000000000E+20
 20
-1.000000000000000E+20
 30
-1.000000000000000E+20
  9
$PLIMMIN
 10
0.0
 20
0.0
  9
$PLIMMAX
 10
12.0
 20
9.0
  9
$UNITMODE
 70
     0
  9
$VISRETAIN
 70
     1
  9
$PLINEGEN
 70
     0
  9
$PSLTSCALE
 70
     1
  9
$TREEDEPTH
 70
  3020
  9
$CMLSTYLE
  2
Standard
  9
$CMLJUST
 70
     0
  9
$CMLSCALE
 40
1.0
  9
$PROXYGRAPHICS
 70
     1
  9
$MEASUREMENT
 70
     0
  9
$CELWEIGHT
370
    -1
  9
$ENDCAPS
280
     0
  9
$JOINSTYLE
280
     0
  9
$LWDISPLAY
290
     0
  9
$INSUNITS
 70
     1
  9
$HYPERLINKBASE
  1

  9
$STYLESHEET
  1

  9
$XEDIT
290
     1
  9
$CEPSNTYPE
380
     0
  9
$PSTYLEMODE
290
     1
  9
$FINGERPRINTGUID
  2
{5FDA01D4-ED7A-47F5-88AD-CC9B45E73140}
  9
$VERSIONGUID
  2
{FAEB1C32-E019-11D5-929B-00C0DF256EC4}
  9
$EXTNAMES
290
     1
  9
$PSVPSCALE
 40
0.0
  9
$OLESTARTUP
290
     0
  9
$SORTENTS
280
   127
  9
$INDEXCTL
280
     0
  9
$HIDETEXT
280
     1
  9
$XCLIPFRAME
290
     0
  9
$HALOGAP
280
     0
  9
$OBSCOLOR
 70
   257
  9
$OBSLTYPE
280
     0
  9
$INTERSECTIONDISPLAY
280
     0
  9
$INTERSECTIONCOLOR
 70
   257
  9
$DIMASSOC
280
     2
  9
$PROJECTNAME
  1

  0
ENDSEC
  0
SECTION
  2
CLASSES
  0
CLASS
  1
ACDBDICTIONARYWDFLT
  2
AcDbDictionaryWithDefault
  3
ObjectDBX Classes
 90
        0
 91
        4
280
     0
281
     0
  0
CLASS
  1
VISUALSTYLE
  2
AcDbVisualStyle
  3
ObjectDBX Classes
 90
     4095
 91
        4
280
     0
281
     0
  0
ENDSEC
  0
SECTION
  2
TABLES
  0
TABLE
  2
VPORT
  5
8
330
0
100
AcDbSymbolTable
 70
     1
  0
VPORT
  5
29
330
8
100
AcDbSymbolTableRecord
100
AcDbViewportTableRecord
  2
*Active
 70
     0
 10
0.0
 20
0.0
 11
1.0
 21
1.0
 12
21.65052597092308
 22
37.71120365170371
 13
0.0
 23
0.0
 14
0.5
 24
0.5
 15
0.5
 25
0.5
 16
0.0
 26
0.0
 36
1.0
 17
0.0
 27
0.0
 37
0.0
 40
76.93085544947556
 41
0.922647692512903
 42
50.0
 43
0.0
 44
0.0
 50
0.0
 51
0.0
 71
     0
 72
   100
 73
     1
 74
     3
 75
     0
 76
     0
 77
     0
 78
     0
281
     0
 65
     1
110
0.0
120
0.0
130
0.0
111
1.0
121
0.0
131
0.0
112
0.0
122
1.0
132
0.0
 79
     0
146
0.0
  0
ENDTAB
  0
TABLE
  2
LTYPE
  5
5
330
0
100
AcDbSymbolTable
 70
     1
  0
LTYPE
  5
14
330
5
100
AcDbSymbolTableRecord
100
AcDbLinetypeTableRecord
  2
ByBlock
 70
     0
  3

 72
    65
 73
     0
 40
0.0
  0
LTYPE
  5
15
330
5
100
AcDbSymbolTableRecord
100
AcDbLinetypeTableRecord
  2
ByLayer
 70
     0
  3

 72
    65
 73
     0
 40
0.0
  0
LTYPE
  5
16
330
5
100
AcDbSymbolTableRecord
100
AcDbLinetypeTableRecord
  2
Continuous
 70
     0
  3
Solid line
 72
    65
 73
     0
 40
0.0
  0
ENDTAB
  0
TABLE
  2
LAYER
  5
2
330
0
100
AcDbSymbolTable
 70
     2
  0
LAYER
  5
10
330
2
100
AcDbSymbolTableRecord
100
AcDbLayerTableRecord
  2
0
 70
     0
 62
     7
  6
Continuous
370
    -3
390
F
  0
LAYER
  5
3B
330
2
100
AcDbSymbolTableRecord
100
AcDbLayerTableRecord
  2
5 star armless 2d
 70
     0
 62
     7
  6
Continuous
370
    -3
390
F
  0
ENDTAB
  0
TABLE
  2
STYLE
  5
3
330
0
100
AcDbSymbolTable
 70
     1
  0
STYLE
  5
11
330
3
100
AcDbSymbolTableRecord
100
AcDbTextStyleTableRecord
  2
Standard
 70
     0
 40
0.0
 41
1.0
 50
0.0
 71
     0
 42
0.2
  3
txt
  4

  0
ENDTAB
  0
TABLE
  2
VIEW
  5
6
330
0
100
AcDbSymbolTable
 70
     0
  0
ENDTAB
  0
TABLE
  2
UCS
  5
7
330
0
100
AcDbSymbolTable
 70
     0
  0
ENDTAB
  0
TABLE
  2
APPID
  5
9
330
0
100
AcDbSymbolTable
 70
     1
  0
APPID
  5
12
330
9
100
AcDbSymbolTableRecord
100
AcDbRegAppTableRecord
  2
ACAD
 70
     0
  0
ENDTAB
  0
TABLE
  2
DIMSTYLE
  5
A
330
0
100
AcDbSymbolTable
 70
     1
100
AcDbDimStyleTable
  0
DIMSTYLE
105
27
330
A
100
AcDbSymbolTableRecord
100
AcDbDimStyleTableRecord
  2
Standard
 70
     0
340
11
  0
ENDTAB
  0
TABLE
  2
BLOCK_RECORD
  5
1
330
0
100
AcDbSymbolTable
 70
     1
  0
BLOCK_RECORD
  5
1F
330
1
100
AcDbSymbolTableRecord
100
AcDbBlockTableRecord
  2
*Model_Space
340
22
  0
BLOCK_RECORD
  5
1B
330
1
100
AcDbSymbolTableRecord
100
AcDbBlockTableRecord
  2
*Paper_Space
340
1E
  0
BLOCK_RECORD
  5
23
330
1
100
AcDbSymbolTableRecord
100
AcDbBlockTableRecord
  2
*Paper_Space0
340
26
  0
ENDTAB
  0
ENDSEC
  0
SECTION
  2
BLOCKS
  0
BLOCK
  5
20
330
1F
100
AcDbEntity
  8
0
100
AcDbBlockBegin
  2
*Model_Space
 70
     0
 10
0.0
 20
0.0
 30
0.0
  3
*Model_Space
  1

  0
ENDBLK
  5
21
330
1F
100
AcDbEntity
  8
0
100
AcDbBlockEnd
  0
BLOCK
  5
1C
330
1B
100
AcDbEntity
 67
     1
  8
0
100
AcDbBlockBegin
  2
*Paper_Space
 70
     0
 10
0.0
 20
0.0
 30
0.0
  3
*Paper_Space
  1

  0
ENDBLK
  5
1D
330
1B
100
AcDbEntity
 67
     1
  8
0
100
AcDbBlockEnd
  0
BLOCK
  5
24
330
23
100
AcDbEntity
  8
0
100
AcDbBlockBegin
  2
*Paper_Space0
 70
     0
 10
0.0
 20
0.0
 30
0.0
  3
*Paper_Space0
  1

  0
ENDBLK
  5
25
330
23
100
AcDbEntity
  8
0
100
AcDbBlockEnd
  0
ENDSEC
  0
SECTION
  2
ENTITIES
  0
SPLINE
  5
3C
330
1F
100
AcDbEntity
  8
5 star armless 2d
 62
     7
100
AcDbSpline
210
0.0
220
0.0
230
1.0
 70
     8
 71
     3
 72
    34
 73
    30
 74
     0
 42
0.0000000001
 43
0.0000000001
 40
-27.0
 40
-27.0
 40
-27.0
 40
-27.0
 40
-26.0
 40
-25.0
 40
-24.0
 40
-23.0
 40
-22.0
 40
-21.0
 40
-20.0
 40
-19.0
 40
-18.0
 40
-17.0
 40
-16.0
 40
-15.0
 40
-14.0
 40
-13.0
 40
-12.0
 40
-11.0
 40
-10.0
 40
-9.0
 40
-8.0
 40
-7.0
 40
-6.0
 40
-5.0
 40
-4.0
 40
-3.0
 40
-2.0
 40
-1.0
 40
0.0
 40
0.0
 40
0.0
 40
0.0
 10
-9.307909748206153
 20
18.43847416145792
 30
0.0
 10
-9.432373012583211
 20
18.59198836765389
 30
0.0
 10
-9.695720138183843
 20
18.88805021206882
 30
0.0
 10
-10.16696322159556
 20
19.25499883641112
 30
0.0
 10
-10.73241421263687
 20
19.46494075925062
 30
0.0
 10
-11.34474840793477
 20
19.40593443797653
 30
0.0
 10
-11.82359078749591
 20
19.00834809942727
 30
0.0
 10
-11.83793370266554
 20
18.26030035107947
 30
0.0
 10
-11.13542354785498
 20
18.23090165410214
 30
0.0
 10
-10.64814868446377
 20
17.91038004315227
 30
0.0
 10
-10.14306055854293
 20
17.59458748349948
 30
0.0
 10
-9.646050498836273
 20
17.27232813695962
 30
0.0
 10
-9.147820529036718
 20
16.95040367039158
 30
0.0
 10
-8.644221506299223
 20
16.63695064693423
 30
0.0
 10
-8.120733676151898
 20
16.35753610399815
 30
0.0
 10
-7.580066544658572
 20
16.11331519380727
 30
0.0
 10
-7.028822281012984
 20
15.89413828763472
 30
0.0
 10
-6.465565643714027
 20
15.70771527687967
 30
0.0
 10
-5.892712415857315
 20
15.55353148878916
 30
0.0
 10
-5.313244849189434
 20
15.42675800226715
 30
0.0
 10
-4.729234462445022
 20
15.32312199931283
 30
0.0
 10
-4.142113035422093
 20
15.23907946984418
 30
0.0
 10
-3.552847539317742
 20
15.1718641388452
 30
0.0
 10
-2.962179446912192
 20
15.11857335479594
 30
0.0
 10
-2.370657681234666
 20
15.07594915784258
 30
0.0
 10
-1.778534325115342
 20
15.04271668892752
 30
0.0
 10
-1.185941599798493
 20
15.01927688633296
 30
0.0
 10
-0.5930414325889006
 20
15.00565122817441
 30
0.0
 10
-0.1976782028013729
 20
15.00318582493006
 30
0.0
 10
0.0
 20
15.0036199204551
 30
0.0
  0
SPLINE
  5
3D
330
1F
100
AcDbEntity
  8
5 star armless 2d
 62
     7
100
AcDbSpline
210
0.0
220
0.0
230
1.0
 70
     8
 71
     3
 72
    34
 73
    30
 74
     0
 42
0.0000000001
 43
0.0000000001
 40
0.0
 40
0.0
 40
0.0
 40
0.0
 40
1.0
 40
2.0
 40
3.0
 40
4.0
 40
5.0
 40
6.0
 40
7.0
 40
8.0
 40
9.0
 40
10.0
 40
11.0
 40
12.0
 40
13.0
 40
14.0
 40
15.0
 40
16.0
 40
17.0
 40
18.0
 40
19.0
 40
20.0
 40
21.0
 40
22.0
 40
23.0
 40
24.0
 40
25.0
 40
26.0
 40
27.0
 40
27.0
 40
27.0
 40
27.0
 10
0.0
 20
15.0036199204551
 30
0.0
 10
0.1976782028013729
 20
15.00318582493006
 30
0.0
 10
0.5930414325889006
 20
15.00565122817441
 30
0.0
 10
1.185941599798493
 20
15.01927688633296
 30
0.0
 10
1.778534325115342
 20
15.04271668892752
 30
0.0
 10
2.370657681234666
 20
15.07594915784258
 30
0.0
 10
2.962179446912192
 20
15.11857335479594
 30
0.0
 10
3.552847539317742
 20
15.1718641388452
 30
0.0
 10
4.142113035422093
 20
15.23907946984418
 30
0.0
 10
4.729234462445022
 20
15.32312199931283
 30
0.0
 10
5.313244849189434
 20
15.42675800226715
 30
0.0
 10
5.892712415857315
 20
15.55353148878916
 30
0.0
 10
6.465565643714027
 20
15.70771527687967
 30
0.0
 10
7.028822281012984
 20
15.89413828763472
 30
0.0
 10
7.580066544658572
 20
16.11331519380727
 30
0.0
 10
8.120733676151898
 20
16.35753610399815
 30
0.0
 10
8.644221506299223
 20
16.63695064693423
 30
0.0
 10
9.147820529036718
 20
16.95040367039158
 30
0.0
 10
9.646050498836273
 20
17.27232813695962
 30
0.0
 10
10.14306055854293
 20
17.59458748349948
 30
0.0
 10
10.64814868446377
 20
17.91038004315227
 30
0.0
 10
11.13542354785498
 20
18.23090165410214
 30
0.0
 10
11.83793370266554
 20
18.26030035107947
 30
0.0
 10
11.82359078749591
 20
19.00834809942727
 30
0.0
 10
11.34474840793477
 20
19.40593443797653
 30
0.0
 10
10.73241421263687
 20
19.46494075925062
 30
0.0
 10
10.16696322159556
 20
19.25499883641112
 30
0.0
 10
9.695720138183843
 20
18.88805021206882
 30
0.0
 10
9.432373012583211
 20
18.59198836765389
 30
0.0
 10
9.307909748206153
 20
18.43847416145792
 30
0.0
  0
SPLINE
  5
3E
330
1F
100
AcDbEntity
  8
5 star armless 2d
 62
     7
100
AcDbSpline
210
0.0
220
0.0
230
1.0
 70
     8
 71
     3
 72
    24
 73
    20
 74
     0
 42
0.0000000001
 43
0.0000000001
 40
0.0
 40
0.0
 40
0.0
 40
0.0
 40
1.000000000000052
 40
2.000000000000103
 40
3.000000000000155
 40
4.000000000000206
 40
5.000000000000258
 40
6.000000000000309
 40
7.000000000000361
 40
8.000000000000412
 40
9.000000000000465
 40
10.00000000000052
 40
11.00000000000057
 40
12.00000000000062
 40
13.00000000000067
 40
14.00000000000072
 40
15.00000000000077
 40
16.00000000000082
 40
17.0
 40
17.0
 40
17.0
 40
17.0
 10
11.52507519942585
 20
19.23163863087122
 30
0.0
 10
11.25165540233726
 20
19.61203396747379
 30
0.0
 10
10.7461756237223
 20
20.41110315548941
 30
0.0
 10
10.37047227128025
 20
21.7808344419042
 30
0.0
 10
10.15938871296819
 20
23.1715561162773
 30
0.0
 10
9.969379924255811
 20
24.56696114061913
 30
0.0
 10
9.824755244212994
 20
25.96608846315588
 30
0.0
 10
9.673809798957736
 20
27.36628887138937
 30
0.0
 10
9.56616727845562
 20
28.76973953597775
 30
0.0
 10
9.441143458072311
 20
30.17329231340651
 30
0.0
 10
9.303520418012589
 20
31.57001168332867
 30
0.0
 10
9.224575204307406
 20
32.99314995304859
 30
0.0
 10
8.427908284645412
 20
34.24679660020651
 30
0.0
 10
7.038860240801675
 20
34.70747870960616
 30
0.0
 10
5.6314602951683
 20
34.68530243622465
 30
0.0
 10
4.223626659137829
 20
34.66417290875804
 30
0.0
 10
2.815769317640474
 20
34.68273262840216
 30
0.0
 10
1.407886839490161
 20
34.68376607882799
 30
0.0
 10
0.4692940555517276
 20
34.68009976295789
 30
0.0
 10
-0.0000000000012325
 20
34.68206691991522
 30
0.0
  0
SPLINE
  5
3F
330
1F
100
AcDbEntity
  8
5 star armless 2d
 62
     7
100
AcDbSpline
210
0.0
220
0.0
230
1.0
 70
     8
 71
     3
 72
    24
 73
    20
 74
     0
 42
0.0000000001
 43
0.0000000001
 40
-17.0
 40
-17.0
 40
-17.0
 40
-17.0
 40
-16.00000000000082
 40
-15.00000000000077
 40
-14.00000000000072
 40
-13.00000000000067
 40
-12.00000000000062
 40
-11.00000000000057
 40
-10.00000000000052
 40
-9.000000000000465
 40
-8.000000000000412
 40
-7.000000000000361
 40
-6.000000000000309
 40
-5.000000000000258
 40
-4.000000000000206
 40
-3.000000000000155
 40
-2.000000000000103
 40
-1.000000000000052
 40
0.0
 40
0.0
 40
0.0
 40
0.0
 10
-0.0000000000012325
 20
34.68206691991522
 30
0.0
 10
-0.4692940555541922
 20
34.68009976295783
 30
0.0
 10
-1.407886839492626
 20
34.68376607882779
 30
0.0
 10
-2.815769317642939
 20
34.68273262840178
 30
0.0
 10
-4.223626659140291
 20
34.66417290875746
 30
0.0
 10
-5.631460295170766
 20
34.68530243622389
 30
0.0
 10
-7.038860240804143
 20
34.7074787096052
 30
0.0
 10
-8.427908284647817
 20
34.24679660020536
 30
0.0
 10
-9.224575204309641
 20
32.99314995304733
 30
0.0
 10
-9.30352041801463
 20
31.5700116833274
 30
0.0
 10
-9.44114345807416
 20
30.17329231340522
 30
0.0
 10
-9.566167278457277
 20
28.76973953597644
 30
0.0
 10
-9.673809798959203
 20
27.36628887138805
 30
0.0
 10
-9.82475524421427
 20
25.96608846315454
 30
0.0
 10
-9.969379924256895
 20
24.56696114061777
 30
0.0
 10
-10.15938871296909
 20
23.17155611627592
 30
0.0
 10
-10.37047227128096
 20
21.78083444190278
 30
0.0
 10
-10.74617562372281
 20
20.41110315548795
 30
0.0
 10
-11.25165540233767
 20
19.61203396747226
 30
0.0
 10
-11.52507519942621
 20
19.23163863086965
 30
0.0
  0
SPLINE
  5
40
330
1F
100
AcDbEntity
  8
5 star armless 2d
 62
     7
100
AcDbSpline
210
0.0
220
0.0
230
1.0
 70
     8
 71
     3
 72
    16
 73
    12
 74
     0
 42
0.0000000001
 43
0.0000000001
 40
0.0
 40
0.0
 40
0.0
 40
0.0
 40
1.0
 40
2.0
 40
3.0
 40
4.0
 40
5.0
 40
6.0
 40
7.0
 40
8.0
 40
9.0
 40
9.0
 40
9.0
 40
9.0
 10
10.96235056640844
 20
19.08480335581085
 30
0.0
 10
10.52545998736396
 20
19.08457140628759
 30
0.0
 10
9.71384773322487
 20
18.75361682461634
 30
0.0
 10
8.674412329486454
 20
17.98623603842598
 30
0.0
 10
7.55858037217244
 20
17.33719445161707
 30
0.0
 10
6.40039727523847
 20
16.76310019811599
 30
0.0
 10
5.139441986968351
 20
16.45967452617903
 30
0.0
 10
3.865087373886174
 20
16.26282997483084
 30
0.0
 10
2.578938066768703
 20
16.15116347711506
 30
0.0
 10
1.290307209940694
 20
16.08696139086998
 30
0.0
 10
0.4298397038460747
 20
16.088386218443
 30
0.0
 10
0.0000000000000355
 20
16.101203807561
 30
0.0
  0
SPLINE
  5
41
330
1F
100
AcDbEntity
  8
5 star armless 2d
 62
     7
100
AcDbSpline
210
0.0
220
0.0
230
1.0
 70
     8
 71
     3
 72
    16
 73
    12
 74
     0
 42
0.0000000001
 43
0.0000000001
 40
-9.0
 40
-9.0
 40
-9.0
 40
-9.0
 40
-8.0
 40
-7.0
 40
-6.0
 40
-5.0
 40
-4.0
 40
-3.0
 40
-2.0
 40
-1.0
 40
0.0
 40
0.0
 40
0.0
 40
0.0
 10
0.0000000000000355
 20
16.101203807561
 30
0.0
 10
-0.429839703846002
 20
16.08838621844295
 30
0.0
 10
-1.290307209940621
 20
16.08696139086982
 30
0.0
 10
-2.578938066768639
 20
16.15116347711474
 30
0.0
 10
-3.865087373886123
 20
16.26282997483036
 30
0.0
 10
-5.139441986968325
 20
16.45967452617839
 30
0.0
 10
-6.400397275238482
 20
16.76310019811519
 30
0.0
 10
-7.558580372172522
 20
17.33719445161613
 30
0.0
 10
-8.674412329486618
 20
17.9862360384249
 30
0.0
 10
-9.71384773322513
 20
18.75361682461514
 30
0.0
 10
-10.52545998736426
 20
19.08457140628628
 30
0.0
 10
-10.96235056640874
 20
19.08480335580949
 30
0.0
  0
SPLINE
  5
42
330
1F
100
AcDbEntity
  8
5 star armless 2d
 62
     7
100
AcDbSpline
210
0.0
220
0.0
230
1.0
 70
     8
 71
     3
 72
    16
 73
    12
 74
     0
 42
0.0000000001
 43
0.0000000001
 40
0.0
 40
0.0
 40
0.0
 40
0.0
 40
1.0
 40
2.0
 40
3.0
 40
4.0
 40
5.0
 40
6.0
 40
7.0
 40
8.0
 40
9.0
 40
9.0
 40
9.0
 40
9.0
 10
8.373478374282083
 20
17.82219764782866
 30
0.0
 10
8.133413717406896
 20
18.03375495148768
 30
0.0
 10
7.510402573247199
 20
18.18594880346744
 30
0.0
 10
6.574011808716242
 20
18.2242031366443
 30
0.0
 10
5.635525905002955
 20
18.27589984454891
 30
0.0
 10
4.696401972921957
 20
18.29236371462474
 30
0.0
 10
3.757094296682017
 20
18.29404575896864
 30
0.0
 10
2.817830283530704
 20
18.2986436191316
 30
0.0
 10
1.878552709133207
 20
18.30204738477539
 30
0.0
 10
0.9392775642960596
 20
18.30536163290779
 30
0.0
 10
0.3130925894307828
 20
18.30730510787297
 30
0.0
 10
0.0
 20
18.3082324037282
 30
0.0
  0
SPLINE
  5
43
330
1F
100
AcDbEntity
  8
5 star armless 2d
 62
     7
100
AcDbSpline
210
0.0
220
0.0
230
1.0
 70
     8
 71
     3
 72
    16
 73
    12
 74
     0
 42
0.0000000001
 43
0.0000000001
 40
-9.0
 40
-9.0
 40
-9.0
 40
-9.0
 40
-8.0
 40
-7.0
 40
-6.0
 40
-5.0
 40
-4.0
 40
-3.0
 40
-2.0
 40
-1.0
 40
0.0
 40
0.0
 40
0.0
 40
0.0
 10
0.0
 20
18.3082324037282
 30
0.0
 10
-0.3130925894307828
 20
18.30730510787297
 30
0.0
 10
-0.9392775642960596
 20
18.30536163290779
 30
0.0
 10
-1.878552709133207
 20
18.30204738477539
 30
0.0
 10
-2.817830283530704
 20
18.2986436191316
 30
0.0
 10
-3.757094296682017
 20
18.29404575896864
 30
0.0
 10
-4.696401972921957
 20
18.29236371462474
 30
0.0
 10
-5.635525905002955
 20
18.27589984454891
 30
0.0
 10
-6.574011808716242
 20
18.2242031366443
 30
0.0
 10
-7.510402573247199
 20
18.18594880346744
 30
0.0
 10
-8.133413717406896
 20
18.03375495148768
 30
0.0
 10
-8.373478374282083
 20
17.82219764782866
 30
0.0
  0
SPLINE
  5
44
330
1F
100
AcDbEntity
  8
5 star armless 2d
 62
     7
100
AcDbSpline
210
0.0
220
0.0
230
1.0
 70
     8
 71
     3
 72
    14
 73
    10
 74
     0
 42
0.0000000001
 43
0.0000000001
 40
0.0
 40
0.0
 40
0.0
 40
0.0
 40
1.0
 40
2.0
 40
3.0
 40
4.0
 40
5.0
 40
6.0
 40
7.0
 40
7.0
 40
7.0
 40
7.0
 10
-11.68917313649623
 20
18.33626318658785
 30
0.0
 10
-11.40508255662792
 20
17.93682315471598
 30
0.0
 10
-10.73928811285886
 20
17.21237875828073
 30
0.0
 10
-9.585160457270879
 20
16.29834586310647
 30
0.0
 10
-8.339418814356643
 20
15.5159295309595
 30
0.0
 10
-7.024276536151313
 20
14.85623817048327
 30
0.0
 10
-5.637275111085118
 20
14.36271119166298
 30
0.0
 10
-4.205284604025574
 20
14.02556562483919
 30
0.0
 10
-3.233778700216808
 20
13.89304192195401
 30
0.0
 10
-2.746640468687094
 20
13.84290630073922
 30
0.0
  0
SPLINE
  5
45
330
1F
100
AcDbEntity
  8
5 star armless 2d
 62
     7
100
AcDbSpline
210
0.0
220
0.0
230
1.0
 70
     8
 71
     3
 72
     8
 73
     4
 74
     0
 42
0.0000000001
 43
0.0000000001
 40
0.0
 40
0.0
 40
0.0
 40
0.0
 40
1.0
 40
1.0
 40
1.0
 40
1.0
 10
-2.746640468687094
 20
13.84290630073922
 30
0.0
 10
-1.270321056151023
 20
13.69096546327607
 30
0.0
 10
1.270321056151023
 20
13.69096546327607
 30
0.0
 10
2.746640468687094
 20
13.84290630073922
 30
0.0
  0
SPLINE
  5
46
330
1F
100
AcDbEntity
  8
5 star armless 2d
 62
     7
100
AcDbSpline
210
0.0
220
0.0
230
1.0
 70
     8
 71
     3
 72
    14
 73
    10
 74
     0
 42
0.0000000001
 43
0.0000000001
 40
-7.0
 40
-7.0
 40
-7.0
 40
-7.0
 40
-6.0
 40
-5.0
 40
-4.0
 40
-3.0
 40
-2.0
 40
-1.0
 40
0.0
 40
0.0
 40
0.0
 40
0.0
 10
2.746640468687094
 20
13.84290630073922
 30
0.0
 10
3.233778700216808
 20
13.89304192195401
 30
0.0
 10
4.205284604025574
 20
14.02556562483919
 30
0.0
 10
5.637275111085118
 20
14.36271119166298
 30
0.0
 10
7.024276536151313
 20
14.85623817048327
 30
0.0
 10
8.339418814356643
 20
15.5159295309595
 30
0.0
 10
9.585160457270879
 20
16.29834586310647
 30
0.0
 10
10.73928811285886
 20
17.21237875828073
 30
0.0
 10
11.40508255662792
 20
17.93682315471598
 30
0.0
 10
11.68917313649623
 20
18.33626318658785
 30
0.0
  0
SPLINE
  5
47
330
1F
100
AcDbEntity
  8
5 star armless 2d
 62
     7
100
AcDbSpline
210
0.0
220
0.0
230
1.0
 70
     8
 71
     3
 72
    12
 73
     8
 74
     0
 42
0.0000000001
 43
0.0000000001
 40
0.0
 40
0.0
 40
0.0
 40
0.0
 40
1.0
 40
2.0
 40
3.0
 40
4.0
 40
5.0
 40
5.0
 40
5.0
 40
5.0
 10
0.4010174673831912
 20
4.236347963292883
 30
0.0
 10
0.3888354087001908
 20
4.172283123968813
 30
0.0
 10
0.2704788970756829
 20
4.111629415167748
 30
0.0
 10
0.0929127082460317
 20
4.077928343666329
 30
0.0
 10
-0.0929507977680629
 20
4.077928337967565
 30
0.0
 10
-0.2705170178230783
 20
4.11162942560388
 30
0.0
 10
-0.3888734951972935
 20
4.172283103746749
 30
0.0
 10
-0.4010555741368549
 20
4.236347963292883
 30
0.0
  0
SPLINE
  5
48
330
1F
100
AcDbEntity
  8
5 star armless 2d
 62
     7
100
AcDbSpline
210
0.0
220
0.0
230
1.0
 70
    12
 71
     3
 72
     9
 73
     5
 74
     0
 42
0.0000000001
 43
0.0000000001
 40
-0.615690415669101
 40
-0.615690415669101
 40
-0.615690415669101
 40
-0.615690415669101
 40
-0.499999982829117
 40
0.0
 40
0.0
 40
0.0
 40
0.0
 10
-1.175790711580971
 20
7.620298125990329
 30
0.0
 41
1.0
 10
-1.175111151753802
 20
7.610666917705123
 30
0.0
 41
1.0
 10
-1.181904525208889
 20
7.553726881039982
 30
0.0
 41
1.0
 10
-1.23554478068345
 20
7.462605741707486
 30
0.0
 41
1.0
 10
-1.323065457136464
 20
7.405165259965018
 30
0.0
 41
1.0
  0
SPLINE
  5
49
330
1F
100
AcDbEntity
  8
5 star armless 2d
 62
     7
100
AcDbSpline
210
0.0
220
0.0
230
1.0
 70
    12
 71
     2
 72
     6
 73
     3
 74
     0
 42
0.0000000001
 43
0.0000000001
 40
0.0
 40
0.0
 40
0.0
 40
6.692997897124932
 40
6.692997897124932
 40
6.692997897124932
 10
-1.323065457136464
 20
7.405165259965018
 30
0.0
 41
1.0
 10
-4.262483358513094
 20
5.476003064924657
 30
0.0
 41
0.9999999581824843
 10
-7.064260297413307
 20
3.645947923186589
 30
0.0
 41
1.0
  0
SPLINE
  5
4A
330
1F
100
AcDbEntity
  8
5 star armless 2d
 62
     7
100
AcDbSpline
210
0.0
220
0.0
230
1.0
 70
     8
 71
     3
 72
    11
 73
     7
 74
     0
 42
0.0000000001
 43
0.0000000001
 40
-1.096741901292832
 40
-1.096741901292832
 40
-1.096741901292832
 40
-1.096741901292832
 40
-0.6486834231616089
 40
-0.3476890460350227
 40
-0.1815253408372604
 40
0.0
 40
0.0
 40
0.0
 40
0.0
 10
-7.064260297413307
 20
3.645947923186589
 30
0.0
 10
-7.190885738711227
 20
3.562489421153828
 30
0.0
 10
-7.326493284704814
 20
3.342234920480313
 30
0.0
 10
-7.406692955860382
 20
3.049233111693944
 30
0.0
 10
-7.444300053741998
 20
2.835038792630647
 30
0.0
 10
-7.456949068984375
 20
2.720474452934373
 30
0.0
 10
-7.46259099981998
 20
2.660000000000305
 30
0.0
  0
POLYLINE
  5
4B
330
1F
100
AcDbEntity
  8
5 star armless 2d
 62
     7
100
AcDb2dPolyline
 66
     1
 10
0.0
 20
0.0
 30
0.0
  0
VERTEX
  5
4C
330
4B
100
AcDbEntity
  8
5 star armless 2d
 62
     7
100
AcDbVertex
100
AcDb2dVertex
 10
-6.283471123658785
 20
5.619794208225358
 30
0.0
  0
VERTEX
  5
4D
330
4B
100
AcDbEntity
  8
5 star armless 2d
 62
     7
100
AcDbVertex
100
AcDb2dVertex
 10
-7.900472332307988
 20
4.280587207048232
 30
0.0
  0
SEQEND
  5
4E
330
4B
100
AcDbEntity
  8
5 star armless 2d
 62
     7
  0
SPLINE
  5
4F
330
1F
100
AcDbEntity
  8
5 star armless 2d
 62
     7
100
AcDbSpline
210
0.0
220
0.0
230
1.0
 70
     8
 71
     3
 72
     8
 73
     4
 74
     0
 42
0.0000000001
 43
0.0000000001
 40
0.0
 40
0.0
 40
0.0
 40
0.0
 40
1.0
 40
1.0
 40
1.0
 40
1.0
 10
-7.900472332307988
 20
4.280587207048232
 30
0.0
 10
-7.941830880601102
 20
4.246333888537154
 30
0.0
 10
-7.981250136803257
 20
4.195449843763782
 30
0.0
 10
-7.982882927762205
 20
4.145850840474651
 30
0.0
  0
SPLINE
  5
50
330
1F
100
AcDbEntity
  8
5 star armless 2d
 62
     7
100
AcDbSpline
210
0.0
220
0.0
230
1.0
 70
    12
 71
     2
 72
     6
 73
     3
 74
     0
 42
0.0000000001
 43
0.0000000001
 40
0.0
 40
0.0
 40
0.0
 40
1.486490662363551
 40
1.486490662363551
 40
1.486490662363551
 10
-7.982882927762205
 20
4.145850840474651
 30
0.0
 41
1.0
 10
-8.007337194625807
 20
3.403007884397551
 30
0.0
 41
0.9999999372240983
 10
-8.032317882704355
 20
2.660182444752197
 30
0.0
 41
1.0
  0
POLYLINE
  5
51
330
1F
100
AcDbEntity
  8
5 star armless 2d
 62
     7
100
AcDb2dPolyline
 66
     1
 10
0.0
 20
0.0
 30
0.0
  0
VERTEX
  5
52
330
51
100
AcDbEntity
  8
5 star armless 2d
 62
     7
100
AcDbVertex
100
AcDb2dVertex
 10
-8.032317882704355
 20
2.660182444752197
 30
0.0
  0
VERTEX
  5
53
330
51
100
AcDbEntity
  8
5 star armless 2d
 62
     7
100
AcDbVertex
100
AcDb2dVertex
 10
-7.206941629606618
 20
2.660091222376047
 30
0.0
  0
SEQEND
  5
54
330
51
100
AcDbEntity
  8
5 star armless 2d
 62
     7
  0
SPLINE
  5
55
330
1F
100
AcDbEntity
  8
5 star armless 2d
 62
     7
100
AcDbSpline
210
0.0
220
0.0
230
1.0
 70
     8
 71
     3
 72
    11
 73
     7
 74
     0
 42
0.0000000001
 43
0.0000000001
 40
0.0
 40
0.0
 40
0.0
 40
0.0
 40
0.1814498249441664
 40
0.3476272405609105
 40
0.64864645319008
 40
1.096741901308591
 40
1.096741901308591
 40
1.096741901308591
 40
1.096741901308591
 10
-7.206941629606618
 20
2.660091222376047
 30
0.0
 10
-7.201293114428714
 20
2.720534083876652
 30
0.0
 10
-7.188645437624943
 20
2.835068671095413
 30
0.0
 10
-7.151043585641219
 20
3.049233111696905
 30
0.0
 10
-7.07084391448187
 20
3.342234920487725
 30
0.0
 10
-6.935236368483093
 20
3.562489421161987
 30
0.0
 10
-6.808610927183533
 20
3.645947923198254
 30
0.0
  0
SPLINE
  5
56
330
1F
100
AcDbEntity
  8
5 star armless 2d
 62
     7
100
AcDbSpline
210
0.0
220
0.0
230
1.0
 70
    12
 71
     2
 72
     6
 73
     3
 74
     0
 42
0.0000000001
 43
0.0000000001
 40
-6.692997899576671
 40
-6.692997899576671
 40
-6.692997899576671
 40
0.0
 40
0.0
 40
0.0
 10
-6.808610927183533
 20
3.645947923198254
 30
0.0
 41
1.0
 10
-4.006833986816259
 20
5.476003064931003
 30
0.0
 41
0.9999999581824843
 10
-1.203999021443925
 20
7.304437368439123
 30
0.0
 41
1.0
  0
SPLINE
  5
57
330
1F
100
AcDbEntity
  8
5 star armless 2d
 62
     7
100
AcDbSpline
210
0.0
220
0.0
230
1.0
 70
     8
 71
     3
 72
     8
 73
     4
 74
     0
 42
0.0000000001
 43
0.0000000001
 40
-1.0
 40
-1.0
 40
-1.0
 40
-1.0
 40
0.0
 40
0.0
 40
0.0
 40
0.0
 10
-1.203999021443925
 20
7.304437368439123
 30
0.0
 10
-1.073274773418667
 20
7.389077854070121
 30
0.0
 10
-0.9321442579829953
 20
7.456623245532784
 30
0.0
 10
-0.7873999999780334
 20
7.513535821404582
 30
0.0
  0
SPLINE
  5
58
330
1F
100
AcDbEntity
  8
5 star armless 2d
 62
     7
100
AcDbSpline
210
0.0
220
0.0
230
1.0
 70
    12
 71
     3
 72
     9
 73
     5
 74
     0
 42
0.0000000001
 43
0.0000000001
 40
-0.615690415669101
 40
-0.615690415669101
 40
-0.615690415669101
 40
-0.615690415669101
 40
-0.499999982829117
 40
0.0
 40
0.0
 40
0.0
 40
0.0
 10
1.175790711580971
 20
7.620298125990329
 30
0.0
 41
1.0
 10
1.175111151753802
 20
7.610666917705123
 30
0.0
 41
1.0
 10
1.181904525208889
 20
7.553726881039982
 30
0.0
 41
1.0
 10
1.23554478068345
 20
7.462605741707486
 30
0.0
 41
1.0
 10
1.323065457136464
 20
7.405165259965018
 30
0.0
 41
1.0
  0
SPLINE
  5
59
330
1F
100
AcDbEntity
  8
5 star armless 2d
 62
     7
100
AcDbSpline
210
0.0
220
0.0
230
1.0
 70
    12
 71
     2
 72
     6
 73
     3
 74
     0
 42
0.0000000001
 43
0.0000000001
 40
0.0
 40
0.0
 40
0.0
 40
6.692997897124932
 40
6.692997897124932
 40
6.692997897124932
 10
1.323065457136464
 20
7.405165259965018
 30
0.0
 41
1.0
 10
4.262483358513094
 20
5.476003064924657
 30
0.0
 41
0.9999999581824843
 10
7.064260297413307
 20
3.645947923186589
 30
0.0
 41
1.0
  0
SPLINE
  5
5A
330
1F
100
AcDbEntity
  8
5 star armless 2d
 62
     7
100
AcDbSpline
210
0.0
220
0.0
230
1.0
 70
     8
 71
     3
 72
    11
 73
     7
 74
     0
 42
0.0000000001
 43
0.0000000001
 40
-1.096741901292832
 40
-1.096741901292832
 40
-1.096741901292832
 40
-1.096741901292832
 40
-0.6486834231616089
 40
-0.3476890460350227
 40
-0.1815253408372604
 40
0.0
 40
0.0
 40
0.0
 40
0.0
 10
7.064260297413307
 20
3.645947923186589
 30
0.0
 10
7.190885738711227
 20
3.562489421153828
 30
0.0
 10
7.326493284704814
 20
3.342234920480313
 30
0.0
 10
7.406692955860382
 20
3.049233111693944
 30
0.0
 10
7.444300053741998
 20
2.835038792630647
 30
0.0
 10
7.456949068984375
 20
2.720474452934373
 30
0.0
 10
7.46259099981998
 20
2.660000000000305
 30
0.0
  0
POLYLINE
  5
5B
330
1F
100
AcDbEntity
  8
5 star armless 2d
 62
     7
100
AcDb2dPolyline
 66
     1
 10
0.0
 20
0.0
 30
0.0
  0
VERTEX
  5
5C
330
5B
100
AcDbEntity
  8
5 star armless 2d
 62
     7
100
AcDbVertex
100
AcDb2dVertex
 10
6.283471123658785
 20
5.619794208225358
 30
0.0
  0
VERTEX
  5
5D
330
5B
100
AcDbEntity
  8
5 star armless 2d
 62
     7
100
AcDbVertex
100
AcDb2dVertex
 10
7.900472332307988
 20
4.280587207048232
 30
0.0
  0
SEQEND
  5
5E
330
5B
100
AcDbEntity
  8
5 star armless 2d
 62
     7
  0
SPLINE
  5
5F
330
1F
100
AcDbEntity
  8
5 star armless 2d
 62
     7
100
AcDbSpline
210
0.0
220
0.0
230
1.0
 70
     8
 71
     3
 72
     8
 73
     4
 74
     0
 42
0.0000000001
 43
0.0000000001
 40
0.0
 40
0.0
 40
0.0
 40
0.0
 40
1.0
 40
1.0
 40
1.0
 40
1.0
 10
7.900472332307988
 20
4.280587207048232
 30
0.0
 10
7.941830880601102
 20
4.246333888537154
 30
0.0
 10
7.981250136803257
 20
4.195449843763782
 30
0.0
 10
7.982882927762205
 20
4.145850840474651
 30
0.0
  0
SPLINE
  5
60
330
1F
100
AcDbEntity
  8
5 star armless 2d
 62
     7
100
AcDbSpline
210
0.0
220
0.0
230
1.0
 70
    12
 71
     2
 72
     6
 73
     3
 74
     0
 42
0.0000000001
 43
0.0000000001
 40
0.0
 40
0.0
 40
0.0
 40
1.486490662363551
 40
1.486490662363551
 40
1.486490662363551
 10
7.982882927762205
 20
4.145850840474651
 30
0.0
 41
1.0
 10
8.007337194625807
 20
3.403007884397551
 30
0.0
 41
0.9999999372240983
 10
8.032317882704355
 20
2.660182444752197
 30
0.0
 41
1.0
  0
POLYLINE
  5
61
330
1F
100
AcDbEntity
  8
5 star armless 2d
 62
     7
100
AcDb2dPolyline
 66
     1
 10
0.0
 20
0.0
 30
0.0
  0
VERTEX
  5
62
330
61
100
AcDbEntity
  8
5 star armless 2d
 62
     7
100
AcDbVertex
100
AcDb2dVertex
 10
8.032317882704355
 20
2.660182444752197
 30
0.0
  0
VERTEX
  5
63
330
61
100
AcDbEntity
  8
5 star armless 2d
 62
     7
100
AcDbVertex
100
AcDb2dVertex
 10
7.206941629606618
 20
2.660091222376047
 30
0.0
  0
SEQEND
  5
64
330
61
100
AcDbEntity
  8
5 star armless 2d
 62
     7
  0
SPLINE
  5
65
330
1F
100
AcDbEntity
  8
5 star armless 2d
 62
     7
100
AcDbSpline
210
0.0
220
0.0
230
1.0
 70
     8
 71
     3
 72
    11
 73
     7
 74
     0
 42
0.0000000001
 43
0.0000000001
 40
0.0
 40
0.0
 40
0.0
 40
0.0
 40
0.1814498249441664
 40
0.3476272405609105
 40
0.64864645319008
 40
1.096741901308591
 40
1.096741901308591
 40
1.096741901308591
 40
1.096741901308591
 10
7.206941629606618
 20
2.660091222376047
 30
0.0
 10
7.201293114428714
 20
2.720534083876652
 30
0.0
 10
7.188645437624943
 20
2.835068671095413
 30
0.0
 10
7.151043585641219
 20
3.049233111696905
 30
0.0
 10
7.07084391448187
 20
3.342234920487725
 30
0.0
 10
6.935236368483093
 20
3.562489421161987
 30
0.0
 10
6.808610927183533
 20
3.645947923198254
 30
0.0
  0
SPLINE
  5
66
330
1F
100
AcDbEntity
  8
5 star armless 2d
 62
     7
100
AcDbSpline
210
0.0
220
0.0
230
1.0
 70
    12
 71
     2
 72
     6
 73
     3
 74
     0
 42
0.0000000001
 43
0.0000000001
 40
-6.692997899576671
 40
-6.692997899576671
 40
-6.692997899576671
 40
0.0
 40
0.0
 40
0.0
 10
6.808610927183533
 20
3.645947923198254
 30
0.0
 41
1.0
 10
4.006833986816259
 20
5.476003064931003
 30
0.0
 41
0.9999999581824843
 10
1.203999021443925
 20
7.304437368439123
 30
0.0
 41
1.0
  0
SPLINE
  5
67
330
1F
100
AcDbEntity
  8
5 star armless 2d
 62
     7
100
AcDbSpline
210
0.0
220
0.0
230
1.0
 70
     8
 71
     3
 72
     8
 73
     4
 74
     0
 42
0.0000000001
 43
0.0000000001
 40
-1.0
 40
-1.0
 40
-1.0
 40
-1.0
 40
0.0
 40
0.0
 40
0.0
 40
0.0
 10
1.203999021443925
 20
7.304437368439123
 30
0.0
 10
1.073274773418667
 20
7.389077854070121
 30
0.0
 10
0.9321442579829953
 20
7.456623245532784
 30
0.0
 10
0.7873999999780334
 20
7.513535821404582
 30
0.0
  0
SPLINE
  5
68
330
1F
100
AcDbEntity
  8
5 star armless 2d
 62
     7
100
AcDbSpline
210
0.0
220
0.0
230
1.0
 70
    24
 71
     2
 72
     6
 73
     3
 74
     0
 42
0.0000000001
 43
0.0000000001
 40
0.0
 40
0.0
 40
0.0
 40
5.118111959919872
 40
5.118111959919872
 40
5.118111959919872
 10
-0.7874000000000052
 20
7.672385762575781
 30
0.0
 10
-0.7874000000000052
 20
5.113329782615844
 30
0.0
 10
-0.7874000000000052
 20
2.554273802655908
 30
0.0
  0
SPLINE
  5
69
330
1F
100
AcDbEntity
  8
5 star armless 2d
 62
     7
100
AcDbSpline
210
0.0
220
0.0
230
1.0
 70
    24
 71
     2
 72
     6
 73
     3
 74
     0
 42
0.0000000001
 43
0.0000000001
 40
0.0
 40
0.0
 40
0.0
 40
0.1769999999999996
 40
0.1769999999999996
 40
0.1769999999999996
 10
-1.082674999999995
 20
10.4725
 30
0.0
 10
-1.082674999999995
 20
10.561
 30
0.0
 10
-1.082674999999995
 20
10.6495
 30
0.0
  0
POLYLINE
  5
6A
330
1F
100
AcDbEntity
  8
5 star armless 2d
 62
     7
100
AcDb2dPolyline
 66
     1
 10
0.0
 20
0.0
 30
0.0
  0
VERTEX
  5
6B
330
6A
100
AcDbEntity
  8
5 star armless 2d
 62
     7
100
AcDbVertex
100
AcDb2dVertex
 10
-1.082674999999995
 20
10.6495
 30
0.0
  0
VERTEX
  5
6C
330
6A
100
AcDbEntity
  8
5 star armless 2d
 62
     7
100
AcDbVertex
100
AcDb2dVertex
 10
1.082675000000005
 20
10.6495
 30
0.0
  0
SEQEND
  5
6D
330
6A
100
AcDbEntity
  8
5 star armless 2d
 62
     7
  0
SPLINE
  5
6E
330
1F
100
AcDbEntity
  8
5 star armless 2d
 62
     7
100
AcDbSpline
210
0.0
220
0.0
230
1.0
 70
    24
 71
     2
 72
     6
 73
     3
 74
     0
 42
0.0000000001
 43
0.0000000001
 40
0.0
 40
0.0
 40
0.0
 40
0.1769999999999996
 40
0.1769999999999996
 40
0.1769999999999996
 10
1.082675000000005
 20
10.6495
 30
0.0
 10
1.082675000000005
 20
10.561
 30
0.0
 10
1.082675000000005
 20
10.4725
 30
0.0
  0
SPLINE
  5
6F
330
1F
100
AcDbEntity
  8
5 star armless 2d
 62
     7
100
AcDbSpline
210
0.0
220
0.0
230
1.0
 70
     8
 71
     3
 72
    10
 73
     6
 74
     0
 42
0.0000000001
 43
0.0000000001
 40
0.0
 40
0.0
 40
0.0
 40
0.0
 40
1.0
 40
2.0
 40
3.0
 40
3.0
 40
3.0
 40
3.0
 10
-0.5394249362035648
 20
7.645750761471225
 30
0.0
 10
-0.6856666967267334
 20
7.682283137681661
 30
0.0
 10
-0.988744687258691
 20
7.671406726769478
 30
0.0
 10
-1.423965262146095
 20
7.557189420706779
 30
0.0
 10
-1.706374638989255
 20
7.457613499194579
 30
0.0
 10
-1.846582304721547
 20
7.405165259965104
 30
0.0
  0
SPLINE
  5
70
330
1F
100
AcDbEntity
  8
5 star armless 2d
 62
     7
100
AcDbSpline
210
0.0
220
0.0
230
1.0
 70
    12
 71
     2
 72
     6
 73
     3
 74
     0
 42
0.0000000001
 43
0.0000000001
 40
0.0
 40
0.0
 40
0.0
 40
9.778618425108075
 40
9.778618425108075
 40
9.778618425108075
 10
-1.846582304721547
 20
7.405165259965104
 30
0.0
 41
1.0
 10
-6.640738614590225
 20
5.476186611334741
 30
0.0
 41
0.9999999759726289
 10
-11.1745638964201
 20
3.645947923170293
 30
0.0
 41
1.0
  0
SPLINE
  5
71
330
1F
100
AcDbEntity
  8
5 star armless 2d
 62
     7
100
AcDbSpline
210
0.0
220
0.0
230
1.0
 70
     8
 71
     3
 72
    11
 73
     7
 74
     0
 42
0.0000000001
 43
0.0000000001
 40
-1.237126295615228
 40
-1.237126295615228
 40
-1.237126295615228
 40
-1.237126295615228
 40
-0.6739521984522766
 40
-0.3536765832265739
 40
-0.1835100850311604
 40
0.0
 40
0.0
 40
0.0
 40
0.0
 10
-11.1745638964201
 20
3.645947923170293
 30
0.0
 10
-11.35042574661137
 20
3.577574237612902
 30
0.0
 10
-11.58292283466607
 20
3.376562126298547
 30
0.0
 10
-11.72734253959063
 20
3.052321508561273
 30
0.0
 10
-11.7892195062877
 20
2.83706233551386
 30
0.0
 10
-11.8099174002777
 20
2.720250205958004
 30
0.0
 10
-11.8190765116316
 20
2.660000000000237
 30
0.0
  0
POLYLINE
  5
72
330
1F
100
AcDbEntity
  8
5 star armless 2d
 62
     7
100
AcDb2dPolyline
 66
     1
 10
0.0
 20
0.0
 30
0.0
  0
VERTEX
  5
73
330
72
100
AcDbEntity
  8
5 star armless 2d
 62
     7
100
AcDbVertex
100
AcDb2dVertex
 10
-11.8190765116316
 20
2.660000000000237
 30
0.0
  0
VERTEX
  5
74
330
72
100
AcDbEntity
  8
5 star armless 2d
 62
     7
100
AcDbVertex
100
AcDb2dVertex
 10
-12.71849989818274
 20
2.660020100939267
 30
0.0
  0
SEQEND
  5
75
330
72
100
AcDbEntity
  8
5 star armless 2d
 62
     7
  0
SPLINE
  5
76
330
1F
100
AcDbEntity
  8
5 star armless 2d
 62
     7
100
AcDbSpline
210
0.0
220
0.0
230
1.0
 70
    12
 71
     2
 72
     6
 73
     3
 74
     0
 42
0.0000000001
 43
0.0000000001
 40
-1.422854359340725
 40
-1.422854359340725
 40
-1.422854359340725
 40
0.0
 40
0.0
 40
0.0
 10
-12.71849989818274
 20
2.660020100939267
 30
0.0
 41
1.0
 10
-12.69383650897093
 20
3.371019646335965
 30
0.0
 41
0.9999999935570074
 10
-12.669334540688
 20
4.082024772809717
 30
0.0
 41
1.0
  0
SPLINE
  5
77
330
1F
100
AcDbEntity
  8
5 star armless 2d
 62
     7
100
AcDbSpline
210
0.0
220
0.0
230
1.0
 70
     8
 71
     3
 72
     8
 73
     4
 74
     0
 42
0.0000000001
 43
0.0000000001
 40
-1.0
 40
-1.0
 40
-1.0
 40
-1.0
 40
0.0
 40
0.0
 40
0.0
 40
0.0
 10
-12.669334540688
 20
4.082024772809717
 30
0.0
 10
-12.66673166835248
 20
4.157555667011272
 30
0.0
 10
-12.53080387477361
 20
4.225619894273357
 30
0.0
 10
-12.404762584217
 20
4.288651883417316
 30
0.0
  0
POLYLINE
  5
78
330
1F
100
AcDbEntity
  8
5 star armless 2d
 62
     7
100
AcDb2dPolyline
 66
     1
 10
0.0
 20
0.0
 30
0.0
  0
VERTEX
  5
79
330
78
100
AcDbEntity
  8
5 star armless 2d
 62
     7
100
AcDbVertex
100
AcDb2dVertex
 10
-12.404762584217
 20
4.288651883417316
 30
0.0
  0
VERTEX
  5
7A
330
78
100
AcDbEntity
  8
5 star armless 2d
 62
     7
100
AcDbVertex
100
AcDb2dVertex
 10
-1.428810411965161
 20
9.777615818257765
 30
0.0
  0
SEQEND
  5
7B
330
78
100
AcDbEntity
  8
5 star armless 2d
 62
     7
  0
SPLINE
  5
7C
330
1F
100
AcDbEntity
  8
5 star armless 2d
 62
     7
100
AcDbSpline
210
0.0
220
0.0
230
1.0
 70
    12
 71
     2
 72
     6
 73
     3
 74
     0
 42
0.0000000001
 43
0.0000000001
 40
-0.5143993363304881
 40
-0.5143993363304881
 40
-0.5143993363304881
 40
0.0
 40
0.0
 40
0.0
 10
-1.428810411965161
 20
9.777615818257765
 30
0.0
 41
1.0
 10
-1.174989238541619
 20
9.901760596580477
 30
0.0
 41
0.8706766192815005
 10
-1.15029618138231
 20
10.18336332373594
 30
0.0
 41
1.0
  0
SPLINE
  5
7D
330
1F
100
AcDbEntity
  8
5 star armless 2d
 62
     7
100
AcDbSpline
210
0.0
220
0.0
230
1.0
 70
    24
 71
     2
 72
     6
 73
     3
 74
     0
 42
0.0000000001
 43
0.0000000001
 40
-0.2351326356577222
 40
-0.2351326356577222
 40
-0.2351326356577222
 40
0.0
 40
0.0
 40
0.0
 10
-1.15029618138231
 20
10.18336332373594
 30
0.0
 10
-1.140038040999818
 20
10.30061261273565
 30
0.0
 10
-1.129779900617326
 20
10.41786190173536
 30
0.0
  0
SPLINE
  5
7E
330
1F
100
AcDbEntity
  8
5 star armless 2d
 62
     7
100
AcDbSpline
210
0.0
220
0.0
230
1.0
 70
    12
 71
     2
 72
     6
 73
     3
 74
     0
 42
0.0000000001
 43
0.0000000001
 40
-0.0804448054991407
 40
-0.0804448054991407
 40
-0.0804448054991407
 40
0.0
 40
0.0
 40
0.0
 10
-1.129779900617326
 20
10.41786190173536
 30
0.0
 41
1.0
 10
-1.125289877866597
 20
10.46532261967116
 30
0.0
 41
0.7843366948440615
 10
-1.078203018148649
 20
10.47186785798688
 30
0.0
 41
1.0
  0
POLYLINE
  5
7F
330
1F
100
AcDbEntity
  8
5 star armless 2d
 62
     7
100
AcDb2dPolyline
 66
     1
 10
0.0
 20
0.0
 30
0.0
  0
VERTEX
  5
80
330
7F
100
AcDbEntity
  8
5 star armless 2d
 62
     7
100
AcDbVertex
100
AcDb2dVertex
 10
-1.078203018148649
 20
10.47186785798688
 30
0.0
  0
VERTEX
  5
81
330
7F
100
AcDbEntity
  8
5 star armless 2d
 62
     7
100
AcDbVertex
100
AcDb2dVertex
 10
1.078203018148649
 20
10.47186785798688
 30
0.0
  0
SEQEND
  5
82
330
7F
100
AcDbEntity
  8
5 star armless 2d
 62
     7
  0
SPLINE
  5
83
330
1F
100
AcDbEntity
  8
5 star armless 2d
 62
     7
100
AcDbSpline
210
0.0
220
0.0
230
1.0
 70
    12
 71
     2
 72
     6
 73
     3
 74
     0
 42
0.0000000001
 43
0.0000000001
 40
0.0
 40
0.0
 40
0.0
 40
0.0804448054991407
 40
0.0804448054991407
 40
0.0804448054991407
 10
1.078203018148649
 20
10.47186785798688
 30
0.0
 41
1.0
 10
1.125289877866597
 20
10.46532261967116
 30
0.0
 41
0.7843366948440615
 10
1.129779900617326
 20
10.41786190173536
 30
0.0
 41
1.0
  0
SPLINE
  5
84
330
1F
100
AcDbEntity
  8
5 star armless 2d
 62
     7
100
AcDbSpline
210
0.0
220
0.0
230
1.0
 70
    24
 71
     2
 72
     6
 73
     3
 74
     0
 42
0.0000000001
 43
0.0000000001
 40
0.0
 40
0.0
 40
0.0
 40
0.2351326356577222
 40
0.2351326356577222
 40
0.2351326356577222
 10
1.129779900617326
 20
10.41786190173536
 30
0.0
 10
1.140038040999818
 20
10.30061261273565
 30
0.0
 10
1.15029618138231
 20
10.18336332373594
 30
0.0
  0
SPLINE
  5
85
330
1F
100
AcDbEntity
  8
5 star armless 2d
 62
     7
100
AcDbSpline
210
0.0
220
0.0
230
1.0
 70
    12
 71
     2
 72
     6
 73
     3
 74
     0
 42
0.0000000001
 43
0.0000000001
 40
0.0
 40
0.0
 40
0.0
 40
0.5143993363304881
 40
0.5143993363304881
 40
0.5143993363304881
 10
1.15029618138231
 20
10.18336332373594
 30
0.0
 41
1.0
 10
1.174989238541619
 20
9.901760596580477
 30
0.0
 41
0.8706766192815005
 10
1.428810411965161
 20
9.777615818257765
 30
0.0
 41
1.0
  0
POLYLINE
  5
86
330
1F
100
AcDbEntity
  8
5 star armless 2d
 62
     7
100
AcDb2dPolyline
 66
     1
 10
0.0
 20
0.0
 30
0.0
  0
VERTEX
  5
87
330
86
100
AcDbEntity
  8
5 star armless 2d
 62
     7
100
AcDbVertex
100
AcDb2dVertex
 10
1.428810411965161
 20
9.777615818257765
 30
0.0
  0
VERTEX
  5
88
330
86
100
AcDbEntity
  8
5 star armless 2d
 62
     7
100
AcDbVertex
100
AcDb2dVertex
 10
12.404762584217
 20
4.288651883417316
 30
0.0
  0
SEQEND
  5
89
330
86
100
AcDbEntity
  8
5 star armless 2d
 62
     7
  0
SPLINE
  5
8A
330
1F
100
AcDbEntity
  8
5 star armless 2d
 62
     7
100
AcDbSpline
210
0.0
220
0.0
230
1.0
 70
     8
 71
     3
 72
     8
 73
     4
 74
     0
 42
0.0000000001
 43
0.0000000001
 40
0.0
 40
0.0
 40
0.0
 40
0.0
 40
1.0
 40
1.0
 40
1.0
 40
1.0
 10
12.404762584217
 20
4.288651883417316
 30
0.0
 10
12.53080387477361
 20
4.225619894273357
 30
0.0
 10
12.66673166835248
 20
4.157555667011272
 30
0.0
 10
12.669334540688
 20
4.082024772809717
 30
0.0
  0
SPLINE
  5
8B
330
1F
100
AcDbEntity
  8
5 star armless 2d
 62
     7
100
AcDbSpline
210
0.0
220
0.0
230
1.0
 70
    12
 71
     2
 72
     6
 73
     3
 74
     0
 42
0.0000000001
 43
0.0000000001
 40
0.0
 40
0.0
 40
0.0
 40
1.422854359340725
 40
1.422854359340725
 40
1.422854359340725
 10
12.669334540688
 20
4.082024772809717
 30
0.0
 41
1.0
 10
12.69383650897093
 20
3.371019646335965
 30
0.0
 41
0.9999999935570074
 10
12.71849989818274
 20
2.660020100939267
 30
0.0
 41
1.0
  0
POLYLINE
  5
8C
330
1F
100
AcDbEntity
  8
5 star armless 2d
 62
     7
100
AcDb2dPolyline
 66
     1
 10
0.0
 20
0.0
 30
0.0
  0
VERTEX
  5
8D
330
8C
100
AcDbEntity
  8
5 star armless 2d
 62
     7
100
AcDbVertex
100
AcDb2dVertex
 10
12.71849989818274
 20
2.660020100939267
 30
0.0
  0
VERTEX
  5
8E
330
8C
100
AcDbEntity
  8
5 star armless 2d
 62
     7
100
AcDbVertex
100
AcDb2dVertex
 10
11.8190765116316
 20
2.660000000000237
 30
0.0
  0
SEQEND
  5
8F
330
8C
100
AcDbEntity
  8
5 star armless 2d
 62
     7
  0
SPLINE
  5
90
330
1F
100
AcDbEntity
  8
5 star armless 2d
 62
     7
100
AcDbSpline
210
0.0
220
0.0
230
1.0
 70
     8
 71
     3
 72
    11
 73
     7
 74
     0
 42
0.0000000001
 43
0.0000000001
 40
0.0
 40
0.0
 40
0.0
 40
0.0
 40
0.1835100850311604
 40
0.3536765832265739
 40
0.6739521984522766
 40
1.237126295615228
 40
1.237126295615228
 40
1.237126295615228
 40
1.237126295615228
 10
11.8190765116316
 20
2.660000000000237
 30
0.0
 10
11.8099174002777
 20
2.720250205958004
 30
0.0
 10
11.7892195062877
 20
2.83706233551386
 30
0.0
 10
11.72734253959063
 20
3.052321508561273
 30
0.0
 10
11.58292283466607
 20
3.376562126298547
 30
0.0
 10
11.35042574661137
 20
3.577574237612902
 30
0.0
 10
11.1745638964201
 20
3.645947923170293
 30
0.0
  0
SPLINE
  5
91
330
1F
100
AcDbEntity
  8
5 star armless 2d
 62
     7
100
AcDbSpline
210
0.0
220
0.0
230
1.0
 70
    12
 71
     2
 72
     6
 73
     3
 74
     0
 42
0.0000000001
 43
0.0000000001
 40
-9.778618425108075
 40
-9.778618425108075
 40
-9.778618425108075
 40
0.0
 40
0.0
 40
0.0
 10
11.1745638964201
 20
3.645947923170293
 30
0.0
 41
1.0
 10
6.640738614590225
 20
5.476186611334741
 30
0.0
 41
0.9999999759726289
 10
1.846582304721547
 20
7.405165259965104
 30
0.0
 41
1.0
  0
SPLINE
  5
92
330
1F
100
AcDbEntity
  8
5 star armless 2d
 62
     7
100
AcDbSpline
210
0.0
220
0.0
230
1.0
 70
     8
 71
     3
 72
    10
 73
     6
 74
     0
 42
0.0000000001
 43
0.0000000001
 40
-3.0
 40
-3.0
 40
-3.0
 40
-3.0
 40
-2.0
 40
-1.0
 40
0.0
 40
0.0
 40
0.0
 40
0.0
 10
1.846582304721547
 20
7.405165259965104
 30
0.0
 10
1.706374638989255
 20
7.457613499194579
 30
0.0
 10
1.423965262146095
 20
7.557189420706779
 30
0.0
 10
0.988744687258691
 20
7.671406726769478
 30
0.0
 10
0.6856666967267334
 20
7.682283137681661
 30
0.0
 10
0.5394249362035648
 20
7.645750761471225
 30
0.0
  0
SPLINE
  5
93
330
1F
100
AcDbEntity
  8
5 star armless 2d
 62
     7
100
AcDbSpline
210
0.0
220
0.0
230
1.0
 70
     8
 71
     3
 72
    11
 73
     7
 74
     0
 42
0.0000000001
 43
0.0000000001
 40
-0.0227663985737254
 40
-0.0227663985737254
 40
-0.0227663985737254
 40
-0.0227663985737254
 40
0.0
 40
0.5000863922600962
 40
0.5000863922600962
 40
1.0
 40
1.0
 40
1.0
 40
1.0
 10
12.669334540688
 20
4.082024772809717
 30
0.0
 10
12.48864601139351
 20
4.070618271341579
 30
0.0
 10
8.590567169160227
 20
5.993301383403359
 30
0.0
 10
6.534952004088657
 20
7.014883681485883
 30
0.0
 10
3.449683567373598
 20
8.542026197984807
 30
0.0
 10
2.334069080783038
 20
9.09182700546496
 30
0.0
 10
1.41943790234119
 20
9.524386560788034
 30
0.0
  0
SPLINE
  5
94
330
1F
100
AcDbEntity
  8
5 star armless 2d
 62
     7
100
AcDbSpline
210
0.0
220
0.0
230
1.0
 70
     8
 71
     3
 72
    12
 73
     8
 74
     0
 42
0.0000000001
 43
0.0000000001
 40
1.0
 40
1.0
 40
1.0
 40
1.0
 40
2.0
 40
3.0
 40
4.0
 40
5.0
 40
6.0
 40
6.0
 40
6.0
 40
6.0
 10
1.41943790234119
 20
9.524386560788034
 30
0.0
 10
1.367301391420744
 20
9.552201802990847
 30
0.0
 10
1.260990687675529
 20
9.604006880283261
 30
0.0
 10
1.094709500003511
 20
9.666445299279573
 30
0.0
 10
0.9211941158361983
 20
9.704756355468733
 30
0.0
 10
0.7393674804862157
 20
9.691102831114906
 30
0.0
 10
0.6439217537898404
 20
9.605008923804657
 30
0.0
 10
0.6317207338636273
 20
9.54524533905047
 30
0.0
  0
SPLINE
  5
95
330
1F
100
AcDbEntity
  8
5 star armless 2d
 62
     7
100
AcDbSpline
210
0.0
220
0.0
230
1.0
 70
    12
 71
     3
 72
    14
 73
    10
 74
     0
 42
0.0000000001
 43
0.0000000001
 40
0.0
 40
0.0
 40
0.0
 40
0.0
 40
4.708296515032774
 40
4.708296515032774
 40
4.708296515032774
 40
5.708296515032774
 40
5.708296515032774
 40
5.708296515032774
 40
7.285405322274421
 40
7.285405322274421
 40
7.285405322274421
 40
7.285405322274421
 10
0.6317207338636273
 20
9.54524533905047
 30
0.0
 41
1.0
 10
0.551228490869521
 20
7.905794238483141
 30
0.0
 41
0.9999995426182293
 10
0.4783533397450975
 20
6.338054566078696
 30
0.0
 41
0.9999995426182293
 10
0.4073146667084018
 20
4.770230604335735
 30
0.0
 41
1.0
 10
0.4008564130360064
 20
4.627696905073567
 30
0.0
 41
1.0
 10
0.3965884214344776
 20
4.378882805564188
 30
0.0
 41
1.0
 10
0.4010174673831912
 20
4.236347963292882
 30
0.0
 41
1.0
 10
0.4173449782554594
 20
3.710898642195255
 30
0.0
 41
1.0
 10
0.4336724891277275
 20
3.185449321097627
 30
0.0
 41
1.0
 10
0.4499999999999957
 20
2.660000000000001
 30
0.0
 41
1.0
  0
POLYLINE
  5
96
330
1F
100
AcDbEntity
  8
5 star armless 2d
 62
     7
100
AcDb2dPolyline
 66
     1
 10
0.0
 20
0.0
 30
0.0
  0
VERTEX
  5
97
330
96
100
AcDbEntity
  8
5 star armless 2d
 62
     7
100
AcDbVertex
100
AcDb2dVertex
 10
0.4499999999999957
 20
2.660000000000001
 30
0.0
  0
VERTEX
  5
98
330
96
100
AcDbEntity
  8
5 star armless 2d
 62
     7
100
AcDbVertex
100
AcDb2dVertex
 10
-0.4499999999999957
 20
2.660000000000001
 30
0.0
  0
SEQEND
  5
99
330
96
100
AcDbEntity
  8
5 star armless 2d
 62
     7
  0
SPLINE
  5
9A
330
1F
100
AcDbEntity
  8
5 star armless 2d
 62
     7
100
AcDbSpline
210
0.0
220
0.0
230
1.0
 70
    12
 71
     3
 72
    14
 73
    10
 74
     0
 42
0.0000000001
 43
0.0000000001
 40
-7.285405322274421
 40
-7.285405322274421
 40
-7.285405322274421
 40
-7.285405322274421
 40
-5.708296515032774
 40
-5.708296515032774
 40
-5.708296515032774
 40
-4.708296515032774
 40
-4.708296515032774
 40
-4.708296515032774
 40
0.0
 40
0.0
 40
0.0
 40
0.0
 10
-0.4499999999999957
 20
2.660000000000001
 30
0.0
 41
1.0
 10
-0.4336724891277275
 20
3.185449321097627
 30
0.0
 41
1.0
 10
-0.4173449782554594
 20
3.710898642195255
 30
0.0
 41
1.0
 10
-0.4010174673831912
 20
4.236347963292882
 30
0.0
 41
1.0
 10
-0.3965884214344776
 20
4.378882805564188
 30
0.0
 41
1.0
 10
-0.4008564130360064
 20
4.627696905073567
 30
0.0
 41
1.0
 10
-0.4073146667084018
 20
4.770230604335735
 30
0.0
 41
1.0
 10
-0.4783533397450975
 20
6.338054566078696
 30
0.0
 41
0.9999995426182293
 10
-0.551228490869521
 20
7.905794238483141
 30
0.0
 41
0.9999995426182293
 10
-0.6317207338636273
 20
9.54524533905047
 30
0.0
 41
1.0
  0
SPLINE
  5
9B
330
1F
100
AcDbEntity
  8
5 star armless 2d
 62
     7
100
AcDbSpline
210
0.0
220
0.0
230
1.0
 70
     8
 71
     3
 72
    12
 73
     8
 74
     0
 42
0.0000000001
 43
0.0000000001
 40
-6.0
 40
-6.0
 40
-6.0
 40
-6.0
 40
-5.0
 40
-4.0
 40
-3.0
 40
-2.0
 40
-1.0
 40
-1.0
 40
-1.0
 40
-1.0
 10
-0.6317207338636273
 20
9.54524533905047
 30
0.0
 10
-0.6439217537898404
 20
9.605008923804657
 30
0.0
 10
-0.7393674804862157
 20
9.691102831114906
 30
0.0
 10
-0.9211941158361983
 20
9.704756355468733
 30
0.0
 10
-1.094709500003511
 20
9.666445299279573
 30
0.0
 10
-1.260990687675529
 20
9.604006880283261
 30
0.0
 10
-1.367301391420744
 20
9.552201802990847
 30
0.0
 10
-1.41943790234119
 20
9.524386560788034
 30
0.0
  0
SPLINE
  5
9C
330
1F
100
AcDbEntity
  8
5 star armless 2d
 62
     7
100
AcDbSpline
210
0.0
220
0.0
230
1.0
 70
     8
 71
     3
 72
    11
 73
     7
 74
     0
 42
0.0000000001
 43
0.0000000001
 40
-1.0
 40
-1.0
 40
-1.0
 40
-1.0
 40
-0.5000863922600962
 40
-0.5000863922600962
 40
0.0
 40
0.0227663985737254
 40
0.0227663985737254
 40
0.0227663985737254
 40
0.0227663985737254
 10
-1.41943790234119
 20
9.524386560788034
 30
0.0
 10
-2.334069080783038
 20
9.09182700546496
 30
0.0
 10
-3.449683567373598
 20
8.542026197984807
 30
0.0
 10
-6.534952004088657
 20
7.014883681485883
 30
0.0
 10
-8.590567169160227
 20
5.993301383403359
 30
0.0
 10
-12.48864601139351
 20
4.070618271341579
 30
0.0
 10
-12.669334540688
 20
4.082024772809717
 30
0.0
  0
SPLINE
  5
9D
330
1F
100
AcDbEntity
  8
5 star armless 2d
 62
     7
100
AcDbSpline
210
0.0
220
0.0
230
1.0
 70
    24
 71
     2
 72
     6
 73
     3
 74
     0
 42
0.0000000001
 43
0.0000000001
 40
0.0
 40
0.0
 40
0.0
 40
0.0819628544030055
 40
0.0819628544030055
 40
0.0819628544030055
 10
-0.3437500000000577
 20
2.55999999999999
 30
0.0
 10
-0.3437500000000577
 20
2.600981427201493
 30
0.0
 10
-0.3437500000000577
 20
2.641962854402996
 30
0.0
  0
SPLINE
  5
9E
330
1F
100
AcDbEntity
  8
5 star armless 2d
 62
     7
100
AcDbSpline
210
0.0
220
0.0
230
1.0
 70
    24
 71
     2
 72
     6
 73
     3
 74
     0
 42
0.0000000001
 43
0.0000000001
 40
0.0
 40
0.0
 40
0.0
 40
0.0819628544030055
 40
0.0819628544030055
 40
0.0819628544030055
 10
0.3437500000000631
 20
2.641962854402996
 30
0.0
 10
0.3437500000000631
 20
2.600981427201493
 30
0.0
 10
0.3437500000000631
 20
2.55999999999999
 30
0.0
  0
SPLINE
  5
9F
330
1F
100
AcDbEntity
  8
5 star armless 2d
 62
     7
100
AcDbSpline
210
0.0
220
0.0
230
1.0
 70
    24
 71
     2
 72
     6
 73
     3
 74
     0
 42
0.0000000001
 43
0.0000000001
 40
0.0
 40
0.0
 40
0.0
 40
2.31
 40
2.31
 40
2.31
 10
11.3936290602055
 20
0.1250000000000011
 30
0.0
 10
11.3936290602055
 20
1.280000000000001
 30
0.0
 10
11.3936290602055
 20
2.435000000000001
 30
0.0
  0
SPLINE
  5
A0
330
1F
100
AcDbEntity
  8
5 star armless 2d
 62
     7
100
AcDbSpline
210
0.0
220
0.0
230
1.0
 70
    12
 71
     2
 72
     6
 73
     3
 74
     0
 42
0.0000000001
 43
0.0000000001
 40
0.0
 40
0.0
 40
0.0
 40
0.1963495408493616
 40
0.1963495408493616
 40
0.1963495408493616
 10
11.3936290602055
 20
2.435000000000001
 30
0.0
 41
1.0
 10
11.3936290602055
 20
2.56
 30
0.0
 41
0.7071067811865519
 10
11.5186290602055
 20
2.56
 30
0.0
 41
1.0
  0
SPLINE
  5
A1
330
1F
100
AcDbEntity
  8
5 star armless 2d
 62
     7
100
AcDbSpline
210
0.0
220
0.0
230
1.0
 70
    24
 71
     2
 72
     6
 73
     3
 74
     0
 42
0.0000000001
 43
0.0000000001
 40
-0.3437499999999991
 40
-0.3437499999999991
 40
-0.3437499999999991
 40
0.0
 40
0.0
 40
0.0
 10
11.5186290602055
 20
2.56
 30
0.0
 10
11.6905040602055
 20
2.560000000000001
 30
0.0
 10
11.8623790602055
 20
2.560000000000001
 30
0.0
  0
SPLINE
  5
A2
330
1F
100
AcDbEntity
  8
5 star armless 2d
 62
     7
100
AcDbSpline
210
0.0
220
0.0
230
1.0
 70
    12
 71
     2
 72
     8
 73
     5
 74
     0
 42
0.0000000001
 43
0.0000000001
 40
0.0
 40
0.0
 40
0.0
 40
0.0245437074331718
 40
0.0245437074331718
 40
0.0490874148663445
 40
0.0490874148663445
 40
0.0490874148663445
 10
11.8623790602055
 20
2.560000000000001
 30
0.0
 41
1.0
 10
11.87532324271512
 20
2.560000000000003
 30
0.0
 41
0.9238794417264912
 10
11.88447615760185
 20
2.550847076427806
 30
0.0
 41
1.0
 10
11.89362907248859
 20
2.541694152855611
 30
0.0
 41
0.9238794417265509
 10
11.89362906020549
 20
2.528749970346001
 30
0.0
 41
1.0
  0
SPLINE
  5
A3
330
1F
100
AcDbEntity
  8
5 star armless 2d
 62
     7
100
AcDbSpline
210
0.0
220
0.0
230
1.0
 70
    24
 71
     2
 72
     6
 73
     3
 74
     0
 42
0.0000000001
 43
0.0000000001
 40
0.0
 40
0.0
 40
0.0
 40
2.492448632942286
 40
2.492448632942286
 40
2.492448632942286
 10
11.89362906020549
 20
2.528749970346001
 30
0.0
 10
11.89362906020549
 20
1.28126282693743
 30
0.0
 10
11.89362906020549
 20
0.0337756835288582
 30
0.0
  0
SPLINE
  5
A4
330
1F
100
AcDbEntity
  8
5 star armless 2d
 62
     7
100
AcDbSpline
210
0.0
220
0.0
230
1.0
 70
    12
 71
     2
 72
     8
 73
     5
 74
     0
 42
0.0000000001
 43
0.0000000001
 40
0.0
 40
0.0
 40
0.0
 40
0.0245437074331721
 40
0.0245437074331721
 40
0.0490874148663438
 40
0.0490874148663438
 40
0.0490874148663438
 10
11.89362906020549
 20
0.0337756835288582
 30
0.0
 41
1.0
 10
11.89362907248858
 20
0.0183058471443908
 30
0.0
 41
0.9238794417265652
 10
11.88447615760185
 20
0.0091529235721958
 30
0.0
 41
1.0
 10
11.87532324271512
 20
0.0
 30
0.0
 41
0.9238794417265086
 10
11.8623790602055
 20
0.0000000000000009
 30
0.0
 41
1.0
  0
SPLINE
  5
A5
330
1F
100
AcDbEntity
  8
5 star armless 2d
 62
     7
100
AcDbSpline
210
0.0
220
0.0
230
1.0
 70
    24
 71
     2
 72
     6
 73
     3
 74
     0
 42
0.0000000001
 43
0.0000000001
 40
-0.3437499999999991
 40
-0.3437499999999991
 40
-0.3437499999999991
 40
0.0
 40
0.0
 40
0.0
 10
11.8623790602055
 20
0.0000000000000009
 30
0.0
 10
11.6905040602055
 20
0.000000000000001
 30
0.0
 10
11.5186290602055
 20
0.0000000000000011
 30
0.0
  0
SPLINE
  5
A6
330
1F
100
AcDbEntity
  8
5 star armless 2d
 62
     7
100
AcDbSpline
210
0.0
220
0.0
230
1.0
 70
    12
 71
     2
 72
     6
 73
     3
 74
     0
 42
0.0000000001
 43
0.0000000001
 40
0.0
 40
0.0
 40
0.0
 40
0.1963495408493621
 40
0.1963495408493621
 40
0.1963495408493621
 10
11.5186290602055
 20
0.0000000000000011
 30
0.0
 41
1.0
 10
11.3936290602055
 20
0.0
 30
0.0
 41
0.7071067811865478
 10
11.3936290602055
 20
0.1250000000000011
 30
0.0
 41
1.0
  0
POLYLINE
  5
A7
330
1F
100
AcDbEntity
  8
5 star armless 2d
 62
     7
100
AcDb2dPolyline
 66
     1
 10
0.0
 20
0.0
 30
0.0
  0
VERTEX
  5
A8
330
A7
100
AcDbEntity
  8
5 star armless 2d
 62
     7
100
AcDbVertex
100
AcDb2dVertex
 10
11.9092540602055
 20
0.8425000000000009
 30
0.0
  0
VERTEX
  5
A9
330
A7
100
AcDbEntity
  8
5 star armless 2d
 62
     7
100
AcDbVertex
100
AcDb2dVertex
 10
12.6280040602055
 20
0.8425000000000009
 30
0.0
  0
VERTEX
  5
AA
330
A7
100
AcDbEntity
  8
5 star armless 2d
 62
     7
100
AcDbVertex
100
AcDb2dVertex
 10
12.6280040602055
 20
2.560000000000001
 30
0.0
  0
VERTEX
  5
AB
330
A7
100
AcDbEntity
  8
5 star armless 2d
 62
     7
100
AcDbVertex
100
AcDb2dVertex
 10
11.9092540602055
 20
2.560000000000001
 30
0.0
  0
VERTEX
  5
AC
330
A7
100
AcDbEntity
  8
5 star armless 2d
 62
     7
100
AcDbVertex
100
AcDb2dVertex
 10
11.9092540602055
 20
0.8425000000000009
 30
0.0
  0
SEQEND
  5
AD
330
A7
100
AcDbEntity
  8
5 star armless 2d
 62
     7
  0
SPLINE
  5
AE
330
1F
100
AcDbEntity
  8
5 star armless 2d
 62
     7
100
AcDbSpline
210
0.0
220
0.0
230
1.0
 70
    24
 71
     2
 72
     6
 73
     3
 74
     0
 42
0.0000000001
 43
0.0000000001
 40
0.0
 40
0.0
 40
0.0
 40
2.31
 40
2.31
 40
2.31
 10
13.1436290602055
 20
0.1250000000000011
 30
0.0
 10
13.1436290602055
 20
1.280000000000001
 30
0.0
 10
13.1436290602055
 20
2.435000000000001
 30
0.0
  0
SPLINE
  5
AF
330
1F
100
AcDbEntity
  8
5 star armless 2d
 62
     7
100
AcDbSpline
210
0.0
220
0.0
230
1.0
 70
    12
 71
     2
 72
     6
 73
     3
 74
     0
 42
0.0000000001
 43
0.0000000001
 40
0.0
 40
0.0
 40
0.0
 40
0.1963495408493616
 40
0.1963495408493616
 40
0.1963495408493616
 10
13.1436290602055
 20
2.435000000000001
 30
0.0
 41
1.0
 10
13.1436290602055
 20
2.56
 30
0.0
 41
0.7071067811865519
 10
13.0186290602055
 20
2.56
 30
0.0
 41
1.0
  0
SPLINE
  5
B0
330
1F
100
AcDbEntity
  8
5 star armless 2d
 62
     7
100
AcDbSpline
210
0.0
220
0.0
230
1.0
 70
    24
 71
     2
 72
     6
 73
     3
 74
     0
 42
0.0000000001
 43
0.0000000001
 40
-0.3437499999999991
 40
-0.3437499999999991
 40
-0.3437499999999991
 40
0.0
 40
0.0
 40
0.0
 10
13.0186290602055
 20
2.56
 30
0.0
 10
12.8467540602055
 20
2.560000000000001
 30
0.0
 10
12.6748790602055
 20
2.560000000000001
 30
0.0
  0
SPLINE
  5
B1
330
1F
100
AcDbEntity
  8
5 star armless 2d
 62
     7
100
AcDbSpline
210
0.0
220
0.0
230
1.0
 70
    12
 71
     2
 72
     8
 73
     5
 74
     0
 42
0.0000000001
 43
0.0000000001
 40
0.0
 40
0.0
 40
0.0
 40
0.0245437074331718
 40
0.0245437074331718
 40
0.0490874148663445
 40
0.0490874148663445
 40
0.0490874148663445
 10
12.6748790602055
 20
2.560000000000001
 30
0.0
 41
1.0
 10
12.66193487769588
 20
2.560000000000003
 30
0.0
 41
0.9238794417264912
 10
12.65278196280915
 20
2.550847076427806
 30
0.0
 41
1.0
 10
12.64362904792242
 20
2.541694152855611
 30
0.0
 41
0.9238794417265509
 10
12.64362906020551
 20
2.528749970346001
 30
0.0
 41
1.0
  0
SPLINE
  5
B2
330
1F
100
AcDbEntity
  8
5 star armless 2d
 62
     7
100
AcDbSpline
210
0.0
220
0.0
230
1.0
 70
    24
 71
     2
 72
     6
 73
     3
 74
     0
 42
0.0000000001
 43
0.0000000001
 40
0.0
 40
0.0
 40
0.0
 40
2.492448632942286
 40
2.492448632942286
 40
2.492448632942286
 10
12.64362906020551
 20
2.528749970346001
 30
0.0
 10
12.64362906020551
 20
1.28126282693743
 30
0.0
 10
12.64362906020551
 20
0.0337756835288582
 30
0.0
  0
SPLINE
  5
B3
330
1F
100
AcDbEntity
  8
5 star armless 2d
 62
     7
100
AcDbSpline
210
0.0
220
0.0
230
1.0
 70
    12
 71
     2
 72
     8
 73
     5
 74
     0
 42
0.0000000001
 43
0.0000000001
 40
0.0
 40
0.0
 40
0.0
 40
0.0245437074331721
 40
0.0245437074331721
 40
0.0490874148663438
 40
0.0490874148663438
 40
0.0490874148663438
 10
12.64362906020551
 20
0.0337756835288582
 30
0.0
 41
1.0
 10
12.64362904792242
 20
0.0183058471443908
 30
0.0
 41
0.9238794417265652
 10
12.65278196280915
 20
0.0091529235721958
 30
0.0
 41
1.0
 10
12.66193487769588
 20
0.0
 30
0.0
 41
0.9238794417265086
 10
12.6748790602055
 20
0.0000000000000009
 30
0.0
 41
1.0
  0
SPLINE
  5
B4
330
1F
100
AcDbEntity
  8
5 star armless 2d
 62
     7
100
AcDbSpline
210
0.0
220
0.0
230
1.0
 70
    24
 71
     2
 72
     6
 73
     3
 74
     0
 42
0.0000000001
 43
0.0000000001
 40
-0.3437499999999991
 40
-0.3437499999999991
 40
-0.3437499999999991
 40
0.0
 40
0.0
 40
0.0
 10
12.6748790602055
 20
0.0000000000000009
 30
0.0
 10
12.8467540602055
 20
0.000000000000001
 30
0.0
 10
13.0186290602055
 20
0.0000000000000011
 30
0.0
  0
SPLINE
  5
B5
330
1F
100
AcDbEntity
  8
5 star armless 2d
 62
     7
100
AcDbSpline
210
0.0
220
0.0
230
1.0
 70
    12
 71
     2
 72
     6
 73
     3
 74
     0
 42
0.0000000001
 43
0.0000000001
 40
0.0
 40
0.0
 40
0.0
 40
0.1963495408493621
 40
0.1963495408493621
 40
0.1963495408493621
 10
13.0186290602055
 20
0.0000000000000011
 30
0.0
 41
1.0
 10
13.1436290602055
 20
0.0
 30
0.0
 41
0.7071067811865478
 10
13.1436290602055
 20
0.1250000000000011
 30
0.0
 41
1.0
  0
SPLINE
  5
B6
330
1F
100
AcDbEntity
  8
5 star armless 2d
 62
     7
100
AcDbSpline
210
0.0
220
0.0
230
1.0
 70
    24
 71
     2
 72
     6
 73
     3
 74
     0
 42
0.0000000001
 43
0.0000000001
 40
0.0
 40
0.0
 40
0.0
 40
2.31
 40
2.31
 40
2.31
 10
6.707429754571685
 20
0.1250000000000011
 30
0.0
 10
6.707429754571685
 20
1.280000000000001
 30
0.0
 10
6.707429754571685
 20
2.435000000000001
 30
0.0
  0
SPLINE
  5
B7
330
1F
100
AcDbEntity
  8
5 star armless 2d
 62
     7
100
AcDbSpline
210
0.0
220
0.0
230
1.0
 70
    12
 71
     2
 72
     6
 73
     3
 74
     0
 42
0.0000000001
 43
0.0000000001
 40
0.0
 40
0.0
 40
0.0
 40
0.1963495408493616
 40
0.1963495408493616
 40
0.1963495408493616
 10
6.707429754571685
 20
2.435000000000001
 30
0.0
 41
1.0
 10
6.707429754571683
 20
2.56
 30
0.0
 41
0.7071067811865519
 10
6.832429754571685
 20
2.56
 30
0.0
 41
1.0
  0
SPLINE
  5
B8
330
1F
100
AcDbEntity
  8
5 star armless 2d
 62
     7
100
AcDbSpline
210
0.0
220
0.0
230
1.0
 70
    24
 71
     2
 72
     6
 73
     3
 74
     0
 42
0.0000000001
 43
0.0000000001
 40
-0.3437499999999991
 40
-0.3437499999999991
 40
-0.3437499999999991
 40
0.0
 40
0.0
 40
0.0
 10
6.832429754571685
 20
2.56
 30
0.0
 10
7.004304754571684
 20
2.560000000000001
 30
0.0
 10
7.176179754571683
 20
2.560000000000001
 30
0.0
  0
SPLINE
  5
B9
330
1F
100
AcDbEntity
  8
5 star armless 2d
 62
     7
100
AcDbSpline
210
0.0
220
0.0
230
1.0
 70
    12
 71
     2
 72
     8
 73
     5
 74
     0
 42
0.0000000001
 43
0.0000000001
 40
0.0
 40
0.0
 40
0.0
 40
0.0245437074331718
 40
0.0245437074331718
 40
0.0490874148663445
 40
0.0490874148663445
 40
0.0490874148663445
 10
7.176179754571683
 20
2.560000000000001
 30
0.0
 41
1.0
 10
7.189123937081301
 20
2.560000000000003
 30
0.0
 41
0.9238794417264912
 10
7.198276851968034
 20
2.550847076427806
 30
0.0
 41
1.0
 10
7.207429766854771
 20
2.541694152855611
 30
0.0
 41
0.9238794417265509
 10
7.207429754571676
 20
2.528749970346001
 30
0.0
 41
1.0
  0
SPLINE
  5
BA
330
1F
100
AcDbEntity
  8
5 star armless 2d
 62
     7
100
AcDbSpline
210
0.0
220
0.0
230
1.0
 70
    24
 71
     2
 72
     6
 73
     3
 74
     0
 42
0.0000000001
 43
0.0000000001
 40
0.0
 40
0.0
 40
0.0
 40
2.492448632942286
 40
2.492448632942286
 40
2.492448632942286
 10
7.207429754571676
 20
2.528749970346001
 30
0.0
 10
7.207429754571676
 20
1.28126282693743
 30
0.0
 10
7.207429754571676
 20
0.0337756835288582
 30
0.0
  0
SPLINE
  5
BB
330
1F
100
AcDbEntity
  8
5 star armless 2d
 62
     7
100
AcDbSpline
210
0.0
220
0.0
230
1.0
 70
    12
 71
     2
 72
     8
 73
     5
 74
     0
 42
0.0000000001
 43
0.0000000001
 40
0.0
 40
0.0
 40
0.0
 40
0.0245437074331721
 40
0.0245437074331721
 40
0.0490874148663438
 40
0.0490874148663438
 40
0.0490874148663438
 10
7.207429754571676
 20
0.0337756835288582
 30
0.0
 41
1.0
 10
7.207429766854768
 20
0.0183058471443908
 30
0.0
 41
0.9238794417265652
 10
7.198276851968034
 20
0.0091529235721958
 30
0.0
 41
1.0
 10
7.189123937081299
 20
0.0
 30
0.0
 41
0.9238794417265086
 10
7.176179754571683
 20
0.0000000000000009
 30
0.0
 41
1.0
  0
SPLINE
  5
BC
330
1F
100
AcDbEntity
  8
5 star armless 2d
 62
     7
100
AcDbSpline
210
0.0
220
0.0
230
1.0
 70
    24
 71
     2
 72
     6
 73
     3
 74
     0
 42
0.0000000001
 43
0.0000000001
 40
-0.3437499999999991
 40
-0.3437499999999991
 40
-0.3437499999999991
 40
0.0
 40
0.0
 40
0.0
 10
7.176179754571683
 20
0.0000000000000009
 30
0.0
 10
7.004304754571684
 20
0.000000000000001
 30
0.0
 10
6.832429754571685
 20
0.0000000000000011
 30
0.0
  0
SPLINE
  5
BD
330
1F
100
AcDbEntity
  8
5 star armless 2d
 62
     7
100
AcDbSpline
210
0.0
220
0.0
230
1.0
 70
    12
 71
     2
 72
     6
 73
     3
 74
     0
 42
0.0000000001
 43
0.0000000001
 40
0.0
 40
0.0
 40
0.0
 40
0.1963495408493621
 40
0.1963495408493621
 40
0.1963495408493621
 10
6.832429754571685
 20
0.0000000000000011
 30
0.0
 41
1.0
 10
6.707429754571685
 20
0.0
 30
0.0
 41
0.7071067811865478
 10
6.707429754571685
 20
0.1250000000000011
 30
0.0
 41
1.0
  0
POLYLINE
  5
BE
330
1F
100
AcDbEntity
  8
5 star armless 2d
 62
     7
100
AcDb2dPolyline
 66
     1
 10
0.0
 20
0.0
 30
0.0
  0
VERTEX
  5
BF
330
BE
100
AcDbEntity
  8
5 star armless 2d
 62
     7
100
AcDbVertex
100
AcDb2dVertex
 10
7.223054754571683
 20
0.8425000000000009
 30
0.0
  0
VERTEX
  5
C0
330
BE
100
AcDbEntity
  8
5 star armless 2d
 62
     7
100
AcDbVertex
100
AcDb2dVertex
 10
7.941804754571683
 20
0.8425000000000009
 30
0.0
  0
VERTEX
  5
C1
330
BE
100
AcDbEntity
  8
5 star armless 2d
 62
     7
100
AcDbVertex
100
AcDb2dVertex
 10
7.941804754571683
 20
2.560000000000001
 30
0.0
  0
VERTEX
  5
C2
330
BE
100
AcDbEntity
  8
5 star armless 2d
 62
     7
100
AcDbVertex
100
AcDb2dVertex
 10
7.223054754571683
 20
2.560000000000001
 30
0.0
  0
VERTEX
  5
C3
330
BE
100
AcDbEntity
  8
5 star armless 2d
 62
     7
100
AcDbVertex
100
AcDb2dVertex
 10
7.223054754571683
 20
0.8425000000000009
 30
0.0
  0
SEQEND
  5
C4
330
BE
100
AcDbEntity
  8
5 star armless 2d
 62
     7
  0
SPLINE
  5
C5
330
1F
100
AcDbEntity
  8
5 star armless 2d
 62
     7
100
AcDbSpline
210
0.0
220
0.0
230
1.0
 70
    24
 71
     2
 72
     6
 73
     3
 74
     0
 42
0.0000000001
 43
0.0000000001
 40
0.0
 40
0.0
 40
0.0
 40
2.31
 40
2.31
 40
2.31
 10
8.457429754571681
 20
0.1250000000000011
 30
0.0
 10
8.457429754571681
 20
1.280000000000001
 30
0.0
 10
8.457429754571681
 20
2.435000000000001
 30
0.0
  0
SPLINE
  5
C6
330
1F
100
AcDbEntity
  8
5 star armless 2d
 62
     7
100
AcDbSpline
210
0.0
220
0.0
230
1.0
 70
    12
 71
     2
 72
     6
 73
     3
 74
     0
 42
0.0000000001
 43
0.0000000001
 40
0.0
 40
0.0
 40
0.0
 40
0.1963495408493616
 40
0.1963495408493616
 40
0.1963495408493616
 10
8.457429754571681
 20
2.435000000000001
 30
0.0
 41
1.0
 10
8.457429754571681
 20
2.56
 30
0.0
 41
0.7071067811865519
 10
8.332429754571681
 20
2.56
 30
0.0
 41
1.0
  0
SPLINE
  5
C7
330
1F
100
AcDbEntity
  8
5 star armless 2d
 62
     7
100
AcDbSpline
210
0.0
220
0.0
230
1.0
 70
    24
 71
     2
 72
     6
 73
     3
 74
     0
 42
0.0000000001
 43
0.0000000001
 40
-0.3437499999999991
 40
-0.3437499999999991
 40
-0.3437499999999991
 40
0.0
 40
0.0
 40
0.0
 10
8.332429754571681
 20
2.56
 30
0.0
 10
8.160554754571681
 20
2.560000000000001
 30
0.0
 10
7.988679754571683
 20
2.560000000000001
 30
0.0
  0
SPLINE
  5
C8
330
1F
100
AcDbEntity
  8
5 star armless 2d
 62
     7
100
AcDbSpline
210
0.0
220
0.0
230
1.0
 70
    12
 71
     2
 72
     8
 73
     5
 74
     0
 42
0.0000000001
 43
0.0000000001
 40
0.0
 40
0.0
 40
0.0
 40
0.0245437074331718
 40
0.0245437074331718
 40
0.0490874148663445
 40
0.0490874148663445
 40
0.0490874148663445
 10
7.988679754571683
 20
2.560000000000001
 30
0.0
 41
1.0
 10
7.975735572062066
 20
2.560000000000003
 30
0.0
 41
0.9238794417264912
 10
7.966582657175332
 20
2.550847076427806
 30
0.0
 41
1.0
 10
7.957429742288597
 20
2.541694152855611
 30
0.0
 41
0.9238794417265509
 10
7.95742975457169
 20
2.528749970346001
 30
0.0
 41
1.0
  0
SPLINE
  5
C9
330
1F
100
AcDbEntity
  8
5 star armless 2d
 62
     7
100
AcDbSpline
210
0.0
220
0.0
230
1.0
 70
    24
 71
     2
 72
     6
 73
     3
 74
     0
 42
0.0000000001
 43
0.0000000001
 40
0.0
 40
0.0
 40
0.0
 40
2.492448632942286
 40
2.492448632942286
 40
2.492448632942286
 10
7.95742975457169
 20
2.528749970346001
 30
0.0
 10
7.95742975457169
 20
1.28126282693743
 30
0.0
 10
7.95742975457169
 20
0.0337756835288582
 30
0.0
  0
SPLINE
  5
CA
330
1F
100
AcDbEntity
  8
5 star armless 2d
 62
     7
100
AcDbSpline
210
0.0
220
0.0
230
1.0
 70
    12
 71
     2
 72
     8
 73
     5
 74
     0
 42
0.0000000001
 43
0.0000000001
 40
0.0
 40
0.0
 40
0.0
 40
0.0245437074331721
 40
0.0245437074331721
 40
0.0490874148663438
 40
0.0490874148663438
 40
0.0490874148663438
 10
7.95742975457169
 20
0.0337756835288582
 30
0.0
 41
1.0
 10
7.957429742288598
 20
0.0183058471443908
 30
0.0
 41
0.9238794417265652
 10
7.966582657175332
 20
0.0091529235721958
 30
0.0
 41
1.0
 10
7.975735572062066
 20
0.0
 30
0.0
 41
0.9238794417265086
 10
7.988679754571683
 20
0.0000000000000009
 30
0.0
 41
1.0
  0
SPLINE
  5
CB
330
1F
100
AcDbEntity
  8
5 star armless 2d
 62
     7
100
AcDbSpline
210
0.0
220
0.0
230
1.0
 70
    24
 71
     2
 72
     6
 73
     3
 74
     0
 42
0.0000000001
 43
0.0000000001
 40
-0.3437499999999991
 40
-0.3437499999999991
 40
-0.3437499999999991
 40
0.0
 40
0.0
 40
0.0
 10
7.988679754571683
 20
0.0000000000000009
 30
0.0
 10
8.160554754571681
 20
0.000000000000001
 30
0.0
 10
8.332429754571681
 20
0.0000000000000011
 30
0.0
  0
SPLINE
  5
CC
330
1F
100
AcDbEntity
  8
5 star armless 2d
 62
     7
100
AcDbSpline
210
0.0
220
0.0
230
1.0
 70
    12
 71
     2
 72
     6
 73
     3
 74
     0
 42
0.0000000001
 43
0.0000000001
 40
0.0
 40
0.0
 40
0.0
 40
0.1963495408493621
 40
0.1963495408493621
 40
0.1963495408493621
 10
8.332429754571681
 20
0.0000000000000011
 30
0.0
 41
1.0
 10
8.457429754571681
 20
0.0
 30
0.0
 41
0.7071067811865478
 10
8.457429754571681
 20
0.1250000000000011
 30
0.0
 41
1.0
  0
SPLINE
  5
CD
330
1F
100
AcDbEntity
  8
5 star armless 2d
 62
     7
100
AcDbSpline
210
0.0
220
0.0
230
1.0
 70
    24
 71
     2
 72
     6
 73
     3
 74
     0
 42
0.0000000001
 43
0.0000000001
 40
0.0
 40
0.0
 40
0.0
 40
2.31
 40
2.31
 40
2.31
 10
-0.8749999999999947
 20
0.1250000000000011
 30
0.0
 10
-0.8749999999999947
 20
1.280000000000001
 30
0.0
 10
-0.8749999999999947
 20
2.435000000000001
 30
0.0
  0
SPLINE
  5
CE
330
1F
100
AcDbEntity
  8
5 star armless 2d
 62
     7
100
AcDbSpline
210
0.0
220
0.0
230
1.0
 70
    12
 71
     2
 72
     6
 73
     3
 74
     0
 42
0.0000000001
 43
0.0000000001
 40
0.0
 40
0.0
 40
0.0
 40
0.1963495408493616
 40
0.1963495408493616
 40
0.1963495408493616
 10
-0.8749999999999947
 20
2.435000000000001
 30
0.0
 41
1.0
 10
-0.8749999999999957
 20
2.56
 30
0.0
 41
0.7071067811865519
 10
-0.7499999999999947
 20
2.56
 30
0.0
 41
1.0
  0
SPLINE
  5
CF
330
1F
100
AcDbEntity
  8
5 star armless 2d
 62
     7
100
AcDbSpline
210
0.0
220
0.0
230
1.0
 70
    24
 71
     2
 72
     6
 73
     3
 74
     0
 42
0.0000000001
 43
0.0000000001
 40
-0.3437499999999991
 40
-0.3437499999999991
 40
-0.3437499999999991
 40
0.0
 40
0.0
 40
0.0
 10
-0.7499999999999947
 20
2.56
 30
0.0
 10
-0.5781249999999956
 20
2.560000000000001
 30
0.0
 10
-0.4062499999999964
 20
2.560000000000001
 30
0.0
  0
SPLINE
  5
D0
330
1F
100
AcDbEntity
  8
5 star armless 2d
 62
     7
100
AcDbSpline
210
0.0
220
0.0
230
1.0
 70
    12
 71
     2
 72
     8
 73
     5
 74
     0
 42
0.0000000001
 43
0.0000000001
 40
0.0
 40
0.0
 40
0.0
 40
0.0245437074331718
 40
0.0245437074331718
 40
0.0490874148663445
 40
0.0490874148663445
 40
0.0490874148663445
 10
-0.4062499999999964
 20
2.560000000000001
 30
0.0
 41
1.0
 10
-0.393305817490379
 20
2.560000000000003
 30
0.0
 41
0.9238794417264912
 10
-0.3841529026036454
 20
2.550847076427806
 30
0.0
 41
1.0
 10
-0.3749999877169095
 20
2.541694152855611
 30
0.0
 41
0.9238794417265509
 10
-0.3750000000000036
 20
2.528749970346001
 30
0.0
 41
1.0
  0
SPLINE
  5
D1
330
1F
100
AcDbEntity
  8
5 star armless 2d
 62
     7
100
AcDbSpline
210
0.0
220
0.0
230
1.0
 70
    24
 71
     2
 72
     6
 73
     3
 74
     0
 42
0.0000000001
 43
0.0000000001
 40
0.0
 40
0.0
 40
0.0
 40
2.492448632942286
 40
2.492448632942286
 40
2.492448632942286
 10
-0.3750000000000036
 20
2.528749970346001
 30
0.0
 10
-0.3750000000000036
 20
1.28126282693743
 30
0.0
 10
-0.3750000000000036
 20
0.0337756835288582
 30
0.0
  0
SPLINE
  5
D2
330
1F
100
AcDbEntity
  8
5 star armless 2d
 62
     7
100
AcDbSpline
210
0.0
220
0.0
230
1.0
 70
    12
 71
     2
 72
     8
 73
     5
 74
     0
 42
0.0000000001
 43
0.0000000001
 40
0.0
 40
0.0
 40
0.0
 40
0.0245437074331721
 40
0.0245437074331721
 40
0.0490874148663438
 40
0.0490874148663438
 40
0.0490874148663438
 10
-0.3750000000000036
 20
0.0337756835288582
 30
0.0
 41
1.0
 10
-0.3749999877169115
 20
0.0183058471443908
 30
0.0
 41
0.9238794417265652
 10
-0.3841529026036454
 20
0.0091529235721958
 30
0.0
 41
1.0
 10
-0.3933058174903805
 20
0.0
 30
0.0
 41
0.9238794417265086
 10
-0.4062499999999964
 20
0.0000000000000009
 30
0.0
 41
1.0
  0
SPLINE
  5
D3
330
1F
100
AcDbEntity
  8
5 star armless 2d
 62
     7
100
AcDbSpline
210
0.0
220
0.0
230
1.0
 70
    24
 71
     2
 72
     6
 73
     3
 74
     0
 42
0.0000000001
 43
0.0000000001
 40
-0.3437499999999991
 40
-0.3437499999999991
 40
-0.3437499999999991
 40
0.0
 40
0.0
 40
0.0
 10
-0.4062499999999964
 20
0.0000000000000009
 30
0.0
 10
-0.5781249999999956
 20
0.000000000000001
 30
0.0
 10
-0.7499999999999947
 20
0.0000000000000011
 30
0.0
  0
SPLINE
  5
D4
330
1F
100
AcDbEntity
  8
5 star armless 2d
 62
     7
100
AcDbSpline
210
0.0
220
0.0
230
1.0
 70
    12
 71
     2
 72
     6
 73
     3
 74
     0
 42
0.0000000001
 43
0.0000000001
 40
0.0
 40
0.0
 40
0.0
 40
0.1963495408493621
 40
0.1963495408493621
 40
0.1963495408493621
 10
-0.7499999999999947
 20
0.0000000000000011
 30
0.0
 41
1.0
 10
-0.8749999999999941
 20
0.0
 30
0.0
 41
0.7071067811865478
 10
-0.8749999999999947
 20
0.1250000000000011
 30
0.0
 41
1.0
  0
POLYLINE
  5
D5
330
1F
100
AcDbEntity
  8
5 star armless 2d
 62
     7
100
AcDb2dPolyline
 66
     1
 10
0.0
 20
0.0
 30
0.0
  0
VERTEX
  5
D6
330
D5
100
AcDbEntity
  8
5 star armless 2d
 62
     7
100
AcDbVertex
100
AcDb2dVertex
 10
-0.3593749999999964
 20
0.8425000000000009
 30
0.0
  0
VERTEX
  5
D7
330
D5
100
AcDbEntity
  8
5 star armless 2d
 62
     7
100
AcDbVertex
100
AcDb2dVertex
 10
0.3593750000000036
 20
0.8425000000000009
 30
0.0
  0
VERTEX
  5
D8
330
D5
100
AcDbEntity
  8
5 star armless 2d
 62
     7
100
AcDbVertex
100
AcDb2dVertex
 10
0.3593750000000036
 20
2.560000000000001
 30
0.0
  0
VERTEX
  5
D9
330
D5
100
AcDbEntity
  8
5 star armless 2d
 62
     7
100
AcDbVertex
100
AcDb2dVertex
 10
-0.3593749999999964
 20
2.560000000000001
 30
0.0
  0
VERTEX
  5
DA
330
D5
100
AcDbEntity
  8
5 star armless 2d
 62
     7
100
AcDbVertex
100
AcDb2dVertex
 10
-0.3593749999999964
 20
0.8425000000000009
 30
0.0
  0
SEQEND
  5
DB
330
D5
100
AcDbEntity
  8
5 star armless 2d
 62
     7
  0
SPLINE
  5
DC
330
1F
100
AcDbEntity
  8
5 star armless 2d
 62
     7
100
AcDbSpline
210
0.0
220
0.0
230
1.0
 70
    24
 71
     2
 72
     6
 73
     3
 74
     0
 42
0.0000000001
 43
0.0000000001
 40
0.0
 40
0.0
 40
0.0
 40
2.31
 40
2.31
 40
2.31
 10
0.8750000000000018
 20
0.1250000000000011
 30
0.0
 10
0.8750000000000018
 20
1.280000000000001
 30
0.0
 10
0.8750000000000018
 20
2.435000000000001
 30
0.0
  0
SPLINE
  5
DD
330
1F
100
AcDbEntity
  8
5 star armless 2d
 62
     7
100
AcDbSpline
210
0.0
220
0.0
230
1.0
 70
    12
 71
     2
 72
     6
 73
     3
 74
     0
 42
0.0000000001
 43
0.0000000001
 40
0.0
 40
0.0
 40
0.0
 40
0.1963495408493616
 40
0.1963495408493616
 40
0.1963495408493616
 10
0.8750000000000018
 20
2.435000000000001
 30
0.0
 41
1.0
 10
0.8750000000000026
 20
2.56
 30
0.0
 41
0.7071067811865519
 10
0.7500000000000018
 20
2.56
 30
0.0
 41
1.0
  0
SPLINE
  5
DE
330
1F
100
AcDbEntity
  8
5 star armless 2d
 62
     7
100
AcDbSpline
210
0.0
220
0.0
230
1.0
 70
    24
 71
     2
 72
     6
 73
     3
 74
     0
 42
0.0000000001
 43
0.0000000001
 40
-0.3437499999999991
 40
-0.3437499999999991
 40
-0.3437499999999991
 40
0.0
 40
0.0
 40
0.0
 10
0.7500000000000018
 20
2.56
 30
0.0
 10
0.5781250000000027
 20
2.560000000000001
 30
0.0
 10
0.4062500000000036
 20
2.560000000000001
 30
0.0
  0
SPLINE
  5
DF
330
1F
100
AcDbEntity
  8
5 star armless 2d
 62
     7
100
AcDbSpline
210
0.0
220
0.0
230
1.0
 70
    12
 71
     2
 72
     8
 73
     5
 74
     0
 42
0.0000000001
 43
0.0000000001
 40
0.0
 40
0.0
 40
0.0
 40
0.0245437074331718
 40
0.0245437074331718
 40
0.0490874148663445
 40
0.0490874148663445
 40
0.0490874148663445
 10
0.4062500000000036
 20
2.560000000000001
 30
0.0
 41
1.0
 10
0.3933058174903861
 20
2.560000000000003
 30
0.0
 41
0.9238794417264912
 10
0.3841529026036525
 20
2.550847076427806
 30
0.0
 41
1.0
 10
0.3749999877169167
 20
2.541694152855611
 30
0.0
 41
0.9238794417265509
 10
0.3750000000000107
 20
2.528749970346001
 30
0.0
 41
1.0
  0
SPLINE
  5
E0
330
1F
100
AcDbEntity
  8
5 star armless 2d
 62
     7
100
AcDbSpline
210
0.0
220
0.0
230
1.0
 70
    24
 71
     2
 72
     6
 73
     3
 74
     0
 42
0.0000000001
 43
0.0000000001
 40
0.0
 40
0.0
 40
0.0
 40
2.492448632942286
 40
2.492448632942286
 40
2.492448632942286
 10
0.3750000000000107
 20
2.528749970346001
 30
0.0
 10
0.3750000000000107
 20
1.28126282693743
 30
0.0
 10
0.3750000000000107
 20
0.0337756835288582
 30
0.0
  0
SPLINE
  5
E1
330
1F
100
AcDbEntity
  8
5 star armless 2d
 62
     7
100
AcDbSpline
210
0.0
220
0.0
230
1.0
 70
    12
 71
     2
 72
     8
 73
     5
 74
     0
 42
0.0000000001
 43
0.0000000001
 40
0.0
 40
0.0
 40
0.0
 40
0.0245437074331721
 40
0.0245437074331721
 40
0.0490874148663438
 40
0.0490874148663438
 40
0.0490874148663438
 10
0.3750000000000107
 20
0.0337756835288582
 30
0.0
 41
1.0
 10
0.3749999877169184
 20
0.0183058471443908
 30
0.0
 41
0.9238794417265652
 10
0.3841529026036525
 20
0.0091529235721958
 30
0.0
 41
1.0
 10
0.3933058174903872
 20
0.0
 30
0.0
 41
0.9238794417265086
 10
0.4062500000000036
 20
0.0000000000000009
 30
0.0
 41
1.0
  0
SPLINE
  5
E2
330
1F
100
AcDbEntity
  8
5 star armless 2d
 62
     7
100
AcDbSpline
210
0.0
220
0.0
230
1.0
 70
    24
 71
     2
 72
     6
 73
     3
 74
     0
 42
0.0000000001
 43
0.0000000001
 40
-0.3437499999999991
 40
-0.3437499999999991
 40
-0.3437499999999991
 40
0.0
 40
0.0
 40
0.0
 10
0.4062500000000036
 20
0.0000000000000009
 30
0.0
 10
0.5781250000000027
 20
0.000000000000001
 30
0.0
 10
0.7500000000000018
 20
0.0000000000000011
 30
0.0
  0
SPLINE
  5
E3
330
1F
100
AcDbEntity
  8
5 star armless 2d
 62
     7
100
AcDbSpline
210
0.0
220
0.0
230
1.0
 70
    12
 71
     2
 72
     6
 73
     3
 74
     0
 42
0.0000000001
 43
0.0000000001
 40
0.0
 40
0.0
 40
0.0
 40
0.1963495408493621
 40
0.1963495408493621
 40
0.1963495408493621
 10
0.7500000000000018
 20
0.0000000000000011
 30
0.0
 41
1.0
 10
0.8750000000000017
 20
0.0
 30
0.0
 41
0.7071067811865478
 10
0.8750000000000018
 20
0.1250000000000011
 30
0.0
 41
1.0
  0
SPLINE
  5
E4
330
1F
100
AcDbEntity
  8
5 star armless 2d
 62
     7
100
AcDbSpline
210
0.0
220
0.0
230
1.0
 70
    24
 71
     2
 72
     6
 73
     3
 74
     0
 42
0.0000000001
 43
0.0000000001
 40
0.0
 40
0.0
 40
0.0
 40
2.31
 40
2.31
 40
2.31
 10
-8.45742975457167
 20
0.1250000000000011
 30
0.0
 10
-8.45742975457167
 20
1.280000000000001
 30
0.0
 10
-8.45742975457167
 20
2.435000000000001
 30
0.0
  0
SPLINE
  5
E5
330
1F
100
AcDbEntity
  8
5 star armless 2d
 62
     7
100
AcDbSpline
210
0.0
220
0.0
230
1.0
 70
    12
 71
     2
 72
     6
 73
     3
 74
     0
 42
0.0000000001
 43
0.0000000001
 40
0.0
 40
0.0
 40
0.0
 40
0.1963495408493616
 40
0.1963495408493616
 40
0.1963495408493616
 10
-8.45742975457167
 20
2.435000000000001
 30
0.0
 41
1.0
 10
-8.457429754571672
 20
2.56
 30
0.0
 41
0.7071067811865519
 10
-8.33242975457167
 20
2.56
 30
0.0
 41
1.0
  0
SPLINE
  5
E6
330
1F
100
AcDbEntity
  8
5 star armless 2d
 62
     7
100
AcDbSpline
210
0.0
220
0.0
230
1.0
 70
    24
 71
     2
 72
     6
 73
     3
 74
     0
 42
0.0000000001
 43
0.0000000001
 40
-0.3437499999999991
 40
-0.3437499999999991
 40
-0.3437499999999991
 40
0.0
 40
0.0
 40
0.0
 10
-8.33242975457167
 20
2.56
 30
0.0
 10
-8.160554754571672
 20
2.560000000000001
 30
0.0
 10
-7.988679754571673
 20
2.560000000000001
 30
0.0
  0
SPLINE
  5
E7
330
1F
100
AcDbEntity
  8
5 star armless 2d
 62
     7
100
AcDbSpline
210
0.0
220
0.0
230
1.0
 70
    12
 71
     2
 72
     8
 73
     5
 74
     0
 42
0.0000000001
 43
0.0000000001
 40
0.0
 40
0.0
 40
0.0
 40
0.0245437074331718
 40
0.0245437074331718
 40
0.0490874148663445
 40
0.0490874148663445
 40
0.0490874148663445
 10
-7.988679754571673
 20
2.560000000000001
 30
0.0
 41
1.0
 10
-7.975735572062056
 20
2.560000000000003
 30
0.0
 41
0.9238794417264912
 10
-7.966582657175322
 20
2.550847076427806
 30
0.0
 41
1.0
 10
-7.957429742288586
 20
2.541694152855611
 30
0.0
 41
0.9238794417265509
 10
-7.95742975457168
 20
2.528749970346001
 30
0.0
 41
1.0
  0
SPLINE
  5
E8
330
1F
100
AcDbEntity
  8
5 star armless 2d
 62
     7
100
AcDbSpline
210
0.0
220
0.0
230
1.0
 70
    24
 71
     2
 72
     6
 73
     3
 74
     0
 42
0.0000000001
 43
0.0000000001
 40
0.0
 40
0.0
 40
0.0
 40
2.492448632942286
 40
2.492448632942286
 40
2.492448632942286
 10
-7.95742975457168
 20
2.528749970346001
 30
0.0
 10
-7.95742975457168
 20
1.28126282693743
 30
0.0
 10
-7.95742975457168
 20
0.0337756835288582
 30
0.0
  0
SPLINE
  5
E9
330
1F
100
AcDbEntity
  8
5 star armless 2d
 62
     7
100
AcDbSpline
210
0.0
220
0.0
230
1.0
 70
    12
 71
     2
 72
     8
 73
     5
 74
     0
 42
0.0000000001
 43
0.0000000001
 40
0.0
 40
0.0
 40
0.0
 40
0.0245437074331721
 40
0.0245437074331721
 40
0.0490874148663438
 40
0.0490874148663438
 40
0.0490874148663438
 10
-7.95742975457168
 20
0.0337756835288582
 30
0.0
 41
1.0
 10
-7.957429742288588
 20
0.0183058471443908
 30
0.0
 41
0.9238794417265652
 10
-7.966582657175322
 20
0.0091529235721958
 30
0.0
 41
1.0
 10
-7.975735572062057
 20
0.0
 30
0.0
 41
0.9238794417265086
 10
-7.988679754571673
 20
0.0000000000000009
 30
0.0
 41
1.0
  0
SPLINE
  5
EA
330
1F
100
AcDbEntity
  8
5 star armless 2d
 62
     7
100
AcDbSpline
210
0.0
220
0.0
230
1.0
 70
    24
 71
     2
 72
     6
 73
     3
 74
     0
 42
0.0000000001
 43
0.0000000001
 40
-0.3437499999999991
 40
-0.3437499999999991
 40
-0.3437499999999991
 40
0.0
 40
0.0
 40
0.0
 10
-7.988679754571673
 20
0.0000000000000009
 30
0.0
 10
-8.160554754571672
 20
0.000000000000001
 30
0.0
 10
-8.33242975457167
 20
0.0000000000000011
 30
0.0
  0
SPLINE
  5
EB
330
1F
100
AcDbEntity
  8
5 star armless 2d
 62
     7
100
AcDbSpline
210
0.0
220
0.0
230
1.0
 70
    12
 71
     2
 72
     6
 73
     3
 74
     0
 42
0.0000000001
 43
0.0000000001
 40
0.0
 40
0.0
 40
0.0
 40
0.1963495408493621
 40
0.1963495408493621
 40
0.1963495408493621
 10
-8.33242975457167
 20
0.0000000000000011
 30
0.0
 41
1.0
 10
-8.45742975457167
 20
0.0
 30
0.0
 41
0.7071067811865478
 10
-8.45742975457167
 20
0.1250000000000011
 30
0.0
 41
1.0
  0
POLYLINE
  5
EC
330
1F
100
AcDbEntity
  8
5 star armless 2d
 62
     7
100
AcDb2dPolyline
 66
     1
 10
0.0
 20
0.0
 30
0.0
  0
VERTEX
  5
ED
330
EC
100
AcDbEntity
  8
5 star armless 2d
 62
     7
100
AcDbVertex
100
AcDb2dVertex
 10
-7.941804754571673
 20
0.8425000000000009
 30
0.0
  0
VERTEX
  5
EE
330
EC
100
AcDbEntity
  8
5 star armless 2d
 62
     7
100
AcDbVertex
100
AcDb2dVertex
 10
-7.223054754571673
 20
0.8425000000000009
 30
0.0
  0
VERTEX
  5
EF
330
EC
100
AcDbEntity
  8
5 star armless 2d
 62
     7
100
AcDbVertex
100
AcDb2dVertex
 10
-7.223054754571673
 20
2.560000000000001
 30
0.0
  0
VERTEX
  5
F0
330
EC
100
AcDbEntity
  8
5 star armless 2d
 62
     7
100
AcDbVertex
100
AcDb2dVertex
 10
-7.941804754571673
 20
2.560000000000001
 30
0.0
  0
VERTEX
  5
F1
330
EC
100
AcDbEntity
  8
5 star armless 2d
 62
     7
100
AcDbVertex
100
AcDb2dVertex
 10
-7.941804754571673
 20
0.8425000000000009
 30
0.0
  0
SEQEND
  5
F2
330
EC
100
AcDbEntity
  8
5 star armless 2d
 62
     7
  0
SPLINE
  5
F3
330
1F
100
AcDbEntity
  8
5 star armless 2d
 62
     7
100
AcDbSpline
210
0.0
220
0.0
230
1.0
 70
    24
 71
     2
 72
     6
 73
     3
 74
     0
 42
0.0000000001
 43
0.0000000001
 40
0.0
 40
0.0
 40
0.0
 40
2.31
 40
2.31
 40
2.31
 10
-6.707429754571675
 20
0.1250000000000011
 30
0.0
 10
-6.707429754571675
 20
1.280000000000001
 30
0.0
 10
-6.707429754571675
 20
2.435000000000001
 30
0.0
  0
SPLINE
  5
F4
330
1F
100
AcDbEntity
  8
5 star armless 2d
 62
     7
100
AcDbSpline
210
0.0
220
0.0
230
1.0
 70
    12
 71
     2
 72
     6
 73
     3
 74
     0
 42
0.0000000001
 43
0.0000000001
 40
0.0
 40
0.0
 40
0.0
 40
0.1963495408493616
 40
0.1963495408493616
 40
0.1963495408493616
 10
-6.707429754571675
 20
2.435000000000001
 30
0.0
 41
1.0
 10
-6.707429754571674
 20
2.56
 30
0.0
 41
0.7071067811865519
 10
-6.832429754571675
 20
2.56
 30
0.0
 41
1.0
  0
SPLINE
  5
F5
330
1F
100
AcDbEntity
  8
5 star armless 2d
 62
     7
100
AcDbSpline
210
0.0
220
0.0
230
1.0
 70
    24
 71
     2
 72
     6
 73
     3
 74
     0
 42
0.0000000001
 43
0.0000000001
 40
-0.3437499999999991
 40
-0.3437499999999991
 40
-0.3437499999999991
 40
0.0
 40
0.0
 40
0.0
 10
-6.832429754571675
 20
2.56
 30
0.0
 10
-7.004304754571674
 20
2.560000000000001
 30
0.0
 10
-7.176179754571673
 20
2.560000000000001
 30
0.0
  0
SPLINE
  5
F6
330
1F
100
AcDbEntity
  8
5 star armless 2d
 62
     7
100
AcDbSpline
210
0.0
220
0.0
230
1.0
 70
    12
 71
     2
 72
     8
 73
     5
 74
     0
 42
0.0000000001
 43
0.0000000001
 40
0.0
 40
0.0
 40
0.0
 40
0.0245437074331718
 40
0.0245437074331718
 40
0.0490874148663445
 40
0.0490874148663445
 40
0.0490874148663445
 10
-7.176179754571673
 20
2.560000000000001
 30
0.0
 41
1.0
 10
-7.18912393708129
 20
2.560000000000003
 30
0.0
 41
0.9238794417264912
 10
-7.198276851968024
 20
2.550847076427806
 30
0.0
 41
1.0
 10
-7.20742976685476
 20
2.541694152855611
 30
0.0
 41
0.9238794417265509
 10
-7.207429754571666
 20
2.528749970346001
 30
0.0
 41
1.0
  0
SPLINE
  5
F7
330
1F
100
AcDbEntity
  8
5 star armless 2d
 62
     7
100
AcDbSpline
210
0.0
220
0.0
230
1.0
 70
    24
 71
     2
 72
     6
 73
     3
 74
     0
 42
0.0000000001
 43
0.0000000001
 40
0.0
 40
0.0
 40
0.0
 40
2.492448632942286
 40
2.492448632942286
 40
2.492448632942286
 10
-7.207429754571666
 20
2.528749970346001
 30
0.0
 10
-7.207429754571666
 20
1.28126282693743
 30
0.0
 10
-7.207429754571666
 20
0.0337756835288582
 30
0.0
  0
SPLINE
  5
F8
330
1F
100
AcDbEntity
  8
5 star armless 2d
 62
     7
100
AcDbSpline
210
0.0
220
0.0
230
1.0
 70
    12
 71
     2
 72
     8
 73
     5
 74
     0
 42
0.0000000001
 43
0.0000000001
 40
0.0
 40
0.0
 40
0.0
 40
0.0245437074331721
 40
0.0245437074331721
 40
0.0490874148663438
 40
0.0490874148663438
 40
0.0490874148663438
 10
-7.207429754571666
 20
0.0337756835288582
 30
0.0
 41
1.0
 10
-7.207429766854759
 20
0.0183058471443908
 30
0.0
 41
0.9238794417265652
 10
-7.198276851968024
 20
0.0091529235721958
 30
0.0
 41
1.0
 10
-7.189123937081289
 20
0.0
 30
0.0
 41
0.9238794417265086
 10
-7.176179754571673
 20
0.0000000000000009
 30
0.0
 41
1.0
  0
SPLINE
  5
F9
330
1F
100
AcDbEntity
  8
5 star armless 2d
 62
     7
100
AcDbSpline
210
0.0
220
0.0
230
1.0
 70
    24
 71
     2
 72
     6
 73
     3
 74
     0
 42
0.0000000001
 43
0.0000000001
 40
-0.3437499999999991
 40
-0.3437499999999991
 40
-0.3437499999999991
 40
0.0
 40
0.0
 40
0.0
 10
-7.176179754571673
 20
0.0000000000000009
 30
0.0
 10
-7.004304754571674
 20
0.000000000000001
 30
0.0
 10
-6.832429754571675
 20
0.0000000000000011
 30
0.0
  0
SPLINE
  5
FA
330
1F
100
AcDbEntity
  8
5 star armless 2d
 62
     7
100
AcDbSpline
210
0.0
220
0.0
230
1.0
 70
    12
 71
     2
 72
     6
 73
     3
 74
     0
 42
0.0000000001
 43
0.0000000001
 40
0.0
 40
0.0
 40
0.0
 40
0.1963495408493621
 40
0.1963495408493621
 40
0.1963495408493621
 10
-6.832429754571675
 20
0.0000000000000011
 30
0.0
 41
1.0
 10
-6.707429754571675
 20
0.0
 30
0.0
 41
0.7071067811865478
 10
-6.707429754571675
 20
0.1250000000000011
 30
0.0
 41
1.0
  0
SPLINE
  5
FB
330
1F
100
AcDbEntity
  8
5 star armless 2d
 62
     7
100
AcDbSpline
210
0.0
220
0.0
230
1.0
 70
    24
 71
     2
 72
     6
 73
     3
 74
     0
 42
0.0000000001
 43
0.0000000001
 40
0.0
 40
0.0
 40
0.0
 40
2.31
 40
2.31
 40
2.31
 10
-13.14362906020549
 20
0.1250000000000011
 30
0.0
 10
-13.14362906020549
 20
1.280000000000001
 30
0.0
 10
-13.14362906020549
 20
2.435000000000001
 30
0.0
  0
SPLINE
  5
FC
330
1F
100
AcDbEntity
  8
5 star armless 2d
 62
     7
100
AcDbSpline
210
0.0
220
0.0
230
1.0
 70
    12
 71
     2
 72
     6
 73
     3
 74
     0
 42
0.0000000001
 43
0.0000000001
 40
0.0
 40
0.0
 40
0.0
 40
0.1963495408493616
 40
0.1963495408493616
 40
0.1963495408493616
 10
-13.14362906020549
 20
2.435000000000001
 30
0.0
 41
1.0
 10
-13.14362906020549
 20
2.56
 30
0.0
 41
0.7071067811865519
 10
-13.01862906020549
 20
2.56
 30
0.0
 41
1.0
  0
SPLINE
  5
FD
330
1F
100
AcDbEntity
  8
5 star armless 2d
 62
     7
100
AcDbSpline
210
0.0
220
0.0
230
1.0
 70
    24
 71
     2
 72
     6
 73
     3
 74
     0
 42
0.0000000001
 43
0.0000000001
 40
-0.3437499999999991
 40
-0.3437499999999991
 40
-0.3437499999999991
 40
0.0
 40
0.0
 40
0.0
 10
-13.01862906020549
 20
2.56
 30
0.0
 10
-12.84675406020549
 20
2.560000000000001
 30
0.0
 10
-12.67487906020549
 20
2.560000000000001
 30
0.0
  0
SPLINE
  5
FE
330
1F
100
AcDbEntity
  8
5 star armless 2d
 62
     7
100
AcDbSpline
210
0.0
220
0.0
230
1.0
 70
    12
 71
     2
 72
     8
 73
     5
 74
     0
 42
0.0000000001
 43
0.0000000001
 40
0.0
 40
0.0
 40
0.0
 40
0.0245437074331718
 40
0.0245437074331718
 40
0.0490874148663445
 40
0.0490874148663445
 40
0.0490874148663445
 10
-12.67487906020549
 20
2.560000000000001
 30
0.0
 41
1.0
 10
-12.66193487769588
 20
2.560000000000003
 30
0.0
 41
0.9238794417264912
 10
-12.65278196280914
 20
2.550847076427806
 30
0.0
 41
1.0
 10
-12.64362904792241
 20
2.541694152855611
 30
0.0
 41
0.9238794417265509
 10
-12.6436290602055
 20
2.528749970346001
 30
0.0
 41
1.0
  0
SPLINE
  5
FF
330
1F
100
AcDbEntity
  8
5 star armless 2d
 62
     7
100
AcDbSpline
210
0.0
220
0.0
230
1.0
 70
    24
 71
     2
 72
     6
 73
     3
 74
     0
 42
0.0000000001
 43
0.0000000001
 40
0.0
 40
0.0
 40
0.0
 40
2.492448632942286
 40
2.492448632942286
 40
2.492448632942286
 10
-12.6436290602055
 20
2.528749970346001
 30
0.0
 10
-12.6436290602055
 20
1.28126282693743
 30
0.0
 10
-12.6436290602055
 20
0.0337756835288582
 30
0.0
  0
SPLINE
  5
100
330
1F
100
AcDbEntity
  8
5 star armless 2d
 62
     7
100
AcDbSpline
210
0.0
220
0.0
230
1.0
 70
    12
 71
     2
 72
     8
 73
     5
 74
     0
 42
0.0000000001
 43
0.0000000001
 40
0.0
 40
0.0
 40
0.0
 40
0.0245437074331721
 40
0.0245437074331721
 40
0.0490874148663438
 40
0.0490874148663438
 40
0.0490874148663438
 10
-12.6436290602055
 20
0.0337756835288582
 30
0.0
 41
1.0
 10
-12.64362904792241
 20
0.0183058471443908
 30
0.0
 41
0.9238794417265652
 10
-12.65278196280914
 20
0.0091529235721958
 30
0.0
 41
1.0
 10
-12.66193487769588
 20
0.0
 30
0.0
 41
0.9238794417265086
 10
-12.67487906020549
 20
0.0000000000000009
 30
0.0
 41
1.0
  0
SPLINE
  5
101
330
1F
100
AcDbEntity
  8
5 star armless 2d
 62
     7
100
AcDbSpline
210
0.0
220
0.0
230
1.0
 70
    24
 71
     2
 72
     6
 73
     3
 74
     0
 42
0.0000000001
 43
0.0000000001
 40
-0.3437499999999991
 40
-0.3437499999999991
 40
-0.3437499999999991
 40
0.0
 40
0.0
 40
0.0
 10
-12.67487906020549
 20
0.0000000000000009
 30
0.0
 10
-12.84675406020549
 20
0.000000000000001
 30
0.0
 10
-13.01862906020549
 20
0.0000000000000011
 30
0.0
  0
SPLINE
  5
102
330
1F
100
AcDbEntity
  8
5 star armless 2d
 62
     7
100
AcDbSpline
210
0.0
220
0.0
230
1.0
 70
    12
 71
     2
 72
     6
 73
     3
 74
     0
 42
0.0000000001
 43
0.0000000001
 40
0.0
 40
0.0
 40
0.0
 40
0.1963495408493621
 40
0.1963495408493621
 40
0.1963495408493621
 10
-13.01862906020549
 20
0.0000000000000011
 30
0.0
 41
1.0
 10
-13.14362906020549
 20
0.0
 30
0.0
 41
0.7071067811865478
 10
-13.14362906020549
 20
0.1250000000000011
 30
0.0
 41
1.0
  0
POLYLINE
  5
103
330
1F
100
AcDbEntity
  8
5 star armless 2d
 62
     7
100
AcDb2dPolyline
 66
     1
 10
0.0
 20
0.0
 30
0.0
  0
VERTEX
  5
104
330
103
100
AcDbEntity
  8
5 star armless 2d
 62
     7
100
AcDbVertex
100
AcDb2dVertex
 10
-12.62800406020549
 20
0.8425000000000009
 30
0.0
  0
VERTEX
  5
105
330
103
100
AcDbEntity
  8
5 star armless 2d
 62
     7
100
AcDbVertex
100
AcDb2dVertex
 10
-11.90925406020549
 20
0.8425000000000009
 30
0.0
  0
VERTEX
  5
106
330
103
100
AcDbEntity
  8
5 star armless 2d
 62
     7
100
AcDbVertex
100
AcDb2dVertex
 10
-11.90925406020549
 20
2.560000000000001
 30
0.0
  0
VERTEX
  5
107
330
103
100
AcDbEntity
  8
5 star armless 2d
 62
     7
100
AcDbVertex
100
AcDb2dVertex
 10
-12.62800406020549
 20
2.560000000000001
 30
0.0
  0
VERTEX
  5
108
330
103
100
AcDbEntity
  8
5 star armless 2d
 62
     7
100
AcDbVertex
100
AcDb2dVertex
 10
-12.62800406020549
 20
0.8425000000000009
 30
0.0
  0
SEQEND
  5
109
330
103
100
AcDbEntity
  8
5 star armless 2d
 62
     7
  0
SPLINE
  5
10A
330
1F
100
AcDbEntity
  8
5 star armless 2d
 62
     7
100
AcDbSpline
210
0.0
220
0.0
230
1.0
 70
    24
 71
     2
 72
     6
 73
     3
 74
     0
 42
0.0000000001
 43
0.0000000001
 40
0.0
 40
0.0
 40
0.0
 40
2.31
 40
2.31
 40
2.31
 10
-11.39362906020549
 20
0.1250000000000011
 30
0.0
 10
-11.39362906020549
 20
1.280000000000001
 30
0.0
 10
-11.39362906020549
 20
2.435000000000001
 30
0.0
  0
SPLINE
  5
10B
330
1F
100
AcDbEntity
  8
5 star armless 2d
 62
     7
100
AcDbSpline
210
0.0
220
0.0
230
1.0
 70
    12
 71
     2
 72
     6
 73
     3
 74
     0
 42
0.0000000001
 43
0.0000000001
 40
0.0
 40
0.0
 40
0.0
 40
0.1963495408493616
 40
0.1963495408493616
 40
0.1963495408493616
 10
-11.39362906020549
 20
2.435000000000001
 30
0.0
 41
1.0
 10
-11.39362906020549
 20
2.56
 30
0.0
 41
0.7071067811865519
 10
-11.51862906020549
 20
2.56
 30
0.0
 41
1.0
  0
SPLINE
  5
10C
330
1F
100
AcDbEntity
  8
5 star armless 2d
 62
     7
100
AcDbSpline
210
0.0
220
0.0
230
1.0
 70
    24
 71
     2
 72
     6
 73
     3
 74
     0
 42
0.0000000001
 43
0.0000000001
 40
-0.3437499999999991
 40
-0.3437499999999991
 40
-0.3437499999999991
 40
0.0
 40
0.0
 40
0.0
 10
-11.51862906020549
 20
2.56
 30
0.0
 10
-11.69050406020549
 20
2.560000000000001
 30
0.0
 10
-11.86237906020549
 20
2.560000000000001
 30
0.0
  0
SPLINE
  5
10D
330
1F
100
AcDbEntity
  8
5 star armless 2d
 62
     7
100
AcDbSpline
210
0.0
220
0.0
230
1.0
 70
    12
 71
     2
 72
     8
 73
     5
 74
     0
 42
0.0000000001
 43
0.0000000001
 40
0.0
 40
0.0
 40
0.0
 40
0.0245437074331718
 40
0.0245437074331718
 40
0.0490874148663445
 40
0.0490874148663445
 40
0.0490874148663445
 10
-11.86237906020549
 20
2.560000000000001
 30
0.0
 41
1.0
 10
-11.87532324271511
 20
2.560000000000003
 30
0.0
 41
0.9238794417264912
 10
-11.88447615760184
 20
2.550847076427806
 30
0.0
 41
1.0
 10
-11.89362907248858
 20
2.541694152855611
 30
0.0
 41
0.9238794417265509
 10
-11.89362906020549
 20
2.528749970346001
 30
0.0
 41
1.0
  0
SPLINE
  5
10E
330
1F
100
AcDbEntity
  8
5 star armless 2d
 62
     7
100
AcDbSpline
210
0.0
220
0.0
230
1.0
 70
    24
 71
     2
 72
     6
 73
     3
 74
     0
 42
0.0000000001
 43
0.0000000001
 40
0.0
 40
0.0
 40
0.0
 40
2.492448632942286
 40
2.492448632942286
 40
2.492448632942286
 10
-11.89362906020549
 20
2.528749970346001
 30
0.0
 10
-11.89362906020549
 20
1.28126282693743
 30
0.0
 10
-11.89362906020549
 20
0.0337756835288582
 30
0.0
  0
SPLINE
  5
10F
330
1F
100
AcDbEntity
  8
5 star armless 2d
 62
     7
100
AcDbSpline
210
0.0
220
0.0
230
1.0
 70
    12
 71
     2
 72
     8
 73
     5
 74
     0
 42
0.0000000001
 43
0.0000000001
 40
0.0
 40
0.0
 40
0.0
 40
0.0245437074331721
 40
0.0245437074331721
 40
0.0490874148663438
 40
0.0490874148663438
 40
0.0490874148663438
 10
-11.89362906020549
 20
0.0337756835288582
 30
0.0
 41
1.0
 10
-11.89362907248858
 20
0.0183058471443908
 30
0.0
 41
0.9238794417265652
 10
-11.88447615760184
 20
0.0091529235721958
 30
0.0
 41
1.0
 10
-11.87532324271511
 20
0.0
 30
0.0
 41
0.9238794417265086
 10
-11.86237906020549
 20
0.0000000000000009
 30
0.0
 41
1.0
  0
SPLINE
  5
110
330
1F
100
AcDbEntity
  8
5 star armless 2d
 62
     7
100
AcDbSpline
210
0.0
220
0.0
230
1.0
 70
    24
 71
     2
 72
     6
 73
     3
 74
     0
 42
0.0000000001
 43
0.0000000001
 40
-0.3437499999999991
 40
-0.3437499999999991
 40
-0.3437499999999991
 40
0.0
 40
0.0
 40
0.0
 10
-11.86237906020549
 20
0.0000000000000009
 30
0.0
 10
-11.69050406020549
 20
0.000000000000001
 30
0.0
 10
-11.51862906020549
 20
0.0000000000000011
 30
0.0
  0
SPLINE
  5
111
330
1F
100
AcDbEntity
  8
5 star armless 2d
 62
     7
100
AcDbSpline
210
0.0
220
0.0
230
1.0
 70
    12
 71
     2
 72
     6
 73
     3
 74
     0
 42
0.0000000001
 43
0.0000000001
 40
0.0
 40
0.0
 40
0.0
 40
0.1963495408493621
 40
0.1963495408493621
 40
0.1963495408493621
 10
-11.51862906020549
 20
0.0000000000000011
 30
0.0
 41
1.0
 10
-11.39362906020549
 20
0.0
 30
0.0
 41
0.7071067811865478
 10
-11.39362906020549
 20
0.1250000000000011
 30
0.0
 41
1.0
  0
SPLINE
  5
112
330
1F
100
AcDbEntity
  8
5 star armless 2d
 62
     7
100
AcDbSpline
210
0.0
220
0.0
230
1.0
 70
    12
 71
     2
 72
     6
 73
     3
 74
     0
 42
0.0000000001
 43
0.0000000001
 40
0.0
 40
0.0
 40
0.0
 40
6.308542238486094
 40
6.308542238486094
 40
6.308542238486094
 10
-1.890673812329711
 20
12.91636087371808
 30
0.0
 41
1.0
 10
-5.044945517448187
 20
12.91960129411546
 30
0.0
 41
0.9999989298635602
 10
-8.199559750629685
 20
12.91360987863227
 30
0.0
 41
1.0
  0
SPLINE
  5
113
330
1F
100
AcDbEntity
  8
5 star armless 2d
 62
     7
100
AcDbSpline
210
0.0
220
0.0
230
1.0
 70
    12
 71
     2
 72
     6
 73
     3
 74
     0
 42
0.0000000001
 43
0.0000000001
 40
0.0
 40
0.0
 40
0.0
 40
0.0785930999812277
 40
0.0785930999812277
 40
0.0785930999812277
 10
-8.199559750629685
 20
12.91360987863227
 30
0.0
 41
1.0
 10
-8.249908052167518
 20
12.91360387313677
 30
0.0
 41
0.7077328719522822
 10
-8.249999999979906
 20
12.96360554143091
 30
0.0
 41
1.0
  0
POLYLINE
  5
114
330
1F
100
AcDbEntity
  8
5 star armless 2d
 62
     7
100
AcDb2dPolyline
 66
     1
 10
0.0
 20
0.0
 30
0.0
  0
VERTEX
  5
115
330
114
100
AcDbEntity
  8
5 star armless 2d
 62
     7
100
AcDbVertex
100
AcDb2dVertex
 10
-8.249999999979906
 20
12.96360554143091
 30
0.0
  0
VERTEX
  5
116
330
114
100
AcDbEntity
  8
5 star armless 2d
 62
     7
100
AcDbVertex
100
AcDb2dVertex
 10
-8.24999999999876
 20
13.18340604054627
 30
0.0
  0
SEQEND
  5
117
330
114
100
AcDbEntity
  8
5 star armless 2d
 62
     7
  0
SPLINE
  5
118
330
1F
100
AcDbEntity
  8
5 star armless 2d
 62
     7
100
AcDbSpline
210
0.0
220
0.0
230
1.0
 70
    12
 71
     2
 72
     6
 73
     3
 74
     0
 42
0.0000000001
 43
0.0000000001
 40
0.0
 40
0.0
 40
0.0
 40
0.0785685110721466
 40
0.0785685110721466
 40
0.0785685110721466
 10
-8.24999999999876
 20
13.18340604054627
 30
0.0
 41
1.0
 10
-8.249849193889352
 20
13.23334875303002
 30
0.0
 41
0.7085750313660297
 10
-8.199567102470692
 20
13.23339653682782
 30
0.0
 41
1.0
  0
SPLINE
  5
119
330
1F
100
AcDbEntity
  8
5 star armless 2d
 62
     7
100
AcDbSpline
210
0.0
220
0.0
230
1.0
 70
    12
 71
     2
 72
     6
 73
     3
 74
     0
 42
0.0000000001
 43
0.0000000001
 40
0.0
 40
0.0
 40
0.0
 40
6.104384663792418
 40
6.104384663792418
 40
6.104384663792418
 10
-8.199567102470692
 20
13.23339653682782
 30
0.0
 41
1.0
 10
-5.147039044420685
 20
13.2275996659359
 30
0.0
 41
0.9999990022101463
 10
-2.094845999339448
 20
13.23043518668576
 30
0.0
 41
1.0
  0
SPLINE
  5
11A
330
1F
100
AcDbEntity
  8
5 star armless 2d
 62
     7
100
AcDbSpline
210
0.0
220
0.0
230
1.0
 70
     8
 71
     3
 72
    14
 73
    10
 74
     0
 42
0.0000000001
 43
0.0000000001
 40
-7.0
 40
-7.0
 40
-7.0
 40
-7.0
 40
-6.0
 40
-5.0
 40
-4.0
 40
-3.0
 40
-2.0
 40
-1.0
 40
0.0
 40
0.0
 40
0.0
 40
0.0
 10
-2.282451751425832
 20
13.60248661933031
 30
0.0
 10
-2.238941525632338
 20
13.48769707951759
 30
0.0
 10
-2.126499710322346
 20
13.26916840212577
 30
0.0
 10
-1.924778497563966
 20
12.96123817340739
 30
0.0
 10
-1.709929771591231
 20
12.66259166008012
 30
0.0
 10
-1.484910100056712
 20
12.37172422083471
 30
0.0
 10
-1.258237259099148
 20
12.08139416742226
 30
0.0
 10
-1.041691820143475
 20
11.78622624793546
 30
0.0
 10
-0.9114477633500729
 20
11.57253329377188
 30
0.0
 10
-0.9000143515904391
 20
11.44849999999983
 30
0.0
  0
POLYLINE
  5
11B
330
1F
100
AcDbEntity
  8
5 star armless 2d
 62
     7
100
AcDb2dPolyline
 66
     1
 10
0.0
 20
0.0
 30
0.0
  0
VERTEX
  5
11C
330
11B
100
AcDbEntity
  8
5 star armless 2d
 62
     7
100
AcDbVertex
100
AcDb2dVertex
 10
-0.9000143515904391
 20
11.44849999999983
 30
0.0
  0
VERTEX
  5
11D
330
11B
100
AcDbEntity
  8
5 star armless 2d
 62
     7
100
AcDbVertex
100
AcDb2dVertex
 10
0.9000143515904391
 20
11.44849999999983
 30
0.0
  0
SEQEND
  5
11E
330
11B
100
AcDbEntity
  8
5 star armless 2d
 62
     7
  0
SPLINE
  5
11F
330
1F
100
AcDbEntity
  8
5 star armless 2d
 62
     7
100
AcDbSpline
210
0.0
220
0.0
230
1.0
 70
     8
 71
     3
 72
    14
 73
    10
 74
     0
 42
0.0000000001
 43
0.0000000001
 40
0.0
 40
0.0
 40
0.0
 40
0.0
 40
1.0
 40
2.0
 40
3.0
 40
4.0
 40
5.0
 40
6.0
 40
7.0
 40
7.0
 40
7.0
 40
7.0
 10
0.9000143515904391
 20
11.44849999999983
 30
0.0
 10
0.9114477633500729
 20
11.57253329377188
 30
0.0
 10
1.041691820143475
 20
11.78622624793546
 30
0.0
 10
1.258237259099148
 20
12.08139416742226
 30
0.0
 10
1.484910100056712
 20
12.37172422083471
 30
0.0
 10
1.709929771591231
 20
12.66259166008012
 30
0.0
 10
1.924778497563966
 20
12.96123817340739
 30
0.0
 10
2.126499710322346
 20
13.26916840212577
 30
0.0
 10
2.238941525632338
 20
13.48769707951759
 30
0.0
 10
2.282451751425832
 20
13.60248661933031
 30
0.0
  0
SPLINE
  5
120
330
1F
100
AcDbEntity
  8
5 star armless 2d
 62
     7
100
AcDbSpline
210
0.0
220
0.0
230
1.0
 70
    12
 71
     2
 72
     6
 73
     3
 74
     0
 42
0.0000000001
 43
0.0000000001
 40
0.0
 40
0.0
 40
0.0
 40
0.1444678751488982
 40
0.1444678751488982
 40
0.1444678751488982
 10
2.633571598060509
 20
13.36872649665654
 30
0.0
 41
1.0
 10
2.633581589306188
 20
13.44102908337531
 30
0.0
 41
0.9985763888708227
 10
2.625889210271994
 20
13.51292130444856
 30
0.0
 41
1.0
  0
SPLINE
  5
121
330
1F
100
AcDbEntity
  8
5 star armless 2d
 62
     7
100
AcDbSpline
210
0.0
220
0.0
230
1.0
 70
     8
 71
     3
 72
    10
 73
     6
 74
     0
 42
0.0000000001
 43
0.0000000001
 40
0.0
 40
0.0
 40
0.0
 40
0.0
 40
0.0178188664837946
 40
0.0501644827938637
 40
0.1612053680803479
 40
0.1612053680803479
 40
0.1612053680803479
 40
0.1612053680803479
 10
2.625889210271994
 20
13.51292130444856
 30
0.0
 10
2.625123751837995
 20
13.51914382415383
 30
0.0
 10
2.612223030625197
 20
13.53072859840596
 30
0.0
 10
2.562726747455775
 20
13.55183754005106
 30
0.0
 10
2.515457206600349
 20
13.56131826132961
 30
0.0
 10
2.479236533972994
 20
13.5683746669929
 30
0.0
  0
SPLINE
  5
122
330
1F
100
AcDbEntity
  8
5 star armless 2d
 62
     7
100
AcDbSpline
210
0.0
220
0.0
230
1.0
 70
     8
 71
     3
 72
    10
 73
     6
 74
     0
 42
0.0000000001
 43
0.0000000001
 40
0.0
 40
0.0
 40
0.0
 40
0.0
 40
0.5636717606533941
 40
1.186982375384731
 40
1.521532845026047
 40
1.521532845026047
 40
1.521532845026047
 40
1.521532845026047
 10
2.479236533972994
 20
13.5683746669929
 30
0.0
 10
2.294496373294573
 20
13.60266023744518
 30
0.0
 10
1.903006978191247
 20
13.66108211656503
 30
0.0
 10
1.398254546975793
 20
13.71166776143814
 30
0.0
 10
1.07971818428932
 20
13.73374451993302
 30
0.0
 10
0.9683939017846293
 20
13.74028821113174
 30
0.0
  0
SPLINE
  5
123
330
1F
100
AcDbEntity
  8
5 star armless 2d
 62
     7
100
AcDbSpline
210
0.0
220
0.0
230
1.0
 70
     8
 71
     3
 72
    19
 73
    15
 74
     0
 42
0.0000000001
 43
0.0000000001
 40
0.0
 40
0.0
 40
0.0
 40
0.0
 40
1.0
 40
2.0
 40
3.0
 40
4.0
 40
5.0
 40
6.0
 40
7.0
 40
8.0
 40
9.0
 40
10.0
 40
11.0
 40
12.0
 40
12.0
 40
12.0
 40
12.0
 10
2.187976980674199
 20
13.39281977119995
 30
0.0
 10
2.214696491683464
 20
13.39117541456924
 30
0.0
 10
2.268119886136946
 20
13.38805845132386
 30
0.0
 10
2.348307634377524
 20
13.38264297561173
 30
0.0
 10
2.428316054187455
 20
13.37941644112307
 30
0.0
 10
2.508960040034149
 20
13.3677207142861
 30
0.0
 10
2.584263833631135
 20
13.35713872978663
 30
0.0
 10
2.68044530988323
 20
13.35176263054494
 30
0.0
 10
2.688309923395676
 20
13.44563044911696
 30
0.0
 10
2.697686128558395
 20
13.52164572908877
 30
0.0
 10
2.706657280159594
 20
13.60244489330821
 30
0.0
 10
2.71573705895158
 20
13.681961099618
 30
0.0
 10
2.724787379403272
 20
13.76182522566791
 30
0.0
 10
2.730827065161356
 20
13.81499550750197
 30
0.0
 10
2.733845678932846
 20
13.84159513030346
 30
0.0
  0
SPLINE
  5
124
330
1F
100
AcDbEntity
  8
5 star armless 2d
 62
     7
100
AcDbSpline
210
0.0
220
0.0
230
1.0
 70
    12
 71
     2
 72
     6
 73
     3
 74
     0
 42
0.0000000001
 43
0.0000000001
 40
0.0
 40
0.0
 40
0.0
 40
0.1444678751488982
 40
0.1444678751488982
 40
0.1444678751488982
 10
-2.633571598060509
 20
13.36872649665654
 30
0.0
 41
1.0
 10
-2.633581589306188
 20
13.44102908337531
 30
0.0
 41
0.9985763888708227
 10
-2.625889210271994
 20
13.51292130444856
 30
0.0
 41
1.0
  0
SPLINE
  5
125
330
1F
100
AcDbEntity
  8
5 star armless 2d
 62
     7
100
AcDbSpline
210
0.0
220
0.0
230
1.0
 70
     8
 71
     3
 72
    10
 73
     6
 74
     0
 42
0.0000000001
 43
0.0000000001
 40
0.0
 40
0.0
 40
0.0
 40
0.0
 40
0.0178188664837946
 40
0.0501644827938637
 40
0.1612053680803479
 40
0.1612053680803479
 40
0.1612053680803479
 40
0.1612053680803479
 10
-2.625889210271994
 20
13.51292130444856
 30
0.0
 10
-2.625123751837995
 20
13.51914382415383
 30
0.0
 10
-2.612223030625197
 20
13.53072859840596
 30
0.0
 10
-2.562726747455775
 20
13.55183754005106
 30
0.0
 10
-2.515457206600349
 20
13.56131826132961
 30
0.0
 10
-2.479236533972994
 20
13.5683746669929
 30
0.0
  0
SPLINE
  5
126
330
1F
100
AcDbEntity
  8
5 star armless 2d
 62
     7
100
AcDbSpline
210
0.0
220
0.0
230
1.0
 70
     8
 71
     3
 72
    10
 73
     6
 74
     0
 42
0.0000000001
 43
0.0000000001
 40
0.0
 40
0.0
 40
0.0
 40
0.0
 40
0.5636717606533941
 40
1.186982375384731
 40
1.521532845026047
 40
1.521532845026047
 40
1.521532845026047
 40
1.521532845026047
 10
-2.479236533972994
 20
13.5683746669929
 30
0.0
 10
-2.294496373294573
 20
13.60266023744518
 30
0.0
 10
-1.903006978191247
 20
13.66108211656503
 30
0.0
 10
-1.398254546975793
 20
13.71166776143814
 30
0.0
 10
-1.07971818428932
 20
13.73374451993302
 30
0.0
 10
-0.9683939017846293
 20
13.74028821113174
 30
0.0
  0
SPLINE
  5
127
330
1F
100
AcDbEntity
  8
5 star armless 2d
 62
     7
100
AcDbSpline
210
0.0
220
0.0
230
1.0
 70
     8
 71
     3
 72
    19
 73
    15
 74
     0
 42
0.0000000001
 43
0.0000000001
 40
0.0
 40
0.0
 40
0.0
 40
0.0
 40
1.0
 40
2.0
 40
3.0
 40
4.0
 40
5.0
 40
6.0
 40
7.0
 40
8.0
 40
9.0
 40
10.0
 40
11.0
 40
12.0
 40
12.0
 40
12.0
 40
12.0
 10
-2.187976980674199
 20
13.39281977119995
 30
0.0
 10
-2.214696491683464
 20
13.39117541456924
 30
0.0
 10
-2.268119886136946
 20
13.38805845132386
 30
0.0
 10
-2.348307634377524
 20
13.38264297561173
 30
0.0
 10
-2.428316054187455
 20
13.37941644112307
 30
0.0
 10
-2.508960040034149
 20
13.3677207142861
 30
0.0
 10
-2.584263833631135
 20
13.35713872978663
 30
0.0
 10
-2.68044530988323
 20
13.35176263054494
 30
0.0
 10
-2.688309923395676
 20
13.44563044911696
 30
0.0
 10
-2.697686128558395
 20
13.52164572908877
 30
0.0
 10
-2.706657280159594
 20
13.60244489330821
 30
0.0
 10
-2.71573705895158
 20
13.681961099618
 30
0.0
 10
-2.724787379403272
 20
13.76182522566791
 30
0.0
 10
-2.730827065161356
 20
13.81499550750197
 30
0.0
 10
-2.733845678932846
 20
13.84159513030346
 30
0.0
  0
SPLINE
  5
128
330
1F
100
AcDbEntity
  8
5 star armless 2d
 62
     7
100
AcDbSpline
210
0.0
220
0.0
230
1.0
 70
    24
 71
     2
 72
     6
 73
     3
 74
     0
 42
0.0000000001
 43
0.0000000001
 40
0.0
 40
0.0
 40
0.0
 40
0.0819628544030055
 40
0.0819628544030055
 40
0.0819628544030055
 10
-12.61237906020555
 20
2.559999999999991
 30
0.0
 10
-12.61237906020555
 20
2.600981427201494
 30
0.0
 10
-12.61237906020555
 20
2.641962854402997
 30
0.0
  0
SPLINE
  5
129
330
1F
100
AcDbEntity
  8
5 star armless 2d
 62
     7
100
AcDbSpline
210
0.0
220
0.0
230
1.0
 70
    24
 71
     2
 72
     6
 73
     3
 74
     0
 42
0.0000000001
 43
0.0000000001
 40
0.0
 40
0.0
 40
0.0
 40
0.0819628544030055
 40
0.0819628544030055
 40
0.0819628544030055
 10
-11.92487906020543
 20
2.641962854402997
 30
0.0
 10
-11.92487906020543
 20
2.600981427201494
 30
0.0
 10
-11.92487906020543
 20
2.559999999999991
 30
0.0
  0
SPLINE
  5
12A
330
1F
100
AcDbEntity
  8
5 star armless 2d
 62
     7
100
AcDbSpline
210
0.0
220
0.0
230
1.0
 70
    24
 71
     2
 72
     6
 73
     3
 74
     0
 42
0.0000000001
 43
0.0000000001
 40
0.0
 40
0.0
 40
0.0
 40
0.0819628544030055
 40
0.0819628544030055
 40
0.0819628544030055
 10
-7.926179754571733
 20
2.55999999999999
 30
0.0
 10
-7.926179754571733
 20
2.600981427201493
 30
0.0
 10
-7.926179754571733
 20
2.641962854402996
 30
0.0
  0
SPLINE
  5
12B
330
1F
100
AcDbEntity
  8
5 star armless 2d
 62
     7
100
AcDbSpline
210
0.0
220
0.0
230
1.0
 70
    24
 71
     2
 72
     6
 73
     3
 74
     0
 42
0.0000000001
 43
0.0000000001
 40
0.0
 40
0.0
 40
0.0
 40
0.0819628544030055
 40
0.0819628544030055
 40
0.0819628544030055
 10
-7.238679754571613
 20
2.641962854402996
 30
0.0
 10
-7.238679754571613
 20
2.600981427201493
 30
0.0
 10
-7.238679754571613
 20
2.55999999999999
 30
0.0
  0
SPLINE
  5
12C
330
1F
100
AcDbEntity
  8
5 star armless 2d
 62
     7
100
AcDbSpline
210
0.0
220
0.0
230
1.0
 70
    24
 71
     2
 72
     6
 73
     3
 74
     0
 42
0.0000000001
 43
0.0000000001
 40
0.0
 40
0.0
 40
0.0
 40
0.0819628544030055
 40
0.0819628544030055
 40
0.0819628544030055
 10
12.61237906020556
 20
2.641962854402997
 30
0.0
 10
12.61237906020556
 20
2.600981427201494
 30
0.0
 10
12.61237906020556
 20
2.559999999999991
 30
0.0
  0
SPLINE
  5
12D
330
1F
100
AcDbEntity
  8
5 star armless 2d
 62
     7
100
AcDbSpline
210
0.0
220
0.0
230
1.0
 70
    24
 71
     2
 72
     6
 73
     3
 74
     0
 42
0.0000000001
 43
0.0000000001
 40
0.0
 40
0.0
 40
0.0
 40
0.0819628544030055
 40
0.0819628544030055
 40
0.0819628544030055
 10
11.92487906020544
 20
2.559999999999991
 30
0.0
 10
11.92487906020544
 20
2.600981427201494
 30
0.0
 10
11.92487906020544
 20
2.641962854402997
 30
0.0
  0
SPLINE
  5
12E
330
1F
100
AcDbEntity
  8
5 star armless 2d
 62
     7
100
AcDbSpline
210
0.0
220
0.0
230
1.0
 70
    24
 71
     2
 72
     6
 73
     3
 74
     0
 42
0.0000000001
 43
0.0000000001
 40
0.0
 40
0.0
 40
0.0
 40
0.0819628544030055
 40
0.0819628544030055
 40
0.0819628544030055
 10
7.926179754571741
 20
2.641962854402996
 30
0.0
 10
7.926179754571741
 20
2.600981427201493
 30
0.0
 10
7.926179754571741
 20
2.55999999999999
 30
0.0
  0
SPLINE
  5
12F
330
1F
100
AcDbEntity
  8
5 star armless 2d
 62
     7
100
AcDbSpline
210
0.0
220
0.0
230
1.0
 70
    24
 71
     2
 72
     6
 73
     3
 74
     0
 42
0.0000000001
 43
0.0000000001
 40
0.0
 40
0.0
 40
0.0
 40
0.0819628544030055
 40
0.0819628544030055
 40
0.0819628544030055
 10
7.238679754571621
 20
2.55999999999999
 30
0.0
 10
7.238679754571621
 20
2.600981427201493
 30
0.0
 10
7.238679754571621
 20
2.641962854402996
 30
0.0
  0
SPLINE
  5
130
330
1F
100
AcDbEntity
  8
5 star armless 2d
 62
     7
100
AcDbSpline
210
0.0
220
0.0
230
1.0
 70
    24
 71
     2
 72
     6
 73
     3
 74
     0
 42
0.0000000001
 43
0.0000000001
 40
0.0
 40
0.0
 40
0.0
 40
0.7990000000000066
 40
0.7990000000000066
 40
0.7990000000000066
 10
-0.5507849999999959
 20
10.6495
 30
0.0
 10
-0.5507849999999959
 20
11.049
 30
0.0
 10
-0.5507849999999959
 20
11.44850000000001
 30
0.0
  0
SPLINE
  5
131
330
1F
100
AcDbEntity
  8
5 star armless 2d
 62
     7
100
AcDbSpline
210
0.0
220
0.0
230
1.0
 70
    24
 71
     2
 72
     6
 73
     3
 74
     0
 42
0.0000000001
 43
0.0000000001
 40
0.0
 40
0.0
 40
0.0
 40
0.7990000000004969
 40
0.7990000000004969
 40
0.7990000000004969
 10
0.5507850000000047
 20
11.4485000000005
 30
0.0
 10
0.5507850000000047
 20
11.04900000000025
 30
0.0
 10
0.5507850000000047
 20
10.6495
 30
0.0
  0
SPLINE
  5
132
330
1F
100
AcDbEntity
  8
5 star armless 2d
 62
     7
100
AcDbSpline
210
0.0
220
0.0
230
1.0
 70
    24
 71
     2
 72
     6
 73
     3
 74
     0
 42
0.0000000001
 43
0.0000000001
 40
0.0
 40
0.0
 40
0.0
 40
5.118111959919872
 40
5.118111959919872
 40
5.118111959919872
 10
0.7874000000000052
 20
7.672385762575781
 30
0.0
 10
0.7874000000000052
 20
5.113329782615844
 30
0.0
 10
0.7874000000000052
 20
2.554273802655908
 30
0.0
  0
SPLINE
  5
133
330
1F
100
AcDbEntity
  8
5 star armless 2d
 62
     7
100
AcDbSpline
210
0.0
220
0.0
230
1.0
 70
    24
 71
     2
 72
     6
 73
     3
 74
     0
 42
0.0000000001
 43
0.0000000001
 40
0.0
 40
0.0
 40
0.0
 40
0.6875000000001208
 40
0.6875000000001208
 40
0.6875000000001208
 10
0.3437500000000639
 20
2.641962854402996
 30
0.0
 10
0.0000000000000036
 20
2.641962854402996
 30
0.0
 10
-0.3437500000000568
 20
2.641962854402996
 30
0.0
  0
SPLINE
  5
134
330
1F
100
AcDbEntity
  8
5 star armless 2d
 62
     7
100
AcDbSpline
210
0.0
220
0.0
230
1.0
 70
    24
 71
     2
 72
     6
 73
     3
 74
     0
 42
0.0000000001
 43
0.0000000001
 40
0.0
 40
0.0
 40
0.0
 40
0.6875000000001208
 40
0.6875000000001208
 40
0.6875000000001208
 10
-11.92487906020543
 20
2.641962854402997
 30
0.0
 10
-12.26862906020549
 20
2.641962854402997
 30
0.0
 10
-12.61237906020555
 20
2.641962854402997
 30
0.0
  0
SPLINE
  5
135
330
1F
100
AcDbEntity
  8
5 star armless 2d
 62
     7
100
AcDbSpline
210
0.0
220
0.0
230
1.0
 70
    24
 71
     2
 72
     6
 73
     3
 74
     0
 42
0.0000000001
 43
0.0000000001
 40
0.0
 40
0.0
 40
0.0
 40
0.6875000000001208
 40
0.6875000000001208
 40
0.6875000000001208
 10
-7.238679754571613
 20
2.641962854402996
 30
0.0
 10
-7.582429754571673
 20
2.641962854402996
 30
0.0
 10
-7.926179754571733
 20
2.641962854402996
 30
0.0
  0
SPLINE
  5
136
330
1F
100
AcDbEntity
  8
5 star armless 2d
 62
     7
100
AcDbSpline
210
0.0
220
0.0
230
1.0
 70
    24
 71
     2
 72
     6
 73
     3
 74
     0
 42
0.0000000001
 43
0.0000000001
 40
0.0
 40
0.0
 40
0.0
 40
0.6875000000001208
 40
0.6875000000001208
 40
0.6875000000001208
 10
11.92487906020544
 20
2.641962854402997
 30
0.0
 10
12.2686290602055
 20
2.641962854402997
 30
0.0
 10
12.61237906020556
 20
2.641962854402997
 30
0.0
  0
SPLINE
  5
137
330
1F
100
AcDbEntity
  8
5 star armless 2d
 62
     7
100
AcDbSpline
210
0.0
220
0.0
230
1.0
 70
    24
 71
     2
 72
     6
 73
     3
 74
     0
 42
0.0000000001
 43
0.0000000001
 40
0.0
 40
0.0
 40
0.0
 40
0.6875000000001208
 40
0.6875000000001208
 40
0.6875000000001208
 10
7.238679754571621
 20
2.641962854402996
 30
0.0
 10
7.582429754571681
 20
2.641962854402996
 30
0.0
 10
7.926179754571741
 20
2.641962854402996
 30
0.0
  0
SPLINE
  5
138
330
1F
100
AcDbEntity
  8
5 star armless 2d
 62
     7
100
AcDbSpline
210
0.0
220
0.0
230
1.0
 70
     8
 71
     3
 72
    34
 73
    30
 74
     0
 42
0.0000000001
 43
0.0000000001
 40
0.0
 40
0.0
 40
0.0
 40
0.0
 40
1.0
 40
2.0
 40
3.0
 40
4.0
 40
5.0
 40
6.0
 40
7.0
 40
8.0
 40
9.0
 40
10.0
 40
11.0
 40
12.0
 40
13.0
 40
14.0
 40
15.0
 40
16.0
 40
17.0
 40
18.0
 40
19.0
 40
20.0
 40
21.0
 40
22.0
 40
23.0
 40
24.0
 40
25.0
 40
26.0
 40
27.0
 40
27.0
 40
27.0
 40
27.0
 10
30.73353615349195
 20
34.68181965912336
 30
0.0
 10
31.14555315412783
 20
34.63294414137031
 30
0.0
 10
32.0837789801401
 20
34.84724895898987
 30
0.0
 10
32.99425263938533
 20
33.77975006567408
 30
0.0
 10
33.612007576228
 20
32.69180216831792
 30
0.0
 10
34.01800667740422
 20
31.46625517326252
 30
0.0
 10
34.42496237114774
 20
30.25792666497983
 30
0.0
 10
34.84874207030206
 20
29.05083150063549
 30
0.0
 10
35.26445536113857
 20
27.84204031856444
 30
0.0
 10
35.67707713611568
 20
26.63237889692767
 30
0.0
 10
36.07710881157424
 20
25.41687693194141
 30
0.0
 10
36.66738427585979
 20
24.27943798245006
 30
0.0
 10
37.22292095490361
 20
23.12832393816655
 30
0.0
 10
37.88426460049121
 20
22.03238593813457
 30
0.0
 10
38.68424686089389
 20
21.02631100864845
 30
0.0
 10
39.74554334681348
 20
20.29209820678572
 30
0.0
 10
40.91791085558235
 20
19.77147633257862
 30
0.0
 10
42.15813172819264
 20
19.45487477200634
 30
0.0
 10
43.41565138359159
 20
19.21489875015778
 30
0.0
 10
44.69217660445826
 20
19.12382029038718
 30
0.0
 10
45.9702844167252
 20
19.09586170303887
 30
0.0
 10
47.24854402061393
 20
19.08593262731588
 30
0.0
 10
48.52743763003291
 20
19.06914340088738
 30
0.0
 10
49.80115108941926
 20
18.94614275496439
 30
0.0
 10
51.05288855426787
 20
18.66965056915279
 30
0.0
 10
52.25399013263242
 20
18.22881082463667
 30
0.0
 10
53.41563000146411
 20
17.68272834724441
 30
0.0
 10
54.43539245296659
 20
16.90414651244044
 30
0.0
 10
55.00992345938283
 20
16.26500657288629
 30
0.0
 10
55.3768992990156
 20
16.04430473022096
 30
0.0
  0
SPLINE
  5
139
330
1F
100
AcDbEntity
  8
5 star armless 2d
 62
     7
100
AcDbSpline
210
0.0
220
0.0
230
1.0
 70
     8
 71
     3
 72
    13
 73
     9
 74
     0
 42
0.0000000001
 43
0.0000000001
 40
-6.0
 40
-6.0
 40
-6.0
 40
-6.0
 40
-5.0
 40
-4.0
 40
-3.0
 40
-2.0
 40
-1.0
 40
0.0
 40
0.0
 40
0.0
 40
0.0
 10
55.3768992990156
 20
16.04430473022096
 30
0.0
 10
55.45060360101873
 20
16.00913874285336
 30
0.0
 10
55.58658103382672
 20
15.91652303695468
 30
0.0
 10
55.73809254251122
 20
15.71677926584272
 30
0.0
 10
55.76539075820396
 20
15.46382919998189
 30
0.0
 10
55.65680743359635
 20
15.23399746397078
 30
0.0
 10
55.45354375838206
 20
15.08958440197771
 30
0.0
 10
55.3019703430714
 20
15.0286677195248
 30
0.0
 10
55.22429212237534
 20
15.0036199204551
 30
0.0
  0
SPLINE
  5
13A
330
1F
100
AcDbEntity
  8
5 star armless 2d
 62
     7
100
AcDbSpline
210
0.0
220
0.0
230
1.0
 70
     8
 71
     3
 72
    20
 73
    16
 74
     0
 42
0.0000000001
 43
0.0000000001
 40
0.0
 40
0.0
 40
0.0
 40
0.0
 40
1.0
 40
2.0
 40
3.0
 40
4.0
 40
5.0
 40
6.0
 40
7.0
 40
8.0
 40
9.0
 40
10.0
 40
11.0
 40
12.0
 40
13.0
 40
13.0
 40
13.0
 40
13.0
 10
55.22429212237534
 20
15.0036199204551
 30
0.0
 10
54.27293817965222
 20
14.67487946844551
 30
0.0
 10
52.29843565893384
 20
14.2695467725761
 30
0.0
 10
49.30042654955397
 20
13.93843752819113
 30
0.0
 10
46.28841178189334
 20
13.76474868200966
 30
0.0
 10
43.27702317022965
 20
13.68236788642047
 30
0.0
 10
40.24822678438998
 20
13.79521857771728
 30
0.0
 10
37.3570212883519
 20
14.79704233998933
 30
0.0
 10
34.99081720039294
 20
16.74660293218443
 30
0.0
 10
33.45568159030679
 20
19.3856174337988
 30
0.0
 10
32.62219587767807
 20
22.29329680377162
 30
0.0
 10
31.97875726053534
 20
25.23791725971071
 30
0.0
 10
31.36108142107984
 20
28.18988803158945
 30
0.0
 10
30.79301968207592
 20
31.15133719781478
 30
0.0
 10
30.44430428245725
 20
33.13123187200121
 30
0.0
 10
30.26726339544233
 20
34.12065727259129
 30
0.0
  0
SPLINE
  5
13B
330
1F
100
AcDbEntity
  8
5 star armless 2d
 62
     7
100
AcDbSpline
210
0.0
220
0.0
230
1.0
 70
    12
 71
     2
 72
     8
 73
     5
 74
     0
 42
0.0000000001
 43
0.0000000001
 40
0.0
 40
0.0
 40
0.0
 40
0.4142959691772323
 40
0.4142959691772323
 40
0.828588430205433
 40
0.828588430205433
 40
0.828588430205433
 10
30.26726339544233
 20
34.12065727259129
 30
0.0
 41
1.0
 10
30.23013136500082
 20
34.33851899477089
 30
0.0
 41
0.9085535971351912
 10
30.37134599400596
 20
34.50852177777966
 30
0.0
 41
1.0
 10
30.51255930688926
 20
34.67852297636069
 30
0.0
 41
0.9085543714792195
 10
30.73353615349194
 20
34.68181965912337
 30
0.0
 41
0.9999984513250574
  0
SPLINE
  5
13C
330
1F
100
AcDbEntity
  8
5 star armless 2d
 62
     7
100
AcDbSpline
210
0.0
220
0.0
230
1.0
 70
     8
 71
     3
 72
    16
 73
    12
 74
     0
 42
0.0000000001
 43
0.0000000001
 40
0.0
 40
0.0
 40
0.0
 40
0.0
 40
1.0
 40
2.0
 40
3.0
 40
4.0
 40
5.0
 40
6.0
 40
7.0
 40
8.0
 40
9.0
 40
9.0
 40
9.0
 40
9.0
 10
55.15662014268636
 20
16.21465315844867
 30
0.0
 10
55.2892988584529
 20
16.3413600590468
 30
0.0
 10
55.44578320881936
 20
16.68297039880787
 30
0.0
 10
55.44204283433044
 20
17.23738709298493
 30
0.0
 10
55.23563210081208
 20
17.75446245504481
 30
0.0
 10
54.8161034083229
 20
18.12670072876974
 30
0.0
 10
54.28411777077847
 20
18.27814640856432
 30
0.0
 10
53.74003570141458
 20
18.31446059770265
 30
0.0
 10
53.19497554567805
 20
18.31649463129623
 30
0.0
 10
52.65083296783116
 20
18.28710427365816
 30
0.0
 10
52.28785340743297
 20
18.27420553987351
 30
0.0
 10
52.10633206494981
 20
18.26846575359694
 30
0.0
  0
SPLINE
  5
13D
330
1F
100
AcDbEntity
  8
5 star armless 2d
 62
     7
100
AcDbSpline
210
0.0
220
0.0
230
1.0
 70
    24
 71
     2
 72
     6
 73
     3
 74
     0
 42
0.0000000001
 43
0.0000000001
 40
0.0
 40
0.0
 40
0.0
 40
1.164986319490937
 40
1.164986319490937
 40
1.164986319490937
 10
33.01773677459055
 20
1.395013680509063
 30
0.0
 10
33.01773677459055
 20
1.977506840254532
 30
0.0
 10
33.01773677459055
 20
2.56
 30
0.0
  0
LINE
  5
13E
330
1F
100
AcDbEntity
  8
5 star armless 2d
 62
     7
100
AcDbLine
 10
33.01773677459055
 20
2.56
 30
0.0
 11
31.73773677459057
 21
2.56
 31
0.0
  0
CIRCLE
  5
13F
330
1F
100
AcDbEntity
  8
5 star armless 2d
 62
     7
100
AcDbCircle
 10
31.73773677459054
 20
1.280000000000002
 30
0.0
 40
1.062500000000002
  0
CIRCLE
  5
140
330
1F
100
AcDbEntity
  8
5 star armless 2d
 62
     7
100
AcDbCircle
 10
31.73773677459056
 20
1.279999999999995
 30
0.0
 40
1.154999999999998
  0
CIRCLE
  5
141
330
1F
100
AcDbEntity
  8
5 star armless 2d
 62
     7
100
AcDbCircle
 10
31.73773677459056
 20
1.280000000000006
 30
0.0
 40
1.280000000000006
  0
SPLINE
  5
142
330
1F
100
AcDbEntity
  8
5 star armless 2d
 62
     7
100
AcDbSpline
210
0.0
220
0.0
230
1.0
 70
    24
 71
     2
 72
     6
 73
     3
 74
     0
 42
0.0000000001
 43
0.0000000001
 40
0.0
 40
0.0
 40
0.0
 40
1.164986319490937
 40
1.164986319490937
 40
1.164986319490937
 10
47.44037522946186
 20
1.395013680509063
 30
0.0
 10
47.44037522946186
 20
1.977506840254532
 30
0.0
 10
47.44037522946186
 20
2.56
 30
0.0
  0
LINE
  5
143
330
1F
100
AcDbEntity
  8
5 star armless 2d
 62
     7
100
AcDbLine
 10
47.44037522946186
 20
2.56
 30
0.0
 11
46.16037522946187
 21
2.56
 31
0.0
  0
CIRCLE
  5
144
330
1F
100
AcDbEntity
  8
5 star armless 2d
 62
     7
100
AcDbCircle
 10
46.16037522946186
 20
1.280000000000002
 30
0.0
 40
1.062500000000002
  0
CIRCLE
  5
145
330
1F
100
AcDbEntity
  8
5 star armless 2d
 62
     7
100
AcDbCircle
 10
46.16037522946186
 20
1.279999999999995
 30
0.0
 40
1.154999999999998
  0
CIRCLE
  5
146
330
1F
100
AcDbEntity
  8
5 star armless 2d
 62
     7
100
AcDbCircle
 10
46.16037522946186
 20
1.280000000000006
 30
0.0
 40
1.280000000000006
  0
SPLINE
  5
147
330
1F
100
AcDbEntity
  8
5 star armless 2d
 62
     7
100
AcDbSpline
210
0.0
220
0.0
230
1.0
 70
    24
 71
     2
 72
     6
 73
     3
 74
     0
 42
0.0000000001
 43
0.0000000001
 40
0.0
 40
0.0
 40
0.0
 40
1.164986319490937
 40
1.164986319490937
 40
1.164986319490937
 10
56.35405600202359
 20
1.395013680509063
 30
0.0
 10
56.35405600202359
 20
1.977506840254532
 30
0.0
 10
56.35405600202359
 20
2.56
 30
0.0
  0
LINE
  5
148
330
1F
100
AcDbEntity
  8
5 star armless 2d
 62
     7
100
AcDbLine
 10
56.35405600202359
 20
2.56
 30
0.0
 11
55.0740560020236
 21
2.56
 31
0.0
  0
CIRCLE
  5
149
330
1F
100
AcDbEntity
  8
5 star armless 2d
 62
     7
100
AcDbCircle
 10
55.07405600202359
 20
1.280000000000002
 30
0.0
 40
1.062500000000002
  0
CIRCLE
  5
14A
330
1F
100
AcDbEntity
  8
5 star armless 2d
 62
     7
100
AcDbCircle
 10
55.0740560020236
 20
1.279999999999995
 30
0.0
 40
1.154999999999998
  0
CIRCLE
  5
14B
330
1F
100
AcDbEntity
  8
5 star armless 2d
 62
     7
100
AcDbCircle
 10
55.0740560020236
 20
1.280000000000006
 30
0.0
 40
1.280000000000006
  0
SPLINE
  5
14C
330
1F
100
AcDbEntity
  8
5 star armless 2d
 62
     7
100
AcDbSpline
210
0.0
220
0.0
230
1.0
 70
     8
 71
     3
 72
     8
 73
     4
 74
     0
 42
0.0000000001
 43
0.0000000001
 40
8.967926270977635
 40
8.967926270977635
 40
8.967926270977635
 40
8.967926270977635
 40
9.0
 40
9.0
 40
9.0
 40
9.0
 10
32.25862190127664
 20
4.113692278456513
 30
0.0
 10
32.25865334708692
 20
4.114616292738452
 30
0.0
 10
32.25871778326866
 20
4.115566323643144
 30
0.0
 10
32.258816414595
 20
4.116543135380835
 30
0.0
  0
SPLINE
  5
14D
330
1F
100
AcDbEntity
  8
5 star armless 2d
 62
     7
100
AcDbSpline
210
0.0
220
0.0
230
1.0
 70
     8
 71
     3
 72
    12
 73
     8
 74
     0
 42
0.0000000001
 43
0.0000000001
 40
0.0190854443871113
 40
0.0190854443871113
 40
0.0190854443871113
 40
0.0190854443871113
 40
1.0
 40
2.0
 40
3.0
 40
4.0
 40
5.0
 40
5.0
 40
5.0
 40
5.0
 10
47.4813173074337
 20
4.188335321023694
 30
0.0
 10
47.47206695677295
 20
4.127770030612327
 30
0.0
 10
47.35175407196727
 20
4.084375629488101
 30
0.0
 10
47.18439504458995
 20
4.075085696906435
 30
0.0
 10
47.01081222965132
 20
4.092591549989262
 30
0.0
 10
46.84447883111809
 20
4.138307367413491
 30
0.0
 10
46.73543250405734
 20
4.188601989399761
 30
0.0
 10
46.70219790629263
 20
4.236347963296361
 30
0.0
  0
POLYLINE
  5
14E
330
1F
100
AcDbEntity
  8
5 star armless 2d
 62
     7
100
AcDb2dPolyline
 66
     1
 10
0.0
 20
0.0
 30
0.0
  0
VERTEX
  5
14F
330
14E
100
AcDbEntity
  8
5 star armless 2d
 62
     7
100
AcDbVertex
100
AcDb2dVertex
 10
46.70219790629263
 20
4.236347963296361
 30
0.0
  0
VERTEX
  5
150
330
14E
100
AcDbEntity
  8
5 star armless 2d
 62
     7
100
AcDbVertex
100
AcDb2dVertex
 10
43.02134645819994
 20
9.524386603094161
 30
0.0
  0
SEQEND
  5
151
330
14E
100
AcDbEntity
  8
5 star armless 2d
 62
     7
  0
SPLINE
  5
152
330
1F
100
AcDbEntity
  8
5 star armless 2d
 62
     7
100
AcDbSpline
210
0.0
220
0.0
230
1.0
 70
     8
 71
     3
 72
    12
 73
     8
 74
     0
 42
0.0000000001
 43
0.0000000001
 40
-5.0
 40
-5.0
 40
-5.0
 40
-5.0
 40
-4.0
 40
-3.0
 40
-2.0
 40
-1.0
 40
0.0
 40
0.0
 40
0.0
 40
0.0
 10
43.02134645819994
 20
9.524386603094161
 30
0.0
 10
42.98241373120394
 20
9.580431631864315
 30
0.0
 10
42.86992668785113
 20
9.662601223761358
 30
0.0
 10
42.66783103465931
 20
9.708135038005448
 30
0.0
 10
42.46447814785268
 20
9.682034333934617
 30
0.0
 10
42.26916840801529
 20
9.624112700698767
 30
0.0
 10
42.14836860604732
 20
9.561024410441593
 30
0.0
 10
42.09141027952669
 20
9.524386581732957
 30
0.0
  0
POLYLINE
  5
153
330
1F
100
AcDbEntity
  8
5 star armless 2d
 62
     7
100
AcDb2dPolyline
 66
     1
 10
0.0
 20
0.0
 30
0.0
  0
VERTEX
  5
154
330
153
100
AcDbEntity
  8
5 star armless 2d
 62
     7
100
AcDbVertex
100
AcDb2dVertex
 10
42.09141027952669
 20
9.524386581732957
 30
0.0
  0
VERTEX
  5
155
330
153
100
AcDbEntity
  8
5 star armless 2d
 62
     7
100
AcDbVertex
100
AcDb2dVertex
 10
32.88729763854425
 20
4.236347272652739
 30
0.0
  0
SEQEND
  5
156
330
153
100
AcDbEntity
  8
5 star armless 2d
 62
     7
  0
SPLINE
  5
157
330
1F
100
AcDbEntity
  8
5 star armless 2d
 62
     7
100
AcDbSpline
210
0.0
220
0.0
230
1.0
 70
     8
 71
     3
 72
    16
 73
    12
 74
     0
 42
0.0000000001
 43
0.0000000001
 40
0.0
 40
0.0
 40
0.0
 40
0.0
 40
1.0
 40
2.0
 40
3.0
 40
4.0
 40
5.0
 40
6.0
 40
7.0
 40
8.0
 40
8.967926270977635
 40
8.967926270977635
 40
8.967926270977635
 40
8.967926270977635
 10
32.88729763854425
 20
4.236347272652739
 30
0.0
 10
32.86490910857357
 20
4.225221143588899
 30
0.0
 10
32.81946227014303
 20
4.204332729709999
 30
0.0
 10
32.74987950098846
 20
4.176300911919954
 30
0.0
 10
32.67919299899764
 20
4.151173346051229
 30
0.0
 10
32.60763173980621
 20
4.128747070130943
 30
0.0
 10
32.53513473320606
 20
4.109164564507171
 30
0.0
 10
32.46218185159317
 20
4.092974928333794
 30
0.0
 10
32.38692661709403
 20
4.081207282133645
 30
0.0
 10
32.31682920244944
 20
4.077286034355463
 30
0.0
 10
32.25767292444067
 20
4.085807223443951
 30
0.0
 10
32.25862190127664
 20
4.113692278456513
 30
0.0
  0
SPLINE
  5
158
330
1F
100
AcDbEntity
  8
5 star armless 2d
 62
     7
100
AcDbSpline
210
0.0
220
0.0
230
1.0
 70
    12
 71
     3
 72
    21
 73
    17
 74
     0
 42
0.0000000001
 43
0.0000000001
 40
-7.148995450957644
 40
-7.148995450957644
 40
-7.148995450957644
 40
-7.148995450957644
 40
-6.999997746876256
 40
-6.5
 40
-6.5
 40
-6.25
 40
-6.25
 40
-6.0
 40
-6.0
 40
-6.0
 40
-5.0
 40
-4.0
 40
-3.0
 40
-2.0
 40
-1.0
 40
0.0
 40
0.0
 40
0.0
 40
0.0
 10
56.39511566006564
 20
4.079334364497554
 30
0.0
 41
1.0
 10
55.88610925067466
 20
4.273995294915755
 30
0.0
 41
1.0
 10
53.73159932945487
 20
5.300552222585149
 30
0.0
 41
1.0
 10
51.57696891871927
 20
6.326833849022997
 30
0.0
 41
1.0
 10
49.08596316758858
 20
7.510546542405122
 30
0.0
 41
1.0
 10
48.25547496988823
 20
7.904805171738998
 30
0.0
 41
1.0
 10
46.59310763796956
 20
8.69020748263841
 30
0.0
 41
1.0
 10
45.76238286335919
 20
9.084245044542454
 30
0.0
 41
1.0
 10
44.92526611131455
 20
9.462949896847803
 30
0.0
 41
1.0
 10
44.83132194155611
 20
9.505449479906463
 30
0.0
 41
1.0
 10
44.60591117431252
 20
9.61463227854975
 30
0.0
 41
1.0
 10
44.51070139950453
 20
9.654118594415573
 30
0.0
 41
1.0
 10
44.41188508106041
 20
9.685243090258787
 30
0.0
 41
1.0
 10
44.31184339585272
 20
9.704680174701346
 30
0.0
 41
1.0
 10
44.19950155968233
 20
9.679964009554032
 30
0.0
 41
1.0
 10
44.19437563537945
 20
9.599503485292313
 30
0.0
 41
1.0
 10
44.21318958323924
 20
9.568760899524662
 30
0.0
 41
1.0
  0
POLYLINE
  5
159
330
1F
100
AcDbEntity
  8
5 star armless 2d
 62
     7
100
AcDb2dPolyline
 66
     1
 10
0.0
 20
0.0
 30
0.0
  0
VERTEX
  5
15A
330
159
100
AcDbEntity
  8
5 star armless 2d
 62
     7
100
AcDbVertex
100
AcDb2dVertex
 10
44.21318958323924
 20
9.568760899524662
 30
0.0
  0
VERTEX
  5
15B
330
159
100
AcDbEntity
  8
5 star armless 2d
 62
     7
100
AcDbVertex
100
AcDb2dVertex
 10
47.45859922051678
 20
4.265658920678066
 30
0.0
  0
SEQEND
  5
15C
330
159
100
AcDbEntity
  8
5 star armless 2d
 62
     7
  0
SPLINE
  5
15D
330
1F
100
AcDbEntity
  8
5 star armless 2d
 62
     7
100
AcDbSpline
210
0.0
220
0.0
230
1.0
 70
     8
 71
     3
 72
     8
 73
     4
 74
     0
 42
0.0000000001
 43
0.0000000001
 40
0.0
 40
0.0
 40
0.0
 40
0.0
 40
1.0
 40
1.0
 40
1.0
 40
1.0
 10
47.45859922051678
 20
4.265658920678066
 30
0.0
 10
47.47300167333083
 20
4.242124857322507
 30
0.0
 10
47.48163550484331
 20
4.200330909825125
 30
0.0
 10
47.48253206447097
 20
4.172003142402237
 30
0.0
  0
SPLINE
  5
15E
330
1F
100
AcDbEntity
  8
5 star armless 2d
 62
     7
100
AcDbSpline
210
0.0
220
0.0
230
1.0
 70
    12
 71
     2
 72
     6
 73
     3
 74
     0
 42
0.0000000001
 43
0.0000000001
 40
-1.512756969035545
 40
-1.512756969035545
 40
-1.512756969035545
 40
0.0
 40
0.0
 40
0.0
 10
47.48253206447097
 20
4.172003142402237
 30
0.0
 41
1.0
 10
47.50645908413505
 20
3.416003176248295
 30
0.0
 41
0.9999999485412034
 10
47.53087116009347
 20
2.660018717650004
 30
0.0
 41
1.0
  0
POLYLINE
  5
15F
330
1F
100
AcDbEntity
  8
5 star armless 2d
 62
     7
100
AcDb2dPolyline
 66
     1
 10
0.0
 20
0.0
 30
0.0
  0
VERTEX
  5
160
330
15F
100
AcDbEntity
  8
5 star armless 2d
 62
     7
100
AcDbVertex
100
AcDb2dVertex
 10
47.53087116009347
 20
2.660018717650004
 30
0.0
  0
VERTEX
  5
161
330
15F
100
AcDbEntity
  8
5 star armless 2d
 62
     7
100
AcDbVertex
100
AcDb2dVertex
 10
46.63117911630125
 20
2.660168991875378
 30
0.0
  0
SEQEND
  5
162
330
15F
100
AcDbEntity
  8
5 star armless 2d
 62
     7
  0
SPLINE
  5
163
330
1F
100
AcDbEntity
  8
5 star armless 2d
 62
     7
100
AcDbSpline
210
0.0
220
0.0
230
1.0
 70
    12
 71
     2
 72
     6
 73
     3
 74
     0
 42
0.0000000001
 43
0.0000000001
 40
-1.245793831308005
 40
-1.245793831308005
 40
-1.245793831308005
 40
-0.3022830972799434
 40
-0.3022830972799434
 40
-0.3022830972799434
 10
46.63117911630125
 20
2.660168991875378
 30
0.0
 41
1.0
 10
46.66312211202106
 20
3.131786774104664
 30
0.0
 41
0.996441755678691
 10
46.62568188706698
 20
3.603000013568393
 30
0.0
 41
0.9982732341623577
  0
SPLINE
  5
164
330
1F
100
AcDbEntity
  8
5 star armless 2d
 62
     7
100
AcDbSpline
210
0.0
220
0.0
230
1.0
 70
    12
 71
     3
 72
    27
 73
    23
 74
     0
 42
0.0000000001
 43
0.0000000001
 40
-4.752632627550671
 40
-4.752632627550671
 40
-4.752632627550671
 40
-4.752632627550671
 40
0.0
 40
0.0
 40
0.0
 40
1.0
 40
2.0
 40
3.0
 40
4.0
 40
5.0
 40
5.0
 40
5.0
 40
13.53766226575111
 40
13.53766226575111
 40
13.53766226575111
 40
14.53766226575111
 40
14.53766226575111
 40
14.53766226575111
 40
15.43738962158345
 40
15.43738962158345
 40
15.43738962158345
 40
16.88644113557532
 40
16.88644113557532
 40
16.88644113557532
 40
16.88644113557532
 10
46.62568188706699
 20
3.603000013568392
 30
0.0
 41
1.0
 10
45.63198633467423
 20
4.83681246519216
 30
0.0
 41
1.0
 10
44.63829078228148
 20
6.070624916815835
 30
0.0
 41
1.0
 10
43.64459522988871
 20
7.304437368439513
 30
0.0
 41
1.0
 10
43.53690055014339
 20
7.428400774618882
 30
0.0
 41
1.0
 10
43.24744738936143
 20
7.594334340050533
 30
0.0
 41
1.0
 10
42.76417130274181
 20
7.698992582068023
 30
0.0
 41
1.0
 10
42.27314237880135
 20
7.639441152800283
 30
0.0
 41
1.0
 10
41.80390486015385
 20
7.499181342977608
 30
0.0
 41
1.0
 10
41.50203925173376
 20
7.37391067205007
 30
0.0
 41
1.0
 10
41.3544529999745
 20
7.304437368438134
 30
0.0
 41
1.0
 10
38.78279254347336
 20
6.085569912048854
 30
0.0
 41
0.9999999800532681
 10
36.21143032639016
 20
4.866073405972472
 30
0.0
 41
0.9999999800532681
 10
33.64036650259575
 20
3.6459479231839
 30
0.0
 41
1.0
 10
33.2765530819655
 20
3.473296423293735
 30
0.0
 41
1.0
 10
33.10819782206021
 20
3.087066298520889
 30
0.0
 41
1.0
 10
33.10819782206021
 20
2.660000000000137
 30
0.0
 41
1.0
 10
32.80828870483509
 20
2.660028829766123
 30
0.0
 41
1.0
 10
32.50837958760999
 20
2.660057659532109
 30
0.0
 41
1.0
 10
32.2084704703849
 20
2.660086489298094
 30
0.0
 41
1.0
 10
32.22497806911657
 20
3.142821502051313
 30
0.0
 41
0.9999999761964694
 10
32.24135666713964
 20
3.625560908854334
 30
0.0
 41
0.9999999761964694
 10
32.25806376839803
 20
4.116482490286194
 30
0.0
 41
1.0
  0
SPLINE
  5
165
330
1F
100
AcDbEntity
  8
5 star armless 2d
 62
     7
100
AcDbSpline
210
0.0
220
0.0
230
1.0
 70
    12
 71
     2
 72
     6
 73
     3
 74
     0
 42
0.0000000001
 43
0.0000000001
 40
-0.1475718051851499
 40
-0.1475718051851499
 40
-0.1475718051851499
 40
0.0
 40
0.0
 40
0.0
 10
32.25806376839803
 20
4.116482490286194
 30
0.0
 41
1.0
 10
32.27756493522882
 20
4.19147370520915
 30
0.0
 41
0.9298992403779746
 10
32.34308811207873
 20
4.2328342071268
 30
0.0
 41
1.0
  0
LINE
  5
166
330
1F
100
AcDbEntity
  8
5 star armless 2d
 62
     7
100
AcDbLine
 10
32.34308811207873
 20
4.2328342071268
 30
0.0
 11
41.25267882920324
 21
9.530657053041132
 31
0.0
  0
SPLINE
  5
167
330
1F
100
AcDbEntity
  8
5 star armless 2d
 62
     7
100
AcDbSpline
210
0.0
220
0.0
230
1.0
 70
     8
 71
     3
 72
     8
 73
     4
 74
     0
 42
0.0000000001
 43
0.0000000001
 40
0.0
 40
0.0
 40
0.0
 40
0.0
 40
1.0
 40
1.0
 40
1.0
 40
1.0
 10
41.25267882920324
 20
9.530657053041132
 30
0.0
 10
41.36354958712955
 20
9.596576583270489
 30
0.0
 10
41.54937019516137
 20
9.72099660626138
 30
0.0
 10
41.66473866307581
 20
9.777064126742816
 30
0.0
  0
SPLINE
  5
168
330
1F
100
AcDbEntity
  8
5 star armless 2d
 62
     7
100
AcDbSpline
210
0.0
220
0.0
230
1.0
 70
    12
 71
     2
 72
     6
 73
     3
 74
     0
 42
0.0000000001
 43
0.0000000001
 40
-0.5156585066182181
 40
-0.5156585066182181
 40
-0.5156585066182181
 40
0.0
 40
0.0
 40
0.0
 10
41.66473866307581
 20
9.777064126742816
 30
0.0
 41
1.0
 10
41.91961919341376
 20
9.900932629232077
 30
0.0
 41
0.8700566014254595
 10
41.94438566874348
 20
10.18337301756451
 30
0.0
 41
1.0
  0
SPLINE
  5
169
330
1F
100
AcDbEntity
  8
5 star armless 2d
 62
     7
100
AcDbSpline
210
0.0
220
0.0
230
1.0
 70
    24
 71
     2
 72
     6
 73
     3
 74
     0
 42
0.0000000001
 43
0.0000000001
 40
-0.235113173942888
 40
-0.235113173942888
 40
-0.235113173942888
 40
0.0
 40
0.0
 40
0.0
 10
41.94438566874348
 20
10.18337301756451
 30
0.0
 10
41.95463743159432
 20
10.30055120314601
 30
0.0
 10
41.96488919444517
 20
10.4177293887275
 30
0.0
  0
SPLINE
  5
16A
330
1F
100
AcDbEntity
  8
5 star armless 2d
 62
     7
100
AcDbSpline
210
0.0
220
0.0
230
1.0
 70
     8
 71
     3
 72
     8
 73
     4
 74
     0
 42
0.0000000001
 43
0.0000000001
 40
0.0
 40
0.0
 40
0.0
 40
0.0
 40
1.0
 40
1.0
 40
1.0
 40
1.0
 10
41.96488919444517
 20
10.4177293887275
 30
0.0
 10
41.96785550526011
 20
10.45163447648856
 30
0.0
 10
41.98403918391547
 20
10.4725
 30
0.0
 10
42.01638552134495
 20
10.4725
 30
0.0
  0
SPLINE
  5
16B
330
1F
100
AcDbEntity
  8
5 star armless 2d
 62
     7
100
AcDbSpline
210
0.0
220
0.0
230
1.0
 70
    24
 71
     2
 72
     6
 73
     3
 74
     0
 42
0.0000000001
 43
0.0000000001
 40
-2.160970480682444
 40
-2.160970480682444
 40
-2.160970480682444
 40
0.0
 40
0.0
 40
0.0
 10
42.01638552134495
 20
10.4725
 30
0.0
 10
43.09687076168618
 20
10.4725
 30
0.0
 10
44.17735600202739
 20
10.4725
 30
0.0
  0
SPLINE
  5
16C
330
1F
100
AcDbEntity
  8
5 star armless 2d
 62
     7
100
AcDbSpline
210
0.0
220
0.0
230
1.0
 70
     8
 71
     3
 72
     8
 73
     4
 74
     0
 42
0.0000000001
 43
0.0000000001
 40
-1.0
 40
-1.0
 40
-1.0
 40
-1.0
 40
0.0
 40
0.0
 40
0.0
 40
0.0
 10
44.17735600202739
 20
10.4725
 30
0.0
 10
44.20793926924253
 20
10.4725
 30
0.0
 10
44.22158439578226
 20
10.45074410980692
 30
0.0
 10
44.22447280960618
 20
10.4177293887275
 30
0.0
  0
SPLINE
  5
16D
330
1F
100
AcDbEntity
  8
5 star armless 2d
 62
     7
100
AcDbSpline
210
0.0
220
0.0
230
1.0
 70
    24
 71
     2
 72
     6
 73
     3
 74
     0
 42
0.0000000001
 43
0.0000000001
 40
-0.2350597603612618
 40
-0.2350597603612618
 40
-0.2350597603612618
 40
0.0
 40
0.0
 40
0.0
 10
44.22447280960618
 20
10.4177293887275
 30
0.0
 10
44.23472340863193
 20
10.30056450572771
 30
0.0
 10
44.24497400765768
 20
10.18339962272792
 30
0.0
  0
SPLINE
  5
16E
330
1F
100
AcDbEntity
  8
5 star armless 2d
 62
     7
100
AcDbSpline
210
0.0
220
0.0
230
1.0
 70
    12
 71
     2
 72
     6
 73
     3
 74
     0
 42
0.0000000001
 43
0.0000000001
 40
-0.5149846699089362
 40
-0.5149846699089362
 40
-0.5149846699089362
 40
0.0
 40
0.0
 40
0.0
 10
44.24497400765768
 20
10.18339962272792
 30
0.0
 41
1.0
 10
44.26967325389887
 20
9.901361811503376
 30
0.0
 41
0.8703382287571477
 10
44.52591924683104
 20
9.77644189009399
 30
0.0
 41
1.0
  0
POLYLINE
  5
16F
330
1F
100
AcDbEntity
  8
5 star armless 2d
 62
     7
100
AcDb2dPolyline
 66
     1
 10
0.0
 20
0.0
 30
0.0
  0
VERTEX
  5
170
330
16F
100
AcDbEntity
  8
5 star armless 2d
 62
     7
100
AcDbVertex
100
AcDb2dVertex
 10
44.52591924683104
 20
9.77644189009399
 30
0.0
  0
VERTEX
  5
171
330
16F
100
AcDbEntity
  8
5 star armless 2d
 62
     7
100
AcDbVertex
100
AcDb2dVertex
 10
56.36098389651022
 20
4.131395388087267
 30
0.0
  0
SEQEND
  5
172
330
16F
100
AcDbEntity
  8
5 star armless 2d
 62
     7
  0
SPLINE
  5
173
330
1F
100
AcDbEntity
  8
5 star armless 2d
 62
     7
100
AcDbSpline
210
0.0
220
0.0
230
1.0
 70
     8
 71
     3
 72
     8
 73
     4
 74
     0
 42
0.0000000001
 43
0.0000000001
 40
0.0
 40
0.0
 40
0.0
 40
0.0
 40
1.0
 40
1.0
 40
1.0
 40
1.0
 10
56.36098389651022
 20
4.131395388087267
 30
0.0
 10
56.38140198527852
 20
4.12165644166062
 30
0.0
 10
56.39432614489724
 20
4.101942621898829
 30
0.0
 10
56.39511566006564
 20
4.079334364497554
 30
0.0
  0
SPLINE
  5
174
330
1F
100
AcDbEntity
  8
5 star armless 2d
 62
     7
100
AcDbSpline
210
0.0
220
0.0
230
1.0
 70
    24
 71
     2
 72
     6
 73
     3
 74
     0
 42
0.0000000001
 43
0.0000000001
 40
0.0
 40
0.0
 40
0.0
 40
1.420199549843337
 40
1.420199549843337
 40
1.420199549843337
 10
56.39511566006564
 20
4.079334364497554
 30
0.0
 10
56.41989833105865
 20
3.369667182247834
 30
0.0
 10
56.44468100205167
 20
2.659999999998115
 30
0.0
  0
POLYLINE
  5
175
330
1F
100
AcDbEntity
  8
5 star armless 2d
 62
     7
100
AcDb2dPolyline
 66
     1
 10
0.0
 20
0.0
 30
0.0
  0
VERTEX
  5
176
330
175
100
AcDbEntity
  8
5 star armless 2d
 62
     7
100
AcDbVertex
100
AcDb2dVertex
 10
56.44468100205167
 20
2.659999999998115
 30
0.0
  0
VERTEX
  5
177
330
175
100
AcDbEntity
  8
5 star armless 2d
 62
     7
100
AcDbVertex
100
AcDb2dVertex
 10
55.57333079139435
 20
2.659999999999798
 30
0.0
  0
SEQEND
  5
178
330
175
100
AcDbEntity
  8
5 star armless 2d
 62
     7
  0
SPLINE
  5
179
330
1F
100
AcDbEntity
  8
5 star armless 2d
 62
     7
100
AcDbSpline
210
0.0
220
0.0
230
1.0
 70
     8
 71
     3
 72
    11
 73
     7
 74
     0
 42
0.0000000001
 43
0.0000000001
 40
0.0
 40
0.0
 40
0.0
 40
0.0
 40
0.1838468384547168
 40
0.3546873507427598
 40
0.678130839169078
 40
1.258468549423676
 40
1.258468549423676
 40
1.258468549423676
 40
1.258468549423676
 10
55.57333079139435
 20
2.659999999999798
 30
0.0
 10
55.56374381958794
 20
2.720256541745729
 30
0.0
 10
55.54179871856417
 20
2.83731322084425
 30
0.0
 10
55.47680088456323
 20
3.05292411362444
 30
0.0
 10
55.32237917438471
 20
3.380989735269258
 30
0.0
 10
55.07776292616118
 20
3.578706641517335
 30
0.0
 10
54.89565012342467
 20
3.645947923180264
 30
0.0
  0
SPLINE
  5
17A
330
1F
100
AcDbEntity
  8
5 star armless 2d
 62
     7
100
AcDbSpline
210
0.0
220
0.0
230
1.0
 70
    12
 71
     2
 72
     6
 73
     3
 74
     0
 42
0.0000000001
 43
0.0000000001
 40
-9.876756628477734
 40
-9.876756628477734
 40
-9.876756628477734
 40
0.0
 40
0.0
 40
0.0
 10
54.89565012342467
 20
3.645947923180264
 30
0.0
 41
1.0
 10
50.28533774402013
 20
5.415863347432047
 30
0.0
 41
0.9999999855414793
 10
45.67442368261955
 20
7.184210701056145
 30
0.0
 41
1.0
  0
SPLINE
  5
17B
330
1F
100
AcDbEntity
  8
5 star armless 2d
 62
     7
100
AcDbSpline
210
0.0
220
0.0
230
1.0
 70
    24
 71
     2
 72
     6
 73
     3
 74
     0
 42
0.0000000001
 43
0.0000000001
 40
-0.1769999999999996
 40
-0.1769999999999996
 40
-0.1769999999999996
 40
0.0
 40
0.0
 40
0.0
 10
42.0120060020274
 20
10.4725
 30
0.0
 10
42.01310088185679
 20
10.56100000309944
 30
0.0
 10
42.01419576168617
 20
10.64950000619888
 30
0.0
  0
SPLINE
  5
17C
330
1F
100
AcDbEntity
  8
5 star armless 2d
 62
     7
100
AcDbSpline
210
0.0
220
0.0
230
1.0
 70
    12
 71
     2
 72
    10
 73
     7
 74
     0
 42
0.0000000001
 43
0.0000000001
 40
0.0
 40
0.0
 40
0.0
 40
0.0021911685109025
 40
0.0021911685109025
 40
1.703947257026892
 40
1.703947257026892
 40
3.405703345542882
 40
3.405703345542882
 40
3.405703345542882
 10
42.01419576168617
 20
10.64950000619888
 30
0.0
 41
1.0
 10
42.01310088185679
 20
10.64950001239777
 30
0.0
 41
1.0
 10
42.0120060020274
 20
10.64950001239777
 30
0.0
 41
1.0
 10
42.01200600202739
 20
10.6495
 30
0.0
 41
0.7071067811865476
 10
43.0946810020274
 20
10.6495
 30
0.0
 41
1.0
 10
44.17735600202739
 20
10.6495
 30
0.0
 41
0.7071067811865476
 10
44.17735600202739
 20
10.6495
 30
0.0
 41
1.0
  0
SPLINE
  5
17D
330
1F
100
AcDbEntity
  8
5 star armless 2d
 62
     7
100
AcDbSpline
210
0.0
220
0.0
230
1.0
 70
    24
 71
     2
 72
     6
 73
     3
 74
     0
 42
0.0000000001
 43
0.0000000001
 40
0.0
 40
0.0
 40
0.0
 40
0.1769999999999996
 40
0.1769999999999996
 40
0.1769999999999996
 10
44.17735600202739
 20
10.6495
 30
0.0
 10
44.17735600202739
 20
10.561
 30
0.0
 10
44.17735600202739
 20
10.4725
 30
0.0
  0
LINE
  5
17E
330
1F
100
AcDbEntity
  8
5 star armless 2d
 62
     7
100
AcDbLine
 10
47.67981209627867
 20
13.84846052056485
 30
0.0
 11
47.6753615098907
 21
13.82179986645542
 31
0.0
  0
ARC
  5
17F
330
1F
100
AcDbEntity
  8
5 star armless 2d
 62
     7
100
AcDbCircle
 10
47.62617073201359
 20
13.83001151068345
 30
0.0
 40
0.0498714720966085
100
AcDbArc
 50
280.2642652631743
 51
350.5227403102793
  0
SPLINE
  5
180
330
1F
100
AcDbEntity
  8
5 star armless 2d
 62
     7
100
AcDbSpline
210
0.0
220
0.0
230
1.0
 70
     8
 71
     3
 72
    12
 73
     8
 74
     0
 42
0.0000000001
 43
0.0000000001
 40
0.0
 40
0.0
 40
0.0
 40
0.0
 40
1.0
 40
2.0
 40
3.0
 40
4.0
 40
5.0
 40
5.0
 40
5.0
 40
5.0
 10
47.63505725692819
 20
13.78093816349758
 30
0.0
 10
47.16643300907461
 20
13.69521955351942
 30
0.0
 10
46.22439225714676
 20
13.54949985752081
 30
0.0
 10
44.80178620526481
 20
13.40882917422387
 30
0.0
 10
43.37254723827583
 20
13.34669266167634
 30
0.0
 10
41.94592824464897
 20
13.36275072100859
 30
0.0
 10
40.98723418514349
 20
13.42667253936713
 30
0.0
 10
40.52696617583102
 20
13.47002899673343
 30
0.0
  0
SPLINE
  5
181
330
1F
100
AcDbEntity
  8
5 star armless 2d
 62
     7
100
AcDbSpline
210
0.0
220
0.0
230
1.0
 70
     8
 71
     3
 72
     8
 73
     4
 74
     0
 42
0.0000000001
 43
0.0000000001
 40
0.0
 40
0.0
 40
0.0
 40
0.0
 40
1.0
 40
1.0
 40
1.0
 40
1.0
 10
40.52696617583102
 20
13.47002899673343
 30
0.0
 10
40.50116609835923
 20
13.47245931979808
 30
0.0
 10
40.48299046509908
 20
13.48637659166176
 30
0.0
 10
40.47841170298165
 20
13.51108137796573
 30
0.0
  0
SPLINE
  5
182
330
1F
100
AcDbEntity
  8
5 star armless 2d
 62
     7
100
AcDbSpline
210
0.0
220
0.0
230
1.0
 70
    24
 71
     2
 72
     6
 73
     3
 74
     0
 42
0.0000000001
 43
0.0000000001
 40
-0.4665619595548645
 40
-0.4665619595548645
 40
-0.4665619595548645
 40
-0.0496360617664248
 40
-0.0496360617664248
 40
-0.0496360617664248
 10
40.47841170298165
 20
13.51108137796573
 30
0.0
 10
40.44042234298222
 20
13.71605359459156
 30
0.0
 10
40.40243298298279
 20
13.9210258112174
 30
0.0
  0
POLYLINE
  5
183
330
1F
100
AcDbEntity
  8
5 star armless 2d
 62
     7
100
AcDb2dPolyline
 66
     1
 10
0.0
 20
0.0
 30
0.0
  0
VERTEX
  5
184
330
183
100
AcDbEntity
  8
5 star armless 2d
 62
     7
100
AcDbVertex
100
AcDb2dVertex
 10
43.99468334841906
 20
11.44850000000006
 30
0.0
  0
VERTEX
  5
185
330
183
100
AcDbEntity
  8
5 star armless 2d
 62
     7
100
AcDbVertex
100
AcDb2dVertex
 10
42.19467849631443
 20
11.44850000000026
 30
0.0
  0
SEQEND
  5
186
330
183
100
AcDbEntity
  8
5 star armless 2d
 62
     7
  0
SPLINE
  5
187
330
1F
100
AcDbEntity
  8
5 star armless 2d
 62
     7
100
AcDbSpline
210
0.0
220
0.0
230
1.0
 70
     8
 71
     3
 72
    15
 73
    11
 74
     0
 42
0.0000000001
 43
0.0000000001
 40
0.0
 40
0.0
 40
0.0
 40
0.0
 40
0.088124537773681
 40
0.2036322619253983
 40
0.5536785235545323
 40
0.9663894600886468
 40
2.317551417327644
 40
3.055061107656346
 40
3.592815813003493
 40
4.012655738350881
 40
4.012655738350881
 40
4.012655738350881
 40
4.012655738350881
 10
43.99468334841906
 20
11.44850000000006
 30
0.0
 10
43.99527958264739
 20
11.47745775224647
 30
0.0
 10
44.01540190044006
 20
11.54494407003988
 30
0.0
 10
44.13701656561458
 20
11.68606875203309
 30
0.0
 10
44.38051271275182
 20
11.85146864294019
 30
0.0
 10
44.99978223326541
 20
12.18678443185859
 30
0.0
 10
45.7566797438328
 20
12.53919912979094
 30
0.0
 10
46.51111582423577
 20
12.98530508446312
 30
0.0
 10
46.95709825171792
 20
13.33535713629871
 30
0.0
 10
47.15983669539897
 20
13.58573020979586
 30
0.0
 10
47.22490726390367
 20
13.71003368292902
 30
0.0
  0
SPLINE
  5
188
330
1F
100
AcDbEntity
  8
5 star armless 2d
 62
     7
100
AcDbSpline
210
0.0
220
0.0
230
1.0
 70
     8
 71
     3
 72
    13
 73
     9
 74
     0
 42
0.0000000001
 43
0.0000000001
 40
0.0
 40
0.0
 40
0.0
 40
0.0
 40
0.2981212301897408
 40
0.6520033169486873
 40
1.758667477961158
 40
2.027920145093279
 40
2.255864737809852
 40
2.398137421766556
 40
2.398137421766556
 40
2.398137421766556
 40
2.398137421766556
 10
40.87973850500006
 20
13.43934109768011
 30
0.0
 10
40.92443272586447
 20
13.35050118606836
 30
0.0
 10
41.03279204071114
 20
13.16208929473772
 30
0.0
 10
41.35795910109579
 20
12.67367285548259
 30
0.0
 10
41.72466109466762
 20
12.22778141601311
 30
0.0
 10
42.03970388287377
 20
11.79589389131447
 30
0.0
 10
42.15093359046721
 20
11.61353389510526
 30
0.0
 10
42.19370811827841
 20
11.49659361000831
 30
0.0
 10
42.19467849631443
 20
11.44850000000026
 30
0.0
  0
SPLINE
  5
189
330
1F
100
AcDbEntity
  8
5 star armless 2d
 62
     7
100
AcDbSpline
210
0.0
220
0.0
230
1.0
 70
    24
 71
     2
 72
     6
 73
     3
 74
     0
 42
0.0000000001
 43
0.0000000001
 40
0.0
 40
0.0
 40
0.0
 40
0.0819628544030055
 40
0.0819628544030055
 40
0.0819628544030055
 10
56.33843100202365
 20
2.55999999999999
 30
0.0
 10
56.33843100202365
 20
2.600981427201493
 30
0.0
 10
56.33843100202365
 20
2.641962854402996
 30
0.0
  0
SPLINE
  5
18A
330
1F
100
AcDbEntity
  8
5 star armless 2d
 62
     7
100
AcDbSpline
210
0.0
220
0.0
230
1.0
 70
    24
 71
     2
 72
     6
 73
     3
 74
     0
 42
0.0000000001
 43
0.0000000001
 40
0.0
 40
0.0
 40
0.0
 40
0.0819628544030055
 40
0.0819628544030055
 40
0.0819628544030055
 10
47.42475022946191
 20
2.559999999999991
 30
0.0
 10
47.42475022946191
 20
2.600981427201494
 30
0.0
 10
47.42475022946191
 20
2.641962854402996
 30
0.0
  0
SPLINE
  5
18B
330
1F
100
AcDbEntity
  8
5 star armless 2d
 62
     7
100
AcDbSpline
210
0.0
220
0.0
230
1.0
 70
    24
 71
     2
 72
     6
 73
     3
 74
     0
 42
0.0000000001
 43
0.0000000001
 40
0.0
 40
0.0
 40
0.0
 40
0.0819628544030051
 40
0.0819628544030051
 40
0.0819628544030051
 10
33.0021117745906
 20
2.55999999999999
 30
0.0
 10
33.0021117745906
 20
2.600981427201493
 30
0.0
 10
33.0021117745906
 20
2.641962854402995
 30
0.0
  0
SPLINE
  5
18C
330
1F
100
AcDbEntity
  8
5 star armless 2d
 62
     7
100
AcDbSpline
210
0.0
220
0.0
230
1.0
 70
    24
 71
     2
 72
     6
 73
     3
 74
     0
 42
0.0000000001
 43
0.0000000001
 40
0.0
 40
0.0
 40
0.0
 40
0.7989999999999959
 40
0.7989999999999959
 40
0.7989999999999959
 10
42.5438960020274
 20
11.4485
 30
0.0
 10
42.5438960020274
 20
11.049
 30
0.0
 10
42.5438960020274
 20
10.6495
 30
0.0
  0
SPLINE
  5
18D
330
1F
100
AcDbEntity
  8
5 star armless 2d
 62
     7
100
AcDbSpline
210
0.0
220
0.0
230
1.0
 70
    24
 71
     2
 72
     6
 73
     3
 74
     0
 42
0.0000000001
 43
0.0000000001
 40
0.0
 40
0.0
 40
0.0
 40
6.037627544110311
 40
6.037627544110311
 40
6.037627544110311
 10
42.30728100202739
 20
7.632127544110312
 30
0.0
 10
42.30728100202739
 20
4.613313772055156
 30
0.0
 10
42.30728100202739
 20
1.5945
 30
0.0
  0
SPLINE
  5
18E
330
1F
100
AcDbEntity
  8
5 star armless 2d
 62
     7
100
AcDbSpline
210
0.0
220
0.0
230
1.0
 70
    24
 71
     2
 72
     6
 73
     3
 74
     0
 42
0.0000000001
 43
0.0000000001
 40
0.0
 40
0.0
 40
0.0
 40
0.0819628544030055
 40
0.0819628544030055
 40
0.0819628544030055
 10
55.65093100202353
 20
2.559999999999991
 30
0.0
 10
55.65093100202353
 20
2.600981427201494
 30
0.0
 10
55.65093100202353
 20
2.641962854402997
 30
0.0
  0
SPLINE
  5
18F
330
1F
100
AcDbEntity
  8
5 star armless 2d
 62
     7
100
AcDbSpline
210
0.0
220
0.0
230
1.0
 70
    24
 71
     2
 72
     6
 73
     3
 74
     0
 42
0.0000000001
 43
0.0000000001
 40
0.0
 40
0.0
 40
0.0
 40
0.6875000000001208
 40
0.6875000000001208
 40
0.6875000000001208
 10
55.65093100202353
 20
2.641962854402997
 30
0.0
 10
55.99468100202358
 20
2.641962854402996
 30
0.0
 10
56.33843100202365
 20
2.641962854402996
 30
0.0
  0
SPLINE
  5
190
330
1F
100
AcDbEntity
  8
5 star armless 2d
 62
     7
100
AcDbSpline
210
0.0
220
0.0
230
1.0
 70
    24
 71
     2
 72
     6
 73
     3
 74
     0
 42
0.0000000001
 43
0.0000000001
 40
0.0
 40
0.0
 40
0.0
 40
0.0819628544030055
 40
0.0819628544030055
 40
0.0819628544030055
 10
46.73725022946179
 20
2.559999999999992
 30
0.0
 10
46.73725022946179
 20
2.600981427201495
 30
0.0
 10
46.73725022946179
 20
2.641962854402997
 30
0.0
  0
SPLINE
  5
191
330
1F
100
AcDbEntity
  8
5 star armless 2d
 62
     7
100
AcDbSpline
210
0.0
220
0.0
230
1.0
 70
    24
 71
     2
 72
     6
 73
     3
 74
     0
 42
0.0000000001
 43
0.0000000001
 40
0.0
 40
0.0
 40
0.0
 40
0.6875000000001208
 40
0.6875000000001208
 40
0.6875000000001208
 10
47.42475022946191
 20
2.641962854402996
 30
0.0
 10
47.08100022946185
 20
2.641962854402997
 30
0.0
 10
46.73725022946179
 20
2.641962854402997
 30
0.0
  0
SPLINE
  5
192
330
1F
100
AcDbEntity
  8
5 star armless 2d
 62
     7
100
AcDbSpline
210
0.0
220
0.0
230
1.0
 70
    24
 71
     2
 72
     6
 73
     3
 74
     0
 42
0.0000000001
 43
0.0000000001
 40
0.0
 40
0.0
 40
0.0
 40
0.0819628544030055
 40
0.0819628544030055
 40
0.0819628544030055
 10
32.31461177459047
 20
2.559999999999991
 30
0.0
 10
32.31461177459047
 20
2.600981427201494
 30
0.0
 10
32.31461177459047
 20
2.641962854402996
 30
0.0
  0
SPLINE
  5
193
330
1F
100
AcDbEntity
  8
5 star armless 2d
 62
     7
100
AcDbSpline
210
0.0
220
0.0
230
1.0
 70
    24
 71
     2
 72
     6
 73
     3
 74
     0
 42
0.0000000001
 43
0.0000000001
 40
0.0
 40
0.0
 40
0.0
 40
0.6875000000001279
 40
0.6875000000001279
 40
0.6875000000001279
 10
33.0021117745906
 20
2.641962854402995
 30
0.0
 10
32.65836177459054
 20
2.641962854402996
 30
0.0
 10
32.31461177459047
 20
2.641962854402996
 30
0.0
  0
SPLINE
  5
194
330
1F
100
AcDbEntity
  8
5 star armless 2d
 62
     7
100
AcDbSpline
210
0.0
220
0.0
230
1.0
 70
    24
 71
     2
 72
     6
 73
     3
 74
     0
 42
0.0000000001
 43
0.0000000001
 40
0.0
 40
0.0
 40
0.0
 40
0.7989999999998556
 40
0.7989999999998556
 40
0.7989999999998556
 10
43.6454660020274
 20
11.44849999999986
 30
0.0
 10
43.6454660020274
 20
11.04899999999993
 30
0.0
 10
43.6454660020274
 20
10.6495
 30
0.0
  0
SPLINE
  5
195
330
1F
100
AcDbEntity
  8
5 star armless 2d
 62
     7
100
AcDbSpline
210
0.0
220
0.0
230
1.0
 70
    24
 71
     2
 72
     6
 73
     3
 74
     0
 42
0.0000000001
 43
0.0000000001
 40
0.0
 40
0.0
 40
0.0
 40
1.571614895041904
 40
1.571614895041904
 40
1.571614895041904
 10
43.8820810020274
 20
1.594500000000001
 30
0.0
 10
43.09627355450645
 20
1.594500000000001
 30
0.0
 10
42.31046610698549
 20
1.594500000000001
 30
0.0
  0
SPLINE
  5
196
330
1F
100
AcDbEntity
  8
5 star armless 2d
 62
     7
100
AcDbSpline
210
0.0
220
0.0
230
1.0
 70
    24
 71
     2
 72
     6
 73
     3
 74
     0
 42
0.0000000001
 43
0.0000000001
 40
0.0
 40
0.0
 40
0.0
 40
5.415527854385247
 40
5.415527854385247
 40
5.415527854385247
 10
43.88208100202739
 20
7.010027854385248
 30
0.0
 10
43.88208100202739
 20
4.302263927192625
 30
0.0
 10
43.8820810020274
 20
1.594500000000001
 30
0.0
  0
SPLINE
  5
197
330
1F
100
AcDbEntity
  8
5 star armless 2d
 62
     7
100
AcDbSpline
210
0.0
220
0.0
230
1.0
 70
     8
 71
     3
 72
    30
 73
    26
 74
     0
 42
0.0000000001
 43
0.0000000001
 40
0.0
 40
0.0
 40
0.0
 40
0.0
 40
1.0
 40
2.0
 40
3.0
 40
4.0
 40
5.0
 40
6.0
 40
7.0
 40
8.0
 40
9.0
 40
10.0
 40
11.0
 40
12.0
 40
13.0
 40
14.0
 40
15.0
 40
16.0
 40
17.0
 40
18.0
 40
19.0
 40
20.0
 40
21.0
 40
22.0
 40
23.0
 40
23.0
 40
23.0
 40
23.0
 10
0.0000000000053886
 20
50.24870676094142
 30
0.0
 10
0.43437183833063
 20
50.24657786910742
 30
0.0
 10
1.302879489620316
 20
50.27318094854256
 30
0.0
 10
2.60183131372174
 20
50.38953421977524
 30
0.0
 10
3.883159286403184
 20
50.6327669430153
 30
0.0
 10
5.137733266552364
 20
50.99637040029071
 30
0.0
 10
6.345924785364113
 20
51.46911494684814
 30
0.0
 10
7.494852916510645
 20
52.15598099239796
 30
0.0
 10
8.114374530482756
 20
53.34054912308126
 30
0.0
 10
8.392588337071231
 20
54.61552493439444
 30
0.0
 10
8.523219113132093
 20
55.91344121654892
 30
0.0
 10
8.57506955652885
 20
57.21553594427162
 30
0.0
 10
8.603602677917596
 20
58.51821940282096
 30
0.0
 10
8.632397085344845
 20
59.82095663273841
 30
0.0
 10
8.617093745991582
 20
61.12418289670364
 30
0.0
 10
8.521036505813395
 20
62.42473065546926
 30
0.0
 10
8.370097439767106
 20
63.71703381399888
 30
0.0
 10
8.116389062097477
 20
65.00578661163748
 30
0.0
 10
7.423837850639766
 20
66.13703711533654
 30
0.0
 10
6.388354483706644
 20
66.95489440790715
 30
0.0
 10
5.176789750456556
 20
67.45654373913062
 30
0.0
 10
3.90260998606592
 20
67.741982972288
 30
0.0
 10
2.605544547053029
 20
67.88088475562328
 30
0.0
 10
1.302958205028293
 20
67.92621161974341
 30
0.0
 10
0.4343380469412434
 20
67.93526600948772
 30
0.0
 10
0.0000000000053886
 20
67.93060783989083
 30
0.0
  0
SPLINE
  5
198
330
1F
100
AcDbEntity
  8
5 star armless 2d
 62
     7
100
AcDbSpline
210
0.0
220
0.0
230
1.0
 70
     8
 71
     3
 72
    30
 73
    26
 74
     0
 42
0.0000000001
 43
0.0000000001
 40
-23.0
 40
-23.0
 40
-23.0
 40
-23.0
 40
-22.0
 40
-21.0
 40
-20.0
 40
-19.0
 40
-18.0
 40
-17.0
 40
-16.0
 40
-15.0
 40
-14.0
 40
-13.0
 40
-12.0
 40
-11.0
 40
-10.0
 40
-9.0
 40
-8.0
 40
-7.0
 40
-6.0
 40
-5.0
 40
-4.0
 40
-3.0
 40
-2.0
 40
-1.0
 40
0.0
 40
0.0
 40
0.0
 40
0.0
 10
0.0000000000053886
 20
67.93060783989083
 30
0.0
 10
-0.4343380469304663
 20
67.93526600948772
 30
0.0
 10
-1.302958205017516
 20
67.92621161974341
 30
0.0
 10
-2.605544547042252
 20
67.88088475562328
 30
0.0
 10
-3.902609986055143
 20
67.741982972288
 30
0.0
 10
-5.176789750445779
 20
67.45654373913062
 30
0.0
 10
-6.388354483695867
 20
66.95489440790715
 30
0.0
 10
-7.423837850628989
 20
66.13703711533654
 30
0.0
 10
-8.116389062086698
 20
65.00578661163748
 30
0.0
 10
-8.370097439756327
 20
63.71703381399888
 30
0.0
 10
-8.521036505802616
 20
62.42473065546926
 30
0.0
 10
-8.617093745980803
 20
61.12418289670364
 30
0.0
 10
-8.632397085334066
 20
59.82095663273841
 30
0.0
 10
-8.603602677906817
 20
58.51821940282096
 30
0.0
 10
-8.575069556518072
 20
57.21553594427162
 30
0.0
 10
-8.523219113121314
 20
55.91344121654892
 30
0.0
 10
-8.392588337060452
 20
54.61552493439444
 30
0.0
 10
-8.114374530471977
 20
53.34054912308126
 30
0.0
 10
-7.494852916499868
 20
52.15598099239796
 30
0.0
 10
-6.345924785353335
 20
51.46911494684814
 30
0.0
 10
-5.137733266541587
 20
50.99637040029071
 30
0.0
 10
-3.883159286392407
 20
50.6327669430153
 30
0.0
 10
-2.601831313710963
 20
50.38953421977524
 30
0.0
 10
-1.302879489609538
 20
50.27318094854256
 30
0.0
 10
-0.4343718383198529
 20
50.24657786910742
 30
0.0
 10
0.0000000000053886
 20
50.24870676094142
 30
0.0
  0
SPLINE
  5
199
330
1F
100
AcDbEntity
  8
5 star armless 2d
 62
     7
100
AcDbSpline
210
0.0
220
0.0
230
1.0
 70
     8
 71
     3
 72
    49
 73
    45
 74
     0
 42
0.0000000001
 43
0.0000000001
 40
0.0
 40
0.0
 40
0.0
 40
0.0
 40
1.0
 40
2.0
 40
3.0
 40
4.0
 40
5.0
 40
6.0
 40
7.0
 40
8.0
 40
9.0
 40
10.0
 40
11.0
 40
12.0
 40
13.0
 40
14.0
 40
15.0
 40
16.0
 40
17.0
 40
18.0
 40
19.0
 40
20.0
 40
21.0
 40
22.0
 40
23.0
 40
24.0
 40
25.0
 40
26.0
 40
27.0
 40
28.0
 40
29.0
 40
30.0
 40
31.0
 40
32.0
 40
33.0
 40
34.0
 40
35.0
 40
36.0
 40
37.0
 40
38.0
 40
39.0
 40
40.0
 40
41.0
 40
42.0
 40
42.0
 40
42.0
 40
42.0
 10
0.000000000004642
 20
49.933048356588
 30
0.0
 10
0.3246969020869367
 20
49.93119694959584
 30
0.0
 10
0.9741000222044298
 20
49.94412257700027
 30
0.0
 10
1.946690435363557
 20
50.00043745595563
 30
0.0
 10
2.917032350911859
 20
50.08699914330825
 30
0.0
 10
3.884293813313259
 20
50.20292362461671
 30
0.0
 10
4.846645132820617
 20
50.35574427501558
 30
0.0
 10
5.797087794451677
 20
50.57249590214804
 30
0.0
 10
6.724778445237894
 20
50.87301794056473
 30
0.0
 10
7.619073204779787
 20
51.26236736915781
 30
0.0
 10
8.455778183482286
 20
51.76843810137295
 30
0.0
 10
9.1806894535718
 20
52.42588189988776
 30
0.0
 10
9.778932616958109
 20
53.19679176828149
 30
0.0
 10
10.30825573571527
 20
54.01633009642457
 30
0.0
 10
10.7281337258586
 20
54.89717715453347
 30
0.0
 10
11.0806302766414
 20
55.80585732333303
 30
0.0
 10
11.3422267610356
 20
56.74520286565679
 30
0.0
 10
11.54815561181327
 20
57.69750899635984
 30
0.0
 10
11.69902369462766
 20
58.66043225984788
 30
0.0
 10
11.77690778738228
 20
59.63198946070213
 30
0.0
 10
11.80377472230092
 20
60.6058614084892
 30
0.0
 10
11.80192997970336
 20
61.57997528099943
 30
0.0
 10
11.76726469665433
 20
62.55391647253911
 30
0.0
 10
11.65710821891756
 20
63.52242264241535
 30
0.0
 10
11.48647509883293
 20
64.48167633674753
 30
0.0
 10
11.26668716452036
 20
65.43143393496516
 30
0.0
 10
10.96963401404532
 20
66.35947532806198
 30
0.0
 10
10.71368565027763
 20
67.29949757210976
 30
0.0
 10
10.41510086338943
 20
68.22689261599888
 30
0.0
 10
10.15966624523466
 20
69.1671865273744
 30
0.0
 10
9.910156384121962
 20
70.1082857432859
 30
0.0
 10
9.649085992551791
 20
71.04806644215294
 30
0.0
 10
9.400531022011997
 20
71.98335309753868
 30
0.0
 10
9.206360371855773
 20
72.9641138917182
 30
0.0
 10
8.519273357348778
 20
73.68544029203252
 30
0.0
 10
7.653901117637064
 20
74.14612788707385
 30
0.0
 10
6.722361687364415
 20
74.43707903817078
 30
0.0
 10
5.784565861547558
 20
74.69922042916316
 30
0.0
 10
4.835863531742132
 20
74.92175156475894
 30
0.0
 10
3.878880400750409
 20
75.10431688151326
 30
0.0
 10
2.915370216828777
 20
75.24878006139497
 30
0.0
 10
1.946694090912058
 20
75.35353708791766
 30
0.0
 10
0.9741285110295438
 20
75.41239483514045
 30
0.0
 10
0.3246898952355133
 20
75.42316757421229
 30
0.0
 10
0.0000000000054401
 20
75.4224073034072
 30
0.0
  0
SPLINE
  5
19A
330
1F
100
AcDbEntity
  8
5 star armless 2d
 62
     7
100
AcDbSpline
210
0.0
220
0.0
230
1.0
 70
     8
 71
     3
 72
    49
 73
    45
 74
     0
 42
0.0000000001
 43
0.0000000001
 40
-42.0
 40
-42.0
 40
-42.0
 40
-42.0
 40
-41.0
 40
-40.0
 40
-39.0
 40
-38.0
 40
-37.0
 40
-36.0
 40
-35.0
 40
-34.0
 40
-33.0
 40
-32.0
 40
-31.0
 40
-30.0
 40
-29.0
 40
-28.0
 40
-27.0
 40
-26.0
 40
-25.0
 40
-24.0
 40
-23.0
 40
-22.0
 40
-21.0
 40
-20.0
 40
-19.0
 40
-18.0
 40
-17.0
 40
-16.0
 40
-15.0
 40
-14.0
 40
-13.0
 40
-12.0
 40
-11.0
 40
-10.0
 40
-9.0
 40
-8.0
 40
-7.0
 40
-6.0
 40
-5.0
 40
-4.0
 40
-3.0
 40
-2.0
 40
-1.0
 40
0.0
 40
0.0
 40
0.0
 40
0.0
 10
0.0000000000054401
 20
75.4224073034072
 30
0.0
 10
-0.3246898952246331
 20
75.4231675742123
 30
0.0
 10
-0.9741285110186643
 20
75.4123948351405
 30
0.0
 10
-1.946694090901182
 20
75.35353708791779
 30
0.0
 10
-2.915370216817908
 20
75.24878006139515
 30
0.0
 10
-3.878880400739549
 20
75.1043168815135
 30
0.0
 10
-4.835863531731283
 20
74.92175156475923
 30
0.0
 10
-5.784565861536723
 20
74.69922042916352
 30
0.0
 10
-6.722361687353596
 20
74.4370790381712
 30
0.0
 10
-7.653901117626264
 20
74.14612788707433
 30
0.0
 10
-8.519273357338005
 20
73.68544029203306
 30
0.0
 10
-9.206360371845046
 20
72.96411389171878
 30
0.0
 10
-9.40053102200133
 20
71.98335309753926
 30
0.0
 10
-9.649085992541183
 20
71.04806644215356
 30
0.0
 10
-9.910156384111412
 20
70.10828574328653
 30
0.0
 10
-10.15966624522417
 20
69.16718652737504
 30
0.0
 10
-10.415100863379
 20
68.22689261599953
 30
0.0
 10
-10.71368565026725
 20
67.29949757211043
 30
0.0
 10
-10.969634014035
 20
66.35947532806266
 30
0.0
 10
-11.2666871645101
 20
65.43143393496587
 30
0.0
 10
-11.48647509882274
 20
64.48167633674825
 30
0.0
 10
-11.65710821890743
 20
63.52242264241607
 30
0.0
 10
-11.76726469664425
 20
62.55391647253985
 30
0.0
 10
-11.80192997969334
 20
61.57997528100017
 30
0.0
 10
-11.80377472229097
 20
60.60586140848994
 30
0.0
 10
-11.77690778737239
 20
59.63198946070287
 30
0.0
 10
-11.69902369461783
 20
58.66043225984861
 30
0.0
 10
-11.5481556118035
 20
57.69750899636057
 30
0.0
 10
-11.34222676102589
 20
56.7452028656575
 30
0.0
 10
-11.08063027663174
 20
55.80585732333373
 30
0.0
 10
-10.728133725849
 20
54.89717715453415
 30
0.0
 10
-10.30825573570573
 20
54.01633009642521
 30
0.0
 10
-9.77893261694862
 20
53.1967917682821
 30
0.0
 10
-9.180689453562358
 20
52.42588189988833
 30
0.0
 10
-8.455778183472885
 20
51.76843810137348
 30
0.0
 10
-7.619073204770419
 20
51.26236736915828
 30
0.0
 10
-6.724778445228552
 20
50.87301794056515
 30
0.0
 10
-5.797087794442353
 20
50.5724959021484
 30
0.0
 10
-4.846645132811306
 20
50.35574427501589
 30
0.0
 10
-3.884293813303958
 20
50.20292362461695
 30
0.0
 10
-2.917032350902565
 20
50.08699914330844
 30
0.0
 10
-1.946690435354269
 20
50.00043745595575
 30
0.0
 10
-0.9741000221951451
 20
49.94412257700034
 30
0.0
 10
-0.3246969020776528
 20
49.93119694959586
 30
0.0
 10
0.000000000004642
 20
49.933048356588
 30
0.0
  0
LINE
  5
19B
330
1F
100
AcDbEntity
  8
5 star armless 2d
 62
     7
100
AcDbLine
 10
-7.941804899141843
 20
73.98065444025167
 30
0.0
 11
-7.941804899141842
 21
75.2251297203042
 31
0.0
  0
SPLINE
  5
19C
330
1F
100
AcDbEntity
  8
5 star armless 2d
 62
     7
100
AcDbSpline
210
0.0
220
0.0
230
1.0
 70
    24
 71
     2
 72
     6
 73
     3
 74
     0
 42
0.0000000001
 43
0.0000000001
 40
0.0
 40
0.0
 40
0.0
 40
0.71875
 40
0.71875
 40
0.71875
 10
-7.941804899141842
 20
75.2251297203042
 30
0.0
 10
-7.582429899141842
 20
75.2251297203042
 30
0.0
 10
-7.223054899141842
 20
75.2251297203042
 30
0.0
  0
SPLINE
  5
19D
330
1F
100
AcDbEntity
  8
5 star armless 2d
 62
     7
100
AcDbSpline
210
0.0
220
0.0
230
1.0
 70
    24
 71
     2
 72
     6
 73
     3
 74
     0
 42
0.0000000001
 43
0.0000000001
 40
0.0
 40
0.0
 40
0.0
 40
0.9499167753808341
 40
0.9499167753808341
 40
0.9499167753808341
 10
-7.223054899141842
 20
75.2251297203042
 30
0.0
 10
-7.223054899141842
 20
74.75017133261377
 30
0.0
 10
-7.223054899141842
 20
74.27521294492337
 30
0.0
  0
LINE
  5
19E
330
1F
100
AcDbEntity
  8
5 star armless 2d
 62
     7
100
AcDbLine
 10
-8.457429899142484
 20
73.66612878219378
 30
0.0
 11
-8.45742989913919
 21
75.09779425595862
 31
0.0
  0
ARC
  5
19F
330
1F
100
AcDbEntity
  8
5 star armless 2d
 62
     7
100
AcDbCircle
 10
-8.331190770881229
 20
75.09889190152444
 30
0.0
 40
0.1262439001659804
100
AcDbArc
 50
90.56238724841495
 51
180.4981725901478
  0
SPLINE
  5
1A0
330
1F
100
AcDbEntity
  8
5 star armless 2d
 62
     7
100
AcDbSpline
210
0.0
220
0.0
230
1.0
 70
    24
 71
     2
 72
     6
 73
     3
 74
     0
 42
0.0000000001
 43
0.0000000001
 40
0.0
 40
0.0
 40
0.0
 40
0.34375
 40
0.34375
 40
0.34375
 10
-8.332429899141843
 20
75.2251297203042
 30
0.0
 10
-8.160554899141843
 20
75.2251297203042
 30
0.0
 10
-7.988679899141843
 20
75.2251297203042
 30
0.0
  0
ARC
  5
1A1
330
1F
100
AcDbEntity
  8
5 star armless 2d
 62
     7
100
AcDbCircle
 10
-7.990125871576525
 20
75.19244744252443
 30
0.0
 40
0.0327142494512088
100
AcDbArc
 50
358.0846770001484
 51
87.46669665574143
  0
LINE
  5
1A2
330
1F
100
AcDbEntity
  8
5 star armless 2d
 62
     7
100
AcDbLine
 10
-7.957429899141855
 20
75.19135405160283
 30
0.0
 11
-7.957429899141852
 21
73.97273859311643
 31
0.0
  0
LINE
  5
1A3
330
1F
100
AcDbEntity
  8
5 star armless 2d
 62
     7
100
AcDbLine
 10
-6.707429899142972
 20
74.43638346637879
 30
0.0
 11
-6.707429899144494
 21
75.09779425595862
 31
0.0
  0
ARC
  5
1A4
330
1F
100
AcDbEntity
  8
5 star armless 2d
 62
     7
100
AcDbCircle
 10
-6.833669027402455
 20
75.09889190152444
 30
0.0
 40
0.1262439001659804
100
AcDbArc
 50
359.5018274098522
 51
89.43761275158425
  0
SPLINE
  5
1A5
330
1F
100
AcDbEntity
  8
5 star armless 2d
 62
     7
100
AcDbSpline
210
0.0
220
0.0
230
1.0
 70
    24
 71
     2
 72
     6
 73
     3
 74
     0
 42
0.0000000001
 43
0.0000000001
 40
0.0
 40
0.0
 40
0.0
 40
0.34375
 40
0.34375
 40
0.34375
 10
-6.83242989914184
 20
75.2251297203042
 30
0.0
 10
-7.004304899141841
 20
75.2251297203042
 30
0.0
 10
-7.176179899141841
 20
75.2251297203042
 30
0.0
  0
ARC
  5
1A6
330
1F
100
AcDbEntity
  8
5 star armless 2d
 62
     7
100
AcDbCircle
 10
-7.17473392670716
 20
75.19244744252443
 30
0.0
 40
0.0327142494512088
100
AcDbArc
 50
92.53330334425857
 51
181.9153229998516
  0
LINE
  5
1A7
330
1F
100
AcDbEntity
  8
5 star armless 2d
 62
     7
100
AcDbLine
 10
-7.20742989914183
 20
75.19135405160283
 30
0.0
 11
-7.207429899141832
 21
74.28049035697998
 31
0.0
  0
LINE
  5
1A8
330
1F
100
AcDbEntity
  8
5 star armless 2d
 62
     7
100
AcDbLine
 10
7.94180489915262
 20
73.98065444025167
 30
0.0
 11
7.941804899152619
 21
75.2251297203042
 31
0.0
  0
SPLINE
  5
1A9
330
1F
100
AcDbEntity
  8
5 star armless 2d
 62
     7
100
AcDbSpline
210
0.0
220
0.0
230
1.0
 70
    24
 71
     2
 72
     6
 73
     3
 74
     0
 42
0.0000000001
 43
0.0000000001
 40
0.0
 40
0.0
 40
0.0
 40
0.71875
 40
0.71875
 40
0.71875
 10
7.941804899152619
 20
75.2251297203042
 30
0.0
 10
7.582429899152619
 20
75.2251297203042
 30
0.0
 10
7.223054899152619
 20
75.2251297203042
 30
0.0
  0
SPLINE
  5
1AA
330
1F
100
AcDbEntity
  8
5 star armless 2d
 62
     7
100
AcDbSpline
210
0.0
220
0.0
230
1.0
 70
    24
 71
     2
 72
     6
 73
     3
 74
     0
 42
0.0000000001
 43
0.0000000001
 40
0.0
 40
0.0
 40
0.0
 40
0.9499167753808341
 40
0.9499167753808341
 40
0.9499167753808341
 10
7.223054899152619
 20
75.2251297203042
 30
0.0
 10
7.223054899152619
 20
74.75017133261377
 30
0.0
 10
7.223054899152619
 20
74.27521294492337
 30
0.0
  0
LINE
  5
1AB
330
1F
100
AcDbEntity
  8
5 star armless 2d
 62
     7
100
AcDbLine
 10
8.457429899153263
 20
73.66612878219378
 30
0.0
 11
8.457429899149968
 21
75.09779425595862
 31
0.0
  0
ARC
  5
1AC
330
1F
100
AcDbEntity
  8
5 star armless 2d
 62
     7
100
AcDbCircle
 10
8.331190770892007
 20
75.09889190152444
 30
0.0
 40
0.1262439001659804
100
AcDbArc
 50
359.5018274098522
 51
89.43761275158505
  0
SPLINE
  5
1AD
330
1F
100
AcDbEntity
  8
5 star armless 2d
 62
     7
100
AcDbSpline
210
0.0
220
0.0
230
1.0
 70
    24
 71
     2
 72
     6
 73
     3
 74
     0
 42
0.0000000001
 43
0.0000000001
 40
0.0
 40
0.0
 40
0.0
 40
0.34375
 40
0.34375
 40
0.34375
 10
8.332429899152622
 20
75.2251297203042
 30
0.0
 10
8.160554899152622
 20
75.2251297203042
 30
0.0
 10
7.98867989915262
 20
75.2251297203042
 30
0.0
  0
ARC
  5
1AE
330
1F
100
AcDbEntity
  8
5 star armless 2d
 62
     7
100
AcDbCircle
 10
7.990125871587302
 20
75.19244744252443
 30
0.0
 40
0.0327142494512088
100
AcDbArc
 50
92.53330334425857
 51
181.9153229998516
  0
LINE
  5
1AF
330
1F
100
AcDbEntity
  8
5 star armless 2d
 62
     7
100
AcDbLine
 10
7.957429899152632
 20
75.19135405160283
 30
0.0
 11
7.957429899152629
 21
73.97273859311643
 31
0.0
  0
LINE
  5
1B0
330
1F
100
AcDbEntity
  8
5 star armless 2d
 62
     7
100
AcDbLine
 10
6.707429899153749
 20
74.43638346637879
 30
0.0
 11
6.707429899155271
 21
75.09779425595862
 31
0.0
  0
ARC
  5
1B1
330
1F
100
AcDbEntity
  8
5 star armless 2d
 62
     7
100
AcDbCircle
 10
6.833669027413232
 20
75.09889190152444
 30
0.0
 40
0.1262439001659804
100
AcDbArc
 50
90.56238724841576
 51
180.4981725901478
  0
SPLINE
  5
1B2
330
1F
100
AcDbEntity
  8
5 star armless 2d
 62
     7
100
AcDbSpline
210
0.0
220
0.0
230
1.0
 70
    24
 71
     2
 72
     6
 73
     3
 74
     0
 42
0.0000000001
 43
0.0000000001
 40
0.0
 40
0.0
 40
0.0
 40
0.34375
 40
0.34375
 40
0.34375
 10
6.832429899152618
 20
75.2251297203042
 30
0.0
 10
7.004304899152618
 20
75.2251297203042
 30
0.0
 10
7.176179899152618
 20
75.2251297203042
 30
0.0
  0
ARC
  5
1B3
330
1F
100
AcDbEntity
  8
5 star armless 2d
 62
     7
100
AcDbCircle
 10
7.174733926717937
 20
75.19244744252443
 30
0.0
 40
0.0327142494512088
100
AcDbArc
 50
358.0846770001484
 51
87.46669665574143
  0
LINE
  5
1B4
330
1F
100
AcDbEntity
  8
5 star armless 2d
 62
     7
100
AcDbLine
 10
7.207429899152607
 20
75.19135405160283
 30
0.0
 11
7.207429899152609
 21
74.28049035697998
 31
0.0
  0
SPLINE
  5
1B5
330
1F
100
AcDbEntity
  8
5 star armless 2d
 62
     7
100
AcDbSpline
210
0.0
220
0.0
230
1.0
 70
    12
 71
     2
 72
     8
 73
     5
 74
     0
 42
0.0000000001
 43
0.0000000001
 40
-0.4690344867060143
 40
-0.4690344867060143
 40
-0.4690344867060143
 40
-0.0025393128060464
 40
-0.0025393128060464
 40
0.0
 40
0.0
 40
0.0
 10
0.3750001445809536
 20
49.43876598160588
 30
0.0
 41
0.8942131309603288
 10
0.3750001445809524
 20
49.36063051961733
 30
0.0
 41
0.9307186749905532
 10
0.375000049933413
 20
49.36063051961733
 30
0.0
 41
1.0
 10
0.3750000499334121
 20
49.36189333914263
 30
0.0
 41
1.0
 10
0.3750000972571756
 20
49.36315615866792
 30
0.0
 41
1.0
  0
SPLINE
  5
1B6
330
1F
100
AcDbEntity
  8
5 star armless 2d
 62
     7
100
AcDbSpline
210
0.0
220
0.0
230
1.0
 70
    12
 71
     2
 72
     6
 73
     3
 74
     0
 42
0.0000000001
 43
0.0000000001
 40
0.0
 40
0.0
 40
0.0
 40
0.0490228526923067
 40
0.0490228526923067
 40
0.0490228526923067
 10
0.3750000972571756
 20
49.36315615866792
 30
0.0
 41
1.0
 10
0.37515037829904
 20
49.32953072368688
 30
0.0
 41
0.7105143135969407
 10
0.4062501445809428
 20
49.32938048996432
 30
0.0
 41
1.0
  0
SPLINE
  5
1B7
330
1F
100
AcDbEntity
  8
5 star armless 2d
 62
     7
100
AcDbSpline
210
0.0
220
0.0
230
1.0
 70
    24
 71
     2
 72
     6
 73
     3
 74
     0
 42
0.0000000001
 43
0.0000000001
 40
0.0
 40
0.0
 40
0.0
 40
0.34375
 40
0.34375
 40
0.34375
 10
0.4062501445809428
 20
49.32938048996432
 30
0.0
 10
0.5781251445809423
 20
49.32938048996432
 30
0.0
 10
0.7500001445809419
 20
49.32938048996433
 30
0.0
  0
SPLINE
  5
1B8
330
1F
100
AcDbEntity
  8
5 star armless 2d
 62
     7
100
AcDbSpline
210
0.0
220
0.0
230
1.0
 70
    12
 71
     2
 72
     6
 73
     3
 74
     0
 42
0.0000000001
 43
0.0000000001
 40
0.0
 40
0.0
 40
0.0
 40
0.1963097587114482
 40
0.1963097587114482
 40
0.1963097587114482
 10
0.7500001445809419
 20
49.32938048996433
 30
0.0
 41
1.0
 10
0.8749089997333963
 20
49.32947048378549
 30
0.0
 41
0.70761930653121
 10
0.8750001445782924
 20
49.4567159543099
 30
0.0
 41
1.0
  0
SPLINE
  5
1B9
330
1F
100
AcDbEntity
  8
5 star armless 2d
 62
     7
100
AcDbSpline
210
0.0
220
0.0
230
1.0
 70
    24
 71
     2
 72
     6
 73
     3
 74
     0
 42
0.0000000001
 43
0.0000000001
 40
-0.4758210510135541
 40
-0.4758210510135541
 40
-0.4758210510135541
 40
0.0
 40
0.0
 40
0.0
 10
0.8750001445782924
 20
49.4567159543099
 30
0.0
 10
0.8750001445796172
 20
49.69579478791995
 30
0.0
 10
0.8750001445809419
 20
49.93487362153001
 30
0.0
  0
SPLINE
  5
1BA
330
1F
100
AcDbEntity
  8
5 star armless 2d
 62
     7
100
AcDbSpline
210
0.0
220
0.0
230
1.0
 70
    12
 71
     2
 72
     8
 73
     5
 74
     0
 42
0.0000000001
 43
0.0000000001
 40
-0.4690344867060143
 40
-0.4690344867060143
 40
-0.4690344867060143
 40
-0.0025393128060464
 40
-0.0025393128060464
 40
0.0
 40
0.0
 40
0.0
 10
-0.3750001445701764
 20
49.43876598160588
 30
0.0
 41
0.8942131309603288
 10
-0.3750001445701752
 20
49.36063051961733
 30
0.0
 41
0.9307186749905532
 10
-0.3750000499226358
 20
49.36063051961733
 30
0.0
 41
1.0
 10
-0.3750000499226349
 20
49.36189333914263
 30
0.0
 41
1.0
 10
-0.3750000972463985
 20
49.36315615866792
 30
0.0
 41
1.0
  0
SPLINE
  5
1BB
330
1F
100
AcDbEntity
  8
5 star armless 2d
 62
     7
100
AcDbSpline
210
0.0
220
0.0
230
1.0
 70
    12
 71
     2
 72
     6
 73
     3
 74
     0
 42
0.0000000001
 43
0.0000000001
 40
0.0
 40
0.0
 40
0.0
 40
0.0490228526923067
 40
0.0490228526923067
 40
0.0490228526923067
 10
-0.3750000972463985
 20
49.36315615866792
 30
0.0
 41
1.0
 10
-0.3751503782882629
 20
49.32953072368688
 30
0.0
 41
0.7105143135969407
 10
-0.4062501445701656
 20
49.32938048996432
 30
0.0
 41
1.0
  0
SPLINE
  5
1BC
330
1F
100
AcDbEntity
  8
5 star armless 2d
 62
     7
100
AcDbSpline
210
0.0
220
0.0
230
1.0
 70
    24
 71
     2
 72
     6
 73
     3
 74
     0
 42
0.0000000001
 43
0.0000000001
 40
0.0
 40
0.0
 40
0.0
 40
0.34375
 40
0.34375
 40
0.34375
 10
-0.4062501445701656
 20
49.32938048996432
 30
0.0
 10
-0.5781251445701652
 20
49.32938048996432
 30
0.0
 10
-0.7500001445701647
 20
49.32938048996433
 30
0.0
  0
SPLINE
  5
1BD
330
1F
100
AcDbEntity
  8
5 star armless 2d
 62
     7
100
AcDbSpline
210
0.0
220
0.0
230
1.0
 70
    12
 71
     2
 72
     6
 73
     3
 74
     0
 42
0.0000000001
 43
0.0000000001
 40
0.0
 40
0.0
 40
0.0
 40
0.1963097587114482
 40
0.1963097587114482
 40
0.1963097587114482
 10
-0.7500001445701647
 20
49.32938048996433
 30
0.0
 41
1.0
 10
-0.8749089997226192
 20
49.32947048378549
 30
0.0
 41
0.70761930653121
 10
-0.8750001445675153
 20
49.4567159543099
 30
0.0
 41
1.0
  0
SPLINE
  5
1BE
330
1F
100
AcDbEntity
  8
5 star armless 2d
 62
     7
100
AcDbSpline
210
0.0
220
0.0
230
1.0
 70
    24
 71
     2
 72
     6
 73
     3
 74
     0
 42
0.0000000001
 43
0.0000000001
 40
-0.4758210510135541
 40
-0.4758210510135541
 40
-0.4758210510135541
 40
0.0
 40
0.0
 40
0.0
 10
-0.8750001445675153
 20
49.4567159543099
 30
0.0
 10
-0.87500014456884
 20
49.69579478791995
 30
0.0
 10
-0.8750001445701647
 20
49.93487362153001
 30
0.0
  0
ARC
  5
1BF
330
1F
100
AcDbEntity
  8
5 star armless 2d
 62
     7
100
AcDbCircle
 10
-0.0000001446537145
 20
49.6887554900198
 30
0.0
 40
0.4505699971767498
100
AcDbArc
 50
154.1571530446633
 51
25.85410525655073
  0
POLYLINE
  5
1C0
330
1F
100
AcDbEntity
  8
5 star armless 2d
 62
     7
100
AcDb2dPolyline
 66
     1
 10
0.0
 20
0.0
 30
0.0
  0
VERTEX
  5
1C1
330
1C0
100
AcDbEntity
  8
5 star armless 2d
 62
     7
100
AcDbVertex
100
AcDb2dVertex
 10
-0.4064787642149357
 20
49.93060646676732
 30
0.0
  0
VERTEX
  5
1C2
330
1C0
100
AcDbEntity
  8
5 star armless 2d
 62
     7
100
AcDbVertex
100
AcDb2dVertex
 10
-0.4009411964929539
 20
49.67083195024901
 30
0.0
  0
SEQEND
  5
1C3
330
1C0
100
AcDbEntity
  8
5 star armless 2d
 62
     7
  0
SPLINE
  5
1C4
330
1F
100
AcDbEntity
  8
5 star armless 2d
 62
     7
100
AcDbSpline
210
0.0
220
0.0
230
1.0
 70
     8
 71
     3
 72
    11
 73
     7
 74
     0
 42
0.0000000001
 43
0.0000000001
 40
0.0
 40
0.0
 40
0.0
 40
0.0
 40
1.0
 40
2.0
 40
3.0
 40
4.0
 40
4.0
 40
4.0
 40
4.0
 10
-0.4009411964929539
 20
49.67083195024901
 30
0.0
 10
-0.3968443682084086
 20
49.56886699823739
 30
0.0
 10
-0.3051884357324857
 20
49.3697990355088
 30
0.0
 10
-0.0001119905505287
 20
49.24752328543116
 30
0.0
 10
0.3048432586044242
 20
49.37003208917975
 30
0.0
 10
0.3965326994740516
 20
49.56902548070482
 30
0.0
 10
0.4007030954365858
 20
49.67099017505092
 30
0.0
  0
POLYLINE
  5
1C5
330
1F
100
AcDbEntity
  8
5 star armless 2d
 62
     7
100
AcDb2dPolyline
 66
     1
 10
0.0
 20
0.0
 30
0.0
  0
VERTEX
  5
1C6
330
1C5
100
AcDbEntity
  8
5 star armless 2d
 62
     7
100
AcDbVertex
100
AcDb2dVertex
 10
0.4007030954365858
 20
49.67099017505092
 30
0.0
  0
VERTEX
  5
1C7
330
1C5
100
AcDbEntity
  8
5 star armless 2d
 62
     7
100
AcDbVertex
100
AcDb2dVertex
 10
0.4064807135529511
 20
49.93060653076829
 30
0.0
  0
SEQEND
  5
1C8
330
1C5
100
AcDbEntity
  8
5 star armless 2d
 62
     7
  0
POLYLINE
  5
1C9
330
1F
100
AcDbEntity
  8
5 star armless 2d
 62
     7
100
AcDb2dPolyline
 66
     1
 10
0.0
 20
0.0
 30
0.0
  0
VERTEX
  5
1CA
330
1C9
100
AcDbEntity
  8
5 star armless 2d
 62
     7
100
AcDbVertex
100
AcDb2dVertex
 10
-11.74052353087897
 20
59.20937906798383
 30
0.0
  0
VERTEX
  5
1CB
330
1C9
100
AcDbEntity
  8
5 star armless 2d
 62
     7
100
AcDbVertex
100
AcDb2dVertex
 10
-12.40970205507952
 20
58.97732969728987
 30
0.0
  0
SEQEND
  5
1CC
330
1C9
100
AcDbEntity
  8
5 star armless 2d
 62
     7
  0
SPLINE
  5
1CD
330
1F
100
AcDbEntity
  8
5 star armless 2d
 62
     7
100
AcDbSpline
210
0.0
220
0.0
230
1.0
 70
     8
 71
     3
 72
     9
 73
     5
 74
     0
 42
0.0000000001
 43
0.0000000001
 40
0.0
 40
0.0
 40
0.0
 40
0.0
 40
1.0
 40
2.0
 40
2.0
 40
2.0
 40
2.0
 10
-12.40970205507952
 20
58.97732969728987
 30
0.0
 10
-12.6090425326405
 20
58.91164687677642
 30
0.0
 10
-12.81354002884246
 20
58.4245428765033
 30
0.0
 10
-12.36151895864693
 20
58.15116169804025
 30
0.0
 10
-12.16170076772789
 20
58.21528505506729
 30
0.0
  0
POLYLINE
  5
1CE
330
1F
100
AcDbEntity
  8
5 star armless 2d
 62
     7
100
AcDb2dPolyline
 66
     1
 10
0.0
 20
0.0
 30
0.0
  0
VERTEX
  5
1CF
330
1CE
100
AcDbEntity
  8
5 star armless 2d
 62
     7
100
AcDbVertex
100
AcDb2dVertex
 10
-12.16170076772789
 20
58.21528505506729
 30
0.0
  0
VERTEX
  5
1D0
330
1CE
100
AcDbEntity
  8
5 star armless 2d
 62
     7
100
AcDbVertex
100
AcDb2dVertex
 10
-11.64946611558508
 20
58.3693496319907
 30
0.0
  0
SEQEND
  5
1D1
330
1CE
100
AcDbEntity
  8
5 star armless 2d
 62
     7
  0
ARC
  5
1D2
330
1F
100
AcDbEntity
  8
5 star armless 2d
 62
     7
100
AcDbCircle
 10
-12.26862906040024
 20
58.60186626479344
 30
0.0
 40
0.4499999994539212
100
AcDbArc
 50
82.12682940302781
 51
313.7273121103652
  0
POLYLINE
  5
1D3
330
1F
100
AcDbEntity
  8
5 star armless 2d
 62
     7
100
AcDb2dPolyline
 66
     1
 10
0.0
 20
0.0
 30
0.0
  0
VERTEX
  5
1D4
330
1D3
100
AcDbEntity
  8
5 star armless 2d
 62
     7
100
AcDbVertex
100
AcDb2dVertex
 10
-12.62800406020011
 20
58.87269759427247
 30
0.0
  0
VERTEX
  5
1D5
330
1D3
100
AcDbEntity
  8
5 star armless 2d
 62
     7
100
AcDbVertex
100
AcDb2dVertex
 10
-12.62800406020011
 20
60.80249126543288
 30
0.0
  0
SEQEND
  5
1D6
330
1D3
100
AcDbEntity
  8
5 star armless 2d
 62
     7
  0
SPLINE
  5
1D7
330
1F
100
AcDbEntity
  8
5 star armless 2d
 62
     7
100
AcDbSpline
210
0.0
220
0.0
230
1.0
 70
    24
 71
     2
 72
     6
 73
     3
 74
     0
 42
0.0000000001
 43
0.0000000001
 40
0.0
 40
0.0
 40
0.0
 40
0.71875
 40
0.71875
 40
0.71875
 10
-12.62800406020011
 20
60.80249126543288
 30
0.0
 10
-12.26862906020011
 20
60.80249126543288
 30
0.0
 10
-11.90925406020011
 20
60.80249126543288
 30
0.0
  0
POLYLINE
  5
1D8
330
1F
100
AcDbEntity
  8
5 star armless 2d
 62
     7
100
AcDb2dPolyline
 66
     1
 10
0.0
 20
0.0
 30
0.0
  0
VERTEX
  5
1D9
330
1D8
100
AcDbEntity
  8
5 star armless 2d
 62
     7
100
AcDbVertex
100
AcDb2dVertex
 10
-11.90925406020011
 20
60.80249126543288
 30
0.0
  0
VERTEX
  5
1DA
330
1D8
100
AcDbEntity
  8
5 star armless 2d
 62
     7
100
AcDbVertex
100
AcDb2dVertex
 10
-11.90925406020011
 20
59.15086880244205
 30
0.0
  0
SEQEND
  5
1DB
330
1D8
100
AcDbEntity
  8
5 star armless 2d
 62
     7
  0
SPLINE
  5
1DC
330
1F
100
AcDbEntity
  8
5 star armless 2d
 62
     7
100
AcDbSpline
210
0.0
220
0.0
230
1.0
 70
    28
 71
     2
 72
     8
 73
     5
 74
     0
 42
0.0000000001
 43
0.0000000001
 40
1.493513535110701
 40
1.493513535110701
 40
1.493513535110701
 40
1.991447640890785
 40
1.991447640890785
 40
2.084127608162947
 40
2.084127608162947
 40
2.084127608162947
 10
-12.64362906020012
 20
58.35329798900901
 30
0.0
 41
0.8935806496755898
 10
-12.64362906020012
 20
58.27374129508588
 30
0.0
 41
0.9301161516227049
 10
-12.64362906020012
 20
58.27374129508588
 30
0.0
 41
1.0
 10
-12.64362906020012
 20
58.27374129508589
 30
0.0
 41
0.9869925905751854
 10
-12.64362906020011
 20
58.27626693413423
 30
0.0
 41
0.9751405011719827
  0
SPLINE
  5
1DD
330
1F
100
AcDbEntity
  8
5 star armless 2d
 62
     7
100
AcDbSpline
210
0.0
220
0.0
230
1.0
 70
    12
 71
     2
 72
     6
 73
     3
 74
     0
 42
0.0000000001
 43
0.0000000001
 40
0.0
 40
0.0
 40
0.0
 40
0.0490228526879361
 40
0.0490228526879361
 40
0.0490228526879361
 10
-12.64362906020011
 20
58.27626693413423
 30
0.0
 41
1.0
 10
-12.64377929392241
 20
58.24264149915516
 30
0.0
 41
0.7105143136418829
 10
-12.67487906020011
 20
58.24249126543288
 30
0.0
 41
1.0
  0
SPLINE
  5
1DE
330
1F
100
AcDbEntity
  8
5 star armless 2d
 62
     7
100
AcDbSpline
210
0.0
220
0.0
230
1.0
 70
    24
 71
     2
 72
     6
 73
     3
 74
     0
 42
0.0000000001
 43
0.0000000001
 40
0.0
 40
0.0
 40
0.0
 40
0.34375
 40
0.34375
 40
0.34375
 10
-12.67487906020011
 20
58.24249126543288
 30
0.0
 10
-12.84675406020011
 20
58.24249126543288
 30
0.0
 10
-13.01862906020011
 20
58.24249126543288
 30
0.0
  0
SPLINE
  5
1DF
330
1F
100
AcDbEntity
  8
5 star armless 2d
 62
     7
100
AcDbSpline
210
0.0
220
0.0
230
1.0
 70
    12
 71
     2
 72
     6
 73
     3
 74
     0
 42
0.0000000001
 43
0.0000000001
 40
0.0
 40
0.0
 40
0.0
 40
0.1963109116755479
 40
0.1963109116755479
 40
0.1963109116755479
 10
-13.01862906020011
 20
58.24249126543288
 30
0.0
 41
1.0
 10
-13.14353906922269
 20
58.24258125641029
 30
0.0
 41
0.7076160301426923
 10
-13.14362906020011
 20
58.36749126543288
 30
0.0
 41
1.0
  0
POLYLINE
  5
1E0
330
1F
100
AcDbEntity
  8
5 star armless 2d
 62
     7
100
AcDb2dPolyline
 66
     1
 10
0.0
 20
0.0
 30
0.0
  0
VERTEX
  5
1E1
330
1E0
100
AcDbEntity
  8
5 star armless 2d
 62
     7
100
AcDbVertex
100
AcDb2dVertex
 10
-13.14362906020011
 20
58.36749126543288
 30
0.0
  0
VERTEX
  5
1E2
330
1E0
100
AcDbEntity
  8
5 star armless 2d
 62
     7
100
AcDbVertex
100
AcDb2dVertex
 10
-13.1436290601948
 20
60.67749241729386
 30
0.0
  0
SEQEND
  5
1E3
330
1E0
100
AcDbEntity
  8
5 star armless 2d
 62
     7
  0
SPLINE
  5
1E4
330
1F
100
AcDbEntity
  8
5 star armless 2d
 62
     7
100
AcDbSpline
210
0.0
220
0.0
230
1.0
 70
    12
 71
     2
 72
     6
 73
     3
 74
     0
 42
0.0000000001
 43
0.0000000001
 40
0.0
 40
0.0
 40
0.0
 40
0.196322842543291
 40
0.196322842543291
 40
0.196322842543291
 10
-13.1436290601948
 20
60.67749241729386
 30
0.0
 41
1.0
 10
-13.14356839295735
 20
60.80243174949737
 30
0.0
 41
0.7074467937681466
 10
-13.01862906020011
 20
60.80249126543289
 30
0.0
 41
1.0
  0
SPLINE
  5
1E5
330
1F
100
AcDbEntity
  8
5 star armless 2d
 62
     7
100
AcDbSpline
210
0.0
220
0.0
230
1.0
 70
    24
 71
     2
 72
     6
 73
     3
 74
     0
 42
0.0000000001
 43
0.0000000001
 40
0.0
 40
0.0
 40
0.0
 40
0.3437499999999964
 40
0.3437499999999964
 40
0.3437499999999964
 10
-13.01862906020011
 20
60.80249126543289
 30
0.0
 10
-12.84675406020011
 20
60.80249126543289
 30
0.0
 10
-12.67487906020011
 20
60.80249126543288
 30
0.0
  0
SPLINE
  5
1E6
330
1F
100
AcDbEntity
  8
5 star armless 2d
 62
     7
100
AcDbSpline
210
0.0
220
0.0
230
1.0
 70
    12
 71
     2
 72
     6
 73
     3
 74
     0
 42
0.0000000001
 43
0.0000000001
 40
0.0
 40
0.0
 40
0.0
 40
0.0490324959074584
 40
0.0490324959074584
 40
0.0490324959074584
 10
-12.67487906020011
 20
60.80249126543288
 30
0.0
 41
1.0
 10
-12.64375685925271
 20
60.80236346635091
 30
0.0
 41
0.7100044325010673
 10
-12.64362906020011
 20
60.7712412654034
 30
0.0
 41
1.0
  0
POLYLINE
  5
1E7
330
1F
100
AcDbEntity
  8
5 star armless 2d
 62
     7
100
AcDb2dPolyline
 66
     1
 10
0.0
 20
0.0
 30
0.0
  0
VERTEX
  5
1E8
330
1E7
100
AcDbEntity
  8
5 star armless 2d
 62
     7
100
AcDbVertex
100
AcDb2dVertex
 10
-12.64362906020011
 20
60.7712412654034
 30
0.0
  0
VERTEX
  5
1E9
330
1E7
100
AcDbEntity
  8
5 star armless 2d
 62
     7
100
AcDbVertex
100
AcDb2dVertex
 10
-12.64362906020011
 20
58.85061312338392
 30
0.0
  0
SEQEND
  5
1EA
330
1E7
100
AcDbEntity
  8
5 star armless 2d
 62
     7
  0
SPLINE
  5
1EB
330
1F
100
AcDbEntity
  8
5 star armless 2d
 62
     7
100
AcDbSpline
210
0.0
220
0.0
230
1.0
 70
    24
 71
     2
 72
     6
 73
     3
 74
     0
 42
0.0000000001
 43
0.0000000001
 40
0.2822951052101574
 40
0.2822951052101574
 40
0.2822951052101574
 40
0.3437499999999964
 40
0.3437499999999964
 40
0.3437499999999964
 10
-11.80092416541027
 20
60.80249126543288
 30
0.0
 10
-11.83165161280519
 20
60.80249126543288
 30
0.0
 10
-11.86237906020011
 20
60.80249126543288
 30
0.0
  0
SPLINE
  5
1EC
330
1F
100
AcDbEntity
  8
5 star armless 2d
 62
     7
100
AcDbSpline
210
0.0
220
0.0
230
1.0
 70
    12
 71
     2
 72
     6
 73
     3
 74
     0
 42
0.0000000001
 43
0.0000000001
 40
0.0
 40
0.0
 40
0.0
 40
0.0490324959074584
 40
0.0490324959074584
 40
0.0490324959074584
 10
-11.86237906020011
 20
60.80249126543288
 30
0.0
 41
1.0
 10
-11.8935012611475
 20
60.80236346635091
 30
0.0
 41
0.7100044325010673
 10
-11.89362906020011
 20
60.7712412654034
 30
0.0
 41
1.0
  0
POLYLINE
  5
1ED
330
1F
100
AcDbEntity
  8
5 star armless 2d
 62
     7
100
AcDb2dPolyline
 66
     1
 10
0.0
 20
0.0
 30
0.0
  0
VERTEX
  5
1EE
330
1ED
100
AcDbEntity
  8
5 star armless 2d
 62
     7
100
AcDbVertex
100
AcDb2dVertex
 10
-11.89362906020011
 20
60.7712412654034
 30
0.0
  0
VERTEX
  5
1EF
330
1ED
100
AcDbEntity
  8
5 star armless 2d
 62
     7
100
AcDbVertex
100
AcDb2dVertex
 10
-11.89362906020011
 20
59.15628704478841
 30
0.0
  0
SEQEND
  5
1F0
330
1ED
100
AcDbEntity
  8
5 star armless 2d
 62
     7
  0
SPLINE
  5
1F1
330
1F
100
AcDbEntity
  8
5 star armless 2d
 62
     7
100
AcDbSpline
210
0.0
220
0.0
230
1.0
 70
    28
 71
     2
 72
     8
 73
     5
 74
     0
 42
0.0000000001
 43
0.0000000001
 40
1.72266499764573
 40
1.72266499764573
 40
1.72266499764573
 40
1.991447640890785
 40
1.991447640890785
 40
2.084127608162947
 40
2.084127608162947
 40
2.084127608162947
 10
-11.8936290602001
 20
58.29591285725256
 30
0.0
 41
0.9342710289645251
 10
-11.8936290602001
 20
58.27374129508588
 30
0.0
 41
0.9622770055938247
 10
-11.8936290602001
 20
58.27374129508588
 30
0.0
 41
1.0
 10
-11.8936290602001
 20
58.27374129508589
 30
0.0
 41
0.9869925905751854
 10
-11.8936290602001
 20
58.27626693413423
 30
0.0
 41
0.9751405011719827
  0
SPLINE
  5
1F2
330
1F
100
AcDbEntity
  8
5 star armless 2d
 62
     7
100
AcDbSpline
210
0.0
220
0.0
230
1.0
 70
    12
 71
     2
 72
     6
 73
     3
 74
     0
 42
0.0000000001
 43
0.0000000001
 40
0.0
 40
0.0
 40
0.0
 40
0.0490228526879361
 40
0.0490228526879361
 40
0.0490228526879361
 10
-11.8936290602001
 20
58.27626693413423
 30
0.0
 41
1.0
 10
-11.89347882647781
 20
58.24264149915516
 30
0.0
 41
0.7105143136418829
 10
-11.86237906020011
 20
58.24249126543288
 30
0.0
 41
1.0
  0
SPLINE
  5
1F3
330
1F
100
AcDbEntity
  8
5 star armless 2d
 62
     7
100
AcDbSpline
210
0.0
220
0.0
230
1.0
 70
    24
 71
     2
 72
     6
 73
     3
 74
     0
 42
0.0000000001
 43
0.0000000001
 40
0.0
 40
0.0
 40
0.0
 40
0.2318535058159794
 40
0.2318535058159794
 40
0.2318535058159794
 10
-11.86237906020011
 20
58.24249126543288
 30
0.0
 10
-11.74645230729212
 20
58.24249126543288
 30
0.0
 10
-11.63052555438413
 20
58.24249126543288
 30
0.0
  0
POLYLINE
  5
1F4
330
1F
100
AcDbEntity
  8
5 star armless 2d
 62
     7
100
AcDb2dPolyline
 66
     1
 10
0.0
 20
0.0
 30
0.0
  0
VERTEX
  5
1F5
330
1F4
100
AcDbEntity
  8
5 star armless 2d
 62
     7
100
AcDbVertex
100
AcDb2dVertex
 10
11.74052353088975
 20
59.20937906798383
 30
0.0
  0
VERTEX
  5
1F6
330
1F4
100
AcDbEntity
  8
5 star armless 2d
 62
     7
100
AcDbVertex
100
AcDb2dVertex
 10
12.4097020550903
 20
58.97732969728987
 30
0.0
  0
SEQEND
  5
1F7
330
1F4
100
AcDbEntity
  8
5 star armless 2d
 62
     7
  0
SPLINE
  5
1F8
330
1F
100
AcDbEntity
  8
5 star armless 2d
 62
     7
100
AcDbSpline
210
0.0
220
0.0
230
1.0
 70
     8
 71
     3
 72
     9
 73
     5
 74
     0
 42
0.0000000001
 43
0.0000000001
 40
0.0
 40
0.0
 40
0.0
 40
0.0
 40
1.0
 40
2.0
 40
2.0
 40
2.0
 40
2.0
 10
12.4097020550903
 20
58.97732969728987
 30
0.0
 10
12.60904253265128
 20
58.91164687677642
 30
0.0
 10
12.81354002885324
 20
58.4245428765033
 30
0.0
 10
12.36151895865771
 20
58.15116169804025
 30
0.0
 10
12.16170076773867
 20
58.21528505506729
 30
0.0
  0
POLYLINE
  5
1F9
330
1F
100
AcDbEntity
  8
5 star armless 2d
 62
     7
100
AcDb2dPolyline
 66
     1
 10
0.0
 20
0.0
 30
0.0
  0
VERTEX
  5
1FA
330
1F9
100
AcDbEntity
  8
5 star armless 2d
 62
     7
100
AcDbVertex
100
AcDb2dVertex
 10
12.16170076773867
 20
58.21528505506729
 30
0.0
  0
VERTEX
  5
1FB
330
1F9
100
AcDbEntity
  8
5 star armless 2d
 62
     7
100
AcDbVertex
100
AcDb2dVertex
 10
11.64946611559586
 20
58.3693496319907
 30
0.0
  0
SEQEND
  5
1FC
330
1F9
100
AcDbEntity
  8
5 star armless 2d
 62
     7
  0
ARC
  5
1FD
330
1F
100
AcDbEntity
  8
5 star armless 2d
 62
     7
100
AcDbCircle
 10
12.26862906041102
 20
58.60186626479344
 30
0.0
 40
0.4499999994539212
100
AcDbArc
 50
226.2726878896348
 51
97.8731705969722
  0
POLYLINE
  5
1FE
330
1F
100
AcDbEntity
  8
5 star armless 2d
 62
     7
100
AcDb2dPolyline
 66
     1
 10
0.0
 20
0.0
 30
0.0
  0
VERTEX
  5
1FF
330
1FE
100
AcDbEntity
  8
5 star armless 2d
 62
     7
100
AcDbVertex
100
AcDb2dVertex
 10
12.62800406021089
 20
58.87269759427247
 30
0.0
  0
VERTEX
  5
200
330
1FE
100
AcDbEntity
  8
5 star armless 2d
 62
     7
100
AcDbVertex
100
AcDb2dVertex
 10
12.62800406021089
 20
60.80249126543288
 30
0.0
  0
SEQEND
  5
201
330
1FE
100
AcDbEntity
  8
5 star armless 2d
 62
     7
  0
SPLINE
  5
202
330
1F
100
AcDbEntity
  8
5 star armless 2d
 62
     7
100
AcDbSpline
210
0.0
220
0.0
230
1.0
 70
    24
 71
     2
 72
     6
 73
     3
 74
     0
 42
0.0000000001
 43
0.0000000001
 40
0.0
 40
0.0
 40
0.0
 40
0.71875
 40
0.71875
 40
0.71875
 10
12.62800406021089
 20
60.80249126543288
 30
0.0
 10
12.26862906021089
 20
60.80249126543288
 30
0.0
 10
11.90925406021089
 20
60.80249126543288
 30
0.0
  0
POLYLINE
  5
203
330
1F
100
AcDbEntity
  8
5 star armless 2d
 62
     7
100
AcDb2dPolyline
 66
     1
 10
0.0
 20
0.0
 30
0.0
  0
VERTEX
  5
204
330
203
100
AcDbEntity
  8
5 star armless 2d
 62
     7
100
AcDbVertex
100
AcDb2dVertex
 10
11.90925406021089
 20
60.80249126543288
 30
0.0
  0
VERTEX
  5
205
330
203
100
AcDbEntity
  8
5 star armless 2d
 62
     7
100
AcDbVertex
100
AcDb2dVertex
 10
11.90925406021089
 20
59.15086880244205
 30
0.0
  0
SEQEND
  5
206
330
203
100
AcDbEntity
  8
5 star armless 2d
 62
     7
  0
SPLINE
  5
207
330
1F
100
AcDbEntity
  8
5 star armless 2d
 62
     7
100
AcDbSpline
210
0.0
220
0.0
230
1.0
 70
    28
 71
     2
 72
     8
 73
     5
 74
     0
 42
0.0000000001
 43
0.0000000001
 40
1.493513535110701
 40
1.493513535110701
 40
1.493513535110701
 40
1.991447640890785
 40
1.991447640890785
 40
2.084127608162947
 40
2.084127608162947
 40
2.084127608162947
 10
12.6436290602109
 20
58.35329798900901
 30
0.0
 41
0.8935806496755898
 10
12.6436290602109
 20
58.27374129508588
 30
0.0
 41
0.9301161516227049
 10
12.6436290602109
 20
58.27374129508588
 30
0.0
 41
1.0
 10
12.64362906021089
 20
58.27374129508589
 30
0.0
 41
0.9869925905751854
 10
12.64362906021089
 20
58.27626693413423
 30
0.0
 41
0.9751405011719827
  0
SPLINE
  5
208
330
1F
100
AcDbEntity
  8
5 star armless 2d
 62
     7
100
AcDbSpline
210
0.0
220
0.0
230
1.0
 70
    12
 71
     2
 72
     6
 73
     3
 74
     0
 42
0.0000000001
 43
0.0000000001
 40
0.0
 40
0.0
 40
0.0
 40
0.0490228526879361
 40
0.0490228526879361
 40
0.0490228526879361
 10
12.64362906021089
 20
58.27626693413423
 30
0.0
 41
1.0
 10
12.64377929393318
 20
58.24264149915516
 30
0.0
 41
0.7105143136418829
 10
12.67487906021089
 20
58.24249126543288
 30
0.0
 41
1.0
  0
SPLINE
  5
209
330
1F
100
AcDbEntity
  8
5 star armless 2d
 62
     7
100
AcDbSpline
210
0.0
220
0.0
230
1.0
 70
    24
 71
     2
 72
     6
 73
     3
 74
     0
 42
0.0000000001
 43
0.0000000001
 40
0.0
 40
0.0
 40
0.0
 40
0.34375
 40
0.34375
 40
0.34375
 10
12.67487906021089
 20
58.24249126543288
 30
0.0
 10
12.84675406021089
 20
58.24249126543288
 30
0.0
 10
13.01862906021089
 20
58.24249126543288
 30
0.0
  0
SPLINE
  5
20A
330
1F
100
AcDbEntity
  8
5 star armless 2d
 62
     7
100
AcDbSpline
210
0.0
220
0.0
230
1.0
 70
    12
 71
     2
 72
     6
 73
     3
 74
     0
 42
0.0000000001
 43
0.0000000001
 40
0.0
 40
0.0
 40
0.0
 40
0.1963109116755479
 40
0.1963109116755479
 40
0.1963109116755479
 10
13.01862906021089
 20
58.24249126543288
 30
0.0
 41
1.0
 10
13.14353906923347
 20
58.24258125641029
 30
0.0
 41
0.7076160301426923
 10
13.14362906021089
 20
58.36749126543288
 30
0.0
 41
1.0
  0
POLYLINE
  5
20B
330
1F
100
AcDbEntity
  8
5 star armless 2d
 62
     7
100
AcDb2dPolyline
 66
     1
 10
0.0
 20
0.0
 30
0.0
  0
VERTEX
  5
20C
330
20B
100
AcDbEntity
  8
5 star armless 2d
 62
     7
100
AcDbVertex
100
AcDb2dVertex
 10
13.14362906021089
 20
58.36749126543288
 30
0.0
  0
VERTEX
  5
20D
330
20B
100
AcDbEntity
  8
5 star armless 2d
 62
     7
100
AcDbVertex
100
AcDb2dVertex
 10
13.14362906020558
 20
60.67749241729386
 30
0.0
  0
SEQEND
  5
20E
330
20B
100
AcDbEntity
  8
5 star armless 2d
 62
     7
  0
SPLINE
  5
20F
330
1F
100
AcDbEntity
  8
5 star armless 2d
 62
     7
100
AcDbSpline
210
0.0
220
0.0
230
1.0
 70
    12
 71
     2
 72
     6
 73
     3
 74
     0
 42
0.0000000001
 43
0.0000000001
 40
0.0
 40
0.0
 40
0.0
 40
0.196322842543291
 40
0.196322842543291
 40
0.196322842543291
 10
13.14362906020558
 20
60.67749241729386
 30
0.0
 41
1.0
 10
13.14356839296812
 20
60.80243174949737
 30
0.0
 41
0.7074467937681466
 10
13.01862906021089
 20
60.80249126543289
 30
0.0
 41
1.0
  0
SPLINE
  5
210
330
1F
100
AcDbEntity
  8
5 star armless 2d
 62
     7
100
AcDbSpline
210
0.0
220
0.0
230
1.0
 70
    24
 71
     2
 72
     6
 73
     3
 74
     0
 42
0.0000000001
 43
0.0000000001
 40
0.0
 40
0.0
 40
0.0
 40
0.3437499999999964
 40
0.3437499999999964
 40
0.3437499999999964
 10
13.01862906021089
 20
60.80249126543289
 30
0.0
 10
12.84675406021089
 20
60.80249126543289
 30
0.0
 10
12.67487906021089
 20
60.80249126543288
 30
0.0
  0
SPLINE
  5
211
330
1F
100
AcDbEntity
  8
5 star armless 2d
 62
     7
100
AcDbSpline
210
0.0
220
0.0
230
1.0
 70
    12
 71
     2
 72
     6
 73
     3
 74
     0
 42
0.0000000001
 43
0.0000000001
 40
0.0
 40
0.0
 40
0.0
 40
0.0490324959074584
 40
0.0490324959074584
 40
0.0490324959074584
 10
12.67487906021089
 20
60.80249126543288
 30
0.0
 41
1.0
 10
12.64375685926349
 20
60.80236346635091
 30
0.0
 41
0.7100044325010673
 10
12.64362906021089
 20
60.7712412654034
 30
0.0
 41
1.0
  0
POLYLINE
  5
212
330
1F
100
AcDbEntity
  8
5 star armless 2d
 62
     7
100
AcDb2dPolyline
 66
     1
 10
0.0
 20
0.0
 30
0.0
  0
VERTEX
  5
213
330
212
100
AcDbEntity
  8
5 star armless 2d
 62
     7
100
AcDbVertex
100
AcDb2dVertex
 10
12.64362906021089
 20
60.7712412654034
 30
0.0
  0
VERTEX
  5
214
330
212
100
AcDbEntity
  8
5 star armless 2d
 62
     7
100
AcDbVertex
100
AcDb2dVertex
 10
12.64362906021089
 20
58.85061312338392
 30
0.0
  0
SEQEND
  5
215
330
212
100
AcDbEntity
  8
5 star armless 2d
 62
     7
  0
SPLINE
  5
216
330
1F
100
AcDbEntity
  8
5 star armless 2d
 62
     7
100
AcDbSpline
210
0.0
220
0.0
230
1.0
 70
    24
 71
     2
 72
     6
 73
     3
 74
     0
 42
0.0000000001
 43
0.0000000001
 40
0.2822951052101574
 40
0.2822951052101574
 40
0.2822951052101574
 40
0.3437499999999964
 40
0.3437499999999964
 40
0.3437499999999964
 10
11.80092416542104
 20
60.80249126543288
 30
0.0
 10
11.83165161281596
 20
60.80249126543288
 30
0.0
 10
11.86237906021088
 20
60.80249126543288
 30
0.0
  0
SPLINE
  5
217
330
1F
100
AcDbEntity
  8
5 star armless 2d
 62
     7
100
AcDbSpline
210
0.0
220
0.0
230
1.0
 70
    12
 71
     2
 72
     6
 73
     3
 74
     0
 42
0.0000000001
 43
0.0000000001
 40
0.0
 40
0.0
 40
0.0
 40
0.0490324959074584
 40
0.0490324959074584
 40
0.0490324959074584
 10
11.86237906021088
 20
60.80249126543288
 30
0.0
 41
1.0
 10
11.89350126115828
 20
60.80236346635091
 30
0.0
 41
0.7100044325010673
 10
11.89362906021088
 20
60.7712412654034
 30
0.0
 41
1.0
  0
POLYLINE
  5
218
330
1F
100
AcDbEntity
  8
5 star armless 2d
 62
     7
100
AcDb2dPolyline
 66
     1
 10
0.0
 20
0.0
 30
0.0
  0
VERTEX
  5
219
330
218
100
AcDbEntity
  8
5 star armless 2d
 62
     7
100
AcDbVertex
100
AcDb2dVertex
 10
11.89362906021088
 20
60.7712412654034
 30
0.0
  0
VERTEX
  5
21A
330
218
100
AcDbEntity
  8
5 star armless 2d
 62
     7
100
AcDbVertex
100
AcDb2dVertex
 10
11.89362906021089
 20
59.15628704478841
 30
0.0
  0
SEQEND
  5
21B
330
218
100
AcDbEntity
  8
5 star armless 2d
 62
     7
  0
SPLINE
  5
21C
330
1F
100
AcDbEntity
  8
5 star armless 2d
 62
     7
100
AcDbSpline
210
0.0
220
0.0
230
1.0
 70
    28
 71
     2
 72
     8
 73
     5
 74
     0
 42
0.0000000001
 43
0.0000000001
 40
1.72266499764573
 40
1.72266499764573
 40
1.72266499764573
 40
1.991447640890785
 40
1.991447640890785
 40
2.084127608162947
 40
2.084127608162947
 40
2.084127608162947
 10
11.89362906021088
 20
58.29591285725256
 30
0.0
 41
0.9342710289645251
 10
11.89362906021087
 20
58.27374129508588
 30
0.0
 41
0.9622770055938247
 10
11.89362906021088
 20
58.27374129508588
 30
0.0
 41
1.0
 10
11.89362906021087
 20
58.27374129508589
 30
0.0
 41
0.9869925905751854
 10
11.89362906021088
 20
58.27626693413423
 30
0.0
 41
0.9751405011719827
  0
SPLINE
  5
21D
330
1F
100
AcDbEntity
  8
5 star armless 2d
 62
     7
100
AcDbSpline
210
0.0
220
0.0
230
1.0
 70
    12
 71
     2
 72
     6
 73
     3
 74
     0
 42
0.0000000001
 43
0.0000000001
 40
0.0
 40
0.0
 40
0.0
 40
0.0490228526879361
 40
0.0490228526879361
 40
0.0490228526879361
 10
11.89362906021088
 20
58.27626693413423
 30
0.0
 41
1.0
 10
11.89347882648859
 20
58.24264149915516
 30
0.0
 41
0.7105143136418829
 10
11.86237906021088
 20
58.24249126543288
 30
0.0
 41
1.0
  0
SPLINE
  5
21E
330
1F
100
AcDbEntity
  8
5 star armless 2d
 62
     7
100
AcDbSpline
210
0.0
220
0.0
230
1.0
 70
    24
 71
     2
 72
     6
 73
     3
 74
     0
 42
0.0000000001
 43
0.0000000001
 40
0.0
 40
0.0
 40
0.0
 40
0.2318535058159794
 40
0.2318535058159794
 40
0.2318535058159794
 10
11.86237906021088
 20
58.24249126543288
 30
0.0
 10
11.7464523073029
 20
58.24249126543288
 30
0.0
 10
11.63052555439491
 20
58.24249126543288
 30
0.0
  0
ENDSEC
  0
SECTION
  2
OBJECTS
  0
DICTIONARY
  5
C
330
0
100
AcDbDictionary
281
     1
  3
ACAD_GROUP
350
D
  3
ACAD_LAYOUT
350
1A
  3
ACAD_MLEADERSTYLE
350
220
  3
ACAD_MLINESTYLE
350
17
  3
ACAD_PLOTSETTINGS
350
19
  3
ACAD_PLOTSTYLENAME
350
E
  3
ACAD_TABLESTYLE
350
21F
  3
ACAD_VISUALSTYLE
350
2A
  0
DICTIONARY
  5
D
102
{ACAD_REACTORS
330
C
102
}
330
C
100
AcDbDictionary
281
     1
  0
DICTIONARY
  5
1A
102
{ACAD_REACTORS
330
C
102
}
330
C
100
AcDbDictionary
281
     1
  3
Layout1
350
1E
  3
Layout2
350
26
  3
Model
350
22
  0
DICTIONARY
  5
220
102
{ACAD_REACTORS
330
C
102
}
330
C
100
AcDbDictionary
281
     1
  0
DICTIONARY
  5
17
102
{ACAD_REACTORS
330
C
102
}
330
C
100
AcDbDictionary
281
     1
  3
Standard
350
18
  0
DICTIONARY
  5
19
102
{ACAD_REACTORS
330
C
102
}
330
C
100
AcDbDictionary
281
     1
  0
ACDBDICTIONARYWDFLT
  5
E
102
{ACAD_REACTORS
330
C
102
}
330
C
100
AcDbDictionary
281
     1
  3
Normal
350
F
100
AcDbDictionaryWithDefault
340
F
  0
DICTIONARY
  5
21F
102
{ACAD_REACTORS
330
C
102
}
330
C
100
AcDbDictionary
281
     1
  0
DICTIONARY
  5
2A
102
{ACAD_REACTORS
330
C
102
}
330
C
100
AcDbDictionary
281
     1
  3
2dWireframe
350
2F
  3
3D Hidden
350
31
  3
3dWireframe
350
30
  3
Basic
350
32
  3
Brighten
350
36
  3
ColorChange
350
3A
  3
Conceptual
350
34
  3
Dim
350
35
  3
Facepattern
350
39
  3
Flat
350
2B
  3
FlatWithEdges
350
2C
  3
Gouraud
350
2D
  3
GouraudWithEdges
350
2E
  3
Linepattern
350
38
  3
Realistic
350
33
  3
Thicken
350
37
  0
LAYOUT
  5
1E
102
{ACAD_REACTORS
330
1A
102
}
330
1A
100
AcDbPlotSettings
  1

  2
none_device
  4

  6

 40
0.0
 41
0.0
 42
0.0
 43
0.0
 44
0.0
 45
0.0
 46
0.0
 47
0.0
 48
0.0
 49
0.0
140
0.0
141
0.0
142
1.0
143
1.0
 70
   688
 72
     0
 73
     0
 74
     5
  7

 75
    16
 76
     0
 77
     2
 78
   300
147
1.0
148
0.0
149
0.0
100
AcDbLayout
  1
Layout1
 70
     1
 71
     1
 10
0.0
 20
0.0
 11
12.0
 21
9.0
 12
0.0
 22
0.0
 32
0.0
 14
1.000000000000000E+20
 24
1.000000000000000E+20
 34
1.000000000000000E+20
 15
-1.000000000000000E+20
 25
-1.000000000000000E+20
 35
-1.000000000000000E+20
146
0.0
 13
0.0
 23
0.0
 33
0.0
 16
1.0
 26
0.0
 36
0.0
 17
0.0
 27
1.0
 37
0.0
 76
     0
330
1B
  0
LAYOUT
  5
26
102
{ACAD_REACTORS
330
1A
102
}
330
1A
100
AcDbPlotSettings
  1

  2
none_device
  4

  6

 40
0.0
 41
0.0
 42
0.0
 43
0.0
 44
0.0
 45
0.0
 46
0.0
 47
0.0
 48
0.0
 49
0.0
140
0.0
141
0.0
142
1.0
143
1.0
 70
   688
 72
     0
 73
     0
 74
     5
  7

 75
    16
 76
     0
 77
     2
 78
   300
147
1.0
148
0.0
149
0.0
100
AcDbLayout
  1
Layout2
 70
     1
 71
     2
 10
0.0
 20
0.0
 11
0.0
 21
0.0
 12
0.0
 22
0.0
 32
0.0
 14
0.0
 24
0.0
 34
0.0
 15
0.0
 25
0.0
 35
0.0
146
0.0
 13
0.0
 23
0.0
 33
0.0
 16
1.0
 26
0.0
 36
0.0
 17
0.0
 27
1.0
 37
0.0
 76
     0
330
23
  0
LAYOUT
  5
22
102
{ACAD_REACTORS
330
1A
102
}
330
1A
100
AcDbPlotSettings
  1

  2
none_device
  4

  6

 40
0.0
 41
0.0
 42
0.0
 43
0.0
 44
0.0
 45
0.0
 46
0.0
 47
0.0
 48
0.0
 49
0.0
140
0.0
141
0.0
142
1.0
143
1.0
 70
  1712
 72
     0
 73
     0
 74
     0
  7

 75
     0
 76
     0
 77
     2
 78
   300
147
1.0
148
0.0
149
0.0
100
AcDbLayout
  1
Model
 70
     1
 71
     0
 10
0.0
 20
0.0
 11
12.0
 21
9.0
 12
0.0
 22
0.0
 32
0.0
 14
-13.14362906020549
 24
0.0000000000000004
 34
0.0
 15
56.44468100205167
 25
75.42240730340741
 35
0.0
146
0.0
 13
0.0
 23
0.0
 33
0.0
 16
1.0
 26
0.0
 36
0.0
 17
0.0
 27
1.0
 37
0.0
 76
     0
330
1F
331
29
  0
MLINESTYLE
  5
18
102
{ACAD_REACTORS
330
17
102
}
330
17
100
AcDbMlineStyle
  2
Standard
 70
     0
  3

 62
   256
 51
90.0
 52
90.0
 71
     2
 49
0.5
 62
   256
  6
BYLAYER
 49
-0.5
 62
   256
  6
BYLAYER
  0
ACDBPLACEHOLDER
  5
F
102
{ACAD_REACTORS
330
E
102
}
330
E
  0
VISUALSTYLE
  5
2F
102
{ACAD_REACTORS
330
2A
102
}
330
2A
100
AcDbVisualStyle
  2
2dWireframe
 70
     4
 71
     0
 72
     2
 73
     0
 90
        0
 40
-0.6
 41
-30.0
 62
     5
 63
     7
421
 16777215
 74
     1
 91
        4
 64
     7
 65
   257
 75
     1
175
     1
 42
1.0
 92
        0
 66
   257
 43
1.0
 76
     1
 77
     6
 78
     2
 67
     7
 79
     5
170
     0
171
     0
290
     0
174
     0
 93
        1
 44
0.0
173
     0
291
     0
 45
0.0
1001
ACAD
1000
AcDbSavedByObjectVersion
1070
     0
  0
VISUALSTYLE
  5
31
102
{ACAD_REACTORS
330
2A
102
}
330
2A
100
AcDbVisualStyle
  2
3D Hidden
 70
     6
 71
     1
 72
     2
 73
     2
 90
        0
 40
-0.6
 41
-30.0
 62
     5
 63
     7
421
 16777215
 74
     2
 91
        2
 64
     7
 65
   257
 75
     2
175
     1
 42
40.0
 92
        0
 66
   257
 43
1.0
 76
     1
 77
     6
 78
     2
 67
     7
 79
     3
170
     0
171
     0
290
     0
174
     0
 93
        1
 44
0.0
173
     0
291
     0
 45
0.0
1001
ACAD
1000
AcDbSavedByObjectVersion
1070
     0
  0
VISUALSTYLE
  5
30
102
{ACAD_REACTORS
330
2A
102
}
330
2A
100
AcDbVisualStyle
  2
3dWireframe
 70
     5
 71
     0
 72
     2
 73
     0
 90
        0
 40
-0.6
 41
-30.0
 62
     5
 63
     7
421
 16777215
 74
     1
 91
        4
 64
     7
 65
   257
 75
     1
175
     1
 42
1.0
 92
        0
 66
   257
 43
1.0
 76
     1
 77
     6
 78
     2
 67
     7
 79
     5
170
     0
171
     0
290
     0
174
     0
 93
        1
 44
0.0
173
     0
291
     0
 45
0.0
1001
ACAD
1000
AcDbSavedByObjectVersion
1070
     0
  0
VISUALSTYLE
  5
32
102
{ACAD_REACTORS
330
2A
102
}
330
2A
100
AcDbVisualStyle
  2
Basic
 70
     7
 71
     1
 72
     0
 73
     1
 90
        0
 40
-0.6
 41
-30.0
 62
     5
 63
     7
421
 16777215
 74
     0
 91
        4
 64
     7
 65
   257
 75
     1
175
     1
 42
1.0
 92
        8
 66
     7
 43
1.0
 76
     1
 77
     6
 78
     2
 67
     7
 79
     5
170
     0
171
     0
290
     0
174
     0
 93
        1
 44
0.0
173
     0
291
     1
 45
0.0
1001
ACAD
1000
AcDbSavedByObjectVersion
1070
     0
  0
VISUALSTYLE
  5
36
102
{ACAD_REACTORS
330
2A
102
}
330
2A
100
AcDbVisualStyle
  2
Brighten
 70
    12
 71
     2
 72
     2
 73
     0
 90
        0
 40
-0.6
 41
-30.0
 62
     5
 63
     7
421
 16777215
 74
     1
 91
        4
 64
     7
 65
   257
 75
     1
175
     1
 42
1.0
 92
        8
 66
     7
 43
1.0
 76
     1
 77
     6
 78
     2
 67
     7
 79
     5
170
     0
171
     0
290
     0
174
     0
 93
        1
 44
50.0
173
     0
291
     1
 45
0.0
1001
ACAD
1000
AcDbSavedByObjectVersion
1070
     0
  0
VISUALSTYLE
  5
3A
102
{ACAD_REACTORS
330
2A
102
}
330
2A
100
AcDbVisualStyle
  2
ColorChange
 70
    16
 71
     2
 72
     2
 73
     3
 90
        0
 40
-0.6
 41
-30.0
 62
     5
 63
     8
421
  8421504
 74
     1
 91
        4
 64
     7
 65
   257
 75
     1
175
     1
 42
1.0
 92
        8
 66
     8
424
  8421504
 43
1.0
 76
     1
 77
     6
 78
     2
 67
     7
 79
     5
170
     0
171
     0
290
     0
174
     0
 93
        1
 44
0.0
173
     0
291
     1
 45
0.0
1001
ACAD
1000
AcDbSavedByObjectVersion
1070
     0
  0
VISUALSTYLE
  5
34
102
{ACAD_REACTORS
330
2A
102
}
330
2A
100
AcDbVisualStyle
  2
Conceptual
 70
     9
 71
     3
 72
     2
 73
     0
 90
        0
 40
-0.6
 41
-30.0
 62
     5
 63
     7
421
 16777215
 74
     2
 91
        2
 64
     7
 65
   257
 75
     1
175
     1
 42
40.0
 92
        8
 66
     7
 43
1.0
 76
     1
 77
     6
 78
     2
 67
     7
 79
     3
170
     0
171
     0
290
     0
174
     0
 93
        1
 44
0.0
173
     0
291
     0
 45
0.0
1001
ACAD
1000
AcDbSavedByObjectVersion
1070
     0
  0
VISUALSTYLE
  5
35
102
{ACAD_REACTORS
330
2A
102
}
330
2A
100
AcDbVisualStyle
  2
Dim
 70
    11
 71
     2
 72
     2
 73
     0
 90
        0
 40
-0.6
 41
-30.0
 62
     5
 63
     7
421
 16777215
 74
     1
 91
        4
 64
     7
 65
   257
 75
     1
175
     1
 42
1.0
 92
        8
 66
     7
 43
1.0
 76
     1
 77
     6
 78
     2
 67
     7
 79
     5
170
     0
171
     0
290
     0
174
     0
 93
        1
 44
-50.0
173
     0
291
     1
 45
0.0
1001
ACAD
1000
AcDbSavedByObjectVersion
1070
     0
  0
VISUALSTYLE
  5
39
102
{ACAD_REACTORS
330
2A
102
}
330
2A
100
AcDbVisualStyle
  2
Facepattern
 70
    15
 71
     2
 72
     2
 73
     0
 90
        0
 40
-0.6
 41
-30.0
 62
     5
 63
     7
421
 16777215
 74
     1
 91
        4
 64
     7
 65
   257
 75
     1
175
     1
 42
1.0
 92
        8
 66
     7
 43
1.0
 76
     1
 77
     6
 78
     2
 67
     7
 79
     5
170
     0
171
     0
290
     0
174
     0
 93
        1
 44
0.0
173
     0
291
     1
 45
0.0
1001
ACAD
1000
AcDbSavedByObjectVersion
1070
     0
  0
VISUALSTYLE
  5
2B
102
{ACAD_REACTORS
330
2A
102
}
330
2A
100
AcDbVisualStyle
  2
Flat
 70
     0
 71
     2
 72
     1
 73
     1
 90
        2
 40
-0.6
 41
30.0
 62
     5
 63
     7
421
 16777215
 74
     0
 91
        4
 64
     7
 65
   257
 75
     1
175
     1
 42
1.0
 92
        8
 66
     7
 43
1.0
 76
     1
 77
     6
 78
     2
 67
     7
 79
     5
170
     0
171
     0
290
     0
174
     0
 93
       13
 44
0.0
173
     0
291
     1
 45
0.0
1001
ACAD
1000
AcDbSavedByObjectVersion
1070
     0
  0
VISUALSTYLE
  5
2C
102
{ACAD_REACTORS
330
2A
102
}
330
2A
100
AcDbVisualStyle
  2
FlatWithEdges
 70
     1
 71
     2
 72
     1
 73
     1
 90
        2
 40
-0.6
 41
30.0
 62
     5
 63
     7
421
 16777215
 74
     1
 91
        4
 64
     7
 65
   257
 75
     1
175
     1
 42
1.0
 92
        0
 66
   257
 43
1.0
 76
     1
 77
     6
 78
     2
 67
     7
 79
     5
170
     0
171
     0
290
     0
174
     0
 93
       13
 44
0.0
173
     0
291
     1
 45
0.0
1001
ACAD
1000
AcDbSavedByObjectVersion
1070
     0
  0
VISUALSTYLE
  5
2D
102
{ACAD_REACTORS
330
2A
102
}
330
2A
100
AcDbVisualStyle
  2
Gouraud
 70
     2
 71
     2
 72
     2
 73
     1
 90
        2
 40
-0.6
 41
30.0
 62
     5
 63
     7
421
 16777215
 74
     0
 91
        4
 64
     7
 65
   257
 75
     1
175
     1
 42
1.0
 92
        0
 66
     7
 43
1.0
 76
     1
 77
     6
 78
     2
 67
     7
 79
     5
170
     0
171
     0
290
     0
174
     0
 93
       13
 44
0.0
173
     0
291
     1
 45
0.0
1001
ACAD
1000
AcDbSavedByObjectVersion
1070
     0
  0
VISUALSTYLE
  5
2E
102
{ACAD_REACTORS
330
2A
102
}
330
2A
100
AcDbVisualStyle
  2
GouraudWithEdges
 70
     3
 71
     2
 72
     2
 73
     1
 90
        2
 40
-0.6
 41
30.0
 62
     5
 63
     7
421
 16777215
 74
     1
 91
        4
 64
     7
 65
   257
 75
     1
175
     1
 42
1.0
 92
        0
 66
   257
 43
1.0
 76
     1
 77
     6
 78
     2
 67
     7
 79
     5
170
     0
171
     0
290
     0
174
     0
 93
       13
 44
0.0
173
     0
291
     1
 45
0.0
1001
ACAD
1000
AcDbSavedByObjectVersion
1070
     0
  0
VISUALSTYLE
  5
38
102
{ACAD_REACTORS
330
2A
102
}
330
2A
100
AcDbVisualStyle
  2
Linepattern
 70
    14
 71
     2
 72
     2
 73
     0
 90
        0
 40
-0.6
 41
-30.0
 62
     5
 63
     7
421
 16777215
 74
     1
 91
        4
 64
     7
 65
   257
 75
     7
175
     7
 42
1.0
 92
        8
 66
     7
 43
1.0
 76
     1
 77
     6
 78
     2
 67
     7
 79
     5
170
     0
171
     0
290
     0
174
     0
 93
        1
 44
0.0
173
     0
291
     1
 45
0.0
1001
ACAD
1000
AcDbSavedByObjectVersion
1070
     0
  0
VISUALSTYLE
  5
33
102
{ACAD_REACTORS
330
2A
102
}
330
2A
100
AcDbVisualStyle
  2
Realistic
 70
     8
 71
     2
 72
     2
 73
     0
 90
        0
 40
-0.6
 41
-30.0
 62
     5
 63
     7
421
 16777215
 74
     1
 91
        0
 64
     7
 65
   257
 75
     1
175
     1
 42
1.0
 92
        8
 66
     8
424
  7895160
 43
1.0
 76
     1
 77
     6
 78
     2
 67
     7
 79
     5
170
     0
171
     0
290
     0
174
     0
 93
       13
 44
0.0
173
     0
291
     0
 45
0.0
1001
ACAD
1000
AcDbSavedByObjectVersion
1070
     0
  0
VISUALSTYLE
  5
37
102
{ACAD_REACTORS
330
2A
102
}
330
2A
100
AcDbVisualStyle
  2
Thicken
 70
    13
 71
     2
 72
     2
 73
     0
 90
        0
 40
-0.6
 41
-30.0
 62
     5
 63
     7
421
 16777215
 74
     1
 91
        4
 64
     7
 65
   257
 75
     1
175
     1
 42
1.0
 92
       12
 66
     7
 43
1.0
 76
     1
 77
     6
 78
     2
 67
     7
 79
     5
170
     0
171
     0
290
     0
174
     0
 93
        1
 44
0.0
173
     0
291
     1
 45
0.0
1001
ACAD
1000
AcDbSavedByObjectVersion
1070
     0
  0
ENDSEC
  0
EOF
