  0
SECTION
  2
HEADER
  9
$ACADVER
  1
AC1018
  9
$ACADMAINTVER
 70
     0
  9
$DWGCODEPAGE
  3
ANSI_1252
  9
$INSBASE
 10
0.0
 20
0.0
 30
0.0
  9
$EXTMIN
 10
-11.79994352254716
 20
-0.0000008859445404
 30
0.0
  9
$EXTMAX
 10
53.70402356036561
 20
74.8005624133219
 30
0.0
  9
$LIMMIN
 10
0.0
 20
0.0
  9
$LIMMAX
 10
12.0
 20
9.0
  9
$ORTHOMODE
 70
     0
  9
$REGENMODE
 70
     1
  9
$FILLMODE
 70
     1
  9
$QTEXTMODE
 70
     0
  9
$MIRRTEXT
 70
     1
  9
$LTSCALE
 40
0.0393700787401575
  9
$ATTMODE
 70
     1
  9
$TEXTSIZE
 40
0.2
  9
$TRACEWID
 40
0.05
  9
$TEXTSTYLE
  7
Standard
  9
$CLAYER
  8
0
  9
$CELTYPE
  6
ByLayer
  9
$CECOLOR
 62
   256
  9
$CELTSCALE
 40
1.0
  9
$DISPSILH
 70
     0
  9
$DIMSCALE
 40
1.0
  9
$DIMASZ
 40
0.18
  9
$DIMEXO
 40
0.0625
  9
$DIMDLI
 40
0.38
  9
$DIMRND
 40
0.0
  9
$DIMDLE
 40
0.0
  9
$DIMEXE
 40
0.18
  9
$DIMTP
 40
0.0
  9
$DIMTM
 40
0.0
  9
$DIMTXT
 40
0.18
  9
$DIMCEN
 40
0.09
  9
$DIMTSZ
 40
0.0
  9
$DIMTOL
 70
     0
  9
$DIMLIM
 70
     0
  9
$DIMTIH
 70
     1
  9
$DIMTOH
 70
     1
  9
$DIMSE1
 70
     0
  9
$DIMSE2
 70
     0
  9
$DIMTAD
 70
     0
  9
$DIMZIN
 70
     0
  9
$DIMBLK
  1

  9
$DIMASO
 70
     1
  9
$DIMSHO
 70
     1
  9
$DIMPOST
  1

  9
$DIMAPOST
  1

  9
$DIMALT
 70
     0
  9
$DIMALTD
 70
     2
  9
$DIMALTF
 40
25.4
  9
$DIMLFAC
 40
1.0
  9
$DIMTOFL
 70
     0
  9
$DIMTVP
 40
0.0
  9
$DIMTIX
 70
     0
  9
$DIMSOXD
 70
     0
  9
$DIMSAH
 70
     0
  9
$DIMBLK1
  1

  9
$DIMBLK2
  1

  9
$DIMSTYLE
  2
Standard
  9
$DIMCLRD
 70
     0
  9
$DIMCLRE
 70
     0
  9
$DIMCLRT
 70
     0
  9
$DIMTFAC
 40
1.0
  9
$DIMGAP
 40
0.09
  9
$DIMJUST
 70
     0
  9
$DIMSD1
 70
     0
  9
$DIMSD2
 70
     0
  9
$DIMTOLJ
 70
     1
  9
$DIMTZIN
 70
     0
  9
$DIMALTZ
 70
     0
  9
$DIMALTTZ
 70
     0
  9
$DIMUPT
 70
     0
  9
$DIMDEC
 70
     4
  9
$DIMTDEC
 70
     4
  9
$DIMALTU
 70
     2
  9
$DIMALTTD
 70
     2
  9
$DIMTXSTY
  7
Standard
  9
$DIMAUNIT
 70
     0
  9
$DIMADEC
 70
     0
  9
$DIMALTRND
 40
0.0
  9
$DIMAZIN
 70
     0
  9
$DIMDSEP
 70
    46
  9
$DIMATFIT
 70
     3
  9
$DIMFRAC
 70
     0
  9
$DIMLDRBLK
  1

  9
$DIMLUNIT
 70
     2
  9
$DIMLWD
 70
    -2
  9
$DIMLWE
 70
    -2
  9
$DIMTMOVE
 70
     2
  9
$LUNITS
 70
     2
  9
$LUPREC
 70
     3
  9
$SKETCHINC
 40
0.1
  9
$FILLETRAD
 40
0.5
  9
$AUNITS
 70
     0
  9
$AUPREC
 70
     0
  9
$MENU
  1
.
  9
$ELEVATION
 40
0.0
  9
$PELEVATION
 40
0.0
  9
$THICKNESS
 40
0.0
  9
$LIMCHECK
 70
     0
  9
$CHAMFERA
 40
0.5
  9
$CHAMFERB
 40
0.5
  9
$CHAMFERC
 40
1.0
  9
$CHAMFERD
 40
0.0
  9
$SKPOLY
 70
     0
  9
$TDCREATE
 40
2457883.507672025
  9
$TDUCREATE
 40
2457883.674338692
  9
$TDUPDATE
 40
2457883.507672037
  9
$TDUUPDATE
 40
2457883.674338704
  9
$TDINDWG
 40
0.0000000116
  9
$TDUSRTIMER
 40
0.0000000116
  9
$USRTIMER
 70
     1
  9
$ANGBASE
 50
0.0
  9
$ANGDIR
 70
     0
  9
$PDMODE
 70
     0
  9
$PDSIZE
 40
0.0
  9
$PLINEWID
 40
0.0
  9
$SPLFRAME
 70
     0
  9
$SPLINETYPE
 70
     6
  9
$SPLINESEGS
 70
     8
  9
$HANDSEED
  5
B2
  9
$SURFTAB1
 70
     6
  9
$SURFTAB2
 70
     6
  9
$SURFTYPE
 70
     6
  9
$SURFU
 70
     6
  9
$SURFV
 70
     6
  9
$UCSBASE
  2

  9
$UCSNAME
  2

  9
$UCSORG
 10
0.0
 20
0.0
 30
0.0
  9
$UCSXDIR
 10
1.0
 20
0.0
 30
0.0
  9
$UCSYDIR
 10
0.0
 20
1.0
 30
0.0
  9
$UCSORTHOREF
  2

  9
$UCSORTHOVIEW
 70
     0
  9
$UCSORGTOP
 10
0.0
 20
0.0
 30
0.0
  9
$UCSORGBOTTOM
 10
0.0
 20
0.0
 30
0.0
  9
$UCSORGLEFT
 10
0.0
 20
0.0
 30
0.0
  9
$UCSORGRIGHT
 10
0.0
 20
0.0
 30
0.0
  9
$UCSORGFRONT
 10
0.0
 20
0.0
 30
0.0
  9
$UCSORGBACK
 10
0.0
 20
0.0
 30
0.0
  9
$PUCSBASE
  2

  9
$PUCSNAME
  2

  9
$PUCSORG
 10
0.0
 20
0.0
 30
0.0
  9
$PUCSXDIR
 10
1.0
 20
0.0
 30
0.0
  9
$PUCSYDIR
 10
0.0
 20
1.0
 30
0.0
  9
$PUCSORTHOREF
  2

  9
$PUCSORTHOVIEW
 70
     0
  9
$PUCSORGTOP
 10
0.0
 20
0.0
 30
0.0
  9
$PUCSORGBOTTOM
 10
0.0
 20
0.0
 30
0.0
  9
$PUCSORGLEFT
 10
0.0
 20
0.0
 30
0.0
  9
$PUCSORGRIGHT
 10
0.0
 20
0.0
 30
0.0
  9
$PUCSORGFRONT
 10
0.0
 20
0.0
 30
0.0
  9
$PUCSORGBACK
 10
0.0
 20
0.0
 30
0.0
  9
$USERI1
 70
     0
  9
$USERI2
 70
     0
  9
$USERI3
 70
     0
  9
$USERI4
 70
     0
  9
$USERI5
 70
     0
  9
$USERR1
 40
0.0
  9
$USERR2
 40
0.0
  9
$USERR3
 40
0.0
  9
$USERR4
 40
0.0
  9
$USERR5
 40
0.0
  9
$WORLDVIEW
 70
     1
  9
$SHADEDGE
 70
     3
  9
$SHADEDIF
 70
    70
  9
$TILEMODE
 70
     1
  9
$MAXACTVP
 70
    64
  9
$PINSBASE
 10
0.0
 20
0.0
 30
0.0
  9
$PLIMCHECK
 70
     0
  9
$PEXTMIN
 10
1.000000000000000E+20
 20
1.000000000000000E+20
 30
1.000000000000000E+20
  9
$PEXTMAX
 10
-1.000000000000000E+20
 20
-1.000000000000000E+20
 30
-1.000000000000000E+20
  9
$PLIMMIN
 10
0.0
 20
0.0
  9
$PLIMMAX
 10
12.0
 20
9.0
  9
$UNITMODE
 70
     0
  9
$VISRETAIN
 70
     1
  9
$PLINEGEN
 70
     0
  9
$PSLTSCALE
 70
     1
  9
$TREEDEPTH
 70
  3020
  9
$CMLSTYLE
  2
Standard
  9
$CMLJUST
 70
     0
  9
$CMLSCALE
 40
1.0
  9
$PROXYGRAPHICS
 70
     1
  9
$MEASUREMENT
 70
     0
  9
$CELWEIGHT
370
    -1
  9
$ENDCAPS
280
     0
  9
$JOINSTYLE
280
     0
  9
$LWDISPLAY
290
     0
  9
$INSUNITS
 70
     1
  9
$HYPERLINKBASE
  1

  9
$STYLESHEET
  1

  9
$XEDIT
290
     1
  9
$CEPSNTYPE
380
     0
  9
$PSTYLEMODE
290
     1
  9
$FINGERPRINTGUID
  2
{BA863DDE-46BC-4ECF-BCFF-71DE43E46549}
  9
$VERSIONGUID
  2
{FAEB1C32-E019-11D5-929B-00C0DF256EC4}
  9
$EXTNAMES
290
     1
  9
$PSVPSCALE
 40
0.0
  9
$OLESTARTUP
290
     0
  9
$SORTENTS
280
   127
  9
$INDEXCTL
280
     0
  9
$HIDETEXT
280
     1
  9
$XCLIPFRAME
290
     0
  9
$HALOGAP
280
     0
  9
$OBSCOLOR
 70
   257
  9
$OBSLTYPE
280
     0
  9
$INTERSECTIONDISPLAY
280
     0
  9
$INTERSECTIONCOLOR
 70
   257
  9
$DIMASSOC
280
     2
  9
$PROJECTNAME
  1

  0
ENDSEC
  0
SECTION
  2
CLASSES
  0
CLASS
  1
ACDBDICTIONARYWDFLT
  2
AcDbDictionaryWithDefault
  3
ObjectDBX Classes
 90
        0
 91
        4
280
     0
281
     0
  0
CLASS
  1
VISUALSTYLE
  2
AcDbVisualStyle
  3
ObjectDBX Classes
 90
     4095
 91
        4
280
     0
281
     0
  0
ENDSEC
  0
SECTION
  2
TABLES
  0
TABLE
  2
VPORT
  5
8
330
0
100
AcDbSymbolTable
 70
     1
  0
VPORT
  5
29
330
8
100
AcDbSymbolTableRecord
100
AcDbViewportTableRecord
  2
*Active
 70
     0
 10
0.0
 20
0.0
 11
1.0
 21
1.0
 12
20.95204001890923
 22
37.40028076368868
 13
0.0
 23
0.0
 14
0.5
 24
0.5
 15
0.5
 25
0.5
 16
0.0
 26
0.0
 36
1.0
 17
0.0
 27
0.0
 37
0.0
 40
76.29657456525177
 41
0.8757148902855276
 42
50.0
 43
0.0
 44
0.0
 50
0.0
 51
0.0
 71
     0
 72
   100
 73
     1
 74
     3
 75
     0
 76
     0
 77
     0
 78
     0
281
     0
 65
     1
110
0.0
120
0.0
130
0.0
111
1.0
121
0.0
131
0.0
112
0.0
122
1.0
132
0.0
 79
     0
146
0.0
  0
ENDTAB
  0
TABLE
  2
LTYPE
  5
5
330
0
100
AcDbSymbolTable
 70
     1
  0
LTYPE
  5
14
330
5
100
AcDbSymbolTableRecord
100
AcDbLinetypeTableRecord
  2
ByBlock
 70
     0
  3

 72
    65
 73
     0
 40
0.0
  0
LTYPE
  5
15
330
5
100
AcDbSymbolTableRecord
100
AcDbLinetypeTableRecord
  2
ByLayer
 70
     0
  3

 72
    65
 73
     0
 40
0.0
  0
LTYPE
  5
16
330
5
100
AcDbSymbolTableRecord
100
AcDbLinetypeTableRecord
  2
Continuous
 70
     0
  3
Solid line
 72
    65
 73
     0
 40
0.0
  0
ENDTAB
  0
TABLE
  2
LAYER
  5
2
330
0
100
AcDbSymbolTable
 70
     2
  0
LAYER
  5
10
330
2
100
AcDbSymbolTableRecord
100
AcDbLayerTableRecord
  2
0
 70
     0
 62
     7
  6
Continuous
370
    -3
390
F
  0
LAYER
  5
3B
330
2
100
AcDbSymbolTableRecord
100
AcDbLayerTableRecord
  2
sled lng - armless 2d
 70
     0
 62
     7
  6
Continuous
370
    -3
390
F
  0
ENDTAB
  0
TABLE
  2
STYLE
  5
3
330
0
100
AcDbSymbolTable
 70
     1
  0
STYLE
  5
11
330
3
100
AcDbSymbolTableRecord
100
AcDbTextStyleTableRecord
  2
Standard
 70
     0
 40
0.0
 41
1.0
 50
0.0
 71
     0
 42
0.2
  3
txt
  4

  0
ENDTAB
  0
TABLE
  2
VIEW
  5
6
330
0
100
AcDbSymbolTable
 70
     0
  0
ENDTAB
  0
TABLE
  2
UCS
  5
7
330
0
100
AcDbSymbolTable
 70
     0
  0
ENDTAB
  0
TABLE
  2
APPID
  5
9
330
0
100
AcDbSymbolTable
 70
     1
  0
APPID
  5
12
330
9
100
AcDbSymbolTableRecord
100
AcDbRegAppTableRecord
  2
ACAD
 70
     0
  0
ENDTAB
  0
TABLE
  2
DIMSTYLE
  5
A
330
0
100
AcDbSymbolTable
 70
     1
100
AcDbDimStyleTable
  0
DIMSTYLE
105
27
330
A
100
AcDbSymbolTableRecord
100
AcDbDimStyleTableRecord
  2
Standard
 70
     0
340
11
  0
ENDTAB
  0
TABLE
  2
BLOCK_RECORD
  5
1
330
0
100
AcDbSymbolTable
 70
     1
  0
BLOCK_RECORD
  5
1F
330
1
100
AcDbSymbolTableRecord
100
AcDbBlockTableRecord
  2
*Model_Space
340
22
  0
BLOCK_RECORD
  5
1B
330
1
100
AcDbSymbolTableRecord
100
AcDbBlockTableRecord
  2
*Paper_Space
340
1E
  0
BLOCK_RECORD
  5
23
330
1
100
AcDbSymbolTableRecord
100
AcDbBlockTableRecord
  2
*Paper_Space0
340
26
  0
ENDTAB
  0
ENDSEC
  0
SECTION
  2
BLOCKS
  0
BLOCK
  5
20
330
1F
100
AcDbEntity
  8
0
100
AcDbBlockBegin
  2
*Model_Space
 70
     0
 10
0.0
 20
0.0
 30
0.0
  3
*Model_Space
  1

  0
ENDBLK
  5
21
330
1F
100
AcDbEntity
  8
0
100
AcDbBlockEnd
  0
BLOCK
  5
1C
330
1B
100
AcDbEntity
 67
     1
  8
0
100
AcDbBlockBegin
  2
*Paper_Space
 70
     0
 10
0.0
 20
0.0
 30
0.0
  3
*Paper_Space
  1

  0
ENDBLK
  5
1D
330
1B
100
AcDbEntity
 67
     1
  8
0
100
AcDbBlockEnd
  0
BLOCK
  5
24
330
23
100
AcDbEntity
  8
0
100
AcDbBlockBegin
  2
*Paper_Space0
 70
     0
 10
0.0
 20
0.0
 30
0.0
  3
*Paper_Space0
  1

  0
ENDBLK
  5
25
330
23
100
AcDbEntity
  8
0
100
AcDbBlockEnd
  0
ENDSEC
  0
SECTION
  2
ENTITIES
  0
SPLINE
  5
3C
330
1F
100
AcDbEntity
  8
sled lng - armless 2d
100
AcDbSpline
210
0.0
220
0.0
230
1.0
 70
    12
 71
     2
 72
     6
 73
     3
 74
     0
 42
0.0000000001
 43
0.0000000001
 40
0.0
 40
0.0
 40
0.0
 40
2.906778659391704
 40
2.906778659391704
 40
2.906778659391704
 10
-3.920940612865992
 20
11.55827408464526
 30
0.0
 41
1.0
 10
-5.355638235924145
 20
11.82309811393601
 30
0.0
 41
0.9943087791697793
 10
-6.701662298111531
 20
12.38586650333884
 30
0.0
 41
1.0
  0
SPLINE
  5
3D
330
1F
100
AcDbEntity
  8
sled lng - armless 2d
 62
     7
100
AcDbSpline
210
0.0
220
0.0
230
1.0
 70
     8
 71
     3
 72
    16
 73
    12
 74
     0
 42
0.0000000001
 43
0.0000000001
 40
0.0
 40
0.0
 40
0.0
 40
0.0
 40
1.0
 40
2.0
 40
3.0
 40
4.0
 40
5.0
 40
6.0
 40
7.0
 40
8.0
 40
9.0
 40
9.0
 40
9.0
 40
9.0
 10
53.07080067215684
 20
14.73732845514701
 30
0.0
 10
53.192755084484
 20
14.87438830189498
 30
0.0
 10
53.32099018551438
 20
15.22757484609651
 30
0.0
 10
53.2722532976827
 20
15.77985790481551
 30
0.0
 10
53.02454646983612
 20
16.27846962589628
 30
0.0
 10
52.57618334669199
 20
16.61542090731816
 30
0.0
 10
52.03365893446082
 20
16.72317885187548
 30
0.0
 10
51.48842466441992
 20
16.71520330744131
 30
0.0
 10
50.94499848056647
 20
16.67298135383094
 30
0.0
 10
50.40503795237051
 20
16.59951322374523
 30
0.0
 10
50.04430364132035
 20
16.55718952552217
 30
0.0
 10
49.86384742225626
 20
16.53673235258736
 30
0.0
  0
SPLINE
  5
3E
330
1F
100
AcDbEntity
  8
sled lng - armless 2d
100
AcDbSpline
210
0.0
220
0.0
230
1.0
 70
     8
 71
     3
 72
    19
 73
    15
 74
     0
 42
0.0000000001
 43
0.0000000001
 40
0.0
 40
0.0
 40
0.0
 40
0.0
 40
1.0
 40
2.0
 40
3.0
 40
4.0
 40
5.0
 40
6.0
 40
7.0
 40
8.0
 40
9.0
 40
10.0
 40
11.0
 40
12.0
 40
12.0
 40
12.0
 40
12.0
 10
33.90427201517745
 20
0.5162255291868224
 30
0.0
 10
33.88896529945367
 20
0.5092298578375806
 30
0.0
 10
33.87540436295309
 20
0.4780528552904191
 30
0.0
 10
33.87113393165016
 20
0.4304238636138101
 30
0.0
 10
33.87035074548596
 20
0.3821831249564345
 30
0.0
 10
33.87506856463047
 20
0.3343411357281062
 30
0.0
 10
33.87897785187481
 20
0.2864112009485511
 30
0.0
 10
33.88462156565824
 20
0.2386347978596185
 30
0.0
 10
33.89343479860369
 20
0.1913259931430568
 30
0.0
 10
33.89720051833873
 20
0.143304171058783
 30
0.0
 10
33.89321265799906
 20
0.0951491380418264
 30
0.0
 10
33.87773932269171
 20
0.0490565004196343
 30
0.0
 10
33.84586620811064
 20
0.0113908369364908
 30
0.0
 10
33.81443358425798
 20
0.0000250655855447
 30
0.0
 10
33.79833514162267
 20
-0.0000008859445287
 30
0.0
  0
SPLINE
  5
3F
330
1F
100
AcDbEntity
  8
sled lng - armless 2d
100
AcDbSpline
210
0.0
220
0.0
230
1.0
 70
    12
 71
     3
 72
    38
 73
    34
 74
     0
 42
0.0000000001
 43
0.0000000001
 40
0.0
 40
0.0
 40
0.0
 40
0.0
 40
0.1614600355755542
 40
0.1614600355755542
 40
0.1614600355755542
 40
1.161460035575554
 40
1.161460035575554
 40
1.161460035575554
 40
1.342084376998089
 40
1.342084376998089
 40
1.342084376998089
 40
1.47755436390012
 40
1.47755436390012
 40
1.47755436390012
 40
1.584196495078726
 40
1.584196495078726
 40
1.584196495078726
 40
2.578062432122167
 40
2.578062432122167
 40
2.578062432122167
 40
2.821910699658148
 40
2.821910699658148
 40
2.821910699658148
 40
3.017666951507059
 40
3.017666951507059
 40
3.017666951507059
 40
4.017666951507058
 40
4.017666951507058
 40
4.017666951507058
 40
5.201975398962436
 40
5.201975398962436
 40
5.201975398962436
 40
5.449644478992974
 40
5.449644478992974
 40
5.449644478992974
 40
5.449644478992974
 10
33.43669980241042
 20
0.1509997018280992
 30
0.0
 41
1.0
 10
33.49051981426859
 20
0.1509995061705524
 30
0.0
 41
1.0
 10
33.54433982612674
 20
0.1509993105130056
 30
0.0
 41
1.0
 10
33.59815983798491
 20
0.1509991148554588
 30
0.0
 41
1.0
 10
33.63392787667824
 20
0.1509991148554639
 30
0.0
 41
1.0
 10
33.67732552152569
 20
0.1636792748485901
 30
0.0
 41
1.0
 10
33.70127063671196
 20
0.1881362046807062
 30
0.0
 41
1.0
 10
33.74433879525283
 20
0.2321249231829305
 30
0.0
 41
0.9567820019755179
 10
33.76904300964959
 20
0.2886438287821699
 30
0.0
 41
0.9567820019755179
 10
33.77218027983525
 20
0.350365019626823
 30
0.0
 41
1.0
 10
33.77408740092095
 20
0.3957467673293118
 30
0.0
 41
0.9990772271169964
 10
33.77836107421643
 20
0.4408604608233561
 30
0.0
 41
0.9990772271169964
 10
33.78498946883218
 20
0.4855812110299308
 30
0.0
 41
1.0
 10
33.80198480523845
 20
0.5189632398283067
 30
0.0
 41
0.9033337581835719
 10
33.83381171681864
 20
0.5386857545133873
 30
0.0
 41
0.9033337581835719
 10
33.87124043977951
 20
0.5390292509638442
 30
0.0
 41
1.0
 10
34.20252908546065
 20
0.5390292509638442
 30
0.0
 41
1.0
 10
34.5338177311418
 20
0.5390292509638442
 30
0.0
 41
1.0
 10
35.19494182035285
 20
0.5390292509638442
 30
0.0
 41
1.0
 10
35.28136153874878
 20
0.524543606057893
 30
0.0
 41
0.8396995359144742
 10
35.33757939183769
 20
0.4573293618082891
 30
0.0
 41
0.8396995359144742
 10
35.33656013579947
 20
0.3697099418541409
 30
0.0
 41
1.0
 10
35.33155380555851
 20
0.3046501914911941
 30
0.0
 41
1.0
 10
35.32654747531755
 20
0.2395904411282475
 30
0.0
 41
1.0
 10
35.32154114507659
 20
0.174530690765301
 30
0.0
 41
1.0
 10
35.31250028301435
 20
0.0570401936297284
 30
0.0
 41
1.0
 10
35.23785710479572
 20
-0.0000008859445412
 30
0.0
 41
1.0
 10
35.11665506443803
 20
-0.0000008859445404
 30
0.0
 41
1.0
 10
34.39205013842301
 20
-0.0000008859445379
 30
0.0
 41
1.0
 10
33.99728065593789
 20
-0.0000008859445354
 30
0.0
 41
1.0
 10
33.60251117345275
 20
-0.0000008859445329
 30
0.0
 41
1.0
 10
33.51546798861447
 20
0.010283499779469
 30
0.0
 41
0.8890408430660882
 10
33.44859353399735
 20
0.0669411730124337
 30
0.0
 41
0.8890408430660882
 10
33.4241488089156
 20
0.1511120707870607
 30
0.0
 41
1.0
  0
SPLINE
  5
40
330
1F
100
AcDbEntity
  8
sled lng - armless 2d
100
AcDbSpline
210
0.0
220
0.0
230
1.0
 70
    12
 71
     3
 72
    38
 73
    34
 74
     0
 42
0.0000000001
 43
0.0000000001
 40
0.0
 40
0.0
 40
0.0
 40
0.0
 40
0.1614600355755542
 40
0.1614600355755542
 40
0.1614600355755542
 40
1.161460035575554
 40
1.161460035575554
 40
1.161460035575554
 40
1.342084376998089
 40
1.342084376998089
 40
1.342084376998089
 40
1.47755436390012
 40
1.47755436390012
 40
1.47755436390012
 40
1.584196495078726
 40
1.584196495078726
 40
1.584196495078726
 40
2.578062432122167
 40
2.578062432122167
 40
2.578062432122167
 40
2.821910699658148
 40
2.821910699658148
 40
2.821910699658148
 40
3.017666951507059
 40
3.017666951507059
 40
3.017666951507059
 40
4.017666951507058
 40
4.017666951507058
 40
4.017666951507058
 40
5.201975398962436
 40
5.201975398962436
 40
5.201975398962436
 40
5.449644478992974
 40
5.449644478992974
 40
5.449644478992974
 40
5.449644478992974
 10
51.33618508785413
 20
0.1509997018280992
 30
0.0
 41
1.0
 10
51.28236507599596
 20
0.1509995061705524
 30
0.0
 41
1.0
 10
51.22854506413781
 20
0.1509993105130056
 30
0.0
 41
1.0
 10
51.17472505227965
 20
0.1509991148554588
 30
0.0
 41
1.0
 10
51.13895701358632
 20
0.1509991148554639
 30
0.0
 41
1.0
 10
51.09555936873887
 20
0.1636792748485901
 30
0.0
 41
1.0
 10
51.0716142535526
 20
0.1881362046807062
 30
0.0
 41
1.0
 10
51.02854609501173
 20
0.2321249231829305
 30
0.0
 41
0.9567820019755179
 10
51.00384188061497
 20
0.2886438287821699
 30
0.0
 41
0.9567820019755179
 10
51.0007046104293
 20
0.350365019626823
 30
0.0
 41
1.0
 10
50.99879748934359
 20
0.3957467673293118
 30
0.0
 41
0.9990772271169964
 10
50.99452381604812
 20
0.4408604608233561
 30
0.0
 41
0.9990772271169964
 10
50.98789542143238
 20
0.4855812110299308
 30
0.0
 41
1.0
 10
50.97090008502611
 20
0.5189632398283067
 30
0.0
 41
0.9033337581835719
 10
50.93907317344592
 20
0.5386857545133873
 30
0.0
 41
0.9033337581835719
 10
50.90164445048504
 20
0.5390292509638442
 30
0.0
 41
1.0
 10
50.5703558048039
 20
0.5390292509638442
 30
0.0
 41
1.0
 10
50.23906715912275
 20
0.5390292509638442
 30
0.0
 41
1.0
 10
49.57794306991171
 20
0.5390292509638442
 30
0.0
 41
1.0
 10
49.49152335151579
 20
0.524543606057893
 30
0.0
 41
0.8396995359144742
 10
49.43530549842686
 20
0.4573293618082891
 30
0.0
 41
0.8396995359144742
 10
49.43632475446509
 20
0.3697099418541409
 30
0.0
 41
1.0
 10
49.44133108470604
 20
0.3046501914911941
 30
0.0
 41
1.0
 10
49.44633741494701
 20
0.2395904411282475
 30
0.0
 41
1.0
 10
49.45134374518796
 20
0.174530690765301
 30
0.0
 41
1.0
 10
49.46038460725021
 20
0.0570401936297284
 30
0.0
 41
1.0
 10
49.53502778546884
 20
-0.0000008859445412
 30
0.0
 41
1.0
 10
49.65622982582653
 20
-0.0000008859445404
 30
0.0
 41
1.0
 10
50.38083475184155
 20
-0.0000008859445379
 30
0.0
 41
1.0
 10
50.77560423432667
 20
-0.0000008859445354
 30
0.0
 41
1.0
 10
51.1703737168118
 20
-0.0000008859445329
 30
0.0
 41
1.0
 10
51.2574169016501
 20
0.010283499779469
 30
0.0
 41
0.8890408430660882
 10
51.32429135626721
 20
0.0669411730124337
 30
0.0
 41
0.8890408430660882
 10
51.34873608134895
 20
0.1511120707870607
 30
0.0
 41
1.0
  0
SPLINE
  5
41
330
1F
100
AcDbEntity
  8
sled lng - armless 2d
100
AcDbSpline
210
0.0
220
0.0
230
1.0
 70
     8
 71
     3
 72
    19
 73
    15
 74
     0
 42
0.0000000001
 43
0.0000000001
 40
0.0
 40
0.0
 40
0.0
 40
0.0
 40
1.0
 40
2.0
 40
3.0
 40
4.0
 40
5.0
 40
6.0
 40
7.0
 40
8.0
 40
9.0
 40
10.0
 40
11.0
 40
12.0
 40
12.0
 40
12.0
 40
12.0
 10
50.8686128750871
 20
0.5162255291868224
 30
0.0
 10
50.88391959081088
 20
0.5092298578375806
 30
0.0
 10
50.89748052731147
 20
0.4780528552904191
 30
0.0
 10
50.9017509586144
 20
0.4304238636138101
 30
0.0
 10
50.9025341447786
 20
0.3821831249564345
 30
0.0
 10
50.89781632563409
 20
0.3343411357281062
 30
0.0
 10
50.89390703838975
 20
0.2864112009485511
 30
0.0
 10
50.88826332460632
 20
0.2386347978596185
 30
0.0
 10
50.87945009166086
 20
0.1913259931430568
 30
0.0
 10
50.87568437192583
 20
0.143304171058783
 30
0.0
 10
50.8796722322655
 20
0.0951491380418264
 30
0.0
 10
50.89514556757285
 20
0.0490565004196343
 30
0.0
 10
50.92701868215392
 20
0.0113908369364908
 30
0.0
 10
50.95845130600658
 20
0.0000250655855447
 30
0.0
 10
50.97454974864188
 20
-0.0000008859445287
 30
0.0
  0
POLYLINE
  5
42
330
1F
100
AcDbEntity
  8
sled lng - armless 2d
100
AcDb2dPolyline
 66
     1
 10
0.0
 20
0.0
 30
0.0
  0
VERTEX
  5
43
330
42
100
AcDbEntity
  8
sled lng - armless 2d
100
AcDbVertex
100
AcDb2dVertex
 10
33.43669980241042
 20
0.1509997018280992
 30
0.0
  0
VERTEX
  5
44
330
42
100
AcDbEntity
  8
sled lng - armless 2d
100
AcDbVertex
100
AcDb2dVertex
 10
33.35639356563788
 20
0.1509889012441983
 30
0.0
  0
SEQEND
  5
45
330
42
100
AcDbEntity
  8
sled lng - armless 2d
  0
SPLINE
  5
46
330
1F
100
AcDbEntity
  8
sled lng - armless 2d
100
AcDbSpline
210
0.0
220
0.0
230
1.0
 70
     8
 71
     3
 72
    12
 73
     8
 74
     0
 42
0.0000000001
 43
0.0000000001
 40
-2.26787472629437
 40
-2.26787472629437
 40
-2.26787472629437
 40
-2.26787472629437
 40
-1.754364578787313
 40
-1.224941810375229
 40
-0.6229595918350144
 40
-0.3072893560521184
 40
0.0
 40
0.0
 40
0.0
 40
0.0
 10
33.35639356563788
 20
0.1509889012441983
 30
0.0
 10
33.18557092932812
 20
0.1486580070477552
 30
0.0
 10
32.83753293127614
 20
0.2578142627011359
 30
0.0
 10
32.47417526357562
 20
0.6921485659591786
 30
0.0
 10
32.36518189582914
 20
1.174199412433165
 30
0.0
 10
32.38988937334494
 20
1.582167613633494
 30
0.0
 10
32.44130269435352
 20
1.785217230597159
 30
0.0
 10
32.47704498918353
 20
1.883498229047373
 30
0.0
  0
SPLINE
  5
47
330
1F
100
AcDbEntity
  8
sled lng - armless 2d
100
AcDbSpline
210
0.0
220
0.0
230
1.0
 70
    24
 71
     2
 72
     6
 73
     3
 74
     0
 42
0.0000000001
 43
0.0000000001
 40
-10.37001559530908
 40
-10.37001559530908
 40
-10.37001559530908
 40
0.0
 40
0.0
 40
0.0
 10
32.47704498918353
 20
1.883498229047373
 30
0.0
 10
34.20824398656852
 20
6.77225370068236
 30
0.0
 10
35.9394429839535
 20
11.66100917231735
 30
0.0
  0
SPLINE
  5
48
330
1F
100
AcDbEntity
  8
sled lng - armless 2d
100
AcDbSpline
210
0.0
220
0.0
230
1.0
 70
     8
 71
     3
 72
     8
 73
     4
 74
     0
 42
0.0000000001
 43
0.0000000001
 40
12.63789032160344
 40
12.63789032160344
 40
12.63789032160344
 40
12.63789032160344
 40
13.63789032160344
 40
13.63789032160344
 40
13.63789032160344
 40
13.63789032160344
 10
35.9394429839535
 20
11.66100917231735
 30
0.0
 10
36.21343984841477
 20
12.43475249839901
 30
0.0
 10
36.74624164291252
 20
12.64548763069569
 30
0.0
 10
37.46459207916443
 20
12.25265284772107
 30
0.0
  0
SPLINE
  5
49
330
1F
100
AcDbEntity
  8
sled lng - armless 2d
100
AcDbSpline
210
0.0
220
0.0
230
1.0
 70
    12
 71
     2
 72
     7
 73
     4
 74
     0
 42
0.0000000001
 43
0.0000000001
 40
13.63789032160344
 40
13.63789032160344
 40
13.63789032160344
 40
16.42304165639755
 40
17.86740336649549
 40
17.86740336649549
 40
17.86740336649549
 10
37.46459207916443
 20
12.25265284772107
 30
0.0
 41
1.0
 10
38.62414267551681
 20
11.61854478029526
 30
0.0
 41
0.9792669580925595
 10
40.60129964475077
 20
11.43522339305792
 30
0.0
 41
1.010752023235095
 10
41.2595680880034
 20
11.29954991504664
 30
0.0
 41
1.0
  0
SPLINE
  5
4A
330
1F
100
AcDbEntity
  8
sled lng - armless 2d
100
AcDbSpline
210
0.0
220
0.0
230
1.0
 70
     8
 71
     3
 72
    11
 73
     7
 74
     0
 42
0.0000000001
 43
0.0000000001
 40
-0.7568461232925572
 40
-0.7568461232925572
 40
-0.7568461232925572
 40
-0.7568461232925572
 40
-0.410762572206105
 40
-0.2125786689102793
 40
-0.1056503418239303
 40
0.0
 40
0.0
 40
0.0
 40
0.0
 10
41.2595680880034
 20
11.29954991504664
 30
0.0
 10
41.18779166053336
 20
11.20941455279775
 30
0.0
 10
41.03047215503527
 20
11.1099396488729
 30
0.0
 10
40.82333438118241
 20
11.04982178279159
 30
0.0
 10
40.68762013129133
 20
11.03158610154954
 30
0.0
 10
40.61755371479596
 20
11.02794211752105
 30
0.0
 10
40.5823756347589
 20
11.02755490460219
 30
0.0
  0
ARC
  5
4B
330
1F
100
AcDbEntity
  8
sled lng - armless 2d
100
AcDbCircle
 10
40.55238737588119
 20
17.91540385585974
 30
0.0
 40
6.887914232262935
100
AcDbArc
 50
241.3927469812812
 51
270.2494523071672
  0
SPLINE
  5
4C
330
1F
100
AcDbEntity
  8
sled lng - armless 2d
100
AcDbSpline
210
0.0
220
0.0
230
1.0
 70
     8
 71
     3
 72
     8
 73
     4
 74
     0
 42
0.0000000001
 43
0.0000000001
 40
-9.072680762936951
 40
-9.072680762936951
 40
-9.072680762936951
 40
-9.072680762936951
 40
-8.072680762936951
 40
-8.072680762936951
 40
-8.072680762936951
 40
-8.072680762936951
 10
37.25443339741616
 20
11.86834986015762
 30
0.0
 10
36.82859052188886
 20
12.10059686945246
 30
0.0
 10
36.51428134802583
 20
11.97216504139533
 30
0.0
 10
36.35151863438645
 20
11.51253890257291
 30
0.0
  0
SPLINE
  5
4D
330
1F
100
AcDbEntity
  8
sled lng - armless 2d
100
AcDbSpline
210
0.0
220
0.0
230
1.0
 70
    24
 71
     2
 72
     6
 73
     3
 74
     0
 42
0.0000000001
 43
0.0000000001
 40
-10.36748958337489
 40
-10.36748958337489
 40
-10.36748958337489
 40
0.0
 40
0.0
 40
0.0
 10
36.35151863438645
 20
11.51253890257291
 30
0.0
 10
34.62030115431716
 20
6.623748417123496
 30
0.0
 10
32.88908367424786
 20
1.734957931674077
 30
0.0
  0
SPLINE
  5
4E
330
1F
100
AcDbEntity
  8
sled lng - armless 2d
100
AcDbSpline
210
0.0
220
0.0
230
1.0
 70
     8
 71
     3
 72
    12
 73
     8
 74
     0
 42
0.0000000001
 43
0.0000000001
 40
-1.421312459259256
 40
-1.421312459259256
 40
-1.421312459259256
 40
-1.421312459259256
 40
-1.018134435032834
 40
-0.6304037881567464
 40
-0.298877621512718
 40
-0.1517070196758271
 40
0.0
 40
0.0
 40
0.0
 40
0.0
 10
32.88908367424786
 20
1.734957931674077
 30
0.0
 10
32.84251909924458
 20
1.603565661010827
 30
0.0
 10
32.79580626907155
 20
1.340358663987167
 30
0.0
 10
32.85541771971819
 20
0.9652332836422955
 30
0.0
 10
33.01729825456702
 20
0.7150044397162084
 30
0.0
 10
33.20198198751343
 20
0.6064634599027199
 30
0.0
 10
33.30130370936982
 20
0.5890642560963116
 30
0.0
 10
33.35198386972267
 20
0.5889906357759755
 30
0.0
  0
SPLINE
  5
4F
330
1F
100
AcDbEntity
  8
sled lng - armless 2d
100
AcDbSpline
210
0.0
220
0.0
230
1.0
 70
     8
 71
     3
 72
     8
 73
     4
 74
     0
 42
0.0000000001
 43
0.0000000001
 40
-7.304454755878153
 40
-7.304454755878153
 40
-7.304454755878153
 40
-7.304454755878153
 40
-5.8652901717477
 40
-5.8652901717477
 40
-5.8652901717477
 40
-5.8652901717477
 10
33.35198386972267
 20
0.5889906357759755
 30
0.0
 10
37.07578186954496
 20
0.5889999999211545
 30
0.0
 10
39.65839335259583
 20
0.5889999999379925
 30
0.0
 10
41.40567598367385
 20
0.5889999998041411
 30
0.0
  0
ARC
  5
50
330
1F
100
AcDbEntity
  8
sled lng - armless 2d
100
AcDbCircle
 10
41.40566985577469
 20
0.3699999998898829
 30
0.0
 40
0.2189999999999914
100
AcDbArc
 50
269.9983967910533
 51
89.99839679105516
  0
SPLINE
  5
51
330
1F
100
AcDbEntity
  8
sled lng - armless 2d
100
AcDbSpline
210
0.0
220
0.0
230
1.0
 70
    24
 71
     3
 72
     8
 73
     4
 74
     0
 42
0.0000000001
 43
0.0000000001
 40
5.843294654963796
 40
5.843294654963796
 40
5.843294654963796
 40
5.843294654963796
 40
7.014814616518302
 40
7.014814616518302
 40
7.014814616518302
 40
7.014814616518302
 10
41.40566372787553
 20
0.1509999999756247
 30
0.0
 10
39.98623378443651
 20
0.1509999999404536
 30
0.0
 10
38.01251986168177
 20
0.1509999999272384
 30
0.0
 10
35.31872698752205
 20
0.1509999999110935
 30
0.0
  0
SPLINE
  5
52
330
1F
100
AcDbEntity
  8
sled lng - armless 2d
100
AcDbSpline
210
0.0
220
0.0
230
1.0
 70
    24
 71
     3
 72
     8
 73
     4
 74
     0
 42
0.0000000001
 43
0.0000000001
 40
-6.510203413740075
 40
-6.510203413740075
 40
-6.510203413740075
 40
-6.510203413740075
 40
-5.133188463563241
 40
-5.133188463563241
 40
-5.133188463563241
 40
-5.133188463563241
 10
49.45415790268134
 20
0.1510000002812479
 30
0.0
 10
45.98938197320219
 20
0.1510000002241486
 30
0.0
 10
43.53855128152529
 20
0.151000000178634
 30
0.0
 10
41.8436622526213
 20
0.1510000000711877
 30
0.0
  0
SPLINE
  5
53
330
1F
100
AcDbEntity
  8
sled lng - armless 2d
100
AcDbSpline
210
0.0
220
0.0
230
1.0
 70
    12
 71
     2
 72
    12
 73
     9
 74
     0
 42
0.0000000001
 43
0.0000000001
 40
-0.6880414423441226
 40
-0.6880414423441226
 40
-0.6880414423441226
 40
-0.5160310817580919
 40
-0.5160310817580919
 40
-0.3440207211720613
 40
-0.3440207211720613
 40
-0.1720103605860306
 40
-0.1720103605860306
 40
0.0
 40
0.0
 40
0.0
 10
41.8436622526213
 20
0.1510000000711877
 30
0.0
 41
1.0
 10
41.75294470105781
 20
0.150993079795619
 30
0.0
 41
0.9238724008752841
 10
41.68879520252884
 20
0.2151375733086316
 30
0.0
 41
1.0
 10
41.62464570399984
 20
0.2792820668216442
 30
0.0
 41
0.9238724008752841
 10
41.62464554604278
 20
0.3699996186489329
 30
0.0
 41
1.0
 10
41.62464538808571
 20
0.4607171704762215
 30
0.0
 41
0.9238724008752841
 10
41.688794663238
 20
0.524861887382588
 30
0.0
 41
1.0
 10
41.75294393839027
 20
0.5890066042889545
 30
0.0
 41
0.9238724008752841
 10
41.84366148997731
 20
0.5890000000694138
 30
0.0
 41
1.0
  0
SPLINE
  5
54
330
1F
100
AcDbEntity
  8
sled lng - armless 2d
100
AcDbSpline
210
0.0
220
0.0
230
1.0
 70
     8
 71
     3
 72
     8
 73
     4
 74
     0
 42
0.0000000001
 43
0.0000000001
 40
6.043369021572395
 40
6.043369021572395
 40
6.043369021572395
 40
6.043369021572395
 40
7.673721745918916
 40
7.673721745918916
 40
7.673721745918916
 40
7.673721745918916
 10
41.84366148997731
 20
0.5890000000694138
 30
0.0
 10
43.8551793864177
 20
0.5890000001822302
 30
0.0
 10
46.92475775676095
 20
0.5890000002369511
 30
0.0
 10
51.47821994914266
 20
0.5889986875258573
 30
0.0
  0
SPLINE
  5
55
330
1F
100
AcDbEntity
  8
sled lng - armless 2d
100
AcDbSpline
210
0.0
220
0.0
230
1.0
 70
     8
 71
     3
 72
    12
 73
     8
 74
     0
 42
0.0000000001
 43
0.0000000001
 40
-1.464171962113743
 40
-1.464171962113743
 40
-1.464171962113743
 40
-1.464171962113743
 40
-1.158426102045908
 40
-0.8157997105717723
 40
-0.4309312568666824
 40
-0.2260283211312448
 40
0.0
 40
0.0
 40
0.0
 40
0.0
 10
51.47821994914266
 20
0.5889986875258573
 30
0.0
 10
51.58032006635056
 20
0.5875403386277275
 30
0.0
 10
51.79487564801606
 20
0.6636820988369342
 30
0.0
 10
52.00368710340001
 20
0.9528440396268073
 30
0.0
 10
52.06436576543436
 20
1.262418304922938
 30
0.0
 10
52.05195133164806
 20
1.534845644192946
 30
0.0
 10
52.02215272409349
 20
1.675897822024263
 30
0.0
 10
52.00059614989655
 20
1.753027459493496
 30
0.0
  0
SPLINE
  5
56
330
1F
100
AcDbEntity
  8
sled lng - armless 2d
100
AcDbSpline
210
0.0
220
0.0
230
1.0
 70
    24
 71
     2
 72
     6
 73
     3
 74
     0
 42
0.0000000001
 43
0.0000000001
 40
-10.61541081785377
 40
-10.61541081785377
 40
-10.61541081785377
 40
0.0
 40
0.0
 40
0.0
 10
52.00059614989655
 20
1.753027459493496
 30
0.0
 10
50.55921946659508
 20
6.86376360899078
 30
0.0
 10
49.11784278329361
 20
11.97449975848807
 30
0.0
  0
SPLINE
  5
57
330
1F
100
AcDbEntity
  8
sled lng - armless 2d
100
AcDbSpline
210
0.0
220
0.0
230
1.0
 70
     8
 71
     3
 72
     8
 73
     4
 74
     0
 42
0.0000000001
 43
0.0000000001
 40
0.0
 40
0.0
 40
0.0
 40
0.0
 40
1.0
 40
1.0
 40
1.0
 40
1.0
 10
49.11784278329361
 20
11.97449975848807
 30
0.0
 10
48.97296350520995
 20
12.48820292324252
 30
0.0
 10
48.73057533855373
 20
12.79364977352129
 30
0.0
 10
48.29019077506292
 20
12.59720936562509
 30
0.0
  0
SPLINE
  5
58
330
1F
100
AcDbEntity
  8
sled lng - armless 2d
100
AcDbSpline
210
0.0
220
0.0
230
1.0
 70
    12
 71
     3
 72
    13
 73
     9
 74
     0
 42
0.0000000001
 43
0.0000000001
 40
-5.695865940744944
 40
-5.695865940744944
 40
-5.695865940744944
 40
-5.695865940744944
 40
-2.641953105665184
 40
-1.761301962729088
 40
-1.761301962729088
 40
-0.2201627194196982
 40
-0.2201627194196982
 40
-0.001696238080245
 40
-0.001696238080245
 40
-0.001696238080245
 40
-0.001696238080245
 10
48.29019077506292
 20
12.59720936562509
 30
0.0
 41
1.0
 10
47.51939216041922
 20
12.25338261323805
 30
0.0
 41
1.0
 10
46.50380757510513
 20
11.88960540035235
 30
0.0
 41
1.0
 10
45.46954475908102
 20
11.62721943622047
 30
0.0
 41
1.0
 10
44.83000835912377
 20
11.4825359986561
 30
0.0
 41
1.0
 10
44.42022448559766
 20
11.40890678591358
 30
0.0
 41
1.0
 10
43.94923029860242
 20
11.35269239449546
 30
0.0
 41
1.0
 10
43.89074748189056
 20
11.34621052292627
 30
0.0
 41
1.0
 10
43.83218282279475
 20
11.34023543584496
 30
0.0
 41
1.0
  0
SPLINE
  5
59
330
1F
100
AcDbEntity
  8
sled lng - armless 2d
100
AcDbSpline
210
0.0
220
0.0
230
1.0
 70
     8
 71
     3
 72
    11
 73
     7
 74
     0
 42
0.0000000001
 43
0.0000000001
 40
-1.258820856633601
 40
-1.258820856633601
 40
-1.258820856633601
 40
-1.258820856633601
 40
-0.9497091102361168
 40
-0.7117465017715054
 40
-0.7117465017715054
 40
-0.6055970153889699
 40
-0.6055970153889699
 40
-0.6055970153889699
 40
-0.6055970153889699
 10
43.83218282279475
 20
11.34023543584496
 30
0.0
 10
43.66379109616621
 20
11.32305519018297
 30
0.0
 10
43.44778743261578
 20
11.36478688029176
 30
0.0
 10
43.34072635019636
 20
11.41209502629373
 30
0.0
 10
43.28029128934621
 20
11.44783000791862
 30
0.0
 10
43.26299665258969
 20
11.45954226387945
 30
0.0
 10
43.24717417671116
 20
11.471562302146
 30
0.0
  0
SPLINE
  5
5A
330
1F
100
AcDbEntity
  8
sled lng - armless 2d
100
AcDbSpline
210
0.0
220
0.0
230
1.0
 70
     8
 71
     3
 72
    10
 73
     6
 74
     0
 42
0.0000000001
 43
0.0000000001
 40
-19.07376985737198
 40
-19.07376985737198
 40
-19.07376985737198
 40
-19.07376985737198
 40
-18.40060027057202
 40
-16.68060271070969
 40
-13.88976199370684
 40
-13.88976199370684
 40
-13.88976199370684
 40
-13.88976199370684
 10
43.24717417671116
 20
11.471562302146
 30
0.0
 10
43.34032900027959
 20
11.73821119313778
 30
0.0
 10
44.13725224395709
 20
11.79153740233603
 30
0.0
 10
45.83795257458635
 20
12.11991518572191
 30
0.0
 10
47.26216657148975
 20
12.61825735146169
 30
0.0
 10
48.11175544818657
 20
12.99722972996532
 30
0.0
  0
SPLINE
  5
5B
330
1F
100
AcDbEntity
  8
sled lng - armless 2d
100
AcDbSpline
210
0.0
220
0.0
230
1.0
 70
     8
 71
     3
 72
     8
 73
     4
 74
     0
 42
0.0000000001
 43
0.0000000001
 40
-13.88976199370684
 40
-13.88976199370684
 40
-13.88976199370684
 40
-13.88976199370684
 40
-12.88976199370684
 40
-12.88976199370684
 40
-12.88976199370684
 40
-12.88976199370684
 10
48.11175544818657
 20
12.99722972996532
 30
0.0
 10
48.85066249012122
 20
13.32683074859422
 30
0.0
 10
49.30524952229277
 20
12.92361917973968
 30
0.0
 10
49.53935822197713
 20
12.09353234485842
 30
0.0
  0
SPLINE
  5
5C
330
1F
100
AcDbEntity
  8
sled lng - armless 2d
100
AcDbSpline
210
0.0
220
0.0
230
1.0
 70
    24
 71
     2
 72
     6
 73
     3
 74
     0
 42
0.0000000001
 43
0.0000000001
 40
-10.61546687147417
 40
-10.61546687147417
 40
-10.61546687147417
 40
0.0
 40
0.0
 40
0.0
 10
49.53935822197713
 20
12.09353234485842
 30
0.0
 10
50.98073899214484
 20
6.982781642384059
 30
0.0
 10
52.42211976231254
 20
1.872030939909697
 30
0.0
  0
SPLINE
  5
5D
330
1F
100
AcDbEntity
  8
sled lng - armless 2d
100
AcDbSpline
210
0.0
220
0.0
230
1.0
 70
     8
 71
     3
 72
    12
 73
     8
 74
     0
 42
0.0000000001
 43
0.0000000001
 40
-2.274295122232672
 40
-2.274295122232672
 40
-2.274295122232672
 40
-2.274295122232672
 40
-1.644715582724334
 40
-1.056978607943644
 40
-0.5173400709982579
 40
-0.2507577307951385
 40
0.0
 40
0.0
 40
0.0
 40
0.0
 10
52.42211976231254
 20
1.872030939909697
 30
0.0
 10
52.48070290036878
 20
1.665503008864774
 30
0.0
 10
52.52973301517681
 20
1.256810852379953
 30
0.0
 10
52.37719175653883
 20
0.6778508800482692
 30
0.0
 10
52.05889277250344
 20
0.3184404573224936
 30
0.0
 10
51.73216951121107
 20
0.1738803717182437
 30
0.0
 10
51.56031190220878
 20
0.1507695240254409
 30
0.0
 10
51.47649631945044
 20
0.1509992691411023
 30
0.0
  0
POLYLINE
  5
5E
330
1F
100
AcDbEntity
  8
sled lng - armless 2d
100
AcDb2dPolyline
 66
     1
 10
0.0
 20
0.0
 30
0.0
  0
VERTEX
  5
5F
330
5E
100
AcDbEntity
  8
sled lng - armless 2d
100
AcDbVertex
100
AcDb2dVertex
 10
51.47649631945044
 20
0.1509992691411023
 30
0.0
  0
VERTEX
  5
60
330
5E
100
AcDbEntity
  8
sled lng - armless 2d
100
AcDbVertex
100
AcDb2dVertex
 10
51.33618508785413
 20
0.1509997018280992
 30
0.0
  0
SEQEND
  5
61
330
5E
100
AcDbEntity
  8
sled lng - armless 2d
  0
SPLINE
  5
62
330
1F
100
AcDbEntity
  8
sled lng - armless 2d
 62
     7
100
AcDbSpline
210
0.0
220
0.0
230
1.0
 70
     8
 71
     3
 72
     9
 73
     5
 74
     0
 42
0.0000000001
 43
0.0000000001
 40
1.462641541282522
 40
1.462641541282522
 40
1.462641541282522
 40
1.462641541282522
 40
2.0
 40
2.3650678561158
 40
2.3650678561158
 40
2.3650678561158
 40
2.3650678561158
 10
48.99091387958858
 20
12.31303114053493
 30
0.0
 10
48.46116471577874
 20
12.20793751998178
 30
0.0
 10
47.56802824502349
 20
12.04913911143143
 30
0.0
 10
46.67132993140159
 20
11.91149381191202
 30
0.0
 10
46.30815648379664
 20
11.85874728276083
 30
0.0
  0
SPLINE
  5
63
330
1F
100
AcDbEntity
  8
sled lng - armless 2d
 62
     7
100
AcDbSpline
210
0.0
220
0.0
230
1.0
 70
     8
 71
     3
 72
     9
 73
     5
 74
     0
 42
0.0000000001
 43
0.0000000001
 40
3.388055324889166
 40
3.388055324889166
 40
3.388055324889166
 40
3.388055324889166
 40
4.0
 40
4.050781474185946
 40
4.050781474185946
 40
4.050781474185946
 40
4.050781474185946
 10
43.24823631313134
 20
11.47457575524576
 30
0.0
 10
42.63689873086238
 20
11.40939760587394
 30
0.0
 10
41.97370662921628
 20
11.34764756328641
 30
0.0
 10
41.3081293840508
 20
11.30004571783306
 30
0.0
 10
41.2571176316779
 20
11.29649664934649
 30
0.0
  0
SPLINE
  5
64
330
1F
100
AcDbEntity
  8
sled lng - armless 2d
 62
     7
100
AcDbSpline
210
0.0
220
0.0
230
1.0
 70
     8
 71
     3
 72
     9
 73
     5
 74
     0
 42
0.0000000001
 43
0.0000000001
 40
4.88508085379781
 40
4.88508085379781
 40
4.88508085379781
 40
4.88508085379781
 40
5.0
 40
5.662811963337028
 40
5.662811963337028
 40
5.662811963337028
 40
5.662811963337028
 10
38.74302281795202
 20
11.26938532086301
 30
0.0
 10
38.62804283705509
 20
11.2780545567901
 30
0.0
 10
37.85073850790804
 20
11.34888184610545
 30
0.0
 10
37.08027204316873
 20
11.51013625410547
 30
0.0
 10
36.44713939205408
 20
11.71755121403886
 30
0.0
  0
SPLINE
  5
65
330
1F
100
AcDbEntity
  8
sled lng - armless 2d
 62
     7
100
AcDbSpline
210
0.0
220
0.0
230
1.0
 70
     8
 71
     3
 72
    15
 73
    11
 74
     0
 42
0.0000000001
 43
0.0000000001
 40
5.811379623922605
 40
5.811379623922605
 40
5.811379623922605
 40
5.811379623922605
 40
6.0
 40
7.0
 40
8.0
 40
9.0
 40
10.0
 40
11.0
 40
12.0
 40
13.0
 40
13.0
 40
13.0
 40
13.0
 10
36.02514290441467
 20
11.86762340822813
 30
0.0
 10
35.84822983786366
 20
11.93563897586538
 30
0.0
 10
34.74749024535901
 20
12.40045944147221
 30
0.0
 10
32.9155660135682
 20
13.6837555959548
 30
0.0
 10
31.17925529361414
 20
16.19498317721025
 30
0.0
 10
30.12149978176951
 20
19.02878822147213
 30
0.0
 10
29.25033077060392
 20
21.91424614657696
 30
0.0
 10
28.40427268913529
 20
24.80904158036068
 30
0.0
 10
27.60693818934536
 20
27.71715660540723
 30
0.0
 10
27.10484645010552
 20
29.66381765350732
 30
0.0
 10
26.85116628164629
 20
30.63641853317912
 30
0.0
  0
SPLINE
  5
66
330
1F
100
AcDbEntity
  8
sled lng - armless 2d
 62
     7
100
AcDbSpline
210
0.0
220
0.0
230
1.0
 70
    12
 71
     2
 72
     8
 73
     5
 74
     0
 42
0.0000000001
 43
0.0000000001
 40
0.0
 40
0.0
 40
0.0
 40
0.4142959691772323
 40
0.4142959691772323
 40
0.828588430205433
 40
0.828588430205433
 40
0.828588430205433
 10
26.85116628164629
 20
30.63641853317912
 30
0.0
 41
1.0
 10
26.79715339801369
 20
30.85072001725579
 30
0.0
 41
0.9085535971351912
 10
26.92467693378794
 20
31.03122006019046
 30
0.0
 41
1.0
 10
27.0521992810415
 20
31.21171842086281
 30
0.0
 41
0.9085543714792195
 10
27.27224567582787
 20
31.23224204123603
 30
0.0
 41
0.9999984513250574
  0
SPLINE
  5
67
330
1F
100
AcDbEntity
  8
sled lng - armless 2d
 62
     7
100
AcDbSpline
210
0.0
220
0.0
230
1.0
 70
     8
 71
     3
 72
    34
 73
    30
 74
     0
 42
0.0000000001
 43
0.0000000001
 40
0.0
 40
0.0
 40
0.0
 40
0.0
 40
1.0
 40
2.0
 40
3.0
 40
4.0
 40
5.0
 40
6.0
 40
7.0
 40
8.0
 40
9.0
 40
10.0
 40
11.0
 40
12.0
 40
13.0
 40
14.0
 40
15.0
 40
16.0
 40
17.0
 40
18.0
 40
19.0
 40
20.0
 40
21.0
 40
22.0
 40
23.0
 40
24.0
 40
25.0
 40
26.0
 40
27.0
 40
27.0
 40
27.0
 40
27.0
 10
27.27224567582788
 20
31.23224204123603
 30
0.0
 10
27.68681975831545
 20
31.21565423914517
 30
0.0
 10
28.60547034490233
 20
31.50249104852454
 30
0.0
 10
29.59643858546927
 20
30.50926493247771
 30
0.0
 10
30.29717508946313
 20
29.47281901429112
 30
0.0
 10
30.79753418139357
 20
28.28267554127294
 30
0.0
 10
31.2975038478373
 20
27.10977270930642
 30
0.0
 10
31.81415005306425
 20
25.93941179581716
 30
0.0
 10
32.32288672310819
 20
24.76673082360714
 30
0.0
 10
32.8286091786852
 20
23.59294111411624
 30
0.0
 10
33.32223547898781
 20
22.41234658426901
 30
0.0
 10
33.99943671680149
 20
21.32441691234112
 30
0.0
 10
34.64307172185502
 20
20.22014406336787
 30
0.0
 10
35.38788737979236
 20
19.17913246248891
 30
0.0
 10
36.2639095916829
 20
18.23852443308776
 30
0.0
 10
37.37924360973305
 20
17.58933363091597
 30
0.0
 10
38.58864937178458
 20
17.16174689791737
 30
0.0
 10
39.84978744161992
 20
16.94285164939192
 30
0.0
 10
41.12219452086303
 20
16.80169783446295
 30
0.0
 10
42.40193471612029
 20
16.8104704045402
 30
0.0
 10
43.67832910552784
 20
16.88229397360527
 30
0.0
 10
44.95346845783563
 20
16.9721039601019
 30
0.0
 10
46.22977500013716
 20
17.05512415291734
 30
0.0
 10
47.50920204552465
 20
17.03185247376747
 30
0.0
 10
48.77869294314566
 20
16.85384272522012
 30
0.0
 10
50.01052193365034
 20
16.5080363920695
 30
0.0
 10
51.21121875990232
 20
16.05422983812541
 30
0.0
 10
52.28860623727042
 20
15.35756538906012
 30
0.0
 10
52.91124188893186
 20
14.7651883259094
 30
0.0
 10
53.29431511354608
 20
14.57378436875669
 30
0.0
  0
SPLINE
  5
68
330
1F
100
AcDbEntity
  8
sled lng - armless 2d
 62
     7
100
AcDbSpline
210
0.0
220
0.0
230
1.0
 70
     8
 71
     3
 72
    13
 73
     9
 74
     0
 42
0.0000000001
 43
0.0000000001
 40
-6.0
 40
-6.0
 40
-6.0
 40
-6.0
 40
-5.0
 40
-4.0
 40
-3.0
 40
-2.0
 40
-1.0
 40
0.0
 40
0.0
 40
0.0
 40
0.0
 10
53.29431511354608
 20
14.57378436875669
 30
0.0
 10
53.37053791689289
 20
14.54447472782983
 30
0.0
 10
53.51332539277865
 20
14.4627479394289
 30
0.0
 10
53.67995598470389
 20
14.27543120980624
 30
0.0
 10
53.72690203241574
 20
14.02538122079756
 30
0.0
 10
53.6365772478268
 20
13.78777987705202
 30
0.0
 10
53.44519763480378
 20
13.62795153834141
 30
0.0
 10
53.29883777012538
 20
13.55539719704243
 30
0.0
 10
53.22335004644501
 20
13.52436653829504
 30
0.0
  0
SPLINE
  5
69
330
1F
100
AcDbEntity
  8
sled lng - armless 2d
 62
     7
100
AcDbSpline
210
0.0
220
0.0
230
1.0
 70
     8
 71
     3
 72
     9
 73
     5
 74
     0
 42
0.0000000001
 43
0.0000000001
 40
0.0
 40
0.0
 40
0.0
 40
0.0
 40
1.0
 40
1.312907136318046
 40
1.312907136318046
 40
1.312907136318046
 40
1.312907136318046
 10
53.22335004644501
 20
13.52436653829504
 30
0.0
 10
52.30053773118609
 20
13.1224187308265
 30
0.0
 10
51.02907318279655
 20
12.75604154375843
 30
0.0
 10
49.74101971808476
 20
12.4681565064571
 30
0.0
 10
49.43325456168076
 20
12.40340362532526
 30
0.0
  0
SPLINE
  5
6A
330
1F
100
AcDbEntity
  8
sled lng - armless 2d
100
AcDbSpline
210
0.0
220
0.0
230
1.0
 70
     8
 71
     3
 72
    12
 73
     8
 74
     0
 42
0.0000000001
 43
0.0000000001
 40
0.0
 40
0.0
 40
0.0
 40
0.0
 40
0.204846491955015
 40
0.4214618998977446
 40
0.8929999723393295
 40
1.468507439927334
 40
2.101053696080463
 40
2.101053696080463
 40
2.101053696080463
 40
2.101053696080463
 10
-8.851171041534903
 20
0.1509980106562719
 30
0.0
 10
-8.919807455142717
 20
0.1512126284547936
 30
0.0
 10
-9.059317053259875
 20
0.173851852030194
 30
0.0
 10
-9.324540085121004
 20
0.3237271338792115
 30
0.0
 10
-9.562135251430588
 20
0.686730392495706
 30
0.0
 10
-9.662203426084332
 20
1.245092527547185
 30
0.0
 10
-9.621087086572459
 20
1.648714502836126
 30
0.0
 10
-9.572880421988689
 20
1.859496814030648
 30
0.0
  0
SPLINE
  5
6B
330
1F
100
AcDbEntity
  8
sled lng - armless 2d
100
AcDbSpline
210
0.0
220
0.0
230
1.0
 70
    24
 71
     2
 72
     6
 73
     3
 74
     0
 42
0.0000000001
 43
0.0000000001
 40
0.0
 40
0.0
 40
0.0
 40
10.47647704162769
 40
10.47647704162769
 40
10.47647704162769
 10
-9.572880421988689
 20
1.859496814030648
 30
0.0
 10
-8.411778073864776
 20
6.970109584625515
 30
0.0
 10
-7.250675725740863
 20
12.08072235522038
 30
0.0
  0
SPLINE
  5
6C
330
1F
100
AcDbEntity
  8
sled lng - armless 2d
100
AcDbSpline
210
0.0
220
0.0
230
1.0
 70
     8
 71
     3
 72
     8
 73
     4
 74
     0
 42
0.0000000001
 43
0.0000000001
 40
0.0
 40
0.0
 40
0.0
 40
0.0
 40
1.0
 40
1.0
 40
1.0
 40
1.0
 10
-7.250675725740863
 20
12.08072235522038
 30
0.0
 10
-7.068227554476496
 20
12.88377098037367
 30
0.0
 10
-6.701388874482294
 20
13.36181160446182
 30
0.0
 10
-6.04866950074636
 20
12.97435214500042
 30
0.0
  0
SPLINE
  5
6D
330
1F
100
AcDbEntity
  8
sled lng - armless 2d
100
AcDbSpline
210
0.0
220
0.0
230
1.0
 70
     8
 71
     3
 72
     9
 73
     5
 74
     0
 42
0.0000000001
 43
0.0000000001
 40
-3.420629572010786
 40
-3.420629572010786
 40
-3.420629572010786
 40
-3.420629572010786
 40
-1.349292166344126
 40
0.0
 40
0.0
 40
0.0
 40
0.0
 10
-6.04866950074636
 20
12.97435214500042
 30
0.0
 10
-5.45494940245861
 20
12.62191512901718
 30
0.0
 10
-4.420067120764066
 20
12.13107855645281
 30
0.0
 10
-3.313143415754405
 20
11.83649130679194
 30
0.0
 10
-2.867535973837375
 20
11.77548546050464
 30
0.0
  0
SPLINE
  5
6E
330
1F
100
AcDbEntity
  8
sled lng - armless 2d
100
AcDbSpline
210
0.0
220
0.0
230
1.0
 70
     8
 71
     3
 72
     8
 73
     4
 74
     0
 42
0.0000000001
 43
0.0000000001
 40
0.0
 40
0.0
 40
0.0
 40
0.0
 40
1.0
 40
1.0
 40
1.0
 40
1.0
 10
-2.867535973837375
 20
11.77548546050464
 30
0.0
 10
-1.317309136281624
 20
11.56325179637302
 30
0.0
 10
1.317309136281624
 20
11.56325179637302
 30
0.0
 10
2.867535973837375
 20
11.77548546050464
 30
0.0
  0
SPLINE
  5
6F
330
1F
100
AcDbEntity
  8
sled lng - armless 2d
100
AcDbSpline
210
0.0
220
0.0
230
1.0
 70
     8
 71
     3
 72
     9
 73
     5
 74
     0
 42
0.0000000001
 43
0.0000000001
 40
0.0
 40
0.0
 40
0.0
 40
0.0
 40
1.349292166344126
 40
3.420629572010786
 40
3.420629572010786
 40
3.420629572010786
 40
3.420629572010786
 10
2.867535973837375
 20
11.77548546050464
 30
0.0
 10
3.313143415754405
 20
11.83649130679194
 30
0.0
 10
4.420067120764066
 20
12.13107855645281
 30
0.0
 10
5.45494940245861
 20
12.62191512901718
 30
0.0
 10
6.04866950074636
 20
12.97435214500042
 30
0.0
  0
SPLINE
  5
70
330
1F
100
AcDbEntity
  8
sled lng - armless 2d
100
AcDbSpline
210
0.0
220
0.0
230
1.0
 70
     8
 71
     3
 72
     8
 73
     4
 74
     0
 42
0.0000000001
 43
0.0000000001
 40
-1.0
 40
-1.0
 40
-1.0
 40
-1.0
 40
0.0
 40
0.0
 40
0.0
 40
0.0
 10
6.04866950074636
 20
12.97435214500042
 30
0.0
 10
6.701388874482294
 20
13.36181160446182
 30
0.0
 10
7.068227554476496
 20
12.88377098037367
 30
0.0
 10
7.250675725740863
 20
12.08072235522038
 30
0.0
  0
SPLINE
  5
71
330
1F
100
AcDbEntity
  8
sled lng - armless 2d
100
AcDbSpline
210
0.0
220
0.0
230
1.0
 70
    24
 71
     2
 72
     6
 73
     3
 74
     0
 42
0.0000000001
 43
0.0000000001
 40
-10.47647704162769
 40
-10.47647704162769
 40
-10.47647704162769
 40
0.0
 40
0.0
 40
0.0
 10
7.250675725740863
 20
12.08072235522038
 30
0.0
 10
8.411778073864776
 20
6.970109584625515
 30
0.0
 10
9.572880421988689
 20
1.859496814030648
 30
0.0
  0
SPLINE
  5
72
330
1F
100
AcDbEntity
  8
sled lng - armless 2d
100
AcDbSpline
210
0.0
220
0.0
230
1.0
 70
     8
 71
     3
 72
    12
 73
     8
 74
     0
 42
0.0000000001
 43
0.0000000001
 40
-2.101053696080463
 40
-2.101053696080463
 40
-2.101053696080463
 40
-2.101053696080463
 40
-1.468507439927334
 40
-0.8929999723393295
 40
-0.4214618998977446
 40
-0.204846491955015
 40
0.0
 40
0.0
 40
0.0
 40
0.0
 10
9.572880421988689
 20
1.859496814030648
 30
0.0
 10
9.621087086572459
 20
1.648714502836126
 30
0.0
 10
9.662203426084332
 20
1.245092527547185
 30
0.0
 10
9.562135251430588
 20
0.686730392495706
 30
0.0
 10
9.324540085121004
 20
0.3237271338792115
 30
0.0
 10
9.059317053259875
 20
0.173851852030194
 30
0.0
 10
8.919807455142717
 20
0.1512126284547936
 30
0.0
 10
8.851171041534903
 20
0.1509980106562719
 30
0.0
  0
LINE
  5
73
330
1F
100
AcDbEntity
  8
sled lng - armless 2d
100
AcDbLine
 10
-8.852451725192598
 20
0.588998687371694
 30
0.0
 11
8.852451725192598
 21
0.588998687371694
 31
0.0
  0
SPLINE
  5
74
330
1F
100
AcDbEntity
  8
sled lng - armless 2d
100
AcDbSpline
210
0.0
220
0.0
230
1.0
 70
     8
 71
     3
 72
    12
 73
     8
 74
     0
 42
0.0000000001
 43
0.0000000001
 40
-1.316184059930414
 40
-1.316184059930414
 40
-1.316184059930414
 40
-1.316184059930414
 40
-1.107415238305369
 40
-0.7943908620222387
 40
-0.4118030117738189
 40
-0.2144581684050181
 40
0.0
 40
0.0
 40
0.0
 40
0.0
 10
8.852451725192598
 20
0.588998687371694
 30
0.0
 10
8.925905186354294
 20
0.5888179053568725
 30
0.0
 10
9.067979844109246
 20
0.7060640584712105
 30
0.0
 10
9.177616550112207
 20
0.9918511678187438
 30
0.0
 10
9.205987722816552
 20
1.289768344924281
 30
0.0
 10
9.185938812968857
 20
1.554573125825061
 30
0.0
 10
9.162444069776747
 20
1.689686626590867
 30
0.0
 10
9.146035649006063
 20
1.761270723309108
 30
0.0
  0
SPLINE
  5
75
330
1F
100
AcDbEntity
  8
sled lng - armless 2d
100
AcDbSpline
210
0.0
220
0.0
230
1.0
 70
    24
 71
     2
 72
     6
 73
     3
 74
     0
 42
0.0000000001
 43
0.0000000001
 40
-10.48301310761942
 40
-10.48301310761942
 40
-10.48301310761942
 40
0.0
 40
0.0
 40
0.0
 10
9.146035649006063
 20
1.761270723309108
 30
0.0
 10
7.984584001087535
 20
6.873419244619523
 30
0.0
 10
6.823132353169007
 20
11.98556776592994
 30
0.0
  0
SPLINE
  5
76
330
1F
100
AcDbEntity
  8
sled lng - armless 2d
100
AcDbSpline
210
0.0
220
0.0
230
1.0
 70
     8
 71
     3
 72
     8
 73
     4
 74
     0
 42
0.0000000001
 43
0.0000000001
 40
0.0
 40
0.0
 40
0.0
 40
0.0
 40
1.0
 40
1.0
 40
1.0
 40
1.0
 10
6.823132353169007
 20
11.98556776592994
 30
0.0
 10
6.726260968417059
 20
12.41194875842027
 30
0.0
 10
6.605265727284734
 20
12.79538030457842
 30
0.0
 10
6.272252615103329
 20
12.59770104817632
 30
0.0
  0
SPLINE
  5
77
330
1F
100
AcDbEntity
  8
sled lng - armless 2d
100
AcDbSpline
210
0.0
220
0.0
230
1.0
 70
    12
 71
     3
 72
    11
 73
     7
 74
     0
 42
0.0000000001
 43
0.0000000001
 40
-5.661020882322123
 40
-5.661020882322123
 40
-5.661020882322123
 40
-5.661020882322123
 40
-3.082277025264758
 40
-3.082277025264758
 40
-1.541137805068354
 40
-0.0065702091019564
 40
-0.0065702091019564
 40
-0.0065702091019564
 40
-0.0065702091019564
 10
6.272252615103329
 20
12.59770104817632
 30
0.0
 41
1.0
 10
5.781754359215714
 20
12.30653734637717
 30
0.0
 41
1.0
 10
5.281355125573236
 20
12.05940584621414
 30
0.0
 41
1.0
 10
4.471240269760621
 20
11.73427755771529
 30
0.0
 41
1.0
 10
3.861614559911583
 20
11.5212343121483
 30
0.0
 41
1.0
 10
3.239752217981131
 20
11.38434483856059
 30
0.0
 41
1.0
 10
2.926947921663645
 20
11.34152039483708
 30
0.0
 41
1.0
  0
SPLINE
  5
78
330
1F
100
AcDbEntity
  8
sled lng - armless 2d
100
AcDbSpline
210
0.0
220
0.0
230
1.0
 70
     8
 71
     3
 72
    11
 73
     7
 74
     0
 42
0.0000000001
 43
0.0000000001
 40
-0.9943687182837089
 40
-0.9943687182837089
 40
-0.9943687182837089
 40
-0.9943687182837089
 40
-0.7720452795028627
 40
-0.2185007452731595
 40
-0.100024069711327
 40
0.0
 40
0.0
 40
0.0
 40
0.0
 10
2.926947921663645
 20
11.34152039483708
 30
0.0
 10
2.853461818118259
 20
11.33145978651812
 30
0.0
 10
2.521499277500771
 20
11.35605060223155
 30
0.0
 10
2.235587569728207
 20
11.44553419980731
 30
0.0
 10
1.981246491291961
 20
11.48588420548892
 30
0.0
 10
1.908356707320994
 20
11.48984213757707
 30
0.0
 10
1.875042629346176
 20
11.48966779020551
 30
0.0
  0
POLYLINE
  5
79
330
1F
100
AcDbEntity
  8
sled lng - armless 2d
100
AcDb2dPolyline
 66
     1
 10
0.0
 20
0.0
 30
0.0
  0
VERTEX
  5
7A
330
79
100
AcDbEntity
  8
sled lng - armless 2d
100
AcDbVertex
100
AcDb2dVertex
 10
1.875042629346176
 20
11.48966779020551
 30
0.0
  0
VERTEX
  5
7B
330
79
100
AcDbEntity
  8
sled lng - armless 2d
100
AcDbVertex
100
AcDb2dVertex
 10
-1.875042629346176
 20
11.48966779020551
 30
0.0
  0
SEQEND
  5
7C
330
79
100
AcDbEntity
  8
sled lng - armless 2d
  0
SPLINE
  5
7D
330
1F
100
AcDbEntity
  8
sled lng - armless 2d
100
AcDbSpline
210
0.0
220
0.0
230
1.0
 70
     8
 71
     3
 72
    11
 73
     7
 74
     0
 42
0.0000000001
 43
0.0000000001
 40
0.0
 40
0.0
 40
0.0
 40
0.0
 40
0.100024069711327
 40
0.2185007452731595
 40
0.7720452795028627
 40
0.9943687182837089
 40
0.9943687182837089
 40
0.9943687182837089
 40
0.9943687182837089
 10
-1.875042629346176
 20
11.48966779020551
 30
0.0
 10
-1.908356707320994
 20
11.48984213757707
 30
0.0
 10
-1.981246491291961
 20
11.48588420548892
 30
0.0
 10
-2.235587569728207
 20
11.44553419980731
 30
0.0
 10
-2.521499277500771
 20
11.35605060223155
 30
0.0
 10
-2.853461818118259
 20
11.33145978651812
 30
0.0
 10
-2.926947921663645
 20
11.34152039483708
 30
0.0
  0
SPLINE
  5
7E
330
1F
100
AcDbEntity
  8
sled lng - armless 2d
100
AcDbSpline
210
0.0
220
0.0
230
1.0
 70
    12
 71
     3
 72
    11
 73
     7
 74
     0
 42
0.0000000001
 43
0.0000000001
 40
0.0065702091019564
 40
0.0065702091019564
 40
0.0065702091019564
 40
0.0065702091019564
 40
1.541137805068354
 40
3.082277025264758
 40
3.082277025264758
 40
5.661020882322123
 40
5.661020882322123
 40
5.661020882322123
 40
5.661020882322123
 10
-2.926947921663645
 20
11.34152039483708
 30
0.0
 41
1.0
 10
-3.239752217981131
 20
11.38434483856059
 30
0.0
 41
1.0
 10
-3.861614559911583
 20
11.5212343121483
 30
0.0
 41
1.0
 10
-4.471240269760621
 20
11.73427755771529
 30
0.0
 41
1.0
 10
-5.281355125573236
 20
12.05940584621414
 30
0.0
 41
1.0
 10
-5.781754359215714
 20
12.30653734637717
 30
0.0
 41
1.0
 10
-6.272252615103329
 20
12.59770104817632
 30
0.0
 41
1.0
  0
SPLINE
  5
7F
330
1F
100
AcDbEntity
  8
sled lng - armless 2d
100
AcDbSpline
210
0.0
220
0.0
230
1.0
 70
     8
 71
     3
 72
     8
 73
     4
 74
     0
 42
0.0000000001
 43
0.0000000001
 40
-1.0
 40
-1.0
 40
-1.0
 40
-1.0
 40
0.0
 40
0.0
 40
0.0
 40
0.0
 10
-6.272252615103329
 20
12.59770104817632
 30
0.0
 10
-6.605265727284734
 20
12.79538030457842
 30
0.0
 10
-6.726260968417059
 20
12.41194875842027
 30
0.0
 10
-6.823132353169007
 20
11.98556776592994
 30
0.0
  0
SPLINE
  5
80
330
1F
100
AcDbEntity
  8
sled lng - armless 2d
100
AcDbSpline
210
0.0
220
0.0
230
1.0
 70
    24
 71
     2
 72
     6
 73
     3
 74
     0
 42
0.0000000001
 43
0.0000000001
 40
0.0
 40
0.0
 40
0.0
 40
10.48301310761942
 40
10.48301310761942
 40
10.48301310761942
 10
-6.823132353169007
 20
11.98556776592994
 30
0.0
 10
-7.984584001087535
 20
6.873419244619523
 30
0.0
 10
-9.146035649006063
 20
1.761270723309108
 30
0.0
  0
SPLINE
  5
81
330
1F
100
AcDbEntity
  8
sled lng - armless 2d
100
AcDbSpline
210
0.0
220
0.0
230
1.0
 70
     8
 71
     3
 72
    12
 73
     8
 74
     0
 42
0.0000000001
 43
0.0000000001
 40
0.0
 40
0.0
 40
0.0
 40
0.0
 40
0.2144581684050181
 40
0.4118030117738189
 40
0.7943908620222387
 40
1.107415238305369
 40
1.316184059930414
 40
1.316184059930414
 40
1.316184059930414
 40
1.316184059930414
 10
-9.146035649006063
 20
1.761270723309108
 30
0.0
 10
-9.162444069776747
 20
1.689686626590867
 30
0.0
 10
-9.185938812968857
 20
1.554573125825061
 30
0.0
 10
-9.205987722816552
 20
1.289768344924281
 30
0.0
 10
-9.177616550112207
 20
0.9918511678187438
 30
0.0
 10
-9.067979844109246
 20
0.7060640584712105
 30
0.0
 10
-8.925905186354294
 20
0.5888179053568725
 30
0.0
 10
-8.852451725192598
 20
0.588998687371694
 30
0.0
  0
SPLINE
  5
82
330
1F
100
AcDbEntity
  8
sled lng - armless 2d
100
AcDbSpline
210
0.0
220
0.0
230
1.0
 70
     8
 71
     3
 72
    19
 73
    15
 74
     0
 42
0.0000000001
 43
0.0000000001
 40
0.0
 40
0.0
 40
0.0
 40
0.0
 40
1.0
 40
2.0
 40
3.0
 40
4.0
 40
5.0
 40
6.0
 40
7.0
 40
8.0
 40
9.0
 40
10.0
 40
11.0
 40
12.0
 40
12.0
 40
12.0
 40
12.0
 10
-8.407120916184528
 20
0.5162255291868224
 30
0.0
 10
-8.42242763190831
 20
0.5092298578375806
 30
0.0
 10
-8.435988568408892
 20
0.4780528552904191
 30
0.0
 10
-8.440258999711826
 20
0.4304238636138101
 30
0.0
 10
-8.441042185876025
 20
0.3821831249564345
 30
0.0
 10
-8.436324366731515
 20
0.3343411357281062
 30
0.0
 10
-8.432415079487175
 20
0.2864112009485511
 30
0.0
 10
-8.426771365703747
 20
0.2386347978596185
 30
0.0
 10
-8.41795813275829
 20
0.1913259931430568
 30
0.0
 10
-8.414192413023255
 20
0.143304171058783
 30
0.0
 10
-8.418180273362925
 20
0.0951491380418264
 30
0.0
 10
-8.433653608670273
 20
0.0490565004196343
 30
0.0
 10
-8.465526723251347
 20
0.0113908369364908
 30
0.0
 10
-8.496959347104006
 20
0.0000250655855447
 30
0.0
 10
-8.51305778973931
 20
-0.0000008859445287
 30
0.0
  0
SPLINE
  5
83
330
1F
100
AcDbEntity
  8
sled lng - armless 2d
100
AcDbSpline
210
0.0
220
0.0
230
1.0
 70
    12
 71
     3
 72
    38
 73
    34
 74
     0
 42
0.0000000001
 43
0.0000000001
 40
0.0
 40
0.0
 40
0.0
 40
0.0
 40
0.1614600355755542
 40
0.1614600355755542
 40
0.1614600355755542
 40
1.161460035575554
 40
1.161460035575554
 40
1.161460035575554
 40
1.342084376998089
 40
1.342084376998089
 40
1.342084376998089
 40
1.47755436390012
 40
1.47755436390012
 40
1.47755436390012
 40
1.584196495078726
 40
1.584196495078726
 40
1.584196495078726
 40
2.578062432122167
 40
2.578062432122167
 40
2.578062432122167
 40
2.821910699658148
 40
2.821910699658148
 40
2.821910699658148
 40
3.017666951507059
 40
3.017666951507059
 40
3.017666951507059
 40
4.017666951507058
 40
4.017666951507058
 40
4.017666951507058
 40
5.201975398962436
 40
5.201975398962436
 40
5.201975398962436
 40
5.449644478992974
 40
5.449644478992974
 40
5.449644478992974
 40
5.449644478992974
 10
-8.87469312895156
 20
0.1509997018280992
 30
0.0
 41
1.0
 10
-8.820873117093388
 20
0.1509995061705524
 30
0.0
 41
1.0
 10
-8.767053105235238
 20
0.1509993105130056
 30
0.0
 41
1.0
 10
-8.713233093377074
 20
0.1509991148554588
 30
0.0
 41
1.0
 10
-8.677465054683747
 20
0.1509991148554639
 30
0.0
 41
1.0
 10
-8.634067409836295
 20
0.1636792748485901
 30
0.0
 41
1.0
 10
-8.610122294650022
 20
0.1881362046807062
 30
0.0
 41
1.0
 10
-8.567054136109151
 20
0.2321249231829305
 30
0.0
 41
0.9567820019755179
 10
-8.542349921712397
 20
0.2886438287821699
 30
0.0
 41
0.9567820019755179
 10
-8.539212651526729
 20
0.350365019626823
 30
0.0
 41
1.0
 10
-8.537305530441024
 20
0.3957467673293118
 30
0.0
 41
0.9990772271169964
 10
-8.533031857145552
 20
0.4408604608233561
 30
0.0
 41
0.9990772271169964
 10
-8.526403462529803
 20
0.4855812110299308
 30
0.0
 41
1.0
 10
-8.50940812612353
 20
0.5189632398283067
 30
0.0
 41
0.9033337581835719
 10
-8.477581214543344
 20
0.5386857545133873
 30
0.0
 41
0.9033337581835719
 10
-8.44015249158247
 20
0.5390292509638442
 30
0.0
 41
1.0
 10
-8.108863845901329
 20
0.5390292509638442
 30
0.0
 41
1.0
 10
-7.777575200220181
 20
0.5390292509638442
 30
0.0
 41
1.0
 10
-7.483382604105651
 20
0.5390292509638442
 30
0.0
 41
1.0
 10
-7.396962885709724
 20
0.524543606057893
 30
0.0
 41
0.8396995359144742
 10
-7.340745032620805
 20
0.4573293618082891
 30
0.0
 41
0.8396995359144742
 10
-7.34176428865903
 20
0.3697099418541409
 30
0.0
 41
1.0
 10
-7.346770618899982
 20
0.3046501914911941
 30
0.0
 41
1.0
 10
-7.351776949140949
 20
0.2395904411282475
 30
0.0
 41
1.0
 10
-7.356783279381902
 20
0.174530690765301
 30
0.0
 41
1.0
 10
-7.365824141444144
 20
0.0570401936297284
 30
0.0
 41
1.0
 10
-7.440467319662781
 20
-0.0000008859445412
 30
0.0
 41
1.0
 10
-7.561669360020468
 20
-0.0000008859445404
 30
0.0
 41
1.0
 10
-7.919342792938974
 20
-0.0000008859445379
 30
0.0
 41
1.0
 10
-8.314112275424097
 20
-0.0000008859445354
 30
0.0
 41
1.0
 10
-8.708881757909229
 20
-0.0000008859445329
 30
0.0
 41
1.0
 10
-8.79592494274752
 20
0.010283499779469
 30
0.0
 41
0.8890408430660882
 10
-8.86279939736463
 20
0.0669411730124337
 30
0.0
 41
0.8890408430660882
 10
-8.88724412244638
 20
0.1511120707870607
 30
0.0
 41
1.0
  0
SPLINE
  5
84
330
1F
100
AcDbEntity
  8
sled lng - armless 2d
100
AcDbSpline
210
0.0
220
0.0
230
1.0
 70
     8
 71
     3
 72
    19
 73
    15
 74
     0
 42
0.0000000001
 43
0.0000000001
 40
0.0
 40
0.0
 40
0.0
 40
0.0
 40
1.0
 40
2.0
 40
3.0
 40
4.0
 40
5.0
 40
6.0
 40
7.0
 40
8.0
 40
9.0
 40
10.0
 40
11.0
 40
12.0
 40
12.0
 40
12.0
 40
12.0
 10
8.407120916184528
 20
0.5162255291868224
 30
0.0
 10
8.42242763190831
 20
0.5092298578375806
 30
0.0
 10
8.435988568408892
 20
0.4780528552904191
 30
0.0
 10
8.440258999711826
 20
0.4304238636138101
 30
0.0
 10
8.441042185876025
 20
0.3821831249564345
 30
0.0
 10
8.436324366731515
 20
0.3343411357281062
 30
0.0
 10
8.432415079487175
 20
0.2864112009485511
 30
0.0
 10
8.426771365703747
 20
0.2386347978596185
 30
0.0
 10
8.41795813275829
 20
0.1913259931430568
 30
0.0
 10
8.414192413023255
 20
0.143304171058783
 30
0.0
 10
8.418180273362925
 20
0.0951491380418264
 30
0.0
 10
8.433653608670273
 20
0.0490565004196343
 30
0.0
 10
8.465526723251347
 20
0.0113908369364908
 30
0.0
 10
8.496959347104006
 20
0.0000250655855447
 30
0.0
 10
8.51305778973931
 20
-0.0000008859445287
 30
0.0
  0
SPLINE
  5
85
330
1F
100
AcDbEntity
  8
sled lng - armless 2d
100
AcDbSpline
210
0.0
220
0.0
230
1.0
 70
    12
 71
     3
 72
    38
 73
    34
 74
     0
 42
0.0000000001
 43
0.0000000001
 40
0.0
 40
0.0
 40
0.0
 40
0.0
 40
0.1614600355755542
 40
0.1614600355755542
 40
0.1614600355755542
 40
1.161460035575554
 40
1.161460035575554
 40
1.161460035575554
 40
1.342084376998089
 40
1.342084376998089
 40
1.342084376998089
 40
1.47755436390012
 40
1.47755436390012
 40
1.47755436390012
 40
1.584196495078726
 40
1.584196495078726
 40
1.584196495078726
 40
2.578062432122167
 40
2.578062432122167
 40
2.578062432122167
 40
2.821910699658148
 40
2.821910699658148
 40
2.821910699658148
 40
3.017666951507059
 40
3.017666951507059
 40
3.017666951507059
 40
4.017666951507058
 40
4.017666951507058
 40
4.017666951507058
 40
5.201975398962436
 40
5.201975398962436
 40
5.201975398962436
 40
5.449644478992974
 40
5.449644478992974
 40
5.449644478992974
 40
5.449644478992974
 10
8.87469312895156
 20
0.1509997018280992
 30
0.0
 41
1.0
 10
8.820873117093388
 20
0.1509995061705524
 30
0.0
 41
1.0
 10
8.767053105235238
 20
0.1509993105130056
 30
0.0
 41
1.0
 10
8.713233093377074
 20
0.1509991148554588
 30
0.0
 41
1.0
 10
8.677465054683747
 20
0.1509991148554639
 30
0.0
 41
1.0
 10
8.634067409836295
 20
0.1636792748485901
 30
0.0
 41
1.0
 10
8.610122294650022
 20
0.1881362046807062
 30
0.0
 41
1.0
 10
8.567054136109151
 20
0.2321249231829305
 30
0.0
 41
0.9567820019755179
 10
8.542349921712397
 20
0.2886438287821699
 30
0.0
 41
0.9567820019755179
 10
8.539212651526729
 20
0.350365019626823
 30
0.0
 41
1.0
 10
8.537305530441024
 20
0.3957467673293118
 30
0.0
 41
0.9990772271169964
 10
8.533031857145552
 20
0.4408604608233561
 30
0.0
 41
0.9990772271169964
 10
8.526403462529803
 20
0.4855812110299308
 30
0.0
 41
1.0
 10
8.50940812612353
 20
0.5189632398283067
 30
0.0
 41
0.9033337581835719
 10
8.477581214543344
 20
0.5386857545133873
 30
0.0
 41
0.9033337581835719
 10
8.44015249158247
 20
0.5390292509638442
 30
0.0
 41
1.0
 10
8.108863845901329
 20
0.5390292509638442
 30
0.0
 41
1.0
 10
7.777575200220181
 20
0.5390292509638442
 30
0.0
 41
1.0
 10
7.483382604105651
 20
0.5390292509638442
 30
0.0
 41
1.0
 10
7.396962885709724
 20
0.524543606057893
 30
0.0
 41
0.8396995359144742
 10
7.340745032620805
 20
0.4573293618082891
 30
0.0
 41
0.8396995359144742
 10
7.34176428865903
 20
0.3697099418541409
 30
0.0
 41
1.0
 10
7.346770618899982
 20
0.3046501914911941
 30
0.0
 41
1.0
 10
7.351776949140949
 20
0.2395904411282475
 30
0.0
 41
1.0
 10
7.356783279381902
 20
0.174530690765301
 30
0.0
 41
1.0
 10
7.365824141444144
 20
0.0570401936297284
 30
0.0
 41
1.0
 10
7.440467319662781
 20
-0.0000008859445412
 30
0.0
 41
1.0
 10
7.561669360020468
 20
-0.0000008859445404
 30
0.0
 41
1.0
 10
7.919342792938974
 20
-0.0000008859445379
 30
0.0
 41
1.0
 10
8.314112275424097
 20
-0.0000008859445354
 30
0.0
 41
1.0
 10
8.708881757909229
 20
-0.0000008859445329
 30
0.0
 41
1.0
 10
8.79592494274752
 20
0.010283499779469
 30
0.0
 41
0.8890408430660882
 10
8.86279939736463
 20
0.0669411730124337
 30
0.0
 41
0.8890408430660882
 10
8.88724412244638
 20
0.1511120707870607
 30
0.0
 41
1.0
  0
LINE
  5
86
330
1F
100
AcDbEntity
  8
sled lng - armless 2d
100
AcDbLine
 10
7.359597436921754
 20
0.1510000000000098
 30
0.0
 11
-7.359597436921755
 21
0.1510000000000098
 31
0.0
  0
SPLINE
  5
87
330
1F
100
AcDbEntity
  8
sled lng - armless 2d
100
AcDbSpline
210
0.0
220
0.0
230
1.0
 70
     8
 71
     3
 72
    11
 73
     7
 74
     0
 42
0.0000000001
 43
0.0000000001
 40
-0.6889034893045316
 40
-0.6889034893045316
 40
-0.6889034893045316
 40
-0.6889034893045316
 40
-0.5450160488261866
 40
-0.3853705266391287
 40
-0.2087918748906699
 40
0.0
 40
0.0
 40
0.0
 40
0.0
 10
-6.385535443893236
 20
12.25796647967515
 30
0.0
 10
-6.418456028034939
 20
12.22308960693837
 30
0.0
 10
-6.481157049698633
 20
12.14318629659449
 30
0.0
 10
-6.558109791961538
 20
12.00235651624751
 30
0.0
 10
-6.624139760579003
 20
11.83282762872992
 30
0.0
 10
-6.662620031285674
 20
11.694878457364
 30
0.0
 10
-6.679086091135982
 20
11.62726529820402
 30
0.0
  0
SPLINE
  5
88
330
1F
100
AcDbEntity
  8
sled lng - armless 2d
100
AcDbSpline
210
0.0
220
0.0
230
1.0
 70
    24
 71
     2
 72
     6
 73
     3
 74
     0
 42
0.0000000001
 43
0.0000000001
 40
-10.05111052892765
 40
-10.05111052892765
 40
-10.05111052892765
 40
0.0
 40
0.0
 40
0.0
 10
-6.679086091135982
 20
11.62726529820402
 30
0.0
 10
-7.868221431656842
 20
6.744421571633985
 30
0.0
 10
-9.057356772177702
 20
1.861577845063947
 30
0.0
  0
SPLINE
  5
89
330
1F
100
AcDbEntity
  8
sled lng - armless 2d
100
AcDbSpline
210
0.0
220
0.0
230
1.0
 70
    12
 71
     3
 72
    12
 73
     8
 74
     0
 42
0.0000000001
 43
0.0000000001
 40
-2.358706949376457
 40
-2.358706949376457
 40
-2.358706949376457
 40
-2.358706949376457
 40
-2.124605928124024
 40
-1.808121943467982
 40
-1.450357372507128
 40
-1.147631505907923
 40
-1.04863415699448
 40
-1.04863415699448
 40
-1.04863415699448
 40
-1.04863415699448
 10
-9.057356772177702
 20
1.861577845063947
 30
0.0
 41
1.0
 10
-9.075041239321363
 20
1.788961645286098
 30
0.0
 41
1.0
 10
-9.109434851760126
 20
1.598005787782278
 30
0.0
 41
1.0
 10
-9.119977714742502
 20
1.294240236005354
 30
0.0
 41
1.0
 10
-9.075173912067907
 20
0.9701573144154476
 30
0.0
 41
1.0
 10
-8.994195855873532
 20
0.7404713270662872
 30
0.0
 41
1.0
 10
-8.938129452193792
 20
0.630760836949914
 30
0.0
 41
1.0
 10
-8.923502407009824
 20
0.6045405582502195
 30
0.0
 41
1.0
  0
SPLINE
  5
8A
330
1F
100
AcDbEntity
  8
sled lng - armless 2d
100
AcDbSpline
210
0.0
220
0.0
230
1.0
 70
     8
 71
     3
 72
    12
 73
     8
 74
     0
 42
0.0000000001
 43
0.0000000001
 40
-1.355229029210944
 40
-1.355229029210944
 40
-1.355229029210944
 40
-1.355229029210944
 40
-1.114114782037147
 40
-0.7827363469594232
 40
-0.4056229505997581
 40
-0.2012861508322142
 40
0.0
 40
0.0
 40
0.0
 40
0.0
 10
-8.24243502261394
 20
0.5889812716492517
 30
0.0
 10
-8.32589429505146
 20
0.5888534381233682
 30
0.0
 10
-8.49235450141318
 20
0.7013043439056758
 30
0.0
 10
-8.633496414713335
 20
0.991929895306578
 30
0.0
 10
-8.681806482465406
 20
1.293832234284489
 30
0.0
 10
-8.671067108398047
 20
1.556099912780108
 30
0.0
 10
-8.649102733047567
 20
1.689067522762979
 30
0.0
 10
-8.632441615924519
 20
1.755302384389656
 30
0.0
  0
SPLINE
  5
8B
330
1F
100
AcDbEntity
  8
sled lng - armless 2d
100
AcDbSpline
210
0.0
220
0.0
230
1.0
 70
    24
 71
     2
 72
     6
 73
     3
 74
     0
 42
0.0000000001
 43
0.0000000001
 40
-10.06393413170215
 40
-10.06393413170215
 40
-10.06393413170215
 40
0.0
 40
0.0
 40
0.0
 10
-8.632441615924519
 20
1.755302384389656
 30
0.0
 10
-7.441679822675215
 20
6.644815004642775
 30
0.0
 10
-6.250918029425911
 20
11.53432762489589
 30
0.0
  0
SPLINE
  5
8C
330
1F
100
AcDbEntity
  8
sled lng - armless 2d
100
AcDbSpline
210
0.0
220
0.0
230
1.0
 70
     8
 71
     3
 72
     8
 73
     4
 74
     0
 42
0.0000000001
 43
0.0000000001
 40
-1.0
 40
-1.0
 40
-1.0
 40
-1.0
 40
0.0
 40
0.0
 40
0.0
 40
0.0
 10
-6.250918029425911
 20
11.53432762489589
 30
0.0
 10
-6.156042403407949
 20
11.92390721228188
 30
0.0
 10
-6.025648769750762
 20
12.15426247911881
 30
0.0
 10
-5.627221992587685
 20
11.88248651051467
 30
0.0
  0
SPLINE
  5
8D
330
1F
100
AcDbEntity
  8
sled lng - armless 2d
100
AcDbSpline
210
0.0
220
0.0
230
1.0
 70
    12
 71
     2
 72
     6
 73
     3
 74
     0
 42
0.0000000001
 43
0.0000000001
 40
-2.89936982658151
 40
-2.89936982658151
 40
-2.89936982658151
 40
0.0
 40
0.0
 40
0.0
 10
-5.627221992587685
 20
11.88248651051467
 30
0.0
 41
1.0
 10
-4.393684943005716
 20
11.04106282698044
 30
0.0
 41
0.9568668874167652
 10
-2.900559375425713
 20
11.02751633877848
 30
0.0
 41
1.0
  0
SPLINE
  5
8E
330
1F
100
AcDbEntity
  8
sled lng - armless 2d
100
AcDbSpline
210
0.0
220
0.0
230
1.0
 70
     8
 71
     3
 72
    11
 73
     7
 74
     0
 42
0.0000000001
 43
0.0000000001
 40
-0.943386202016466
 40
-0.943386202016466
 40
-0.943386202016466
 40
-0.943386202016466
 40
-0.7443598263524457
 40
-0.2683100324577205
 40
-0.1349453748761032
 40
0.0
 40
0.0
 40
0.0
 40
0.0
 10
-2.900559375425713
 20
11.02751633877848
 30
0.0
 10
-2.834066874994208
 20
11.02691308082606
 30
0.0
 10
-2.508779412261205
 20
11.07694449772256
 30
0.0
 10
-2.255536113715412
 20
11.17405903812442
 30
0.0
 10
-2.009199884647723
 20
11.21098382454478
 30
0.0
 10
-1.920081907636517
 20
11.21552186600681
 30
0.0
 10
-1.8749999985315
 20
11.21546137935436
 30
0.0
  0
POLYLINE
  5
8F
330
1F
100
AcDbEntity
  8
sled lng - armless 2d
100
AcDb2dPolyline
 66
     1
 10
0.0
 20
0.0
 30
0.0
  0
VERTEX
  5
90
330
8F
100
AcDbEntity
  8
sled lng - armless 2d
100
AcDbVertex
100
AcDb2dVertex
 10
-1.8749999985315
 20
11.21546137935436
 30
0.0
  0
VERTEX
  5
91
330
8F
100
AcDbEntity
  8
sled lng - armless 2d
100
AcDbVertex
100
AcDb2dVertex
 10
1.8749999985315
 20
11.21546137935436
 30
0.0
  0
SEQEND
  5
92
330
8F
100
AcDbEntity
  8
sled lng - armless 2d
  0
SPLINE
  5
93
330
1F
100
AcDbEntity
  8
sled lng - armless 2d
100
AcDbSpline
210
0.0
220
0.0
230
1.0
 70
     8
 71
     3
 72
    11
 73
     7
 74
     0
 42
0.0000000001
 43
0.0000000001
 40
0.0
 40
0.0
 40
0.0
 40
0.0
 40
0.1349453748761032
 40
0.2683100324577205
 40
0.7443598263524457
 40
0.943386202016466
 40
0.943386202016466
 40
0.943386202016466
 40
0.943386202016466
 10
1.8749999985315
 20
11.21546137935436
 30
0.0
 10
1.920081907636517
 20
11.21552186600681
 30
0.0
 10
2.009199884647723
 20
11.21098382454478
 30
0.0
 10
2.255536113715412
 20
11.17405903812442
 30
0.0
 10
2.508779412261205
 20
11.07694449772256
 30
0.0
 10
2.834066874994208
 20
11.02691308082606
 30
0.0
 10
2.900559375425713
 20
11.02751633877848
 30
0.0
  0
SPLINE
  5
94
330
1F
100
AcDbEntity
  8
sled lng - armless 2d
100
AcDbSpline
210
0.0
220
0.0
230
1.0
 70
    12
 71
     2
 72
     6
 73
     3
 74
     0
 42
0.0000000001
 43
0.0000000001
 40
0.0
 40
0.0
 40
0.0
 40
2.89936982658151
 40
2.89936982658151
 40
2.89936982658151
 10
2.900559375425713
 20
11.02751633877848
 30
0.0
 41
1.0
 10
4.393684943005716
 20
11.04106282698044
 30
0.0
 41
0.9568668874167652
 10
5.627221992587685
 20
11.88248651051467
 30
0.0
 41
1.0
  0
SPLINE
  5
95
330
1F
100
AcDbEntity
  8
sled lng - armless 2d
100
AcDbSpline
210
0.0
220
0.0
230
1.0
 70
     8
 71
     3
 72
     8
 73
     4
 74
     0
 42
0.0000000001
 43
0.0000000001
 40
0.0
 40
0.0
 40
0.0
 40
0.0
 40
1.0
 40
1.0
 40
1.0
 40
1.0
 10
5.627221992587685
 20
11.88248651051467
 30
0.0
 10
6.025648769750762
 20
12.15426247911881
 30
0.0
 10
6.156042403407949
 20
11.92390721228188
 30
0.0
 10
6.250918029425911
 20
11.53432762489589
 30
0.0
  0
SPLINE
  5
96
330
1F
100
AcDbEntity
  8
sled lng - armless 2d
100
AcDbSpline
210
0.0
220
0.0
230
1.0
 70
    24
 71
     2
 72
     6
 73
     3
 74
     0
 42
0.0000000001
 43
0.0000000001
 40
0.0
 40
0.0
 40
0.0
 40
10.06393413170215
 40
10.06393413170215
 40
10.06393413170215
 10
6.250918029425911
 20
11.53432762489589
 30
0.0
 10
7.441679822675215
 20
6.644815004642775
 30
0.0
 10
8.632441615924519
 20
1.755302384389656
 30
0.0
  0
SPLINE
  5
97
330
1F
100
AcDbEntity
  8
sled lng - armless 2d
100
AcDbSpline
210
0.0
220
0.0
230
1.0
 70
     8
 71
     3
 72
    12
 73
     8
 74
     0
 42
0.0000000001
 43
0.0000000001
 40
0.0
 40
0.0
 40
0.0
 40
0.0
 40
0.2012861508322142
 40
0.4056229505997581
 40
0.7827363469594232
 40
1.114114782037147
 40
1.355229029210944
 40
1.355229029210944
 40
1.355229029210944
 40
1.355229029210944
 10
8.632441615924519
 20
1.755302384389656
 30
0.0
 10
8.649102733047567
 20
1.689067522762979
 30
0.0
 10
8.671067108398047
 20
1.556099912780108
 30
0.0
 10
8.681806482465406
 20
1.293832234284489
 30
0.0
 10
8.633496414713335
 20
0.991929895306578
 30
0.0
 10
8.49235450141318
 20
0.7013043439056758
 30
0.0
 10
8.32589429505146
 20
0.5888534381233682
 30
0.0
 10
8.24243502261394
 20
0.5889812716492517
 30
0.0
  0
SPLINE
  5
98
330
1F
100
AcDbEntity
  8
sled lng - armless 2d
100
AcDbSpline
210
0.0
220
0.0
230
1.0
 70
     8
 71
     3
 72
    11
 73
     7
 74
     0
 42
0.0000000001
 43
0.0000000001
 40
-0.6889034893045316
 40
-0.6889034893045316
 40
-0.6889034893045316
 40
-0.6889034893045316
 40
-0.5450160488261866
 40
-0.3853705266391287
 40
-0.2087918748906699
 40
0.0
 40
0.0
 40
0.0
 40
0.0
 10
6.385535443893236
 20
12.25796647967515
 30
0.0
 10
6.418456028034939
 20
12.22308960693837
 30
0.0
 10
6.481157049698633
 20
12.14318629659449
 30
0.0
 10
6.558109791961538
 20
12.00235651624751
 30
0.0
 10
6.624139760579003
 20
11.83282762872992
 30
0.0
 10
6.662620031285674
 20
11.694878457364
 30
0.0
 10
6.679086091135982
 20
11.62726529820402
 30
0.0
  0
SPLINE
  5
99
330
1F
100
AcDbEntity
  8
sled lng - armless 2d
100
AcDbSpline
210
0.0
220
0.0
230
1.0
 70
    24
 71
     2
 72
     6
 73
     3
 74
     0
 42
0.0000000001
 43
0.0000000001
 40
-10.05111052892765
 40
-10.05111052892765
 40
-10.05111052892765
 40
0.0
 40
0.0
 40
0.0
 10
6.679086091135982
 20
11.62726529820402
 30
0.0
 10
7.868221431656842
 20
6.744421571633985
 30
0.0
 10
9.057356772177702
 20
1.861577845063947
 30
0.0
  0
SPLINE
  5
9A
330
1F
100
AcDbEntity
  8
sled lng - armless 2d
100
AcDbSpline
210
0.0
220
0.0
230
1.0
 70
    12
 71
     3
 72
    12
 73
     8
 74
     0
 42
0.0000000001
 43
0.0000000001
 40
-2.358706949376457
 40
-2.358706949376457
 40
-2.358706949376457
 40
-2.358706949376457
 40
-2.124605928124024
 40
-1.808121943467982
 40
-1.450357372507128
 40
-1.147631505907923
 40
-1.04863415699448
 40
-1.04863415699448
 40
-1.04863415699448
 40
-1.04863415699448
 10
9.057356772177702
 20
1.861577845063947
 30
0.0
 41
1.0
 10
9.075041239321363
 20
1.788961645286098
 30
0.0
 41
1.0
 10
9.109434851760126
 20
1.598005787782278
 30
0.0
 41
1.0
 10
9.119977714742502
 20
1.294240236005354
 30
0.0
 41
1.0
 10
9.075173912067907
 20
0.9701573144154476
 30
0.0
 41
1.0
 10
8.994195855873532
 20
0.7404713270662872
 30
0.0
 41
1.0
 10
8.938129452193792
 20
0.630760836949914
 30
0.0
 41
1.0
 10
8.923502407009824
 20
0.6045405582502195
 30
0.0
 41
1.0
  0
SPLINE
  5
9B
330
1F
100
AcDbEntity
  8
sled lng - armless 2d
100
AcDbSpline
210
0.0
220
0.0
230
1.0
 70
    12
 71
     2
 72
     6
 73
     3
 74
     0
 42
0.0000000001
 43
0.0000000001
 40
0.0
 40
0.0
 40
0.0
 40
2.906778659391704
 40
2.906778659391704
 40
2.906778659391704
 10
3.920940612865992
 20
11.55827408464526
 30
0.0
 41
1.0
 10
5.355638235924145
 20
11.82309811393601
 30
0.0
 41
0.9943087791697793
 10
6.701662298111531
 20
12.38586650333884
 30
0.0
 41
1.0
  0
SPLINE
  5
9C
330
1F
100
AcDbEntity
  8
sled lng - armless 2d
100
AcDbSpline
210
0.0
220
0.0
230
1.0
 70
     8
 71
     3
 72
    34
 73
    30
 74
     0
 42
0.0000000001
 43
0.0000000001
 40
0.0
 40
0.0
 40
0.0
 40
0.0
 40
1.0
 40
2.0
 40
3.0
 40
4.0
 40
5.0
 40
6.0
 40
7.0
 40
8.0
 40
9.0
 40
10.0
 40
11.0
 40
12.0
 40
13.0
 40
14.0
 40
15.0
 40
16.0
 40
17.0
 40
18.0
 40
19.0
 40
20.0
 40
21.0
 40
22.0
 40
23.0
 40
24.0
 40
25.0
 40
26.0
 40
27.0
 40
27.0
 40
27.0
 40
27.0
 10
11.30180773580182
 20
16.9417295551174
 30
0.0
 10
11.12154718497379
 20
17.15858246972673
 30
0.0
 10
10.78816991842871
 20
17.61863658220549
 30
0.0
 10
10.51521396380649
 20
18.42839026756612
 30
0.0
 10
10.31402022588149
 20
19.2493062591801
 30
0.0
 10
10.19089368797644
 20
20.08797134583151
 30
0.0
 10
10.03766046416541
 20
20.92087024651967
 30
0.0
 10
9.966256925014546
 20
21.76539525436246
 30
0.0
 10
9.834482258744346
 20
22.60154672374121
 30
0.0
 10
9.777315443710123
 20
23.44684450920676
 30
0.0
 10
9.672954686057968
 20
24.28709602594886
 30
0.0
 10
9.610085975226074
 20
25.13156817847912
 30
0.0
 10
9.530520214438619
 20
25.97442632919173
 30
0.0
 10
9.454481544861594
 20
26.81760141398285
 30
0.0
 10
9.376038680397201
 20
27.66067261114544
 30
0.0
 10
9.30012155485921
 20
28.50351555909672
 30
0.0
 10
9.212765881758692
 20
29.34702714030534
 30
0.0
 10
8.958166372068577
 20
30.16283147958048
 30
0.0
 10
8.388905006661709
 20
30.81979668768881
 30
0.0
 10
7.616906661664716
 20
31.19587725372417
 30
0.0
 10
6.771872838903916
 20
31.31960263556045
 30
0.0
 10
5.925452713164747
 20
31.30765830485051
 30
0.0
 10
5.079545108724193
 20
31.2695123229927
 30
0.0
 10
4.23298851021057
 20
31.25711145424351
 30
0.0
 10
3.386410345362758
 20
31.24961954486953
 30
0.0
 10
2.539826152742374
 20
31.24210998471572
 30
0.0
 10
1.693227636943917
 20
31.23660032199548
 30
0.0
 10
0.8466165872863324
 20
31.23329680035707
 30
0.0
 10
0.2822050802450391
 20
31.23303017041346
 30
0.0
 10
0.0
 20
31.23347141527635
 30
0.0
  0
SPLINE
  5
9D
330
1F
100
AcDbEntity
  8
sled lng - armless 2d
100
AcDbSpline
210
0.0
220
0.0
230
1.0
 70
     8
 71
     3
 72
    34
 73
    30
 74
     0
 42
0.0000000001
 43
0.0000000001
 40
-27.0
 40
-27.0
 40
-27.0
 40
-27.0
 40
-26.0
 40
-25.0
 40
-24.0
 40
-23.0
 40
-22.0
 40
-21.0
 40
-20.0
 40
-19.0
 40
-18.0
 40
-17.0
 40
-16.0
 40
-15.0
 40
-14.0
 40
-13.0
 40
-12.0
 40
-11.0
 40
-10.0
 40
-9.0
 40
-8.0
 40
-7.0
 40
-6.0
 40
-5.0
 40
-4.0
 40
-3.0
 40
-2.0
 40
-1.0
 40
0.0
 40
0.0
 40
0.0
 40
0.0
 10
0.0
 20
31.23347141527635
 30
0.0
 10
-0.2822050802450391
 20
31.23303017041346
 30
0.0
 10
-0.8466165872863324
 20
31.23329680035707
 30
0.0
 10
-1.693227636943917
 20
31.23660032199548
 30
0.0
 10
-2.539826152742374
 20
31.24210998471572
 30
0.0
 10
-3.386410345362758
 20
31.24961954486953
 30
0.0
 10
-4.23298851021057
 20
31.25711145424351
 30
0.0
 10
-5.079545108724193
 20
31.2695123229927
 30
0.0
 10
-5.925452713164747
 20
31.30765830485051
 30
0.0
 10
-6.771872838903916
 20
31.31960263556045
 30
0.0
 10
-7.616906661664716
 20
31.19587725372417
 30
0.0
 10
-8.388905006661709
 20
30.81979668768881
 30
0.0
 10
-8.958166372068577
 20
30.16283147958048
 30
0.0
 10
-9.212765881758692
 20
29.34702714030534
 30
0.0
 10
-9.30012155485921
 20
28.50351555909672
 30
0.0
 10
-9.376038680397201
 20
27.66067261114544
 30
0.0
 10
-9.454481544861594
 20
26.81760141398285
 30
0.0
 10
-9.530520214438619
 20
25.97442632919173
 30
0.0
 10
-9.610085975226074
 20
25.13156817847912
 30
0.0
 10
-9.672954686057968
 20
24.28709602594886
 30
0.0
 10
-9.777315443710123
 20
23.44684450920676
 30
0.0
 10
-9.834482258744346
 20
22.60154672374121
 30
0.0
 10
-9.966256925014546
 20
21.76539525436246
 30
0.0
 10
-10.03766046416541
 20
20.92087024651967
 30
0.0
 10
-10.19089368797644
 20
20.08797134583151
 30
0.0
 10
-10.31402022588149
 20
19.2493062591801
 30
0.0
 10
-10.51521396380649
 20
18.42839026756612
 30
0.0
 10
-10.78816991842871
 20
17.61863658220549
 30
0.0
 10
-11.12154718497379
 20
17.15858246972673
 30
0.0
 10
-11.30180773580182
 20
16.9417295551174
 30
0.0
  0
SPLINE
  5
9E
330
1F
100
AcDbEntity
  8
sled lng - armless 2d
100
AcDbSpline
210
0.0
220
0.0
230
1.0
 70
     8
 71
     3
 72
    34
 73
    30
 74
     0
 42
0.0000000001
 43
0.0000000001
 40
0.0
 40
0.0
 40
0.0
 40
0.0
 40
1.0
 40
2.0
 40
3.0
 40
4.0
 40
5.0
 40
6.0
 40
7.0
 40
8.0
 40
9.0
 40
10.0
 40
11.0
 40
12.0
 40
13.0
 40
14.0
 40
15.0
 40
16.0
 40
17.0
 40
18.0
 40
19.0
 40
20.0
 40
21.0
 40
22.0
 40
23.0
 40
24.0
 40
25.0
 40
26.0
 40
27.0
 40
27.0
 40
27.0
 40
27.0
 10
7.102846482873259
 20
12.56196944116779
 30
0.0
 10
7.31300348359572
 20
12.65854144057482
 30
0.0
 10
7.728110997996625
 20
12.86292172476847
 30
0.0
 10
8.335751794741
 20
13.19819861349664
 30
0.0
 10
8.92921899488083
 20
13.55801673252994
 30
0.0
 10
9.504666854650766
 20
13.9458272312951
 30
0.0
 10
10.05933416313454
 20
14.36397640391594
 30
0.0
 10
10.58690353509972
 20
14.8120778283749
 30
0.0
 10
11.08696207412634
 20
15.304758854612
 30
0.0
 10
11.52619735828278
 20
15.8046834151777
 30
0.0
 10
11.97798160874616
 20
16.47143884475907
 30
0.0
 10
11.34521275555339
 20
16.99366815735927
 30
0.0
 10
10.66132247316101
 20
17.0913240533126
 30
0.0
 10
9.971999540735746
 20
16.94115358158406
 30
0.0
 10
9.344717353499327
 20
16.64369138013503
 30
0.0
 10
8.72641093716899
 20
16.32904246973512
 30
0.0
 10
8.110901227921612
 20
16.00848386028136
 30
0.0
 10
7.483524419903251
 20
15.71241114970815
 30
0.0
 10
6.859423641829252
 20
15.40811977848096
 30
0.0
 10
6.198222279033514
 20
15.19284513863911
 30
0.0
 10
5.525086722310023
 20
15.02441182441554
 30
0.0
 10
4.843129674512359
 20
14.89489477888168
 30
0.0
 10
4.156172116685335
 20
14.79655080918302
 30
0.0
 10
3.466008630533422
 20
14.72425525311057
 30
0.0
 10
2.774117474225172
 20
14.67166834407786
 30
0.0
 10
2.081244298692575
 20
14.63431553967019
 30
0.0
 10
1.387681103916413
 20
14.61312661132679
 30
0.0
 10
0.6938125822725864
 20
14.60826463779234
 30
0.0
 10
0.231286947466631
 20
14.61613371064388
 30
0.0
 10
0.0
 20
14.62288719818002
 30
0.0
  0
SPLINE
  5
9F
330
1F
100
AcDbEntity
  8
sled lng - armless 2d
100
AcDbSpline
210
0.0
220
0.0
230
1.0
 70
     8
 71
     3
 72
    34
 73
    30
 74
     0
 42
0.0000000001
 43
0.0000000001
 40
-27.0
 40
-27.0
 40
-27.0
 40
-27.0
 40
-26.0
 40
-25.0
 40
-24.0
 40
-23.0
 40
-22.0
 40
-21.0
 40
-20.0
 40
-19.0
 40
-18.0
 40
-17.0
 40
-16.0
 40
-15.0
 40
-14.0
 40
-13.0
 40
-12.0
 40
-11.0
 40
-10.0
 40
-9.0
 40
-8.0
 40
-7.0
 40
-6.0
 40
-5.0
 40
-4.0
 40
-3.0
 40
-2.0
 40
-1.0
 40
0.0
 40
0.0
 40
0.0
 40
0.0
 10
0.0
 20
14.62288719818002
 30
0.0
 10
-0.231286947466631
 20
14.61613371064388
 30
0.0
 10
-0.6938125822725864
 20
14.60826463779234
 30
0.0
 10
-1.387681103916413
 20
14.61312661132679
 30
0.0
 10
-2.081244298692575
 20
14.63431553967019
 30
0.0
 10
-2.774117474225172
 20
14.67166834407786
 30
0.0
 10
-3.466008630533422
 20
14.72425525311057
 30
0.0
 10
-4.156172116685335
 20
14.79655080918302
 30
0.0
 10
-4.843129674512359
 20
14.89489477888168
 30
0.0
 10
-5.525086722310023
 20
15.02441182441554
 30
0.0
 10
-6.198222279033514
 20
15.19284513863911
 30
0.0
 10
-6.859423641829252
 20
15.40811977848096
 30
0.0
 10
-7.483524419903251
 20
15.71241114970815
 30
0.0
 10
-8.110901227921612
 20
16.00848386028136
 30
0.0
 10
-8.72641093716899
 20
16.32904246973512
 30
0.0
 10
-9.344717353499327
 20
16.64369138013503
 30
0.0
 10
-9.971999540735746
 20
16.94115358158406
 30
0.0
 10
-10.66132247316101
 20
17.0913240533126
 30
0.0
 10
-11.34521275555339
 20
16.99366815735927
 30
0.0
 10
-11.97798160874616
 20
16.47143884475907
 30
0.0
 10
-11.52619735828278
 20
15.8046834151777
 30
0.0
 10
-11.08696207412634
 20
15.304758854612
 30
0.0
 10
-10.58690353509972
 20
14.8120778283749
 30
0.0
 10
-10.05933416313454
 20
14.36397640391594
 30
0.0
 10
-9.504666854650766
 20
13.9458272312951
 30
0.0
 10
-8.92921899488083
 20
13.55801673252994
 30
0.0
 10
-8.335751794741
 20
13.19819861349664
 30
0.0
 10
-7.728110997996625
 20
12.86292172476847
 30
0.0
 10
-7.31300348359572
 20
12.65854144057482
 30
0.0
 10
-7.102846482873259
 20
12.56196944116779
 30
0.0
  0
SPLINE
  5
A0
330
1F
100
AcDbEntity
  8
sled lng - armless 2d
100
AcDbSpline
210
0.0
220
0.0
230
1.0
 70
     8
 71
     3
 72
    14
 73
    10
 74
     0
 42
0.0000000001
 43
0.0000000001
 40
0.0
 40
0.0
 40
0.0
 40
0.0
 40
1.0
 40
2.0
 40
3.0
 40
4.0
 40
5.0
 40
6.0
 40
7.0
 40
7.0
 40
7.0
 40
7.0
 10
8.25112286642524
 20
16.08504363065447
 30
0.0
 10
7.937194587556249
 20
16.34747912300197
 30
0.0
 10
7.136016103162912
 20
16.47534430073834
 30
0.0
 10
5.957517677121525
 20
16.5983183555301
 30
0.0
 10
4.7649106978549
 20
16.65100932360136
 30
0.0
 10
3.574523500989148
 20
16.68775463413668
 30
0.0
 10
2.382983583844327
 20
16.70775111925562
 30
0.0
 10
1.191534953520754
 20
16.71704452014807
 30
0.0
 10
0.3971721491309404
 20
16.71865322792226
 30
0.0
 10
0.0000000000000142
 20
16.71906351180764
 30
0.0
  0
SPLINE
  5
A1
330
1F
100
AcDbEntity
  8
sled lng - armless 2d
100
AcDbSpline
210
0.0
220
0.0
230
1.0
 70
     8
 71
     3
 72
    14
 73
    10
 74
     0
 42
0.0000000001
 43
0.0000000001
 40
-7.0
 40
-7.0
 40
-7.0
 40
-7.0
 40
-6.0
 40
-5.0
 40
-4.0
 40
-3.0
 40
-2.0
 40
-1.0
 40
0.0
 40
0.0
 40
0.0
 40
0.0
 10
0.0000000000000142
 20
16.71906351180764
 30
0.0
 10
-0.397172149130912
 20
16.7186532279223
 30
0.0
 10
-1.191534953520726
 20
16.71704452014818
 30
0.0
 10
-2.382983583844299
 20
16.70775111925583
 30
0.0
 10
-3.574523500989122
 20
16.68775463413701
 30
0.0
 10
-4.764910697854877
 20
16.65100932360179
 30
0.0
 10
-5.957517677121507
 20
16.59831835553065
 30
0.0
 10
-7.136016103162905
 20
16.47534430073899
 30
0.0
 10
-7.937194587556254
 20
16.34747912300269
 30
0.0
 10
-8.25112286642527
 20
16.08504363065522
 30
0.0
  0
SPLINE
  5
A2
330
1F
100
AcDbEntity
  8
sled lng - armless 2d
100
AcDbSpline
210
0.0
220
0.0
230
1.0
 70
     8
 71
     3
 72
    20
 73
    16
 74
     0
 42
0.0000000001
 43
0.0000000001
 40
-13.0
 40
-13.0
 40
-13.0
 40
-13.0
 40
-12.0
 40
-11.0
 40
-10.0
 40
-9.0
 40
-8.0
 40
-7.0
 40
-6.0
 40
-5.0
 40
-4.0
 40
-3.0
 40
-2.0
 40
-1.0
 40
0.0
 40
0.0
 40
0.0
 40
0.0
 10
-11.71466772245437
 20
16.08620333104626
 30
0.0
 10
-11.45545240544589
 20
16.28192816631753
 30
0.0
 10
-10.78904142741375
 20
16.19940883753611
 30
0.0
 10
-9.973072488286187
 20
15.73180058918578
 30
0.0
 10
-9.142509654126437
 20
15.2870975285434
 30
0.0
 10
-8.311605715121912
 20
14.84274537727294
 30
0.0
 10
-7.438096801087544
 20
14.48747531751044
 30
0.0
 10
-6.544251138571201
 20
14.18906869575375
 30
0.0
 10
-5.626617421970587
 20
13.97302489252666
 30
0.0
 10
-4.697688538997951
 20
13.81601144485585
 30
0.0
 10
-3.762234848351411
 20
13.70466737520695
 30
0.0
 10
-2.823452465791122
 20
13.62790996527608
 30
0.0
 10
-1.883153654536789
 20
13.57339022771979
 30
0.0
 10
-0.9418322593330103
 20
13.54073152418936
 30
0.0
 10
-0.313939772752638
 20
13.53414041753861
 30
0.0
 10
-0.0000000000000036
 20
13.53471683824761
 30
0.0
  0
SPLINE
  5
A3
330
1F
100
AcDbEntity
  8
sled lng - armless 2d
100
AcDbSpline
210
0.0
220
0.0
230
1.0
 70
     8
 71
     3
 72
    20
 73
    16
 74
     0
 42
0.0000000001
 43
0.0000000001
 40
0.0
 40
0.0
 40
0.0
 40
0.0
 40
1.0
 40
2.0
 40
3.0
 40
4.0
 40
5.0
 40
6.0
 40
7.0
 40
8.0
 40
9.0
 40
10.0
 40
11.0
 40
12.0
 40
13.0
 40
13.0
 40
13.0
 40
13.0
 10
-0.0000000000000036
 20
13.53471683824761
 30
0.0
 10
0.3139397727526309
 20
13.53414041753862
 30
0.0
 10
0.9418322593330031
 20
13.54073152418937
 30
0.0
 10
1.883153654536781
 20
13.57339022771982
 30
0.0
 10
2.823452465791114
 20
13.62790996527612
 30
0.0
 10
3.762234848351401
 20
13.70466737520701
 30
0.0
 10
4.697688538997939
 20
13.81601144485593
 30
0.0
 10
5.626617421970573
 20
13.97302489252675
 30
0.0
 10
6.544251138571183
 20
14.18906869575385
 30
0.0
 10
7.438096801087521
 20
14.48747531751056
 30
0.0
 10
8.311605715121884
 20
14.84274537727307
 30
0.0
 10
9.142509654126401
 20
15.28709752854355
 30
0.0
 10
9.973072488286144
 20
15.73180058918593
 30
0.0
 10
10.7890414274137
 20
16.19940883753628
 30
0.0
 10
11.45545240544584
 20
16.28192816631772
 30
0.0
 10
11.71466772245433
 20
16.08620333104644
 30
0.0
  0
SPLINE
  5
A4
330
1F
100
AcDbEntity
  8
sled lng - armless 2d
100
AcDbSpline
210
0.0
220
0.0
230
1.0
 70
    24
 71
     2
 72
     6
 73
     3
 74
     0
 42
0.0000000001
 43
0.0000000001
 40
0.0
 40
0.0
 40
0.0
 40
0.9645451073740142
 40
0.9645451073740142
 40
0.9645451073740142
 10
9.530543654212849
 20
49.56491440294623
 30
0.0
 10
9.227996393711738
 20
49.94048326640946
 30
0.0
 10
8.925449133210625
 20
50.31605212987268
 30
0.0
  0
LINE
  5
A5
330
1F
100
AcDbEntity
  8
sled lng - armless 2d
100
AcDbLine
 10
8.604027623808982
 20
50.01686096421357
 30
0.0
 11
9.189444795811571
 21
49.29014983294534
 31
0.0
  0
SPLINE
  5
A6
330
1F
100
AcDbEntity
  8
sled lng - armless 2d
100
AcDbSpline
210
0.0
220
0.0
230
1.0
 70
     8
 71
     3
 72
    15
 73
    11
 74
     0
 42
0.0000000001
 43
0.0000000001
 40
0.9331786182637601
 40
0.9331786182637601
 40
0.9331786182637601
 40
0.9331786182637601
 40
1.02317770488213
 40
1.08855774010105
 40
1.227154061638006
 40
1.51543375808294
 40
1.604968450722375
 40
1.708690952681963
 40
2.094120098362511
 40
2.742280622653956
 40
2.742280622653956
 40
2.742280622653956
 40
2.742280622653956
 10
9.189444795811571
 20
49.29014983294534
 30
0.0
 10
9.223439882681784
 20
49.24896969897909
 30
0.0
 10
9.25687497793012
 20
49.20700584652535
 30
0.0
 10
9.33620234324262
 20
49.15162037551368
 30
0.0
 10
9.511414619871703
 20
49.12340670038278
 30
0.0
 10
9.651227255101071
 20
49.27555410636079
 30
0.0
 10
9.629253139073075
 20
49.44199268779503
 30
0.0
 10
9.527439960465355
 20
49.60575319974695
 30
0.0
 10
9.30563185166111
 20
49.91380833747425
 30
0.0
 10
9.104301548116322
 20
50.19281062510503
 30
0.0
 10
8.97351300571897
 20
50.36517095097027
 30
0.0
  0
SPLINE
  5
A7
330
1F
100
AcDbEntity
  8
sled lng - armless 2d
100
AcDbSpline
210
0.0
220
0.0
230
1.0
 70
     8
 71
     3
 72
    34
 73
    30
 74
     0
 42
0.0000000001
 43
0.0000000001
 40
0.0
 40
0.0
 40
0.0
 40
0.0
 40
0.9999998776969707
 40
1.999999882400934
 40
2.999999887104897
 40
3.999999891808859
 40
4.999999896512822
 40
5.999999901216785
 40
6.999999905920747
 40
7.999999910624711
 40
8.999999915328672
 40
9.999999920032636
 40
10.9999999247366
 40
11.99999992944056
 40
12.99999993414452
 40
13.99999993884848
 40
14.99999994355245
 40
15.99999994825641
 40
16.99999995296037
 40
17.99999995766434
 40
18.9999999623683
 40
19.99999996707226
 40
20.99999997177622
 40
21.99999997648019
 40
22.99999998118415
 40
23.99999998588811
 40
24.99999999059207
 40
25.99999999529604
 40
27.0
 40
27.0
 40
27.0
 40
27.0
 10
0.0000019930501995
 20
47.92324685450122
 30
0.0
 10
0.5202520355929919
 20
47.92056962992658
 30
0.0
 10
1.560629267274391
 20
47.95826463978093
 30
0.0
 10
3.114872210815542
 20
48.10236679516717
 30
0.0
 10
4.661763405113335
 20
48.31860499669104
 30
0.0
 10
6.179081690708743
 20
48.69451081055026
 30
0.0
 10
7.629491005790335
 20
49.28823849449584
 30
0.0
 10
8.9172598582455
 20
50.19667294782435
 30
0.0
 10
9.875138183479418
 20
51.44475537373009
 30
0.0
 10
10.63315650498058
 20
52.81037674441956
 30
0.0
 10
11.18289861951977
 20
54.27578765359038
 30
0.0
 10
11.54211107849284
 20
55.79668156175744
 30
0.0
 10
11.76459864283313
 20
57.34348433462463
 30
0.0
 10
11.80868451416887
 20
58.90480154019195
 30
0.0
 10
11.80034835237674
 20
60.46644509036587
 30
0.0
 10
11.62931973723937
 20
62.01984590530692
 30
0.0
 10
11.30277749403434
 20
63.54781267859032
 30
0.0
 10
10.8634722417955
 20
65.04554748684703
 30
0.0
 10
10.43545092090955
 20
66.54675690002097
 30
0.0
 10
10.06292143501515
 20
68.06132485367648
 30
0.0
 10
9.720836223198509
 20
69.58892200594057
 30
0.0
 10
9.398635272677737
 20
71.09534397363043
 30
0.0
 10
9.091190110456036
 20
72.70275911268304
 30
0.0
 10
7.656840934142722
 20
73.552160576021
 30
0.0
 10
6.174486392061312
 20
73.98057166571469
 30
0.0
 10
4.653028168502862
 20
74.35157990482786
 30
0.0
 10
3.114177121400239
 20
74.60987236637341
 30
0.0
 10
1.56111122936464
 20
74.77605972872794
 30
0.0
 10
0.5201615345798107
 20
74.80109007528746
 30
0.0
 10
0.0000019930501995
 20
74.80056241332173
 30
0.0
  0
SPLINE
  5
A8
330
1F
100
AcDbEntity
  8
sled lng - armless 2d
100
AcDbSpline
210
0.0
220
0.0
230
1.0
 70
     8
 71
     3
 72
    34
 73
    30
 74
     0
 42
0.0000000001
 43
0.0000000001
 40
-27.0
 40
-27.0
 40
-27.0
 40
-27.0
 40
-25.99999999529604
 40
-24.99999999059207
 40
-23.99999998588811
 40
-22.99999998118415
 40
-21.99999997648019
 40
-20.99999997177622
 40
-19.99999996707226
 40
-18.9999999623683
 40
-17.99999995766434
 40
-16.99999995296037
 40
-15.99999994825641
 40
-14.99999994355245
 40
-13.99999993884848
 40
-12.99999993414452
 40
-11.99999992944056
 40
-10.9999999247366
 40
-9.999999920032636
 40
-8.999999915328672
 40
-7.999999910624711
 40
-6.999999905920747
 40
-5.999999901216785
 40
-4.999999896512822
 40
-3.999999891808859
 40
-2.999999887104897
 40
-1.999999882400934
 40
-0.9999998776969707
 40
0.0
 40
0.0
 40
0.0
 40
0.0
 10
0.0000019930501995
 20
74.80056241332173
 30
0.0
 10
-0.5201575484794116
 20
74.80109007528746
 30
0.0
 10
-1.561107243264241
 20
74.77605972872794
 30
0.0
 10
-3.11417313529984
 20
74.60987236637341
 30
0.0
 10
-4.653024182402463
 20
74.35157990482786
 30
0.0
 10
-6.174482405960913
 20
73.98057166571469
 30
0.0
 10
-7.656836948042323
 20
73.552160576021
 30
0.0
 10
-9.091186124355637
 20
72.70275911268304
 30
0.0
 10
-9.398631286577338
 20
71.09534397363043
 30
0.0
 10
-9.72083223709811
 20
69.58892200594057
 30
0.0
 10
-10.06291744891475
 20
68.06132485367648
 30
0.0
 10
-10.43544693480915
 20
66.54675690002097
 30
0.0
 10
-10.8634682556951
 20
65.04554748684703
 30
0.0
 10
-11.30277350793394
 20
63.54781267859032
 30
0.0
 10
-11.62931575113897
 20
62.01984590530692
 30
0.0
 10
-11.80034436627634
 20
60.46644509036587
 30
0.0
 10
-11.80868052806847
 20
58.90480154019195
 30
0.0
 10
-11.76459465673273
 20
57.34348433462463
 30
0.0
 10
-11.54210709239244
 20
55.79668156175744
 30
0.0
 10
-11.18289463341937
 20
54.27578765359038
 30
0.0
 10
-10.63315251888018
 20
52.81037674441956
 30
0.0
 10
-9.875134197379019
 20
51.44475537373009
 30
0.0
 10
-8.9172558721451
 20
50.19667294782435
 30
0.0
 10
-7.629487019689936
 20
49.28823849449584
 30
0.0
 10
-6.179077704608344
 20
48.69451081055026
 30
0.0
 10
-4.661759419012936
 20
48.31860499669104
 30
0.0
 10
-3.114868224715143
 20
48.10236679516717
 30
0.0
 10
-1.560625281173992
 20
47.95826463978093
 30
0.0
 10
-0.5202480494925928
 20
47.92056962992658
 30
0.0
 10
0.0000019930501995
 20
47.92324685450122
 30
0.0
  0
LINE
  5
A9
330
1F
100
AcDbEntity
  8
sled lng - armless 2d
100
AcDbLine
 10
-8.604027623808982
 20
50.01686096421357
 30
0.0
 11
-9.189444795811571
 21
49.29014983294534
 31
0.0
  0
SPLINE
  5
AA
330
1F
100
AcDbEntity
  8
sled lng - armless 2d
100
AcDbSpline
210
0.0
220
0.0
230
1.0
 70
     8
 71
     3
 72
    15
 73
    11
 74
     0
 42
0.0000000001
 43
0.0000000001
 40
0.9331786182637601
 40
0.9331786182637601
 40
0.9331786182637601
 40
0.9331786182637601
 40
1.02317770488213
 40
1.08855774010105
 40
1.227154061638006
 40
1.51543375808294
 40
1.604968450722375
 40
1.708690952681963
 40
2.094120098362511
 40
2.742280622653956
 40
2.742280622653956
 40
2.742280622653956
 40
2.742280622653956
 10
-9.189444795811571
 20
49.29014983294534
 30
0.0
 10
-9.223439882681784
 20
49.24896969897909
 30
0.0
 10
-9.25687497793012
 20
49.20700584652535
 30
0.0
 10
-9.33620234324262
 20
49.15162037551368
 30
0.0
 10
-9.511414619871703
 20
49.12340670038278
 30
0.0
 10
-9.651227255101071
 20
49.27555410636079
 30
0.0
 10
-9.629253139073075
 20
49.44199268779503
 30
0.0
 10
-9.527439960465355
 20
49.60575319974695
 30
0.0
 10
-9.30563185166111
 20
49.91380833747425
 30
0.0
 10
-9.104301548116322
 20
50.19281062510503
 30
0.0
 10
-8.97351300571897
 20
50.36517095097027
 30
0.0
  0
SPLINE
  5
AB
330
1F
100
AcDbEntity
  8
sled lng - armless 2d
100
AcDbSpline
210
0.0
220
0.0
230
1.0
 70
    24
 71
     2
 72
     6
 73
     3
 74
     0
 42
0.0000000001
 43
0.0000000001
 40
0.0
 40
0.0
 40
0.0
 40
0.9645451073740142
 40
0.9645451073740142
 40
0.9645451073740142
 10
-9.530543654212849
 20
49.56491440294623
 30
0.0
 10
-9.227996393711738
 20
49.94048326640946
 30
0.0
 10
-8.925449133210625
 20
50.31605212987268
 30
0.0
  0
SPLINE
  5
AC
330
1F
100
AcDbEntity
  8
sled lng - armless 2d
100
AcDbSpline
210
0.0
220
0.0
230
1.0
 70
    12
 71
     2
 72
     6
 73
     3
 74
     0
 42
0.0000000001
 43
0.0000000001
 40
0.0
 40
0.0
 40
0.0
 40
0.2465544138179148
 40
0.2465544138179148
 40
0.2465544138179148
 10
-6.711925765079014
 20
64.71026512076061
 30
0.0
 41
1.0
 10
-6.611122996702722
 20
64.78128527507312
 30
0.0
 41
0.9996157140799427
 10
-6.506539236624468
 20
64.84660983063064
 30
0.0
 41
1.0
  0
SPLINE
  5
AD
330
1F
100
AcDbEntity
  8
sled lng - armless 2d
100
AcDbSpline
210
0.0
220
0.0
230
1.0
 70
    12
 71
     2
 72
     6
 73
     3
 74
     0
 42
0.0000000001
 43
0.0000000001
 40
0.0
 40
0.0
 40
0.0
 40
0.065849031539426
 40
0.065849031539426
 40
0.065849031539426
 10
-8.036140920538717
 20
63.05122569734361
 30
0.0
 41
1.0
 10
-8.0241223505965
 20
63.08187912801234
 30
0.0
 41
0.9999618824178685
 10
-8.01157035152959
 20
63.11231802015124
 30
0.0
 41
1.0
  0
SPLINE
  5
AE
330
1F
100
AcDbEntity
  8
sled lng - armless 2d
100
AcDbSpline
210
0.0
220
0.0
230
1.0
 70
     8
 71
     3
 72
    34
 73
    30
 74
     0
 42
0.0000000001
 43
0.0000000001
 40
0.0
 40
0.0
 40
0.0
 40
0.0
 40
1.0
 40
2.0
 40
3.0
 40
4.0
 40
5.0
 40
6.0
 40
7.0
 40
8.0
 40
9.0
 40
10.0
 40
11.0
 40
12.0
 40
13.0
 40
14.0
 40
15.0
 40
16.0
 40
17.0
 40
18.0
 40
19.0
 40
20.0
 40
21.0
 40
22.0
 40
23.0
 40
24.0
 40
25.0
 40
26.0
 40
27.0
 40
27.0
 40
27.0
 40
27.0
 10
0.0000021912816486
 20
65.94319243702067
 30
0.0
 10
0.3689865500322972
 20
65.94689739501115
 30
0.0
 10
1.107059800079651
 20
65.94302711192286
 30
0.0
 10
2.213580614674665
 20
65.90886117067006
 30
0.0
 10
3.318642679331097
 20
65.83359110251065
 30
0.0
 10
4.413124856816934
 20
65.65896648914149
 30
0.0
 10
5.484028727560029
 20
65.37040563258886
 30
0.0
 10
6.494914607947543
 20
64.9054923759743
 30
0.0
 10
7.370940769180096
 20
64.2113152250432
 30
0.0
 10
8.002375676428754
 20
63.28302626182431
 30
0.0
 10
8.302954908280169
 20
62.20873179435124
 30
0.0
 10
8.451648912432212
 20
61.11178439181896
 30
0.0
 10
8.562911213940712
 20
60.01014048109791
 30
0.0
 10
8.623976608793567
 20
58.90446620079058
 30
0.0
 10
8.628978750610015
 20
57.7972224028431
 30
0.0
 10
8.605466740219137
 20
56.69046403974365
 30
0.0
 10
8.579247156188746
 20
55.58374907063891
 30
0.0
 10
8.542273836427078
 20
54.47738795852974
 30
0.0
 10
8.465451512558833
 20
53.37252081715826
 30
0.0
 10
8.299018021801988
 20
52.27688993574138
 30
0.0
 10
7.998975478345139
 20
51.20772954007172
 30
0.0
 10
7.411442030189951
 20
50.24289358468628
 30
0.0
 10
6.45236938252982
 20
49.64808963516405
 30
0.0
 10
5.440817446486848
 20
49.20612873833323
 30
0.0
 10
4.384321138004371
 20
48.86751483708858
 30
0.0
 10
3.307134645370659
 20
48.61051017471312
 30
0.0
 10
2.211582691908234
 20
48.44396299491882
 30
0.0
 10
1.106919340182492
 20
48.36442386107835
 30
0.0
 10
0.3690334430362206
 20
48.34440729018016
 30
0.0
 10
0.0000021912816486
 20
48.34645564565044
 30
0.0
  0
SPLINE
  5
AF
330
1F
100
AcDbEntity
  8
sled lng - armless 2d
100
AcDbSpline
210
0.0
220
0.0
230
1.0
 70
     8
 71
     3
 72
    34
 73
    30
 74
     0
 42
0.0000000001
 43
0.0000000001
 40
-27.0
 40
-27.0
 40
-27.0
 40
-27.0
 40
-26.0
 40
-25.0
 40
-24.0
 40
-23.0
 40
-22.0
 40
-21.0
 40
-20.0
 40
-19.0
 40
-18.0
 40
-17.0
 40
-16.0
 40
-15.0
 40
-14.0
 40
-13.0
 40
-12.0
 40
-11.0
 40
-10.0
 40
-9.0
 40
-8.0
 40
-7.0
 40
-6.0
 40
-5.0
 40
-4.0
 40
-3.0
 40
-2.0
 40
-1.0
 40
0.0
 40
0.0
 40
0.0
 40
0.0
 10
0.0000021912816486
 20
48.34645564565044
 30
0.0
 10
-0.3690290604729234
 20
48.34440729018016
 30
0.0
 10
-1.106914957619195
 20
48.36442386107835
 30
0.0
 10
-2.211578309344937
 20
48.44396299491882
 30
0.0
 10
-3.307130262807362
 20
48.61051017471312
 30
0.0
 10
-4.384316755441073
 20
48.86751483708858
 30
0.0
 10
-5.440813063923551
 20
49.20612873833323
 30
0.0
 10
-6.452364999966523
 20
49.64808963516405
 30
0.0
 10
-7.411437647626654
 20
50.24289358468628
 30
0.0
 10
-7.998971095781842
 20
51.20772954007172
 30
0.0
 10
-8.29901363923869
 20
52.27688993574138
 30
0.0
 10
-8.465447129995535
 20
53.37252081715826
 30
0.0
 10
-8.542269453863781
 20
54.47738795852974
 30
0.0
 10
-8.579242773625449
 20
55.58374907063891
 30
0.0
 10
-8.60546235765584
 20
56.69046403974365
 30
0.0
 10
-8.628974368046718
 20
57.7972224028431
 30
0.0
 10
-8.62397222623027
 20
58.90446620079058
 30
0.0
 10
-8.562906831377415
 20
60.01014048109791
 30
0.0
 10
-8.451644529868915
 20
61.11178439181896
 30
0.0
 10
-8.302950525716872
 20
62.20873179435124
 30
0.0
 10
-8.002371293865457
 20
63.28302626182431
 30
0.0
 10
-7.370936386616799
 20
64.2113152250432
 30
0.0
 10
-6.494910225384245
 20
64.9054923759743
 30
0.0
 10
-5.484024344996732
 20
65.37040563258886
 30
0.0
 10
-4.413120474253637
 20
65.65896648914149
 30
0.0
 10
-3.3186382967678
 20
65.83359110251065
 30
0.0
 10
-2.213576232111368
 20
65.90886117067006
 30
0.0
 10
-1.107055417516354
 20
65.94302711192286
 30
0.0
 10
-0.3689821674690001
 20
65.94689739501115
 30
0.0
 10
0.0000021912816486
 20
65.94319243702067
 30
0.0
  0
ENDSEC
  0
SECTION
  2
OBJECTS
  0
DICTIONARY
  5
C
330
0
100
AcDbDictionary
281
     1
  3
ACAD_GROUP
350
D
  3
ACAD_LAYOUT
350
1A
  3
ACAD_MLEADERSTYLE
350
B1
  3
ACAD_MLINESTYLE
350
17
  3
ACAD_PLOTSETTINGS
350
19
  3
ACAD_PLOTSTYLENAME
350
E
  3
ACAD_TABLESTYLE
350
B0
  3
ACAD_VISUALSTYLE
350
2A
  0
DICTIONARY
  5
D
102
{ACAD_REACTORS
330
C
102
}
330
C
100
AcDbDictionary
281
     1
  0
DICTIONARY
  5
1A
102
{ACAD_REACTORS
330
C
102
}
330
C
100
AcDbDictionary
281
     1
  3
Layout1
350
1E
  3
Layout2
350
26
  3
Model
350
22
  0
DICTIONARY
  5
B1
102
{ACAD_REACTORS
330
C
102
}
330
C
100
AcDbDictionary
281
     1
  0
DICTIONARY
  5
17
102
{ACAD_REACTORS
330
C
102
}
330
C
100
AcDbDictionary
281
     1
  3
Standard
350
18
  0
DICTIONARY
  5
19
102
{ACAD_REACTORS
330
C
102
}
330
C
100
AcDbDictionary
281
     1
  0
ACDBDICTIONARYWDFLT
  5
E
102
{ACAD_REACTORS
330
C
102
}
330
C
100
AcDbDictionary
281
     1
  3
Normal
350
F
100
AcDbDictionaryWithDefault
340
F
  0
DICTIONARY
  5
B0
102
{ACAD_REACTORS
330
C
102
}
330
C
100
AcDbDictionary
281
     1
  0
DICTIONARY
  5
2A
102
{ACAD_REACTORS
330
C
102
}
330
C
100
AcDbDictionary
281
     1
  3
2dWireframe
350
2F
  3
3D Hidden
350
31
  3
3dWireframe
350
30
  3
Basic
350
32
  3
Brighten
350
36
  3
ColorChange
350
3A
  3
Conceptual
350
34
  3
Dim
350
35
  3
Facepattern
350
39
  3
Flat
350
2B
  3
FlatWithEdges
350
2C
  3
Gouraud
350
2D
  3
GouraudWithEdges
350
2E
  3
Linepattern
350
38
  3
Realistic
350
33
  3
Thicken
350
37
  0
LAYOUT
  5
1E
102
{ACAD_REACTORS
330
1A
102
}
330
1A
100
AcDbPlotSettings
  1

  2
none_device
  4

  6

 40
0.0
 41
0.0
 42
0.0
 43
0.0
 44
0.0
 45
0.0
 46
0.0
 47
0.0
 48
0.0
 49
0.0
140
0.0
141
0.0
142
1.0
143
1.0
 70
   688
 72
     0
 73
     0
 74
     5
  7

 75
    16
 76
     0
 77
     2
 78
   300
147
1.0
148
0.0
149
0.0
100
AcDbLayout
  1
Layout1
 70
     1
 71
     1
 10
0.0
 20
0.0
 11
12.0
 21
9.0
 12
0.0
 22
0.0
 32
0.0
 14
1.000000000000000E+20
 24
1.000000000000000E+20
 34
1.000000000000000E+20
 15
-1.000000000000000E+20
 25
-1.000000000000000E+20
 35
-1.000000000000000E+20
146
0.0
 13
0.0
 23
0.0
 33
0.0
 16
1.0
 26
0.0
 36
0.0
 17
0.0
 27
1.0
 37
0.0
 76
     0
330
1B
  0
LAYOUT
  5
26
102
{ACAD_REACTORS
330
1A
102
}
330
1A
100
AcDbPlotSettings
  1

  2
none_device
  4

  6

 40
0.0
 41
0.0
 42
0.0
 43
0.0
 44
0.0
 45
0.0
 46
0.0
 47
0.0
 48
0.0
 49
0.0
140
0.0
141
0.0
142
1.0
143
1.0
 70
   688
 72
     0
 73
     0
 74
     5
  7

 75
    16
 76
     0
 77
     2
 78
   300
147
1.0
148
0.0
149
0.0
100
AcDbLayout
  1
Layout2
 70
     1
 71
     2
 10
0.0
 20
0.0
 11
0.0
 21
0.0
 12
0.0
 22
0.0
 32
0.0
 14
0.0
 24
0.0
 34
0.0
 15
0.0
 25
0.0
 35
0.0
146
0.0
 13
0.0
 23
0.0
 33
0.0
 16
1.0
 26
0.0
 36
0.0
 17
0.0
 27
1.0
 37
0.0
 76
     0
330
23
  0
LAYOUT
  5
22
102
{ACAD_REACTORS
330
1A
102
}
330
1A
100
AcDbPlotSettings
  1

  2
none_device
  4

  6

 40
0.0
 41
0.0
 42
0.0
 43
0.0
 44
0.0
 45
0.0
 46
0.0
 47
0.0
 48
0.0
 49
0.0
140
0.0
141
0.0
142
1.0
143
1.0
 70
  1712
 72
     0
 73
     0
 74
     0
  7

 75
     0
 76
     0
 77
     2
 78
   300
147
1.0
148
0.0
149
0.0
100
AcDbLayout
  1
Model
 70
     1
 71
     0
 10
0.0
 20
0.0
 11
12.0
 21
9.0
 12
0.0
 22
0.0
 32
0.0
 14
-11.79994352254716
 24
-0.0000008859445404
 34
0.0
 15
53.70402356036561
 25
74.8005624133219
 35
0.0
146
0.0
 13
0.0
 23
0.0
 33
0.0
 16
1.0
 26
0.0
 36
0.0
 17
0.0
 27
1.0
 37
0.0
 76
     0
330
1F
331
29
  0
MLINESTYLE
  5
18
102
{ACAD_REACTORS
330
17
102
}
330
17
100
AcDbMlineStyle
  2
Standard
 70
     0
  3

 62
   256
 51
90.0
 52
90.0
 71
     2
 49
0.5
 62
   256
  6
BYLAYER
 49
-0.5
 62
   256
  6
BYLAYER
  0
ACDBPLACEHOLDER
  5
F
102
{ACAD_REACTORS
330
E
102
}
330
E
  0
VISUALSTYLE
  5
2F
102
{ACAD_REACTORS
330
2A
102
}
330
2A
100
AcDbVisualStyle
  2
2dWireframe
 70
     4
 71
     0
 72
     2
 73
     0
 90
        0
 40
-0.6
 41
-30.0
 62
     5
 63
     7
421
 16777215
 74
     1
 91
        4
 64
     7
 65
   257
 75
     1
175
     1
 42
1.0
 92
        0
 66
   257
 43
1.0
 76
     1
 77
     6
 78
     2
 67
     7
 79
     5
170
     0
171
     0
290
     0
174
     0
 93
        1
 44
0.0
173
     0
291
     0
 45
0.0
1001
ACAD
1000
AcDbSavedByObjectVersion
1070
     0
  0
VISUALSTYLE
  5
31
102
{ACAD_REACTORS
330
2A
102
}
330
2A
100
AcDbVisualStyle
  2
3D Hidden
 70
     6
 71
     1
 72
     2
 73
     2
 90
        0
 40
-0.6
 41
-30.0
 62
     5
 63
     7
421
 16777215
 74
     2
 91
        2
 64
     7
 65
   257
 75
     2
175
     1
 42
40.0
 92
        0
 66
   257
 43
1.0
 76
     1
 77
     6
 78
     2
 67
     7
 79
     3
170
     0
171
     0
290
     0
174
     0
 93
        1
 44
0.0
173
     0
291
     0
 45
0.0
1001
ACAD
1000
AcDbSavedByObjectVersion
1070
     0
  0
VISUALSTYLE
  5
30
102
{ACAD_REACTORS
330
2A
102
}
330
2A
100
AcDbVisualStyle
  2
3dWireframe
 70
     5
 71
     0
 72
     2
 73
     0
 90
        0
 40
-0.6
 41
-30.0
 62
     5
 63
     7
421
 16777215
 74
     1
 91
        4
 64
     7
 65
   257
 75
     1
175
     1
 42
1.0
 92
        0
 66
   257
 43
1.0
 76
     1
 77
     6
 78
     2
 67
     7
 79
     5
170
     0
171
     0
290
     0
174
     0
 93
        1
 44
0.0
173
     0
291
     0
 45
0.0
1001
ACAD
1000
AcDbSavedByObjectVersion
1070
     0
  0
VISUALSTYLE
  5
32
102
{ACAD_REACTORS
330
2A
102
}
330
2A
100
AcDbVisualStyle
  2
Basic
 70
     7
 71
     1
 72
     0
 73
     1
 90
        0
 40
-0.6
 41
-30.0
 62
     5
 63
     7
421
 16777215
 74
     0
 91
        4
 64
     7
 65
   257
 75
     1
175
     1
 42
1.0
 92
        8
 66
     7
 43
1.0
 76
     1
 77
     6
 78
     2
 67
     7
 79
     5
170
     0
171
     0
290
     0
174
     0
 93
        1
 44
0.0
173
     0
291
     1
 45
0.0
1001
ACAD
1000
AcDbSavedByObjectVersion
1070
     0
  0
VISUALSTYLE
  5
36
102
{ACAD_REACTORS
330
2A
102
}
330
2A
100
AcDbVisualStyle
  2
Brighten
 70
    12
 71
     2
 72
     2
 73
     0
 90
        0
 40
-0.6
 41
-30.0
 62
     5
 63
     7
421
 16777215
 74
     1
 91
        4
 64
     7
 65
   257
 75
     1
175
     1
 42
1.0
 92
        8
 66
     7
 43
1.0
 76
     1
 77
     6
 78
     2
 67
     7
 79
     5
170
     0
171
     0
290
     0
174
     0
 93
        1
 44
50.0
173
     0
291
     1
 45
0.0
1001
ACAD
1000
AcDbSavedByObjectVersion
1070
     0
  0
VISUALSTYLE
  5
3A
102
{ACAD_REACTORS
330
2A
102
}
330
2A
100
AcDbVisualStyle
  2
ColorChange
 70
    16
 71
     2
 72
     2
 73
     3
 90
        0
 40
-0.6
 41
-30.0
 62
     5
 63
     8
421
  8421504
 74
     1
 91
        4
 64
     7
 65
   257
 75
     1
175
     1
 42
1.0
 92
        8
 66
     8
424
  8421504
 43
1.0
 76
     1
 77
     6
 78
     2
 67
     7
 79
     5
170
     0
171
     0
290
     0
174
     0
 93
        1
 44
0.0
173
     0
291
     1
 45
0.0
1001
ACAD
1000
AcDbSavedByObjectVersion
1070
     0
  0
VISUALSTYLE
  5
34
102
{ACAD_REACTORS
330
2A
102
}
330
2A
100
AcDbVisualStyle
  2
Conceptual
 70
     9
 71
     3
 72
     2
 73
     0
 90
        0
 40
-0.6
 41
-30.0
 62
     5
 63
     7
421
 16777215
 74
     2
 91
        2
 64
     7
 65
   257
 75
     1
175
     1
 42
40.0
 92
        8
 66
     7
 43
1.0
 76
     1
 77
     6
 78
     2
 67
     7
 79
     3
170
     0
171
     0
290
     0
174
     0
 93
        1
 44
0.0
173
     0
291
     0
 45
0.0
1001
ACAD
1000
AcDbSavedByObjectVersion
1070
     0
  0
VISUALSTYLE
  5
35
102
{ACAD_REACTORS
330
2A
102
}
330
2A
100
AcDbVisualStyle
  2
Dim
 70
    11
 71
     2
 72
     2
 73
     0
 90
        0
 40
-0.6
 41
-30.0
 62
     5
 63
     7
421
 16777215
 74
     1
 91
        4
 64
     7
 65
   257
 75
     1
175
     1
 42
1.0
 92
        8
 66
     7
 43
1.0
 76
     1
 77
     6
 78
     2
 67
     7
 79
     5
170
     0
171
     0
290
     0
174
     0
 93
        1
 44
-50.0
173
     0
291
     1
 45
0.0
1001
ACAD
1000
AcDbSavedByObjectVersion
1070
     0
  0
VISUALSTYLE
  5
39
102
{ACAD_REACTORS
330
2A
102
}
330
2A
100
AcDbVisualStyle
  2
Facepattern
 70
    15
 71
     2
 72
     2
 73
     0
 90
        0
 40
-0.6
 41
-30.0
 62
     5
 63
     7
421
 16777215
 74
     1
 91
        4
 64
     7
 65
   257
 75
     1
175
     1
 42
1.0
 92
        8
 66
     7
 43
1.0
 76
     1
 77
     6
 78
     2
 67
     7
 79
     5
170
     0
171
     0
290
     0
174
     0
 93
        1
 44
0.0
173
     0
291
     1
 45
0.0
1001
ACAD
1000
AcDbSavedByObjectVersion
1070
     0
  0
VISUALSTYLE
  5
2B
102
{ACAD_REACTORS
330
2A
102
}
330
2A
100
AcDbVisualStyle
  2
Flat
 70
     0
 71
     2
 72
     1
 73
     1
 90
        2
 40
-0.6
 41
30.0
 62
     5
 63
     7
421
 16777215
 74
     0
 91
        4
 64
     7
 65
   257
 75
     1
175
     1
 42
1.0
 92
        8
 66
     7
 43
1.0
 76
     1
 77
     6
 78
     2
 67
     7
 79
     5
170
     0
171
     0
290
     0
174
     0
 93
       13
 44
0.0
173
     0
291
     1
 45
0.0
1001
ACAD
1000
AcDbSavedByObjectVersion
1070
     0
  0
VISUALSTYLE
  5
2C
102
{ACAD_REACTORS
330
2A
102
}
330
2A
100
AcDbVisualStyle
  2
FlatWithEdges
 70
     1
 71
     2
 72
     1
 73
     1
 90
        2
 40
-0.6
 41
30.0
 62
     5
 63
     7
421
 16777215
 74
     1
 91
        4
 64
     7
 65
   257
 75
     1
175
     1
 42
1.0
 92
        0
 66
   257
 43
1.0
 76
     1
 77
     6
 78
     2
 67
     7
 79
     5
170
     0
171
     0
290
     0
174
     0
 93
       13
 44
0.0
173
     0
291
     1
 45
0.0
1001
ACAD
1000
AcDbSavedByObjectVersion
1070
     0
  0
VISUALSTYLE
  5
2D
102
{ACAD_REACTORS
330
2A
102
}
330
2A
100
AcDbVisualStyle
  2
Gouraud
 70
     2
 71
     2
 72
     2
 73
     1
 90
        2
 40
-0.6
 41
30.0
 62
     5
 63
     7
421
 16777215
 74
     0
 91
        4
 64
     7
 65
   257
 75
     1
175
     1
 42
1.0
 92
        0
 66
     7
 43
1.0
 76
     1
 77
     6
 78
     2
 67
     7
 79
     5
170
     0
171
     0
290
     0
174
     0
 93
       13
 44
0.0
173
     0
291
     1
 45
0.0
1001
ACAD
1000
AcDbSavedByObjectVersion
1070
     0
  0
VISUALSTYLE
  5
2E
102
{ACAD_REACTORS
330
2A
102
}
330
2A
100
AcDbVisualStyle
  2
GouraudWithEdges
 70
     3
 71
     2
 72
     2
 73
     1
 90
        2
 40
-0.6
 41
30.0
 62
     5
 63
     7
421
 16777215
 74
     1
 91
        4
 64
     7
 65
   257
 75
     1
175
     1
 42
1.0
 92
        0
 66
   257
 43
1.0
 76
     1
 77
     6
 78
     2
 67
     7
 79
     5
170
     0
171
     0
290
     0
174
     0
 93
       13
 44
0.0
173
     0
291
     1
 45
0.0
1001
ACAD
1000
AcDbSavedByObjectVersion
1070
     0
  0
VISUALSTYLE
  5
38
102
{ACAD_REACTORS
330
2A
102
}
330
2A
100
AcDbVisualStyle
  2
Linepattern
 70
    14
 71
     2
 72
     2
 73
     0
 90
        0
 40
-0.6
 41
-30.0
 62
     5
 63
     7
421
 16777215
 74
     1
 91
        4
 64
     7
 65
   257
 75
     7
175
     7
 42
1.0
 92
        8
 66
     7
 43
1.0
 76
     1
 77
     6
 78
     2
 67
     7
 79
     5
170
     0
171
     0
290
     0
174
     0
 93
        1
 44
0.0
173
     0
291
     1
 45
0.0
1001
ACAD
1000
AcDbSavedByObjectVersion
1070
     0
  0
VISUALSTYLE
  5
33
102
{ACAD_REACTORS
330
2A
102
}
330
2A
100
AcDbVisualStyle
  2
Realistic
 70
     8
 71
     2
 72
     2
 73
     0
 90
        0
 40
-0.6
 41
-30.0
 62
     5
 63
     7
421
 16777215
 74
     1
 91
        0
 64
     7
 65
   257
 75
     1
175
     1
 42
1.0
 92
        8
 66
     8
424
  7895160
 43
1.0
 76
     1
 77
     6
 78
     2
 67
     7
 79
     5
170
     0
171
     0
290
     0
174
     0
 93
       13
 44
0.0
173
     0
291
     0
 45
0.0
1001
ACAD
1000
AcDbSavedByObjectVersion
1070
     0
  0
VISUALSTYLE
  5
37
102
{ACAD_REACTORS
330
2A
102
}
330
2A
100
AcDbVisualStyle
  2
Thicken
 70
    13
 71
     2
 72
     2
 73
     0
 90
        0
 40
-0.6
 41
-30.0
 62
     5
 63
     7
421
 16777215
 74
     1
 91
        4
 64
     7
 65
   257
 75
     1
175
     1
 42
1.0
 92
       12
 66
     7
 43
1.0
 76
     1
 77
     6
 78
     2
 67
     7
 79
     5
170
     0
171
     0
290
     0
174
     0
 93
        1
 44
0.0
173
     0
291
     1
 45
0.0
1001
ACAD
1000
AcDbSavedByObjectVersion
1070
     0
  0
ENDSEC
  0
EOF
