  0
SECTION
  2
HEADER
  9
$ACADVER
  1
AC1018
  9
$ACADMAINTVER
 70
     0
  9
$DWGCODEPAGE
  3
ANSI_1252
  9
$INSBASE
 10
0.0
 20
0.0
 30
0.0
  9
$EXTMIN
 10
-13.41000108012884
 20
-0.000000000000008
 30
0.0
  9
$EXTMAX
 10
56.72428193428701
 20
75.42240730340741
 30
0.0
  9
$LIMMIN
 10
0.0
 20
0.0
  9
$LIMMAX
 10
12.0
 20
9.0
  9
$ORTHOMODE
 70
     0
  9
$REGENMODE
 70
     1
  9
$FILLMODE
 70
     1
  9
$QTEXTMODE
 70
     0
  9
$MIRRTEXT
 70
     1
  9
$LTSCALE
 40
0.0393700787401575
  9
$ATTMODE
 70
     1
  9
$TEXTSIZE
 40
0.2
  9
$TRACEWID
 40
0.05
  9
$TEXTSTYLE
  7
Standard
  9
$CLAYER
  8
Default
  9
$CELTYPE
  6
ByLayer
  9
$CECOLOR
 62
   256
  9
$CELTSCALE
 40
1.0
  9
$DISPSILH
 70
     0
  9
$DIMSCALE
 40
1.0
  9
$DIMASZ
 40
0.18
  9
$DIMEXO
 40
0.0625
  9
$DIMDLI
 40
0.38
  9
$DIMRND
 40
0.0
  9
$DIMDLE
 40
0.0
  9
$DIMEXE
 40
0.18
  9
$DIMTP
 40
0.0
  9
$DIMTM
 40
0.0
  9
$DIMTXT
 40
0.18
  9
$DIMCEN
 40
0.09
  9
$DIMTSZ
 40
0.0
  9
$DIMTOL
 70
     0
  9
$DIMLIM
 70
     0
  9
$DIMTIH
 70
     1
  9
$DIMTOH
 70
     1
  9
$DIMSE1
 70
     0
  9
$DIMSE2
 70
     0
  9
$DIMTAD
 70
     0
  9
$DIMZIN
 70
     0
  9
$DIMBLK
  1

  9
$DIMASO
 70
     1
  9
$DIMSHO
 70
     1
  9
$DIMPOST
  1

  9
$DIMAPOST
  1

  9
$DIMALT
 70
     0
  9
$DIMALTD
 70
     2
  9
$DIMALTF
 40
25.4
  9
$DIMLFAC
 40
1.0
  9
$DIMTOFL
 70
     0
  9
$DIMTVP
 40
0.0
  9
$DIMTIX
 70
     0
  9
$DIMSOXD
 70
     0
  9
$DIMSAH
 70
     0
  9
$DIMBLK1
  1

  9
$DIMBLK2
  1

  9
$DIMSTYLE
  2
Standard
  9
$DIMCLRD
 70
     0
  9
$DIMCLRE
 70
     0
  9
$DIMCLRT
 70
     0
  9
$DIMTFAC
 40
1.0
  9
$DIMGAP
 40
0.09
  9
$DIMJUST
 70
     0
  9
$DIMSD1
 70
     0
  9
$DIMSD2
 70
     0
  9
$DIMTOLJ
 70
     1
  9
$DIMTZIN
 70
     0
  9
$DIMALTZ
 70
     0
  9
$DIMALTTZ
 70
     0
  9
$DIMUPT
 70
     0
  9
$DIMDEC
 70
     4
  9
$DIMTDEC
 70
     4
  9
$DIMALTU
 70
     2
  9
$DIMALTTD
 70
     2
  9
$DIMTXSTY
  7
Standard
  9
$DIMAUNIT
 70
     0
  9
$DIMADEC
 70
     0
  9
$DIMALTRND
 40
0.0
  9
$DIMAZIN
 70
     0
  9
$DIMDSEP
 70
    46
  9
$DIMATFIT
 70
     3
  9
$DIMFRAC
 70
     0
  9
$DIMLDRBLK
  1

  9
$DIMLUNIT
 70
     2
  9
$DIMLWD
 70
    -2
  9
$DIMLWE
 70
    -2
  9
$DIMTMOVE
 70
     2
  9
$LUNITS
 70
     2
  9
$LUPREC
 70
     3
  9
$SKETCHINC
 40
0.1
  9
$FILLETRAD
 40
0.5
  9
$AUNITS
 70
     0
  9
$AUPREC
 70
     0
  9
$MENU
  1
.
  9
$ELEVATION
 40
0.0
  9
$PELEVATION
 40
0.0
  9
$THICKNESS
 40
0.0
  9
$LIMCHECK
 70
     0
  9
$CHAMFERA
 40
0.5
  9
$CHAMFERB
 40
0.5
  9
$CHAMFERC
 40
1.0
  9
$CHAMFERD
 40
0.0
  9
$SKPOLY
 70
     0
  9
$TDCREATE
 40
2457983.67774787
  9
$TDUCREATE
 40
2457983.844414537
  9
$TDUPDATE
 40
2457983.677747882
  9
$TDUUPDATE
 40
2457983.844414548
  9
$TDINDWG
 40
0.0000000116
  9
$TDUSRTIMER
 40
0.0000000116
  9
$USRTIMER
 70
     1
  9
$ANGBASE
 50
0.0
  9
$ANGDIR
 70
     0
  9
$PDMODE
 70
     0
  9
$PDSIZE
 40
0.0
  9
$PLINEWID
 40
0.0
  9
$SPLFRAME
 70
     0
  9
$SPLINETYPE
 70
     6
  9
$SPLINESEGS
 70
     8
  9
$HANDSEED
  5
294
  9
$SURFTAB1
 70
     6
  9
$SURFTAB2
 70
     6
  9
$SURFTYPE
 70
     6
  9
$SURFU
 70
     6
  9
$SURFV
 70
     6
  9
$UCSBASE
  2

  9
$UCSNAME
  2

  9
$UCSORG
 10
0.0
 20
0.0
 30
0.0
  9
$UCSXDIR
 10
1.0
 20
0.0
 30
0.0
  9
$UCSYDIR
 10
0.0
 20
1.0
 30
0.0
  9
$UCSORTHOREF
  2

  9
$UCSORTHOVIEW
 70
     0
  9
$UCSORGTOP
 10
0.0
 20
0.0
 30
0.0
  9
$UCSORGBOTTOM
 10
0.0
 20
0.0
 30
0.0
  9
$UCSORGLEFT
 10
0.0
 20
0.0
 30
0.0
  9
$UCSORGRIGHT
 10
0.0
 20
0.0
 30
0.0
  9
$UCSORGFRONT
 10
0.0
 20
0.0
 30
0.0
  9
$UCSORGBACK
 10
0.0
 20
0.0
 30
0.0
  9
$PUCSBASE
  2

  9
$PUCSNAME
  2

  9
$PUCSORG
 10
0.0
 20
0.0
 30
0.0
  9
$PUCSXDIR
 10
1.0
 20
0.0
 30
0.0
  9
$PUCSYDIR
 10
0.0
 20
1.0
 30
0.0
  9
$PUCSORTHOREF
  2

  9
$PUCSORTHOVIEW
 70
     0
  9
$PUCSORGTOP
 10
0.0
 20
0.0
 30
0.0
  9
$PUCSORGBOTTOM
 10
0.0
 20
0.0
 30
0.0
  9
$PUCSORGLEFT
 10
0.0
 20
0.0
 30
0.0
  9
$PUCSORGRIGHT
 10
0.0
 20
0.0
 30
0.0
  9
$PUCSORGFRONT
 10
0.0
 20
0.0
 30
0.0
  9
$PUCSORGBACK
 10
0.0
 20
0.0
 30
0.0
  9
$USERI1
 70
     0
  9
$USERI2
 70
     0
  9
$USERI3
 70
     0
  9
$USERI4
 70
     0
  9
$USERI5
 70
     0
  9
$USERR1
 40
0.0
  9
$USERR2
 40
0.0
  9
$USERR3
 40
0.0
  9
$USERR4
 40
0.0
  9
$USERR5
 40
0.0
  9
$WORLDVIEW
 70
     1
  9
$SHADEDGE
 70
     3
  9
$SHADEDIF
 70
    70
  9
$TILEMODE
 70
     1
  9
$MAXACTVP
 70
    64
  9
$PINSBASE
 10
0.0
 20
0.0
 30
0.0
  9
$PLIMCHECK
 70
     0
  9
$PEXTMIN
 10
1.000000000000000E+20
 20
1.000000000000000E+20
 30
1.000000000000000E+20
  9
$PEXTMAX
 10
-1.000000000000000E+20
 20
-1.000000000000000E+20
 30
-1.000000000000000E+20
  9
$PLIMMIN
 10
0.0
 20
0.0
  9
$PLIMMAX
 10
12.0
 20
9.0
  9
$UNITMODE
 70
     0
  9
$VISRETAIN
 70
     1
  9
$PLINEGEN
 70
     0
  9
$PSLTSCALE
 70
     1
  9
$TREEDEPTH
 70
  3020
  9
$CMLSTYLE
  2
Standard
  9
$CMLJUST
 70
     0
  9
$CMLSCALE
 40
1.0
  9
$PROXYGRAPHICS
 70
     1
  9
$MEASUREMENT
 70
     0
  9
$CELWEIGHT
370
    -1
  9
$ENDCAPS
280
     0
  9
$JOINSTYLE
280
     0
  9
$LWDISPLAY
290
     0
  9
$INSUNITS
 70
     1
  9
$HYPERLINKBASE
  1

  9
$STYLESHEET
  1

  9
$XEDIT
290
     1
  9
$CEPSNTYPE
380
     0
  9
$PSTYLEMODE
290
     1
  9
$FINGERPRINTGUID
  2
{BAECA7F0-9047-4206-A763-25E5D3077BB9}
  9
$VERSIONGUID
  2
{FAEB1C32-E019-11D5-929B-00C0DF256EC4}
  9
$EXTNAMES
290
     1
  9
$PSVPSCALE
 40
0.0
  9
$OLESTARTUP
290
     0
  9
$SORTENTS
280
   127
  9
$INDEXCTL
280
     0
  9
$HIDETEXT
280
     1
  9
$XCLIPFRAME
290
     0
  9
$HALOGAP
280
     0
  9
$OBSCOLOR
 70
   257
  9
$OBSLTYPE
280
     0
  9
$INTERSECTIONDISPLAY
280
     0
  9
$INTERSECTIONCOLOR
 70
   257
  9
$DIMASSOC
280
     2
  9
$PROJECTNAME
  1

  0
ENDSEC
  0
SECTION
  2
CLASSES
  0
CLASS
  1
ACDBDICTIONARYWDFLT
  2
AcDbDictionaryWithDefault
  3
ObjectDBX Classes
 90
        0
 91
        4
280
     0
281
     0
  0
CLASS
  1
VISUALSTYLE
  2
AcDbVisualStyle
  3
ObjectDBX Classes
 90
     4095
 91
        4
280
     0
281
     0
  0
ENDSEC
  0
SECTION
  2
TABLES
  0
TABLE
  2
VPORT
  5
8
330
0
100
AcDbSymbolTable
 70
     1
  0
VPORT
  5
29
330
8
100
AcDbSymbolTableRecord
100
AcDbViewportTableRecord
  2
*Active
 70
     0
 10
0.0
 20
0.0
 11
1.0
 21
1.0
 12
21.65714042707909
 22
37.7112036517037
 13
0.0
 23
0.0
 14
0.5
 24
0.5
 15
0.5
 25
0.5
 16
0.0
 26
0.0
 36
1.0
 17
0.0
 27
0.0
 37
0.0
 40
76.93085544947557
 41
0.9298865618579549
 42
50.0
 43
0.0
 44
0.0
 50
0.0
 51
0.0
 71
     0
 72
   100
 73
     1
 74
     3
 75
     0
 76
     0
 77
     0
 78
     0
281
     0
 65
     1
110
0.0
120
0.0
130
0.0
111
1.0
121
0.0
131
0.0
112
0.0
122
1.0
132
0.0
 79
     0
146
0.0
  0
ENDTAB
  0
TABLE
  2
LTYPE
  5
5
330
0
100
AcDbSymbolTable
 70
     1
  0
LTYPE
  5
14
330
5
100
AcDbSymbolTableRecord
100
AcDbLinetypeTableRecord
  2
ByBlock
 70
     0
  3

 72
    65
 73
     0
 40
0.0
  0
LTYPE
  5
15
330
5
100
AcDbSymbolTableRecord
100
AcDbLinetypeTableRecord
  2
ByLayer
 70
     0
  3

 72
    65
 73
     0
 40
0.0
  0
LTYPE
  5
16
330
5
100
AcDbSymbolTableRecord
100
AcDbLinetypeTableRecord
  2
Continuous
 70
     0
  3
Solid line
 72
    65
 73
     0
 40
0.0
  0
ENDTAB
  0
TABLE
  2
LAYER
  5
2
330
0
100
AcDbSymbolTable
 70
     2
  0
LAYER
  5
10
330
2
100
AcDbSymbolTableRecord
100
AcDbLayerTableRecord
  2
0
 70
     0
 62
     7
  6
Continuous
370
    -3
390
F
  0
LAYER
  5
3B
330
2
100
AcDbSymbolTableRecord
100
AcDbLayerTableRecord
  2
Default
 70
     0
 62
     7
  6
Continuous
370
    -3
390
F
  0
ENDTAB
  0
TABLE
  2
STYLE
  5
3
330
0
100
AcDbSymbolTable
 70
     1
  0
STYLE
  5
11
330
3
100
AcDbSymbolTableRecord
100
AcDbTextStyleTableRecord
  2
Standard
 70
     0
 40
0.0
 41
1.0
 50
0.0
 71
     0
 42
0.2
  3
txt
  4

  0
ENDTAB
  0
TABLE
  2
VIEW
  5
6
330
0
100
AcDbSymbolTable
 70
     0
  0
ENDTAB
  0
TABLE
  2
UCS
  5
7
330
0
100
AcDbSymbolTable
 70
     0
  0
ENDTAB
  0
TABLE
  2
APPID
  5
9
330
0
100
AcDbSymbolTable
 70
     1
  0
APPID
  5
12
330
9
100
AcDbSymbolTableRecord
100
AcDbRegAppTableRecord
  2
ACAD
 70
     0
  0
ENDTAB
  0
TABLE
  2
DIMSTYLE
  5
A
330
0
100
AcDbSymbolTable
 70
     1
100
AcDbDimStyleTable
  0
DIMSTYLE
105
27
330
A
100
AcDbSymbolTableRecord
100
AcDbDimStyleTableRecord
  2
Standard
 70
     0
340
11
  0
ENDTAB
  0
TABLE
  2
BLOCK_RECORD
  5
1
330
0
100
AcDbSymbolTable
 70
     1
  0
BLOCK_RECORD
  5
1F
330
1
100
AcDbSymbolTableRecord
100
AcDbBlockTableRecord
  2
*Model_Space
340
22
  0
BLOCK_RECORD
  5
1B
330
1
100
AcDbSymbolTableRecord
100
AcDbBlockTableRecord
  2
*Paper_Space
340
1E
  0
BLOCK_RECORD
  5
23
330
1
100
AcDbSymbolTableRecord
100
AcDbBlockTableRecord
  2
*Paper_Space0
340
26
  0
ENDTAB
  0
ENDSEC
  0
SECTION
  2
BLOCKS
  0
BLOCK
  5
20
330
1F
100
AcDbEntity
  8
0
100
AcDbBlockBegin
  2
*Model_Space
 70
     0
 10
0.0
 20
0.0
 30
0.0
  3
*Model_Space
  1

  0
ENDBLK
  5
21
330
1F
100
AcDbEntity
  8
0
100
AcDbBlockEnd
  0
BLOCK
  5
1C
330
1B
100
AcDbEntity
 67
     1
  8
0
100
AcDbBlockBegin
  2
*Paper_Space
 70
     0
 10
0.0
 20
0.0
 30
0.0
  3
*Paper_Space
  1

  0
ENDBLK
  5
1D
330
1B
100
AcDbEntity
 67
     1
  8
0
100
AcDbBlockEnd
  0
BLOCK
  5
24
330
23
100
AcDbEntity
  8
0
100
AcDbBlockBegin
  2
*Paper_Space0
 70
     0
 10
0.0
 20
0.0
 30
0.0
  3
*Paper_Space0
  1

  0
ENDBLK
  5
25
330
23
100
AcDbEntity
  8
0
100
AcDbBlockEnd
  0
ENDSEC
  0
SECTION
  2
ENTITIES
  0
LINE
  5
3C
330
1F
100
AcDbEntity
  8
Default
100
AcDbLine
 10
42.5438960020274
 20
11.4485
 30
0.0
 11
42.5438960020274
 21
8.655698657696227
 31
0.0
  0
LINE
  5
3D
330
1F
100
AcDbEntity
  8
Default
100
AcDbLine
 10
43.6454660020274
 20
11.44849999999986
 30
0.0
 11
43.6454660020274
 21
8.655698657696227
 31
0.0
  0
LINE
  5
3E
330
1F
100
AcDbEntity
  8
Default
100
AcDbLine
 10
0.5507850000000047
 20
11.4485000000005
 30
0.0
 11
0.5507850000000047
 21
8.655699367598153
 31
0.0
  0
LINE
  5
3F
330
1F
100
AcDbEntity
  8
Default
100
AcDbLine
 10
-0.5507849999999959
 20
8.655699367598153
 30
0.0
 11
-0.5507849999999959
 21
11.44850000000001
 31
0.0
  0
SPLINE
  5
40
330
1F
100
AcDbEntity
  8
Default
100
AcDbSpline
210
0.0
220
0.0
230
1.0
 70
    12
 71
     2
 72
     6
 73
     3
 74
     0
 42
0.0000000001
 43
0.0000000001
 40
0.0
 40
0.0
 40
0.0
 40
0.1180357388021486
 40
0.1180357388021486
 40
0.1180357388021486
 10
32.71064928371663
 20
3.839516775170411
 30
0.0
 41
1.0
 10
32.70405761984279
 20
3.780867979141184
 30
0.0
 41
0.9999951768258929
 10
32.697101775779
 20
3.722261259887638
 30
0.0
 41
1.0
  0
SPLINE
  5
41
330
1F
100
AcDbEntity
  8
Default
100
AcDbSpline
210
0.0
220
0.0
230
1.0
 70
    12
 71
     2
 72
    10
 73
     7
 74
     0
 42
0.0000000001
 43
0.0000000001
 40
0.0
 40
0.0
 40
0.0
 40
0.0071333852786713
 40
0.0071333852786713
 40
0.0141242748215342
 40
0.0141242748215342
 40
0.0209746380740941
 40
0.0209746380740941
 40
0.0209746380740941
 10
44.84265834420067
 20
8.147297845831524
 30
0.0
 41
1.0
 10
44.83909421602077
 20
8.147434264393485
 30
0.0
 41
0.9999809385415936
 10
44.8355286750294
 20
8.14752666106915
 30
0.0
 41
1.0
 10
44.83203437437999
 20
8.147617867951416
 30
0.0
 41
0.9999802609803023
 10
44.82853920351847
 20
8.147665158249184
 30
0.0
 41
1.0
 10
44.82511427992829
 20
8.147711168083998
 30
0.0
 41
0.9999776685048076
 10
44.82168904731564
 20
8.14771139730118
 30
0.0
 41
1.0
  0
SPLINE
  5
42
330
1F
100
AcDbEntity
  8
Default
100
AcDbSpline
210
0.0
220
0.0
230
1.0
 70
    12
 71
     3
 72
    12
 73
     8
 74
     0
 42
0.0000000001
 43
0.0000000001
 40
-0.3265855548606079
 40
-0.3265855548606079
 40
-0.3265855548606079
 40
-0.3265855548606079
 40
-0.2502593957580706
 40
-0.2502593957580706
 40
-0.1251434744293852
 40
-0.1251434744293852
 40
0.0
 40
0.0
 40
0.0
 40
0.0
 10
44.67276010691854
 20
8.080065901003303
 30
0.0
 41
1.0
 10
44.67376852059602
 20
8.08669131163467
 30
0.0
 41
1.0
 10
44.67592002289818
 20
8.093326632710289
 30
0.0
 41
1.0
 10
44.68559779425133
 20
8.110585538891439
 30
0.0
 41
1.0
 10
44.69539382844521
 20
8.121116694457392
 30
0.0
 41
1.0
 10
44.73221855942419
 20
8.138448271008269
 30
0.0
 41
1.0
 10
44.75898947692725
 20
8.14540126437782
 30
0.0
 41
1.0
 10
44.80207488072697
 20
8.147297834903878
 30
0.0
 41
1.0
  0
SPLINE
  5
43
330
1F
100
AcDbEntity
  8
Default
100
AcDbSpline
210
0.0
220
0.0
230
1.0
 70
    24
 71
     2
 72
     6
 73
     3
 74
     0
 42
0.0000000001
 43
0.0000000001
 40
0.0
 40
0.0
 40
0.0
 40
0.1002871374692929
 40
0.1002871374692929
 40
0.1002871374692929
 10
47.51289229773128
 20
2.559999999999986
 30
0.0
 10
47.52063330543832
 20
2.609542449325042
 30
0.0
 10
47.52837431314536
 20
2.659084898650099
 30
0.0
  0
SPLINE
  5
44
330
1F
100
AcDbEntity
  8
Default
100
AcDbSpline
210
0.0
220
0.0
230
1.0
 70
    24
 71
     2
 72
     6
 73
     3
 74
     0
 42
0.0000000001
 43
0.0000000001
 40
0.0
 40
0.0
 40
0.0
 40
0.1002871374692929
 40
0.1002871374692929
 40
0.1002871374692929
 10
46.80991028231701
 20
2.659084898650099
 30
0.0
 10
46.81765129002405
 20
2.609542449325042
 30
0.0
 10
46.82539229773109
 20
2.559999999999986
 30
0.0
  0
SPLINE
  5
45
330
1F
100
AcDbEntity
  8
Default
100
AcDbSpline
210
0.0
220
0.0
230
1.0
 70
    12
 71
     2
 72
    42
 73
    39
 74
     0
 42
0.0000000001
 43
0.0000000001
 40
0.0
 40
0.0
 40
0.0
 40
0.0409340454553706
 40
0.0409340454553706
 40
0.0852030566016373
 40
0.0852030566016373
 40
0.1335798162228983
 40
0.1335798162228983
 40
0.1864459534839478
 40
0.1864459534839478
 40
0.2447079363980674
 40
0.2447079363980674
 40
0.3081599735567979
 40
0.3081599735567979
 40
0.3750746831064281
 40
0.3750746831064281
 40
0.4434835590212436
 40
0.4434835590212436
 40
0.5143337664584579
 40
0.5143337664584579
 40
0.5854834564686641
 40
0.5854834564686641
 40
0.6499898892693673
 40
0.6499898892693673
 40
0.7042800850380747
 40
0.7042800850380747
 40
0.7502842153448611
 40
0.7502842153448611
 40
0.7894119829068335
 40
0.7894119829068335
 40
0.8225216991404656
 40
0.8225216991404656
 40
0.8505535241757113
 40
0.8505535241757113
 40
0.874443083104413
 40
0.874443083104413
 40
0.895027868548681
 40
0.895027868548681
 40
0.9130430718511274
 40
0.9130430718511274
 40
0.9130430718511274
 10
45.72909429416401
 20
7.936590584122001
 30
0.0
 41
1.0
 10
45.70955434415814
 20
7.942680693356877
 30
0.0
 41
0.9999998972499533
 10
45.69000888063287
 20
7.948753084344555
 30
0.0
 41
1.0
 10
45.66887121969245
 20
7.955320876057687
 30
0.0
 41
0.999999600378785
 10
45.6477218492873
 20
7.961850863001397
 30
0.0
 41
1.0
 10
45.624610247836
 20
7.968987569503795
 30
0.0
 41
0.9999987392957616
 10
45.60147609829603
 20
7.976050842569901
 30
0.0
 41
1.0
 10
45.57619546190173
 20
7.983770928617108
 30
0.0
 41
0.999996578141385
 10
45.55087477944557
 20
7.991358638748007
 30
0.0
 41
1.0
 10
45.52296950398866
 20
7.999720396860707
 30
0.0
 41
0.9999922812115397
 10
45.49499938290628
 20
8.007862615458762
 30
0.0
 41
1.0
 10
45.46453487999811
 20
8.016720770804064
 30
0.0
 41
0.9999906125127653
 10
45.43399475697692
 20
8.025314590642463
 30
0.0
 41
1.0
 10
45.40179044928488
 20
8.034386055944951
 30
0.0
 41
0.9999904002010442
 10
45.36950788165403
 20
8.04317495484159
 30
0.0
 41
1.0
 10
45.3365047256484
 20
8.052161492082812
 30
0.0
 41
0.999985523974095
 10
45.30340677447591
 20
8.060792354502148
 30
0.0
 41
1.0
 10
45.26912685897468
 20
8.069728773922785
 30
0.0
 41
0.9999795461313021
 10
45.2347354378248
 20
8.078225970526635
 30
0.0
 41
1.0
 10
45.20019908860337
 20
8.086761445259013
 30
0.0
 41
0.9999738371872798
 10
45.1655428724505
 20
8.094796395689341
 30
0.0
 41
1.0
 10
45.13412432117208
 20
8.102089711180959
 30
0.0
 41
0.9999655053629528
 10
45.10258895388987
 20
8.108860119268291
 30
0.0
 41
1.0
 10
45.07604732124933
 20
8.1145559069699
 30
0.0
 41
0.9999552975315221
 10
45.04940272831585
 20
8.119748779794739
 30
0.0
 41
1.0
 10
45.0268239561449
 20
8.124145163832894
 30
0.0
 41
0.999951603366058
 10
45.00416305365659
 20
8.128096447646334
 30
0.0
 41
1.0
 10
44.98488951368422
 20
8.131458201366213
 30
0.0
 41
0.9999506573079607
 10
44.96555299010019
 20
8.134436386521967
 30
0.0
 41
1.0
 10
44.94919063687409
 20
8.136957687707305
 30
0.0
 41
0.9999446276555926
 10
44.93277884532945
 20
8.139134074864707
 30
0.0
 41
1.0
 10
44.91888384355079
 20
8.140975520535235
 30
0.0
 41
0.9999381830114642
 10
44.90495133024923
 20
8.142507535446812
 30
0.0
 41
1.0
 10
44.89307753752967
 20
8.143812630190967
 30
0.0
 41
0.9999344590014719
 10
44.88117697570477
 20
8.144845516481405
 30
0.0
 41
1.0
 10
44.87092264754924
 20
8.145735426065919
 30
0.0
 41
0.9999303607910578
 10
44.86065017277255
 20
8.146383073309623
 30
0.0
 41
1.0
 10
44.85165992601391
 20
8.146948952507662
 30
0.0
 41
0.9999272729384641
 10
44.84265864623796
 20
8.147297834210121
 30
0.0
 41
1.0
  0
SPLINE
  5
46
330
1F
100
AcDbEntity
  8
Default
100
AcDbSpline
210
0.0
220
0.0
230
1.0
 70
    12
 71
     2
 72
     6
 73
     3
 74
     0
 42
0.0000000001
 43
0.0000000001
 40
0.0
 40
0.0
 40
0.0
 40
0.0053815498448406
 40
0.0053815498448406
 40
0.0053815498448406
 10
40.89421409255596
 20
7.340092902383963
 30
0.0
 41
1.0
 10
40.8929520914794
 20
7.342469390515981
 30
0.0
 41
0.9999924510718384
 10
40.89167166053839
 20
7.344835999728373
 30
0.0
 41
1.0
  0
SPLINE
  5
47
330
1F
100
AcDbEntity
  8
Default
100
AcDbSpline
210
0.0
220
0.0
230
1.0
 70
    12
 71
     2
 72
     6
 73
     3
 74
     0
 42
0.0000000001
 43
0.0000000001
 40
0.0
 40
0.0
 40
0.0
 40
0.0196191255512342
 40
0.0196191255512342
 40
0.0196191255512342
 10
44.80207514429983
 20
8.147297845144776
 30
0.0
 41
1.0
 10
44.81187851486165
 20
8.147672271082643
 30
0.0
 41
0.9998539107205031
 10
44.82168895513348
 20
8.147711396874769
 30
0.0
 41
1.0
  0
SPLINE
  5
48
330
1F
100
AcDbEntity
  8
Default
100
AcDbSpline
210
0.0
220
0.0
230
1.0
 70
    24
 71
     2
 72
     6
 73
     3
 74
     0
 42
0.0000000001
 43
0.0000000001
 40
0.0
 40
0.0
 40
0.0
 40
1.164986319490939
 40
1.164986319490939
 40
1.164986319490939
 10
47.52851729773119
 20
1.395013680509061
 30
0.0
 10
47.52851729773119
 20
1.977506840254531
 30
0.0
 10
47.52851729773119
 20
2.56
 30
0.0
  0
SPLINE
  5
49
330
1F
100
AcDbEntity
  8
Default
100
AcDbSpline
210
0.0
220
0.0
230
1.0
 70
    24
 71
     2
 72
     6
 73
     3
 74
     0
 42
0.0000000001
 43
0.0000000001
 40
0.0
 40
0.0
 40
0.0
 40
1.164986319490939
 40
1.164986319490939
 40
1.164986319490939
 10
56.635728671037
 20
1.395013680509062
 30
0.0
 10
56.635728671037
 20
1.977506840254531
 30
0.0
 10
56.635728671037
 20
2.56
 30
0.0
  0
SPLINE
  5
4A
330
1F
100
AcDbEntity
  8
Default
100
AcDbSpline
210
0.0
220
0.0
230
1.0
 70
    24
 71
     2
 72
     6
 73
     3
 74
     0
 42
0.0000000001
 43
0.0000000001
 40
0.0
 40
0.0
 40
0.0
 40
0.1007968950763969
 40
0.1007968950763969
 40
0.1007968950763969
 10
56.62010367103709
 20
2.559999999999986
 30
0.0
 10
56.62788402613868
 20
2.609794272650101
 30
0.0
 10
56.63566438124026
 20
2.659588545300215
 30
0.0
  0
SPLINE
  5
4B
330
1F
100
AcDbEntity
  8
Default
100
AcDbSpline
210
0.0
220
0.0
230
1.0
 70
    24
 71
     2
 72
     6
 73
     3
 74
     0
 42
0.0000000001
 43
0.0000000001
 40
0.0
 40
0.0
 40
0.0
 40
1.164986319490939
 40
1.164986319490939
 40
1.164986319490939
 10
32.79273975299281
 20
1.395013680509061
 30
0.0
 10
32.79273975299281
 20
1.977506840254531
 30
0.0
 10
32.79273975299281
 20
2.56
 30
0.0
  0
SPLINE
  5
4C
330
1F
100
AcDbEntity
  8
Default
100
AcDbSpline
210
0.0
220
0.0
230
1.0
 70
    24
 71
     2
 72
     6
 73
     3
 74
     0
 42
0.0000000001
 43
0.0000000001
 40
0.0
 40
0.0
 40
0.0
 40
0.1012133421294007
 40
0.1012133421294007
 40
0.1012133421294007
 10
32.77711475299291
 20
2.559999999999986
 30
0.0
 10
32.78492725299291
 20
2.609999999999994
 30
0.0
 10
32.79273975299291
 20
2.660000000000002
 30
0.0
  0
SPLINE
  5
4D
330
1F
100
AcDbEntity
  8
Default
100
AcDbSpline
210
0.0
220
0.0
230
1.0
 70
    24
 71
     2
 72
     6
 73
     3
 74
     0
 42
0.0000000001
 43
0.0000000001
 40
0.0
 40
0.0
 40
0.0
 40
0.1002871374692938
 40
0.1002871374692938
 40
0.1002871374692938
 10
32.07413273757863
 20
2.659084898650097
 30
0.0
 10
32.08187374528568
 20
2.609542449325042
 30
0.0
 10
32.08961475299273
 20
2.559999999999986
 30
0.0
  0
SPLINE
  5
4E
330
1F
100
AcDbEntity
  8
Default
100
AcDbSpline
210
0.0
220
0.0
230
1.0
 70
    24
 71
     2
 72
     6
 73
     3
 74
     0
 42
0.0000000001
 43
0.0000000001
 40
0.0
 40
0.0
 40
0.0
 40
0.1002871374692929
 40
0.1002871374692929
 40
0.1002871374692929
 10
55.91712165562283
 20
2.659084898650099
 30
0.0
 10
55.92486266332987
 20
2.609542449325042
 30
0.0
 10
55.93260367103691
 20
2.559999999999986
 30
0.0
  0
SPLINE
  5
4F
330
1F
100
AcDbEntity
  8
Default
100
AcDbSpline
210
0.0
220
0.0
230
1.0
 70
    12
 71
     2
 72
     6
 73
     3
 74
     0
 42
0.0000000001
 43
0.0000000001
 40
0.0
 40
0.0
 40
0.0
 40
0.0775467449539539
 40
0.0775467449539539
 40
0.0775467449539539
 10
44.71435866778439
 20
8.014243103142
 30
0.0
 41
1.0
 10
44.68802171968113
 20
8.043298927658743
 30
0.0
 41
0.9831643185963373
 10
44.67388304712449
 20
8.079877250639356
 30
0.0
 41
1.0
  0
POLYLINE
  5
50
330
1F
100
AcDbEntity
  8
Default
100
AcDb2dPolyline
 66
     1
 10
0.0
 20
0.0
 30
0.0
  0
VERTEX
  5
51
330
50
100
AcDbEntity
  8
Default
100
AcDbVertex
100
AcDb2dVertex
 10
56.635728671037
 20
2.56
 30
0.0
  0
VERTEX
  5
52
330
50
100
AcDbEntity
  8
Default
100
AcDbVertex
100
AcDb2dVertex
 10
55.35572867103695
 20
2.56
 30
0.0
  0
SEQEND
  5
53
330
50
100
AcDbEntity
  8
Default
  0
POLYLINE
  5
54
330
1F
100
AcDbEntity
  8
Default
100
AcDb2dPolyline
 66
     1
 10
0.0
 20
0.0
 30
0.0
  0
VERTEX
  5
55
330
54
100
AcDbEntity
  8
Default
100
AcDbVertex
100
AcDb2dVertex
 10
47.52851729773119
 20
2.56
 30
0.0
  0
VERTEX
  5
56
330
54
100
AcDbEntity
  8
Default
100
AcDbVertex
100
AcDb2dVertex
 10
46.24851729773114
 20
2.56
 30
0.0
  0
SEQEND
  5
57
330
54
100
AcDbEntity
  8
Default
  0
POLYLINE
  5
58
330
1F
100
AcDbEntity
  8
Default
100
AcDb2dPolyline
 66
     1
 10
0.0
 20
0.0
 30
0.0
  0
VERTEX
  5
59
330
58
100
AcDbEntity
  8
Default
100
AcDbVertex
100
AcDb2dVertex
 10
32.79273975299281
 20
2.56
 30
0.0
  0
VERTEX
  5
5A
330
58
100
AcDbEntity
  8
Default
100
AcDbVertex
100
AcDb2dVertex
 10
31.51273975299277
 20
2.56
 30
0.0
  0
SEQEND
  5
5B
330
58
100
AcDbEntity
  8
Default
  0
POLYLINE
  5
5C
330
1F
100
AcDbEntity
  8
Default
100
AcDb2dPolyline
 66
     1
 10
0.0
 20
0.0
 30
0.0
  0
VERTEX
  5
5D
330
5C
100
AcDbEntity
  8
Default
100
AcDbVertex
100
AcDb2dVertex
 10
56.33246238074902
 20
3.83951677559809
 30
0.0
  0
VERTEX
  5
5E
330
5C
100
AcDbEntity
  8
Default
100
AcDbVertex
100
AcDb2dVertex
 10
56.44612678465226
 20
2.659999999999997
 30
0.0
  0
SEQEND
  5
5F
330
5C
100
AcDbEntity
  8
Default
  0
SPLINE
  5
60
330
1F
100
AcDbEntity
  8
Default
100
AcDbSpline
210
0.0
220
0.0
230
1.0
 70
     8
 71
     3
 72
    12
 73
     8
 74
     0
 42
0.0000000001
 43
0.0000000001
 40
-1.375863281721866
 40
-1.375863281721866
 40
-1.375863281721866
 40
-1.375863281721866
 40
-0.997103302562531
 40
-0.7392472921696889
 40
-0.4548350050699778
 40
-0.2649008873789054
 40
0.0
 40
0.0
 40
0.0
 40
0.0
 10
55.6190377156371
 20
4.86110207109025
 30
0.0
 10
55.73849720469941
 20
4.821552302851638
 30
0.0
 10
55.94364955847389
 20
4.758542253726957
 30
0.0
 10
56.18700498960137
 20
4.558186785177713
 30
0.0
 10
56.27012115104527
 20
4.319603648359643
 30
0.0
 10
56.31111643193264
 20
4.080078213531918
 30
0.0
 10
56.32446553753673
 20
3.926616410853604
 30
0.0
 10
56.33246238074902
 20
3.83951677559809
 30
0.0
  0
SPLINE
  5
61
330
1F
100
AcDbEntity
  8
Default
100
AcDbSpline
210
0.0
220
0.0
230
1.0
 70
    12
 71
     2
 72
     6
 73
     3
 74
     0
 42
0.0000000001
 43
0.0000000001
 40
-10.35710455733309
 40
-10.35710455733309
 40
-10.35710455733309
 40
0.0
 40
0.0
 40
0.0
 10
45.7290942941638
 20
7.936590584120846
 30
0.0
 41
1.0
 10
50.67353040460866
 20
6.397123981204127
 30
0.0
 41
0.999999939342662
 10
55.6190377156371
 20
4.86110207109025
 30
0.0
 41
1.0
  0
POLYLINE
  5
62
330
1F
100
AcDbEntity
  8
Default
100
AcDb2dPolyline
 66
     1
 10
0.0
 20
0.0
 30
0.0
  0
VERTEX
  5
63
330
62
100
AcDbEntity
  8
Default
100
AcDbVertex
100
AcDb2dVertex
 10
56.06896411035177
 20
4.005901412960482
 30
0.0
  0
VERTEX
  5
64
330
62
100
AcDbEntity
  8
Default
100
AcDbVertex
100
AcDb2dVertex
 10
56.1719209143274
 20
2.659999999999999
 30
0.0
  0
SEQEND
  5
65
330
62
100
AcDbEntity
  8
Default
  0
SPLINE
  5
66
330
1F
100
AcDbEntity
  8
Default
100
AcDbSpline
210
0.0
220
0.0
230
1.0
 70
     8
 71
     3
 72
    12
 73
     8
 74
     0
 42
0.0000000001
 43
0.0000000001
 40
0.0
 40
0.0
 40
0.0
 40
0.0
 40
0.1341528311620818
 40
0.2481746834253521
 40
0.4405266612677292
 40
0.6413624167629144
 40
0.893590923424823
 40
0.893590923424823
 40
0.893590923424823
 40
0.893590923424823
 10
55.55326589947888
 20
4.646192147946792
 30
0.0
 10
55.59584941499392
 20
4.633453083002895
 30
0.0
 10
55.67532768679053
 20
4.607621291668016
 30
0.0
 10
55.8073160621174
 20
4.545110897653794
 30
0.0
 10
55.94324099285668
 20
4.437413621800899
 30
0.0
 10
56.03763533828258
 20
4.239410064493055
 30
0.0
 10
56.05996415679355
 20
4.089564340362628
 30
0.0
 10
56.06896411035177
 20
4.005901412960482
 30
0.0
  0
SPLINE
  5
67
330
1F
100
AcDbEntity
  8
Default
100
AcDbSpline
210
0.0
220
0.0
230
1.0
 70
    12
 71
     3
 72
    12
 73
     8
 74
     0
 42
0.0000000001
 43
0.0000000001
 40
-1.0
 40
-1.0
 40
-1.0
 40
-1.0
 40
-0.5
 40
-0.5
 40
-0.25
 40
-0.25
 40
0.0
 40
0.0
 40
0.0
 40
0.0
 10
45.64358945994696
 20
7.657213367418281
 30
0.0
 41
1.0
 10
47.29699667484625
 20
7.161206205625707
 30
0.0
 41
1.0
 10
48.95077722795316
 20
6.666348404793144
 30
0.0
 41
1.0
 10
51.42886729756291
 20
5.915212380591237
 30
0.0
 41
1.0
 10
52.254384269286
 20
5.662921621607234
 30
0.0
 41
1.0
 10
53.90288919020217
 20
5.150963882562506
 30
0.0
 41
1.0
 10
54.72625940912638
 20
4.892701194500804
 30
0.0
 41
1.0
 10
55.55326589947888
 20
4.646192147946792
 30
0.0
 41
1.0
  0
SPLINE
  5
68
330
1F
100
AcDbEntity
  8
Default
100
AcDbSpline
210
0.0
220
0.0
230
1.0
 70
    12
 71
     2
 72
     6
 73
     3
 74
     0
 42
0.0000000001
 43
0.0000000001
 40
0.0
 40
0.0
 40
0.0
 40
0.7840071436312355
 40
0.7840071436312355
 40
0.7840071436312355
 10
44.88053854593299
 20
7.831204175008542
 30
0.0
 41
1.0
 10
45.27100843156904
 20
7.783435317318734
 30
0.0
 41
0.9947560748952097
 10
45.64358945994696
 20
7.657213367418281
 30
0.0
 41
1.0
  0
SPLINE
  5
69
330
1F
100
AcDbEntity
  8
Default
100
AcDbSpline
210
0.0
220
0.0
230
1.0
 70
    12
 71
     3
 72
    19
 73
    15
 74
     0
 42
0.0000000001
 43
0.0000000001
 40
0.0
 40
0.0
 40
0.0
 40
0.0
 40
8.46484091291449
 40
8.46484091291449
 40
8.46484091291449
 40
9.46484091291449
 40
10.46484091291449
 40
11.46484091291449
 40
11.46484091291449
 40
11.46484091291449
 40
14.24470520222109
 40
14.24470520222109
 40
14.24470520222109
 40
14.82021649473989
 40
14.82021649473989
 40
14.82021649473989
 40
14.82021649473989
 10
33.17334666755225
 20
4.11404226320503
 30
0.0
 41
1.0
 10
35.96347460794029
 20
4.727767107644848
 30
0.0
 41
0.9999999593178602
 10
38.72769230840949
 20
5.336764761842479
 30
0.0
 41
0.9999999593178602
 10
41.50039176183001
 20
5.948604000378989
 30
0.0
 41
1.0
 10
41.73322308762928
 20
6.001644072563142
 30
0.0
 41
1.0
 10
42.20233555266179
 20
6.10915698442648
 30
0.0
 41
1.0
 10
42.91858170703324
 20
6.133521775231867
 30
0.0
 41
1.0
 10
43.40430637369621
 20
6.096161670104475
 30
0.0
 41
1.0
 10
43.61389275635005
 20
5.969723461258767
 30
0.0
 41
1.0
 10
44.43099388212033
 20
5.50103750737325
 30
0.0
 41
1.0
 10
45.24142216571954
 20
5.036151129614126
 30
0.0
 41
1.0
 10
46.04517760714766
 20
4.575064327981393
 30
0.0
 41
1.0
 10
46.21124669592812
 20
4.479031056714359
 30
0.0
 41
0.9999998289897812
 10
46.3772469571708
 20
4.38287886118037
 30
0.0
 41
0.9999998289897812
 10
46.5431783057124
 20
4.286607790708452
 30
0.0
 41
1.0
  0
SPLINE
  5
6A
330
1F
100
AcDbEntity
  8
Default
100
AcDbSpline
210
0.0
220
0.0
230
1.0
 70
     8
 71
     3
 72
    11
 73
     7
 74
     0
 42
0.0000000001
 43
0.0000000001
 40
0.0
 40
0.0
 40
0.0
 40
0.0
 40
0.0906004668381335
 40
0.1405408201131151
 40
0.2060462117523945
 40
0.3036363065331001
 40
0.3036363065331001
 40
0.3036363065331001
 40
0.3036363065331001
 10
32.98291263854009
 20
3.919820390259449
 30
0.0
 10
32.98815064589341
 20
3.949481797060944
 30
0.0
 10
32.99251839089679
 20
3.996527628405951
 30
0.0
 10
33.02332140055557
 20
4.059949931435854
 30
0.0
 10
33.09055420775652
 20
4.093069060731868
 30
0.0
 10
33.14069426098615
 20
4.107183299264543
 30
0.0
 10
33.17334666755225
 20
4.11404226320503
 30
0.0
  0
SPLINE
  5
6B
330
1F
100
AcDbEntity
  8
Default
100
AcDbSpline
210
0.0
220
0.0
230
1.0
 70
    12
 71
     2
 72
     6
 73
     3
 74
     0
 42
0.0000000001
 43
0.0000000001
 40
0.0
 40
0.0
 40
0.0
 40
0.7804025542512569
 40
0.7804025542512569
 40
0.7804025542512569
 10
32.89772386044133
 20
2.734825591810392
 30
0.0
 41
1.0
 10
32.92400111807645
 20
3.124337198917432
 30
0.0
 41
0.9999976486257973
 10
32.98291263854009
 20
3.919820390259449
 30
0.0
 41
1.0
  0
SPLINE
  5
6C
330
1F
100
AcDbEntity
  8
Default
100
AcDbSpline
210
0.0
220
0.0
230
1.0
 70
    12
 71
     2
 72
     6
 73
     3
 74
     0
 42
0.0000000001
 43
0.0000000001
 40
0.0
 40
0.0
 40
0.0
 40
0.1202037113378394
 40
0.1202037113378394
 40
0.1202037113378394
 10
32.81789264039177
 20
2.660000000007572
 30
0.0
 41
1.0
 10
32.89250121406844
 20
2.660204205943073
 30
0.0
 41
0.732306271403974
 10
32.89772386044133
 20
2.734825591810392
 30
0.0
 41
1.0
  0
POLYLINE
  5
6D
330
1F
100
AcDbEntity
  8
Default
100
AcDb2dPolyline
 66
     1
 10
0.0
 20
0.0
 30
0.0
  0
VERTEX
  5
6E
330
6D
100
AcDbEntity
  8
Default
100
AcDbVertex
100
AcDb2dVertex
 10
32.04816480469985
 20
2.660000000151836
 30
0.0
  0
VERTEX
  5
6F
330
6D
100
AcDbEntity
  8
Default
100
AcDbVertex
100
AcDb2dVertex
 10
32.81789264039177
 20
2.660000000007572
 30
0.0
  0
SEQEND
  5
70
330
6D
100
AcDbEntity
  8
Default
  0
SPLINE
  5
71
330
1F
100
AcDbEntity
  8
Default
100
AcDbSpline
210
0.0
220
0.0
230
1.0
 70
    12
 71
     2
 72
     8
 73
     5
 74
     0
 42
0.0000000001
 43
0.0000000001
 40
0.0
 40
0.0
 40
0.0
 40
0.0644454006507243
 40
0.0644454006507243
 40
0.1288908013014487
 40
0.1288908013014487
 40
0.1288908013014487
 10
31.96827516407255
 20
2.74409727957786
 30
0.0
 41
1.0
 10
31.96692784247732
 20
2.709305575088224
 30
0.0
 41
0.920451290553868
 10
31.99050930984179
 20
2.684709506002441
 30
0.0
 41
1.0
 10
32.01409077720623
 20
2.660113436916658
 30
0.0
 41
0.920451290553868
 10
32.04816480469985
 20
2.660000000151836
 30
0.0
 41
1.0
  0
SPLINE
  5
72
330
1F
100
AcDbEntity
  8
Default
100
AcDbSpline
210
0.0
220
0.0
230
1.0
 70
    12
 71
     2
 72
     6
 73
     3
 74
     0
 42
0.0000000001
 43
0.0000000001
 40
0.0
 40
0.0
 40
0.0
 40
1.194530992737333
 40
1.194530992737333
 40
1.194530992737333
 10
32.01950720231862
 20
3.965315264584977
 30
0.0
 41
1.0
 10
31.99350919528693
 20
3.341573719182374
 30
0.0
 41
0.9999999373647314
 10
31.96827516407255
 20
2.74409727957786
 30
0.0
 41
1.0
  0
SPLINE
  5
73
330
1F
100
AcDbEntity
  8
Default
100
AcDbSpline
210
0.0
220
0.0
230
1.0
 70
     8
 71
     3
 72
    10
 73
     6
 74
     0
 42
0.0000000001
 43
0.0000000001
 40
0.0
 40
0.0
 40
0.0
 40
0.0
 40
1.0
 40
2.0
 40
3.0
 40
3.0
 40
3.0
 40
3.0
 10
32.67682686016286
 20
4.968134941867177
 30
0.0
 10
32.54417380666541
 20
4.917491951378202
 30
0.0
 10
32.25396764375081
 20
4.805961670651907
 30
0.0
 10
32.05016537235289
 20
4.402188940823218
 30
0.0
 10
32.02944997524103
 20
4.109828371437573
 30
0.0
 10
32.01950720231862
 20
3.965315264584977
 30
0.0
  0
SPLINE
  5
74
330
1F
100
AcDbEntity
  8
Default
100
AcDbSpline
210
0.0
220
0.0
230
1.0
 70
    12
 71
     2
 72
     8
 73
     5
 74
     0
 42
0.0000000001
 43
0.0000000001
 40
-1.116086164561692
 40
-1.116086164561692
 40
-1.116086164561692
 40
0.0
 40
0.0
 40
3.0
 40
3.0
 40
3.0
 10
42.08853966084585
 20
8.54781282525525
 30
0.0
 41
1.0
 10
41.53846223841044
 20
8.445047125979398
 30
0.0
 41
0.9954294235064894
 10
41.01795706718014
 20
8.239571272548117
 30
0.0
 41
1.0
 10
36.89413464294116
 20
6.611641371262683
 30
0.0
 41
0.9999976397863387
 10
32.67682686016286
 20
4.968134941867177
 30
0.0
 41
1.0
  0
POLYLINE
  5
75
330
1F
100
AcDbEntity
  8
Default
100
AcDb2dPolyline
 66
     1
 10
0.0
 20
0.0
 30
0.0
  0
VERTEX
  5
76
330
75
100
AcDbEntity
  8
Default
100
AcDbVertex
100
AcDb2dVertex
 10
42.12814942363466
 20
8.546822786652019
 30
0.0
  0
VERTEX
  5
77
330
75
100
AcDbEntity
  8
Default
100
AcDbVertex
100
AcDb2dVertex
 10
42.08853966084585
 20
8.54781282525525
 30
0.0
  0
SEQEND
  5
78
330
75
100
AcDbEntity
  8
Default
  0
SPLINE
  5
79
330
1F
100
AcDbEntity
  8
Default
100
AcDbSpline
210
0.0
220
0.0
230
1.0
 70
    24
 71
     2
 72
     6
 73
     3
 74
     0
 42
0.0000000001
 43
0.0000000001
 40
0.0
 40
0.0
 40
0.0
 40
0.1539732691706344
 40
0.1539732691706344
 40
0.1539732691706344
 10
42.2370246380935
 20
8.65569865769623
 30
0.0
 10
42.18258703086408
 20
8.601260722174125
 30
0.0
 10
42.12814942363466
 20
8.546822786652019
 30
0.0
  0
POLYLINE
  5
7A
330
1F
100
AcDbEntity
  8
Default
100
AcDb2dPolyline
 66
     1
 10
0.0
 20
0.0
 30
0.0
  0
VERTEX
  5
7B
330
7A
100
AcDbEntity
  8
Default
100
AcDbVertex
100
AcDb2dVertex
 10
43.95552247090051
 20
8.65569865769623
 30
0.0
  0
VERTEX
  5
7C
330
7A
100
AcDbEntity
  8
Default
100
AcDbVertex
100
AcDb2dVertex
 10
42.2370246380935
 20
8.65569865769623
 30
0.0
  0
SEQEND
  5
7D
330
7A
100
AcDbEntity
  8
Default
  0
SPLINE
  5
7E
330
1F
100
AcDbEntity
  8
Default
100
AcDbSpline
210
0.0
220
0.0
230
1.0
 70
    24
 71
     2
 72
     6
 73
     3
 74
     0
 42
0.0000000001
 43
0.0000000001
 40
0.0
 40
0.0
 40
0.0
 40
0.1545298101607907
 40
0.1545298101607907
 40
0.1545298101607907
 10
44.06479121808088
 20
8.546429251557251
 30
0.0
 10
44.0101568444907
 20
8.60106395462674
 30
0.0
 10
43.95552247090051
 20
8.65569865769623
 30
0.0
  0
POLYLINE
  5
7F
330
1F
100
AcDbEntity
  8
Default
100
AcDb2dPolyline
 66
     1
 10
0.0
 20
0.0
 30
0.0
  0
VERTEX
  5
80
330
7F
100
AcDbEntity
  8
Default
100
AcDbVertex
100
AcDb2dVertex
 10
44.10394821772883
 20
8.545453339532859
 30
0.0
  0
VERTEX
  5
81
330
7F
100
AcDbEntity
  8
Default
100
AcDbVertex
100
AcDb2dVertex
 10
44.06479121808088
 20
8.546429251557251
 30
0.0
  0
SEQEND
  5
82
330
7F
100
AcDbEntity
  8
Default
  0
SPLINE
  5
83
330
1F
100
AcDbEntity
  8
Default
100
AcDbSpline
210
0.0
220
0.0
230
1.0
 70
     8
 71
     3
 72
     8
 73
     4
 74
     0
 42
0.0000000001
 43
0.0000000001
 40
0.0
 40
0.0
 40
0.0
 40
0.0
 40
1.0
 40
1.0
 40
1.0
 40
1.0
 10
55.66582302255654
 20
5.013967678531511
 30
0.0
 10
51.81186492675049
 20
6.191129512746677
 30
0.0
 10
47.96083718279517
 20
7.378023003802476
 30
0.0
 10
44.10394821772883
 20
8.545453339532859
 30
0.0
  0
SPLINE
  5
84
330
1F
100
AcDbEntity
  8
Default
100
AcDbSpline
210
0.0
220
0.0
230
1.0
 70
    12
 71
     3
 72
    13
 73
     9
 74
     0
 42
0.0000000001
 43
0.0000000001
 40
0.0
 40
0.0
 40
0.0
 40
0.0
 40
0.2499999999999873
 40
0.3750000000001832
 40
0.5000000000005594
 40
0.6250000000009357
 40
0.750000000001312
 40
1.0
 40
1.0
 40
1.0
 40
1.0
 10
56.61713669325112
 20
4.052316087460347
 30
0.0
 41
1.0
 10
56.60530130127197
 20
4.196543650885047
 30
0.0
 41
1.0
 10
56.55499937954978
 20
4.390615925744088
 30
0.0
 41
1.0
 10
56.43766704186565
 20
4.595828341537226
 30
0.0
 41
1.0
 10
56.32822835104889
 20
4.720735874546175
 30
0.0
 41
1.0
 10
56.20111577462855
 20
4.814296718388276
 30
0.0
 41
1.0
 10
56.00248656616862
 20
4.911220770392728
 30
0.0
 41
1.0
 10
55.81433274198913
 20
4.96851551402197
 30
0.0
 41
1.0
 10
55.66582302255654
 20
5.013967678531511
 30
0.0
 41
1.0
  0
SPLINE
  5
85
330
1F
100
AcDbEntity
  8
Default
100
AcDbSpline
210
0.0
220
0.0
230
1.0
 70
    12
 71
     2
 72
     6
 73
     3
 74
     0
 42
0.0000000001
 43
0.0000000001
 40
0.0
 40
0.0
 40
0.0
 40
1.309930630910038
 40
1.309930630910038
 40
1.309930630910038
 10
56.72428193427903
 20
2.746658555328515
 30
0.0
 41
1.0
 10
56.67070344692041
 20
3.3995449427601
 30
0.0
 41
0.9999999999985001
 10
56.61713669325112
 20
4.052316087460347
 30
0.0
 41
1.0
  0
SPLINE
  5
86
330
1F
100
AcDbEntity
  8
Default
100
AcDbSpline
210
0.0
220
0.0
230
1.0
 70
    12
 71
     2
 72
     8
 73
     5
 74
     0
 42
0.0000000001
 43
0.0000000001
 40
-0.1322141501358168
 40
-0.1322141501358168
 40
-0.1322141501358168
 40
-0.0661070750679084
 40
-0.0661070750679084
 40
0.0
 40
0.0
 40
0.0
 10
56.64455943396671
 20
2.659999999999998
 30
0.0
 41
1.0
 10
56.67963177897605
 20
2.660000000073528
 30
0.0
 41
0.915852939172972
 10
56.70339586039577
 20
2.68579414318259
 30
0.0
 41
1.0
 10
56.72715994181552
 20
2.711588286291651
 30
0.0
 41
0.915852939172972
 10
56.72428193427903
 20
2.746658555328515
 30
0.0
 41
1.0
  0
POLYLINE
  5
87
330
1F
100
AcDbEntity
  8
Default
100
AcDb2dPolyline
 66
     1
 10
0.0
 20
0.0
 30
0.0
  0
VERTEX
  5
88
330
87
100
AcDbEntity
  8
Default
100
AcDbVertex
100
AcDb2dVertex
 10
55.89770999863704
 20
2.659999999999999
 30
0.0
  0
VERTEX
  5
89
330
87
100
AcDbEntity
  8
Default
100
AcDbVertex
100
AcDb2dVertex
 10
56.64455943396671
 20
2.659999999999998
 30
0.0
  0
SEQEND
  5
8A
330
87
100
AcDbEntity
  8
Default
  0
SPLINE
  5
8B
330
1F
100
AcDbEntity
  8
Default
100
AcDbSpline
210
0.0
220
0.0
230
1.0
 70
    12
 71
     2
 72
     6
 73
     3
 74
     0
 42
0.0000000001
 43
0.0000000001
 40
-0.1219774658213558
 40
-0.1219774658213558
 40
-0.1219774658213558
 40
0.0
 40
0.0
 40
0.0
 10
55.81779491090717
 20
2.736315063950576
 30
0.0
 41
1.0
 10
55.82131384751987
 20
2.659999999968197
 30
0.0
 41
0.7232087180855842
 10
55.89770999863704
 20
2.659999999999999
 30
0.0
 41
1.0
  0
POLYLINE
  5
8C
330
1F
100
AcDbEntity
  8
Default
100
AcDb2dPolyline
 66
     1
 10
0.0
 20
0.0
 30
0.0
  0
VERTEX
  5
8D
330
8C
100
AcDbEntity
  8
Default
100
AcDbVertex
100
AcDb2dVertex
 10
55.77247581602987
 20
3.719148794156133
 30
0.0
  0
VERTEX
  5
8E
330
8C
100
AcDbEntity
  8
Default
100
AcDbVertex
100
AcDb2dVertex
 10
55.81779491090717
 20
2.736315063950576
 30
0.0
  0
SEQEND
  5
8F
330
8C
100
AcDbEntity
  8
Default
  0
SPLINE
  5
90
330
1F
100
AcDbEntity
  8
Default
100
AcDbSpline
210
0.0
220
0.0
230
1.0
 70
     8
 71
     3
 72
     9
 73
     5
 74
     0
 42
0.0000000001
 43
0.0000000001
 40
0.0
 40
0.0
 40
0.0
 40
0.0
 40
1.0
 40
2.0
 40
2.0
 40
2.0
 40
2.0
 10
55.38991956479928
 20
4.111577096374658
 30
0.0
 10
55.48668565051383
 20
4.094526384872098
 30
0.0
 10
55.70709275161765
 20
4.038944740893115
 30
0.0
 10
55.76915668744111
 20
3.817558472023837
 30
0.0
 10
55.77247581602987
 20
3.719148794156133
 30
0.0
  0
SPLINE
  5
91
330
1F
100
AcDbEntity
  8
Default
100
AcDbSpline
210
0.0
220
0.0
230
1.0
 70
     8
 71
     3
 72
     9
 73
     5
 74
     0
 42
0.0000000001
 43
0.0000000001
 40
-2.0
 40
-2.0
 40
-2.0
 40
-2.0
 40
-1.0
 40
0.0
 40
0.0
 40
0.0
 40
0.0
 10
46.9002924645142
 20
5.619019341765796
 30
0.0
 10
48.31518636044106
 20
5.36778677896748
 30
0.0
 10
51.14497439150204
 20
4.865321610896499
 30
0.0
 10
53.97476215250017
 20
4.362856490778993
 30
0.0
 10
55.38991956479928
 20
4.111577096374658
 30
0.0
  0
SPLINE
  5
92
330
1F
100
AcDbEntity
  8
Default
100
AcDbSpline
210
0.0
220
0.0
230
1.0
 70
     8
 71
     3
 72
    12
 73
     8
 74
     0
 42
0.0000000001
 43
0.0000000001
 40
0.0
 40
0.0
 40
0.0
 40
0.0
 40
0.11059852885043
 40
0.2103455703700047
 40
0.3931206249944565
 40
0.5849418018433136
 40
0.8368584941090736
 40
0.8368584941090736
 40
0.8368584941090736
 40
0.8368584941090736
 10
33.37140184540153
 20
4.646192146634357
 30
0.0
 10
33.3367546250942
 20
4.633769664948766
 30
0.0
 10
33.27149862979813
 20
4.60742534323017
 30
0.0
 10
33.1568923765444
 20
4.543743546550799
 30
0.0
 10
33.04154413117622
 20
4.43067294553741
 30
0.0
 10
32.96003761222033
 20
4.235246113330432
 30
0.0
 10
32.9354617262241
 20
4.089358379218008
 30
0.0
 10
32.92504528499217
 20
4.00590143748518
 30
0.0
  0
SPLINE
  5
93
330
1F
100
AcDbEntity
  8
Default
100
AcDbSpline
210
0.0
220
0.0
230
1.0
 70
     8
 71
     3
 72
     8
 73
     4
 74
     0
 42
0.0000000001
 43
0.0000000001
 40
0.0
 40
0.0
 40
0.0
 40
0.0
 40
1.0
 40
1.0
 40
1.0
 40
1.0
 10
41.53939333250981
 20
7.657213360256245
 30
0.0
 10
38.81113485370447
 20
6.668788224224881
 30
0.0
 10
36.08757381075028
 20
5.667311757729132
 30
0.0
 10
33.37140184540153
 20
4.646192146634357
 30
0.0
  0
SPLINE
  5
94
330
1F
100
AcDbEntity
  8
Default
100
AcDbSpline
210
0.0
220
0.0
230
1.0
 70
     8
 71
     3
 72
     8
 73
     4
 74
     0
 42
0.0000000001
 43
0.0000000001
 40
-1.0
 40
-1.0
 40
-1.0
 40
-1.0
 40
0.0
 40
0.0
 40
0.0
 40
0.0
 10
43.06804287974861
 20
7.657213398341435
 30
0.0
 10
42.6180335419084
 20
7.969354738479661
 30
0.0
 10
42.02099563289685
 20
7.823814307406496
 30
0.0
 10
41.53939333250981
 20
7.657213360256245
 30
0.0
  0
SPLINE
  5
95
330
1F
100
AcDbEntity
  8
Default
100
AcDbSpline
210
0.0
220
0.0
230
1.0
 70
    12
 71
     3
 72
    12
 73
     8
 74
     0
 42
0.0000000001
 43
0.0000000001
 40
0.0
 40
0.0
 40
0.0
 40
0.0
 40
0.25
 40
0.25
 40
0.5
 40
0.5
 40
1.0
 40
1.0
 40
1.0
 40
1.0
 10
46.3744541651035
 20
4.646192147946827
 30
0.0
 41
1.0
 10
46.09887842051385
 20
4.89270119450371
 30
0.0
 41
1.0
 10
45.82349321491179
 20
5.150963882563936
 30
0.0
 41
1.0
 10
45.27258020147847
 20
5.662921621605184
 30
0.0
 41
1.0
 10
44.9970348324293
 20
5.915212380590479
 30
0.0
 41
1.0
 10
44.17037255450345
 20
6.666348404792425
 30
0.0
 41
1.0
 10
43.6191954164506
 20
7.161206205623531
 30
0.0
 41
1.0
 10
43.06804287974861
 20
7.657213398341435
 30
0.0
 41
1.0
  0
SPLINE
  5
96
330
1F
100
AcDbEntity
  8
Default
100
AcDbSpline
210
0.0
220
0.0
230
1.0
 70
     8
 71
     3
 72
    11
 73
     7
 74
     0
 42
0.0000000001
 43
0.0000000001
 40
-0.6883324649280499
 40
-0.6883324649280499
 40
-0.6883324649280499
 40
-0.6883324649280499
 40
-0.2567305176961274
 40
-0.1220175022752949
 40
-0.0609286099619221
 40
0.0
 40
0.0
 40
0.0
 40
0.0
 10
46.58097605106943
 20
4.005901412960297
 30
0.0
 10
46.56463072966785
 20
4.148221048394259
 30
0.0
 10
46.54728485546428
 20
4.338608745323602
 30
0.0
 10
46.46886735398309
 20
4.534042885585923
 30
0.0
 10
46.41810074376049
 20
4.603757555949442
 30
0.0
 10
46.38983325703146
 20
4.632752606433831
 30
0.0
 10
46.3744541651035
 20
4.646192147946827
 30
0.0
  0
POLYLINE
  5
97
330
1F
100
AcDbEntity
  8
Default
100
AcDb2dPolyline
 66
     1
 10
0.0
 20
0.0
 30
0.0
  0
VERTEX
  5
98
330
97
100
AcDbEntity
  8
Default
100
AcDbVertex
100
AcDb2dVertex
 10
46.69730639168564
 20
2.734043503568162
 30
0.0
  0
VERTEX
  5
99
330
97
100
AcDbEntity
  8
Default
100
AcDbVertex
100
AcDb2dVertex
 10
46.58097605106943
 20
4.005901412960297
 30
0.0
  0
SEQEND
  5
9A
330
97
100
AcDbEntity
  8
Default
  0
SPLINE
  5
9B
330
1F
100
AcDbEntity
  8
Default
100
AcDbSpline
210
0.0
220
0.0
230
1.0
 70
    12
 71
     2
 72
     6
 73
     3
 74
     0
 42
0.0000000001
 43
0.0000000001
 40
0.0
 40
0.0
 40
0.0
 40
0.1167830114678569
 40
0.1167830114678569
 40
0.1167830114678569
 10
46.77335218070585
 20
2.66
 30
0.0
 41
1.0
 10
46.70084034290815
 20
2.661600142978346
 30
0.0
 41
0.7316926319443237
 10
46.69730639168564
 20
2.734043503568162
 30
0.0
 41
1.0
  0
POLYLINE
  5
9C
330
1F
100
AcDbEntity
  8
Default
100
AcDb2dPolyline
 66
     1
 10
0.0
 20
0.0
 30
0.0
  0
VERTEX
  5
9D
330
9C
100
AcDbEntity
  8
Default
100
AcDbVertex
100
AcDb2dVertex
 10
47.58323088996498
 20
2.660000000000556
 30
0.0
  0
VERTEX
  5
9E
330
9C
100
AcDbEntity
  8
Default
100
AcDbVertex
100
AcDb2dVertex
 10
46.77335218070585
 20
2.66
 30
0.0
  0
SEQEND
  5
9F
330
9C
100
AcDbEntity
  8
Default
  0
SPLINE
  5
A0
330
1F
100
AcDbEntity
  8
Default
100
AcDbSpline
210
0.0
220
0.0
230
1.0
 70
    12
 71
     2
 72
     6
 73
     3
 74
     0
 42
0.0000000001
 43
0.0000000001
 40
0.0
 40
0.0
 40
0.0
 40
0.1211947988180546
 40
0.1211947988180546
 40
0.1211947988180546
 10
47.66010692616794
 20
2.737950189740064
 30
0.0
 41
1.0
 10
47.65968787616208
 20
2.661480028116978
 30
0.0
 41
0.7158325737197913
 10
47.58323088996498
 20
2.660000000000556
 30
0.0
 41
1.0
  0
SPLINE
  5
A1
330
1F
100
AcDbEntity
  8
Default
100
AcDbSpline
210
0.0
220
0.0
230
1.0
 70
     8
 71
     3
 72
     8
 73
     4
 74
     0
 42
0.0000000001
 43
0.0000000001
 40
-1.0
 40
-1.0
 40
-1.0
 40
-1.0
 40
0.0
 40
0.0
 40
0.0
 40
0.0
 10
47.70636182574274
 20
3.846248162785594
 30
0.0
 10
47.69325880017534
 20
3.476726743065712
 30
0.0
 10
47.68068256699544
 20
3.107149886506354
 30
0.0
 10
47.66010692616794
 20
2.737950189740064
 30
0.0
  0
SPLINE
  5
A2
330
1F
100
AcDbEntity
  8
Default
100
AcDbSpline
210
0.0
220
0.0
230
1.0
 70
     8
 71
     3
 72
    12
 73
     8
 74
     0
 42
0.0000000001
 43
0.0000000001
 40
0.0
 40
0.0
 40
0.0
 40
0.0
 40
0.1061716198908092
 40
0.1979210319421837
 40
0.3973405194851193
 40
0.7016537148134274
 40
1.143586046931956
 40
1.143586046931956
 40
1.143586046931956
 40
1.143586046931956
 10
47.50655866072456
 20
4.940957136131816
 30
0.0
 10
47.53102659237789
 20
4.915044103402365
 30
0.0
 10
47.57271907584342
 20
4.864558019454796
 30
0.0
 10
47.64265699845719
 20
4.750499256176488
 30
0.0
 10
47.69515250371168
 20
4.557468913675117
 30
0.0
 10
47.71532097348175
 20
4.242120141001341
 30
0.0
 10
47.71198810172008
 20
3.993542265879371
 30
0.0
 10
47.70636182574274
 20
3.846248162785594
 30
0.0
  0
SPLINE
  5
A3
330
1F
100
AcDbEntity
  8
Default
100
AcDbSpline
210
0.0
220
0.0
230
1.0
 70
    12
 71
     2
 72
     6
 73
     3
 74
     0
 42
0.0000000001
 43
0.0000000001
 40
-4.145567169372296
 40
-4.145567169372296
 40
-4.145567169372296
 40
0.0
 40
0.0
 40
0.0
 10
44.73348317450553
 20
7.992417095956014
 30
0.0
 41
1.0
 10
46.1302329424179
 20
6.460906993112899
 30
0.0
 41
0.9999997695187969
 10
47.50655866072456
 20
4.940957136131816
 30
0.0
 41
1.0
  0
SPLINE
  5
A4
330
1F
100
AcDbEntity
  8
Default
100
AcDbSpline
210
0.0
220
0.0
230
1.0
 70
    12
 71
     2
 72
    46
 73
    43
 74
     0
 42
0.0000000001
 43
0.0000000001
 40
0.0
 40
0.0
 40
0.0
 40
0.0659571873082289
 40
0.0659571873082289
 40
0.1269161378663908
 40
0.1269161378663908
 40
0.1834855570194787
 40
0.1834855570194787
 40
0.2370759538645803
 40
0.2370759538645803
 40
0.2894667988967314
 40
0.2894667988967314
 40
0.3407331251471203
 40
0.3407331251471203
 40
0.3899539353612933
 40
0.3899539353612933
 40
0.4367071928549973
 40
0.4367071928549973
 40
0.4826217176296054
 40
0.4826217176296054
 40
0.5314897772241787
 40
0.5314897772241787
 40
0.5843485731994937
 40
0.5843485731994937
 40
0.638553640860386
 40
0.638553640860386
 40
0.6923583081395558
 40
0.6923583081395558
 40
0.7461391773858815
 40
0.7461391773858815
 40
0.8027881465460011
 40
0.8027881465460011
 40
0.8656995617364339
 40
0.8656995617364339
 40
0.9359021369911148
 40
0.9359021369911148
 40
1.013311575235653
 40
1.013311575235653
 40
1.097892305030133
 40
1.097892305030133
 40
1.190871115696934
 40
1.190871115696934
 40
1.294279609072523
 40
1.294279609072523
 40
1.294279609072523
 10
33.32862867505305
 20
4.861018593350514
 30
0.0
 41
1.0
 10
33.29753038346391
 20
4.849345244767748
 30
0.0
 41
0.9999307876787276
 10
33.26693505137258
 20
4.837032094536806
 30
0.0
 41
1.0
 10
33.23865783591466
 20
4.825649221725423
 30
0.0
 41
0.9998609284034288
 10
33.21077596217169
 20
4.81332965095064
 30
0.0
 41
1.0
 10
33.18490156810651
 20
4.801894170468428
 30
0.0
 41
0.9997847360520522
 10
33.15952387662129
 20
4.789395080222296
 30
0.0
 41
1.0
 10
33.13548178986347
 20
4.777552399873067
 30
0.0
 41
0.9996989041262764
 10
33.11204966506413
 20
4.764544458417414
 30
0.0
 41
1.0
 10
33.08914274722293
 20
4.751822904865123
 30
0.0
 41
0.9996016539731734
 10
33.06699011443581
 20
4.737829132308487
 30
0.0
 41
1.0
 10
33.04530328560647
 20
4.724146413096453
 30
0.0
 41
0.9994567137624072
 10
33.02456501245208
 20
4.70906465669081
 30
0.0
 41
1.0
 10
33.00465059076402
 20
4.694583808000839
 30
0.0
 41
0.9992489281209886
 10
32.98591740453156
 20
4.678604230298882
 30
0.0
 41
1.0
 10
32.96812213464755
 20
4.663422282276387
 30
0.0
 41
0.9990454036209698
 10
32.95171992818042
 20
4.646745028335401
 30
0.0
 41
1.0
 10
32.93563440372016
 20
4.63034349943928
 30
0.0
 41
0.9989791051134017
 10
32.92109488554564
 20
4.612557081628346
 30
0.0
 41
1.0
 10
32.90562593798999
 20
4.593622053409648
 30
0.0
 41
0.9989940424296736
 10
32.89191570576583
 20
4.573377222847701
 30
0.0
 41
1.0
 10
32.87708056178846
 20
4.551482087324387
 30
0.0
 41
0.9989648589444639
 10
32.86429670702415
 20
4.528329301017368
 30
0.0
 41
1.0
 10
32.85121176544244
 20
4.504576815770203
 30
0.0
 41
0.9991342054001678
 10
32.84014677501332
 20
4.47981874156365
 30
0.0
 41
1.0
 10
32.82916608746265
 20
4.455248411588049
 30
0.0
 41
0.9994397143484954
 10
32.81985383076344
 20
4.429998491006717
 30
0.0
 41
1.0
 10
32.81054232231882
 20
4.40476497323342
 30
0.0
 41
0.9996484079402856
 10
32.8025815844861
 20
4.379073315795861
 30
0.0
 41
1.0
 10
32.79418843100201
 20
4.352015937995176
 30
0.0
 41
0.9997474031092821
 10
32.78701968393828
 20
4.324608716603858
 30
0.0
 41
1.0
 10
32.77906078219022
 20
4.294172074009722
 30
0.0
 41
0.9997940422576044
 10
32.77234358450455
 20
4.263437523668289
 30
0.0
 41
1.0
 10
32.76485196233372
 20
4.229141366811169
 30
0.0
 41
0.9998476167875587
 10
32.75856213259972
 20
4.194604591920684
 30
0.0
 41
1.0
 10
32.75162151477162
 20
4.156524602631738
 30
0.0
 41
0.9998986430585649
 10
32.74576792103186
 20
4.118262438547474
 30
0.0
 41
1.0
 10
32.73937488294275
 20
4.076456397602232
 30
0.0
 41
0.9999408623786429
 10
32.73389260822975
 20
4.034521201650674
 30
0.0
 41
1.0
 10
32.72787080037762
 20
3.98842273335003
 30
0.0
 41
0.9999770484232422
 10
32.722474178888
 20
3.942246901728158
 30
0.0
 41
1.0
 10
32.71647807927336
 20
3.890891467333297
 30
0.0
 41
0.9999986738689504
 10
32.71064928371663
 20
3.839516775170412
 30
0.0
 41
1.0
  0
SPLINE
  5
A5
330
1F
100
AcDbEntity
  8
Default
100
AcDbSpline
210
0.0
220
0.0
230
1.0
 70
    12
 71
     2
 72
     6
 73
     3
 74
     0
 42
0.0000000001
 43
0.0000000001
 40
0.0
 40
0.0
 40
0.0
 40
8.715030799849089
 40
8.715030799849089
 40
8.715030799849089
 10
41.48318225867963
 20
7.936590583927845
 30
0.0
 41
1.0
 10
37.4066310208561
 20
6.397216526489308
 30
0.0
 41
0.9999999201045066
 10
33.32862867505305
 20
4.861018593350514
 30
0.0
 41
1.0
  0
SPLINE
  5
A6
330
1F
100
AcDbEntity
  8
Default
100
AcDbSpline
210
0.0
220
0.0
230
1.0
 70
     8
 71
     3
 72
    10
 73
     6
 74
     0
 42
0.0000000001
 43
0.0000000001
 40
-3.0
 40
-3.0
 40
-3.0
 40
-3.0
 40
-2.0
 40
-1.0
 40
0.0
 40
0.0
 40
0.0
 40
0.0
 10
43.073489358726
 20
7.936590584121979
 30
0.0
 10
42.93642123669886
 20
8.065504706242388
 30
0.0
 10
42.56645950823417
 20
8.176967870342267
 30
0.0
 10
42.0107176102541
 20
8.114667844697944
 30
0.0
 10
41.65612216945198
 20
8.002806166789377
 30
0.0
 10
41.48318225867963
 20
7.936590583927845
 30
0.0
  0
SPLINE
  5
A7
330
1F
100
AcDbEntity
  8
Default
100
AcDbSpline
210
0.0
220
0.0
230
1.0
 70
    12
 71
     2
 72
     6
 73
     3
 74
     0
 42
0.0000000001
 43
0.0000000001
 40
0.0
 40
0.0
 40
0.0
 40
4.513904074055471
 40
4.513904074055471
 40
4.513904074055471
 10
46.37753205278799
 20
4.86110207108998
 30
0.0
 41
1.0
 10
44.72462134592629
 20
6.397890875216097
 30
0.0
 41
0.9999998327536348
 10
43.073489358726
 20
7.936590584121979
 30
0.0
 41
1.0
  0
SPLINE
  5
A8
330
1F
100
AcDbEntity
  8
Default
100
AcDbSpline
210
0.0
220
0.0
230
1.0
 70
     8
 71
     3
 72
    12
 73
     8
 74
     0
 42
0.0000000001
 43
0.0000000001
 40
0.0
 40
0.0
 40
0.0
 40
0.0
 40
0.4528053245932296
 40
0.6025348547585867
 40
0.7183869265375751
 40
0.9020379958181682
 40
1.087427918246554
 40
1.087427918246554
 40
1.087427918246554
 40
1.087427918246554
 10
46.66437779267538
 20
3.839516775603284
 30
0.0
 10
46.65002014873463
 20
3.989769257883136
 30
0.0
 10
46.63304434168533
 20
4.189934448671979
 30
0.0
 10
46.59611539910352
 20
4.426766265809047
 30
0.0
 10
46.56360062656405
 20
4.572800313654623
 30
0.0
 10
46.50541573760877
 20
4.72533261043416
 30
0.0
 10
46.42290782867804
 20
4.819638578680784
 30
0.0
 10
46.37753205278799
 20
4.86110207108998
 30
0.0
  0
POLYLINE
  5
A9
330
1F
100
AcDbEntity
  8
Default
100
AcDb2dPolyline
 66
     1
 10
0.0
 20
0.0
 30
0.0
  0
VERTEX
  5
AA
330
A9
100
AcDbEntity
  8
Default
100
AcDbVertex
100
AcDb2dVertex
 10
46.78749275346413
 20
2.661477808552483
 30
0.0
  0
VERTEX
  5
AB
330
A9
100
AcDbEntity
  8
Default
100
AcDbVertex
100
AcDb2dVertex
 10
46.66437779267538
 20
3.839516775603284
 30
0.0
  0
SEQEND
  5
AC
330
A9
100
AcDbEntity
  8
Default
  0
POLYLINE
  5
AD
330
1F
100
AcDbEntity
  8
Default
100
AcDb2dPolyline
 66
     1
 10
0.0
 20
0.0
 30
0.0
  0
VERTEX
  5
AE
330
AD
100
AcDbEntity
  8
Default
100
AcDbVertex
100
AcDb2dVertex
 10
32.92504528499217
 20
4.00590143748518
 30
0.0
  0
VERTEX
  5
AF
330
AD
100
AcDbEntity
  8
Default
100
AcDbVertex
100
AcDb2dVertex
 10
32.78533290127421
 20
2.660000000013674
 30
0.0
  0
SEQEND
  5
B0
330
AD
100
AcDbEntity
  8
Default
  0
POLYLINE
  5
B1
330
1F
100
AcDbEntity
  8
Default
100
AcDb2dPolyline
 66
     1
 10
0.0
 20
0.0
 30
0.0
  0
VERTEX
  5
B2
330
B1
100
AcDbEntity
  8
Default
100
AcDbVertex
100
AcDb2dVertex
 10
32.71064928371663
 20
3.839516775170412
 30
0.0
  0
VERTEX
  5
B3
330
B1
100
AcDbEntity
  8
Default
100
AcDbVertex
100
AcDb2dVertex
 10
32.5642161345834
 20
2.660000000055117
 30
0.0
  0
SEQEND
  5
B4
330
B1
100
AcDbEntity
  8
Default
  0
SPLINE
  5
B5
330
1F
100
AcDbEntity
  8
Default
100
AcDbSpline
210
0.0
220
0.0
230
1.0
 70
    24
 71
     2
 72
     6
 73
     3
 74
     0
 42
0.0000000001
 43
0.0000000001
 40
0.0
 40
0.0
 40
0.0
 40
1.188721026706985
 40
1.188721026706985
 40
1.188721026706985
 10
44.00343608363154
 20
4.541481355401492
 30
0.0
 10
44.01835226053185
 20
5.135677786176545
 30
0.0
 10
44.03326843743216
 20
5.729874216951598
 30
0.0
  0
SPLINE
  5
B6
330
1F
100
AcDbEntity
  8
Default
100
AcDbSpline
210
0.0
220
0.0
230
1.0
 70
    12
 71
     2
 72
     6
 73
     3
 74
     0
 42
0.0000000001
 43
0.0000000001
 40
0.0
 40
0.0
 40
0.0
 40
0.3807238872087164
 40
0.3807238872087164
 40
0.3807238872087164
 10
43.97225780646552
 20
4.162000000000001
 30
0.0
 41
1.0
 10
43.98546191697796
 20
4.351913499155464
 30
0.0
 41
0.9999210269727451
 10
44.00343608363154
 20
4.541481355401492
 30
0.0
 41
1.0
  0
SPLINE
  5
B7
330
1F
100
AcDbEntity
  8
Default
100
AcDbSpline
210
0.0
220
0.0
230
1.0
 70
    24
 71
     2
 72
     6
 73
     3
 74
     0
 42
0.0000000001
 43
0.0000000001
 40
0.0
 40
0.0
 40
0.0
 40
3.275
 40
3.275
 40
3.275
 10
43.9722578064655
 20
0.8870000000000005
 30
0.0
 10
43.97225780646551
 20
2.524500000000001
 30
0.0
 10
43.97225780646552
 20
4.162000000000001
 30
0.0
  0
SPLINE
  5
B8
330
1F
100
AcDbEntity
  8
Default
100
AcDbSpline
210
0.0
220
0.0
230
1.0
 70
    12
 71
     2
 72
     6
 73
     3
 74
     0
 42
0.0000000001
 43
0.0000000001
 40
0.0
 40
0.0
 40
0.0
 40
0.1962869027771422
 40
0.1962869027771422
 40
0.1962869027771422
 10
43.84725780643958
 20
0.7620000000000005
 30
0.0
 41
1.0
 10
43.97211189502995
 20
0.7621459114096483
 30
0.0
 41
0.7079326620138805
 10
43.9722578064655
 20
0.8870000000000005
 30
0.0
 41
1.0
  0
POLYLINE
  5
B9
330
1F
100
AcDbEntity
  8
Default
100
AcDb2dPolyline
 66
     1
 10
0.0
 20
0.0
 30
0.0
  0
VERTEX
  5
BA
330
B9
100
AcDbEntity
  8
Default
100
AcDbVertex
100
AcDb2dVertex
 10
42.3452893025733
 20
0.7619999999999963
 30
0.0
  0
VERTEX
  5
BB
330
B9
100
AcDbEntity
  8
Default
100
AcDbVertex
100
AcDb2dVertex
 10
43.84725780643958
 20
0.7620000000000005
 30
0.0
  0
SEQEND
  5
BC
330
B9
100
AcDbEntity
  8
Default
  0
SPLINE
  5
BD
330
1F
100
AcDbEntity
  8
Default
100
AcDbSpline
210
0.0
220
0.0
230
1.0
 70
    12
 71
     2
 72
     6
 73
     3
 74
     0
 42
0.0000000001
 43
0.0000000001
 40
0.0
 40
0.0
 40
0.0
 40
0.1962734020549788
 40
0.1962734020549788
 40
0.1962734020549788
 10
42.22028930252851
 20
0.8870000000000005
 30
0.0
 41
1.0
 10
42.2204666555708
 20
0.7621773529975492
 30
0.0
 41
0.7081107520811522
 10
42.3452893025733
 20
0.7619999999999963
 30
0.0
 41
1.0
  0
SPLINE
  5
BE
330
1F
100
AcDbEntity
  8
Default
100
AcDbSpline
210
0.0
220
0.0
230
1.0
 70
    24
 71
     2
 72
     6
 73
     3
 74
     0
 42
0.0000000001
 43
0.0000000001
 40
0.0
 40
0.0
 40
0.0
 40
3.275
 40
3.275
 40
3.275
 10
42.22028930252851
 20
4.162000000000001
 30
0.0
 10
42.22028930252851
 20
2.524500000000001
 30
0.0
 10
42.22028930252851
 20
0.8870000000000005
 30
0.0
  0
SPLINE
  5
BF
330
1F
100
AcDbEntity
  8
Default
100
AcDbSpline
210
0.0
220
0.0
230
1.0
 70
    12
 71
     2
 72
     6
 73
     3
 74
     0
 42
0.0000000001
 43
0.0000000001
 40
0.0
 40
0.0
 40
0.0
 40
0.3807238872087164
 40
0.3807238872087164
 40
0.3807238872087164
 10
42.18911102536246
 20
4.541481355401492
 30
0.0
 41
1.0
 10
42.20708519201605
 20
4.351913499155467
 30
0.0
 41
0.999921026972745
 10
42.22028930252851
 20
4.162000000000001
 30
0.0
 41
1.0
  0
SPLINE
  5
C0
330
1F
100
AcDbEntity
  8
Default
100
AcDbSpline
210
0.0
220
0.0
230
1.0
 70
    24
 71
     2
 72
     6
 73
     3
 74
     0
 42
0.0000000001
 43
0.0000000001
 40
0.0
 40
0.0
 40
0.0
 40
1.537998882794129
 40
1.537998882794129
 40
1.537998882794129
 10
42.15051347395426
 20
6.079042073524525
 30
0.0
 10
42.16981224965837
 20
5.310261714463008
 30
0.0
 10
42.18911102536246
 20
4.541481355401492
 30
0.0
  0
CIRCLE
  5
C1
330
1F
100
AcDbEntity
  8
Default
100
AcDbCircle
 10
55.35572867103698
 20
1.28000000000001
 30
0.0
 40
1.28000000000001
  0
CIRCLE
  5
C2
330
1F
100
AcDbEntity
  8
Default
100
AcDbCircle
 10
55.35572867103698
 20
1.28000000000001
 30
0.0
 40
1.15500000000001
  0
CIRCLE
  5
C3
330
1F
100
AcDbEntity
  8
Default
100
AcDbCircle
 10
55.35572867103698
 20
1.28000000000001
 30
0.0
 40
1.062500000000005
  0
CIRCLE
  5
C4
330
1F
100
AcDbEntity
  8
Default
100
AcDbCircle
 10
46.24851729773118
 20
1.280000000000002
 30
0.0
 40
1.28000000000001
  0
CIRCLE
  5
C5
330
1F
100
AcDbEntity
  8
Default
100
AcDbCircle
 10
46.24851729773118
 20
1.280000000000002
 30
0.0
 40
1.15500000000001
  0
CIRCLE
  5
C6
330
1F
100
AcDbEntity
  8
Default
100
AcDbCircle
 10
46.24851729773118
 20
1.280000000000002
 30
0.0
 40
1.062500000000005
  0
CIRCLE
  5
C7
330
1F
100
AcDbEntity
  8
Default
100
AcDbCircle
 10
31.51273975299281
 20
1.280000000000003
 30
0.0
 40
1.28000000000001
  0
CIRCLE
  5
C8
330
1F
100
AcDbEntity
  8
Default
100
AcDbCircle
 10
31.51273975299281
 20
1.280000000000003
 30
0.0
 40
1.15500000000001
  0
CIRCLE
  5
C9
330
1F
100
AcDbEntity
  8
Default
100
AcDbCircle
 10
31.51273975299281
 20
1.280000000000003
 30
0.0
 40
1.062500000000005
  0
ARC
  5
CA
330
1F
100
AcDbEntity
  8
Default
100
AcDbCircle
 10
38.48657581572932
 20
6.630442674685647
 30
0.0
 40
26.2168317364272
100
AcDbArc
 50
186.1110305544023
 51
188.71075219125
  0
POLYLINE
  5
CB
330
1F
100
AcDbEntity
  8
Default
100
AcDb2dPolyline
 66
     1
 10
0.0
 20
0.0
 30
0.0
  0
VERTEX
  5
CC
330
CB
100
AcDbEntity
  8
Default
100
AcDbVertex
100
AcDb2dVertex
 10
11.7189029124185
 20
4.861018593350058
 30
0.0
  0
VERTEX
  5
CD
330
CB
100
AcDbEntity
  8
Default
100
AcDbVertex
100
AcDb2dVertex
 10
11.79067277291997
 20
4.837032094536738
 30
0.0
  0
VERTEX
  5
CE
330
CB
100
AcDbEntity
  8
Default
100
AcDbVertex
100
AcDb2dVertex
 10
11.85597981494183
 20
4.813329650950052
 30
0.0
  0
VERTEX
  5
CF
330
CB
100
AcDbEntity
  8
Default
100
AcDbVertex
100
AcDb2dVertex
 10
11.91553568476347
 20
4.789395080221552
 30
0.0
  0
VERTEX
  5
D0
330
CB
100
AcDbEntity
  8
Default
100
AcDbVertex
100
AcDb2dVertex
 10
11.97064293161085
 20
4.76454445841672
 30
0.0
  0
VERTEX
  5
D1
330
CB
100
AcDbEntity
  8
Default
100
AcDbVertex
100
AcDb2dVertex
 10
12.02287700924082
 20
4.737829132307755
 30
0.0
  0
VERTEX
  5
D2
330
CB
100
AcDbEntity
  8
Default
100
AcDbVertex
100
AcDb2dVertex
 10
12.07197459116874
 20
4.709064656690058
 30
0.0
  0
VERTEX
  5
D3
330
CB
100
AcDbEntity
  8
Default
100
AcDbVertex
100
AcDb2dVertex
 10
12.11659951951932
 20
4.678604230298193
 30
0.0
  0
VERTEX
  5
D4
330
CB
100
AcDbEntity
  8
Default
100
AcDbVertex
100
AcDb2dVertex
 10
12.15596583195703
 20
4.64674502833453
 30
0.0
  0
VERTEX
  5
D5
330
CB
100
AcDbEntity
  8
Default
100
AcDbVertex
100
AcDb2dVertex
 10
12.19107876283179
 20
4.612557081626964
 30
0.0
  0
VERTEX
  5
D6
330
CB
100
AcDbEntity
  8
Default
100
AcDbVertex
100
AcDb2dVertex
 10
12.22437165434565
 20
4.573377222846518
 30
0.0
  0
VERTEX
  5
D7
330
CB
100
AcDbEntity
  8
Default
100
AcDbVertex
100
AcDb2dVertex
 10
12.25568681025224
 20
4.528329301016673
 30
0.0
  0
VERTEX
  5
D8
330
CB
100
AcDbEntity
  8
Default
100
AcDbVertex
100
AcDb2dVertex
 10
12.28283784100232
 20
4.479818741562966
 30
0.0
  0
VERTEX
  5
D9
330
CB
100
AcDbEntity
  8
Default
100
AcDbVertex
100
AcDb2dVertex
 10
12.3054247206985
 20
4.429998491005836
 30
0.0
  0
VERTEX
  5
DA
330
CB
100
AcDbEntity
  8
Default
100
AcDbVertex
100
AcDb2dVertex
 10
12.32443813978642
 20
4.379073315795259
 30
0.0
  0
VERTEX
  5
DB
330
CB
100
AcDbEntity
  8
Default
100
AcDbVertex
100
AcDb2dVertex
 10
12.34135712721979
 20
4.324608716603168
 30
0.0
  0
VERTEX
  5
DC
330
CB
100
AcDbEntity
  8
Default
100
AcDbVertex
100
AcDb2dVertex
 10
12.3570688688045
 20
4.263437523667539
 30
0.0
  0
VERTEX
  5
DD
330
CB
100
AcDbEntity
  8
Default
100
AcDbVertex
100
AcDb2dVertex
 10
12.37153487410936
 20
4.194604591920148
 30
0.0
  0
VERTEX
  5
DE
330
CB
100
AcDbEntity
  8
Default
100
AcDbVertex
100
AcDb2dVertex
 10
12.38464421416575
 20
4.118262438546996
 30
0.0
  0
VERTEX
  5
DF
330
CB
100
AcDbEntity
  8
Default
100
AcDbVertex
100
AcDb2dVertex
 10
12.39646696434079
 20
4.034521201650072
 30
0.0
  0
VERTEX
  5
E0
330
CB
100
AcDbEntity
  8
Default
100
AcDbVertex
100
AcDb2dVertex
 10
12.41872206979274
 20
3.839516775168422
 30
0.0
  0
SEQEND
  5
E1
330
CB
100
AcDbEntity
  8
Default
  0
SPLINE
  5
E2
330
1F
100
AcDbEntity
  8
Default
100
AcDbSpline
210
0.0
220
0.0
230
1.0
 70
    12
 71
     2
 72
     6
 73
     3
 74
     0
 42
0.0000000001
 43
0.0000000001
 40
0.0
 40
0.0
 40
0.0
 40
9.972518196955523
 40
9.972518196955523
 40
9.972518196955523
 10
2.23220805647766
 20
7.936590583900397
 30
0.0
 41
1.0
 10
6.974876122895859
 20
6.397148629054794
 30
0.0
 41
0.9999999359462229
 10
11.7189029124185
 20
4.861018593350058
 30
0.0
 41
1.0
  0
SPLINE
  5
E3
330
1F
100
AcDbEntity
  8
Default
100
AcDbSpline
210
0.0
220
0.0
230
1.0
 70
     8
 71
     3
 72
     8
 73
     4
 74
     0
 42
0.0000000001
 43
0.0000000001
 40
0.0
 40
0.0
 40
0.0
 40
0.0
 40
1.0
 40
1.0
 40
1.0
 40
1.0
 10
0.8794120361308231
 20
7.936590584122232
 30
0.0
 10
0.9174788928208102
 20
8.38591295076164
 30
0.0
 10
1.803305206639699
 20
8.075809907780268
 30
0.0
 10
2.23220805647766
 20
7.936590583900397
 30
0.0
  0
SPLINE
  5
E4
330
1F
100
AcDbEntity
  8
Default
100
AcDbSpline
210
0.0
220
0.0
230
1.0
 70
     8
 71
     2
 72
    11
 73
     8
 74
     0
 42
0.0000000001
 43
0.0000000001
 40
0.0
 40
0.0
 40
0.0
 40
1.0
 40
2.0
 40
3.0
 40
4.0
 40
5.0
 40
6.0
 40
6.0
 40
6.0
 10
0.462188258463847
 20
2.734553175816482
 30
0.0
 10
0.5026184443573669
 20
3.167600978850495
 30
0.0
 10
0.5617644989182295
 20
4.035421468713554
 30
0.0
 10
0.6201220679098469
 20
4.903285480513532
 30
0.0
 10
0.6961830247216838
 20
5.769792283118392
 30
0.0
 10
0.7691913757953088
 20
6.636533195511113
 30
0.0
 10
0.8427110839694407
 20
7.503235100615151
 30
0.0
 10
0.8794120361308231
 20
7.936590584122232
 30
0.0
  0
SPLINE
  5
E5
330
1F
100
AcDbEntity
  8
Default
100
AcDbSpline
210
0.0
220
0.0
230
1.0
 70
     8
 71
     3
 72
     8
 73
     4
 74
     0
 42
0.0000000001
 43
0.0000000001
 40
-1.0
 40
-1.0
 40
-1.0
 40
-1.0
 40
0.0
 40
0.0
 40
0.0
 40
0.0
 10
0.3823443801769884
 20
2.660000000000011
 30
0.0
 10
0.4187574744704321
 20
2.660000000000012
 30
0.0
 10
0.4587044514139933
 20
2.698307120521284
 30
0.0
 10
0.462188258463847
 20
2.734553175816482
 30
0.0
  0
LINE
  5
E6
330
1F
100
AcDbEntity
  8
Default
100
AcDbLine
 10
-0.3823445863495607
 20
2.659999999999999
 30
0.0
 11
0.3823443801769884
 21
2.660000000000011
 31
0.0
  0
SPLINE
  5
E7
330
1F
100
AcDbEntity
  8
Default
100
AcDbSpline
210
0.0
220
0.0
230
1.0
 70
     8
 71
     3
 72
     8
 73
     4
 74
     0
 42
0.0000000001
 43
0.0000000001
 40
0.0
 40
0.0
 40
0.0
 40
0.0
 40
1.0
 40
1.0
 40
1.0
 40
1.0
 10
-0.462188258463847
 20
2.734553175816482
 30
0.0
 10
-0.4587044579891497
 20
2.698307188930239
 30
0.0
 10
-0.418757625258074
 20
2.660000144597813
 30
0.0
 10
-0.3823445863495607
 20
2.659999999999999
 30
0.0
  0
SPLINE
  5
E8
330
1F
100
AcDbEntity
  8
Default
100
AcDbSpline
210
0.0
220
0.0
230
1.0
 70
     8
 71
     2
 72
    11
 73
     8
 74
     0
 42
0.0000000001
 43
0.0000000001
 40
-6.0
 40
-6.0
 40
-6.0
 40
-5.0
 40
-4.0
 40
-3.0
 40
-2.0
 40
-1.0
 40
0.0
 40
0.0
 40
0.0
 10
-0.8794120361308231
 20
7.936590584122232
 30
0.0
 10
-0.8427110839694407
 20
7.503235100615151
 30
0.0
 10
-0.7691913757953088
 20
6.636533195511113
 30
0.0
 10
-0.6961830247216838
 20
5.769792283118392
 30
0.0
 10
-0.6201220679098469
 20
4.903285480513532
 30
0.0
 10
-0.5617644989182295
 20
4.035421468713554
 30
0.0
 10
-0.5026184443573669
 20
3.167600978850495
 30
0.0
 10
-0.462188258463847
 20
2.734553175816482
 30
0.0
  0
SPLINE
  5
E9
330
1F
100
AcDbEntity
  8
Default
100
AcDbSpline
210
0.0
220
0.0
230
1.0
 70
     8
 71
     3
 72
     8
 73
     4
 74
     0
 42
0.0000000001
 43
0.0000000001
 40
-1.0
 40
-1.0
 40
-1.0
 40
-1.0
 40
0.0
 40
0.0
 40
0.0
 40
0.0
 10
-2.23220805647766
 20
7.936590583900397
 30
0.0
 10
-1.803305206639699
 20
8.075809907780268
 30
0.0
 10
-0.9174788928208102
 20
8.38591295076164
 30
0.0
 10
-0.8794120361308231
 20
7.936590584122232
 30
0.0
  0
SPLINE
  5
EA
330
1F
100
AcDbEntity
  8
Default
100
AcDbSpline
210
0.0
220
0.0
230
1.0
 70
    12
 71
     2
 72
     6
 73
     3
 74
     0
 42
0.0000000001
 43
0.0000000001
 40
-9.972518196955523
 40
-9.972518196955523
 40
-9.972518196955523
 40
0.0
 40
0.0
 40
0.0
 10
-11.7189029124185
 20
4.861018593350058
 30
0.0
 41
1.0
 10
-6.974876122895862
 20
6.397148629054794
 30
0.0
 41
0.9999999359462229
 10
-2.23220805647766
 20
7.936590583900397
 30
0.0
 41
1.0
  0
POLYLINE
  5
EB
330
1F
100
AcDbEntity
  8
Default
100
AcDb2dPolyline
 66
     1
 10
0.0
 20
0.0
 30
0.0
  0
VERTEX
  5
EC
330
EB
100
AcDbEntity
  8
Default
100
AcDbVertex
100
AcDb2dVertex
 10
-12.41872206979274
 20
3.839516775168422
 30
0.0
  0
VERTEX
  5
ED
330
EB
100
AcDbEntity
  8
Default
100
AcDbVertex
100
AcDb2dVertex
 10
-12.39646696434079
 20
4.034521201650072
 30
0.0
  0
VERTEX
  5
EE
330
EB
100
AcDbEntity
  8
Default
100
AcDbVertex
100
AcDb2dVertex
 10
-12.38464421416575
 20
4.118262438546996
 30
0.0
  0
VERTEX
  5
EF
330
EB
100
AcDbEntity
  8
Default
100
AcDbVertex
100
AcDb2dVertex
 10
-12.37153487410936
 20
4.194604591920148
 30
0.0
  0
VERTEX
  5
F0
330
EB
100
AcDbEntity
  8
Default
100
AcDbVertex
100
AcDb2dVertex
 10
-12.3570688688045
 20
4.263437523667539
 30
0.0
  0
VERTEX
  5
F1
330
EB
100
AcDbEntity
  8
Default
100
AcDbVertex
100
AcDb2dVertex
 10
-12.34135712721979
 20
4.324608716603168
 30
0.0
  0
VERTEX
  5
F2
330
EB
100
AcDbEntity
  8
Default
100
AcDbVertex
100
AcDb2dVertex
 10
-12.32443813978642
 20
4.379073315795259
 30
0.0
  0
VERTEX
  5
F3
330
EB
100
AcDbEntity
  8
Default
100
AcDbVertex
100
AcDb2dVertex
 10
-12.3054247206985
 20
4.429998491005836
 30
0.0
  0
VERTEX
  5
F4
330
EB
100
AcDbEntity
  8
Default
100
AcDbVertex
100
AcDb2dVertex
 10
-12.28283784100232
 20
4.479818741562966
 30
0.0
  0
VERTEX
  5
F5
330
EB
100
AcDbEntity
  8
Default
100
AcDbVertex
100
AcDb2dVertex
 10
-12.25568681025224
 20
4.528329301016673
 30
0.0
  0
VERTEX
  5
F6
330
EB
100
AcDbEntity
  8
Default
100
AcDbVertex
100
AcDb2dVertex
 10
-12.22437165434565
 20
4.573377222846518
 30
0.0
  0
VERTEX
  5
F7
330
EB
100
AcDbEntity
  8
Default
100
AcDbVertex
100
AcDb2dVertex
 10
-12.19107876283179
 20
4.612557081626964
 30
0.0
  0
VERTEX
  5
F8
330
EB
100
AcDbEntity
  8
Default
100
AcDbVertex
100
AcDb2dVertex
 10
-12.15596583195703
 20
4.64674502833453
 30
0.0
  0
VERTEX
  5
F9
330
EB
100
AcDbEntity
  8
Default
100
AcDbVertex
100
AcDb2dVertex
 10
-12.11659951951932
 20
4.678604230298193
 30
0.0
  0
VERTEX
  5
FA
330
EB
100
AcDbEntity
  8
Default
100
AcDbVertex
100
AcDb2dVertex
 10
-12.07197459116874
 20
4.709064656690058
 30
0.0
  0
VERTEX
  5
FB
330
EB
100
AcDbEntity
  8
Default
100
AcDbVertex
100
AcDb2dVertex
 10
-12.02287700924082
 20
4.737829132307755
 30
0.0
  0
VERTEX
  5
FC
330
EB
100
AcDbEntity
  8
Default
100
AcDbVertex
100
AcDb2dVertex
 10
-11.97064293161085
 20
4.76454445841672
 30
0.0
  0
VERTEX
  5
FD
330
EB
100
AcDbEntity
  8
Default
100
AcDbVertex
100
AcDb2dVertex
 10
-11.91553568476347
 20
4.789395080221552
 30
0.0
  0
VERTEX
  5
FE
330
EB
100
AcDbEntity
  8
Default
100
AcDbVertex
100
AcDb2dVertex
 10
-11.85597981494183
 20
4.813329650950052
 30
0.0
  0
VERTEX
  5
FF
330
EB
100
AcDbEntity
  8
Default
100
AcDbVertex
100
AcDb2dVertex
 10
-11.79067277291997
 20
4.837032094536738
 30
0.0
  0
VERTEX
  5
100
330
EB
100
AcDbEntity
  8
Default
100
AcDbVertex
100
AcDb2dVertex
 10
-11.7189029124185
 20
4.861018593350058
 30
0.0
  0
SEQEND
  5
101
330
EB
100
AcDbEntity
  8
Default
  0
ARC
  5
102
330
1F
100
AcDbEntity
  8
Default
100
AcDbCircle
 10
-38.48657581572932
 20
6.630442674685647
 30
0.0
 40
26.2168317364272
100
AcDbArc
 50
351.28924780875
 51
353.8889694455977
  0
ARC
  5
103
330
1F
100
AcDbEntity
  8
Default
100
AcDbCircle
 10
-0.65462374993389
 20
2.81602175516138
 30
0.0
 40
3.292769270586952
100
AcDbArc
 50
91.21869963762217
 51
98.1453197491672
  0
ARC
  5
104
330
1F
100
AcDbEntity
  8
Default
100
AcDbCircle
 10
0.7214083409712799
 20
-6.797963521514895
 30
0.0
 40
13.00472979436119
100
AcDbArc
 50
98.14531974916679
 51
101.7184565418825
  0
SPLINE
  5
105
330
1F
100
AcDbEntity
  8
Default
100
AcDbSpline
210
0.0
220
0.0
230
1.0
 70
    12
 71
     2
 72
     6
 73
     3
 74
     0
 42
0.0000000001
 43
0.0000000001
 40
0.0
 40
0.0
 40
0.0
 40
9.923516069771367
 40
9.923516069771367
 40
9.923516069771367
 10
-11.68300399231629
 20
4.112735326154898
 30
0.0
 41
1.0
 10
-6.799015975795769
 20
5.024991025830375
 30
0.0
 41
0.9999999980993496
 10
-1.919887644697816
 20
5.935714365899793
 30
0.0
 41
1.0
  0
SPLINE
  5
106
330
1F
100
AcDbEntity
  8
Default
100
AcDbSpline
210
0.0
220
0.0
230
1.0
 70
     8
 71
     3
 72
    11
 73
     7
 74
     0
 42
0.0000000001
 43
0.0000000001
 40
0.0
 40
0.0
 40
0.0
 40
0.0
 40
0.0685392317844788
 40
0.1337942712257442
 40
0.2437288863794028
 40
0.5063519703326558
 40
0.5063519703326558
 40
0.5063519703326558
 40
0.5063519703326558
 10
-12.01834201405201
 20
3.79139527812047
 30
0.0
 10
-12.01673702831943
 20
3.81394698074345
 30
0.0
 10
-12.00890500356142
 20
3.858834814894811
 30
0.0
 10
-11.98842258890852
 20
3.935918586640503
 30
0.0
 10
-11.90406174857566
 20
4.064213073112322
 30
0.0
 10
-11.77358005763253
 20
4.095161847426463
 30
0.0
 10
-11.68300399231629
 20
4.112735326154898
 30
0.0
  0
POLYLINE
  5
107
330
1F
100
AcDbEntity
  8
Default
100
AcDb2dPolyline
 66
     1
 10
0.0
 20
0.0
 30
0.0
  0
VERTEX
  5
108
330
107
100
AcDbEntity
  8
Default
100
AcDbVertex
100
AcDb2dVertex
 10
-12.07487480926125
 20
2.735702831654392
 30
0.0
  0
VERTEX
  5
109
330
107
100
AcDbEntity
  8
Default
100
AcDbVertex
100
AcDb2dVertex
 10
-12.01834201405201
 20
3.79139527812047
 30
0.0
  0
SEQEND
  5
10A
330
107
100
AcDbEntity
  8
Default
  0
SPLINE
  5
10B
330
1F
100
AcDbEntity
  8
Default
100
AcDbSpline
210
0.0
220
0.0
230
1.0
 70
    12
 71
     2
 72
     6
 73
     3
 74
     0
 42
0.0000000001
 43
0.0000000001
 40
0.0
 40
0.0
 40
0.0
 40
0.1212866906408806
 40
0.1212866906408806
 40
0.1212866906408806
 10
-12.15475427130298
 20
2.660000000135945
 30
0.0
 41
1.0
 10
-12.07911039143385
 20
2.660177419487753
 30
0.0
 41
0.7274390629246568
 10
-12.07487480926125
 20
2.735702831654392
 30
0.0
 41
1.0
  0
POLYLINE
  5
10C
330
1F
100
AcDbEntity
  8
Default
100
AcDb2dPolyline
 66
     1
 10
0.0
 20
0.0
 30
0.0
  0
VERTEX
  5
10D
330
10C
100
AcDbEntity
  8
Default
100
AcDbVertex
100
AcDb2dVertex
 10
-12.91509809200299
 20
2.660372603167435
 30
0.0
  0
VERTEX
  5
10E
330
10C
100
AcDbEntity
  8
Default
100
AcDbVertex
100
AcDb2dVertex
 10
-12.15475427130298
 20
2.660000000135945
 30
0.0
  0
SEQEND
  5
10F
330
10C
100
AcDbEntity
  8
Default
  0
SPLINE
  5
110
330
1F
100
AcDbEntity
  8
Default
100
AcDbSpline
210
0.0
220
0.0
230
1.0
 70
    12
 71
     2
 72
     6
 73
     3
 74
     0
 42
0.0000000001
 43
0.0000000001
 40
0.0
 40
0.0
 40
0.0
 40
0.1235035941322005
 40
0.1235035941322005
 40
0.1235035941322005
 10
-12.98722074763614
 20
2.745718756732309
 30
0.0
 41
1.0
 10
-12.99255159268252
 20
2.667921627997057
 30
0.0
 41
0.7171989190658197
 10
-12.91509809200299
 20
2.660372603167435
 30
0.0
 41
1.0
  0
SPLINE
  5
111
330
1F
100
AcDbEntity
  8
Default
100
AcDbSpline
210
0.0
220
0.0
230
1.0
 70
    12
 71
     2
 72
     6
 73
     3
 74
     0
 42
0.0000000001
 43
0.0000000001
 40
0.0
 40
0.0
 40
0.0
 40
1.279806876924132
 40
1.279806876924132
 40
1.279806876924132
 10
-12.89442205342407
 20
4.037804242385366
 30
0.0
 41
1.0
 10
-12.9408992315529
 20
3.384103012644083
 30
0.0
 41
0.9999997048608069
 10
-12.98722074763614
 20
2.745718756732309
 30
0.0
 41
1.0
  0
SPLINE
  5
112
330
1F
100
AcDbEntity
  8
Default
100
AcDbSpline
210
0.0
220
0.0
230
1.0
 70
     8
 71
     3
 72
    11
 73
     7
 74
     0
 42
0.0000000001
 43
0.0000000001
 40
0.0
 40
0.0
 40
0.0
 40
0.0
 40
0.2609833095624807
 40
0.4361280553011403
 40
0.7228545357604632
 40
1.422854144527428
 40
1.422854144527428
 40
1.422854144527428
 40
1.422854144527428
 10
-12.01314743387862
 20
5.004894892528555
 30
0.0
 10
-12.09611800325435
 20
4.979031577621577
 30
0.0
 10
-12.23398092750209
 20
4.931917595137066
 30
0.0
 10
-12.45781094429427
 20
4.84366718571659
 30
0.0
 10
-12.7772895775776
 20
4.608325979403995
 30
0.0
 10
-12.87549987466905
 20
4.26490790962145
 30
0.0
 10
-12.89442205342407
 20
4.037804242385366
 30
0.0
  0
SPLINE
  5
113
330
1F
100
AcDbEntity
  8
Default
100
AcDbSpline
210
0.0
220
0.0
230
1.0
 70
     8
 71
     2
 72
    11
 73
     8
 74
     0
 42
0.0000000001
 43
0.0000000001
 40
0.0
 40
0.0
 40
0.0
 40
0.9999999999999999
 40
2.0
 40
3.0
 40
3.999999999999999
 40
4.999999999999999
 40
5.999999999999999
 40
5.999999999999999
 40
5.999999999999999
 10
-1.630456642007793
 20
8.367703775410632
 30
0.0
 10
-2.504041734123348
 20
8.11899254180157
 30
0.0
 10
-4.225123716778491
 20
7.538288720910812
 30
0.0
 10
-5.951425797381788
 20
6.974108200836982
 30
0.0
 10
-7.677814486850401
 20
6.410090342718183
 30
0.0
 10
-9.404979012450355
 20
5.848469497456385
 30
0.0
 10
-11.13279805980072
 20
5.288862970564107
 30
0.0
 10
-12.01314743387862
 20
5.004894892528555
 30
0.0
  0
ARC
  5
114
330
1F
100
AcDbEntity
  8
Default
100
AcDbCircle
 10
10.52511647472811
 20
-34.32810576567275
 30
0.0
 40
44.39245555457344
100
AcDbArc
 50
104.9976985202251
 51
105.8917477271399
  0
SPLINE
  5
115
330
1F
100
AcDbEntity
  8
Default
100
AcDbSpline
210
0.0
220
0.0
230
1.0
 70
    24
 71
     2
 72
     6
 73
     3
 74
     0
 42
0.0000000001
 43
0.0000000001
 40
-0.146406090086195
 40
-0.146406090086195
 40
-0.146406090086195
 40
0.0
 40
0.0
 40
0.0
 10
-0.8592489164047947
 20
8.655699367598153
 30
0.0
 10
-0.9110114875378947
 20
8.603937199625083
 30
0.0
 10
-0.9627740586709947
 20
8.55217503165201
 30
0.0
  0
SPLINE
  5
116
330
1F
100
AcDbEntity
  8
Default
100
AcDbSpline
210
0.0
220
0.0
230
1.0
 70
    24
 71
     2
 72
     6
 73
     3
 74
     0
 42
0.0000000001
 43
0.0000000001
 40
-0.859248916403498
 40
-0.859248916403498
 40
-0.859248916403498
 40
0.0
 40
0.0
 40
0.0
 10
0.0
 20
8.655699367598153
 30
0.0
 10
-0.4296244582023974
 20
8.655699367598153
 30
0.0
 10
-0.8592489164047947
 20
8.655699367598153
 30
0.0
  0
SPLINE
  5
117
330
1F
100
AcDbEntity
  8
Default
100
AcDbSpline
210
0.0
220
0.0
230
1.0
 70
    24
 71
     2
 72
     6
 73
     3
 74
     0
 42
0.0000000001
 43
0.0000000001
 40
0.0
 40
0.0
 40
0.0
 40
0.859248916403498
 40
0.859248916403498
 40
0.859248916403498
 10
0.8592489164047947
 20
8.655699367598153
 30
0.0
 10
0.4296244582023974
 20
8.655699367598153
 30
0.0
 10
0.0
 20
8.655699367598153
 30
0.0
  0
SPLINE
  5
118
330
1F
100
AcDbEntity
  8
Default
100
AcDbSpline
210
0.0
220
0.0
230
1.0
 70
    24
 71
     2
 72
     6
 73
     3
 74
     0
 42
0.0000000001
 43
0.0000000001
 40
0.0
 40
0.0
 40
0.0
 40
0.146406090086195
 40
0.146406090086195
 40
0.146406090086195
 10
0.9627740586709947
 20
8.55217503165201
 30
0.0
 10
0.9110114875378947
 20
8.603937199625083
 30
0.0
 10
0.8592489164047947
 20
8.655699367598153
 30
0.0
  0
ARC
  5
119
330
1F
100
AcDbEntity
  8
Default
100
AcDbCircle
 10
-10.52511647472811
 20
-34.32810576567275
 30
0.0
 40
44.39245555457344
100
AcDbArc
 50
74.1082522728601
 51
75.00230147977487
  0
SPLINE
  5
11A
330
1F
100
AcDbEntity
  8
Default
100
AcDbSpline
210
0.0
220
0.0
230
1.0
 70
     8
 71
     2
 72
    11
 73
     8
 74
     0
 42
0.0000000001
 43
0.0000000001
 40
-5.999999999999999
 40
-5.999999999999999
 40
-5.999999999999999
 40
-4.999999999999999
 40
-3.999999999999999
 40
-3.0
 40
-2.0
 40
-0.9999999999999999
 40
0.0
 40
0.0
 40
0.0
 10
12.01314743387862
 20
5.004894892528555
 30
0.0
 10
11.13279805980072
 20
5.288862970564107
 30
0.0
 10
9.404979012450355
 20
5.848469497456385
 30
0.0
 10
7.677814486850401
 20
6.410090342718183
 30
0.0
 10
5.951425797381788
 20
6.974108200836982
 30
0.0
 10
4.225123716778491
 20
7.538288720910812
 30
0.0
 10
2.504041734123348
 20
8.11899254180157
 30
0.0
 10
1.630456642007793
 20
8.367703775410632
 30
0.0
  0
SPLINE
  5
11B
330
1F
100
AcDbEntity
  8
Default
100
AcDbSpline
210
0.0
220
0.0
230
1.0
 70
     8
 71
     3
 72
    11
 73
     7
 74
     0
 42
0.0000000001
 43
0.0000000001
 40
-1.422854144527428
 40
-1.422854144527428
 40
-1.422854144527428
 40
-1.422854144527428
 40
-0.7228545357604632
 40
-0.4361280553011403
 40
-0.2609833095624807
 40
0.0
 40
0.0
 40
0.0
 40
0.0
 10
12.89442205342407
 20
4.037804242385366
 30
0.0
 10
12.87549987466905
 20
4.26490790962145
 30
0.0
 10
12.7772895775776
 20
4.608325979403995
 30
0.0
 10
12.45781094429427
 20
4.84366718571659
 30
0.0
 10
12.23398092750209
 20
4.931917595137066
 30
0.0
 10
12.09611800325435
 20
4.979031577621577
 30
0.0
 10
12.01314743387862
 20
5.004894892528555
 30
0.0
  0
SPLINE
  5
11C
330
1F
100
AcDbEntity
  8
Default
100
AcDbSpline
210
0.0
220
0.0
230
1.0
 70
    12
 71
     2
 72
     6
 73
     3
 74
     0
 42
0.0000000001
 43
0.0000000001
 40
-1.279806876924132
 40
-1.279806876924132
 40
-1.279806876924132
 40
0.0
 40
0.0
 40
0.0
 10
12.98722074763614
 20
2.745718756732309
 30
0.0
 41
1.0
 10
12.9408992315529
 20
3.384103012644083
 30
0.0
 41
0.9999997048608069
 10
12.89442205342407
 20
4.037804242385366
 30
0.0
 41
1.0
  0
SPLINE
  5
11D
330
1F
100
AcDbEntity
  8
Default
100
AcDbSpline
210
0.0
220
0.0
230
1.0
 70
    12
 71
     2
 72
     6
 73
     3
 74
     0
 42
0.0000000001
 43
0.0000000001
 40
-0.1235035941322005
 40
-0.1235035941322005
 40
-0.1235035941322005
 40
0.0
 40
0.0
 40
0.0
 10
12.91509809200299
 20
2.660372603167435
 30
0.0
 41
1.0
 10
12.99255159268252
 20
2.667921627997057
 30
0.0
 41
0.7171989190658197
 10
12.98722074763614
 20
2.745718756732309
 30
0.0
 41
1.0
  0
POLYLINE
  5
11E
330
1F
100
AcDbEntity
  8
Default
100
AcDb2dPolyline
 66
     1
 10
0.0
 20
0.0
 30
0.0
  0
VERTEX
  5
11F
330
11E
100
AcDbEntity
  8
Default
100
AcDbVertex
100
AcDb2dVertex
 10
12.15475427130298
 20
2.660000000135945
 30
0.0
  0
VERTEX
  5
120
330
11E
100
AcDbEntity
  8
Default
100
AcDbVertex
100
AcDb2dVertex
 10
12.91509809200299
 20
2.660372603167435
 30
0.0
  0
SEQEND
  5
121
330
11E
100
AcDbEntity
  8
Default
  0
SPLINE
  5
122
330
1F
100
AcDbEntity
  8
Default
100
AcDbSpline
210
0.0
220
0.0
230
1.0
 70
    12
 71
     2
 72
     6
 73
     3
 74
     0
 42
0.0000000001
 43
0.0000000001
 40
-0.1212866906408806
 40
-0.1212866906408806
 40
-0.1212866906408806
 40
0.0
 40
0.0
 40
0.0
 10
12.07487480926125
 20
2.735702831654392
 30
0.0
 41
1.0
 10
12.07911039143385
 20
2.660177419487753
 30
0.0
 41
0.7274390629246568
 10
12.15475427130298
 20
2.660000000135945
 30
0.0
 41
1.0
  0
POLYLINE
  5
123
330
1F
100
AcDbEntity
  8
Default
100
AcDb2dPolyline
 66
     1
 10
0.0
 20
0.0
 30
0.0
  0
VERTEX
  5
124
330
123
100
AcDbEntity
  8
Default
100
AcDbVertex
100
AcDb2dVertex
 10
12.01834201405201
 20
3.79139527812047
 30
0.0
  0
VERTEX
  5
125
330
123
100
AcDbEntity
  8
Default
100
AcDbVertex
100
AcDb2dVertex
 10
12.07487480926125
 20
2.735702831654392
 30
0.0
  0
SEQEND
  5
126
330
123
100
AcDbEntity
  8
Default
  0
SPLINE
  5
127
330
1F
100
AcDbEntity
  8
Default
100
AcDbSpline
210
0.0
220
0.0
230
1.0
 70
     8
 71
     3
 72
    11
 73
     7
 74
     0
 42
0.0000000001
 43
0.0000000001
 40
-0.5063519703326558
 40
-0.5063519703326558
 40
-0.5063519703326558
 40
-0.5063519703326558
 40
-0.2437288863794028
 40
-0.1337942712257442
 40
-0.0685392317844788
 40
0.0
 40
0.0
 40
0.0
 40
0.0
 10
11.68300399231629
 20
4.112735326154898
 30
0.0
 10
11.77358005763253
 20
4.095161847426463
 30
0.0
 10
11.90406174857566
 20
4.064213073112322
 30
0.0
 10
11.98842258890852
 20
3.935918586640503
 30
0.0
 10
12.00890500356142
 20
3.858834814894811
 30
0.0
 10
12.01673702831943
 20
3.81394698074345
 30
0.0
 10
12.01834201405201
 20
3.79139527812047
 30
0.0
  0
SPLINE
  5
128
330
1F
100
AcDbEntity
  8
Default
100
AcDbSpline
210
0.0
220
0.0
230
1.0
 70
    12
 71
     2
 72
     6
 73
     3
 74
     0
 42
0.0000000001
 43
0.0000000001
 40
-9.923516069771367
 40
-9.923516069771367
 40
-9.923516069771367
 40
0.0
 40
0.0
 40
0.0
 10
1.919887644697816
 20
5.935714365899793
 30
0.0
 41
1.0
 10
6.799015975795769
 20
5.024991025830375
 30
0.0
 41
0.9999999980993496
 10
11.68300399231629
 20
4.112735326154898
 30
0.0
 41
1.0
  0
ARC
  5
129
330
1F
100
AcDbEntity
  8
Default
100
AcDbCircle
 10
-0.7214083409712799
 20
-6.797963521514895
 30
0.0
 40
13.00472979436119
100
AcDbArc
 50
78.28154345811753
 51
81.85468025083321
  0
ARC
  5
12A
330
1F
100
AcDbEntity
  8
Default
100
AcDbCircle
 10
0.65462374993389
 20
2.81602175516138
 30
0.0
 40
3.292769270586952
100
AcDbArc
 50
81.85468025083281
 51
88.78130036237783
  0
ARC
  5
12B
330
1F
100
AcDbEntity
  8
Default
100
AcDbCircle
 10
68.31691577184154
 20
3.211710950303746
 30
0.0
 40
76.39120889144402
100
AcDbArc
 50
179.6665448524968
 51
180.4138039472124
  0
LINE
  5
12C
330
1F
100
AcDbEntity
  8
Default
100
AcDbLine
 10
-8.070964712206539
 20
4.00590143748518
 30
0.0
 11
-8.07299939526434
 21
3.656296890934675
 31
0.0
  0
SPLINE
  5
12D
330
1F
100
AcDbEntity
  8
Default
100
AcDbSpline
210
0.0
220
0.0
230
1.0
 70
     8
 71
     3
 72
    12
 73
     8
 74
     0
 42
0.0000000001
 43
0.0000000001
 40
0.0
 40
0.0
 40
0.0
 40
0.0
 40
0.0807135580873582
 40
0.1561302048482713
 40
0.3085481570555513
 40
0.4875238302638922
 40
0.7348234087463479
 40
0.7348234087463479
 40
0.7348234087463479
 40
0.7348234087463479
 10
-7.808728286515219
 20
4.645789360260311
 30
0.0
 10
-7.833393949530432
 20
4.632865539328695
 30
0.0
 10
-7.878055006372946
 20
4.606339897567548
 30
0.0
 10
-7.957470766206697
 20
4.539688801881998
 30
0.0
 10
-8.028753551920701
 20
4.421218715464775
 30
0.0
 10
-8.066228827508084
 20
4.230296484905532
 30
0.0
 10
-8.071081233822966
 20
4.088467010633467
 30
0.0
 10
-8.070964712206539
 20
4.00590143748518
 30
0.0
  0
SPLINE
  5
12E
330
1F
100
AcDbEntity
  8
Default
100
AcDbSpline
210
0.0
220
0.0
230
1.0
 70
    12
 71
     2
 72
     6
 73
     3
 74
     0
 42
0.0000000001
 43
0.0000000001
 40
0.0
 40
0.0
 40
0.0
 40
0.6201447082721723
 40
0.6201447082721723
 40
0.6201447082721723
 10
-7.261074599832362
 20
4.938572349993528
 30
0.0
 41
1.0
 10
-7.533546752404567
 20
4.790563476915829
 30
0.0
 41
0.999977880596909
 10
-7.808728286515219
 20
4.645789360260311
 30
0.0
 41
1.0
  0
ARC
  5
12F
330
1F
100
AcDbEntity
  8
Default
100
AcDbCircle
 10
68.37079838939773
 20
3.206930781203848
 30
0.0
 40
76.39120889148064
100
AcDbArc
 50
179.6665448524962
 51
180.4102185792066
  0
LINE
  5
130
330
1F
100
AcDbEntity
  8
Default
100
AcDbLine
 10
-8.017082094686948
 20
4.001121268386267
 30
0.0
 11
-8.019116777744742
 21
3.651516721835762
 31
0.0
  0
SPLINE
  5
131
330
1F
100
AcDbEntity
  8
Default
100
AcDbSpline
210
0.0
220
0.0
230
1.0
 70
    12
 71
     2
 72
    34
 73
    31
 74
     0
 42
0.0000000001
 43
0.0000000001
 40
0.0
 40
0.0
 40
0.0
 40
0.0325629330256031
 40
0.0325629330256031
 40
0.0679867475747329
 40
0.0679867475747329
 40
0.1078548175612879
 40
0.1078548175612879
 40
0.1539416874961473
 40
0.1539416874961473
 40
0.2049083135201158
 40
0.2049083135201158
 40
0.2543078929230853
 40
0.2543078929230853
 40
0.3011102212885154
 40
0.3011102212885154
 40
0.3516822644554414
 40
0.3516822644554414
 40
0.4070049641826737
 40
0.4070049641826737
 40
0.4643605855870755
 40
0.4643605855870755
 40
0.5185444554455992
 40
0.5185444554455992
 40
0.5669809148546006
 40
0.5669809148546006
 40
0.6104726859179642
 40
0.6104726859179642
 40
0.6501902162813917
 40
0.6501902162813917
 40
0.6873951308628176
 40
0.6873951308628176
 40
0.6873951308628176
 10
-7.787414143909231
 20
4.600629750302729
 30
0.0
 41
1.0
 10
-7.801870790810076
 20
4.59313524787688
 30
0.0
 41
0.9997848817731985
 10
-7.816004179027523
 20
4.585047631187056
 30
0.0
 41
1.0
 10
-7.831384972769595
 20
4.576251548998998
 30
0.0
 41
0.9994547773423571
 10
-7.846151701164764
 20
4.566459531306059
 30
0.0
 41
1.0
 10
-7.862782754820406
 20
4.555440318788306
 30
0.0
 41
0.9987765555205204
 10
-7.878243982821218
 20
4.542832169879135
 30
0.0
 41
1.0
 10
-7.896121450433738
 20
4.528235919408156
 30
0.0
 41
0.9976702384926762
 10
-7.911845611435524
 20
4.511341981535713
 30
0.0
 41
1.0
 10
-7.929225793480786
 20
4.492632026232052
 30
0.0
 41
0.9968554709066841
 10
-7.943431834267116
 20
4.471411244894668
 30
0.0
 41
1.0
 10
-7.957206436983173
 20
4.450849678614829
 30
0.0
 41
0.9970143869160545
 10
-7.967650898905511
 20
4.428412412671357
 30
0.0
 41
1.0
 10
-7.977490424787972
 20
4.407141673202814
 30
0.0
 41
0.9977520697646052
 10
-7.984397131564592
 20
4.384746181946042
 30
0.0
 41
1.0
 10
-7.991801551875445
 20
4.360545139685637
 30
0.0
 41
0.998673277181905
 10
-7.996677568538743
 20
4.335710882134244
 30
0.0
 41
1.0
 10
-8.0020531452851
 20
4.308564658859392
 30
0.0
 41
0.9993497102211706
 10
-8.005458356933048
 20
4.281101614653097
 30
0.0
 41
1.0
 10
-8.008999887956369
 20
4.252637234722353
 30
0.0
 41
0.9996841037542856
 10
-8.01110657780275
 20
4.224030850387349
 30
0.0
 41
1.0
 10
-8.013122076169378
 20
4.197011475006218
 30
0.0
 41
0.9998611152163238
 10
-8.01423597874144
 20
4.169939938280121
 30
0.0
 41
1.0
 10
-8.015229046606324
 20
4.145741199800931
 30
0.0
 41
0.9999456865613557
 10
-8.015717514053442
 20
4.1215270195067
 30
0.0
 41
1.0
 10
-8.016159842873492
 20
4.099785439773346
 30
0.0
 41
0.9999866673554543
 10
-8.016377611576246
 20
4.078040451365002
 30
0.0
 41
1.0
 10
-8.016578234710407
 20
4.05818268907433
 30
0.0
 41
0.9999992045072397
 10
-8.016728762367201
 20
4.038324483861892
 30
0.0
 41
1.0
 10
-8.016870967495185
 20
4.019722548835264
 30
0.0
 41
0.9999982839715726
 10
-8.017082094686948
 20
4.001121268386267
 30
0.0
 41
1.0
  0
SPLINE
  5
132
330
1F
100
AcDbEntity
  8
Default
100
AcDbSpline
210
0.0
220
0.0
230
1.0
 70
    12
 71
     2
 72
     6
 73
     3
 74
     0
 42
0.0000000001
 43
0.0000000001
 40
0.0
 40
0.0
 40
0.0
 40
0.8199859379606601
 40
0.8199859379606601
 40
0.8199859379606601
 10
-7.057140901998203
 20
4.973550849388168
 30
0.0
 41
1.0
 10
-7.423376431196343
 20
4.789242238383841
 30
0.0
 41
0.99998263368664
 10
-7.787414143909231
 20
4.600629750302729
 30
0.0
 41
1.0
  0
ARC
  5
133
330
1F
100
AcDbEntity
  8
Default
100
AcDbCircle
 10
75.90395695643407
 20
-4.118056024825004
 30
0.0
 40
83.46239820896254
100
AcDbArc
 50
174.3253122224893
 51
174.7196047297251
  0
LINE
  5
134
330
1F
100
AcDbEntity
  8
Default
100
AcDbLine
 10
-7.276740536499688
 20
2.73354760934075
 30
0.0
 11
-7.204247372081305
 21
3.562978285811122
 31
0.0
  0
SPLINE
  5
135
330
1F
100
AcDbEntity
  8
Default
100
AcDbSpline
210
0.0
220
0.0
230
1.0
 70
    12
 71
     2
 72
     6
 73
     3
 74
     0
 42
0.0000000001
 43
0.0000000001
 40
0.0
 40
0.0
 40
0.0
 40
0.1189905253564627
 40
0.1189905253564627
 40
0.1189905253564627
 10
-7.356478913344631
 20
2.660000000014658
 30
0.0
 41
1.0
 10
-7.282993671275019
 20
2.660202674076007
 30
0.0
 41
0.737434850107945
 10
-7.276740536499688
 20
2.73354760934075
 30
0.0
 41
1.0
  0
POLYLINE
  5
136
330
1F
100
AcDbEntity
  8
Default
100
AcDb2dPolyline
 66
     1
 10
0.0
 20
0.0
 30
0.0
  0
VERTEX
  5
137
330
136
100
AcDbEntity
  8
Default
100
AcDbVertex
100
AcDb2dVertex
 10
-8.152355661988224
 20
2.660000000000512
 30
0.0
  0
VERTEX
  5
138
330
136
100
AcDbEntity
  8
Default
100
AcDbVertex
100
AcDb2dVertex
 10
-7.356478913344631
 20
2.660000000014658
 30
0.0
  0
SEQEND
  5
139
330
136
100
AcDbEntity
  8
Default
  0
SPLINE
  5
13A
330
1F
100
AcDbEntity
  8
Default
100
AcDbSpline
210
0.0
220
0.0
230
1.0
 70
     8
 71
     3
 72
     8
 73
     4
 74
     0
 42
0.0000000001
 43
0.0000000001
 40
-1.0
 40
-1.0
 40
-1.0
 40
-1.0
 40
0.0
 40
0.0
 40
0.0
 40
0.0
 10
-8.232824258609554
 20
2.740117300580366
 30
0.0
 10
-8.231516867916781
 20
2.702398924457233
 30
0.0
 10
-8.190091022894883
 20
2.660000000000631
 30
0.0
 10
-8.152355661988224
 20
2.660000000000512
 30
0.0
  0
ARC
  5
13B
330
1F
100
AcDbEntity
  8
Default
100
AcDbCircle
 10
53.06270811494419
 20
3.761342010499233
 30
0.0
 40
61.30403892783512
100
AcDbArc
 50
180.8115794338823
 51
180.9544978333747
  0
LINE
  5
13C
330
1F
100
AcDbEntity
  8
Default
100
AcDbLine
 10
-8.241874797038932
 20
3.846244875087633
 30
0.0
 11
-8.235180904697117
 21
2.893015688623142
 31
0.0
  0
SPLINE
  5
13D
330
1F
100
AcDbEntity
  8
Default
100
AcDbSpline
210
0.0
220
0.0
230
1.0
 70
     8
 71
     3
 72
    12
 73
     8
 74
     0
 42
0.0000000001
 43
0.0000000001
 40
0.0
 40
0.0
 40
0.0
 40
0.0
 40
0.0873163874398896
 40
0.1700224095601808
 40
0.3581656996438056
 40
0.6075952990052825
 40
0.9909780472260572
 40
0.9909780472260572
 40
0.9909780472260572
 40
0.9909780472260572
 10
-8.04304088074646
 20
4.79077435223854
 30
0.0
 10
-8.06381749160768
 20
4.770233992366635
 30
0.0
 10
-8.100885716278498
 20
4.727511524647837
 30
0.0
 10
-8.163940781265744
 20
4.625109838135335
 30
0.0
 10
-8.214886951205472
 20
4.45796337812693
 30
0.0
 10
-8.24233532762743
 20
4.1850427235702
 30
0.0
 10
-8.241915472571847
 20
3.974050854746054
 30
0.0
 10
-8.241874797038932
 20
3.846244875087633
 30
0.0
  0
SPLINE
  5
13E
330
1F
100
AcDbEntity
  8
Default
100
AcDbSpline
210
0.0
220
0.0
230
1.0
 70
     8
 71
     3
 72
    15
 73
    11
 74
     0
 42
0.0000000001
 43
0.0000000001
 40
0.0
 40
0.0
 40
0.0
 40
0.0
 40
1.0
 40
2.0
 40
3.0
 40
4.0
 40
5.0
 40
6.0
 40
7.0
 40
8.0
 40
8.0
 40
8.0
 40
8.0
 10
-7.225868942922261
 20
4.111623924295754
 30
0.0
 10
-6.964168455683584
 20
4.190680438698085
 30
0.0
 10
-6.440767570674801
 20
4.348793788675728
 30
0.0
 10
-5.655666199718056
 20
4.585962521014684
 30
0.0
 10
-4.870565668078612
 20
4.823135178211308
 30
0.0
 10
-4.085461040822779
 20
5.060293664775659
 30
0.0
 10
-3.300372199934209
 20
5.297504835537084
 30
0.0
 10
-2.515223752638128
 20
5.534519608271062
 30
0.0
 10
-1.730299087076432
 20
5.772266943791096
 30
0.0
 10
-1.206458467176148
 20
5.928942748513599
 30
0.0
 10
-0.9455690830723356
 20
6.0106508306271
 30
0.0
  0
ARC
  5
13F
330
1F
100
AcDbEntity
  8
Default
100
AcDbCircle
 10
43.34163381361499
 20
-2.686072978285752
 30
0.0
 40
55.91103680015532
100
AcDbArc
 50
173.1258062017354
 51
174.5131388478377
  0
SPLINE
  5
140
330
1F
100
AcDbEntity
  8
Default
100
AcDbSpline
210
0.0
220
0.0
230
1.0
 70
     8
 71
     3
 72
    12
 73
     8
 74
     0
 42
0.0000000001
 43
0.0000000001
 40
0.0
 40
0.0
 40
0.0
 40
0.0
 40
0.1260766228409387
 40
0.237826563775455
 40
0.4344218079522603
 40
0.6303370446533767
 40
0.882694782768985
 40
0.882694782768985
 40
0.882694782768985
 40
0.882694782768985
 10
-11.66169606035348
 20
4.646192146633982
 30
0.0
 10
-11.70170139768107
 20
4.633837592494515
 30
0.0
 10
-11.77712466731273
 20
4.607781628103013
 30
0.0
 10
-11.90734865206845
 20
4.545332642646301
 30
0.0
 10
-12.03960413133855
 20
4.435153673429189
 30
0.0
 10
-12.1326469059439
 20
4.237189732693631
 30
0.0
 10
-12.15739909419587
 20
4.08950623804158
 30
0.0
 10
-12.16747818150696
 20
4.005901437485071
 30
0.0
  0
SPLINE
  5
141
330
1F
100
AcDbEntity
  8
Default
100
AcDbSpline
210
0.0
220
0.0
230
1.0
 70
    12
 71
     3
 72
    15
 73
    11
 74
     0
 42
0.0000000001
 43
0.0000000001
 40
-0.9614022157832935
 40
-0.9614022157832935
 40
-0.9614022157832935
 40
-0.9614022157832935
 40
0.0
 40
0.0
 40
0.0
 40
0.5001593749518297
 40
0.5001593749518297
 40
0.7506987155205498
 40
0.7506987155205498
 40
1.0
 40
1.0
 40
1.0
 40
1.0
 10
-1.216987429427725
 20
7.8366206410373
 30
0.0
 41
1.0
 10
-1.149923705367922
 20
7.836220838625263
 30
0.0
 41
0.9922441322491607
 10
-1.083187549209833
 20
7.833703687350154
 30
0.0
 41
0.9922441322491607
 10
-1.017942875572267
 20
7.817520846456982
 30
0.0
 41
1.0
 10
-0.9846356284141748
 20
7.808909453196668
 30
0.0
 41
1.0
 10
-0.950764599134132
 20
7.797016174127187
 30
0.0
 41
1.0
 10
-0.9075431963607343
 20
7.767879443832109
 30
0.0
 41
1.0
 10
-0.8948393365033169
 20
7.755882817978683
 30
0.0
 41
1.0
 10
-0.8747226419189928
 20
7.727371022849352
 30
0.0
 41
1.0
 10
-0.8673139790011106
 20
7.711275223913677
 30
0.0
 41
1.0
 10
-0.8634729094956057
 20
7.694404642245919
 30
0.0
 41
1.0
  0
SPLINE
  5
142
330
1F
100
AcDbEntity
  8
Default
100
AcDbSpline
210
0.0
220
0.0
230
1.0
 70
    12
 71
     2
 72
     6
 73
     3
 74
     0
 42
0.0000000001
 43
0.0000000001
 40
0.0
 40
0.0
 40
0.0
 40
0.9614022157832935
 40
0.9614022157832935
 40
0.9614022157832935
 10
-2.157703587724079
 20
7.657213360256307
 30
0.0
 41
1.0
 10
-1.701149389258332
 20
7.819297193627991
 30
0.0
 41
0.9883661983737412
 10
-1.216987429427725
 20
7.8366206410373
 30
0.0
 41
1.0
  0
SPLINE
  5
143
330
1F
100
AcDbEntity
  8
Default
100
AcDbSpline
210
0.0
220
0.0
230
1.0
 70
    12
 71
     3
 72
    12
 73
     8
 74
     0
 42
0.0000000001
 43
0.0000000001
 40
-1.0
 40
-1.0
 40
-1.0
 40
-1.0
 40
-0.7506987155205498
 40
-0.7506987155205498
 40
-0.5001593749518297
 40
-0.5001593749518297
 40
0.0
 40
0.0
 40
0.0
 40
0.0
 10
-11.66169606035348
 20
4.646192146633982
 30
0.0
 41
1.0
 10
-10.83978376065917
 20
4.901680007350057
 30
0.0
 41
1.0
 10
-10.11001753075109
 20
5.140983746136454
 30
0.0
 41
1.0
 10
-8.568860147831558
 20
5.639654035846307
 30
0.0
 41
1.0
 10
-7.78417026274073
 20
5.890183510155286
 30
0.0
 41
1.0
 10
-5.37264285250609
 20
6.653129569622889
 30
0.0
 41
1.0
 10
-3.766904742702906
 20
7.153808346081856
 30
0.0
 41
1.0
 10
-2.157703587724079
 20
7.657213360256307
 30
0.0
 41
1.0
  0
SPLINE
  5
144
330
1F
100
AcDbEntity
  8
Default
100
AcDbSpline
210
0.0
220
0.0
230
1.0
 70
    24
 71
     2
 72
     6
 73
     3
 74
     0
 42
0.0000000001
 43
0.0000000001
 40
-0.0076677802215738
 40
-0.0076677802215738
 40
-0.0076677802215738
 40
0.0
 40
0.0
 40
0.0
 10
-12.16000108012884
 20
0.0597652299949263
 30
0.0
 10
-12.16000108012884
 20
0.0635991203831216
 30
0.0
 10
-12.16000108012884
 20
0.0674330107713169
 30
0.0
  0
SPLINE
  5
145
330
1F
100
AcDbEntity
  8
Default
100
AcDbSpline
210
0.0
220
0.0
230
1.0
 70
    24
 71
     2
 72
     6
 73
     3
 74
     0
 42
0.0000000001
 43
0.0000000001
 40
0.0
 40
0.0
 40
0.0
 40
0.0180914894398488
 40
0.0180914894398488
 40
0.0180914894398488
 10
-12.16000108012884
 20
0.0416737399966112
 30
0.0
 10
-12.16000108012884
 20
0.0507194849957687
 30
0.0
 10
-12.16000108012884
 20
0.0597652299949263
 30
0.0
  0
SPLINE
  5
146
330
1F
100
AcDbEntity
  8
Default
100
AcDbSpline
210
0.0
220
0.0
230
1.0
 70
    28
 71
     3
 72
    10
 73
     6
 74
     0
 42
0.0000000001
 43
0.0000000001
 40
-3.924058572565469
 40
-3.924058572565469
 40
-3.924058572565469
 40
-3.924058572565469
 40
-3.905214231881589
 40
-3.905214231881589
 40
-3.76217791107922
 40
-3.76217791107922
 40
-3.76217791107922
 40
-3.76217791107922
 10
-12.16000108012884
 20
0.0312500296530011
 30
0.0
 41
1.0
 10
-12.16000108012884
 20
0.0313446649105616
 30
0.0
 41
1.0
 10
-12.16000108012884
 20
0.031297152348199
 30
0.0
 41
1.0
 10
-12.16000108012884
 20
0.0321103633440535
 30
0.0
 41
1.0
 10
-12.16000108012884
 20
0.0355356793560238
 30
0.0
 41
1.0
 10
-12.16000108012884
 20
0.0416737399966112
 30
0.0
 41
1.0
  0
SPLINE
  5
147
330
1F
100
AcDbEntity
  8
Default
100
AcDbSpline
210
0.0
220
0.0
230
1.0
 70
    12
 71
     2
 72
     8
 73
     5
 74
     0
 42
0.0000000001
 43
0.0000000001
 40
0.0
 40
0.0
 40
0.0
 40
0.0245437074326727
 40
0.0245437074326727
 40
0.0490874148653435
 40
0.0490874148653435
 40
0.0490874148653435
 10
-12.12875108012884
 20
0.0
 30
0.0
 41
1.0
 10
-12.14169526263816
 20
0.0
 30
0.0
 41
0.923879441729618
 10
-12.15084817752484
 20
0.0091529235718422
 30
0.0
 41
1.0
 10
-12.1600010924115
 20
0.0183058471436838
 30
0.0
 41
0.9238794417296633
 10
-12.16000108012884
 20
0.0312500296530011
 30
0.0
 41
1.0
  0
SPLINE
  5
148
330
1F
100
AcDbEntity
  8
Default
100
AcDbSpline
210
0.0
220
0.0
230
1.0
 70
    24
 71
     2
 72
     6
 73
     3
 74
     0
 42
0.0000000001
 43
0.0000000001
 40
-0.34375
 40
-0.34375
 40
-0.34375
 40
0.0
 40
0.0
 40
0.0
 10
-11.78500108012884
 20
-0.0000000000000003
 30
0.0
 10
-11.95687608012884
 20
-0.0000000000000001
 30
0.0
 10
-12.12875108012884
 20
0.0
 30
0.0
  0
SPLINE
  5
149
330
1F
100
AcDbEntity
  8
Default
100
AcDbSpline
210
0.0
220
0.0
230
1.0
 70
    12
 71
     2
 72
     6
 73
     3
 74
     0
 42
0.0000000001
 43
0.0000000001
 40
0.0
 40
0.0
 40
0.0
 40
0.1963495408493596
 40
0.1963495408493596
 40
0.1963495408493596
 10
-11.66000108012884
 20
0.1273360402760625
 30
0.0
 41
1.0
 10
-11.66000108012884
 20
0.0000000000000065
 30
0.0
 41
0.7071067811865861
 10
-11.78500108012884
 20
-0.0000000000000003
 30
0.0
 41
1.0
  0
SPLINE
  5
14A
330
1F
100
AcDbEntity
  8
Default
100
AcDbSpline
210
0.0
220
0.0
230
1.0
 70
    24
 71
     2
 72
     6
 73
     3
 74
     0
 42
0.0000000001
 43
0.0000000001
 40
0.0
 40
0.0
 40
0.0
 40
2.305327919447875
 40
2.305327919447875
 40
2.305327919447875
 10
-11.66000108012884
 20
2.435
 30
0.0
 10
-11.66000108012884
 20
1.281168020138032
 30
0.0
 10
-11.66000108012884
 20
0.1273360402760625
 30
0.0
  0
SPLINE
  5
14B
330
1F
100
AcDbEntity
  8
Default
100
AcDbSpline
210
0.0
220
0.0
230
1.0
 70
    12
 71
     2
 72
     6
 73
     3
 74
     0
 42
0.0000000001
 43
0.0000000001
 40
0.0
 40
0.0
 40
0.0
 40
0.196349540849359
 40
0.196349540849359
 40
0.196349540849359
 10
-11.78500108012884
 20
2.56
 30
0.0
 41
1.0
 10
-11.66000108012884
 20
2.559999999999993
 30
0.0
 41
0.7071067811865878
 10
-11.66000108012884
 20
2.435
 30
0.0
 41
1.0
  0
SPLINE
  5
14C
330
1F
100
AcDbEntity
  8
Default
100
AcDbSpline
210
0.0
220
0.0
230
1.0
 70
    24
 71
     2
 72
     6
 73
     3
 74
     0
 42
0.0000000001
 43
0.0000000001
 40
-0.34375
 40
-0.34375
 40
-0.34375
 40
0.0
 40
0.0
 40
0.0
 10
-12.12875108012884
 20
2.560000000000001
 30
0.0
 10
-11.95687608012884
 20
2.560000000000001
 30
0.0
 10
-11.78500108012884
 20
2.56
 30
0.0
  0
SPLINE
  5
14D
330
1F
100
AcDbEntity
  8
Default
100
AcDbSpline
210
0.0
220
0.0
230
1.0
 70
    12
 71
     2
 72
     8
 73
     5
 74
     0
 42
0.0000000001
 43
0.0000000001
 40
0.0
 40
0.0
 40
0.0
 40
0.0245437074326705
 40
0.0245437074326705
 40
0.0490874148653438
 40
0.0490874148653438
 40
0.0490874148653438
 10
-12.16000108012882
 20
2.528749970347008
 30
0.0
 41
1.0
 10
-12.16000109241151
 20
2.541694152856318
 30
0.0
 41
0.9238794417295467
 10
-12.15084817752484
 20
2.550847076428159
 30
0.0
 41
1.0
 10
-12.14169526263816
 20
2.559999999999997
 30
0.0
 41
0.9238794417296584
 10
-12.12875108012884
 20
2.560000000000001
 30
0.0
 41
1.0
  0
LINE
  5
14E
330
1F
100
AcDbEntity
  8
Default
100
AcDbLine
 10
-12.16000108012884
 20
0.0674330107713169
 30
0.0
 11
-12.16000108012882
 21
2.528749970347008
 31
0.0
  0
SPLINE
  5
14F
330
1F
100
AcDbEntity
  8
Default
100
AcDbSpline
210
0.0
220
0.0
230
1.0
 70
    24
 71
     2
 72
     6
 73
     3
 74
     0
 42
0.0000000001
 43
0.0000000001
 40
-0.34375
 40
-0.34375
 40
-0.34375
 40
0.0
 40
0.0
 40
0.0
 10
-13.28500108012884
 20
2.56
 30
0.0
 10
-13.11312608012884
 20
2.56
 30
0.0
 10
-12.94125108012884
 20
2.56
 30
0.0
  0
SPLINE
  5
150
330
1F
100
AcDbEntity
  8
Default
100
AcDbSpline
210
0.0
220
0.0
230
1.0
 70
    12
 71
     2
 72
     6
 73
     3
 74
     0
 42
0.0000000001
 43
0.0000000001
 40
0.0
 40
0.0
 40
0.0
 40
0.1963495408493621
 40
0.1963495408493621
 40
0.1963495408493621
 10
-13.41000108012884
 20
2.435
 30
0.0
 41
1.0
 10
-13.41000108012884
 20
2.56
 30
0.0
 41
0.7071067811865476
 10
-13.28500108012884
 20
2.56
 30
0.0
 41
1.0
  0
SPLINE
  5
151
330
1F
100
AcDbEntity
  8
Default
100
AcDbSpline
210
0.0
220
0.0
230
1.0
 70
    24
 71
     2
 72
     6
 73
     3
 74
     0
 42
0.0000000001
 43
0.0000000001
 40
0.0
 40
0.0
 40
0.0
 40
2.31
 40
2.31
 40
2.31
 10
-13.41000108012884
 20
0.125
 30
0.0
 10
-13.41000108012884
 20
1.28
 30
0.0
 10
-13.41000108012884
 20
2.435
 30
0.0
  0
SPLINE
  5
152
330
1F
100
AcDbEntity
  8
Default
100
AcDbSpline
210
0.0
220
0.0
230
1.0
 70
    12
 71
     2
 72
     6
 73
     3
 74
     0
 42
0.0000000001
 43
0.0000000001
 40
0.0
 40
0.0
 40
0.0
 40
0.1963495408493612
 40
0.1963495408493612
 40
0.1963495408493612
 10
-13.28500108012884
 20
0.0
 30
0.0
 41
1.0
 10
-13.41000108012884
 20
0.0
 30
0.0
 41
0.7071067811865431
 10
-13.41000108012884
 20
0.125
 30
0.0
 41
1.0
  0
SPLINE
  5
153
330
1F
100
AcDbEntity
  8
Default
100
AcDbSpline
210
0.0
220
0.0
230
1.0
 70
    24
 71
     2
 72
     6
 73
     3
 74
     0
 42
0.0000000001
 43
0.0000000001
 40
-0.34375
 40
-0.34375
 40
-0.34375
 40
0.0
 40
0.0
 40
0.0
 10
-12.94125108012884
 20
0.0000000000000001
 30
0.0
 10
-13.11312608012884
 20
0.0
 30
0.0
 10
-13.28500108012884
 20
0.0
 30
0.0
  0
SPLINE
  5
154
330
1F
100
AcDbEntity
  8
Default
100
AcDbSpline
210
0.0
220
0.0
230
1.0
 70
    12
 71
     2
 72
     8
 73
     5
 74
     0
 42
0.0000000001
 43
0.0000000001
 40
0.0
 40
0.0
 40
0.0
 40
0.0245437074331748
 40
0.0245437074331748
 40
0.0490874148663442
 40
0.0490874148663442
 40
0.0490874148663442
 10
-12.91000108012884
 20
0.0337756835288574
 30
0.0
 41
1.0
 10
-12.91000106784575
 20
0.0183058471443871
 30
0.0
 41
0.9238794417264082
 10
-12.91915398273249
 20
0.0091529235721951
 30
0.0
 41
1.0
 10
-12.92830689761922
 20
-0.0000000000000042
 30
0.0
 41
0.9238794417263674
 10
-12.94125108012884
 20
0.0000000000000001
 30
0.0
 41
1.0
  0
LINE
  5
155
330
1F
100
AcDbEntity
  8
Default
100
AcDbLine
 10
-12.91000108012884
 20
2.528749999999956
 30
0.0
 11
-12.91000108012884
 21
0.0337756835288574
 31
0.0
  0
SPLINE
  5
156
330
1F
100
AcDbEntity
  8
Default
100
AcDbSpline
210
0.0
220
0.0
230
1.0
 70
    12
 71
     2
 72
     8
 73
     5
 74
     0
 42
0.0000000001
 43
0.0000000001
 40
0.0
 40
0.0
 40
0.0
 40
0.0245437074331676
 40
0.0245437074331676
 40
0.049087384436277
 40
0.049087384436277
 40
0.049087384436277
 10
-12.94125108012884
 20
2.56
 30
0.0
 41
1.0
 10
-12.92830689761922
 20
2.559999999999997
 30
0.0
 41
0.9238794417265762
 10
-12.91915398273249
 20
2.550847076427806
 30
0.0
 41
1.0
 10
-12.91000108012882
 20
2.541694165138687
 30
0.0
 41
0.9238795361033111
 10
-12.91000108012883
 20
2.528749999999956
 30
0.0
 41
0.9999998112468922
  0
SPLINE
  5
157
330
1F
100
AcDbEntity
  8
Default
100
AcDbSpline
210
0.0
220
0.0
230
1.0
 70
    24
 71
     2
 72
     6
 73
     3
 74
     0
 42
0.0000000001
 43
0.0000000001
 40
0.0
 40
0.0
 40
0.0
 40
2.492448632942286
 40
2.492448632942286
 40
2.492448632942286
 10
-8.122056716536768
 20
2.528749970346
 30
0.0
 10
-8.122056716536768
 20
1.281262826937429
 30
0.0
 10
-8.122056716536768
 20
0.0337756835288575
 30
0.0
  0
SPLINE
  5
158
330
1F
100
AcDbEntity
  8
Default
100
AcDbSpline
210
0.0
220
0.0
230
1.0
 70
    12
 71
     2
 72
     8
 73
     5
 74
     0
 42
0.0000000001
 43
0.0000000001
 40
0.0
 40
0.0
 40
0.0
 40
0.0245437074331713
 40
0.0245437074331713
 40
0.049087414866342
 40
0.049087414866342
 40
0.049087414866342
 10
-8.153306716536761
 20
2.56
 30
0.0
 41
1.0
 10
-8.140362534027142
 20
2.559999999999999
 30
0.0
 41
0.9238794417265583
 10
-8.131209619140407
 20
2.550847076427805
 30
0.0
 41
1.0
 10
-8.122056704253678
 20
2.54169415285561
 30
0.0
 41
0.9238794417265895
 10
-8.122056716536768
 20
2.528749970346
 30
0.0
 41
1.0
  0
SPLINE
  5
159
330
1F
100
AcDbEntity
  8
Default
100
AcDbSpline
210
0.0
220
0.0
230
1.0
 70
    24
 71
     2
 72
     6
 73
     3
 74
     0
 42
0.0000000001
 43
0.0000000001
 40
-0.34375
 40
-0.34375
 40
-0.34375
 40
0.0
 40
0.0
 40
0.0
 10
-8.497056716536761
 20
2.56
 30
0.0
 10
-8.325181716536761
 20
2.56
 30
0.0
 10
-8.153306716536761
 20
2.56
 30
0.0
  0
SPLINE
  5
15A
330
1F
100
AcDbEntity
  8
Default
100
AcDbSpline
210
0.0
220
0.0
230
1.0
 70
    12
 71
     2
 72
     6
 73
     3
 74
     0
 42
0.0000000001
 43
0.0000000001
 40
0.0
 40
0.0
 40
0.0
 40
0.1963495408493625
 40
0.1963495408493625
 40
0.1963495408493625
 10
-8.622056716536761
 20
2.435
 30
0.0
 41
1.0
 10
-8.622056716536752
 20
2.560000000000001
 30
0.0
 41
0.7071067811865462
 10
-8.497056716536761
 20
2.56
 30
0.0
 41
1.0
  0
SPLINE
  5
15B
330
1F
100
AcDbEntity
  8
Default
100
AcDbSpline
210
0.0
220
0.0
230
1.0
 70
    24
 71
     2
 72
     6
 73
     3
 74
     0
 42
0.0000000001
 43
0.0000000001
 40
0.0
 40
0.0
 40
0.0
 40
2.31
 40
2.31
 40
2.31
 10
-8.622056716536761
 20
0.1250000000000004
 30
0.0
 10
-8.622056716536761
 20
1.28
 30
0.0
 10
-8.622056716536761
 20
2.435
 30
0.0
  0
SPLINE
  5
15C
330
1F
100
AcDbEntity
  8
Default
100
AcDbSpline
210
0.0
220
0.0
230
1.0
 70
    12
 71
     2
 72
     6
 73
     3
 74
     0
 42
0.0000000001
 43
0.0000000001
 40
0.0
 40
0.0
 40
0.0
 40
0.1963495408493617
 40
0.1963495408493617
 40
0.1963495408493617
 10
-8.497056716536761
 20
0.0000000000000009
 30
0.0
 41
1.0
 10
-8.622056716536758
 20
0.0
 30
0.0
 41
0.7071067811865455
 10
-8.622056716536761
 20
0.1250000000000004
 30
0.0
 41
1.0
  0
SPLINE
  5
15D
330
1F
100
AcDbEntity
  8
Default
100
AcDbSpline
210
0.0
220
0.0
230
1.0
 70
    24
 71
     2
 72
     6
 73
     3
 74
     0
 42
0.0000000001
 43
0.0000000001
 40
-0.34375
 40
-0.34375
 40
-0.34375
 40
0.0
 40
0.0
 40
0.0
 10
-8.153306716536761
 20
0.0000000000000004
 30
0.0
 10
-8.325181716536761
 20
0.0000000000000006
 30
0.0
 10
-8.497056716536761
 20
0.0000000000000009
 30
0.0
  0
SPLINE
  5
15E
330
1F
100
AcDbEntity
  8
Default
100
AcDbSpline
210
0.0
220
0.0
230
1.0
 70
    12
 71
     2
 72
     8
 73
     5
 74
     0
 42
0.0000000001
 43
0.0000000001
 40
0.0
 40
0.0
 40
0.0
 40
0.024543707433172
 40
0.024543707433172
 40
0.0490874148663429
 40
0.0490874148663429
 40
0.0490874148663429
 10
-8.122056716536768
 20
0.0337756835288575
 30
0.0
 41
1.0
 10
-8.12205670425367
 20
0.0183058471443887
 30
0.0
 41
0.9238794417264252
 10
-8.131209619140407
 20
0.0091529235721948
 30
0.0
 41
1.0
 10
-8.140362534027142
 20
0.0000000000000022
 30
0.0
 41
0.923879441726571
 10
-8.153306716536761
 20
0.0000000000000004
 30
0.0
 41
1.0
  0
SPLINE
  5
15F
330
1F
100
AcDbEntity
  8
Default
100
AcDbSpline
210
0.0
220
0.0
230
1.0
 70
    24
 71
     2
 72
     6
 73
     3
 74
     0
 42
0.0000000001
 43
0.0000000001
 40
-0.34375
 40
-0.34375
 40
-0.34375
 40
0.0
 40
0.0
 40
0.0
 10
-7.340806716536761
 20
2.56
 30
0.0
 10
-7.168931716536761
 20
2.56
 30
0.0
 10
-6.997056716536761
 20
2.56
 30
0.0
  0
SPLINE
  5
160
330
1F
100
AcDbEntity
  8
Default
100
AcDbSpline
210
0.0
220
0.0
230
1.0
 70
    12
 71
     2
 72
     8
 73
     5
 74
     0
 42
0.0000000001
 43
0.0000000001
 40
0.0
 40
0.0
 40
0.0
 40
0.024543707432671
 40
0.024543707432671
 40
0.0490874148653413
 40
0.0490874148653413
 40
0.0490874148653413
 10
-7.372056716536747
 20
2.526224316472141
 30
0.0
 41
1.0
 10
-7.372056728819423
 20
2.541694152856317
 30
0.0
 41
0.9238794417296806
 10
-7.36290381393276
 20
2.550847076428159
 30
0.0
 41
1.0
 10
-7.353750899046086
 20
2.560000000000004
 30
0.0
 41
0.923879441729465
 10
-7.340806716536761
 20
2.56
 30
0.0
 41
1.0
  0
SPLINE
  5
161
330
1F
100
AcDbEntity
  8
Default
100
AcDbSpline
210
0.0
220
0.0
230
1.0
 70
    24
 71
     2
 72
     6
 73
     3
 74
     0
 42
0.0000000001
 43
0.0000000001
 40
0.0
 40
0.0
 40
0.0
 40
2.492448632944282
 40
2.492448632944282
 40
2.492448632944282
 10
-7.372056716536747
 20
0.0312500296530005
 30
0.0
 10
-7.372056716536747
 20
1.278737173062571
 30
0.0
 10
-7.372056716536747
 20
2.526224316472141
 30
0.0
  0
SPLINE
  5
162
330
1F
100
AcDbEntity
  8
Default
100
AcDbSpline
210
0.0
220
0.0
230
1.0
 70
    12
 71
     2
 72
     8
 73
     5
 74
     0
 42
0.0000000001
 43
0.0000000001
 40
0.0
 40
0.0
 40
0.0
 40
0.0245437074326731
 40
0.0245437074326731
 40
0.049087414865344
 40
0.049087414865344
 40
0.049087414865344
 10
-7.340806716536761
 20
0.0000000000000009
 30
0.0
 41
1.0
 10
-7.353750899046072
 20
0.0
 30
0.0
 41
0.9238794417295504
 10
-7.36290381393276
 20
0.0091529235718419
 30
0.0
 41
1.0
 10
-7.372056728819431
 20
0.0183058471436838
 30
0.0
 41
0.9238794417295761
 10
-7.372056716536747
 20
0.0312500296530005
 30
0.0
 41
1.0
  0
SPLINE
  5
163
330
1F
100
AcDbEntity
  8
Default
100
AcDbSpline
210
0.0
220
0.0
230
1.0
 70
    24
 71
     2
 72
     6
 73
     3
 74
     0
 42
0.0000000001
 43
0.0000000001
 40
-0.34375
 40
-0.34375
 40
-0.34375
 40
0.0
 40
0.0
 40
0.0
 10
-6.997056716536761
 20
-0.0000000000000013
 30
0.0
 10
-7.168931716536761
 20
-0.0000000000000002
 30
0.0
 10
-7.340806716536761
 20
0.0000000000000009
 30
0.0
  0
SPLINE
  5
164
330
1F
100
AcDbEntity
  8
Default
100
AcDbSpline
210
0.0
220
0.0
230
1.0
 70
    12
 71
     2
 72
     6
 73
     3
 74
     0
 42
0.0000000001
 43
0.0000000001
 40
0.0
 40
0.0
 40
0.0
 40
0.1963495408493619
 40
0.1963495408493619
 40
0.1963495408493619
 10
-6.872056716536761
 20
0.127336040276063
 30
0.0
 41
1.0
 10
-6.872056716536761
 20
0.0000000000000071
 30
0.0
 41
0.7071067811865953
 10
-6.997056716536761
 20
-0.0000000000000013
 30
0.0
 41
1.0
  0
SPLINE
  5
165
330
1F
100
AcDbEntity
  8
Default
100
AcDbSpline
210
0.0
220
0.0
230
1.0
 70
    24
 71
     2
 72
     6
 73
     3
 74
     0
 42
0.0000000001
 43
0.0000000001
 40
0.0
 40
0.0
 40
0.0
 40
2.305327919447875
 40
2.305327919447875
 40
2.305327919447875
 10
-6.872056716536761
 20
2.435
 30
0.0
 10
-6.872056716536761
 20
1.281168020138032
 30
0.0
 10
-6.872056716536761
 20
0.127336040276063
 30
0.0
  0
SPLINE
  5
166
330
1F
100
AcDbEntity
  8
Default
100
AcDbSpline
210
0.0
220
0.0
230
1.0
 70
    12
 71
     2
 72
     6
 73
     3
 74
     0
 42
0.0000000001
 43
0.0000000001
 40
0.0
 40
0.0
 40
0.0
 40
0.1963495408493613
 40
0.1963495408493613
 40
0.1963495408493613
 10
-6.997056716536761
 20
2.56
 30
0.0
 41
1.0
 10
-6.872056716536764
 20
2.559999999999997
 30
0.0
 41
0.7071067811865714
 10
-6.872056716536761
 20
2.435
 30
0.0
 41
1.0
  0
SPLINE
  5
167
330
1F
100
AcDbEntity
  8
Default
100
AcDbSpline
210
0.0
220
0.0
230
1.0
 70
    24
 71
     2
 72
     6
 73
     3
 74
     0
 42
0.0000000001
 43
0.0000000001
 40
0.0
 40
0.0
 40
0.0
 40
0.71875
 40
0.71875
 40
0.71875
 10
-7.387681716536761
 20
2.56
 30
0.0
 10
-7.747056716536761
 20
2.56
 30
0.0
 10
-8.106431716536761
 20
2.56
 30
0.0
  0
LINE
  5
168
330
1F
100
AcDbEntity
  8
Default
100
AcDbLine
 10
-7.387681716536761
 20
0.8425000000000007
 30
0.0
 11
-7.387681716536761
 21
2.56
 31
0.0
  0
SPLINE
  5
169
330
1F
100
AcDbEntity
  8
Default
100
AcDbSpline
210
0.0
220
0.0
230
1.0
 70
    24
 71
     2
 72
     6
 73
     3
 74
     0
 42
0.0000000001
 43
0.0000000001
 40
0.0
 40
0.0
 40
0.0
 40
0.71875
 40
0.71875
 40
0.71875
 10
-8.106431716536761
 20
0.8425000000000002
 30
0.0
 10
-7.747056716536761
 20
0.8425000000000005
 30
0.0
 10
-7.387681716536761
 20
0.8425000000000007
 30
0.0
  0
LINE
  5
16A
330
1F
100
AcDbEntity
  8
Default
100
AcDbLine
 10
-8.106431716536761
 20
2.56
 30
0.0
 11
-8.106431716536761
 21
0.8425000000000002
 31
0.0
  0
SPLINE
  5
16B
330
1F
100
AcDbEntity
  8
Default
100
AcDbSpline
210
0.0
220
0.0
230
1.0
 70
    24
 71
     2
 72
     6
 73
     3
 74
     0
 42
0.0000000001
 43
0.0000000001
 40
-0.71875
 40
-0.71875
 40
-0.71875
 40
0.0
 40
0.0
 40
0.0
 10
-12.89437608012883
 20
2.56
 30
0.0
 10
-12.53500108012883
 20
2.56
 30
0.0
 10
-12.17562608012883
 20
2.56
 30
0.0
  0
LINE
  5
16C
330
1F
100
AcDbEntity
  8
Default
100
AcDbLine
 10
-12.89437608012884
 20
0.8425000000000002
 30
0.0
 11
-12.89437608012883
 21
2.56
 31
0.0
  0
SPLINE
  5
16D
330
1F
100
AcDbEntity
  8
Default
100
AcDbSpline
210
0.0
220
0.0
230
1.0
 70
    24
 71
     2
 72
     6
 73
     3
 74
     0
 42
0.0000000001
 43
0.0000000001
 40
-0.71875
 40
-0.71875
 40
-0.71875
 40
0.0
 40
0.0
 40
0.0
 10
-12.17562608012884
 20
0.8425000000000002
 30
0.0
 10
-12.53500108012884
 20
0.8425000000000002
 30
0.0
 10
-12.89437608012884
 20
0.8425000000000002
 30
0.0
  0
LINE
  5
16E
330
1F
100
AcDbEntity
  8
Default
100
AcDbLine
 10
-12.17562608012883
 20
2.56
 30
0.0
 11
-12.17562608012884
 21
0.8425000000000002
 31
0.0
  0
SPLINE
  5
16F
330
1F
100
AcDbEntity
  8
Default
100
AcDbSpline
210
0.0
220
0.0
230
1.0
 70
    12
 71
     2
 72
     6
 73
     3
 74
     0
 42
0.0000000001
 43
0.0000000001
 40
0.0
 40
0.0
 40
0.0
 40
0.3808160980565514
 40
0.3808160980565514
 40
0.3808160980565514
 10
-0.8759842519697969
 20
4.162000000000001
 30
0.0
 41
1.0
 10
-0.8891983461483753
 20
4.35195894498229
 30
0.0
 41
0.9999216483317138
 10
-0.907163691185275
 20
4.541527559055003
 30
0.0
 41
1.0
  0
SPLINE
  5
170
330
1F
100
AcDbEntity
  8
Default
100
AcDbSpline
210
0.0
220
0.0
230
1.0
 70
    24
 71
     2
 72
     6
 73
     3
 74
     0
 42
0.0000000001
 43
0.0000000001
 40
0.0
 40
0.0
 40
0.0
 40
1.5570398096186
 40
1.5570398096186
 40
1.5570398096186
 10
-0.9462379164083146
 20
6.098077003711467
 30
0.0
 10
-0.9267008037967948
 20
5.319802281383235
 30
0.0
 10
-0.907163691185275
 20
4.541527559055003
 30
0.0
  0
SPLINE
  5
171
330
1F
100
AcDbEntity
  8
Default
100
AcDbSpline
210
0.0
220
0.0
230
1.0
 70
    24
 71
     2
 72
     6
 73
     3
 74
     0
 42
0.0000000001
 43
0.0000000001
 40
0.0
 40
0.0
 40
0.0
 40
1.727
 40
1.727
 40
1.727
 10
-0.8759842519697969
 20
4.162000000000001
 30
0.0
 10
-0.8759842519697933
 20
3.298500000000001
 30
0.0
 10
-0.8759842519697898
 20
2.435
 30
0.0
  0
SPLINE
  5
172
330
1F
100
AcDbEntity
  8
Default
100
AcDbSpline
210
0.0
220
0.0
230
1.0
 70
    24
 71
     2
 72
     6
 73
     3
 74
     0
 42
0.0000000001
 43
0.0000000001
 40
0.0
 40
0.0
 40
0.0
 40
0.1012133421293994
 40
0.1012133421293994
 40
0.1012133421293994
 10
-7.403306716536676
 20
2.559999999999988
 30
0.0
 10
-7.395494216536669
 20
2.609999999999994
 30
0.0
 10
-7.387681716536662
 20
2.66
 30
0.0
  0
SPLINE
  5
173
330
1F
100
AcDbEntity
  8
Default
100
AcDbSpline
210
0.0
220
0.0
230
1.0
 70
    24
 71
     2
 72
     6
 73
     3
 74
     0
 42
0.0000000001
 43
0.0000000001
 40
0.0
 40
0.0
 40
0.0
 40
0.1002871374692927
 40
0.1002871374692927
 40
0.1002871374692927
 10
-8.106288731950933
 20
2.659084898650097
 30
0.0
 10
-8.09854772424389
 20
2.609542449325042
 30
0.0
 10
-8.090806716536846
 20
2.559999999999986
 30
0.0
  0
SPLINE
  5
174
330
1F
100
AcDbEntity
  8
Default
100
AcDbSpline
210
0.0
220
0.0
230
1.0
 70
    24
 71
     2
 72
     6
 73
     3
 74
     0
 42
0.0000000001
 43
0.0000000001
 40
0.0
 40
0.0
 40
0.0
 40
0.1002871374692929
 40
0.1002871374692929
 40
0.1002871374692929
 10
-12.894233095543
 20
2.659084898650099
 30
0.0
 10
-12.88649208783596
 20
2.609542449325042
 30
0.0
 10
-12.87875108012892
 20
2.559999999999986
 30
0.0
  0
SPLINE
  5
175
330
1F
100
AcDbEntity
  8
Default
100
AcDbSpline
210
0.0
220
0.0
230
1.0
 70
    24
 71
     2
 72
     6
 73
     3
 74
     0
 42
0.0000000001
 43
0.0000000001
 40
0.0
 40
0.0
 40
0.0
 40
0.1012133421293994
 40
0.1012133421293994
 40
0.1012133421293994
 10
-12.19125108012875
 20
2.559999999999988
 30
0.0
 10
-12.18343858012874
 20
2.609999999999994
 30
0.0
 10
-12.17562608012874
 20
2.66
 30
0.0
  0
ARC
  5
176
330
1F
100
AcDbEntity
  8
Default
100
AcDbCircle
 10
-68.31691577184154
 20
3.211710950303746
 30
0.0
 40
76.39120889144402
100
AcDbArc
 50
359.5861960527876
 51
0.333455147503224
  0
LINE
  5
177
330
1F
100
AcDbEntity
  8
Default
100
AcDbLine
 10
8.070964712206539
 20
4.00590143748518
 30
0.0
 11
8.07299939526434
 21
3.656296890934675
 31
0.0
  0
SPLINE
  5
178
330
1F
100
AcDbEntity
  8
Default
100
AcDbSpline
210
0.0
220
0.0
230
1.0
 70
     8
 71
     3
 72
    12
 73
     8
 74
     0
 42
0.0000000001
 43
0.0000000001
 40
0.0
 40
0.0
 40
0.0
 40
0.0
 40
0.0807135580873582
 40
0.1561302048482713
 40
0.3085481570555513
 40
0.4875238302638922
 40
0.7348234087463479
 40
0.7348234087463479
 40
0.7348234087463479
 40
0.7348234087463479
 10
7.808728286515219
 20
4.645789360260311
 30
0.0
 10
7.833393949530432
 20
4.632865539328695
 30
0.0
 10
7.878055006372946
 20
4.606339897567548
 30
0.0
 10
7.957470766206697
 20
4.539688801881998
 30
0.0
 10
8.028753551920701
 20
4.421218715464775
 30
0.0
 10
8.066228827508084
 20
4.230296484905532
 30
0.0
 10
8.071081233822966
 20
4.088467010633467
 30
0.0
 10
8.070964712206539
 20
4.00590143748518
 30
0.0
  0
SPLINE
  5
179
330
1F
100
AcDbEntity
  8
Default
100
AcDbSpline
210
0.0
220
0.0
230
1.0
 70
    12
 71
     2
 72
     6
 73
     3
 74
     0
 42
0.0000000001
 43
0.0000000001
 40
0.0
 40
0.0
 40
0.0
 40
0.6201447082721723
 40
0.6201447082721723
 40
0.6201447082721723
 10
7.261074599832362
 20
4.938572349993528
 30
0.0
 41
1.0
 10
7.533546752404561
 20
4.790563476915829
 30
0.0
 41
0.999977880596909
 10
7.808728286515219
 20
4.645789360260311
 30
0.0
 41
1.0
  0
ARC
  5
17A
330
1F
100
AcDbEntity
  8
Default
100
AcDbCircle
 10
-68.37079838939772
 20
3.206930781203848
 30
0.0
 40
76.39120889148064
100
AcDbArc
 50
359.5897814207934
 51
0.333455147503814
  0
LINE
  5
17B
330
1F
100
AcDbEntity
  8
Default
100
AcDbLine
 10
8.017082094686948
 20
4.001121268386267
 30
0.0
 11
8.019116777744742
 21
3.651516721835762
 31
0.0
  0
SPLINE
  5
17C
330
1F
100
AcDbEntity
  8
Default
100
AcDbSpline
210
0.0
220
0.0
230
1.0
 70
    12
 71
     2
 72
    34
 73
    31
 74
     0
 42
0.0000000001
 43
0.0000000001
 40
0.0
 40
0.0
 40
0.0
 40
0.0325629330256031
 40
0.0325629330256031
 40
0.0679867475747329
 40
0.0679867475747329
 40
0.1078548175612879
 40
0.1078548175612879
 40
0.1539416874961473
 40
0.1539416874961473
 40
0.2049083135201158
 40
0.2049083135201158
 40
0.2543078929230853
 40
0.2543078929230853
 40
0.3011102212885154
 40
0.3011102212885154
 40
0.3516822644554414
 40
0.3516822644554414
 40
0.4070049641826737
 40
0.4070049641826737
 40
0.4643605855870755
 40
0.4643605855870755
 40
0.5185444554455992
 40
0.5185444554455992
 40
0.5669809148546006
 40
0.5669809148546006
 40
0.6104726859179642
 40
0.6104726859179642
 40
0.6501902162813917
 40
0.6501902162813917
 40
0.6873951308628176
 40
0.6873951308628176
 40
0.6873951308628176
 10
7.787414143909231
 20
4.600629750302729
 30
0.0
 41
1.0
 10
7.801870790810079
 20
4.59313524787688
 30
0.0
 41
0.9997848817731985
 10
7.816004179027523
 20
4.585047631187056
 30
0.0
 41
1.0
 10
7.831384972769597
 20
4.576251548998998
 30
0.0
 41
0.9994547773423571
 10
7.846151701164764
 20
4.566459531306059
 30
0.0
 41
1.0
 10
7.862782754820408
 20
4.555440318788306
 30
0.0
 41
0.9987765555205204
 10
7.878243982821218
 20
4.542832169879135
 30
0.0
 41
1.0
 10
7.896121450433736
 20
4.528235919408156
 30
0.0
 41
0.9976702384926762
 10
7.911845611435524
 20
4.511341981535713
 30
0.0
 41
1.0
 10
7.929225793480787
 20
4.492632026232052
 30
0.0
 41
0.9968554709066841
 10
7.943431834267116
 20
4.471411244894668
 30
0.0
 41
1.0
 10
7.957206436983173
 20
4.450849678614829
 30
0.0
 41
0.9970143869160545
 10
7.967650898905511
 20
4.428412412671357
 30
0.0
 41
1.0
 10
7.977490424787976
 20
4.407141673202814
 30
0.0
 41
0.9977520697646052
 10
7.984397131564592
 20
4.384746181946042
 30
0.0
 41
1.0
 10
7.991801551875443
 20
4.360545139685637
 30
0.0
 41
0.998673277181905
 10
7.996677568538743
 20
4.335710882134244
 30
0.0
 41
1.0
 10
8.002053145285103
 20
4.308564658859392
 30
0.0
 41
0.9993497102211706
 10
8.005458356933048
 20
4.281101614653097
 30
0.0
 41
1.0
 10
8.008999887956369
 20
4.252637234722353
 30
0.0
 41
0.9996841037542856
 10
8.01110657780275
 20
4.224030850387349
 30
0.0
 41
1.0
 10
8.013122076169381
 20
4.197011475006218
 30
0.0
 41
0.9998611152163238
 10
8.01423597874144
 20
4.169939938280121
 30
0.0
 41
1.0
 10
8.015229046606324
 20
4.145741199800931
 30
0.0
 41
0.9999456865613557
 10
8.015717514053442
 20
4.1215270195067
 30
0.0
 41
1.0
 10
8.016159842873495
 20
4.099785439773346
 30
0.0
 41
0.9999866673554543
 10
8.016377611576246
 20
4.078040451365002
 30
0.0
 41
1.0
 10
8.016578234710407
 20
4.05818268907433
 30
0.0
 41
0.9999992045072397
 10
8.016728762367201
 20
4.038324483861892
 30
0.0
 41
1.0
 10
8.016870967495182
 20
4.019722548835264
 30
0.0
 41
0.9999982839715726
 10
8.017082094686948
 20
4.001121268386267
 30
0.0
 41
1.0
  0
SPLINE
  5
17D
330
1F
100
AcDbEntity
  8
Default
100
AcDbSpline
210
0.0
220
0.0
230
1.0
 70
    12
 71
     2
 72
     6
 73
     3
 74
     0
 42
0.0000000001
 43
0.0000000001
 40
0.0
 40
0.0
 40
0.0
 40
0.8199859379606601
 40
0.8199859379606601
 40
0.8199859379606601
 10
7.057140901998203
 20
4.973550849388168
 30
0.0
 41
1.0
 10
7.423376431196339
 20
4.789242238383841
 30
0.0
 41
0.99998263368664
 10
7.787414143909231
 20
4.600629750302729
 30
0.0
 41
1.0
  0
ARC
  5
17E
330
1F
100
AcDbEntity
  8
Default
100
AcDbCircle
 10
-75.90395695643409
 20
-4.118056024825004
 30
0.0
 40
83.46239820896254
100
AcDbArc
 50
5.28039527027487
 51
5.674687777510695
  0
LINE
  5
17F
330
1F
100
AcDbEntity
  8
Default
100
AcDbLine
 10
7.276740536499688
 20
2.73354760934075
 30
0.0
 11
7.204247372081305
 21
3.562978285811122
 31
0.0
  0
SPLINE
  5
180
330
1F
100
AcDbEntity
  8
Default
100
AcDbSpline
210
0.0
220
0.0
230
1.0
 70
    12
 71
     2
 72
     6
 73
     3
 74
     0
 42
0.0000000001
 43
0.0000000001
 40
0.0
 40
0.0
 40
0.0
 40
0.1189905253564627
 40
0.1189905253564627
 40
0.1189905253564627
 10
7.356478913344631
 20
2.660000000014658
 30
0.0
 41
1.0
 10
7.282993671275019
 20
2.660202674076007
 30
0.0
 41
0.737434850107945
 10
7.276740536499688
 20
2.73354760934075
 30
0.0
 41
1.0
  0
POLYLINE
  5
181
330
1F
100
AcDbEntity
  8
Default
100
AcDb2dPolyline
 66
     1
 10
0.0
 20
0.0
 30
0.0
  0
VERTEX
  5
182
330
181
100
AcDbEntity
  8
Default
100
AcDbVertex
100
AcDb2dVertex
 10
8.152355661988224
 20
2.660000000000512
 30
0.0
  0
VERTEX
  5
183
330
181
100
AcDbEntity
  8
Default
100
AcDbVertex
100
AcDb2dVertex
 10
7.356478913344631
 20
2.660000000014658
 30
0.0
  0
SEQEND
  5
184
330
181
100
AcDbEntity
  8
Default
  0
SPLINE
  5
185
330
1F
100
AcDbEntity
  8
Default
100
AcDbSpline
210
0.0
220
0.0
230
1.0
 70
     8
 71
     3
 72
     8
 73
     4
 74
     0
 42
0.0000000001
 43
0.0000000001
 40
-1.0
 40
-1.0
 40
-1.0
 40
-1.0
 40
0.0
 40
0.0
 40
0.0
 40
0.0
 10
8.232824258609554
 20
2.740117300580366
 30
0.0
 10
8.231516867916781
 20
2.702398924457233
 30
0.0
 10
8.190091022894883
 20
2.660000000000631
 30
0.0
 10
8.152355661988224
 20
2.660000000000512
 30
0.0
  0
ARC
  5
186
330
1F
100
AcDbEntity
  8
Default
100
AcDbCircle
 10
-53.06270811494419
 20
3.761342010499233
 30
0.0
 40
61.30403892783512
100
AcDbArc
 50
359.0455021666253
 51
359.1884205661177
  0
LINE
  5
187
330
1F
100
AcDbEntity
  8
Default
100
AcDbLine
 10
8.241874797038932
 20
3.846244875087633
 30
0.0
 11
8.235180904697117
 21
2.893015688623142
 31
0.0
  0
SPLINE
  5
188
330
1F
100
AcDbEntity
  8
Default
100
AcDbSpline
210
0.0
220
0.0
230
1.0
 70
     8
 71
     3
 72
    12
 73
     8
 74
     0
 42
0.0000000001
 43
0.0000000001
 40
0.0
 40
0.0
 40
0.0
 40
0.0
 40
0.0873163874398896
 40
0.1700224095601808
 40
0.3581656996438056
 40
0.6075952990052825
 40
0.9909780472260572
 40
0.9909780472260572
 40
0.9909780472260572
 40
0.9909780472260572
 10
8.04304088074646
 20
4.79077435223854
 30
0.0
 10
8.06381749160768
 20
4.770233992366635
 30
0.0
 10
8.100885716278498
 20
4.727511524647837
 30
0.0
 10
8.163940781265744
 20
4.625109838135335
 30
0.0
 10
8.214886951205472
 20
4.45796337812693
 30
0.0
 10
8.24233532762743
 20
4.1850427235702
 30
0.0
 10
8.241915472571847
 20
3.974050854746054
 30
0.0
 10
8.241874797038932
 20
3.846244875087633
 30
0.0
  0
SPLINE
  5
189
330
1F
100
AcDbEntity
  8
Default
100
AcDbSpline
210
0.0
220
0.0
230
1.0
 70
     8
 71
     3
 72
    15
 73
    11
 74
     0
 42
0.0000000001
 43
0.0000000001
 40
0.0
 40
0.0
 40
0.0
 40
0.0
 40
1.0
 40
2.0
 40
3.0
 40
4.0
 40
5.0
 40
6.0
 40
7.0
 40
8.0
 40
8.0
 40
8.0
 40
8.0
 10
7.225868942922261
 20
4.111623924295754
 30
0.0
 10
6.964168455683584
 20
4.190680438698085
 30
0.0
 10
6.440767570674801
 20
4.348793788675728
 30
0.0
 10
5.655666199718056
 20
4.585962521014684
 30
0.0
 10
4.870565668078612
 20
4.823135178211308
 30
0.0
 10
4.085461040822779
 20
5.060293664775659
 30
0.0
 10
3.300372199934209
 20
5.297504835537084
 30
0.0
 10
2.515223752638128
 20
5.534519608271062
 30
0.0
 10
1.730299087076432
 20
5.772266943791096
 30
0.0
 10
1.206458467176148
 20
5.928942748513599
 30
0.0
 10
0.9455690830723356
 20
6.0106508306271
 30
0.0
  0
ARC
  5
18A
330
1F
100
AcDbEntity
  8
Default
100
AcDbCircle
 10
-43.34163381361498
 20
-2.686072978285752
 30
0.0
 40
55.91103680015532
100
AcDbArc
 50
5.486861152162352
 51
6.874193798264623
  0
SPLINE
  5
18B
330
1F
100
AcDbEntity
  8
Default
100
AcDbSpline
210
0.0
220
0.0
230
1.0
 70
     8
 71
     3
 72
    12
 73
     8
 74
     0
 42
0.0000000001
 43
0.0000000001
 40
0.0
 40
0.0
 40
0.0
 40
0.0
 40
0.1260766228409387
 40
0.237826563775455
 40
0.4344218079522603
 40
0.6303370446533767
 40
0.882694782768985
 40
0.882694782768985
 40
0.882694782768985
 40
0.882694782768985
 10
11.66169606035348
 20
4.646192146633982
 30
0.0
 10
11.70170139768107
 20
4.633837592494515
 30
0.0
 10
11.77712466731273
 20
4.607781628103013
 30
0.0
 10
11.90734865206845
 20
4.545332642646301
 30
0.0
 10
12.03960413133855
 20
4.435153673429189
 30
0.0
 10
12.1326469059439
 20
4.237189732693631
 30
0.0
 10
12.15739909419587
 20
4.08950623804158
 30
0.0
 10
12.16747818150696
 20
4.005901437485071
 30
0.0
  0
SPLINE
  5
18C
330
1F
100
AcDbEntity
  8
Default
100
AcDbSpline
210
0.0
220
0.0
230
1.0
 70
    12
 71
     3
 72
    15
 73
    11
 74
     0
 42
0.0000000001
 43
0.0000000001
 40
-0.9614022157832935
 40
-0.9614022157832935
 40
-0.9614022157832935
 40
-0.9614022157832935
 40
0.0
 40
0.0
 40
0.0
 40
0.5001593749518297
 40
0.5001593749518297
 40
0.7506987155205498
 40
0.7506987155205498
 40
1.0
 40
1.0
 40
1.0
 40
1.0
 10
1.216987429427725
 20
7.8366206410373
 30
0.0
 41
1.0
 10
1.149923705367923
 20
7.836220838625263
 30
0.0
 41
0.9922441322491607
 10
1.083187549209834
 20
7.833703687350154
 30
0.0
 41
0.9922441322491607
 10
1.017942875572267
 20
7.817520846456982
 30
0.0
 41
1.0
 10
0.9846356284141748
 20
7.808909453196668
 30
0.0
 41
1.0
 10
0.950764599134132
 20
7.797016174127187
 30
0.0
 41
1.0
 10
0.9075431963607343
 20
7.767879443832109
 30
0.0
 41
1.0
 10
0.8948393365033169
 20
7.755882817978683
 30
0.0
 41
1.0
 10
0.8747226419189928
 20
7.727371022849352
 30
0.0
 41
1.0
 10
0.8673139790011106
 20
7.711275223913677
 30
0.0
 41
1.0
 10
0.8634729094956057
 20
7.694404642245919
 30
0.0
 41
1.0
  0
SPLINE
  5
18D
330
1F
100
AcDbEntity
  8
Default
100
AcDbSpline
210
0.0
220
0.0
230
1.0
 70
    12
 71
     2
 72
     6
 73
     3
 74
     0
 42
0.0000000001
 43
0.0000000001
 40
0.0
 40
0.0
 40
0.0
 40
0.9614022157832935
 40
0.9614022157832935
 40
0.9614022157832935
 10
2.157703587724079
 20
7.657213360256307
 30
0.0
 41
1.0
 10
1.701149389258332
 20
7.819297193627991
 30
0.0
 41
0.9883661983737412
 10
1.216987429427725
 20
7.8366206410373
 30
0.0
 41
1.0
  0
SPLINE
  5
18E
330
1F
100
AcDbEntity
  8
Default
100
AcDbSpline
210
0.0
220
0.0
230
1.0
 70
    12
 71
     3
 72
    12
 73
     8
 74
     0
 42
0.0000000001
 43
0.0000000001
 40
-1.0
 40
-1.0
 40
-1.0
 40
-1.0
 40
-0.7506987155205498
 40
-0.7506987155205498
 40
-0.5001593749518297
 40
-0.5001593749518297
 40
0.0
 40
0.0
 40
0.0
 40
0.0
 10
11.66169606035348
 20
4.646192146633982
 30
0.0
 41
1.0
 10
10.83978376065917
 20
4.901680007350057
 30
0.0
 41
1.0
 10
10.11001753075109
 20
5.140983746136454
 30
0.0
 41
1.0
 10
8.568860147831558
 20
5.639654035846307
 30
0.0
 41
1.0
 10
7.78417026274073
 20
5.890183510155286
 30
0.0
 41
1.0
 10
5.37264285250609
 20
6.653129569622889
 30
0.0
 41
1.0
 10
3.766904742702906
 20
7.153808346081856
 30
0.0
 41
1.0
 10
2.157703587724079
 20
7.657213360256307
 30
0.0
 41
1.0
  0
SPLINE
  5
18F
330
1F
100
AcDbEntity
  8
Default
100
AcDbSpline
210
0.0
220
0.0
230
1.0
 70
    24
 71
     2
 72
     6
 73
     3
 74
     0
 42
0.0000000001
 43
0.0000000001
 40
-0.0076677802215738
 40
-0.0076677802215738
 40
-0.0076677802215738
 40
0.0
 40
0.0
 40
0.0
 10
12.16000108012884
 20
0.0597652299949263
 30
0.0
 10
12.16000108012884
 20
0.0635991203831216
 30
0.0
 10
12.16000108012884
 20
0.0674330107713169
 30
0.0
  0
SPLINE
  5
190
330
1F
100
AcDbEntity
  8
Default
100
AcDbSpline
210
0.0
220
0.0
230
1.0
 70
    24
 71
     2
 72
     6
 73
     3
 74
     0
 42
0.0000000001
 43
0.0000000001
 40
0.0
 40
0.0
 40
0.0
 40
0.0180914894398488
 40
0.0180914894398488
 40
0.0180914894398488
 10
12.16000108012884
 20
0.0416737399966112
 30
0.0
 10
12.16000108012884
 20
0.0507194849957687
 30
0.0
 10
12.16000108012884
 20
0.0597652299949263
 30
0.0
  0
SPLINE
  5
191
330
1F
100
AcDbEntity
  8
Default
100
AcDbSpline
210
0.0
220
0.0
230
1.0
 70
    28
 71
     3
 72
    10
 73
     6
 74
     0
 42
0.0000000001
 43
0.0000000001
 40
-3.924058572565469
 40
-3.924058572565469
 40
-3.924058572565469
 40
-3.924058572565469
 40
-3.905214231881589
 40
-3.905214231881589
 40
-3.76217791107922
 40
-3.76217791107922
 40
-3.76217791107922
 40
-3.76217791107922
 10
12.16000108012884
 20
0.0312500296530011
 30
0.0
 41
1.0
 10
12.16000108012884
 20
0.0313446649105616
 30
0.0
 41
1.0
 10
12.16000108012884
 20
0.031297152348199
 30
0.0
 41
1.0
 10
12.16000108012884
 20
0.0321103633440535
 30
0.0
 41
1.0
 10
12.16000108012884
 20
0.0355356793560238
 30
0.0
 41
1.0
 10
12.16000108012884
 20
0.0416737399966112
 30
0.0
 41
1.0
  0
SPLINE
  5
192
330
1F
100
AcDbEntity
  8
Default
100
AcDbSpline
210
0.0
220
0.0
230
1.0
 70
    12
 71
     2
 72
     8
 73
     5
 74
     0
 42
0.0000000001
 43
0.0000000001
 40
0.0
 40
0.0
 40
0.0
 40
0.0245437074326727
 40
0.0245437074326727
 40
0.0490874148653435
 40
0.0490874148653435
 40
0.0490874148653435
 10
12.12875108012884
 20
0.0
 30
0.0
 41
1.0
 10
12.14169526263816
 20
0.0
 30
0.0
 41
0.923879441729618
 10
12.15084817752484
 20
0.0091529235718422
 30
0.0
 41
1.0
 10
12.16000109241151
 20
0.0183058471436838
 30
0.0
 41
0.9238794417296633
 10
12.16000108012884
 20
0.0312500296530011
 30
0.0
 41
1.0
  0
SPLINE
  5
193
330
1F
100
AcDbEntity
  8
Default
100
AcDbSpline
210
0.0
220
0.0
230
1.0
 70
    24
 71
     2
 72
     6
 73
     3
 74
     0
 42
0.0000000001
 43
0.0000000001
 40
-0.34375
 40
-0.34375
 40
-0.34375
 40
0.0
 40
0.0
 40
0.0
 10
11.78500108012884
 20
-0.0000000000000003
 30
0.0
 10
11.95687608012884
 20
-0.0000000000000001
 30
0.0
 10
12.12875108012884
 20
0.0
 30
0.0
  0
SPLINE
  5
194
330
1F
100
AcDbEntity
  8
Default
100
AcDbSpline
210
0.0
220
0.0
230
1.0
 70
    12
 71
     2
 72
     6
 73
     3
 74
     0
 42
0.0000000001
 43
0.0000000001
 40
0.0
 40
0.0
 40
0.0
 40
0.1963495408493596
 40
0.1963495408493596
 40
0.1963495408493596
 10
11.66000108012884
 20
0.1273360402760625
 30
0.0
 41
1.0
 10
11.66000108012884
 20
0.0000000000000065
 30
0.0
 41
0.7071067811865861
 10
11.78500108012884
 20
-0.0000000000000003
 30
0.0
 41
1.0
  0
SPLINE
  5
195
330
1F
100
AcDbEntity
  8
Default
100
AcDbSpline
210
0.0
220
0.0
230
1.0
 70
    24
 71
     2
 72
     6
 73
     3
 74
     0
 42
0.0000000001
 43
0.0000000001
 40
0.0
 40
0.0
 40
0.0
 40
2.305327919447875
 40
2.305327919447875
 40
2.305327919447875
 10
11.66000108012884
 20
2.435
 30
0.0
 10
11.66000108012884
 20
1.281168020138032
 30
0.0
 10
11.66000108012884
 20
0.1273360402760625
 30
0.0
  0
SPLINE
  5
196
330
1F
100
AcDbEntity
  8
Default
100
AcDbSpline
210
0.0
220
0.0
230
1.0
 70
    12
 71
     2
 72
     6
 73
     3
 74
     0
 42
0.0000000001
 43
0.0000000001
 40
0.0
 40
0.0
 40
0.0
 40
0.196349540849359
 40
0.196349540849359
 40
0.196349540849359
 10
11.78500108012884
 20
2.56
 30
0.0
 41
1.0
 10
11.66000108012884
 20
2.559999999999993
 30
0.0
 41
0.7071067811865878
 10
11.66000108012884
 20
2.435
 30
0.0
 41
1.0
  0
SPLINE
  5
197
330
1F
100
AcDbEntity
  8
Default
100
AcDbSpline
210
0.0
220
0.0
230
1.0
 70
    24
 71
     2
 72
     6
 73
     3
 74
     0
 42
0.0000000001
 43
0.0000000001
 40
-0.34375
 40
-0.34375
 40
-0.34375
 40
0.0
 40
0.0
 40
0.0
 10
12.12875108012884
 20
2.560000000000001
 30
0.0
 10
11.95687608012884
 20
2.560000000000001
 30
0.0
 10
11.78500108012884
 20
2.56
 30
0.0
  0
SPLINE
  5
198
330
1F
100
AcDbEntity
  8
Default
100
AcDbSpline
210
0.0
220
0.0
230
1.0
 70
    12
 71
     2
 72
     8
 73
     5
 74
     0
 42
0.0000000001
 43
0.0000000001
 40
0.0
 40
0.0
 40
0.0
 40
0.0245437074326705
 40
0.0245437074326705
 40
0.0490874148653438
 40
0.0490874148653438
 40
0.0490874148653438
 10
12.16000108012882
 20
2.528749970347008
 30
0.0
 41
1.0
 10
12.16000109241151
 20
2.541694152856318
 30
0.0
 41
0.9238794417295467
 10
12.15084817752484
 20
2.550847076428159
 30
0.0
 41
1.0
 10
12.14169526263816
 20
2.559999999999997
 30
0.0
 41
0.9238794417296584
 10
12.12875108012884
 20
2.560000000000001
 30
0.0
 41
1.0
  0
LINE
  5
199
330
1F
100
AcDbEntity
  8
Default
100
AcDbLine
 10
12.16000108012884
 20
0.0674330107713169
 30
0.0
 11
12.16000108012882
 21
2.528749970347008
 31
0.0
  0
SPLINE
  5
19A
330
1F
100
AcDbEntity
  8
Default
100
AcDbSpline
210
0.0
220
0.0
230
1.0
 70
    24
 71
     2
 72
     6
 73
     3
 74
     0
 42
0.0000000001
 43
0.0000000001
 40
-0.34375
 40
-0.34375
 40
-0.34375
 40
0.0
 40
0.0
 40
0.0
 10
13.28500108012884
 20
2.56
 30
0.0
 10
13.11312608012884
 20
2.56
 30
0.0
 10
12.94125108012884
 20
2.56
 30
0.0
  0
SPLINE
  5
19B
330
1F
100
AcDbEntity
  8
Default
100
AcDbSpline
210
0.0
220
0.0
230
1.0
 70
    12
 71
     2
 72
     6
 73
     3
 74
     0
 42
0.0000000001
 43
0.0000000001
 40
0.0
 40
0.0
 40
0.0
 40
0.1963495408493621
 40
0.1963495408493621
 40
0.1963495408493621
 10
13.41000108012884
 20
2.435
 30
0.0
 41
1.0
 10
13.41000108012884
 20
2.56
 30
0.0
 41
0.7071067811865476
 10
13.28500108012884
 20
2.56
 30
0.0
 41
1.0
  0
SPLINE
  5
19C
330
1F
100
AcDbEntity
  8
Default
100
AcDbSpline
210
0.0
220
0.0
230
1.0
 70
    24
 71
     2
 72
     6
 73
     3
 74
     0
 42
0.0000000001
 43
0.0000000001
 40
0.0
 40
0.0
 40
0.0
 40
2.31
 40
2.31
 40
2.31
 10
13.41000108012884
 20
0.125
 30
0.0
 10
13.41000108012884
 20
1.28
 30
0.0
 10
13.41000108012884
 20
2.435
 30
0.0
  0
SPLINE
  5
19D
330
1F
100
AcDbEntity
  8
Default
100
AcDbSpline
210
0.0
220
0.0
230
1.0
 70
    12
 71
     2
 72
     6
 73
     3
 74
     0
 42
0.0000000001
 43
0.0000000001
 40
0.0
 40
0.0
 40
0.0
 40
0.1963495408493612
 40
0.1963495408493612
 40
0.1963495408493612
 10
13.28500108012884
 20
0.0
 30
0.0
 41
1.0
 10
13.41000108012884
 20
0.0
 30
0.0
 41
0.7071067811865431
 10
13.41000108012884
 20
0.125
 30
0.0
 41
1.0
  0
SPLINE
  5
19E
330
1F
100
AcDbEntity
  8
Default
100
AcDbSpline
210
0.0
220
0.0
230
1.0
 70
    24
 71
     2
 72
     6
 73
     3
 74
     0
 42
0.0000000001
 43
0.0000000001
 40
-0.34375
 40
-0.34375
 40
-0.34375
 40
0.0
 40
0.0
 40
0.0
 10
12.94125108012884
 20
0.0000000000000001
 30
0.0
 10
13.11312608012884
 20
0.0
 30
0.0
 10
13.28500108012884
 20
0.0
 30
0.0
  0
SPLINE
  5
19F
330
1F
100
AcDbEntity
  8
Default
100
AcDbSpline
210
0.0
220
0.0
230
1.0
 70
    12
 71
     2
 72
     8
 73
     5
 74
     0
 42
0.0000000001
 43
0.0000000001
 40
0.0
 40
0.0
 40
0.0
 40
0.0245437074331748
 40
0.0245437074331748
 40
0.0490874148663442
 40
0.0490874148663442
 40
0.0490874148663442
 10
12.91000108012884
 20
0.0337756835288574
 30
0.0
 41
1.0
 10
12.91000106784575
 20
0.0183058471443871
 30
0.0
 41
0.9238794417264082
 10
12.91915398273249
 20
0.0091529235721951
 30
0.0
 41
1.0
 10
12.92830689761922
 20
-0.0000000000000042
 30
0.0
 41
0.9238794417263674
 10
12.94125108012884
 20
0.0000000000000001
 30
0.0
 41
1.0
  0
LINE
  5
1A0
330
1F
100
AcDbEntity
  8
Default
100
AcDbLine
 10
12.91000108012884
 20
2.528749999999956
 30
0.0
 11
12.91000108012884
 21
0.0337756835288574
 31
0.0
  0
SPLINE
  5
1A1
330
1F
100
AcDbEntity
  8
Default
100
AcDbSpline
210
0.0
220
0.0
230
1.0
 70
    12
 71
     2
 72
     8
 73
     5
 74
     0
 42
0.0000000001
 43
0.0000000001
 40
0.0
 40
0.0
 40
0.0
 40
0.0245437074331676
 40
0.0245437074331676
 40
0.049087384436277
 40
0.049087384436277
 40
0.049087384436277
 10
12.94125108012884
 20
2.56
 30
0.0
 41
1.0
 10
12.92830689761922
 20
2.559999999999997
 30
0.0
 41
0.9238794417265762
 10
12.91915398273249
 20
2.550847076427806
 30
0.0
 41
1.0
 10
12.91000108012882
 20
2.541694165138687
 30
0.0
 41
0.9238795361033111
 10
12.91000108012883
 20
2.528749999999956
 30
0.0
 41
0.9999998112468922
  0
SPLINE
  5
1A2
330
1F
100
AcDbEntity
  8
Default
100
AcDbSpline
210
0.0
220
0.0
230
1.0
 70
    24
 71
     2
 72
     6
 73
     3
 74
     0
 42
0.0000000001
 43
0.0000000001
 40
0.0
 40
0.0
 40
0.0
 40
2.492448632942286
 40
2.492448632942286
 40
2.492448632942286
 10
8.122056716536768
 20
2.528749970346
 30
0.0
 10
8.122056716536768
 20
1.281262826937429
 30
0.0
 10
8.122056716536768
 20
0.0337756835288575
 30
0.0
  0
SPLINE
  5
1A3
330
1F
100
AcDbEntity
  8
Default
100
AcDbSpline
210
0.0
220
0.0
230
1.0
 70
    12
 71
     2
 72
     8
 73
     5
 74
     0
 42
0.0000000001
 43
0.0000000001
 40
0.0
 40
0.0
 40
0.0
 40
0.0245437074331713
 40
0.0245437074331713
 40
0.049087414866342
 40
0.049087414866342
 40
0.049087414866342
 10
8.153306716536761
 20
2.56
 30
0.0
 41
1.0
 10
8.140362534027142
 20
2.559999999999999
 30
0.0
 41
0.9238794417265583
 10
8.131209619140407
 20
2.550847076427805
 30
0.0
 41
1.0
 10
8.122056704253676
 20
2.54169415285561
 30
0.0
 41
0.9238794417265895
 10
8.122056716536768
 20
2.528749970346
 30
0.0
 41
1.0
  0
SPLINE
  5
1A4
330
1F
100
AcDbEntity
  8
Default
100
AcDbSpline
210
0.0
220
0.0
230
1.0
 70
    24
 71
     2
 72
     6
 73
     3
 74
     0
 42
0.0000000001
 43
0.0000000001
 40
-0.34375
 40
-0.34375
 40
-0.34375
 40
0.0
 40
0.0
 40
0.0
 10
8.497056716536761
 20
2.56
 30
0.0
 10
8.325181716536761
 20
2.56
 30
0.0
 10
8.153306716536761
 20
2.56
 30
0.0
  0
SPLINE
  5
1A5
330
1F
100
AcDbEntity
  8
Default
100
AcDbSpline
210
0.0
220
0.0
230
1.0
 70
    12
 71
     2
 72
     6
 73
     3
 74
     0
 42
0.0000000001
 43
0.0000000001
 40
0.0
 40
0.0
 40
0.0
 40
0.1963495408493625
 40
0.1963495408493625
 40
0.1963495408493625
 10
8.622056716536761
 20
2.435
 30
0.0
 41
1.0
 10
8.622056716536756
 20
2.560000000000001
 30
0.0
 41
0.7071067811865462
 10
8.497056716536761
 20
2.56
 30
0.0
 41
1.0
  0
SPLINE
  5
1A6
330
1F
100
AcDbEntity
  8
Default
100
AcDbSpline
210
0.0
220
0.0
230
1.0
 70
    24
 71
     2
 72
     6
 73
     3
 74
     0
 42
0.0000000001
 43
0.0000000001
 40
0.0
 40
0.0
 40
0.0
 40
2.31
 40
2.31
 40
2.31
 10
8.622056716536761
 20
0.1250000000000004
 30
0.0
 10
8.622056716536761
 20
1.28
 30
0.0
 10
8.622056716536761
 20
2.435
 30
0.0
  0
SPLINE
  5
1A7
330
1F
100
AcDbEntity
  8
Default
100
AcDbSpline
210
0.0
220
0.0
230
1.0
 70
    12
 71
     2
 72
     6
 73
     3
 74
     0
 42
0.0000000001
 43
0.0000000001
 40
0.0
 40
0.0
 40
0.0
 40
0.1963495408493617
 40
0.1963495408493617
 40
0.1963495408493617
 10
8.497056716536761
 20
0.0000000000000009
 30
0.0
 41
1.0
 10
8.62205671653676
 20
0.0
 30
0.0
 41
0.7071067811865455
 10
8.622056716536761
 20
0.1250000000000004
 30
0.0
 41
1.0
  0
SPLINE
  5
1A8
330
1F
100
AcDbEntity
  8
Default
100
AcDbSpline
210
0.0
220
0.0
230
1.0
 70
    24
 71
     2
 72
     6
 73
     3
 74
     0
 42
0.0000000001
 43
0.0000000001
 40
-0.34375
 40
-0.34375
 40
-0.34375
 40
0.0
 40
0.0
 40
0.0
 10
8.153306716536761
 20
0.0000000000000004
 30
0.0
 10
8.325181716536761
 20
0.0000000000000006
 30
0.0
 10
8.497056716536761
 20
0.0000000000000009
 30
0.0
  0
SPLINE
  5
1A9
330
1F
100
AcDbEntity
  8
Default
100
AcDbSpline
210
0.0
220
0.0
230
1.0
 70
    12
 71
     2
 72
     8
 73
     5
 74
     0
 42
0.0000000001
 43
0.0000000001
 40
0.0
 40
0.0
 40
0.0
 40
0.024543707433172
 40
0.024543707433172
 40
0.0490874148663429
 40
0.0490874148663429
 40
0.0490874148663429
 10
8.122056716536768
 20
0.0337756835288575
 30
0.0
 41
1.0
 10
8.122056704253668
 20
0.0183058471443887
 30
0.0
 41
0.9238794417264252
 10
8.131209619140407
 20
0.0091529235721948
 30
0.0
 41
1.0
 10
8.140362534027142
 20
0.0000000000000022
 30
0.0
 41
0.923879441726571
 10
8.153306716536761
 20
0.0000000000000004
 30
0.0
 41
1.0
  0
SPLINE
  5
1AA
330
1F
100
AcDbEntity
  8
Default
100
AcDbSpline
210
0.0
220
0.0
230
1.0
 70
    24
 71
     2
 72
     6
 73
     3
 74
     0
 42
0.0000000001
 43
0.0000000001
 40
-0.34375
 40
-0.34375
 40
-0.34375
 40
0.0
 40
0.0
 40
0.0
 10
7.340806716536761
 20
2.56
 30
0.0
 10
7.168931716536761
 20
2.56
 30
0.0
 10
6.997056716536761
 20
2.56
 30
0.0
  0
SPLINE
  5
1AB
330
1F
100
AcDbEntity
  8
Default
100
AcDbSpline
210
0.0
220
0.0
230
1.0
 70
    12
 71
     2
 72
     8
 73
     5
 74
     0
 42
0.0000000001
 43
0.0000000001
 40
0.0
 40
0.0
 40
0.0
 40
0.024543707432671
 40
0.024543707432671
 40
0.0490874148653413
 40
0.0490874148653413
 40
0.0490874148653413
 10
7.372056716536747
 20
2.526224316472141
 30
0.0
 41
1.0
 10
7.372056728819425
 20
2.541694152856317
 30
0.0
 41
0.9238794417296806
 10
7.36290381393276
 20
2.550847076428159
 30
0.0
 41
1.0
 10
7.353750899046086
 20
2.560000000000004
 30
0.0
 41
0.923879441729465
 10
7.340806716536761
 20
2.56
 30
0.0
 41
1.0
  0
SPLINE
  5
1AC
330
1F
100
AcDbEntity
  8
Default
100
AcDbSpline
210
0.0
220
0.0
230
1.0
 70
    24
 71
     2
 72
     6
 73
     3
 74
     0
 42
0.0000000001
 43
0.0000000001
 40
0.0
 40
0.0
 40
0.0
 40
2.492448632944282
 40
2.492448632944282
 40
2.492448632944282
 10
7.372056716536747
 20
0.0312500296530005
 30
0.0
 10
7.372056716536747
 20
1.278737173062571
 30
0.0
 10
7.372056716536747
 20
2.526224316472141
 30
0.0
  0
SPLINE
  5
1AD
330
1F
100
AcDbEntity
  8
Default
100
AcDbSpline
210
0.0
220
0.0
230
1.0
 70
    12
 71
     2
 72
     8
 73
     5
 74
     0
 42
0.0000000001
 43
0.0000000001
 40
0.0
 40
0.0
 40
0.0
 40
0.0245437074326731
 40
0.0245437074326731
 40
0.049087414865344
 40
0.049087414865344
 40
0.049087414865344
 10
7.340806716536761
 20
0.0000000000000009
 30
0.0
 41
1.0
 10
7.353750899046074
 20
0.0
 30
0.0
 41
0.9238794417295504
 10
7.36290381393276
 20
0.0091529235718419
 30
0.0
 41
1.0
 10
7.372056728819431
 20
0.0183058471436838
 30
0.0
 41
0.9238794417295761
 10
7.372056716536747
 20
0.0312500296530005
 30
0.0
 41
1.0
  0
SPLINE
  5
1AE
330
1F
100
AcDbEntity
  8
Default
100
AcDbSpline
210
0.0
220
0.0
230
1.0
 70
    24
 71
     2
 72
     6
 73
     3
 74
     0
 42
0.0000000001
 43
0.0000000001
 40
-0.34375
 40
-0.34375
 40
-0.34375
 40
0.0
 40
0.0
 40
0.0
 10
6.997056716536761
 20
-0.0000000000000013
 30
0.0
 10
7.168931716536761
 20
-0.0000000000000002
 30
0.0
 10
7.340806716536761
 20
0.0000000000000009
 30
0.0
  0
SPLINE
  5
1AF
330
1F
100
AcDbEntity
  8
Default
100
AcDbSpline
210
0.0
220
0.0
230
1.0
 70
    12
 71
     2
 72
     6
 73
     3
 74
     0
 42
0.0000000001
 43
0.0000000001
 40
0.0
 40
0.0
 40
0.0
 40
0.1963495408493619
 40
0.1963495408493619
 40
0.1963495408493619
 10
6.872056716536761
 20
0.127336040276063
 30
0.0
 41
1.0
 10
6.872056716536763
 20
0.0000000000000071
 30
0.0
 41
0.7071067811865953
 10
6.997056716536761
 20
-0.0000000000000013
 30
0.0
 41
1.0
  0
SPLINE
  5
1B0
330
1F
100
AcDbEntity
  8
Default
100
AcDbSpline
210
0.0
220
0.0
230
1.0
 70
    24
 71
     2
 72
     6
 73
     3
 74
     0
 42
0.0000000001
 43
0.0000000001
 40
0.0
 40
0.0
 40
0.0
 40
2.305327919447875
 40
2.305327919447875
 40
2.305327919447875
 10
6.872056716536761
 20
2.435
 30
0.0
 10
6.872056716536761
 20
1.281168020138032
 30
0.0
 10
6.872056716536761
 20
0.127336040276063
 30
0.0
  0
SPLINE
  5
1B1
330
1F
100
AcDbEntity
  8
Default
100
AcDbSpline
210
0.0
220
0.0
230
1.0
 70
    12
 71
     2
 72
     6
 73
     3
 74
     0
 42
0.0000000001
 43
0.0000000001
 40
0.0
 40
0.0
 40
0.0
 40
0.1963495408493613
 40
0.1963495408493613
 40
0.1963495408493613
 10
6.997056716536761
 20
2.56
 30
0.0
 41
1.0
 10
6.872056716536761
 20
2.559999999999997
 30
0.0
 41
0.7071067811865714
 10
6.872056716536761
 20
2.435
 30
0.0
 41
1.0
  0
SPLINE
  5
1B2
330
1F
100
AcDbEntity
  8
Default
100
AcDbSpline
210
0.0
220
0.0
230
1.0
 70
    24
 71
     2
 72
     6
 73
     3
 74
     0
 42
0.0000000001
 43
0.0000000001
 40
0.0
 40
0.0
 40
0.0
 40
0.71875
 40
0.71875
 40
0.71875
 10
7.387681716536761
 20
2.56
 30
0.0
 10
7.747056716536761
 20
2.56
 30
0.0
 10
8.106431716536761
 20
2.56
 30
0.0
  0
LINE
  5
1B3
330
1F
100
AcDbEntity
  8
Default
100
AcDbLine
 10
7.387681716536761
 20
0.8425000000000007
 30
0.0
 11
7.387681716536761
 21
2.56
 31
0.0
  0
SPLINE
  5
1B4
330
1F
100
AcDbEntity
  8
Default
100
AcDbSpline
210
0.0
220
0.0
230
1.0
 70
    24
 71
     2
 72
     6
 73
     3
 74
     0
 42
0.0000000001
 43
0.0000000001
 40
0.0
 40
0.0
 40
0.0
 40
0.71875
 40
0.71875
 40
0.71875
 10
8.106431716536761
 20
0.8425000000000002
 30
0.0
 10
7.747056716536761
 20
0.8425000000000005
 30
0.0
 10
7.387681716536761
 20
0.8425000000000007
 30
0.0
  0
LINE
  5
1B5
330
1F
100
AcDbEntity
  8
Default
100
AcDbLine
 10
8.106431716536761
 20
2.56
 30
0.0
 11
8.106431716536761
 21
0.8425000000000002
 31
0.0
  0
SPLINE
  5
1B6
330
1F
100
AcDbEntity
  8
Default
100
AcDbSpline
210
0.0
220
0.0
230
1.0
 70
    24
 71
     2
 72
     6
 73
     3
 74
     0
 42
0.0000000001
 43
0.0000000001
 40
-0.71875
 40
-0.71875
 40
-0.71875
 40
0.0
 40
0.0
 40
0.0
 10
12.89437608012883
 20
2.56
 30
0.0
 10
12.53500108012883
 20
2.56
 30
0.0
 10
12.17562608012883
 20
2.56
 30
0.0
  0
LINE
  5
1B7
330
1F
100
AcDbEntity
  8
Default
100
AcDbLine
 10
12.89437608012884
 20
0.8425000000000002
 30
0.0
 11
12.89437608012883
 21
2.56
 31
0.0
  0
SPLINE
  5
1B8
330
1F
100
AcDbEntity
  8
Default
100
AcDbSpline
210
0.0
220
0.0
230
1.0
 70
    24
 71
     2
 72
     6
 73
     3
 74
     0
 42
0.0000000001
 43
0.0000000001
 40
-0.71875
 40
-0.71875
 40
-0.71875
 40
0.0
 40
0.0
 40
0.0
 10
12.17562608012884
 20
0.8425000000000002
 30
0.0
 10
12.53500108012884
 20
0.8425000000000002
 30
0.0
 10
12.89437608012884
 20
0.8425000000000002
 30
0.0
  0
LINE
  5
1B9
330
1F
100
AcDbEntity
  8
Default
100
AcDbLine
 10
12.17562608012883
 20
2.56
 30
0.0
 11
12.17562608012884
 21
0.8425000000000002
 31
0.0
  0
SPLINE
  5
1BA
330
1F
100
AcDbEntity
  8
Default
100
AcDbSpline
210
0.0
220
0.0
230
1.0
 70
    24
 71
     2
 72
     6
 73
     3
 74
     0
 42
0.0000000001
 43
0.0000000001
 40
0.0
 40
0.0
 40
0.0
 40
0.3593749999999929
 40
0.3593749999999929
 40
0.3593749999999929
 10
0.3593750000012861
 20
0.8425000000000002
 30
0.0
 10
0.1796875000012896
 20
0.8425000000000002
 30
0.0
 10
0.0000000000012932
 20
0.8425000000000002
 30
0.0
  0
LINE
  5
1BB
330
1F
100
AcDbEntity
  8
Default
100
AcDbLine
 10
0.3593750000012861
 20
2.56
 30
0.0
 11
0.3593750000012861
 21
0.8425000000000002
 31
0.0
  0
SPLINE
  5
1BC
330
1F
100
AcDbEntity
  8
Default
100
AcDbSpline
210
0.0
220
0.0
230
1.0
 70
    24
 71
     2
 72
     6
 73
     3
 74
     0
 42
0.0000000001
 43
0.0000000001
 40
0.3593750000000071
 40
0.3593750000000071
 40
0.3593750000000071
 40
0.71875
 40
0.71875
 40
0.71875
 10
0.0000000000012932
 20
2.56
 30
0.0
 10
0.1796875000012896
 20
2.56
 30
0.0
 10
0.3593750000012861
 20
2.56
 30
0.0
  0
SPLINE
  5
1BD
330
1F
100
AcDbEntity
  8
Default
100
AcDbSpline
210
0.0
220
0.0
230
1.0
 70
    24
 71
     2
 72
     6
 73
     3
 74
     0
 42
0.0000000001
 43
0.0000000001
 40
-0.71875
 40
-0.71875
 40
-0.71875
 40
-0.3593750000000071
 40
-0.3593750000000071
 40
-0.3593750000000071
 10
-0.3593749999986997
 20
2.56
 30
0.0
 10
-0.1796874999987033
 20
2.56
 30
0.0
 10
0.0000000000012932
 20
2.56
 30
0.0
  0
LINE
  5
1BE
330
1F
100
AcDbEntity
  8
Default
100
AcDbLine
 10
-0.3593749999986997
 20
0.8425000000000002
 30
0.0
 11
-0.3593749999986997
 21
2.56
 31
0.0
  0
SPLINE
  5
1BF
330
1F
100
AcDbEntity
  8
Default
100
AcDbSpline
210
0.0
220
0.0
230
1.0
 70
    24
 71
     2
 72
     6
 73
     3
 74
     0
 42
0.0000000001
 43
0.0000000001
 40
-0.3593749999999929
 40
-0.3593749999999929
 40
-0.3593749999999929
 40
0.0
 40
0.0
 40
0.0
 10
0.0000000000012932
 20
0.8425000000000002
 30
0.0
 10
-0.1796874999987033
 20
0.8425000000000002
 30
0.0
 10
-0.3593749999986997
 20
0.8425000000000002
 30
0.0
  0
SPLINE
  5
1C0
330
1F
100
AcDbEntity
  8
Default
100
AcDbSpline
210
0.0
220
0.0
230
1.0
 70
    12
 71
     2
 72
     6
 73
     3
 74
     0
 42
0.0000000001
 43
0.0000000001
 40
0.0
 40
0.0
 40
0.0
 40
0.1963495408493625
 40
0.1963495408493625
 40
0.1963495408493625
 10
-0.8749999999986997
 20
2.435
 30
0.0
 41
1.0
 10
-0.8749999999986937
 20
2.560000000000001
 30
0.0
 41
0.7071067811865462
 10
-0.7499999999986997
 20
2.56
 30
0.0
 41
1.0
  0
SPLINE
  5
1C1
330
1F
100
AcDbEntity
  8
Default
100
AcDbSpline
210
0.0
220
0.0
230
1.0
 70
    24
 71
     2
 72
     6
 73
     3
 74
     0
 42
0.0000000001
 43
0.0000000001
 40
0.0
 40
0.0
 40
0.0
 40
2.31
 40
2.31
 40
2.31
 10
-0.8749999999986997
 20
0.125
 30
0.0
 10
-0.8749999999986997
 20
1.28
 30
0.0
 10
-0.8749999999986997
 20
2.435
 30
0.0
  0
SPLINE
  5
1C2
330
1F
100
AcDbEntity
  8
Default
100
AcDbSpline
210
0.0
220
0.0
230
1.0
 70
    12
 71
     2
 72
     6
 73
     3
 74
     0
 42
0.0000000001
 43
0.0000000001
 40
0.0
 40
0.0
 40
0.0
 40
0.1963495408493618
 40
0.1963495408493618
 40
0.1963495408493618
 10
-0.7499999999986997
 20
0.0
 30
0.0
 41
1.0
 10
-0.8749999999987014
 20
0.0
 30
0.0
 41
0.7071067811865464
 10
-0.8749999999986997
 20
0.125
 30
0.0
 41
1.0
  0
SPLINE
  5
1C3
330
1F
100
AcDbEntity
  8
Default
100
AcDbSpline
210
0.0
220
0.0
230
1.0
 70
    24
 71
     2
 72
     6
 73
     3
 74
     0
 42
0.0000000001
 43
0.0000000001
 40
-0.34375
 40
-0.34375
 40
-0.34375
 40
0.0
 40
0.0
 40
0.0
 10
-0.4062499999986997
 20
-0.0000000000000001
 30
0.0
 10
-0.5781249999986997
 20
-0.0000000000000001
 30
0.0
 10
-0.7499999999986997
 20
0.0
 30
0.0
  0
SPLINE
  5
1C4
330
1F
100
AcDbEntity
  8
Default
100
AcDbSpline
210
0.0
220
0.0
230
1.0
 70
    12
 71
     2
 72
     8
 73
     5
 74
     0
 42
0.0000000001
 43
0.0000000001
 40
0.0
 40
0.0
 40
0.0
 40
0.0245437074331713
 40
0.0245437074331713
 40
0.0490874148663428
 40
0.0490874148663428
 40
0.0490874148663428
 10
-0.3749999999987068
 20
0.0337756835288574
 30
0.0
 41
1.0
 10
-0.3749999877156192
 20
0.0183058471443898
 30
0.0
 41
0.9238794417265062
 10
-0.3841529026023522
 20
0.0091529235721948
 30
0.0
 41
1.0
 10
-0.3933058174890792
 20
0.0
 30
0.0
 41
0.9238794417265562
 10
-0.4062499999986997
 20
-0.0000000000000001
 30
0.0
 41
1.0
  0
SPLINE
  5
1C5
330
1F
100
AcDbEntity
  8
Default
100
AcDbSpline
210
0.0
220
0.0
230
1.0
 70
    24
 71
     2
 72
     6
 73
     3
 74
     0
 42
0.0000000001
 43
0.0000000001
 40
0.0
 40
0.0
 40
0.0
 40
2.492448632942286
 40
2.492448632942286
 40
2.492448632942286
 10
-0.3749999999987068
 20
2.528749970346
 30
0.0
 10
-0.3749999999987068
 20
1.281262826937429
 30
0.0
 10
-0.3749999999987068
 20
0.0337756835288574
 30
0.0
  0
SPLINE
  5
1C6
330
1F
100
AcDbEntity
  8
Default
100
AcDbSpline
210
0.0
220
0.0
230
1.0
 70
    12
 71
     2
 72
     8
 73
     5
 74
     0
 42
0.0000000001
 43
0.0000000001
 40
0.0
 40
0.0
 40
0.0
 40
0.0245437074331717
 40
0.0245437074331717
 40
0.0490874148663419
 40
0.0490874148663419
 40
0.0490874148663419
 10
-0.4062499999986997
 20
2.56
 30
0.0
 41
1.0
 10
-0.3933058174890839
 20
2.560000000000001
 30
0.0
 41
0.9238794417265213
 10
-0.3841529026023522
 20
2.550847076427806
 30
0.0
 41
1.0
 10
-0.3749999877156175
 20
2.541694152855609
 30
0.0
 41
0.9238794417266049
 10
-0.3749999999987068
 20
2.528749970346
 30
0.0
 41
1.0
  0
SPLINE
  5
1C7
330
1F
100
AcDbEntity
  8
Default
100
AcDbSpline
210
0.0
220
0.0
230
1.0
 70
    24
 71
     2
 72
     6
 73
     3
 74
     0
 42
0.0000000001
 43
0.0000000001
 40
-0.34375
 40
-0.34375
 40
-0.34375
 40
0.0
 40
0.0
 40
0.0
 10
-0.7499999999986997
 20
2.56
 30
0.0
 10
-0.5781249999986997
 20
2.56
 30
0.0
 10
-0.4062499999986997
 20
2.56
 30
0.0
  0
SPLINE
  5
1C8
330
1F
100
AcDbEntity
  8
Default
100
AcDbSpline
210
0.0
220
0.0
230
1.0
 70
    24
 71
     2
 72
     6
 73
     3
 74
     0
 42
0.0000000001
 43
0.0000000001
 40
0.0
 40
0.0
 40
0.0
 40
0.1012133421294007
 40
0.1012133421294007
 40
0.1012133421294007
 10
-0.3593749999987921
 20
2.660000000000002
 30
0.0
 10
-0.3515624999987921
 20
2.609999999999994
 30
0.0
 10
-0.3437499999987921
 20
2.559999999999986
 30
0.0
  0
SPLINE
  5
1C9
330
1F
100
AcDbEntity
  8
Default
100
AcDbSpline
210
0.0
220
0.0
230
1.0
 70
    12
 71
     2
 72
     6
 73
     3
 74
     0
 42
0.0000000001
 43
0.0000000001
 40
0.0
 40
0.0
 40
0.0
 40
0.1963495408493625
 40
0.1963495408493625
 40
0.1963495408493625
 10
0.8750000000012861
 20
2.435
 30
0.0
 41
1.0
 10
0.8750000000012834
 20
2.560000000000001
 30
0.0
 41
0.7071067811865462
 10
0.7500000000012861
 20
2.56
 30
0.0
 41
1.0
  0
SPLINE
  5
1CA
330
1F
100
AcDbEntity
  8
Default
100
AcDbSpline
210
0.0
220
0.0
230
1.0
 70
    24
 71
     2
 72
     6
 73
     3
 74
     0
 42
0.0000000001
 43
0.0000000001
 40
0.0
 40
0.0
 40
0.0
 40
2.31
 40
2.31
 40
2.31
 10
0.8750000000012861
 20
0.125
 30
0.0
 10
0.8750000000012861
 20
1.28
 30
0.0
 10
0.8750000000012861
 20
2.435
 30
0.0
  0
SPLINE
  5
1CB
330
1F
100
AcDbEntity
  8
Default
100
AcDbSpline
210
0.0
220
0.0
230
1.0
 70
    12
 71
     2
 72
     6
 73
     3
 74
     0
 42
0.0000000001
 43
0.0000000001
 40
0.0
 40
0.0
 40
0.0
 40
0.1963495408493618
 40
0.1963495408493618
 40
0.1963495408493618
 10
0.7500000000012861
 20
0.0
 30
0.0
 41
1.0
 10
0.8750000000012854
 20
0.0
 30
0.0
 41
0.7071067811865464
 10
0.8750000000012861
 20
0.125
 30
0.0
 41
1.0
  0
SPLINE
  5
1CC
330
1F
100
AcDbEntity
  8
Default
100
AcDbSpline
210
0.0
220
0.0
230
1.0
 70
    24
 71
     2
 72
     6
 73
     3
 74
     0
 42
0.0000000001
 43
0.0000000001
 40
-0.34375
 40
-0.34375
 40
-0.34375
 40
0.0
 40
0.0
 40
0.0
 10
0.4062500000012861
 20
-0.0000000000000001
 30
0.0
 10
0.5781250000012861
 20
-0.0000000000000001
 30
0.0
 10
0.7500000000012861
 20
0.0
 30
0.0
  0
SPLINE
  5
1CD
330
1F
100
AcDbEntity
  8
Default
100
AcDbSpline
210
0.0
220
0.0
230
1.0
 70
    12
 71
     2
 72
     8
 73
     5
 74
     0
 42
0.0000000001
 43
0.0000000001
 40
0.0
 40
0.0
 40
0.0
 40
0.0245437074331713
 40
0.0245437074331713
 40
0.0490874148663428
 40
0.0490874148663428
 40
0.0490874148663428
 10
0.3750000000012932
 20
0.0337756835288574
 30
0.0
 41
1.0
 10
0.3749999877182029
 20
0.0183058471443898
 30
0.0
 41
0.9238794417265062
 10
0.3841529026049386
 20
0.0091529235721948
 30
0.0
 41
1.0
 10
0.3933058174916693
 20
0.0
 30
0.0
 41
0.9238794417265562
 10
0.4062500000012861
 20
-0.0000000000000001
 30
0.0
 41
1.0
  0
SPLINE
  5
1CE
330
1F
100
AcDbEntity
  8
Default
100
AcDbSpline
210
0.0
220
0.0
230
1.0
 70
    24
 71
     2
 72
     6
 73
     3
 74
     0
 42
0.0000000001
 43
0.0000000001
 40
0.0
 40
0.0
 40
0.0
 40
2.492448632942286
 40
2.492448632942286
 40
2.492448632942286
 10
0.3750000000012932
 20
2.528749970346
 30
0.0
 10
0.3750000000012932
 20
1.281262826937429
 30
0.0
 10
0.3750000000012932
 20
0.0337756835288574
 30
0.0
  0
SPLINE
  5
1CF
330
1F
100
AcDbEntity
  8
Default
100
AcDbSpline
210
0.0
220
0.0
230
1.0
 70
    12
 71
     2
 72
     8
 73
     5
 74
     0
 42
0.0000000001
 43
0.0000000001
 40
0.0
 40
0.0
 40
0.0
 40
0.0245437074331717
 40
0.0245437074331717
 40
0.0490874148663419
 40
0.0490874148663419
 40
0.0490874148663419
 10
0.4062500000012861
 20
2.56
 30
0.0
 41
1.0
 10
0.393305817491671
 20
2.560000000000001
 30
0.0
 41
0.9238794417265213
 10
0.3841529026049386
 20
2.550847076427806
 30
0.0
 41
1.0
 10
0.3749999877182013
 20
2.541694152855609
 30
0.0
 41
0.9238794417266049
 10
0.3750000000012932
 20
2.528749970346
 30
0.0
 41
1.0
  0
SPLINE
  5
1D0
330
1F
100
AcDbEntity
  8
Default
100
AcDbSpline
210
0.0
220
0.0
230
1.0
 70
    24
 71
     2
 72
     6
 73
     3
 74
     0
 42
0.0000000001
 43
0.0000000001
 40
-0.34375
 40
-0.34375
 40
-0.34375
 40
0.0
 40
0.0
 40
0.0
 10
0.7500000000012861
 20
2.56
 30
0.0
 10
0.5781250000012861
 20
2.56
 30
0.0
 10
0.4062500000012861
 20
2.56
 30
0.0
  0
SPLINE
  5
1D1
330
1F
100
AcDbEntity
  8
Default
100
AcDbSpline
210
0.0
220
0.0
230
1.0
 70
    12
 71
     2
 72
     6
 73
     3
 74
     0
 42
0.0000000001
 43
0.0000000001
 40
0.0
 40
0.0
 40
0.0
 40
0.3808160980565514
 40
0.3808160980565514
 40
0.3808160980565514
 10
0.8759842519697969
 20
4.162000000000001
 30
0.0
 41
1.0
 10
0.8891983461483778
 20
4.35195894498229
 30
0.0
 41
0.9999216483317138
 10
0.907163691185275
 20
4.541527559055003
 30
0.0
 41
1.0
  0
SPLINE
  5
1D2
330
1F
100
AcDbEntity
  8
Default
100
AcDbSpline
210
0.0
220
0.0
230
1.0
 70
    24
 71
     2
 72
     6
 73
     3
 74
     0
 42
0.0000000001
 43
0.0000000001
 40
0.0
 40
0.0
 40
0.0
 40
1.5570398096186
 40
1.5570398096186
 40
1.5570398096186
 10
0.9462379164083146
 20
6.098077003711467
 30
0.0
 10
0.9267008037967948
 20
5.319802281383235
 30
0.0
 10
0.907163691185275
 20
4.541527559055003
 30
0.0
  0
SPLINE
  5
1D3
330
1F
100
AcDbEntity
  8
Default
100
AcDbSpline
210
0.0
220
0.0
230
1.0
 70
    24
 71
     2
 72
     6
 73
     3
 74
     0
 42
0.0000000001
 43
0.0000000001
 40
0.0
 40
0.0
 40
0.0
 40
1.727
 40
1.727
 40
1.727
 10
0.8759842519697969
 20
4.162000000000001
 30
0.0
 10
0.8759842519697933
 20
3.298500000000001
 30
0.0
 10
0.8759842519697898
 20
2.435
 30
0.0
  0
SPLINE
  5
1D4
330
1F
100
AcDbEntity
  8
Default
100
AcDbSpline
210
0.0
220
0.0
230
1.0
 70
    24
 71
     2
 72
     6
 73
     3
 74
     0
 42
0.0000000001
 43
0.0000000001
 40
0.0
 40
0.0
 40
0.0
 40
0.1012133421294007
 40
0.1012133421294007
 40
0.1012133421294007
 10
0.3593750000013785
 20
2.660000000000002
 30
0.0
 10
0.3515625000013785
 20
2.609999999999994
 30
0.0
 10
0.3437500000013785
 20
2.559999999999986
 30
0.0
  0
SPLINE
  5
1D5
330
1F
100
AcDbEntity
  8
Default
100
AcDbSpline
210
0.0
220
0.0
230
1.0
 70
    24
 71
     2
 72
     6
 73
     3
 74
     0
 42
0.0000000001
 43
0.0000000001
 40
0.0
 40
0.0
 40
0.0
 40
0.1012133421293994
 40
0.1012133421293994
 40
0.1012133421293994
 10
7.403306716536676
 20
2.559999999999988
 30
0.0
 10
7.395494216536669
 20
2.609999999999994
 30
0.0
 10
7.387681716536662
 20
2.66
 30
0.0
  0
SPLINE
  5
1D6
330
1F
100
AcDbEntity
  8
Default
100
AcDbSpline
210
0.0
220
0.0
230
1.0
 70
    24
 71
     2
 72
     6
 73
     3
 74
     0
 42
0.0000000001
 43
0.0000000001
 40
0.0
 40
0.0
 40
0.0
 40
0.1002871374692927
 40
0.1002871374692927
 40
0.1002871374692927
 10
8.106288731950933
 20
2.659084898650097
 30
0.0
 10
8.09854772424389
 20
2.609542449325042
 30
0.0
 10
8.090806716536846
 20
2.559999999999986
 30
0.0
  0
SPLINE
  5
1D7
330
1F
100
AcDbEntity
  8
Default
100
AcDbSpline
210
0.0
220
0.0
230
1.0
 70
    24
 71
     2
 72
     6
 73
     3
 74
     0
 42
0.0000000001
 43
0.0000000001
 40
0.0
 40
0.0
 40
0.0
 40
0.1002871374692929
 40
0.1002871374692929
 40
0.1002871374692929
 10
12.894233095543
 20
2.659084898650099
 30
0.0
 10
12.88649208783596
 20
2.609542449325042
 30
0.0
 10
12.87875108012892
 20
2.559999999999986
 30
0.0
  0
SPLINE
  5
1D8
330
1F
100
AcDbEntity
  8
Default
100
AcDbSpline
210
0.0
220
0.0
230
1.0
 70
    24
 71
     2
 72
     6
 73
     3
 74
     0
 42
0.0000000001
 43
0.0000000001
 40
0.0
 40
0.0
 40
0.0
 40
0.1012133421293994
 40
0.1012133421293994
 40
0.1012133421293994
 10
12.19125108012875
 20
2.559999999999988
 30
0.0
 10
12.18343858012874
 20
2.609999999999994
 30
0.0
 10
12.17562608012874
 20
2.66
 30
0.0
  0
SPLINE
  5
1D9
330
1F
100
AcDbEntity
  8
Default
100
AcDbSpline
210
0.0
220
0.0
230
1.0
 70
    24
 71
     2
 72
     6
 73
     3
 74
     0
 42
0.0000000001
 43
0.0000000001
 40
0.0
 40
0.0
 40
0.0
 40
0.2318535058159794
 40
0.2318535058159794
 40
0.2318535058159794
 10
11.86237906021088
 20
58.24249126543288
 30
0.0
 10
11.7464523073029
 20
58.24249126543288
 30
0.0
 10
11.63052555439491
 20
58.24249126543288
 30
0.0
  0
SPLINE
  5
1DA
330
1F
100
AcDbEntity
  8
Default
100
AcDbSpline
210
0.0
220
0.0
230
1.0
 70
    12
 71
     2
 72
     6
 73
     3
 74
     0
 42
0.0000000001
 43
0.0000000001
 40
0.0
 40
0.0
 40
0.0
 40
0.0490228526879361
 40
0.0490228526879361
 40
0.0490228526879361
 10
11.89362906021088
 20
58.27626693413423
 30
0.0
 41
1.0
 10
11.89347882648859
 20
58.24264149915516
 30
0.0
 41
0.7105143136418829
 10
11.86237906021088
 20
58.24249126543288
 30
0.0
 41
1.0
  0
SPLINE
  5
1DB
330
1F
100
AcDbEntity
  8
Default
100
AcDbSpline
210
0.0
220
0.0
230
1.0
 70
    28
 71
     2
 72
     8
 73
     5
 74
     0
 42
0.0000000001
 43
0.0000000001
 40
1.72266499764573
 40
1.72266499764573
 40
1.72266499764573
 40
1.991447640890785
 40
1.991447640890785
 40
2.084127608162947
 40
2.084127608162947
 40
2.084127608162947
 10
11.89362906021088
 20
58.29591285725256
 30
0.0
 41
0.9342710289645251
 10
11.89362906021087
 20
58.27374129508587
 30
0.0
 41
0.9622770055938247
 10
11.89362906021088
 20
58.27374129508588
 30
0.0
 41
1.0
 10
11.89362906021087
 20
58.27374129508589
 30
0.0
 41
0.9869925905751854
 10
11.89362906021088
 20
58.27626693413423
 30
0.0
 41
0.9751405011719827
  0
POLYLINE
  5
1DC
330
1F
100
AcDbEntity
  8
Default
100
AcDb2dPolyline
 66
     1
 10
0.0
 20
0.0
 30
0.0
  0
VERTEX
  5
1DD
330
1DC
100
AcDbEntity
  8
Default
100
AcDbVertex
100
AcDb2dVertex
 10
11.89362906021088
 20
60.7712412654034
 30
0.0
  0
VERTEX
  5
1DE
330
1DC
100
AcDbEntity
  8
Default
100
AcDbVertex
100
AcDb2dVertex
 10
11.89362906021089
 20
59.15628704478841
 30
0.0
  0
SEQEND
  5
1DF
330
1DC
100
AcDbEntity
  8
Default
  0
SPLINE
  5
1E0
330
1F
100
AcDbEntity
  8
Default
100
AcDbSpline
210
0.0
220
0.0
230
1.0
 70
    12
 71
     2
 72
     6
 73
     3
 74
     0
 42
0.0000000001
 43
0.0000000001
 40
0.0
 40
0.0
 40
0.0
 40
0.0490324959074584
 40
0.0490324959074584
 40
0.0490324959074584
 10
11.86237906021088
 20
60.80249126543288
 30
0.0
 41
1.0
 10
11.89350126115828
 20
60.80236346635091
 30
0.0
 41
0.7100044325010673
 10
11.89362906021088
 20
60.7712412654034
 30
0.0
 41
1.0
  0
SPLINE
  5
1E1
330
1F
100
AcDbEntity
  8
Default
100
AcDbSpline
210
0.0
220
0.0
230
1.0
 70
    24
 71
     2
 72
     6
 73
     3
 74
     0
 42
0.0000000001
 43
0.0000000001
 40
0.2822951052101574
 40
0.2822951052101574
 40
0.2822951052101574
 40
0.3437499999999964
 40
0.3437499999999964
 40
0.3437499999999964
 10
11.80092416542104
 20
60.80249126543288
 30
0.0
 10
11.83165161281596
 20
60.80249126543288
 30
0.0
 10
11.86237906021088
 20
60.80249126543288
 30
0.0
  0
POLYLINE
  5
1E2
330
1F
100
AcDbEntity
  8
Default
100
AcDb2dPolyline
 66
     1
 10
0.0
 20
0.0
 30
0.0
  0
VERTEX
  5
1E3
330
1E2
100
AcDbEntity
  8
Default
100
AcDbVertex
100
AcDb2dVertex
 10
12.64362906021089
 20
60.7712412654034
 30
0.0
  0
VERTEX
  5
1E4
330
1E2
100
AcDbEntity
  8
Default
100
AcDbVertex
100
AcDb2dVertex
 10
12.64362906021089
 20
58.85061312338392
 30
0.0
  0
SEQEND
  5
1E5
330
1E2
100
AcDbEntity
  8
Default
  0
SPLINE
  5
1E6
330
1F
100
AcDbEntity
  8
Default
100
AcDbSpline
210
0.0
220
0.0
230
1.0
 70
    12
 71
     2
 72
     6
 73
     3
 74
     0
 42
0.0000000001
 43
0.0000000001
 40
0.0
 40
0.0
 40
0.0
 40
0.0490324959074584
 40
0.0490324959074584
 40
0.0490324959074584
 10
12.67487906021089
 20
60.80249126543288
 30
0.0
 41
1.0
 10
12.64375685926349
 20
60.80236346635091
 30
0.0
 41
0.7100044325010673
 10
12.64362906021089
 20
60.7712412654034
 30
0.0
 41
1.0
  0
SPLINE
  5
1E7
330
1F
100
AcDbEntity
  8
Default
100
AcDbSpline
210
0.0
220
0.0
230
1.0
 70
    24
 71
     2
 72
     6
 73
     3
 74
     0
 42
0.0000000001
 43
0.0000000001
 40
0.0
 40
0.0
 40
0.0
 40
0.3437499999999964
 40
0.3437499999999964
 40
0.3437499999999964
 10
13.01862906021089
 20
60.80249126543289
 30
0.0
 10
12.84675406021089
 20
60.80249126543289
 30
0.0
 10
12.67487906021089
 20
60.80249126543288
 30
0.0
  0
SPLINE
  5
1E8
330
1F
100
AcDbEntity
  8
Default
100
AcDbSpline
210
0.0
220
0.0
230
1.0
 70
    12
 71
     2
 72
     6
 73
     3
 74
     0
 42
0.0000000001
 43
0.0000000001
 40
0.0
 40
0.0
 40
0.0
 40
0.196322842543291
 40
0.196322842543291
 40
0.196322842543291
 10
13.14362906020558
 20
60.67749241729386
 30
0.0
 41
1.0
 10
13.14356839296812
 20
60.80243174949737
 30
0.0
 41
0.7074467937681466
 10
13.01862906021089
 20
60.80249126543289
 30
0.0
 41
1.0
  0
POLYLINE
  5
1E9
330
1F
100
AcDbEntity
  8
Default
100
AcDb2dPolyline
 66
     1
 10
0.0
 20
0.0
 30
0.0
  0
VERTEX
  5
1EA
330
1E9
100
AcDbEntity
  8
Default
100
AcDbVertex
100
AcDb2dVertex
 10
13.14362906021089
 20
58.36749126543288
 30
0.0
  0
VERTEX
  5
1EB
330
1E9
100
AcDbEntity
  8
Default
100
AcDbVertex
100
AcDb2dVertex
 10
13.14362906020558
 20
60.67749241729386
 30
0.0
  0
SEQEND
  5
1EC
330
1E9
100
AcDbEntity
  8
Default
  0
SPLINE
  5
1ED
330
1F
100
AcDbEntity
  8
Default
100
AcDbSpline
210
0.0
220
0.0
230
1.0
 70
    12
 71
     2
 72
     6
 73
     3
 74
     0
 42
0.0000000001
 43
0.0000000001
 40
0.0
 40
0.0
 40
0.0
 40
0.1963109116755479
 40
0.1963109116755479
 40
0.1963109116755479
 10
13.01862906021089
 20
58.24249126543288
 30
0.0
 41
1.0
 10
13.14353906923347
 20
58.24258125641029
 30
0.0
 41
0.7076160301426923
 10
13.14362906021089
 20
58.36749126543288
 30
0.0
 41
1.0
  0
SPLINE
  5
1EE
330
1F
100
AcDbEntity
  8
Default
100
AcDbSpline
210
0.0
220
0.0
230
1.0
 70
    24
 71
     2
 72
     6
 73
     3
 74
     0
 42
0.0000000001
 43
0.0000000001
 40
0.0
 40
0.0
 40
0.0
 40
0.34375
 40
0.34375
 40
0.34375
 10
12.67487906021089
 20
58.24249126543288
 30
0.0
 10
12.84675406021089
 20
58.24249126543288
 30
0.0
 10
13.01862906021089
 20
58.24249126543288
 30
0.0
  0
SPLINE
  5
1EF
330
1F
100
AcDbEntity
  8
Default
100
AcDbSpline
210
0.0
220
0.0
230
1.0
 70
    12
 71
     2
 72
     6
 73
     3
 74
     0
 42
0.0000000001
 43
0.0000000001
 40
0.0
 40
0.0
 40
0.0
 40
0.0490228526879361
 40
0.0490228526879361
 40
0.0490228526879361
 10
12.64362906021089
 20
58.27626693413423
 30
0.0
 41
1.0
 10
12.64377929393318
 20
58.24264149915516
 30
0.0
 41
0.7105143136418829
 10
12.67487906021089
 20
58.24249126543288
 30
0.0
 41
1.0
  0
SPLINE
  5
1F0
330
1F
100
AcDbEntity
  8
Default
100
AcDbSpline
210
0.0
220
0.0
230
1.0
 70
    28
 71
     2
 72
     8
 73
     5
 74
     0
 42
0.0000000001
 43
0.0000000001
 40
1.493513535110701
 40
1.493513535110701
 40
1.493513535110701
 40
1.991447640890785
 40
1.991447640890785
 40
2.084127608162947
 40
2.084127608162947
 40
2.084127608162947
 10
12.6436290602109
 20
58.35329798900901
 30
0.0
 41
0.8935806496755898
 10
12.6436290602109
 20
58.27374129508588
 30
0.0
 41
0.9301161516227049
 10
12.6436290602109
 20
58.27374129508588
 30
0.0
 41
1.0
 10
12.64362906021089
 20
58.27374129508589
 30
0.0
 41
0.9869925905751854
 10
12.64362906021089
 20
58.27626693413423
 30
0.0
 41
0.9751405011719827
  0
POLYLINE
  5
1F1
330
1F
100
AcDbEntity
  8
Default
100
AcDb2dPolyline
 66
     1
 10
0.0
 20
0.0
 30
0.0
  0
VERTEX
  5
1F2
330
1F1
100
AcDbEntity
  8
Default
100
AcDbVertex
100
AcDb2dVertex
 10
11.90925406021089
 20
60.80249126543288
 30
0.0
  0
VERTEX
  5
1F3
330
1F1
100
AcDbEntity
  8
Default
100
AcDbVertex
100
AcDb2dVertex
 10
11.90925406021089
 20
59.15086880244205
 30
0.0
  0
SEQEND
  5
1F4
330
1F1
100
AcDbEntity
  8
Default
  0
SPLINE
  5
1F5
330
1F
100
AcDbEntity
  8
Default
100
AcDbSpline
210
0.0
220
0.0
230
1.0
 70
    24
 71
     2
 72
     6
 73
     3
 74
     0
 42
0.0000000001
 43
0.0000000001
 40
0.0
 40
0.0
 40
0.0
 40
0.71875
 40
0.71875
 40
0.71875
 10
12.62800406021089
 20
60.80249126543288
 30
0.0
 10
12.26862906021089
 20
60.80249126543288
 30
0.0
 10
11.90925406021089
 20
60.80249126543288
 30
0.0
  0
POLYLINE
  5
1F6
330
1F
100
AcDbEntity
  8
Default
100
AcDb2dPolyline
 66
     1
 10
0.0
 20
0.0
 30
0.0
  0
VERTEX
  5
1F7
330
1F6
100
AcDbEntity
  8
Default
100
AcDbVertex
100
AcDb2dVertex
 10
12.62800406021089
 20
58.87269759427247
 30
0.0
  0
VERTEX
  5
1F8
330
1F6
100
AcDbEntity
  8
Default
100
AcDbVertex
100
AcDb2dVertex
 10
12.62800406021089
 20
60.80249126543288
 30
0.0
  0
SEQEND
  5
1F9
330
1F6
100
AcDbEntity
  8
Default
  0
ARC
  5
1FA
330
1F
100
AcDbEntity
  8
Default
100
AcDbCircle
 10
12.26862906041102
 20
58.60186626479344
 30
0.0
 40
0.4499999994539212
100
AcDbArc
 50
226.2726878896349
 51
97.87317059697251
  0
POLYLINE
  5
1FB
330
1F
100
AcDbEntity
  8
Default
100
AcDb2dPolyline
 66
     1
 10
0.0
 20
0.0
 30
0.0
  0
VERTEX
  5
1FC
330
1FB
100
AcDbEntity
  8
Default
100
AcDbVertex
100
AcDb2dVertex
 10
12.16170076773867
 20
58.21528505506729
 30
0.0
  0
VERTEX
  5
1FD
330
1FB
100
AcDbEntity
  8
Default
100
AcDbVertex
100
AcDb2dVertex
 10
11.64946611559586
 20
58.3693496319907
 30
0.0
  0
SEQEND
  5
1FE
330
1FB
100
AcDbEntity
  8
Default
  0
SPLINE
  5
1FF
330
1F
100
AcDbEntity
  8
Default
100
AcDbSpline
210
0.0
220
0.0
230
1.0
 70
     8
 71
     3
 72
     9
 73
     5
 74
     0
 42
0.0000000001
 43
0.0000000001
 40
0.0
 40
0.0
 40
0.0
 40
0.0
 40
1.0
 40
2.0
 40
2.0
 40
2.0
 40
2.0
 10
12.4097020550903
 20
58.97732969728987
 30
0.0
 10
12.60904253265128
 20
58.91164687677642
 30
0.0
 10
12.81354002885324
 20
58.4245428765033
 30
0.0
 10
12.36151895865771
 20
58.15116169804025
 30
0.0
 10
12.16170076773867
 20
58.21528505506729
 30
0.0
  0
POLYLINE
  5
200
330
1F
100
AcDbEntity
  8
Default
100
AcDb2dPolyline
 66
     1
 10
0.0
 20
0.0
 30
0.0
  0
VERTEX
  5
201
330
200
100
AcDbEntity
  8
Default
100
AcDbVertex
100
AcDb2dVertex
 10
11.74052353088975
 20
59.20937906798383
 30
0.0
  0
VERTEX
  5
202
330
200
100
AcDbEntity
  8
Default
100
AcDbVertex
100
AcDb2dVertex
 10
12.4097020550903
 20
58.97732969728987
 30
0.0
  0
SEQEND
  5
203
330
200
100
AcDbEntity
  8
Default
  0
SPLINE
  5
204
330
1F
100
AcDbEntity
  8
Default
100
AcDbSpline
210
0.0
220
0.0
230
1.0
 70
    24
 71
     2
 72
     6
 73
     3
 74
     0
 42
0.0000000001
 43
0.0000000001
 40
0.0
 40
0.0
 40
0.0
 40
0.2318535058159794
 40
0.2318535058159794
 40
0.2318535058159794
 10
-11.86237906020011
 20
58.24249126543288
 30
0.0
 10
-11.74645230729212
 20
58.24249126543288
 30
0.0
 10
-11.63052555438413
 20
58.24249126543288
 30
0.0
  0
SPLINE
  5
205
330
1F
100
AcDbEntity
  8
Default
100
AcDbSpline
210
0.0
220
0.0
230
1.0
 70
    12
 71
     2
 72
     6
 73
     3
 74
     0
 42
0.0000000001
 43
0.0000000001
 40
0.0
 40
0.0
 40
0.0
 40
0.0490228526879361
 40
0.0490228526879361
 40
0.0490228526879361
 10
-11.8936290602001
 20
58.27626693413423
 30
0.0
 41
1.0
 10
-11.89347882647781
 20
58.24264149915516
 30
0.0
 41
0.7105143136418829
 10
-11.86237906020011
 20
58.24249126543288
 30
0.0
 41
1.0
  0
SPLINE
  5
206
330
1F
100
AcDbEntity
  8
Default
100
AcDbSpline
210
0.0
220
0.0
230
1.0
 70
    28
 71
     2
 72
     8
 73
     5
 74
     0
 42
0.0000000001
 43
0.0000000001
 40
1.72266499764573
 40
1.72266499764573
 40
1.72266499764573
 40
1.991447640890785
 40
1.991447640890785
 40
2.084127608162947
 40
2.084127608162947
 40
2.084127608162947
 10
-11.8936290602001
 20
58.29591285725256
 30
0.0
 41
0.9342710289645251
 10
-11.8936290602001
 20
58.27374129508587
 30
0.0
 41
0.9622770055938247
 10
-11.8936290602001
 20
58.27374129508588
 30
0.0
 41
1.0
 10
-11.8936290602001
 20
58.27374129508589
 30
0.0
 41
0.9869925905751854
 10
-11.8936290602001
 20
58.27626693413423
 30
0.0
 41
0.9751405011719827
  0
POLYLINE
  5
207
330
1F
100
AcDbEntity
  8
Default
100
AcDb2dPolyline
 66
     1
 10
0.0
 20
0.0
 30
0.0
  0
VERTEX
  5
208
330
207
100
AcDbEntity
  8
Default
100
AcDbVertex
100
AcDb2dVertex
 10
-11.89362906020011
 20
60.7712412654034
 30
0.0
  0
VERTEX
  5
209
330
207
100
AcDbEntity
  8
Default
100
AcDbVertex
100
AcDb2dVertex
 10
-11.89362906020011
 20
59.15628704478841
 30
0.0
  0
SEQEND
  5
20A
330
207
100
AcDbEntity
  8
Default
  0
SPLINE
  5
20B
330
1F
100
AcDbEntity
  8
Default
100
AcDbSpline
210
0.0
220
0.0
230
1.0
 70
    12
 71
     2
 72
     6
 73
     3
 74
     0
 42
0.0000000001
 43
0.0000000001
 40
0.0
 40
0.0
 40
0.0
 40
0.0490324959074584
 40
0.0490324959074584
 40
0.0490324959074584
 10
-11.86237906020011
 20
60.80249126543288
 30
0.0
 41
1.0
 10
-11.8935012611475
 20
60.80236346635091
 30
0.0
 41
0.7100044325010673
 10
-11.89362906020011
 20
60.7712412654034
 30
0.0
 41
1.0
  0
SPLINE
  5
20C
330
1F
100
AcDbEntity
  8
Default
100
AcDbSpline
210
0.0
220
0.0
230
1.0
 70
    24
 71
     2
 72
     6
 73
     3
 74
     0
 42
0.0000000001
 43
0.0000000001
 40
0.2822951052101574
 40
0.2822951052101574
 40
0.2822951052101574
 40
0.3437499999999964
 40
0.3437499999999964
 40
0.3437499999999964
 10
-11.80092416541027
 20
60.80249126543288
 30
0.0
 10
-11.83165161280519
 20
60.80249126543288
 30
0.0
 10
-11.86237906020011
 20
60.80249126543288
 30
0.0
  0
POLYLINE
  5
20D
330
1F
100
AcDbEntity
  8
Default
100
AcDb2dPolyline
 66
     1
 10
0.0
 20
0.0
 30
0.0
  0
VERTEX
  5
20E
330
20D
100
AcDbEntity
  8
Default
100
AcDbVertex
100
AcDb2dVertex
 10
-12.64362906020011
 20
60.7712412654034
 30
0.0
  0
VERTEX
  5
20F
330
20D
100
AcDbEntity
  8
Default
100
AcDbVertex
100
AcDb2dVertex
 10
-12.64362906020011
 20
58.85061312338392
 30
0.0
  0
SEQEND
  5
210
330
20D
100
AcDbEntity
  8
Default
  0
SPLINE
  5
211
330
1F
100
AcDbEntity
  8
Default
100
AcDbSpline
210
0.0
220
0.0
230
1.0
 70
    12
 71
     2
 72
     6
 73
     3
 74
     0
 42
0.0000000001
 43
0.0000000001
 40
0.0
 40
0.0
 40
0.0
 40
0.0490324959074584
 40
0.0490324959074584
 40
0.0490324959074584
 10
-12.67487906020011
 20
60.80249126543288
 30
0.0
 41
1.0
 10
-12.64375685925271
 20
60.80236346635091
 30
0.0
 41
0.7100044325010673
 10
-12.64362906020011
 20
60.7712412654034
 30
0.0
 41
1.0
  0
SPLINE
  5
212
330
1F
100
AcDbEntity
  8
Default
100
AcDbSpline
210
0.0
220
0.0
230
1.0
 70
    24
 71
     2
 72
     6
 73
     3
 74
     0
 42
0.0000000001
 43
0.0000000001
 40
0.0
 40
0.0
 40
0.0
 40
0.3437499999999964
 40
0.3437499999999964
 40
0.3437499999999964
 10
-13.01862906020011
 20
60.80249126543289
 30
0.0
 10
-12.84675406020011
 20
60.80249126543289
 30
0.0
 10
-12.67487906020011
 20
60.80249126543288
 30
0.0
  0
SPLINE
  5
213
330
1F
100
AcDbEntity
  8
Default
100
AcDbSpline
210
0.0
220
0.0
230
1.0
 70
    12
 71
     2
 72
     6
 73
     3
 74
     0
 42
0.0000000001
 43
0.0000000001
 40
0.0
 40
0.0
 40
0.0
 40
0.196322842543291
 40
0.196322842543291
 40
0.196322842543291
 10
-13.1436290601948
 20
60.67749241729386
 30
0.0
 41
1.0
 10
-13.14356839295735
 20
60.80243174949737
 30
0.0
 41
0.7074467937681466
 10
-13.01862906020011
 20
60.80249126543289
 30
0.0
 41
1.0
  0
POLYLINE
  5
214
330
1F
100
AcDbEntity
  8
Default
100
AcDb2dPolyline
 66
     1
 10
0.0
 20
0.0
 30
0.0
  0
VERTEX
  5
215
330
214
100
AcDbEntity
  8
Default
100
AcDbVertex
100
AcDb2dVertex
 10
-13.14362906020011
 20
58.36749126543288
 30
0.0
  0
VERTEX
  5
216
330
214
100
AcDbEntity
  8
Default
100
AcDbVertex
100
AcDb2dVertex
 10
-13.1436290601948
 20
60.67749241729386
 30
0.0
  0
SEQEND
  5
217
330
214
100
AcDbEntity
  8
Default
  0
SPLINE
  5
218
330
1F
100
AcDbEntity
  8
Default
100
AcDbSpline
210
0.0
220
0.0
230
1.0
 70
    12
 71
     2
 72
     6
 73
     3
 74
     0
 42
0.0000000001
 43
0.0000000001
 40
0.0
 40
0.0
 40
0.0
 40
0.1963109116755479
 40
0.1963109116755479
 40
0.1963109116755479
 10
-13.01862906020011
 20
58.24249126543288
 30
0.0
 41
1.0
 10
-13.14353906922269
 20
58.24258125641029
 30
0.0
 41
0.7076160301426923
 10
-13.14362906020011
 20
58.36749126543288
 30
0.0
 41
1.0
  0
SPLINE
  5
219
330
1F
100
AcDbEntity
  8
Default
100
AcDbSpline
210
0.0
220
0.0
230
1.0
 70
    24
 71
     2
 72
     6
 73
     3
 74
     0
 42
0.0000000001
 43
0.0000000001
 40
0.0
 40
0.0
 40
0.0
 40
0.34375
 40
0.34375
 40
0.34375
 10
-12.67487906020011
 20
58.24249126543288
 30
0.0
 10
-12.84675406020011
 20
58.24249126543288
 30
0.0
 10
-13.01862906020011
 20
58.24249126543288
 30
0.0
  0
SPLINE
  5
21A
330
1F
100
AcDbEntity
  8
Default
100
AcDbSpline
210
0.0
220
0.0
230
1.0
 70
    12
 71
     2
 72
     6
 73
     3
 74
     0
 42
0.0000000001
 43
0.0000000001
 40
0.0
 40
0.0
 40
0.0
 40
0.0490228526879361
 40
0.0490228526879361
 40
0.0490228526879361
 10
-12.64362906020011
 20
58.27626693413423
 30
0.0
 41
1.0
 10
-12.64377929392241
 20
58.24264149915516
 30
0.0
 41
0.7105143136418829
 10
-12.67487906020011
 20
58.24249126543288
 30
0.0
 41
1.0
  0
SPLINE
  5
21B
330
1F
100
AcDbEntity
  8
Default
100
AcDbSpline
210
0.0
220
0.0
230
1.0
 70
    28
 71
     2
 72
     8
 73
     5
 74
     0
 42
0.0000000001
 43
0.0000000001
 40
1.493513535110701
 40
1.493513535110701
 40
1.493513535110701
 40
1.991447640890785
 40
1.991447640890785
 40
2.084127608162947
 40
2.084127608162947
 40
2.084127608162947
 10
-12.64362906020012
 20
58.35329798900901
 30
0.0
 41
0.8935806496755898
 10
-12.64362906020012
 20
58.27374129508588
 30
0.0
 41
0.9301161516227049
 10
-12.64362906020012
 20
58.27374129508588
 30
0.0
 41
1.0
 10
-12.64362906020012
 20
58.27374129508589
 30
0.0
 41
0.9869925905751854
 10
-12.64362906020011
 20
58.27626693413423
 30
0.0
 41
0.9751405011719827
  0
POLYLINE
  5
21C
330
1F
100
AcDbEntity
  8
Default
100
AcDb2dPolyline
 66
     1
 10
0.0
 20
0.0
 30
0.0
  0
VERTEX
  5
21D
330
21C
100
AcDbEntity
  8
Default
100
AcDbVertex
100
AcDb2dVertex
 10
-11.90925406020011
 20
60.80249126543288
 30
0.0
  0
VERTEX
  5
21E
330
21C
100
AcDbEntity
  8
Default
100
AcDbVertex
100
AcDb2dVertex
 10
-11.90925406020011
 20
59.15086880244205
 30
0.0
  0
SEQEND
  5
21F
330
21C
100
AcDbEntity
  8
Default
  0
SPLINE
  5
220
330
1F
100
AcDbEntity
  8
Default
100
AcDbSpline
210
0.0
220
0.0
230
1.0
 70
    24
 71
     2
 72
     6
 73
     3
 74
     0
 42
0.0000000001
 43
0.0000000001
 40
0.0
 40
0.0
 40
0.0
 40
0.71875
 40
0.71875
 40
0.71875
 10
-12.62800406020011
 20
60.80249126543288
 30
0.0
 10
-12.26862906020011
 20
60.80249126543288
 30
0.0
 10
-11.90925406020011
 20
60.80249126543288
 30
0.0
  0
POLYLINE
  5
221
330
1F
100
AcDbEntity
  8
Default
100
AcDb2dPolyline
 66
     1
 10
0.0
 20
0.0
 30
0.0
  0
VERTEX
  5
222
330
221
100
AcDbEntity
  8
Default
100
AcDbVertex
100
AcDb2dVertex
 10
-12.62800406020011
 20
58.87269759427247
 30
0.0
  0
VERTEX
  5
223
330
221
100
AcDbEntity
  8
Default
100
AcDbVertex
100
AcDb2dVertex
 10
-12.62800406020011
 20
60.80249126543288
 30
0.0
  0
SEQEND
  5
224
330
221
100
AcDbEntity
  8
Default
  0
ARC
  5
225
330
1F
100
AcDbEntity
  8
Default
100
AcDbCircle
 10
-12.26862906040024
 20
58.60186626479344
 30
0.0
 40
0.4499999994539212
100
AcDbArc
 50
82.12682940302794
 51
313.7273121103651
  0
POLYLINE
  5
226
330
1F
100
AcDbEntity
  8
Default
100
AcDb2dPolyline
 66
     1
 10
0.0
 20
0.0
 30
0.0
  0
VERTEX
  5
227
330
226
100
AcDbEntity
  8
Default
100
AcDbVertex
100
AcDb2dVertex
 10
-12.16170076772789
 20
58.21528505506729
 30
0.0
  0
VERTEX
  5
228
330
226
100
AcDbEntity
  8
Default
100
AcDbVertex
100
AcDb2dVertex
 10
-11.64946611558508
 20
58.3693496319907
 30
0.0
  0
SEQEND
  5
229
330
226
100
AcDbEntity
  8
Default
  0
SPLINE
  5
22A
330
1F
100
AcDbEntity
  8
Default
100
AcDbSpline
210
0.0
220
0.0
230
1.0
 70
     8
 71
     3
 72
     9
 73
     5
 74
     0
 42
0.0000000001
 43
0.0000000001
 40
0.0
 40
0.0
 40
0.0
 40
0.0
 40
1.0
 40
2.0
 40
2.0
 40
2.0
 40
2.0
 10
-12.40970205507952
 20
58.97732969728987
 30
0.0
 10
-12.6090425326405
 20
58.91164687677642
 30
0.0
 10
-12.81354002884246
 20
58.4245428765033
 30
0.0
 10
-12.36151895864693
 20
58.15116169804025
 30
0.0
 10
-12.16170076772789
 20
58.21528505506729
 30
0.0
  0
POLYLINE
  5
22B
330
1F
100
AcDbEntity
  8
Default
100
AcDb2dPolyline
 66
     1
 10
0.0
 20
0.0
 30
0.0
  0
VERTEX
  5
22C
330
22B
100
AcDbEntity
  8
Default
100
AcDbVertex
100
AcDb2dVertex
 10
-11.74052353087897
 20
59.20937906798383
 30
0.0
  0
VERTEX
  5
22D
330
22B
100
AcDbEntity
  8
Default
100
AcDbVertex
100
AcDb2dVertex
 10
-12.40970205507952
 20
58.97732969728987
 30
0.0
  0
SEQEND
  5
22E
330
22B
100
AcDbEntity
  8
Default
  0
POLYLINE
  5
22F
330
1F
100
AcDbEntity
  8
Default
100
AcDb2dPolyline
 66
     1
 10
0.0
 20
0.0
 30
0.0
  0
VERTEX
  5
230
330
22F
100
AcDbEntity
  8
Default
100
AcDbVertex
100
AcDb2dVertex
 10
0.4007030954365858
 20
49.67099017505092
 30
0.0
  0
VERTEX
  5
231
330
22F
100
AcDbEntity
  8
Default
100
AcDbVertex
100
AcDb2dVertex
 10
0.4064807135529511
 20
49.93060653076829
 30
0.0
  0
SEQEND
  5
232
330
22F
100
AcDbEntity
  8
Default
  0
SPLINE
  5
233
330
1F
100
AcDbEntity
  8
Default
100
AcDbSpline
210
0.0
220
0.0
230
1.0
 70
     8
 71
     3
 72
    11
 73
     7
 74
     0
 42
0.0000000001
 43
0.0000000001
 40
0.0
 40
0.0
 40
0.0
 40
0.0
 40
1.0
 40
2.0
 40
3.0
 40
4.0
 40
4.0
 40
4.0
 40
4.0
 10
-0.4009411964929539
 20
49.67083195024901
 30
0.0
 10
-0.3968443682084086
 20
49.56886699823739
 30
0.0
 10
-0.3051884357324857
 20
49.3697990355088
 30
0.0
 10
-0.0001119905505287
 20
49.24752328543116
 30
0.0
 10
0.3048432586044242
 20
49.37003208917975
 30
0.0
 10
0.3965326994740516
 20
49.56902548070482
 30
0.0
 10
0.4007030954365858
 20
49.67099017505092
 30
0.0
  0
POLYLINE
  5
234
330
1F
100
AcDbEntity
  8
Default
100
AcDb2dPolyline
 66
     1
 10
0.0
 20
0.0
 30
0.0
  0
VERTEX
  5
235
330
234
100
AcDbEntity
  8
Default
100
AcDbVertex
100
AcDb2dVertex
 10
-0.4064787642149357
 20
49.93060646676732
 30
0.0
  0
VERTEX
  5
236
330
234
100
AcDbEntity
  8
Default
100
AcDbVertex
100
AcDb2dVertex
 10
-0.4009411964929539
 20
49.67083195024901
 30
0.0
  0
SEQEND
  5
237
330
234
100
AcDbEntity
  8
Default
  0
ARC
  5
238
330
1F
100
AcDbEntity
  8
Default
100
AcDbCircle
 10
-0.0000001446537145
 20
49.6887554900198
 30
0.0
 40
0.4505699971767498
100
AcDbArc
 50
154.1571530446633
 51
25.85410525655074
  0
SPLINE
  5
239
330
1F
100
AcDbEntity
  8
Default
100
AcDbSpline
210
0.0
220
0.0
230
1.0
 70
    24
 71
     2
 72
     6
 73
     3
 74
     0
 42
0.0000000001
 43
0.0000000001
 40
-0.4758210510135541
 40
-0.4758210510135541
 40
-0.4758210510135541
 40
0.0
 40
0.0
 40
0.0
 10
-0.8750001445675153
 20
49.4567159543099
 30
0.0
 10
-0.87500014456884
 20
49.69579478791995
 30
0.0
 10
-0.8750001445701647
 20
49.93487362153001
 30
0.0
  0
SPLINE
  5
23A
330
1F
100
AcDbEntity
  8
Default
100
AcDbSpline
210
0.0
220
0.0
230
1.0
 70
    12
 71
     2
 72
     6
 73
     3
 74
     0
 42
0.0000000001
 43
0.0000000001
 40
0.0
 40
0.0
 40
0.0
 40
0.1963097587114482
 40
0.1963097587114482
 40
0.1963097587114482
 10
-0.7500001445701647
 20
49.32938048996433
 30
0.0
 41
1.0
 10
-0.8749089997226192
 20
49.3294704837855
 30
0.0
 41
0.70761930653121
 10
-0.8750001445675153
 20
49.4567159543099
 30
0.0
 41
1.0
  0
SPLINE
  5
23B
330
1F
100
AcDbEntity
  8
Default
100
AcDbSpline
210
0.0
220
0.0
230
1.0
 70
    24
 71
     2
 72
     6
 73
     3
 74
     0
 42
0.0000000001
 43
0.0000000001
 40
0.0
 40
0.0
 40
0.0
 40
0.34375
 40
0.34375
 40
0.34375
 10
-0.4062501445701656
 20
49.32938048996432
 30
0.0
 10
-0.5781251445701652
 20
49.32938048996432
 30
0.0
 10
-0.7500001445701647
 20
49.32938048996433
 30
0.0
  0
SPLINE
  5
23C
330
1F
100
AcDbEntity
  8
Default
100
AcDbSpline
210
0.0
220
0.0
230
1.0
 70
    12
 71
     2
 72
     6
 73
     3
 74
     0
 42
0.0000000001
 43
0.0000000001
 40
0.0
 40
0.0
 40
0.0
 40
0.0490228526923067
 40
0.0490228526923067
 40
0.0490228526923067
 10
-0.3750000972463985
 20
49.36315615866792
 30
0.0
 41
1.0
 10
-0.3751503782882629
 20
49.32953072368688
 30
0.0
 41
0.7105143135969407
 10
-0.4062501445701656
 20
49.32938048996432
 30
0.0
 41
1.0
  0
SPLINE
  5
23D
330
1F
100
AcDbEntity
  8
Default
100
AcDbSpline
210
0.0
220
0.0
230
1.0
 70
    12
 71
     2
 72
     8
 73
     5
 74
     0
 42
0.0000000001
 43
0.0000000001
 40
-0.4690344867060143
 40
-0.4690344867060143
 40
-0.4690344867060143
 40
-0.0025393128060464
 40
-0.0025393128060464
 40
0.0
 40
0.0
 40
0.0
 10
-0.3750001445701764
 20
49.43876598160588
 30
0.0
 41
0.8942131309603288
 10
-0.3750001445701752
 20
49.36063051961732
 30
0.0
 41
0.9307186749905532
 10
-0.3750000499226358
 20
49.36063051961733
 30
0.0
 41
1.0
 10
-0.3750000499226349
 20
49.36189333914263
 30
0.0
 41
1.0
 10
-0.3750000972463985
 20
49.36315615866792
 30
0.0
 41
1.0
  0
SPLINE
  5
23E
330
1F
100
AcDbEntity
  8
Default
100
AcDbSpline
210
0.0
220
0.0
230
1.0
 70
    24
 71
     2
 72
     6
 73
     3
 74
     0
 42
0.0000000001
 43
0.0000000001
 40
-0.4758210510135541
 40
-0.4758210510135541
 40
-0.4758210510135541
 40
0.0
 40
0.0
 40
0.0
 10
0.8750001445782924
 20
49.4567159543099
 30
0.0
 10
0.8750001445796172
 20
49.69579478791995
 30
0.0
 10
0.8750001445809419
 20
49.93487362153001
 30
0.0
  0
SPLINE
  5
23F
330
1F
100
AcDbEntity
  8
Default
100
AcDbSpline
210
0.0
220
0.0
230
1.0
 70
    12
 71
     2
 72
     6
 73
     3
 74
     0
 42
0.0000000001
 43
0.0000000001
 40
0.0
 40
0.0
 40
0.0
 40
0.1963097587114482
 40
0.1963097587114482
 40
0.1963097587114482
 10
0.7500001445809419
 20
49.32938048996433
 30
0.0
 41
1.0
 10
0.8749089997333963
 20
49.3294704837855
 30
0.0
 41
0.70761930653121
 10
0.8750001445782924
 20
49.4567159543099
 30
0.0
 41
1.0
  0
SPLINE
  5
240
330
1F
100
AcDbEntity
  8
Default
100
AcDbSpline
210
0.0
220
0.0
230
1.0
 70
    24
 71
     2
 72
     6
 73
     3
 74
     0
 42
0.0000000001
 43
0.0000000001
 40
0.0
 40
0.0
 40
0.0
 40
0.34375
 40
0.34375
 40
0.34375
 10
0.4062501445809428
 20
49.32938048996432
 30
0.0
 10
0.5781251445809423
 20
49.32938048996432
 30
0.0
 10
0.7500001445809419
 20
49.32938048996433
 30
0.0
  0
SPLINE
  5
241
330
1F
100
AcDbEntity
  8
Default
100
AcDbSpline
210
0.0
220
0.0
230
1.0
 70
    12
 71
     2
 72
     6
 73
     3
 74
     0
 42
0.0000000001
 43
0.0000000001
 40
0.0
 40
0.0
 40
0.0
 40
0.0490228526923067
 40
0.0490228526923067
 40
0.0490228526923067
 10
0.3750000972571756
 20
49.36315615866792
 30
0.0
 41
1.0
 10
0.37515037829904
 20
49.32953072368688
 30
0.0
 41
0.7105143135969407
 10
0.4062501445809428
 20
49.32938048996432
 30
0.0
 41
1.0
  0
SPLINE
  5
242
330
1F
100
AcDbEntity
  8
Default
100
AcDbSpline
210
0.0
220
0.0
230
1.0
 70
    12
 71
     2
 72
     8
 73
     5
 74
     0
 42
0.0000000001
 43
0.0000000001
 40
-0.4690344867060143
 40
-0.4690344867060143
 40
-0.4690344867060143
 40
-0.0025393128060464
 40
-0.0025393128060464
 40
0.0
 40
0.0
 40
0.0
 10
0.3750001445809536
 20
49.43876598160588
 30
0.0
 41
0.8942131309603288
 10
0.3750001445809524
 20
49.36063051961732
 30
0.0
 41
0.9307186749905532
 10
0.375000049933413
 20
49.36063051961733
 30
0.0
 41
1.0
 10
0.3750000499334121
 20
49.36189333914263
 30
0.0
 41
1.0
 10
0.3750000972571756
 20
49.36315615866792
 30
0.0
 41
1.0
  0
LINE
  5
243
330
1F
100
AcDbEntity
  8
Default
100
AcDbLine
 10
7.207429899152607
 20
75.19135405160283
 30
0.0
 11
7.207429899152609
 21
74.28049035697998
 31
0.0
  0
ARC
  5
244
330
1F
100
AcDbEntity
  8
Default
100
AcDbCircle
 10
7.174733926717937
 20
75.19244744252443
 30
0.0
 40
0.0327142494512088
100
AcDbArc
 50
358.0846770001484
 51
87.46669665574143
  0
SPLINE
  5
245
330
1F
100
AcDbEntity
  8
Default
100
AcDbSpline
210
0.0
220
0.0
230
1.0
 70
    24
 71
     2
 72
     6
 73
     3
 74
     0
 42
0.0000000001
 43
0.0000000001
 40
0.0
 40
0.0
 40
0.0
 40
0.34375
 40
0.34375
 40
0.34375
 10
6.832429899152618
 20
75.2251297203042
 30
0.0
 10
7.004304899152618
 20
75.2251297203042
 30
0.0
 10
7.176179899152618
 20
75.2251297203042
 30
0.0
  0
ARC
  5
246
330
1F
100
AcDbEntity
  8
Default
100
AcDbCircle
 10
6.833669027413232
 20
75.09889190152444
 30
0.0
 40
0.1262439001659804
100
AcDbArc
 50
90.56238724841576
 51
180.4981725901478
  0
LINE
  5
247
330
1F
100
AcDbEntity
  8
Default
100
AcDbLine
 10
6.707429899153749
 20
74.43638346637879
 30
0.0
 11
6.707429899155271
 21
75.09779425595862
 31
0.0
  0
LINE
  5
248
330
1F
100
AcDbEntity
  8
Default
100
AcDbLine
 10
7.957429899152632
 20
75.19135405160283
 30
0.0
 11
7.957429899152629
 21
73.97273859311643
 31
0.0
  0
ARC
  5
249
330
1F
100
AcDbEntity
  8
Default
100
AcDbCircle
 10
7.990125871587302
 20
75.19244744252443
 30
0.0
 40
0.0327142494512088
100
AcDbArc
 50
92.53330334425857
 51
181.9153229998516
  0
SPLINE
  5
24A
330
1F
100
AcDbEntity
  8
Default
100
AcDbSpline
210
0.0
220
0.0
230
1.0
 70
    24
 71
     2
 72
     6
 73
     3
 74
     0
 42
0.0000000001
 43
0.0000000001
 40
0.0
 40
0.0
 40
0.0
 40
0.34375
 40
0.34375
 40
0.34375
 10
8.332429899152622
 20
75.2251297203042
 30
0.0
 10
8.160554899152622
 20
75.2251297203042
 30
0.0
 10
7.98867989915262
 20
75.2251297203042
 30
0.0
  0
ARC
  5
24B
330
1F
100
AcDbEntity
  8
Default
100
AcDbCircle
 10
8.331190770892007
 20
75.09889190152444
 30
0.0
 40
0.1262439001659804
100
AcDbArc
 50
359.5018274098522
 51
89.43761275158505
  0
LINE
  5
24C
330
1F
100
AcDbEntity
  8
Default
100
AcDbLine
 10
8.457429899153263
 20
73.66612878219378
 30
0.0
 11
8.457429899149968
 21
75.09779425595862
 31
0.0
  0
SPLINE
  5
24D
330
1F
100
AcDbEntity
  8
Default
100
AcDbSpline
210
0.0
220
0.0
230
1.0
 70
    24
 71
     2
 72
     6
 73
     3
 74
     0
 42
0.0000000001
 43
0.0000000001
 40
0.0
 40
0.0
 40
0.0
 40
0.9499167753808341
 40
0.9499167753808341
 40
0.9499167753808341
 10
7.223054899152619
 20
75.2251297203042
 30
0.0
 10
7.223054899152619
 20
74.75017133261377
 30
0.0
 10
7.223054899152619
 20
74.27521294492337
 30
0.0
  0
SPLINE
  5
24E
330
1F
100
AcDbEntity
  8
Default
100
AcDbSpline
210
0.0
220
0.0
230
1.0
 70
    24
 71
     2
 72
     6
 73
     3
 74
     0
 42
0.0000000001
 43
0.0000000001
 40
0.0
 40
0.0
 40
0.0
 40
0.71875
 40
0.71875
 40
0.71875
 10
7.941804899152619
 20
75.2251297203042
 30
0.0
 10
7.582429899152619
 20
75.2251297203042
 30
0.0
 10
7.223054899152619
 20
75.2251297203042
 30
0.0
  0
LINE
  5
24F
330
1F
100
AcDbEntity
  8
Default
100
AcDbLine
 10
7.94180489915262
 20
73.98065444025167
 30
0.0
 11
7.941804899152619
 21
75.2251297203042
 31
0.0
  0
LINE
  5
250
330
1F
100
AcDbEntity
  8
Default
100
AcDbLine
 10
-7.20742989914183
 20
75.19135405160283
 30
0.0
 11
-7.207429899141832
 21
74.28049035697998
 31
0.0
  0
ARC
  5
251
330
1F
100
AcDbEntity
  8
Default
100
AcDbCircle
 10
-7.17473392670716
 20
75.19244744252443
 30
0.0
 40
0.0327142494512088
100
AcDbArc
 50
92.53330334425857
 51
181.9153229998516
  0
SPLINE
  5
252
330
1F
100
AcDbEntity
  8
Default
100
AcDbSpline
210
0.0
220
0.0
230
1.0
 70
    24
 71
     2
 72
     6
 73
     3
 74
     0
 42
0.0000000001
 43
0.0000000001
 40
0.0
 40
0.0
 40
0.0
 40
0.34375
 40
0.34375
 40
0.34375
 10
-6.83242989914184
 20
75.2251297203042
 30
0.0
 10
-7.004304899141841
 20
75.2251297203042
 30
0.0
 10
-7.176179899141841
 20
75.2251297203042
 30
0.0
  0
ARC
  5
253
330
1F
100
AcDbEntity
  8
Default
100
AcDbCircle
 10
-6.833669027402455
 20
75.09889190152444
 30
0.0
 40
0.1262439001659804
100
AcDbArc
 50
359.5018274098522
 51
89.43761275158425
  0
LINE
  5
254
330
1F
100
AcDbEntity
  8
Default
100
AcDbLine
 10
-6.707429899142972
 20
74.43638346637879
 30
0.0
 11
-6.707429899144494
 21
75.09779425595862
 31
0.0
  0
LINE
  5
255
330
1F
100
AcDbEntity
  8
Default
100
AcDbLine
 10
-7.957429899141855
 20
75.19135405160283
 30
0.0
 11
-7.957429899141852
 21
73.97273859311643
 31
0.0
  0
ARC
  5
256
330
1F
100
AcDbEntity
  8
Default
100
AcDbCircle
 10
-7.990125871576525
 20
75.19244744252443
 30
0.0
 40
0.0327142494512088
100
AcDbArc
 50
358.0846770001484
 51
87.46669665574143
  0
SPLINE
  5
257
330
1F
100
AcDbEntity
  8
Default
100
AcDbSpline
210
0.0
220
0.0
230
1.0
 70
    24
 71
     2
 72
     6
 73
     3
 74
     0
 42
0.0000000001
 43
0.0000000001
 40
0.0
 40
0.0
 40
0.0
 40
0.34375
 40
0.34375
 40
0.34375
 10
-8.332429899141843
 20
75.2251297203042
 30
0.0
 10
-8.160554899141843
 20
75.2251297203042
 30
0.0
 10
-7.988679899141843
 20
75.2251297203042
 30
0.0
  0
ARC
  5
258
330
1F
100
AcDbEntity
  8
Default
100
AcDbCircle
 10
-8.331190770881229
 20
75.09889190152444
 30
0.0
 40
0.1262439001659804
100
AcDbArc
 50
90.56238724841495
 51
180.4981725901478
  0
LINE
  5
259
330
1F
100
AcDbEntity
  8
Default
100
AcDbLine
 10
-8.457429899142484
 20
73.66612878219378
 30
0.0
 11
-8.45742989913919
 21
75.09779425595862
 31
0.0
  0
SPLINE
  5
25A
330
1F
100
AcDbEntity
  8
Default
100
AcDbSpline
210
0.0
220
0.0
230
1.0
 70
    24
 71
     2
 72
     6
 73
     3
 74
     0
 42
0.0000000001
 43
0.0000000001
 40
0.0
 40
0.0
 40
0.0
 40
0.9499167753808341
 40
0.9499167753808341
 40
0.9499167753808341
 10
-7.223054899141842
 20
75.2251297203042
 30
0.0
 10
-7.223054899141842
 20
74.75017133261377
 30
0.0
 10
-7.223054899141842
 20
74.27521294492337
 30
0.0
  0
SPLINE
  5
25B
330
1F
100
AcDbEntity
  8
Default
100
AcDbSpline
210
0.0
220
0.0
230
1.0
 70
    24
 71
     2
 72
     6
 73
     3
 74
     0
 42
0.0000000001
 43
0.0000000001
 40
0.0
 40
0.0
 40
0.0
 40
0.71875
 40
0.71875
 40
0.71875
 10
-7.941804899141842
 20
75.2251297203042
 30
0.0
 10
-7.582429899141842
 20
75.2251297203042
 30
0.0
 10
-7.223054899141842
 20
75.2251297203042
 30
0.0
  0
LINE
  5
25C
330
1F
100
AcDbEntity
  8
Default
100
AcDbLine
 10
-7.941804899141843
 20
73.98065444025167
 30
0.0
 11
-7.941804899141842
 21
75.2251297203042
 31
0.0
  0
SPLINE
  5
25D
330
1F
100
AcDbEntity
  8
Default
100
AcDbSpline
210
0.0
220
0.0
230
1.0
 70
     8
 71
     3
 72
    49
 73
    45
 74
     0
 42
0.0000000001
 43
0.0000000001
 40
-42.0
 40
-42.0
 40
-42.0
 40
-42.0
 40
-41.0
 40
-40.0
 40
-39.0
 40
-38.0
 40
-37.0
 40
-36.0
 40
-35.0
 40
-34.0
 40
-33.0
 40
-32.0
 40
-31.0
 40
-30.0
 40
-29.0
 40
-28.0
 40
-27.0
 40
-26.0
 40
-25.0
 40
-24.0
 40
-23.0
 40
-22.0
 40
-21.0
 40
-20.0
 40
-19.0
 40
-18.0
 40
-17.0
 40
-16.0
 40
-15.0
 40
-14.0
 40
-13.0
 40
-12.0
 40
-11.0
 40
-10.0
 40
-9.0
 40
-8.0
 40
-7.0
 40
-6.0
 40
-5.0
 40
-4.0
 40
-3.0
 40
-2.0
 40
-1.0
 40
0.0
 40
0.0
 40
0.0
 40
0.0
 10
0.0000000000054401
 20
75.4224073034072
 30
0.0
 10
-0.3246898952246331
 20
75.4231675742123
 30
0.0
 10
-0.9741285110186643
 20
75.4123948351405
 30
0.0
 10
-1.946694090901182
 20
75.35353708791779
 30
0.0
 10
-2.915370216817908
 20
75.24878006139515
 30
0.0
 10
-3.878880400739549
 20
75.1043168815135
 30
0.0
 10
-4.835863531731283
 20
74.92175156475923
 30
0.0
 10
-5.784565861536723
 20
74.69922042916352
 30
0.0
 10
-6.722361687353596
 20
74.4370790381712
 30
0.0
 10
-7.653901117626264
 20
74.14612788707433
 30
0.0
 10
-8.519273357338005
 20
73.68544029203306
 30
0.0
 10
-9.206360371845046
 20
72.96411389171878
 30
0.0
 10
-9.40053102200133
 20
71.98335309753926
 30
0.0
 10
-9.649085992541183
 20
71.04806644215356
 30
0.0
 10
-9.910156384111412
 20
70.10828574328653
 30
0.0
 10
-10.15966624522417
 20
69.16718652737504
 30
0.0
 10
-10.415100863379
 20
68.22689261599953
 30
0.0
 10
-10.71368565026725
 20
67.29949757211043
 30
0.0
 10
-10.969634014035
 20
66.35947532806266
 30
0.0
 10
-11.2666871645101
 20
65.43143393496587
 30
0.0
 10
-11.48647509882274
 20
64.48167633674825
 30
0.0
 10
-11.65710821890743
 20
63.52242264241607
 30
0.0
 10
-11.76726469664425
 20
62.55391647253985
 30
0.0
 10
-11.80192997969334
 20
61.57997528100017
 30
0.0
 10
-11.80377472229097
 20
60.60586140848994
 30
0.0
 10
-11.77690778737239
 20
59.63198946070287
 30
0.0
 10
-11.69902369461783
 20
58.66043225984861
 30
0.0
 10
-11.5481556118035
 20
57.69750899636057
 30
0.0
 10
-11.34222676102589
 20
56.7452028656575
 30
0.0
 10
-11.08063027663174
 20
55.80585732333373
 30
0.0
 10
-10.728133725849
 20
54.89717715453415
 30
0.0
 10
-10.30825573570573
 20
54.01633009642521
 30
0.0
 10
-9.77893261694862
 20
53.1967917682821
 30
0.0
 10
-9.180689453562358
 20
52.42588189988833
 30
0.0
 10
-8.455778183472885
 20
51.76843810137348
 30
0.0
 10
-7.619073204770419
 20
51.26236736915828
 30
0.0
 10
-6.724778445228552
 20
50.87301794056515
 30
0.0
 10
-5.797087794442353
 20
50.5724959021484
 30
0.0
 10
-4.846645132811306
 20
50.35574427501589
 30
0.0
 10
-3.884293813303958
 20
50.20292362461695
 30
0.0
 10
-2.917032350902565
 20
50.08699914330844
 30
0.0
 10
-1.946690435354269
 20
50.00043745595575
 30
0.0
 10
-0.9741000221951451
 20
49.94412257700034
 30
0.0
 10
-0.3246969020776528
 20
49.93119694959586
 30
0.0
 10
0.000000000004642
 20
49.933048356588
 30
0.0
  0
SPLINE
  5
25E
330
1F
100
AcDbEntity
  8
Default
100
AcDbSpline
210
0.0
220
0.0
230
1.0
 70
     8
 71
     3
 72
    49
 73
    45
 74
     0
 42
0.0000000001
 43
0.0000000001
 40
0.0
 40
0.0
 40
0.0
 40
0.0
 40
1.0
 40
2.0
 40
3.0
 40
4.0
 40
5.0
 40
6.0
 40
7.0
 40
8.0
 40
9.0
 40
10.0
 40
11.0
 40
12.0
 40
13.0
 40
14.0
 40
15.0
 40
16.0
 40
17.0
 40
18.0
 40
19.0
 40
20.0
 40
21.0
 40
22.0
 40
23.0
 40
24.0
 40
25.0
 40
26.0
 40
27.0
 40
28.0
 40
29.0
 40
30.0
 40
31.0
 40
32.0
 40
33.0
 40
34.0
 40
35.0
 40
36.0
 40
37.0
 40
38.0
 40
39.0
 40
40.0
 40
41.0
 40
42.0
 40
42.0
 40
42.0
 40
42.0
 10
0.000000000004642
 20
49.933048356588
 30
0.0
 10
0.3246969020869367
 20
49.93119694959584
 30
0.0
 10
0.9741000222044298
 20
49.94412257700027
 30
0.0
 10
1.946690435363557
 20
50.00043745595563
 30
0.0
 10
2.917032350911859
 20
50.08699914330825
 30
0.0
 10
3.884293813313259
 20
50.20292362461671
 30
0.0
 10
4.846645132820617
 20
50.35574427501558
 30
0.0
 10
5.797087794451677
 20
50.57249590214804
 30
0.0
 10
6.724778445237894
 20
50.87301794056473
 30
0.0
 10
7.619073204779787
 20
51.26236736915781
 30
0.0
 10
8.455778183482286
 20
51.76843810137295
 30
0.0
 10
9.1806894535718
 20
52.42588189988776
 30
0.0
 10
9.778932616958109
 20
53.19679176828149
 30
0.0
 10
10.30825573571527
 20
54.01633009642457
 30
0.0
 10
10.7281337258586
 20
54.89717715453347
 30
0.0
 10
11.0806302766414
 20
55.80585732333303
 30
0.0
 10
11.3422267610356
 20
56.74520286565679
 30
0.0
 10
11.54815561181327
 20
57.69750899635984
 30
0.0
 10
11.69902369462766
 20
58.66043225984788
 30
0.0
 10
11.77690778738228
 20
59.63198946070213
 30
0.0
 10
11.80377472230092
 20
60.6058614084892
 30
0.0
 10
11.80192997970336
 20
61.57997528099943
 30
0.0
 10
11.76726469665433
 20
62.55391647253911
 30
0.0
 10
11.65710821891756
 20
63.52242264241535
 30
0.0
 10
11.48647509883293
 20
64.48167633674753
 30
0.0
 10
11.26668716452036
 20
65.43143393496516
 30
0.0
 10
10.96963401404532
 20
66.35947532806198
 30
0.0
 10
10.71368565027763
 20
67.29949757210976
 30
0.0
 10
10.41510086338943
 20
68.22689261599888
 30
0.0
 10
10.15966624523466
 20
69.1671865273744
 30
0.0
 10
9.910156384121962
 20
70.1082857432859
 30
0.0
 10
9.649085992551791
 20
71.04806644215294
 30
0.0
 10
9.400531022011997
 20
71.98335309753868
 30
0.0
 10
9.206360371855773
 20
72.9641138917182
 30
0.0
 10
8.519273357348778
 20
73.68544029203252
 30
0.0
 10
7.653901117637064
 20
74.14612788707385
 30
0.0
 10
6.722361687364415
 20
74.43707903817078
 30
0.0
 10
5.784565861547558
 20
74.69922042916316
 30
0.0
 10
4.835863531742132
 20
74.92175156475894
 30
0.0
 10
3.878880400750409
 20
75.10431688151326
 30
0.0
 10
2.915370216828777
 20
75.24878006139497
 30
0.0
 10
1.946694090912058
 20
75.35353708791766
 30
0.0
 10
0.9741285110295438
 20
75.41239483514045
 30
0.0
 10
0.3246898952355133
 20
75.42316757421229
 30
0.0
 10
0.0000000000054401
 20
75.4224073034072
 30
0.0
  0
SPLINE
  5
25F
330
1F
100
AcDbEntity
  8
Default
100
AcDbSpline
210
0.0
220
0.0
230
1.0
 70
     8
 71
     3
 72
    30
 73
    26
 74
     0
 42
0.0000000001
 43
0.0000000001
 40
-23.0
 40
-23.0
 40
-23.0
 40
-23.0
 40
-22.0
 40
-21.0
 40
-20.0
 40
-19.0
 40
-18.0
 40
-17.0
 40
-16.0
 40
-15.0
 40
-14.0
 40
-13.0
 40
-12.0
 40
-11.0
 40
-10.0
 40
-9.0
 40
-8.0
 40
-7.0
 40
-6.0
 40
-5.0
 40
-4.0
 40
-3.0
 40
-2.0
 40
-1.0
 40
0.0
 40
0.0
 40
0.0
 40
0.0
 10
0.0000000000053886
 20
67.93060783989083
 30
0.0
 10
-0.4343380469304663
 20
67.93526600948772
 30
0.0
 10
-1.302958205017516
 20
67.92621161974341
 30
0.0
 10
-2.605544547042252
 20
67.88088475562328
 30
0.0
 10
-3.902609986055143
 20
67.741982972288
 30
0.0
 10
-5.176789750445779
 20
67.45654373913062
 30
0.0
 10
-6.388354483695867
 20
66.95489440790715
 30
0.0
 10
-7.423837850628989
 20
66.13703711533654
 30
0.0
 10
-8.116389062086698
 20
65.00578661163748
 30
0.0
 10
-8.370097439756327
 20
63.71703381399888
 30
0.0
 10
-8.521036505802616
 20
62.42473065546926
 30
0.0
 10
-8.617093745980803
 20
61.12418289670364
 30
0.0
 10
-8.632397085334066
 20
59.82095663273841
 30
0.0
 10
-8.603602677906817
 20
58.51821940282096
 30
0.0
 10
-8.575069556518072
 20
57.21553594427162
 30
0.0
 10
-8.523219113121314
 20
55.91344121654892
 30
0.0
 10
-8.392588337060452
 20
54.61552493439444
 30
0.0
 10
-8.114374530471977
 20
53.34054912308126
 30
0.0
 10
-7.494852916499868
 20
52.15598099239796
 30
0.0
 10
-6.345924785353335
 20
51.46911494684814
 30
0.0
 10
-5.137733266541587
 20
50.99637040029071
 30
0.0
 10
-3.883159286392407
 20
50.6327669430153
 30
0.0
 10
-2.601831313710963
 20
50.38953421977524
 30
0.0
 10
-1.302879489609538
 20
50.27318094854256
 30
0.0
 10
-0.4343718383198529
 20
50.24657786910742
 30
0.0
 10
0.0000000000053886
 20
50.24870676094142
 30
0.0
  0
SPLINE
  5
260
330
1F
100
AcDbEntity
  8
Default
100
AcDbSpline
210
0.0
220
0.0
230
1.0
 70
     8
 71
     3
 72
    30
 73
    26
 74
     0
 42
0.0000000001
 43
0.0000000001
 40
0.0
 40
0.0
 40
0.0
 40
0.0
 40
1.0
 40
2.0
 40
3.0
 40
4.0
 40
5.0
 40
6.0
 40
7.0
 40
8.0
 40
9.0
 40
10.0
 40
11.0
 40
12.0
 40
13.0
 40
14.0
 40
15.0
 40
16.0
 40
17.0
 40
18.0
 40
19.0
 40
20.0
 40
21.0
 40
22.0
 40
23.0
 40
23.0
 40
23.0
 40
23.0
 10
0.0000000000053886
 20
50.24870676094142
 30
0.0
 10
0.43437183833063
 20
50.24657786910742
 30
0.0
 10
1.302879489620316
 20
50.27318094854256
 30
0.0
 10
2.60183131372174
 20
50.38953421977524
 30
0.0
 10
3.883159286403184
 20
50.6327669430153
 30
0.0
 10
5.137733266552364
 20
50.99637040029071
 30
0.0
 10
6.345924785364113
 20
51.46911494684814
 30
0.0
 10
7.494852916510645
 20
52.15598099239796
 30
0.0
 10
8.114374530482756
 20
53.34054912308126
 30
0.0
 10
8.392588337071231
 20
54.61552493439444
 30
0.0
 10
8.523219113132093
 20
55.91344121654892
 30
0.0
 10
8.57506955652885
 20
57.21553594427162
 30
0.0
 10
8.603602677917596
 20
58.51821940282096
 30
0.0
 10
8.632397085344845
 20
59.82095663273841
 30
0.0
 10
8.617093745991582
 20
61.12418289670364
 30
0.0
 10
8.521036505813395
 20
62.42473065546926
 30
0.0
 10
8.370097439767106
 20
63.71703381399888
 30
0.0
 10
8.116389062097477
 20
65.00578661163748
 30
0.0
 10
7.423837850639766
 20
66.13703711533654
 30
0.0
 10
6.388354483706644
 20
66.95489440790715
 30
0.0
 10
5.176789750456556
 20
67.45654373913062
 30
0.0
 10
3.90260998606592
 20
67.741982972288
 30
0.0
 10
2.605544547053029
 20
67.88088475562328
 30
0.0
 10
1.302958205028293
 20
67.92621161974341
 30
0.0
 10
0.4343380469412434
 20
67.93526600948772
 30
0.0
 10
0.0000000000053886
 20
67.93060783989083
 30
0.0
  0
SPLINE
  5
261
330
1F
100
AcDbEntity
  8
Default
100
AcDbSpline
210
0.0
220
0.0
230
1.0
 70
     8
 71
     3
 72
    13
 73
     9
 74
     0
 42
0.0000000001
 43
0.0000000001
 40
0.0
 40
0.0
 40
0.0
 40
0.0
 40
0.2981212301897408
 40
0.6520033169486873
 40
1.758667477961158
 40
2.027920145093279
 40
2.255864737809852
 40
2.398137421766556
 40
2.398137421766556
 40
2.398137421766556
 40
2.398137421766556
 10
40.87973850500006
 20
13.43934109768011
 30
0.0
 10
40.92443272586447
 20
13.35050118606836
 30
0.0
 10
41.03279204071114
 20
13.16208929473772
 30
0.0
 10
41.35795910109579
 20
12.67367285548259
 30
0.0
 10
41.72466109466762
 20
12.22778141601311
 30
0.0
 10
42.03970388287377
 20
11.79589389131447
 30
0.0
 10
42.15093359046721
 20
11.61353389510526
 30
0.0
 10
42.19370811827841
 20
11.49659361000831
 30
0.0
 10
42.19467849631443
 20
11.44850000000026
 30
0.0
  0
SPLINE
  5
262
330
1F
100
AcDbEntity
  8
Default
100
AcDbSpline
210
0.0
220
0.0
230
1.0
 70
     8
 71
     3
 72
    15
 73
    11
 74
     0
 42
0.0000000001
 43
0.0000000001
 40
0.0
 40
0.0
 40
0.0
 40
0.0
 40
0.088124537773681
 40
0.2036322619253983
 40
0.5536785235545323
 40
0.9663894600886468
 40
2.317551417327644
 40
3.055061107656346
 40
3.592815813003493
 40
4.012655738350881
 40
4.012655738350881
 40
4.012655738350881
 40
4.012655738350881
 10
43.99468334841906
 20
11.44850000000006
 30
0.0
 10
43.99527958264739
 20
11.47745775224647
 30
0.0
 10
44.01540190044006
 20
11.54494407003988
 30
0.0
 10
44.13701656561458
 20
11.68606875203309
 30
0.0
 10
44.38051271275182
 20
11.85146864294019
 30
0.0
 10
44.99978223326541
 20
12.18678443185859
 30
0.0
 10
45.7566797438328
 20
12.53919912979094
 30
0.0
 10
46.51111582423577
 20
12.98530508446312
 30
0.0
 10
46.95709825171792
 20
13.33535713629871
 30
0.0
 10
47.15983669539897
 20
13.58573020979586
 30
0.0
 10
47.22490726390367
 20
13.71003368292902
 30
0.0
  0
POLYLINE
  5
263
330
1F
100
AcDbEntity
  8
Default
100
AcDb2dPolyline
 66
     1
 10
0.0
 20
0.0
 30
0.0
  0
VERTEX
  5
264
330
263
100
AcDbEntity
  8
Default
100
AcDbVertex
100
AcDb2dVertex
 10
43.99468334841906
 20
11.44850000000006
 30
0.0
  0
VERTEX
  5
265
330
263
100
AcDbEntity
  8
Default
100
AcDbVertex
100
AcDb2dVertex
 10
42.19467849631443
 20
11.44850000000026
 30
0.0
  0
SEQEND
  5
266
330
263
100
AcDbEntity
  8
Default
  0
SPLINE
  5
267
330
1F
100
AcDbEntity
  8
Default
100
AcDbSpline
210
0.0
220
0.0
230
1.0
 70
    24
 71
     2
 72
     6
 73
     3
 74
     0
 42
0.0000000001
 43
0.0000000001
 40
-0.4665619595548645
 40
-0.4665619595548645
 40
-0.4665619595548645
 40
-0.0496360617664248
 40
-0.0496360617664248
 40
-0.0496360617664248
 10
40.47841170298165
 20
13.51108137796573
 30
0.0
 10
40.44042234298222
 20
13.71605359459156
 30
0.0
 10
40.40243298298279
 20
13.9210258112174
 30
0.0
  0
SPLINE
  5
268
330
1F
100
AcDbEntity
  8
Default
100
AcDbSpline
210
0.0
220
0.0
230
1.0
 70
     8
 71
     3
 72
     8
 73
     4
 74
     0
 42
0.0000000001
 43
0.0000000001
 40
0.0
 40
0.0
 40
0.0
 40
0.0
 40
1.0
 40
1.0
 40
1.0
 40
1.0
 10
40.52696617583102
 20
13.47002899673343
 30
0.0
 10
40.50116609835923
 20
13.47245931979808
 30
0.0
 10
40.48299046509908
 20
13.48637659166176
 30
0.0
 10
40.47841170298165
 20
13.51108137796573
 30
0.0
  0
SPLINE
  5
269
330
1F
100
AcDbEntity
  8
Default
100
AcDbSpline
210
0.0
220
0.0
230
1.0
 70
     8
 71
     3
 72
    12
 73
     8
 74
     0
 42
0.0000000001
 43
0.0000000001
 40
0.0
 40
0.0
 40
0.0
 40
0.0
 40
1.0
 40
2.0
 40
3.0
 40
4.0
 40
5.0
 40
5.0
 40
5.0
 40
5.0
 10
47.63505725692819
 20
13.78093816349758
 30
0.0
 10
47.16643300907461
 20
13.69521955351942
 30
0.0
 10
46.22439225714676
 20
13.54949985752081
 30
0.0
 10
44.80178620526481
 20
13.40882917422387
 30
0.0
 10
43.37254723827583
 20
13.34669266167634
 30
0.0
 10
41.94592824464897
 20
13.36275072100859
 30
0.0
 10
40.98723418514349
 20
13.42667253936713
 30
0.0
 10
40.52696617583102
 20
13.47002899673343
 30
0.0
  0
ARC
  5
26A
330
1F
100
AcDbEntity
  8
Default
100
AcDbCircle
 10
47.62617073201359
 20
13.83001151068345
 30
0.0
 40
0.0498714720966085
100
AcDbArc
 50
280.2642652631743
 51
350.5227403102793
  0
LINE
  5
26B
330
1F
100
AcDbEntity
  8
Default
100
AcDbLine
 10
47.67981209627867
 20
13.84846052056485
 30
0.0
 11
47.6753615098907
 21
13.82179986645542
 31
0.0
  0
SPLINE
  5
26C
330
1F
100
AcDbEntity
  8
Default
100
AcDbSpline
210
0.0
220
0.0
230
1.0
 70
     8
 71
     3
 72
    16
 73
    12
 74
     0
 42
0.0000000001
 43
0.0000000001
 40
0.0
 40
0.0
 40
0.0
 40
0.0
 40
1.0
 40
2.0
 40
3.0
 40
4.0
 40
5.0
 40
6.0
 40
7.0
 40
8.0
 40
9.0
 40
9.0
 40
9.0
 40
9.0
 10
55.15662014268636
 20
16.21465315844867
 30
0.0
 10
55.2892988584529
 20
16.3413600590468
 30
0.0
 10
55.44578320881936
 20
16.68297039880787
 30
0.0
 10
55.44204283433044
 20
17.23738709298493
 30
0.0
 10
55.23563210081208
 20
17.75446245504481
 30
0.0
 10
54.8161034083229
 20
18.12670072876974
 30
0.0
 10
54.28411777077847
 20
18.27814640856432
 30
0.0
 10
53.74003570141458
 20
18.31446059770265
 30
0.0
 10
53.19497554567805
 20
18.31649463129623
 30
0.0
 10
52.65083296783116
 20
18.28710427365816
 30
0.0
 10
52.28785340743297
 20
18.27420553987351
 30
0.0
 10
52.10633206494981
 20
18.26846575359694
 30
0.0
  0
SPLINE
  5
26D
330
1F
100
AcDbEntity
  8
Default
100
AcDbSpline
210
0.0
220
0.0
230
1.0
 70
    12
 71
     2
 72
     8
 73
     5
 74
     0
 42
0.0000000001
 43
0.0000000001
 40
0.0
 40
0.0
 40
0.0
 40
0.4142959691772323
 40
0.4142959691772323
 40
0.828588430205433
 40
0.828588430205433
 40
0.828588430205433
 10
30.26726339544233
 20
34.12065727259129
 30
0.0
 41
1.0
 10
30.23013136500082
 20
34.33851899477088
 30
0.0
 41
0.9085535971351912
 10
30.37134599400596
 20
34.50852177777966
 30
0.0
 41
1.0
 10
30.51255930688926
 20
34.67852297636069
 30
0.0
 41
0.9085543714792195
 10
30.73353615349194
 20
34.68181965912338
 30
0.0
 41
0.9999984513250574
  0
SPLINE
  5
26E
330
1F
100
AcDbEntity
  8
Default
100
AcDbSpline
210
0.0
220
0.0
230
1.0
 70
     8
 71
     3
 72
    20
 73
    16
 74
     0
 42
0.0000000001
 43
0.0000000001
 40
0.0
 40
0.0
 40
0.0
 40
0.0
 40
1.0
 40
2.0
 40
3.0
 40
4.0
 40
5.0
 40
6.0
 40
7.0
 40
8.0
 40
9.0
 40
10.0
 40
11.0
 40
12.0
 40
13.0
 40
13.0
 40
13.0
 40
13.0
 10
55.22429212237534
 20
15.0036199204551
 30
0.0
 10
54.27293817965222
 20
14.67487946844551
 30
0.0
 10
52.29843565893384
 20
14.2695467725761
 30
0.0
 10
49.30042654955397
 20
13.93843752819113
 30
0.0
 10
46.28841178189334
 20
13.76474868200966
 30
0.0
 10
43.27702317022965
 20
13.68236788642047
 30
0.0
 10
40.24822678438998
 20
13.79521857771728
 30
0.0
 10
37.3570212883519
 20
14.79704233998933
 30
0.0
 10
34.99081720039294
 20
16.74660293218443
 30
0.0
 10
33.45568159030679
 20
19.3856174337988
 30
0.0
 10
32.62219587767807
 20
22.29329680377162
 30
0.0
 10
31.97875726053534
 20
25.23791725971071
 30
0.0
 10
31.36108142107984
 20
28.18988803158945
 30
0.0
 10
30.79301968207592
 20
31.15133719781478
 30
0.0
 10
30.44430428245725
 20
33.13123187200121
 30
0.0
 10
30.26726339544233
 20
34.12065727259129
 30
0.0
  0
SPLINE
  5
26F
330
1F
100
AcDbEntity
  8
Default
100
AcDbSpline
210
0.0
220
0.0
230
1.0
 70
     8
 71
     3
 72
    13
 73
     9
 74
     0
 42
0.0000000001
 43
0.0000000001
 40
-6.0
 40
-6.0
 40
-6.0
 40
-6.0
 40
-5.0
 40
-4.0
 40
-3.0
 40
-2.0
 40
-1.0
 40
0.0
 40
0.0
 40
0.0
 40
0.0
 10
55.3768992990156
 20
16.04430473022096
 30
0.0
 10
55.45060360101873
 20
16.00913874285336
 30
0.0
 10
55.58658103382672
 20
15.91652303695468
 30
0.0
 10
55.73809254251122
 20
15.71677926584272
 30
0.0
 10
55.76539075820396
 20
15.46382919998189
 30
0.0
 10
55.65680743359635
 20
15.23399746397078
 30
0.0
 10
55.45354375838206
 20
15.08958440197771
 30
0.0
 10
55.3019703430714
 20
15.0286677195248
 30
0.0
 10
55.22429212237534
 20
15.0036199204551
 30
0.0
  0
SPLINE
  5
270
330
1F
100
AcDbEntity
  8
Default
100
AcDbSpline
210
0.0
220
0.0
230
1.0
 70
     8
 71
     3
 72
    34
 73
    30
 74
     0
 42
0.0000000001
 43
0.0000000001
 40
0.0
 40
0.0
 40
0.0
 40
0.0
 40
1.0
 40
2.0
 40
3.0
 40
4.0
 40
5.0
 40
6.0
 40
7.0
 40
8.0
 40
9.0
 40
10.0
 40
11.0
 40
12.0
 40
13.0
 40
14.0
 40
15.0
 40
16.0
 40
17.0
 40
18.0
 40
19.0
 40
20.0
 40
21.0
 40
22.0
 40
23.0
 40
24.0
 40
25.0
 40
26.0
 40
27.0
 40
27.0
 40
27.0
 40
27.0
 10
30.73353615349195
 20
34.68181965912336
 30
0.0
 10
31.14555315412783
 20
34.63294414137031
 30
0.0
 10
32.0837789801401
 20
34.84724895898987
 30
0.0
 10
32.99425263938533
 20
33.77975006567408
 30
0.0
 10
33.612007576228
 20
32.69180216831792
 30
0.0
 10
34.01800667740422
 20
31.46625517326252
 30
0.0
 10
34.42496237114774
 20
30.25792666497983
 30
0.0
 10
34.84874207030206
 20
29.05083150063549
 30
0.0
 10
35.26445536113857
 20
27.84204031856444
 30
0.0
 10
35.67707713611568
 20
26.63237889692767
 30
0.0
 10
36.07710881157424
 20
25.41687693194141
 30
0.0
 10
36.66738427585979
 20
24.27943798245006
 30
0.0
 10
37.22292095490361
 20
23.12832393816655
 30
0.0
 10
37.88426460049121
 20
22.03238593813457
 30
0.0
 10
38.68424686089389
 20
21.02631100864845
 30
0.0
 10
39.74554334681348
 20
20.29209820678572
 30
0.0
 10
40.91791085558235
 20
19.77147633257862
 30
0.0
 10
42.15813172819264
 20
19.45487477200634
 30
0.0
 10
43.41565138359159
 20
19.21489875015778
 30
0.0
 10
44.69217660445826
 20
19.12382029038718
 30
0.0
 10
45.9702844167252
 20
19.09586170303887
 30
0.0
 10
47.24854402061393
 20
19.08593262731588
 30
0.0
 10
48.52743763003291
 20
19.06914340088738
 30
0.0
 10
49.80115108941926
 20
18.94614275496439
 30
0.0
 10
51.05288855426787
 20
18.66965056915279
 30
0.0
 10
52.25399013263242
 20
18.22881082463667
 30
0.0
 10
53.41563000146411
 20
17.68272834724441
 30
0.0
 10
54.43539245296659
 20
16.90414651244044
 30
0.0
 10
55.00992345938283
 20
16.26500657288629
 30
0.0
 10
55.3768992990156
 20
16.04430473022096
 30
0.0
  0
SPLINE
  5
271
330
1F
100
AcDbEntity
  8
Default
100
AcDbSpline
210
0.0
220
0.0
230
1.0
 70
     8
 71
     3
 72
    19
 73
    15
 74
     0
 42
0.0000000001
 43
0.0000000001
 40
0.0
 40
0.0
 40
0.0
 40
0.0
 40
1.0
 40
2.0
 40
3.0
 40
4.0
 40
5.0
 40
6.0
 40
7.0
 40
8.0
 40
9.0
 40
10.0
 40
11.0
 40
12.0
 40
12.0
 40
12.0
 40
12.0
 10
-2.187976980674199
 20
13.39281977119995
 30
0.0
 10
-2.214696491683464
 20
13.39117541456924
 30
0.0
 10
-2.268119886136946
 20
13.38805845132386
 30
0.0
 10
-2.348307634377524
 20
13.38264297561173
 30
0.0
 10
-2.428316054187455
 20
13.37941644112307
 30
0.0
 10
-2.508960040034149
 20
13.3677207142861
 30
0.0
 10
-2.584263833631135
 20
13.35713872978663
 30
0.0
 10
-2.68044530988323
 20
13.35176263054494
 30
0.0
 10
-2.688309923395676
 20
13.44563044911696
 30
0.0
 10
-2.697686128558395
 20
13.52164572908877
 30
0.0
 10
-2.706657280159594
 20
13.60244489330821
 30
0.0
 10
-2.71573705895158
 20
13.681961099618
 30
0.0
 10
-2.724787379403272
 20
13.76182522566791
 30
0.0
 10
-2.730827065161356
 20
13.81499550750197
 30
0.0
 10
-2.733845678932846
 20
13.84159513030346
 30
0.0
  0
SPLINE
  5
272
330
1F
100
AcDbEntity
  8
Default
100
AcDbSpline
210
0.0
220
0.0
230
1.0
 70
     8
 71
     3
 72
    10
 73
     6
 74
     0
 42
0.0000000001
 43
0.0000000001
 40
0.0
 40
0.0
 40
0.0
 40
0.0
 40
0.5636717606533941
 40
1.186982375384731
 40
1.521532845026047
 40
1.521532845026047
 40
1.521532845026047
 40
1.521532845026047
 10
-2.479236533972994
 20
13.5683746669929
 30
0.0
 10
-2.294496373294573
 20
13.60266023744518
 30
0.0
 10
-1.903006978191247
 20
13.66108211656503
 30
0.0
 10
-1.398254546975793
 20
13.71166776143814
 30
0.0
 10
-1.07971818428932
 20
13.73374451993302
 30
0.0
 10
-0.9683939017846293
 20
13.74028821113174
 30
0.0
  0
SPLINE
  5
273
330
1F
100
AcDbEntity
  8
Default
100
AcDbSpline
210
0.0
220
0.0
230
1.0
 70
     8
 71
     3
 72
    10
 73
     6
 74
     0
 42
0.0000000001
 43
0.0000000001
 40
0.0
 40
0.0
 40
0.0
 40
0.0
 40
0.0178188664837946
 40
0.0501644827938637
 40
0.1612053680803479
 40
0.1612053680803479
 40
0.1612053680803479
 40
0.1612053680803479
 10
-2.625889210271994
 20
13.51292130444856
 30
0.0
 10
-2.625123751837995
 20
13.51914382415383
 30
0.0
 10
-2.612223030625197
 20
13.53072859840596
 30
0.0
 10
-2.562726747455775
 20
13.55183754005106
 30
0.0
 10
-2.515457206600349
 20
13.56131826132961
 30
0.0
 10
-2.479236533972994
 20
13.5683746669929
 30
0.0
  0
SPLINE
  5
274
330
1F
100
AcDbEntity
  8
Default
100
AcDbSpline
210
0.0
220
0.0
230
1.0
 70
    12
 71
     2
 72
     6
 73
     3
 74
     0
 42
0.0000000001
 43
0.0000000001
 40
0.0
 40
0.0
 40
0.0
 40
0.1444678751488982
 40
0.1444678751488982
 40
0.1444678751488982
 10
-2.633571598060509
 20
13.36872649665654
 30
0.0
 41
1.0
 10
-2.633581589306188
 20
13.44102908337531
 30
0.0
 41
0.9985763888708227
 10
-2.625889210271994
 20
13.51292130444856
 30
0.0
 41
1.0
  0
SPLINE
  5
275
330
1F
100
AcDbEntity
  8
Default
100
AcDbSpline
210
0.0
220
0.0
230
1.0
 70
     8
 71
     3
 72
    19
 73
    15
 74
     0
 42
0.0000000001
 43
0.0000000001
 40
0.0
 40
0.0
 40
0.0
 40
0.0
 40
1.0
 40
2.0
 40
3.0
 40
4.0
 40
5.0
 40
6.0
 40
7.0
 40
8.0
 40
9.0
 40
10.0
 40
11.0
 40
12.0
 40
12.0
 40
12.0
 40
12.0
 10
2.187976980674199
 20
13.39281977119995
 30
0.0
 10
2.214696491683464
 20
13.39117541456924
 30
0.0
 10
2.268119886136946
 20
13.38805845132386
 30
0.0
 10
2.348307634377524
 20
13.38264297561173
 30
0.0
 10
2.428316054187455
 20
13.37941644112307
 30
0.0
 10
2.508960040034149
 20
13.3677207142861
 30
0.0
 10
2.584263833631135
 20
13.35713872978663
 30
0.0
 10
2.68044530988323
 20
13.35176263054494
 30
0.0
 10
2.688309923395676
 20
13.44563044911696
 30
0.0
 10
2.697686128558395
 20
13.52164572908877
 30
0.0
 10
2.706657280159594
 20
13.60244489330821
 30
0.0
 10
2.71573705895158
 20
13.681961099618
 30
0.0
 10
2.724787379403272
 20
13.76182522566791
 30
0.0
 10
2.730827065161356
 20
13.81499550750197
 30
0.0
 10
2.733845678932846
 20
13.84159513030346
 30
0.0
  0
SPLINE
  5
276
330
1F
100
AcDbEntity
  8
Default
100
AcDbSpline
210
0.0
220
0.0
230
1.0
 70
     8
 71
     3
 72
    10
 73
     6
 74
     0
 42
0.0000000001
 43
0.0000000001
 40
0.0
 40
0.0
 40
0.0
 40
0.0
 40
0.5636717606533941
 40
1.186982375384731
 40
1.521532845026047
 40
1.521532845026047
 40
1.521532845026047
 40
1.521532845026047
 10
2.479236533972994
 20
13.5683746669929
 30
0.0
 10
2.294496373294573
 20
13.60266023744518
 30
0.0
 10
1.903006978191247
 20
13.66108211656503
 30
0.0
 10
1.398254546975793
 20
13.71166776143814
 30
0.0
 10
1.07971818428932
 20
13.73374451993302
 30
0.0
 10
0.9683939017846293
 20
13.74028821113174
 30
0.0
  0
SPLINE
  5
277
330
1F
100
AcDbEntity
  8
Default
100
AcDbSpline
210
0.0
220
0.0
230
1.0
 70
     8
 71
     3
 72
    10
 73
     6
 74
     0
 42
0.0000000001
 43
0.0000000001
 40
0.0
 40
0.0
 40
0.0
 40
0.0
 40
0.0178188664837946
 40
0.0501644827938637
 40
0.1612053680803479
 40
0.1612053680803479
 40
0.1612053680803479
 40
0.1612053680803479
 10
2.625889210271994
 20
13.51292130444856
 30
0.0
 10
2.625123751837995
 20
13.51914382415383
 30
0.0
 10
2.612223030625197
 20
13.53072859840596
 30
0.0
 10
2.562726747455775
 20
13.55183754005106
 30
0.0
 10
2.515457206600349
 20
13.56131826132961
 30
0.0
 10
2.479236533972994
 20
13.5683746669929
 30
0.0
  0
SPLINE
  5
278
330
1F
100
AcDbEntity
  8
Default
100
AcDbSpline
210
0.0
220
0.0
230
1.0
 70
    12
 71
     2
 72
     6
 73
     3
 74
     0
 42
0.0000000001
 43
0.0000000001
 40
0.0
 40
0.0
 40
0.0
 40
0.1444678751488982
 40
0.1444678751488982
 40
0.1444678751488982
 10
2.633571598060509
 20
13.36872649665654
 30
0.0
 41
1.0
 10
2.633581589306188
 20
13.44102908337531
 30
0.0
 41
0.9985763888708227
 10
2.625889210271994
 20
13.51292130444856
 30
0.0
 41
1.0
  0
SPLINE
  5
279
330
1F
100
AcDbEntity
  8
Default
100
AcDbSpline
210
0.0
220
0.0
230
1.0
 70
     8
 71
     3
 72
    14
 73
    10
 74
     0
 42
0.0000000001
 43
0.0000000001
 40
0.0
 40
0.0
 40
0.0
 40
0.0
 40
1.0
 40
2.0
 40
3.0
 40
4.0
 40
5.0
 40
6.0
 40
7.0
 40
7.0
 40
7.0
 40
7.0
 10
0.9000143515904391
 20
11.44849999999983
 30
0.0
 10
0.9114477633500729
 20
11.57253329377188
 30
0.0
 10
1.041691820143475
 20
11.78622624793546
 30
0.0
 10
1.258237259099148
 20
12.08139416742226
 30
0.0
 10
1.484910100056712
 20
12.37172422083471
 30
0.0
 10
1.709929771591231
 20
12.66259166008012
 30
0.0
 10
1.924778497563966
 20
12.96123817340739
 30
0.0
 10
2.126499710322346
 20
13.26916840212577
 30
0.0
 10
2.238941525632338
 20
13.48769707951759
 30
0.0
 10
2.282451751425832
 20
13.60248661933031
 30
0.0
  0
POLYLINE
  5
27A
330
1F
100
AcDbEntity
  8
Default
100
AcDb2dPolyline
 66
     1
 10
0.0
 20
0.0
 30
0.0
  0
VERTEX
  5
27B
330
27A
100
AcDbEntity
  8
Default
100
AcDbVertex
100
AcDb2dVertex
 10
-0.9000143515904391
 20
11.44849999999983
 30
0.0
  0
VERTEX
  5
27C
330
27A
100
AcDbEntity
  8
Default
100
AcDbVertex
100
AcDb2dVertex
 10
0.9000143515904391
 20
11.44849999999983
 30
0.0
  0
SEQEND
  5
27D
330
27A
100
AcDbEntity
  8
Default
  0
SPLINE
  5
27E
330
1F
100
AcDbEntity
  8
Default
100
AcDbSpline
210
0.0
220
0.0
230
1.0
 70
     8
 71
     3
 72
    14
 73
    10
 74
     0
 42
0.0000000001
 43
0.0000000001
 40
-7.0
 40
-7.0
 40
-7.0
 40
-7.0
 40
-6.0
 40
-5.0
 40
-4.0
 40
-3.0
 40
-2.0
 40
-1.0
 40
0.0
 40
0.0
 40
0.0
 40
0.0
 10
-2.282451751425832
 20
13.60248661933031
 30
0.0
 10
-2.238941525632338
 20
13.48769707951759
 30
0.0
 10
-2.126499710322346
 20
13.26916840212577
 30
0.0
 10
-1.924778497563966
 20
12.96123817340739
 30
0.0
 10
-1.709929771591231
 20
12.66259166008012
 30
0.0
 10
-1.484910100056712
 20
12.37172422083471
 30
0.0
 10
-1.258237259099148
 20
12.08139416742226
 30
0.0
 10
-1.041691820143475
 20
11.78622624793546
 30
0.0
 10
-0.9114477633500729
 20
11.57253329377188
 30
0.0
 10
-0.9000143515904391
 20
11.44849999999983
 30
0.0
  0
SPLINE
  5
27F
330
1F
100
AcDbEntity
  8
Default
100
AcDbSpline
210
0.0
220
0.0
230
1.0
 70
    12
 71
     2
 72
     6
 73
     3
 74
     0
 42
0.0000000001
 43
0.0000000001
 40
0.0
 40
0.0
 40
0.0
 40
6.104384663792418
 40
6.104384663792418
 40
6.104384663792418
 10
-8.199567102470692
 20
13.23339653682782
 30
0.0
 41
1.0
 10
-5.147039044420685
 20
13.2275996659359
 30
0.0
 41
0.9999990022101463
 10
-2.094845999339448
 20
13.23043518668576
 30
0.0
 41
1.0
  0
SPLINE
  5
280
330
1F
100
AcDbEntity
  8
Default
100
AcDbSpline
210
0.0
220
0.0
230
1.0
 70
    12
 71
     2
 72
     6
 73
     3
 74
     0
 42
0.0000000001
 43
0.0000000001
 40
0.0
 40
0.0
 40
0.0
 40
0.0785685110721466
 40
0.0785685110721466
 40
0.0785685110721466
 10
-8.24999999999876
 20
13.18340604054627
 30
0.0
 41
1.0
 10
-8.249849193889352
 20
13.23334875303002
 30
0.0
 41
0.7085750313660297
 10
-8.199567102470692
 20
13.23339653682782
 30
0.0
 41
1.0
  0
POLYLINE
  5
281
330
1F
100
AcDbEntity
  8
Default
100
AcDb2dPolyline
 66
     1
 10
0.0
 20
0.0
 30
0.0
  0
VERTEX
  5
282
330
281
100
AcDbEntity
  8
Default
100
AcDbVertex
100
AcDb2dVertex
 10
-8.249999999979906
 20
12.96360554143091
 30
0.0
  0
VERTEX
  5
283
330
281
100
AcDbEntity
  8
Default
100
AcDbVertex
100
AcDb2dVertex
 10
-8.24999999999876
 20
13.18340604054627
 30
0.0
  0
SEQEND
  5
284
330
281
100
AcDbEntity
  8
Default
  0
SPLINE
  5
285
330
1F
100
AcDbEntity
  8
Default
100
AcDbSpline
210
0.0
220
0.0
230
1.0
 70
    12
 71
     2
 72
     6
 73
     3
 74
     0
 42
0.0000000001
 43
0.0000000001
 40
0.0
 40
0.0
 40
0.0
 40
0.0785930999812277
 40
0.0785930999812277
 40
0.0785930999812277
 10
-8.199559750629685
 20
12.91360987863227
 30
0.0
 41
1.0
 10
-8.249908052167518
 20
12.91360387313677
 30
0.0
 41
0.7077328719522822
 10
-8.249999999979906
 20
12.96360554143091
 30
0.0
 41
1.0
  0
SPLINE
  5
286
330
1F
100
AcDbEntity
  8
Default
100
AcDbSpline
210
0.0
220
0.0
230
1.0
 70
    12
 71
     2
 72
     6
 73
     3
 74
     0
 42
0.0000000001
 43
0.0000000001
 40
0.0
 40
0.0
 40
0.0
 40
6.308542238486094
 40
6.308542238486094
 40
6.308542238486094
 10
-1.890673812329711
 20
12.91636087371808
 30
0.0
 41
1.0
 10
-5.044945517448187
 20
12.91960129411546
 30
0.0
 41
0.9999989298635602
 10
-8.199559750629685
 20
12.91360987863227
 30
0.0
 41
1.0
  0
SPLINE
  5
287
330
1F
100
AcDbEntity
  8
Default
100
AcDbSpline
210
0.0
220
0.0
230
1.0
 70
     8
 71
     3
 72
    14
 73
    10
 74
     0
 42
0.0000000001
 43
0.0000000001
 40
-7.0
 40
-7.0
 40
-7.0
 40
-7.0
 40
-6.0
 40
-5.0
 40
-4.0
 40
-3.0
 40
-2.0
 40
-1.0
 40
0.0
 40
0.0
 40
0.0
 40
0.0
 10
2.746640468687094
 20
13.84290630073922
 30
0.0
 10
3.233778700216808
 20
13.89304192195401
 30
0.0
 10
4.205284604025574
 20
14.02556562483919
 30
0.0
 10
5.637275111085118
 20
14.36271119166298
 30
0.0
 10
7.024276536151313
 20
14.85623817048327
 30
0.0
 10
8.339418814356643
 20
15.5159295309595
 30
0.0
 10
9.585160457270879
 20
16.29834586310647
 30
0.0
 10
10.73928811285886
 20
17.21237875828073
 30
0.0
 10
11.40508255662792
 20
17.93682315471598
 30
0.0
 10
11.68917313649623
 20
18.33626318658785
 30
0.0
  0
SPLINE
  5
288
330
1F
100
AcDbEntity
  8
Default
100
AcDbSpline
210
0.0
220
0.0
230
1.0
 70
     8
 71
     3
 72
     8
 73
     4
 74
     0
 42
0.0000000001
 43
0.0000000001
 40
0.0
 40
0.0
 40
0.0
 40
0.0
 40
1.0
 40
1.0
 40
1.0
 40
1.0
 10
-2.746640468687094
 20
13.84290630073922
 30
0.0
 10
-1.270321056151023
 20
13.69096546327607
 30
0.0
 10
1.270321056151023
 20
13.69096546327607
 30
0.0
 10
2.746640468687094
 20
13.84290630073922
 30
0.0
  0
SPLINE
  5
289
330
1F
100
AcDbEntity
  8
Default
100
AcDbSpline
210
0.0
220
0.0
230
1.0
 70
     8
 71
     3
 72
    14
 73
    10
 74
     0
 42
0.0000000001
 43
0.0000000001
 40
0.0
 40
0.0
 40
0.0
 40
0.0
 40
1.0
 40
2.0
 40
3.0
 40
4.0
 40
5.0
 40
6.0
 40
7.0
 40
7.0
 40
7.0
 40
7.0
 10
-11.68917313649623
 20
18.33626318658785
 30
0.0
 10
-11.40508255662792
 20
17.93682315471598
 30
0.0
 10
-10.73928811285886
 20
17.21237875828073
 30
0.0
 10
-9.585160457270879
 20
16.29834586310647
 30
0.0
 10
-8.339418814356643
 20
15.5159295309595
 30
0.0
 10
-7.024276536151313
 20
14.85623817048327
 30
0.0
 10
-5.637275111085118
 20
14.36271119166298
 30
0.0
 10
-4.205284604025574
 20
14.02556562483919
 30
0.0
 10
-3.233778700216808
 20
13.89304192195401
 30
0.0
 10
-2.746640468687094
 20
13.84290630073922
 30
0.0
  0
SPLINE
  5
28A
330
1F
100
AcDbEntity
  8
Default
100
AcDbSpline
210
0.0
220
0.0
230
1.0
 70
     8
 71
     3
 72
    16
 73
    12
 74
     0
 42
0.0000000001
 43
0.0000000001
 40
-9.0
 40
-9.0
 40
-9.0
 40
-9.0
 40
-8.0
 40
-7.0
 40
-6.0
 40
-5.0
 40
-4.0
 40
-3.0
 40
-2.0
 40
-1.0
 40
0.0
 40
0.0
 40
0.0
 40
0.0
 10
0.0
 20
18.3082324037282
 30
0.0
 10
-0.3130925894307828
 20
18.30730510787297
 30
0.0
 10
-0.9392775642960596
 20
18.30536163290779
 30
0.0
 10
-1.878552709133207
 20
18.30204738477539
 30
0.0
 10
-2.817830283530704
 20
18.2986436191316
 30
0.0
 10
-3.757094296682017
 20
18.29404575896864
 30
0.0
 10
-4.696401972921957
 20
18.29236371462474
 30
0.0
 10
-5.635525905002955
 20
18.27589984454891
 30
0.0
 10
-6.574011808716242
 20
18.2242031366443
 30
0.0
 10
-7.510402573247199
 20
18.18594880346744
 30
0.0
 10
-8.133413717406896
 20
18.03375495148768
 30
0.0
 10
-8.373478374282083
 20
17.82219764782866
 30
0.0
  0
SPLINE
  5
28B
330
1F
100
AcDbEntity
  8
Default
100
AcDbSpline
210
0.0
220
0.0
230
1.0
 70
     8
 71
     3
 72
    16
 73
    12
 74
     0
 42
0.0000000001
 43
0.0000000001
 40
0.0
 40
0.0
 40
0.0
 40
0.0
 40
1.0
 40
2.0
 40
3.0
 40
4.0
 40
5.0
 40
6.0
 40
7.0
 40
8.0
 40
9.0
 40
9.0
 40
9.0
 40
9.0
 10
8.373478374282083
 20
17.82219764782866
 30
0.0
 10
8.133413717406896
 20
18.03375495148768
 30
0.0
 10
7.510402573247199
 20
18.18594880346744
 30
0.0
 10
6.574011808716242
 20
18.2242031366443
 30
0.0
 10
5.635525905002955
 20
18.27589984454891
 30
0.0
 10
4.696401972921957
 20
18.29236371462474
 30
0.0
 10
3.757094296682017
 20
18.29404575896864
 30
0.0
 10
2.817830283530704
 20
18.2986436191316
 30
0.0
 10
1.878552709133207
 20
18.30204738477539
 30
0.0
 10
0.9392775642960596
 20
18.30536163290779
 30
0.0
 10
0.3130925894307828
 20
18.30730510787297
 30
0.0
 10
0.0
 20
18.3082324037282
 30
0.0
  0
SPLINE
  5
28C
330
1F
100
AcDbEntity
  8
Default
100
AcDbSpline
210
0.0
220
0.0
230
1.0
 70
     8
 71
     3
 72
    16
 73
    12
 74
     0
 42
0.0000000001
 43
0.0000000001
 40
-9.0
 40
-9.0
 40
-9.0
 40
-9.0
 40
-8.0
 40
-7.0
 40
-6.0
 40
-5.0
 40
-4.0
 40
-3.0
 40
-2.0
 40
-1.0
 40
0.0
 40
0.0
 40
0.0
 40
0.0
 10
0.0000000000000355
 20
16.101203807561
 30
0.0
 10
-0.429839703846002
 20
16.08838621844295
 30
0.0
 10
-1.290307209940621
 20
16.08696139086982
 30
0.0
 10
-2.578938066768639
 20
16.15116347711474
 30
0.0
 10
-3.865087373886123
 20
16.26282997483036
 30
0.0
 10
-5.139441986968325
 20
16.45967452617839
 30
0.0
 10
-6.400397275238482
 20
16.76310019811519
 30
0.0
 10
-7.558580372172522
 20
17.33719445161613
 30
0.0
 10
-8.674412329486618
 20
17.9862360384249
 30
0.0
 10
-9.71384773322513
 20
18.75361682461514
 30
0.0
 10
-10.52545998736426
 20
19.08457140628628
 30
0.0
 10
-10.96235056640874
 20
19.08480335580949
 30
0.0
  0
SPLINE
  5
28D
330
1F
100
AcDbEntity
  8
Default
100
AcDbSpline
210
0.0
220
0.0
230
1.0
 70
     8
 71
     3
 72
    16
 73
    12
 74
     0
 42
0.0000000001
 43
0.0000000001
 40
0.0
 40
0.0
 40
0.0
 40
0.0
 40
1.0
 40
2.0
 40
3.0
 40
4.0
 40
5.0
 40
6.0
 40
7.0
 40
8.0
 40
9.0
 40
9.0
 40
9.0
 40
9.0
 10
10.96235056640844
 20
19.08480335581085
 30
0.0
 10
10.52545998736396
 20
19.08457140628759
 30
0.0
 10
9.71384773322487
 20
18.75361682461634
 30
0.0
 10
8.674412329486454
 20
17.98623603842598
 30
0.0
 10
7.55858037217244
 20
17.33719445161707
 30
0.0
 10
6.40039727523847
 20
16.76310019811599
 30
0.0
 10
5.139441986968351
 20
16.45967452617903
 30
0.0
 10
3.865087373886174
 20
16.26282997483084
 30
0.0
 10
2.578938066768703
 20
16.15116347711506
 30
0.0
 10
1.290307209940694
 20
16.08696139086998
 30
0.0
 10
0.4298397038460747
 20
16.088386218443
 30
0.0
 10
0.0000000000000355
 20
16.101203807561
 30
0.0
  0
SPLINE
  5
28E
330
1F
100
AcDbEntity
  8
Default
100
AcDbSpline
210
0.0
220
0.0
230
1.0
 70
     8
 71
     3
 72
    24
 73
    20
 74
     0
 42
0.0000000001
 43
0.0000000001
 40
-17.0
 40
-17.0
 40
-17.0
 40
-17.0
 40
-16.00000000000082
 40
-15.00000000000077
 40
-14.00000000000072
 40
-13.00000000000067
 40
-12.00000000000062
 40
-11.00000000000057
 40
-10.00000000000052
 40
-9.000000000000465
 40
-8.000000000000412
 40
-7.000000000000361
 40
-6.000000000000309
 40
-5.000000000000258
 40
-4.000000000000206
 40
-3.000000000000155
 40
-2.000000000000103
 40
-1.000000000000052
 40
0.0
 40
0.0
 40
0.0
 40
0.0
 10
-0.0000000000012325
 20
34.68206691991522
 30
0.0
 10
-0.4692940555541922
 20
34.68009976295783
 30
0.0
 10
-1.407886839492626
 20
34.68376607882779
 30
0.0
 10
-2.815769317642939
 20
34.68273262840178
 30
0.0
 10
-4.223626659140291
 20
34.66417290875746
 30
0.0
 10
-5.631460295170766
 20
34.68530243622389
 30
0.0
 10
-7.038860240804143
 20
34.7074787096052
 30
0.0
 10
-8.427908284647817
 20
34.24679660020536
 30
0.0
 10
-9.224575204309641
 20
32.99314995304733
 30
0.0
 10
-9.30352041801463
 20
31.5700116833274
 30
0.0
 10
-9.44114345807416
 20
30.17329231340522
 30
0.0
 10
-9.566167278457277
 20
28.76973953597644
 30
0.0
 10
-9.673809798959203
 20
27.36628887138805
 30
0.0
 10
-9.82475524421427
 20
25.96608846315454
 30
0.0
 10
-9.969379924256895
 20
24.56696114061777
 30
0.0
 10
-10.15938871296909
 20
23.17155611627592
 30
0.0
 10
-10.37047227128096
 20
21.78083444190278
 30
0.0
 10
-10.74617562372281
 20
20.41110315548795
 30
0.0
 10
-11.25165540233767
 20
19.61203396747226
 30
0.0
 10
-11.52507519942621
 20
19.23163863086965
 30
0.0
  0
SPLINE
  5
28F
330
1F
100
AcDbEntity
  8
Default
100
AcDbSpline
210
0.0
220
0.0
230
1.0
 70
     8
 71
     3
 72
    24
 73
    20
 74
     0
 42
0.0000000001
 43
0.0000000001
 40
0.0
 40
0.0
 40
0.0
 40
0.0
 40
1.000000000000052
 40
2.000000000000103
 40
3.000000000000155
 40
4.000000000000206
 40
5.000000000000258
 40
6.000000000000309
 40
7.000000000000361
 40
8.000000000000412
 40
9.000000000000465
 40
10.00000000000052
 40
11.00000000000057
 40
12.00000000000062
 40
13.00000000000067
 40
14.00000000000072
 40
15.00000000000077
 40
16.00000000000082
 40
17.0
 40
17.0
 40
17.0
 40
17.0
 10
11.52507519942585
 20
19.23163863087122
 30
0.0
 10
11.25165540233726
 20
19.61203396747379
 30
0.0
 10
10.7461756237223
 20
20.41110315548941
 30
0.0
 10
10.37047227128025
 20
21.7808344419042
 30
0.0
 10
10.15938871296819
 20
23.1715561162773
 30
0.0
 10
9.969379924255811
 20
24.56696114061913
 30
0.0
 10
9.824755244212994
 20
25.96608846315588
 30
0.0
 10
9.673809798957736
 20
27.36628887138937
 30
0.0
 10
9.56616727845562
 20
28.76973953597775
 30
0.0
 10
9.441143458072311
 20
30.17329231340651
 30
0.0
 10
9.303520418012589
 20
31.57001168332867
 30
0.0
 10
9.224575204307406
 20
32.99314995304859
 30
0.0
 10
8.427908284645412
 20
34.24679660020651
 30
0.0
 10
7.038860240801675
 20
34.70747870960616
 30
0.0
 10
5.6314602951683
 20
34.68530243622465
 30
0.0
 10
4.223626659137829
 20
34.66417290875804
 30
0.0
 10
2.815769317640474
 20
34.68273262840216
 30
0.0
 10
1.407886839490161
 20
34.68376607882799
 30
0.0
 10
0.4692940555517276
 20
34.68009976295789
 30
0.0
 10
-0.0000000000012325
 20
34.68206691991522
 30
0.0
  0
SPLINE
  5
290
330
1F
100
AcDbEntity
  8
Default
100
AcDbSpline
210
0.0
220
0.0
230
1.0
 70
     8
 71
     3
 72
    34
 73
    30
 74
     0
 42
0.0000000001
 43
0.0000000001
 40
0.0
 40
0.0
 40
0.0
 40
0.0
 40
1.0
 40
2.0
 40
3.0
 40
4.0
 40
5.0
 40
6.0
 40
7.0
 40
8.0
 40
9.0
 40
10.0
 40
11.0
 40
12.0
 40
13.0
 40
14.0
 40
15.0
 40
16.0
 40
17.0
 40
18.0
 40
19.0
 40
20.0
 40
21.0
 40
22.0
 40
23.0
 40
24.0
 40
25.0
 40
26.0
 40
27.0
 40
27.0
 40
27.0
 40
27.0
 10
0.0
 20
15.0036199204551
 30
0.0
 10
0.1976782028013729
 20
15.00318582493006
 30
0.0
 10
0.5930414325889006
 20
15.00565122817441
 30
0.0
 10
1.185941599798493
 20
15.01927688633296
 30
0.0
 10
1.778534325115342
 20
15.04271668892752
 30
0.0
 10
2.370657681234666
 20
15.07594915784258
 30
0.0
 10
2.962179446912192
 20
15.11857335479594
 30
0.0
 10
3.552847539317742
 20
15.1718641388452
 30
0.0
 10
4.142113035422093
 20
15.23907946984418
 30
0.0
 10
4.729234462445022
 20
15.32312199931283
 30
0.0
 10
5.313244849189434
 20
15.42675800226715
 30
0.0
 10
5.892712415857315
 20
15.55353148878916
 30
0.0
 10
6.465565643714027
 20
15.70771527687967
 30
0.0
 10
7.028822281012984
 20
15.89413828763472
 30
0.0
 10
7.580066544658572
 20
16.11331519380727
 30
0.0
 10
8.120733676151898
 20
16.35753610399815
 30
0.0
 10
8.644221506299223
 20
16.63695064693423
 30
0.0
 10
9.147820529036718
 20
16.95040367039158
 30
0.0
 10
9.646050498836273
 20
17.27232813695962
 30
0.0
 10
10.14306055854293
 20
17.59458748349948
 30
0.0
 10
10.64814868446377
 20
17.91038004315227
 30
0.0
 10
11.13542354785498
 20
18.23090165410214
 30
0.0
 10
11.83793370266554
 20
18.26030035107947
 30
0.0
 10
11.82359078749591
 20
19.00834809942727
 30
0.0
 10
11.34474840793477
 20
19.40593443797653
 30
0.0
 10
10.73241421263687
 20
19.46494075925062
 30
0.0
 10
10.16696322159556
 20
19.25499883641112
 30
0.0
 10
9.695720138183843
 20
18.88805021206882
 30
0.0
 10
9.432373012583211
 20
18.59198836765389
 30
0.0
 10
9.307909748206153
 20
18.43847416145792
 30
0.0
  0
SPLINE
  5
291
330
1F
100
AcDbEntity
  8
Default
100
AcDbSpline
210
0.0
220
0.0
230
1.0
 70
     8
 71
     3
 72
    34
 73
    30
 74
     0
 42
0.0000000001
 43
0.0000000001
 40
-27.0
 40
-27.0
 40
-27.0
 40
-27.0
 40
-26.0
 40
-25.0
 40
-24.0
 40
-23.0
 40
-22.0
 40
-21.0
 40
-20.0
 40
-19.0
 40
-18.0
 40
-17.0
 40
-16.0
 40
-15.0
 40
-14.0
 40
-13.0
 40
-12.0
 40
-11.0
 40
-10.0
 40
-9.0
 40
-8.0
 40
-7.0
 40
-6.0
 40
-5.0
 40
-4.0
 40
-3.0
 40
-2.0
 40
-1.0
 40
0.0
 40
0.0
 40
0.0
 40
0.0
 10
-9.307909748206153
 20
18.43847416145792
 30
0.0
 10
-9.432373012583211
 20
18.59198836765389
 30
0.0
 10
-9.695720138183843
 20
18.88805021206882
 30
0.0
 10
-10.16696322159556
 20
19.25499883641112
 30
0.0
 10
-10.73241421263687
 20
19.46494075925062
 30
0.0
 10
-11.34474840793477
 20
19.40593443797653
 30
0.0
 10
-11.82359078749591
 20
19.00834809942727
 30
0.0
 10
-11.83793370266554
 20
18.26030035107947
 30
0.0
 10
-11.13542354785498
 20
18.23090165410214
 30
0.0
 10
-10.64814868446377
 20
17.91038004315227
 30
0.0
 10
-10.14306055854293
 20
17.59458748349948
 30
0.0
 10
-9.646050498836273
 20
17.27232813695962
 30
0.0
 10
-9.147820529036718
 20
16.95040367039158
 30
0.0
 10
-8.644221506299223
 20
16.63695064693423
 30
0.0
 10
-8.120733676151898
 20
16.35753610399815
 30
0.0
 10
-7.580066544658572
 20
16.11331519380727
 30
0.0
 10
-7.028822281012984
 20
15.89413828763472
 30
0.0
 10
-6.465565643714027
 20
15.70771527687967
 30
0.0
 10
-5.892712415857315
 20
15.55353148878916
 30
0.0
 10
-5.313244849189434
 20
15.42675800226715
 30
0.0
 10
-4.729234462445022
 20
15.32312199931283
 30
0.0
 10
-4.142113035422093
 20
15.23907946984418
 30
0.0
 10
-3.552847539317742
 20
15.1718641388452
 30
0.0
 10
-2.962179446912192
 20
15.11857335479594
 30
0.0
 10
-2.370657681234666
 20
15.07594915784258
 30
0.0
 10
-1.778534325115342
 20
15.04271668892752
 30
0.0
 10
-1.185941599798493
 20
15.01927688633296
 30
0.0
 10
-0.5930414325889006
 20
15.00565122817441
 30
0.0
 10
-0.1976782028013729
 20
15.00318582493006
 30
0.0
 10
0.0
 20
15.0036199204551
 30
0.0
  0
ENDSEC
  0
SECTION
  2
OBJECTS
  0
DICTIONARY
  5
C
330
0
100
AcDbDictionary
281
     1
  3
ACAD_GROUP
350
D
  3
ACAD_LAYOUT
350
1A
  3
ACAD_MLEADERSTYLE
350
293
  3
ACAD_MLINESTYLE
350
17
  3
ACAD_PLOTSETTINGS
350
19
  3
ACAD_PLOTSTYLENAME
350
E
  3
ACAD_TABLESTYLE
350
292
  3
ACAD_VISUALSTYLE
350
2A
  0
DICTIONARY
  5
D
102
{ACAD_REACTORS
330
C
102
}
330
C
100
AcDbDictionary
281
     1
  0
DICTIONARY
  5
1A
102
{ACAD_REACTORS
330
C
102
}
330
C
100
AcDbDictionary
281
     1
  3
Layout1
350
1E
  3
Layout2
350
26
  3
Model
350
22
  0
DICTIONARY
  5
293
102
{ACAD_REACTORS
330
C
102
}
330
C
100
AcDbDictionary
281
     1
  0
DICTIONARY
  5
17
102
{ACAD_REACTORS
330
C
102
}
330
C
100
AcDbDictionary
281
     1
  3
Standard
350
18
  0
DICTIONARY
  5
19
102
{ACAD_REACTORS
330
C
102
}
330
C
100
AcDbDictionary
281
     1
  0
ACDBDICTIONARYWDFLT
  5
E
102
{ACAD_REACTORS
330
C
102
}
330
C
100
AcDbDictionary
281
     1
  3
Normal
350
F
100
AcDbDictionaryWithDefault
340
F
  0
DICTIONARY
  5
292
102
{ACAD_REACTORS
330
C
102
}
330
C
100
AcDbDictionary
281
     1
  0
DICTIONARY
  5
2A
102
{ACAD_REACTORS
330
C
102
}
330
C
100
AcDbDictionary
281
     1
  3
2dWireframe
350
2F
  3
3D Hidden
350
31
  3
3dWireframe
350
30
  3
Basic
350
32
  3
Brighten
350
36
  3
ColorChange
350
3A
  3
Conceptual
350
34
  3
Dim
350
35
  3
Facepattern
350
39
  3
Flat
350
2B
  3
FlatWithEdges
350
2C
  3
Gouraud
350
2D
  3
GouraudWithEdges
350
2E
  3
Linepattern
350
38
  3
Realistic
350
33
  3
Thicken
350
37
  0
LAYOUT
  5
1E
102
{ACAD_REACTORS
330
1A
102
}
330
1A
100
AcDbPlotSettings
  1

  2
none_device
  4

  6

 40
0.0
 41
0.0
 42
0.0
 43
0.0
 44
0.0
 45
0.0
 46
0.0
 47
0.0
 48
0.0
 49
0.0
140
0.0
141
0.0
142
1.0
143
1.0
 70
   688
 72
     0
 73
     0
 74
     5
  7

 75
    16
 76
     0
 77
     2
 78
   300
147
1.0
148
0.0
149
0.0
100
AcDbLayout
  1
Layout1
 70
     1
 71
     1
 10
0.0
 20
0.0
 11
12.0
 21
9.0
 12
0.0
 22
0.0
 32
0.0
 14
1.000000000000000E+20
 24
1.000000000000000E+20
 34
1.000000000000000E+20
 15
-1.000000000000000E+20
 25
-1.000000000000000E+20
 35
-1.000000000000000E+20
146
0.0
 13
0.0
 23
0.0
 33
0.0
 16
1.0
 26
0.0
 36
0.0
 17
0.0
 27
1.0
 37
0.0
 76
     0
330
1B
  0
LAYOUT
  5
26
102
{ACAD_REACTORS
330
1A
102
}
330
1A
100
AcDbPlotSettings
  1

  2
none_device
  4

  6

 40
0.0
 41
0.0
 42
0.0
 43
0.0
 44
0.0
 45
0.0
 46
0.0
 47
0.0
 48
0.0
 49
0.0
140
0.0
141
0.0
142
1.0
143
1.0
 70
   688
 72
     0
 73
     0
 74
     5
  7

 75
    16
 76
     0
 77
     2
 78
   300
147
1.0
148
0.0
149
0.0
100
AcDbLayout
  1
Layout2
 70
     1
 71
     2
 10
0.0
 20
0.0
 11
0.0
 21
0.0
 12
0.0
 22
0.0
 32
0.0
 14
0.0
 24
0.0
 34
0.0
 15
0.0
 25
0.0
 35
0.0
146
0.0
 13
0.0
 23
0.0
 33
0.0
 16
1.0
 26
0.0
 36
0.0
 17
0.0
 27
1.0
 37
0.0
 76
     0
330
23
  0
LAYOUT
  5
22
102
{ACAD_REACTORS
330
1A
102
}
330
1A
100
AcDbPlotSettings
  1

  2
none_device
  4

  6

 40
0.0
 41
0.0
 42
0.0
 43
0.0
 44
0.0
 45
0.0
 46
0.0
 47
0.0
 48
0.0
 49
0.0
140
0.0
141
0.0
142
1.0
143
1.0
 70
  1712
 72
     0
 73
     0
 74
     0
  7

 75
     0
 76
     0
 77
     2
 78
   300
147
1.0
148
0.0
149
0.0
100
AcDbLayout
  1
Model
 70
     1
 71
     0
 10
0.0
 20
0.0
 11
12.0
 21
9.0
 12
0.0
 22
0.0
 32
0.0
 14
-13.41000108012884
 24
-0.000000000000008
 34
0.0
 15
56.72428193428701
 25
75.42240730340741
 35
0.0
146
0.0
 13
0.0
 23
0.0
 33
0.0
 16
1.0
 26
0.0
 36
0.0
 17
0.0
 27
1.0
 37
0.0
 76
     0
330
1F
331
29
  0
MLINESTYLE
  5
18
102
{ACAD_REACTORS
330
17
102
}
330
17
100
AcDbMlineStyle
  2
Standard
 70
     0
  3

 62
   256
 51
90.0
 52
90.0
 71
     2
 49
0.5
 62
   256
  6
BYLAYER
 49
-0.5
 62
   256
  6
BYLAYER
  0
ACDBPLACEHOLDER
  5
F
102
{ACAD_REACTORS
330
E
102
}
330
E
  0
VISUALSTYLE
  5
2F
102
{ACAD_REACTORS
330
2A
102
}
330
2A
100
AcDbVisualStyle
  2
2dWireframe
 70
     4
 71
     0
 72
     2
 73
     0
 90
        0
 40
-0.6
 41
-30.0
 62
     5
 63
     7
421
 16777215
 74
     1
 91
        4
 64
     7
 65
   257
 75
     1
175
     1
 42
1.0
 92
        0
 66
   257
 43
1.0
 76
     1
 77
     6
 78
     2
 67
     7
 79
     5
170
     0
171
     0
290
     0
174
     0
 93
        1
 44
0.0
173
     0
291
     0
 45
0.0
1001
ACAD
1000
AcDbSavedByObjectVersion
1070
     0
  0
VISUALSTYLE
  5
31
102
{ACAD_REACTORS
330
2A
102
}
330
2A
100
AcDbVisualStyle
  2
3D Hidden
 70
     6
 71
     1
 72
     2
 73
     2
 90
        0
 40
-0.6
 41
-30.0
 62
     5
 63
     7
421
 16777215
 74
     2
 91
        2
 64
     7
 65
   257
 75
     2
175
     1
 42
40.0
 92
        0
 66
   257
 43
1.0
 76
     1
 77
     6
 78
     2
 67
     7
 79
     3
170
     0
171
     0
290
     0
174
     0
 93
        1
 44
0.0
173
     0
291
     0
 45
0.0
1001
ACAD
1000
AcDbSavedByObjectVersion
1070
     0
  0
VISUALSTYLE
  5
30
102
{ACAD_REACTORS
330
2A
102
}
330
2A
100
AcDbVisualStyle
  2
3dWireframe
 70
     5
 71
     0
 72
     2
 73
     0
 90
        0
 40
-0.6
 41
-30.0
 62
     5
 63
     7
421
 16777215
 74
     1
 91
        4
 64
     7
 65
   257
 75
     1
175
     1
 42
1.0
 92
        0
 66
   257
 43
1.0
 76
     1
 77
     6
 78
     2
 67
     7
 79
     5
170
     0
171
     0
290
     0
174
     0
 93
        1
 44
0.0
173
     0
291
     0
 45
0.0
1001
ACAD
1000
AcDbSavedByObjectVersion
1070
     0
  0
VISUALSTYLE
  5
32
102
{ACAD_REACTORS
330
2A
102
}
330
2A
100
AcDbVisualStyle
  2
Basic
 70
     7
 71
     1
 72
     0
 73
     1
 90
        0
 40
-0.6
 41
-30.0
 62
     5
 63
     7
421
 16777215
 74
     0
 91
        4
 64
     7
 65
   257
 75
     1
175
     1
 42
1.0
 92
        8
 66
     7
 43
1.0
 76
     1
 77
     6
 78
     2
 67
     7
 79
     5
170
     0
171
     0
290
     0
174
     0
 93
        1
 44
0.0
173
     0
291
     1
 45
0.0
1001
ACAD
1000
AcDbSavedByObjectVersion
1070
     0
  0
VISUALSTYLE
  5
36
102
{ACAD_REACTORS
330
2A
102
}
330
2A
100
AcDbVisualStyle
  2
Brighten
 70
    12
 71
     2
 72
     2
 73
     0
 90
        0
 40
-0.6
 41
-30.0
 62
     5
 63
     7
421
 16777215
 74
     1
 91
        4
 64
     7
 65
   257
 75
     1
175
     1
 42
1.0
 92
        8
 66
     7
 43
1.0
 76
     1
 77
     6
 78
     2
 67
     7
 79
     5
170
     0
171
     0
290
     0
174
     0
 93
        1
 44
50.0
173
     0
291
     1
 45
0.0
1001
ACAD
1000
AcDbSavedByObjectVersion
1070
     0
  0
VISUALSTYLE
  5
3A
102
{ACAD_REACTORS
330
2A
102
}
330
2A
100
AcDbVisualStyle
  2
ColorChange
 70
    16
 71
     2
 72
     2
 73
     3
 90
        0
 40
-0.6
 41
-30.0
 62
     5
 63
     8
421
  8421504
 74
     1
 91
        4
 64
     7
 65
   257
 75
     1
175
     1
 42
1.0
 92
        8
 66
     8
424
  8421504
 43
1.0
 76
     1
 77
     6
 78
     2
 67
     7
 79
     5
170
     0
171
     0
290
     0
174
     0
 93
        1
 44
0.0
173
     0
291
     1
 45
0.0
1001
ACAD
1000
AcDbSavedByObjectVersion
1070
     0
  0
VISUALSTYLE
  5
34
102
{ACAD_REACTORS
330
2A
102
}
330
2A
100
AcDbVisualStyle
  2
Conceptual
 70
     9
 71
     3
 72
     2
 73
     0
 90
        0
 40
-0.6
 41
-30.0
 62
     5
 63
     7
421
 16777215
 74
     2
 91
        2
 64
     7
 65
   257
 75
     1
175
     1
 42
40.0
 92
        8
 66
     7
 43
1.0
 76
     1
 77
     6
 78
     2
 67
     7
 79
     3
170
     0
171
     0
290
     0
174
     0
 93
        1
 44
0.0
173
     0
291
     0
 45
0.0
1001
ACAD
1000
AcDbSavedByObjectVersion
1070
     0
  0
VISUALSTYLE
  5
35
102
{ACAD_REACTORS
330
2A
102
}
330
2A
100
AcDbVisualStyle
  2
Dim
 70
    11
 71
     2
 72
     2
 73
     0
 90
        0
 40
-0.6
 41
-30.0
 62
     5
 63
     7
421
 16777215
 74
     1
 91
        4
 64
     7
 65
   257
 75
     1
175
     1
 42
1.0
 92
        8
 66
     7
 43
1.0
 76
     1
 77
     6
 78
     2
 67
     7
 79
     5
170
     0
171
     0
290
     0
174
     0
 93
        1
 44
-50.0
173
     0
291
     1
 45
0.0
1001
ACAD
1000
AcDbSavedByObjectVersion
1070
     0
  0
VISUALSTYLE
  5
39
102
{ACAD_REACTORS
330
2A
102
}
330
2A
100
AcDbVisualStyle
  2
Facepattern
 70
    15
 71
     2
 72
     2
 73
     0
 90
        0
 40
-0.6
 41
-30.0
 62
     5
 63
     7
421
 16777215
 74
     1
 91
        4
 64
     7
 65
   257
 75
     1
175
     1
 42
1.0
 92
        8
 66
     7
 43
1.0
 76
     1
 77
     6
 78
     2
 67
     7
 79
     5
170
     0
171
     0
290
     0
174
     0
 93
        1
 44
0.0
173
     0
291
     1
 45
0.0
1001
ACAD
1000
AcDbSavedByObjectVersion
1070
     0
  0
VISUALSTYLE
  5
2B
102
{ACAD_REACTORS
330
2A
102
}
330
2A
100
AcDbVisualStyle
  2
Flat
 70
     0
 71
     2
 72
     1
 73
     1
 90
        2
 40
-0.6
 41
30.0
 62
     5
 63
     7
421
 16777215
 74
     0
 91
        4
 64
     7
 65
   257
 75
     1
175
     1
 42
1.0
 92
        8
 66
     7
 43
1.0
 76
     1
 77
     6
 78
     2
 67
     7
 79
     5
170
     0
171
     0
290
     0
174
     0
 93
       13
 44
0.0
173
     0
291
     1
 45
0.0
1001
ACAD
1000
AcDbSavedByObjectVersion
1070
     0
  0
VISUALSTYLE
  5
2C
102
{ACAD_REACTORS
330
2A
102
}
330
2A
100
AcDbVisualStyle
  2
FlatWithEdges
 70
     1
 71
     2
 72
     1
 73
     1
 90
        2
 40
-0.6
 41
30.0
 62
     5
 63
     7
421
 16777215
 74
     1
 91
        4
 64
     7
 65
   257
 75
     1
175
     1
 42
1.0
 92
        0
 66
   257
 43
1.0
 76
     1
 77
     6
 78
     2
 67
     7
 79
     5
170
     0
171
     0
290
     0
174
     0
 93
       13
 44
0.0
173
     0
291
     1
 45
0.0
1001
ACAD
1000
AcDbSavedByObjectVersion
1070
     0
  0
VISUALSTYLE
  5
2D
102
{ACAD_REACTORS
330
2A
102
}
330
2A
100
AcDbVisualStyle
  2
Gouraud
 70
     2
 71
     2
 72
     2
 73
     1
 90
        2
 40
-0.6
 41
30.0
 62
     5
 63
     7
421
 16777215
 74
     0
 91
        4
 64
     7
 65
   257
 75
     1
175
     1
 42
1.0
 92
        0
 66
     7
 43
1.0
 76
     1
 77
     6
 78
     2
 67
     7
 79
     5
170
     0
171
     0
290
     0
174
     0
 93
       13
 44
0.0
173
     0
291
     1
 45
0.0
1001
ACAD
1000
AcDbSavedByObjectVersion
1070
     0
  0
VISUALSTYLE
  5
2E
102
{ACAD_REACTORS
330
2A
102
}
330
2A
100
AcDbVisualStyle
  2
GouraudWithEdges
 70
     3
 71
     2
 72
     2
 73
     1
 90
        2
 40
-0.6
 41
30.0
 62
     5
 63
     7
421
 16777215
 74
     1
 91
        4
 64
     7
 65
   257
 75
     1
175
     1
 42
1.0
 92
        0
 66
   257
 43
1.0
 76
     1
 77
     6
 78
     2
 67
     7
 79
     5
170
     0
171
     0
290
     0
174
     0
 93
       13
 44
0.0
173
     0
291
     1
 45
0.0
1001
ACAD
1000
AcDbSavedByObjectVersion
1070
     0
  0
VISUALSTYLE
  5
38
102
{ACAD_REACTORS
330
2A
102
}
330
2A
100
AcDbVisualStyle
  2
Linepattern
 70
    14
 71
     2
 72
     2
 73
     0
 90
        0
 40
-0.6
 41
-30.0
 62
     5
 63
     7
421
 16777215
 74
     1
 91
        4
 64
     7
 65
   257
 75
     7
175
     7
 42
1.0
 92
        8
 66
     7
 43
1.0
 76
     1
 77
     6
 78
     2
 67
     7
 79
     5
170
     0
171
     0
290
     0
174
     0
 93
        1
 44
0.0
173
     0
291
     1
 45
0.0
1001
ACAD
1000
AcDbSavedByObjectVersion
1070
     0
  0
VISUALSTYLE
  5
33
102
{ACAD_REACTORS
330
2A
102
}
330
2A
100
AcDbVisualStyle
  2
Realistic
 70
     8
 71
     2
 72
     2
 73
     0
 90
        0
 40
-0.6
 41
-30.0
 62
     5
 63
     7
421
 16777215
 74
     1
 91
        0
 64
     7
 65
   257
 75
     1
175
     1
 42
1.0
 92
        8
 66
     8
424
  7895160
 43
1.0
 76
     1
 77
     6
 78
     2
 67
     7
 79
     5
170
     0
171
     0
290
     0
174
     0
 93
       13
 44
0.0
173
     0
291
     0
 45
0.0
1001
ACAD
1000
AcDbSavedByObjectVersion
1070
     0
  0
VISUALSTYLE
  5
37
102
{ACAD_REACTORS
330
2A
102
}
330
2A
100
AcDbVisualStyle
  2
Thicken
 70
    13
 71
     2
 72
     2
 73
     0
 90
        0
 40
-0.6
 41
-30.0
 62
     5
 63
     7
421
 16777215
 74
     1
 91
        4
 64
     7
 65
   257
 75
     1
175
     1
 42
1.0
 92
       12
 66
     7
 43
1.0
 76
     1
 77
     6
 78
     2
 67
     7
 79
     5
170
     0
171
     0
290
     0
174
     0
 93
        1
 44
0.0
173
     0
291
     1
 45
0.0
1001
ACAD
1000
AcDbSavedByObjectVersion
1070
     0
  0
ENDSEC
  0
EOF
