  0
SECTION
  2
HEADER
  9
$ACADVER
  1
AC1018
  9
$ACADMAINTVER
 70
     0
  9
$DWGCODEPAGE
  3
ANSI_1252
  9
$INSBASE
 10
0.0
 20
0.0
 30
0.0
  9
$EXTMIN
 10
-10.04038552857051
 20
-0.0000000000000185
 30
0.0
  9
$EXTMAX
 10
42.09857021603862
 20
61.13971009346022
 30
0.0
  9
$LIMMIN
 10
0.0
 20
0.0
  9
$LIMMAX
 10
12.0
 20
9.0
  9
$ORTHOMODE
 70
     0
  9
$REGENMODE
 70
     1
  9
$FILLMODE
 70
     1
  9
$QTEXTMODE
 70
     0
  9
$MIRRTEXT
 70
     1
  9
$LTSCALE
 40
0.0393700787401575
  9
$ATTMODE
 70
     1
  9
$TEXTSIZE
 40
0.2
  9
$TRACEWID
 40
0.05
  9
$TEXTSTYLE
  7
Standard
  9
$CLAYER
  8
0
  9
$CELTYPE
  6
ByLayer
  9
$CECOLOR
 62
   256
  9
$CELTSCALE
 40
1.0
  9
$DISPSILH
 70
     0
  9
$DIMSCALE
 40
1.0
  9
$DIMASZ
 40
0.18
  9
$DIMEXO
 40
0.0625
  9
$DIMDLI
 40
0.38
  9
$DIMRND
 40
0.0
  9
$DIMDLE
 40
0.0
  9
$DIMEXE
 40
0.18
  9
$DIMTP
 40
0.0
  9
$DIMTM
 40
0.0
  9
$DIMTXT
 40
0.18
  9
$DIMCEN
 40
0.09
  9
$DIMTSZ
 40
0.0
  9
$DIMTOL
 70
     0
  9
$DIMLIM
 70
     0
  9
$DIMTIH
 70
     1
  9
$DIMTOH
 70
     1
  9
$DIMSE1
 70
     0
  9
$DIMSE2
 70
     0
  9
$DIMTAD
 70
     0
  9
$DIMZIN
 70
     0
  9
$DIMBLK
  1

  9
$DIMASO
 70
     1
  9
$DIMSHO
 70
     1
  9
$DIMPOST
  1

  9
$DIMAPOST
  1

  9
$DIMALT
 70
     0
  9
$DIMALTD
 70
     2
  9
$DIMALTF
 40
25.4
  9
$DIMLFAC
 40
1.0
  9
$DIMTOFL
 70
     0
  9
$DIMTVP
 40
0.0
  9
$DIMTIX
 70
     0
  9
$DIMSOXD
 70
     0
  9
$DIMSAH
 70
     0
  9
$DIMBLK1
  1

  9
$DIMBLK2
  1

  9
$DIMSTYLE
  2
Standard
  9
$DIMCLRD
 70
     0
  9
$DIMCLRE
 70
     0
  9
$DIMCLRT
 70
     0
  9
$DIMTFAC
 40
1.0
  9
$DIMGAP
 40
0.09
  9
$DIMJUST
 70
     0
  9
$DIMSD1
 70
     0
  9
$DIMSD2
 70
     0
  9
$DIMTOLJ
 70
     1
  9
$DIMTZIN
 70
     0
  9
$DIMALTZ
 70
     0
  9
$DIMALTTZ
 70
     0
  9
$DIMUPT
 70
     0
  9
$DIMDEC
 70
     4
  9
$DIMTDEC
 70
     4
  9
$DIMALTU
 70
     2
  9
$DIMALTTD
 70
     2
  9
$DIMTXSTY
  7
Standard
  9
$DIMAUNIT
 70
     0
  9
$DIMADEC
 70
     0
  9
$DIMALTRND
 40
0.0
  9
$DIMAZIN
 70
     0
  9
$DIMDSEP
 70
    46
  9
$DIMATFIT
 70
     3
  9
$DIMFRAC
 70
     0
  9
$DIMLDRBLK
  1

  9
$DIMLUNIT
 70
     2
  9
$DIMLWD
 70
    -2
  9
$DIMLWE
 70
    -2
  9
$DIMTMOVE
 70
     2
  9
$LUNITS
 70
     2
  9
$LUPREC
 70
     3
  9
$SKETCHINC
 40
0.1
  9
$FILLETRAD
 40
0.5
  9
$AUNITS
 70
     0
  9
$AUPREC
 70
     0
  9
$MENU
  1
.
  9
$ELEVATION
 40
0.0
  9
$PELEVATION
 40
0.0
  9
$THICKNESS
 40
0.0
  9
$LIMCHECK
 70
     0
  9
$CHAMFERA
 40
0.5
  9
$CHAMFERB
 40
0.5
  9
$CHAMFERC
 40
1.0
  9
$CHAMFERD
 40
0.0
  9
$SKPOLY
 70
     0
  9
$TDCREATE
 40
2457900.394716655
  9
$TDUCREATE
 40
2457900.561383322
  9
$TDUPDATE
 40
2457900.394716667
  9
$TDUUPDATE
 40
2457900.561383334
  9
$TDINDWG
 40
0.0000000116
  9
$TDUSRTIMER
 40
0.0000000116
  9
$USRTIMER
 70
     1
  9
$ANGBASE
 50
0.0
  9
$ANGDIR
 70
     0
  9
$PDMODE
 70
     0
  9
$PDSIZE
 40
0.0
  9
$PLINEWID
 40
0.0
  9
$SPLFRAME
 70
     0
  9
$SPLINETYPE
 70
     6
  9
$SPLINESEGS
 70
     8
  9
$HANDSEED
  5
BF
  9
$SURFTAB1
 70
     6
  9
$SURFTAB2
 70
     6
  9
$SURFTYPE
 70
     6
  9
$SURFU
 70
     6
  9
$SURFV
 70
     6
  9
$UCSBASE
  2

  9
$UCSNAME
  2

  9
$UCSORG
 10
0.0
 20
0.0
 30
0.0
  9
$UCSXDIR
 10
1.0
 20
0.0
 30
0.0
  9
$UCSYDIR
 10
0.0
 20
1.0
 30
0.0
  9
$UCSORTHOREF
  2

  9
$UCSORTHOVIEW
 70
     0
  9
$UCSORGTOP
 10
0.0
 20
0.0
 30
0.0
  9
$UCSORGBOTTOM
 10
0.0
 20
0.0
 30
0.0
  9
$UCSORGLEFT
 10
0.0
 20
0.0
 30
0.0
  9
$UCSORGRIGHT
 10
0.0
 20
0.0
 30
0.0
  9
$UCSORGFRONT
 10
0.0
 20
0.0
 30
0.0
  9
$UCSORGBACK
 10
0.0
 20
0.0
 30
0.0
  9
$PUCSBASE
  2

  9
$PUCSNAME
  2

  9
$PUCSORG
 10
0.0
 20
0.0
 30
0.0
  9
$PUCSXDIR
 10
1.0
 20
0.0
 30
0.0
  9
$PUCSYDIR
 10
0.0
 20
1.0
 30
0.0
  9
$PUCSORTHOREF
  2

  9
$PUCSORTHOVIEW
 70
     0
  9
$PUCSORGTOP
 10
0.0
 20
0.0
 30
0.0
  9
$PUCSORGBOTTOM
 10
0.0
 20
0.0
 30
0.0
  9
$PUCSORGLEFT
 10
0.0
 20
0.0
 30
0.0
  9
$PUCSORGRIGHT
 10
0.0
 20
0.0
 30
0.0
  9
$PUCSORGFRONT
 10
0.0
 20
0.0
 30
0.0
  9
$PUCSORGBACK
 10
0.0
 20
0.0
 30
0.0
  9
$USERI1
 70
     0
  9
$USERI2
 70
     0
  9
$USERI3
 70
     0
  9
$USERI4
 70
     0
  9
$USERI5
 70
     0
  9
$USERR1
 40
0.0
  9
$USERR2
 40
0.0
  9
$USERR3
 40
0.0
  9
$USERR4
 40
0.0
  9
$USERR5
 40
0.0
  9
$WORLDVIEW
 70
     1
  9
$SHADEDGE
 70
     3
  9
$SHADEDIF
 70
    70
  9
$TILEMODE
 70
     1
  9
$MAXACTVP
 70
    64
  9
$PINSBASE
 10
0.0
 20
0.0
 30
0.0
  9
$PLIMCHECK
 70
     0
  9
$PEXTMIN
 10
1.000000000000000E+20
 20
1.000000000000000E+20
 30
1.000000000000000E+20
  9
$PEXTMAX
 10
-1.000000000000000E+20
 20
-1.000000000000000E+20
 30
-1.000000000000000E+20
  9
$PLIMMIN
 10
0.0
 20
0.0
  9
$PLIMMAX
 10
12.0
 20
9.0
  9
$UNITMODE
 70
     0
  9
$VISRETAIN
 70
     1
  9
$PLINEGEN
 70
     0
  9
$PSLTSCALE
 70
     1
  9
$TREEDEPTH
 70
  3020
  9
$CMLSTYLE
  2
Standard
  9
$CMLJUST
 70
     0
  9
$CMLSCALE
 40
1.0
  9
$PROXYGRAPHICS
 70
     1
  9
$MEASUREMENT
 70
     0
  9
$CELWEIGHT
370
    -1
  9
$ENDCAPS
280
     0
  9
$JOINSTYLE
280
     0
  9
$LWDISPLAY
290
     0
  9
$INSUNITS
 70
     1
  9
$HYPERLINKBASE
  1

  9
$STYLESHEET
  1

  9
$XEDIT
290
     1
  9
$CEPSNTYPE
380
     0
  9
$PSTYLEMODE
290
     1
  9
$FINGERPRINTGUID
  2
{67ADA1B4-AB4C-4B08-9340-C1D278031E5B}
  9
$VERSIONGUID
  2
{FAEB1C32-E019-11D5-929B-00C0DF256EC4}
  9
$EXTNAMES
290
     1
  9
$PSVPSCALE
 40
0.0
  9
$OLESTARTUP
290
     0
  9
$SORTENTS
280
   127
  9
$INDEXCTL
280
     0
  9
$HIDETEXT
280
     1
  9
$XCLIPFRAME
290
     0
  9
$HALOGAP
280
     0
  9
$OBSCOLOR
 70
   257
  9
$OBSLTYPE
280
     0
  9
$INTERSECTIONDISPLAY
280
     0
  9
$INTERSECTIONCOLOR
 70
   257
  9
$DIMASSOC
280
     2
  9
$PROJECTNAME
  1

  0
ENDSEC
  0
SECTION
  2
CLASSES
  0
CLASS
  1
ACDBDICTIONARYWDFLT
  2
AcDbDictionaryWithDefault
  3
ObjectDBX Classes
 90
        0
 91
        4
280
     0
281
     0
  0
CLASS
  1
VISUALSTYLE
  2
AcDbVisualStyle
  3
ObjectDBX Classes
 90
     4095
 91
        4
280
     0
281
     0
  0
ENDSEC
  0
SECTION
  2
TABLES
  0
TABLE
  2
VPORT
  5
8
330
0
100
AcDbSymbolTable
 70
     1
  0
VPORT
  5
29
330
8
100
AcDbSymbolTableRecord
100
AcDbViewportTableRecord
  2
*Active
 70
     0
 10
0.0
 20
0.0
 11
1.0
 21
1.0
 12
16.02909234373406
 22
30.5698550467301
 13
0.0
 23
0.0
 14
0.5
 24
0.5
 15
0.5
 25
0.5
 16
0.0
 26
0.0
 36
1.0
 17
0.0
 27
0.0
 37
0.0
 40
62.36250429532944
 41
0.852783823556045
 42
50.0
 43
0.0
 44
0.0
 50
0.0
 51
0.0
 71
     0
 72
   100
 73
     1
 74
     3
 75
     0
 76
     0
 77
     0
 78
     0
281
     0
 65
     1
110
0.0
120
0.0
130
0.0
111
1.0
121
0.0
131
0.0
112
0.0
122
1.0
132
0.0
 79
     0
146
0.0
  0
ENDTAB
  0
TABLE
  2
LTYPE
  5
5
330
0
100
AcDbSymbolTable
 70
     1
  0
LTYPE
  5
14
330
5
100
AcDbSymbolTableRecord
100
AcDbLinetypeTableRecord
  2
ByBlock
 70
     0
  3

 72
    65
 73
     0
 40
0.0
  0
LTYPE
  5
15
330
5
100
AcDbSymbolTableRecord
100
AcDbLinetypeTableRecord
  2
ByLayer
 70
     0
  3

 72
    65
 73
     0
 40
0.0
  0
LTYPE
  5
16
330
5
100
AcDbSymbolTableRecord
100
AcDbLinetypeTableRecord
  2
Continuous
 70
     0
  3
Solid line
 72
    65
 73
     0
 40
0.0
  0
ENDTAB
  0
TABLE
  2
LAYER
  5
2
330
0
100
AcDbSymbolTable
 70
     2
  0
LAYER
  5
10
330
2
100
AcDbSymbolTableRecord
100
AcDbLayerTableRecord
  2
0
 70
     0
 62
     7
  6
Continuous
370
    -3
390
F
  0
LAYER
  5
3B
330
2
100
AcDbSymbolTableRecord
100
AcDbLayerTableRecord
  2
WOOD C - 2D
 70
     0
 62
     7
  6
Continuous
370
    -3
390
F
  0
ENDTAB
  0
TABLE
  2
STYLE
  5
3
330
0
100
AcDbSymbolTable
 70
     1
  0
STYLE
  5
11
330
3
100
AcDbSymbolTableRecord
100
AcDbTextStyleTableRecord
  2
Standard
 70
     0
 40
0.0
 41
1.0
 50
0.0
 71
     0
 42
0.2
  3
txt
  4

  0
ENDTAB
  0
TABLE
  2
VIEW
  5
6
330
0
100
AcDbSymbolTable
 70
     0
  0
ENDTAB
  0
TABLE
  2
UCS
  5
7
330
0
100
AcDbSymbolTable
 70
     0
  0
ENDTAB
  0
TABLE
  2
APPID
  5
9
330
0
100
AcDbSymbolTable
 70
     1
  0
APPID
  5
12
330
9
100
AcDbSymbolTableRecord
100
AcDbRegAppTableRecord
  2
ACAD
 70
     0
  0
ENDTAB
  0
TABLE
  2
DIMSTYLE
  5
A
330
0
100
AcDbSymbolTable
 70
     1
100
AcDbDimStyleTable
  0
DIMSTYLE
105
27
330
A
100
AcDbSymbolTableRecord
100
AcDbDimStyleTableRecord
  2
Standard
 70
     0
340
11
  0
ENDTAB
  0
TABLE
  2
BLOCK_RECORD
  5
1
330
0
100
AcDbSymbolTable
 70
     1
  0
BLOCK_RECORD
  5
1F
330
1
100
AcDbSymbolTableRecord
100
AcDbBlockTableRecord
  2
*Model_Space
340
22
  0
BLOCK_RECORD
  5
1B
330
1
100
AcDbSymbolTableRecord
100
AcDbBlockTableRecord
  2
*Paper_Space
340
1E
  0
BLOCK_RECORD
  5
23
330
1
100
AcDbSymbolTableRecord
100
AcDbBlockTableRecord
  2
*Paper_Space0
340
26
  0
ENDTAB
  0
ENDSEC
  0
SECTION
  2
BLOCKS
  0
BLOCK
  5
20
330
1F
100
AcDbEntity
  8
0
100
AcDbBlockBegin
  2
*Model_Space
 70
     0
 10
0.0
 20
0.0
 30
0.0
  3
*Model_Space
  1

  0
ENDBLK
  5
21
330
1F
100
AcDbEntity
  8
0
100
AcDbBlockEnd
  0
BLOCK
  5
1C
330
1B
100
AcDbEntity
 67
     1
  8
0
100
AcDbBlockBegin
  2
*Paper_Space
 70
     0
 10
0.0
 20
0.0
 30
0.0
  3
*Paper_Space
  1

  0
ENDBLK
  5
1D
330
1B
100
AcDbEntity
 67
     1
  8
0
100
AcDbBlockEnd
  0
BLOCK
  5
24
330
23
100
AcDbEntity
  8
0
100
AcDbBlockBegin
  2
*Paper_Space0
 70
     0
 10
0.0
 20
0.0
 30
0.0
  3
*Paper_Space0
  1

  0
ENDBLK
  5
25
330
23
100
AcDbEntity
  8
0
100
AcDbBlockEnd
  0
ENDSEC
  0
SECTION
  2
ENTITIES
  0
SPLINE
  5
3C
330
1F
100
AcDbEntity
  8
WOOD C - 2D
 62
     7
100
AcDbSpline
210
0.0
220
0.0
230
1.0
 70
     8
 71
     3
 72
    16
 73
    12
 74
     0
 42
0.0000000001
 43
0.0000000001
 40
0.0
 40
0.0
 40
0.0
 40
0.0
 40
1.0
 40
2.0
 40
3.0
 40
4.0
 40
5.0
 40
6.0
 40
7.0
 40
8.0
 40
9.0
 40
9.0
 40
9.0
 40
9.0
 10
7.650074607377135
 20
24.11351333975307
 30
0.0
 10
7.600771329819921
 20
24.43007417440446
 30
0.0
 10
7.038598728865412
 20
24.73263040525498
 30
0.0
 10
6.16474116265234
 20
24.79715239045732
 30
0.0
 10
5.284914346318131
 20
24.86102317788924
 30
0.0
 10
4.404647435390271
 20
24.88998016444975
 30
0.0
 10
3.523652248227979
 20
24.89016036048384
 30
0.0
 10
2.642828723773921
 20
24.88528614624381
 30
0.0
 10
1.761973525680377
 20
24.87889278280544
 30
0.0
 10
0.8811081966857913
 20
24.87663912464235
 30
0.0
 10
0.2938620281671375
 20
24.87670785055149
 30
0.0
 10
0.0002393015893567
 20
24.87642921706661
 30
0.0
  0
SPLINE
  5
3D
330
1F
100
AcDbEntity
  8
WOOD C - 2D
 62
     7
100
AcDbSpline
210
0.0
220
0.0
230
1.0
 70
     8
 71
     3
 72
    16
 73
    12
 74
     0
 42
0.0000000001
 43
0.0000000001
 40
-9.0
 40
-9.0
 40
-9.0
 40
-9.0
 40
-8.0
 40
-7.0
 40
-6.0
 40
-5.0
 40
-4.0
 40
-3.0
 40
-2.0
 40
-1.0
 40
0.0
 40
0.0
 40
0.0
 40
0.0
 10
0.0002393015893567
 20
24.87642921706661
 30
0.0
 10
-0.2933834249884241
 20
24.87670785055149
 30
0.0
 10
-0.8806295935070779
 20
24.87663912464235
 30
0.0
 10
-1.761494922501663
 20
24.87889278280544
 30
0.0
 10
-2.642350120595208
 20
24.88528614624381
 30
0.0
 10
-3.523173645049266
 20
24.89016036048384
 30
0.0
 10
-4.404168832211558
 20
24.88998016444975
 30
0.0
 10
-5.284435743139418
 20
24.86102317788924
 30
0.0
 10
-6.164262559473626
 20
24.79715239045732
 30
0.0
 10
-7.038120125686699
 20
24.73263040525498
 30
0.0
 10
-7.600292726641207
 20
24.43007417440446
 30
0.0
 10
-7.649596004198422
 20
24.11351333975307
 30
0.0
  0
SPLINE
  5
3E
330
1F
100
AcDbEntity
  8
WOOD C - 2D
 62
     7
100
AcDbSpline
210
0.0
220
0.0
230
1.0
 70
     8
 71
     3
 72
    16
 73
    12
 74
     0
 42
0.0000000001
 43
0.0000000001
 40
-9.0
 40
-9.0
 40
-9.0
 40
-9.0
 40
-8.0
 40
-7.0
 40
-6.0
 40
-5.0
 40
-4.0
 40
-3.0
 40
-2.0
 40
-1.0
 40
0.0
 40
0.0
 40
0.0
 40
0.0
 10
-9.662923413614827
 20
24.64937968188278
 30
0.0
 10
-9.319761635549902
 20
24.52368451486969
 30
0.0
 10
-8.60459816870183
 20
24.36234908306176
 30
0.0
 10
-7.549186481801777
 20
24.0611868277642
 30
0.0
 10
-6.508539877109436
 20
23.71235263951075
 30
0.0
 10
-5.457849220491502
 20
23.39231090498357
 30
0.0
 10
-4.378817878343472
 20
23.18475965088813
 30
0.0
 10
-3.288875741200983
 20
23.0530804637935
 30
0.0
 10
-2.194235939805999
 20
22.97060690537084
 30
0.0
 10
-1.097296652865388
 20
22.93056594749694
 30
0.0
 10
-0.3655943368460645
 20
22.9245901199337
 30
0.0
 10
0.0002393015893585
 20
22.92458310665696
 30
0.0
  0
SPLINE
  5
3F
330
1F
100
AcDbEntity
  8
WOOD C - 2D
 62
     7
100
AcDbSpline
210
0.0
220
0.0
230
1.0
 70
     8
 71
     3
 72
    16
 73
    12
 74
     0
 42
0.0000000001
 43
0.0000000001
 40
0.0
 40
0.0
 40
0.0
 40
0.0
 40
1.0
 40
2.0
 40
3.0
 40
4.0
 40
5.0
 40
6.0
 40
7.0
 40
8.0
 40
9.0
 40
9.0
 40
9.0
 40
9.0
 10
0.0002393015893585
 20
22.92458310665696
 30
0.0
 10
0.3660729400247815
 20
22.9245901199337
 30
0.0
 10
1.097775256044105
 20
22.93056594749694
 30
0.0
 10
2.194714542984716
 20
22.97060690537084
 30
0.0
 10
3.2893543443797
 20
23.0530804637935
 30
0.0
 10
4.379296481522189
 20
23.18475965088813
 30
0.0
 10
5.458327823670219
 20
23.39231090498357
 30
0.0
 10
6.509018480288153
 20
23.71235263951075
 30
0.0
 10
7.549665084980494
 20
24.0611868277642
 30
0.0
 10
8.605076771880547
 20
24.36234908306176
 30
0.0
 10
9.32024023872862
 20
24.52368451486969
 30
0.0
 10
9.663402016793544
 20
24.64937968188278
 30
0.0
  0
SPLINE
  5
40
330
1F
100
AcDbEntity
  8
WOOD C - 2D
 62
     7
100
AcDbSpline
210
0.0
220
0.0
230
1.0
 70
     8
 71
     3
 72
    24
 73
    20
 74
     0
 42
0.0000000001
 43
0.0000000001
 40
0.0
 40
0.0
 40
0.0
 40
0.0
 40
1.0
 40
2.0
 40
3.0
 40
4.0
 40
5.0
 40
6.0
 40
7.0
 40
8.0
 40
9.0
 40
10.0
 40
11.0
 40
12.0
 40
13.0
 40
14.0
 40
15.0
 40
16.0
 40
17.0
 40
17.0
 40
17.0
 40
17.0
 10
41.6569335357563
 20
23.00245439138093
 30
0.0
 10
41.79045540488752
 20
23.14168539489468
 30
0.0
 10
41.95211104674088
 20
23.50629803450941
 30
0.0
 10
41.89715041957296
 20
24.09497014653011
 30
0.0
 10
41.56977436782106
 20
24.59806647459879
 30
0.0
 10
41.01932512407651
 20
24.81700056358949
 30
0.0
 10
40.44375872663188
 20
24.85887389427258
 30
0.0
 10
39.86927035224164
 20
24.88140009332096
 30
0.0
 10
39.29374545486176
 20
24.8955483726992
 30
0.0
 10
38.71852749439727
 20
24.87525470597571
 30
0.0
 10
38.14359025027725
 20
24.85208410585905
 30
0.0
 10
37.56877813109126
 20
24.8249848182861
 30
0.0
 10
36.99403917253685
 20
24.79668596413811
 30
0.0
 10
36.41927519345976
 20
24.76880189205797
 30
0.0
 10
35.84438657346801
 20
24.74362096057133
 30
0.0
 10
35.26940741538416
 20
24.72062296767517
 30
0.0
 10
34.69439962919309
 20
24.69836506510457
 30
0.0
 10
34.11941031358455
 20
24.6756346114101
 30
0.0
 10
33.73613119045102
 20
24.65931589754323
 30
0.0
 10
33.54451387538435
 20
24.65065608381019
 30
0.0
  0
SPLINE
  5
41
330
1F
100
AcDbEntity
  8
WOOD C - 2D
 62
     7
100
AcDbSpline
210
0.0
220
0.0
230
1.0
 70
     8
 71
     3
 72
    24
 73
    20
 74
     0
 42
0.0000000001
 43
0.0000000001
 40
0.0
 40
0.0
 40
0.0
 40
0.0
 40
1.0
 40
2.0
 40
3.0
 40
4.0
 40
5.0
 40
6.0
 40
7.0
 40
8.0
 40
9.0
 40
10.0
 40
11.0
 40
12.0
 40
13.0
 40
14.0
 40
15.0
 40
16.0
 40
17.0
 40
17.0
 40
17.0
 40
17.0
 10
-0.0000000000000068
 20
60.58399269572779
 30
0.0
 10
0.6154564249465164
 20
60.58144783046519
 30
0.0
 10
1.846869253822748
 20
60.51715953333037
 30
0.0
 10
3.676626902492637
 20
60.28065652082596
 30
0.0
 10
5.489786683424545
 20
59.86023844601101
 30
0.0
 10
7.057394086183614
 20
58.81302615155273
 30
0.0
 10
8.11059682798109
 20
57.27225680757135
 30
0.0
 10
8.86271770330402
 20
55.58528474023475
 30
0.0
 10
9.621130296257089
 20
53.89735905144377
 30
0.0
 10
10.01922260915391
 20
52.08249340452091
 30
0.0
 10
10.07187038101627
 20
50.23286048928142
 30
0.0
 10
9.928770388226724
 20
48.38435243853913
 30
0.0
 10
9.354616978924373
 20
46.61525063834846
 30
0.0
 10
8.386775793729054
 20
45.02835180243493
 30
0.0
 10
7.080406478515896
 20
43.70177881030624
 30
0.0
 10
5.46156005670225
 20
42.77974235093103
 30
0.0
 10
3.68151221987695
 20
42.25587705718615
 30
0.0
 10
1.847407580129788
 20
42.01330220247677
 30
0.0
 10
0.615502533488783
 20
41.97993657339402
 30
0.0
 10
0.0000000000001132
 20
41.98222000335559
 30
0.0
  0
SPLINE
  5
42
330
1F
100
AcDbEntity
  8
WOOD C - 2D
 62
     7
100
AcDbSpline
210
0.0
220
0.0
230
1.0
 70
     8
 71
     3
 72
    24
 73
    20
 74
     0
 42
0.0000000001
 43
0.0000000001
 40
-17.0
 40
-17.0
 40
-17.0
 40
-17.0
 40
-16.0
 40
-15.0
 40
-14.0
 40
-13.0
 40
-12.0
 40
-11.0
 40
-10.0
 40
-9.0
 40
-8.0
 40
-7.0
 40
-6.0
 40
-5.0
 40
-4.0
 40
-3.0
 40
-2.0
 40
-1.0
 40
0.0
 40
0.0
 40
0.0
 40
0.0
 10
0.0000000000000038
 20
41.98222000335559
 30
0.0
 10
-0.615502533488666
 20
41.97993657339401
 30
0.0
 10
-1.847407580129672
 20
42.01330220247675
 30
0.0
 10
-3.681512219876834
 20
42.25587705718613
 30
0.0
 10
-5.461560056702139
 20
42.779742350931
 30
0.0
 10
-7.080406478515791
 20
43.70177881030619
 30
0.0
 10
-8.386775793728958
 20
45.02835180243487
 30
0.0
 10
-9.35461697892429
 20
46.6152506383484
 30
0.0
 10
-9.928770388226653
 20
48.38435243853906
 30
0.0
 10
-10.07187038101621
 20
50.23286048928135
 30
0.0
 10
-10.01922260915386
 20
52.08249340452084
 30
0.0
 10
-9.621130296257057
 20
53.8973590514437
 30
0.0
 10
-8.862717703303998
 20
55.58528474023469
 30
0.0
 10
-8.11059682798108
 20
57.27225680757129
 30
0.0
 10
-7.057394086183615
 20
58.81302615155269
 30
0.0
 10
-5.489786683424554
 20
59.86023844601097
 30
0.0
 10
-3.676626902492648
 20
60.28065652082593
 30
0.0
 10
-1.846869253822762
 20
60.51715953333036
 30
0.0
 10
-0.6154564249465302
 20
60.58144783046519
 30
0.0
 10
-0.0000000000000068
 20
60.58399269572779
 30
0.0
  0
SPLINE
  5
43
330
1F
100
AcDbEntity
  8
WOOD C - 2D
 62
     7
100
AcDbSpline
210
0.0
220
0.0
230
1.0
 70
     8
 71
     3
 72
    24
 73
    20
 74
     0
 42
0.0000000001
 43
0.0000000001
 40
0.0
 40
0.0
 40
0.0
 40
0.0
 40
1.0
 40
2.0
 40
3.0
 40
4.0
 40
5.0
 40
6.0
 40
7.0
 40
8.0
 40
9.0
 40
10.0
 40
11.0
 40
12.0
 40
13.0
 40
14.0
 40
15.0
 40
16.0
 40
17.0
 40
17.0
 40
17.0
 40
17.0
 10
-0.0000000000000033
 20
57.22562141189603
 30
0.0
 10
0.5042271187832722
 20
57.22568107278387
 30
0.0
 10
1.512527863514624
 20
57.21732875583382
 30
0.0
 10
3.024353397868742
 20
57.13687317010764
 30
0.0
 10
4.520555807248305
 20
56.90457041292584
 30
0.0
 10
5.957589786253568
 20
56.37032504943954
 30
0.0
 10
7.053084774122524
 20
55.25079453383716
 30
0.0
 10
7.418269381227428
 20
53.75287499115898
 30
0.0
 10
7.557667419052356
 20
52.25069756634731
 30
0.0
 10
7.65410520947268
 20
50.73970401751084
 30
0.0
 10
7.668673137218106
 20
49.22724118353163
 30
0.0
 10
7.597380058714958
 20
47.7137902085073
 30
0.0
 10
7.326596697429241
 20
46.22379397392809
 30
0.0
 10
6.79725827787199
 20
44.7886140979171
 30
0.0
 10
5.774250595105002
 20
43.64344056054859
 30
0.0
 10
4.482039069091123
 20
42.82858638567585
 30
0.0
 10
3.013421598084409
 20
42.42322770378404
 30
0.0
 10
1.512026175577686
 20
42.23326681716114
 30
0.0
 10
0.5041543355987225
 20
42.18227313365855
 30
0.0
 10
-0.0000000000000033
 20
42.17508200949661
 30
0.0
  0
SPLINE
  5
44
330
1F
100
AcDbEntity
  8
WOOD C - 2D
 62
     7
100
AcDbSpline
210
0.0
220
0.0
230
1.0
 70
     8
 71
     3
 72
    24
 73
    20
 74
     0
 42
0.0000000001
 43
0.0000000001
 40
-17.0
 40
-17.0
 40
-17.0
 40
-17.0
 40
-16.0
 40
-15.0
 40
-14.0
 40
-13.0
 40
-12.0
 40
-11.0
 40
-10.0
 40
-9.0
 40
-8.0
 40
-7.0
 40
-6.0
 40
-5.0
 40
-4.0
 40
-3.0
 40
-2.0
 40
-1.0
 40
0.0
 40
0.0
 40
0.0
 40
0.0
 10
-0.0000000000000033
 20
42.17508200949661
 30
0.0
 10
-0.5041543355987291
 20
42.18227313365855
 30
0.0
 10
-1.512026175577692
 20
42.23326681716114
 30
0.0
 10
-3.013421598084415
 20
42.42322770378404
 30
0.0
 10
-4.48203906909113
 20
42.82858638567585
 30
0.0
 10
-5.774250595105009
 20
43.64344056054859
 30
0.0
 10
-6.797258277871997
 20
44.7886140979171
 30
0.0
 10
-7.326596697429248
 20
46.22379397392809
 30
0.0
 10
-7.597380058714966
 20
47.7137902085073
 30
0.0
 10
-7.668673137218113
 20
49.22724118353163
 30
0.0
 10
-7.654105209472687
 20
50.73970401751084
 30
0.0
 10
-7.557667419052363
 20
52.25069756634731
 30
0.0
 10
-7.418269381227435
 20
53.75287499115898
 30
0.0
 10
-7.053084774122532
 20
55.25079453383716
 30
0.0
 10
-5.957589786253576
 20
56.37032504943954
 30
0.0
 10
-4.520555807248313
 20
56.90457041292584
 30
0.0
 10
-3.024353397868749
 20
57.13687317010764
 30
0.0
 10
-1.512527863514631
 20
57.21732875583382
 30
0.0
 10
-0.5042271187832789
 20
57.22568107278387
 30
0.0
 10
-0.0000000000000033
 20
57.22562141189603
 30
0.0
  0
LINE
  5
45
330
1F
100
AcDbEntity
  8
WOOD C - 2D
 62
     7
100
AcDbLine
 10
-6.970308539881021
 20
43.72492325240599
 30
0.0
 11
-7.113211489180568
 21
43.58159122458478
 31
0.0
  0
ARC
  5
46
330
1F
100
AcDbEntity
  8
WOOD C - 2D
 62
     7
100
AcDbCircle
 10
-7.513513111561233
 20
43.98069450469006
 30
0.0
 40
0.5652652625727066
100
AcDbArc
 50
146.1383771601136
 51
315.0858887694441
  0
LINE
  5
47
330
1F
100
AcDbEntity
  8
WOOD C - 2D
 62
     7
100
AcDbLine
 10
-7.982901291513666
 20
44.29565411097686
 30
0.0
 11
-7.842583785995866
 21
44.50477101744927
 31
0.0
  0
LINE
  5
48
330
1F
100
AcDbEntity
  8
WOOD C - 2D
 62
     7
100
AcDbLine
 10
-6.688780036649371
 20
58.98851475267747
 30
0.0
 11
-7.11772705339906
 21
60.42114335343551
 31
0.0
  0
ARC
  5
49
330
1F
100
AcDbEntity
  8
WOOD C - 2D
 62
     7
100
AcDbCircle
 10
-6.573608041190955
 20
60.57441558839578
 30
0.0
 40
0.565294505064434
100
AcDbArc
 50
21.86485343750055
 51
195.7319339353914
  0
LINE
  5
4A
330
1F
100
AcDbEntity
  8
WOOD C - 2D
 62
     7
100
AcDbLine
 10
-6.048978064923958
 20
60.78494175175354
 30
0.0
 11
-5.607051752197119
 21
59.68366394732384
 31
0.0
  0
LINE
  5
4B
330
1F
100
AcDbEntity
  8
WOOD C - 2D
 62
     7
100
AcDbLine
 10
6.688780036649371
 20
58.98851475267747
 30
0.0
 11
7.11772705339906
 21
60.42114335343551
 31
0.0
  0
ARC
  5
4C
330
1F
100
AcDbEntity
  8
WOOD C - 2D
 62
     7
100
AcDbCircle
 10
6.573608041190955
 20
60.57441558839578
 30
0.0
 40
0.565294505064434
100
AcDbArc
 50
344.2680660646085
 51
158.1351465624995
  0
LINE
  5
4D
330
1F
100
AcDbEntity
  8
WOOD C - 2D
 62
     7
100
AcDbLine
 10
6.048978064923958
 20
60.78494175175354
 30
0.0
 11
5.607051752197119
 21
59.68366394732384
 31
0.0
  0
LINE
  5
4E
330
1F
100
AcDbEntity
  8
WOOD C - 2D
 62
     7
100
AcDbLine
 10
6.970308539881021
 20
43.72492325240599
 30
0.0
 11
7.113211489180568
 21
43.58159122458478
 31
0.0
  0
ARC
  5
4F
330
1F
100
AcDbEntity
  8
WOOD C - 2D
 62
     7
100
AcDbCircle
 10
7.513513111561233
 20
43.98069450469006
 30
0.0
 40
0.5652652625727066
100
AcDbArc
 50
224.9141112305559
 51
33.8616228398864
  0
LINE
  5
50
330
1F
100
AcDbEntity
  8
WOOD C - 2D
 62
     7
100
AcDbLine
 10
7.982901291513666
 20
44.29565411097686
 30
0.0
 11
7.842583785995866
 21
44.50477101744927
 31
0.0
  0
SPLINE
  5
51
330
1F
100
AcDbEntity
  8
WOOD C - 2D
 62
     7
100
AcDbSpline
210
0.0
220
0.0
230
1.0
 70
    12
 71
     2
 72
     6
 73
     3
 74
     0
 42
0.0000000001
 43
0.0000000001
 40
0.0
 40
0.0
 40
0.0
 40
1.229677862788656
 40
1.229677862788656
 40
1.229677862788656
 10
-4.899134920538078
 20
21.30039047090808
 30
0.0
 41
1.0
 10
-4.922962535067965
 20
20.68601338811682
 30
0.0
 41
0.9999999136665152
 10
-4.946279554561608
 20
20.07161671521304
 30
0.0
 41
1.0
  0
SPLINE
  5
52
330
1F
100
AcDbEntity
  8
WOOD C - 2D
 62
     7
100
AcDbSpline
210
0.0
220
0.0
230
1.0
 70
    12
 71
     2
 72
     6
 73
     3
 74
     0
 42
0.0000000001
 43
0.0000000001
 40
0.0
 40
0.0
 40
0.0
 40
0.2799988140802021
 40
0.2799988140802021
 40
0.2799988140802021
 10
-4.946279554561608
 20
20.07161671521304
 30
0.0
 41
1.0
 10
-4.955539843825185
 20
19.8952211018673
 30
0.0
 41
0.7160266834546261
 10
-5.13211370230854
 20
19.89999999976979
 30
0.0
 41
1.0
  0
SPLINE
  5
53
330
1F
100
AcDbEntity
  8
WOOD C - 2D
 62
     7
100
AcDbSpline
210
0.0
220
0.0
230
1.0
 70
    24
 71
     2
 72
     6
 73
     3
 74
     0
 42
0.0000000001
 43
0.0000000001
 40
-0.2597790995427971
 40
-0.2597790995427971
 40
-0.2597790995427971
 40
0.0
 40
0.0
 40
0.0
 10
-5.13211370230854
 20
19.89999999976979
 30
0.0
 10
-5.262003252079938
 20
19.89999999978905
 30
0.0
 10
-5.391892801851337
 20
19.8999999998083
 30
0.0
  0
SPLINE
  5
54
330
1F
100
AcDbEntity
  8
WOOD C - 2D
 62
     7
100
AcDbSpline
210
0.0
220
0.0
230
1.0
 70
    12
 71
     2
 72
     6
 73
     3
 74
     0
 42
0.0000000001
 43
0.0000000001
 40
0.0
 40
0.0
 40
0.0
 40
0.1854774905091682
 40
0.1854774905091682
 40
0.1854774905091682
 10
-6.948457317954578
 20
0.3646066381366577
 30
0.0
 41
1.0
 10
-6.958448854888654
 20
0.2500000001120612
 30
0.0
 41
0.7371793488019296
 10
-7.073023606785426
 20
0.2499999999999938
 30
0.0
 41
1.0
  0
SPLINE
  5
55
330
1F
100
AcDbEntity
  8
WOOD C - 2D
 62
     7
100
AcDbSpline
210
0.0
220
0.0
230
1.0
 70
    24
 71
     2
 72
     6
 73
     3
 74
     0
 42
0.0000000001
 43
0.0000000001
 40
-0.8759608554699443
 40
-0.8759608554699443
 40
-0.8759608554699443
 40
0.0
 40
0.0
 40
0.0
 10
-7.073023606785426
 20
0.2499999999999938
 30
0.0
 10
-7.512101141495956
 20
0.2499999999999938
 30
0.0
 10
-7.951178676206487
 20
0.2499999999999937
 30
0.0
  0
SPLINE
  5
56
330
1F
100
AcDbEntity
  8
WOOD C - 2D
 62
     7
100
AcDbSpline
210
0.0
220
0.0
230
1.0
 70
    12
 71
     2
 72
     8
 73
     5
 74
     0
 42
0.0000000001
 43
0.0000000001
 40
0.0
 40
0.0
 40
0.0
 40
0.1021495468121429
 40
0.1021495468121429
 40
0.2042990936242858
 40
0.2042990936242858
 40
0.2042990936242858
 10
-7.951178676206487
 20
0.2499999999999937
 30
0.0
 41
1.0
 10
-8.007493589805426
 20
0.2499999999408752
 30
0.0
 41
0.9176786970035329
 10
-8.044526673422126
 20
0.289466452127614
 30
0.0
 41
1.0
 10
-8.081559757038827
 20
0.3289329043143528
 30
0.0
 41
0.9176786970035329
 10
-8.078120193794987
 20
0.3829441951252686
 30
0.0
 41
1.0
  0
SPLINE
  5
57
330
1F
100
AcDbEntity
  8
WOOD C - 2D
 62
     7
100
AcDbSpline
210
0.0
220
0.0
230
1.0
 70
    24
 71
     2
 72
     6
 73
     3
 74
     0
 42
0.0000000001
 43
0.0000000001
 40
-22.00302442447649
 40
-22.00302442447649
 40
-22.00302442447649
 40
0.0
 40
0.0
 40
0.0
 10
-8.078120193794987
 20
0.3829441951252686
 30
0.0
 10
-7.378930838498055
 20
11.36221581037674
 30
0.0
 10
-6.679741483201123
 20
22.34148742562822
 30
0.0
  0
ARC
  5
58
330
1F
100
AcDbEntity
  8
WOOD C - 2D
 62
     7
100
AcDbCircle
 10
-6.849381472367373
 20
19.71380421801238
 30
0.0
 40
2.633153388147103
100
AcDbArc
 50
52.34110921083687
 51
86.30618114453617
  0
SPLINE
  5
59
330
1F
100
AcDbEntity
  8
WOOD C - 2D
 62
     7
100
AcDbSpline
210
0.0
220
0.0
230
1.0
 70
    24
 71
     2
 72
     6
 73
     3
 74
     0
 42
0.0000000001
 43
0.0000000001
 40
-21.50123011994587
 40
-21.50123011994587
 40
-21.50123011994587
 40
0.0
 40
0.0
 40
0.0
 10
-5.240632219096841
 20
21.7983719443317
 30
0.0
 10
-6.09454476852571
 20
11.08148929123418
 30
0.0
 10
-6.948457317954578
 20
0.3646066381366577
 30
0.0
  0
SPLINE
  5
5A
330
1F
100
AcDbEntity
  8
WOOD C - 2D
 62
     7
100
AcDbSpline
210
0.0
220
0.0
230
1.0
 70
    24
 71
     2
 72
     6
 73
     3
 74
     0
 42
0.0000000001
 43
0.0000000001
 40
0.0
 40
0.0
 40
0.0
 40
0.6658081744361171
 40
0.6658081744361171
 40
0.6658081744361171
 10
-5.744275448233309
 20
11.38550000029871
 30
0.0
 10
-5.764171602168093
 20
11.05319099598933
 30
0.0
 10
-5.784067756102877
 20
10.72088199167995
 30
0.0
  0
SPLINE
  5
5B
330
1F
100
AcDbEntity
  8
WOOD C - 2D
 62
     7
100
AcDbSpline
210
0.0
220
0.0
230
1.0
 70
     8
 71
     3
 72
     8
 73
     4
 74
     0
 42
0.0000000001
 43
0.0000000001
 40
0.0
 40
0.0
 40
0.0
 40
0.0
 40
1.0
 40
1.0
 40
1.0
 40
1.0
 10
-5.784067756102877
 20
10.72088199167995
 30
0.0
 10
-5.804327416855529
 20
10.38250163362547
 30
0.0
 10
-5.393628200674559
 20
10.42806437190118
 30
0.0
 10
-5.373368539921809
 20
10.76644472995564
 30
0.0
  0
SPLINE
  5
5C
330
1F
100
AcDbEntity
  8
WOOD C - 2D
 62
     7
100
AcDbSpline
210
0.0
220
0.0
230
1.0
 70
    24
 71
     2
 72
     6
 73
     3
 74
     0
 42
0.0000000001
 43
0.0000000001
 40
0.0
 40
0.0
 40
0.0
 40
0.6201638443109704
 40
0.6201638443109704
 40
0.6201638443109704
 10
-5.373368539921809
 20
10.76644472995564
 30
0.0
 10
-5.352192706015996
 20
11.07597236497847
 30
0.0
 10
-5.331016872110185
 20
11.38550000000129
 30
0.0
  0
SPLINE
  5
5D
330
1F
100
AcDbEntity
  8
WOOD C - 2D
 62
     7
100
AcDbSpline
210
0.0
220
0.0
230
1.0
 70
    24
 71
     2
 72
     6
 73
     3
 74
     0
 42
0.0000000001
 43
0.0000000001
 40
-11.03945383357713
 40
-11.03945383357713
 40
-11.03945383357713
 40
0.0
 40
0.0
 40
0.0
 10
-5.331016872110185
 20
11.38550000000129
 30
0.0
 10
-5.670362931907933
 20
5.876377722363323
 30
0.0
 10
-6.009708991705682
 20
0.3672554447253518
 30
0.0
  0
SPLINE
  5
5E
330
1F
100
AcDbEntity
  8
WOOD C - 2D
 62
     7
100
AcDbSpline
210
0.0
220
0.0
230
1.0
 70
    12
 71
     2
 72
     6
 73
     3
 74
     0
 42
0.0000000001
 43
0.0000000001
 40
0.0
 40
0.0
 40
0.0
 40
0.1886000222161205
 40
0.1886000222161205
 40
0.1886000222161205
 10
-6.009708991705682
 20
0.3672554447253518
 30
0.0
 41
1.0
 10
-6.016987705501516
 20
0.2500000001588937
 30
0.0
 41
0.7286825251229204
 10
-6.134468848477736
 20
0.2499999999999897
 30
0.0
 41
1.0
  0
LINE
  5
5F
330
1F
100
AcDbEntity
  8
WOOD C - 2D
 62
     7
100
AcDbLine
 10
-6.134468848477736
 20
0.2499999999999897
 30
0.0
 11
-7.073023606785426
 21
0.2499999999999897
 31
0.0
  0
SPLINE
  5
60
330
1F
100
AcDbEntity
  8
WOOD C - 2D
 62
     7
100
AcDbSpline
210
0.0
220
0.0
230
1.0
 70
    24
 71
     2
 72
     6
 73
     3
 74
     0
 42
0.0000000001
 43
0.0000000001
 40
-9.510461757175918
 40
-9.510461757175918
 40
-9.510461757175918
 40
0.0
 40
0.0
 40
0.0
 10
-4.713204125602036
 20
21.25269001718034
 30
0.0
 10
-5.010677739154574
 20
16.50659500859082
 30
0.0
 10
-5.308151352707112
 20
11.7605000000013
 30
0.0
  0
SPLINE
  5
61
330
1F
100
AcDbEntity
  8
WOOD C - 2D
 62
     7
100
AcDbSpline
210
0.0
220
0.0
230
1.0
 70
    24
 71
     2
 72
     6
 73
     3
 74
     0
 42
0.0000000001
 43
0.0000000001
 40
0.0
 40
0.0
 40
0.0
 40
0.6078518697588824
 40
0.6078518697588824
 40
0.6078518697588824
 10
-5.308151352707112
 20
11.7605000000013
 30
0.0
 10
-5.292837422179231
 20
12.06388265188568
 30
0.0
 10
-5.27752349165135
 20
12.36726530377007
 30
0.0
  0
SPLINE
  5
62
330
1F
100
AcDbEntity
  8
WOOD C - 2D
 62
     7
100
AcDbSpline
210
0.0
220
0.0
230
1.0
 70
     8
 71
     3
 72
     8
 73
     4
 74
     0
 42
0.0000000001
 43
0.0000000001
 40
0.0
 40
0.0
 40
0.0
 40
0.0
 40
1.0
 40
1.0
 40
1.0
 40
1.0
 10
-5.27752349165135
 20
12.36726530377007
 30
0.0
 10
-5.257263830853857
 20
12.70564566257182
 30
0.0
 10
-5.667963046947564
 20
12.66008292576494
 30
0.0
 10
-5.688222707744958
 20
12.32170256696316
 30
0.0
  0
SPLINE
  5
63
330
1F
100
AcDbEntity
  8
WOOD C - 2D
 62
     7
100
AcDbSpline
210
0.0
220
0.0
230
1.0
 70
    24
 71
     2
 72
     6
 73
     3
 74
     0
 42
0.0000000001
 43
0.0000000001
 40
0.0
 40
0.0
 40
0.0
 40
0.5622075414043417
 40
0.5622075414043417
 40
0.5622075414043417
 10
-5.688222707744958
 20
12.32170256696316
 30
0.0
 10
-5.705022993798146
 20
12.04110128348158
 30
0.0
 10
-5.721823279851334
 20
11.7605
 30
0.0
  0
SPLINE
  5
64
330
1F
100
AcDbEntity
  8
WOOD C - 2D
 62
     7
100
AcDbSpline
210
0.0
220
0.0
230
1.0
 70
    24
 71
     2
 72
     6
 73
     3
 74
     0
 42
0.0000000001
 43
0.0000000001
 40
0.0
 40
0.0
 40
0.0
 40
0.0300000000000114
 40
0.0300000000000114
 40
0.0300000000000114
 10
-6.259468848476081
 20
0.2500000000000111
 30
0.0
 10
-6.259421795026069
 20
0.2350000000000055
 30
0.0
 10
-6.259374741576056
 20
0.22
 30
0.0
  0
SPLINE
  5
65
330
1F
100
AcDbEntity
  8
WOOD C - 2D
 62
     7
100
AcDbSpline
210
0.0
220
0.0
230
1.0
 70
    12
 71
     2
 72
     6
 73
     3
 74
     0
 42
0.0000000001
 43
0.0000000001
 40
0.0
 40
0.0
 40
0.0
 40
0.345669972327309
 40
0.345669972327309
 40
0.345669972327309
 10
-6.259374741576056
 20
0.22
 30
0.0
 41
0.9999999292147955
 10
-6.259368590411452
 20
-0.0000445713233375
 30
0.0
 41
0.7071764599755743
 10
-6.479413229529681
 20
-0.0000000000000001
 30
0.0
 41
1.0
  0
SPLINE
  5
66
330
1F
100
AcDbEntity
  8
WOOD C - 2D
 62
     7
100
AcDbSpline
210
0.0
220
0.0
230
1.0
 70
    28
 71
     3
 72
    11
 73
     7
 74
     0
 42
0.0000000001
 43
0.0000000001
 40
0.2905879006863338
 40
0.2905879006863338
 40
0.2905879006863338
 40
0.2905879006863338
 40
0.360855055816824
 40
0.4359674363783028
 40
0.5062873543680539
 40
0.5811758012481886
 40
0.5811758012481886
 40
0.5811758012481886
 40
0.5811758012481886
 10
-6.479413229529681
 20
-0.0000000000000001
 30
0.0
 41
1.0
 10
-6.479379297172976
 20
0.0
 30
0.0
 41
1.0
 10
-6.49863790878293
 20
0.0
 30
0.0
 41
1.0
 10
-6.570191959364883
 20
0.0
 30
0.0
 41
1.0
 10
-6.643546181704882
 20
0.0
 30
0.0
 41
1.0
 10
-6.664516218547506
 20
0.0
 30
0.0
 41
1.0
 10
-6.664469465220599
 20
0.0000000000003562
 30
0.0
 41
1.0
  0
SPLINE
  5
67
330
1F
100
AcDbEntity
  8
WOOD C - 2D
 62
     7
100
AcDbSpline
210
0.0
220
0.0
230
1.0
 70
    12
 71
     2
 72
     6
 73
     3
 74
     0
 42
0.0000000001
 43
0.0000000001
 40
0.0
 40
0.0
 40
0.0
 40
0.3455711248857526
 40
0.3455711248857526
 40
0.3455711248857526
 10
-6.664469465220599
 20
0.0000000000003562
 30
0.0
 41
1.0
 10
-6.884459016881238
 20
0.0000111592056063
 30
0.0
 41
0.7071446835470864
 10
-6.884469986240066
 20
0.2199999999999998
 30
0.0
 41
0.9999999998452085
  0
SPLINE
  5
68
330
1F
100
AcDbEntity
  8
WOOD C - 2D
 62
     7
100
AcDbSpline
210
0.0
220
0.0
230
1.0
 70
    24
 71
     2
 72
     6
 73
     3
 74
     0
 42
0.0000000001
 43
0.0000000001
 40
0.0
 40
0.0
 40
0.0
 40
0.0300000000000114
 40
0.0300000000000114
 40
0.0300000000000114
 10
-6.884469986240066
 20
0.2199999999999998
 30
0.0
 10
-6.884469258339878
 20
0.2350000000000054
 30
0.0
 10
-6.88446853043969
 20
0.2500000000000111
 30
0.0
  0
SPLINE
  5
69
330
1F
100
AcDbEntity
  8
WOOD C - 2D
 62
     7
100
AcDbSpline
210
0.0
220
0.0
230
1.0
 70
    24
 71
     2
 72
     6
 73
     3
 74
     0
 42
0.0000000001
 43
0.0000000001
 40
0.0
 40
0.0
 40
0.0
 40
0.0300000000000114
 40
0.0300000000000114
 40
0.0300000000000114
 10
-7.19802360544455
 20
0.2500000000000111
 30
0.0
 10
-7.197976551994537
 20
0.2350000000000055
 30
0.0
 10
-7.197929498544524
 20
0.22
 30
0.0
  0
SPLINE
  5
6A
330
1F
100
AcDbEntity
  8
WOOD C - 2D
 62
     7
100
AcDbSpline
210
0.0
220
0.0
230
1.0
 70
    12
 71
     2
 72
     6
 73
     3
 74
     0
 42
0.0000000001
 43
0.0000000001
 40
0.0
 40
0.0
 40
0.0
 40
0.3456699723273127
 40
0.3456699723273127
 40
0.3456699723273127
 10
-7.197929498544524
 20
0.22
 30
0.0
 41
0.9999999292147955
 10
-7.197923347379916
 20
-0.0000445713233432
 30
0.0
 41
0.7071764599755596
 10
-7.41796798649815
 20
-0.0000000000000003
 30
0.0
 41
1.0
  0
SPLINE
  5
6B
330
1F
100
AcDbEntity
  8
WOOD C - 2D
 62
     7
100
AcDbSpline
210
0.0
220
0.0
230
1.0
 70
    28
 71
     3
 72
    11
 73
     7
 74
     0
 42
0.0000000001
 43
0.0000000001
 40
0.2905879006863338
 40
0.2905879006863338
 40
0.2905879006863338
 40
0.2905879006863338
 40
0.3608550558238112
 40
0.4359674363918143
 40
0.5062873543876737
 40
0.5811758012481886
 40
0.5811758012481886
 40
0.5811758012481886
 40
0.5811758012481886
 10
-7.41796798649815
 20
-0.0000000000000003
 30
0.0
 41
1.0
 10
-7.41793405414121
 20
0.0
 30
0.0
 41
1.0
 10
-7.437192665751104
 20
0.0
 30
0.0
 41
1.0
 10
-7.508746716333351
 20
0.0
 30
0.0
 41
1.0
 10
-7.582100938664652
 20
0.0
 30
0.0
 41
1.0
 10
-7.603070975508429
 20
0.0
 30
0.0
 41
1.0
 10
-7.603024222189117
 20
0.0000000000003562
 30
0.0
 41
1.0
  0
SPLINE
  5
6C
330
1F
100
AcDbEntity
  8
WOOD C - 2D
 62
     7
100
AcDbSpline
210
0.0
220
0.0
230
1.0
 70
    12
 71
     2
 72
     6
 73
     3
 74
     0
 42
0.0000000001
 43
0.0000000001
 40
0.0
 40
0.0
 40
0.0
 40
0.3455711248856457
 40
0.3455711248856457
 40
0.3455711248856457
 10
-7.603024222189117
 20
0.0000000000003562
 30
0.0
 41
1.0
 10
-7.823013773849689
 20
0.0000111592057231
 30
0.0
 41
0.707144683547302
 10
-7.823024743208534
 20
0.2199999999999998
 30
0.0
 41
0.9999999998452085
  0
SPLINE
  5
6D
330
1F
100
AcDbEntity
  8
WOOD C - 2D
 62
     7
100
AcDbSpline
210
0.0
220
0.0
230
1.0
 70
    24
 71
     2
 72
     6
 73
     3
 74
     0
 42
0.0000000001
 43
0.0000000001
 40
0.0
 40
0.0
 40
0.0
 40
0.0300000000000114
 40
0.0300000000000114
 40
0.0300000000000114
 10
-7.823024743208534
 20
0.2199999999999998
 30
0.0
 10
-7.823024015308346
 20
0.2350000000000054
 30
0.0
 10
-7.823023287408158
 20
0.2500000000000111
 30
0.0
  0
SPLINE
  5
6E
330
1F
100
AcDbEntity
  8
WOOD C - 2D
 62
     7
100
AcDbSpline
210
0.0
220
0.0
230
1.0
 70
    12
 71
     2
 72
     6
 73
     3
 74
     0
 42
0.0000000001
 43
0.0000000001
 40
0.0
 40
0.0
 40
0.0
 40
1.229677862788656
 40
1.229677862788656
 40
1.229677862788656
 10
4.899134920538078
 20
21.30039047090808
 30
0.0
 41
1.0
 10
4.922962535067965
 20
20.68601338811682
 30
0.0
 41
0.9999999136665152
 10
4.946279554561608
 20
20.07161671521304
 30
0.0
 41
1.0
  0
SPLINE
  5
6F
330
1F
100
AcDbEntity
  8
WOOD C - 2D
 62
     7
100
AcDbSpline
210
0.0
220
0.0
230
1.0
 70
    12
 71
     2
 72
     6
 73
     3
 74
     0
 42
0.0000000001
 43
0.0000000001
 40
0.0
 40
0.0
 40
0.0
 40
0.2799988140802021
 40
0.2799988140802021
 40
0.2799988140802021
 10
4.946279554561608
 20
20.07161671521304
 30
0.0
 41
1.0
 10
4.955539843825185
 20
19.8952211018673
 30
0.0
 41
0.7160266834546261
 10
5.13211370230854
 20
19.89999999976979
 30
0.0
 41
1.0
  0
SPLINE
  5
70
330
1F
100
AcDbEntity
  8
WOOD C - 2D
 62
     7
100
AcDbSpline
210
0.0
220
0.0
230
1.0
 70
    24
 71
     2
 72
     6
 73
     3
 74
     0
 42
0.0000000001
 43
0.0000000001
 40
-0.2597790995427971
 40
-0.2597790995427971
 40
-0.2597790995427971
 40
0.0
 40
0.0
 40
0.0
 10
5.13211370230854
 20
19.89999999976979
 30
0.0
 10
5.262003252079938
 20
19.89999999978905
 30
0.0
 10
5.391892801851337
 20
19.8999999998083
 30
0.0
  0
SPLINE
  5
71
330
1F
100
AcDbEntity
  8
WOOD C - 2D
 62
     7
100
AcDbSpline
210
0.0
220
0.0
230
1.0
 70
    12
 71
     2
 72
     6
 73
     3
 74
     0
 42
0.0000000001
 43
0.0000000001
 40
0.0
 40
0.0
 40
0.0
 40
0.1854774905091682
 40
0.1854774905091682
 40
0.1854774905091682
 10
6.948457317954578
 20
0.3646066381366577
 30
0.0
 41
1.0
 10
6.958448854888654
 20
0.2500000001120612
 30
0.0
 41
0.7371793488019296
 10
7.073023606785426
 20
0.2499999999999938
 30
0.0
 41
1.0
  0
SPLINE
  5
72
330
1F
100
AcDbEntity
  8
WOOD C - 2D
 62
     7
100
AcDbSpline
210
0.0
220
0.0
230
1.0
 70
    24
 71
     2
 72
     6
 73
     3
 74
     0
 42
0.0000000001
 43
0.0000000001
 40
-0.8759608554699443
 40
-0.8759608554699443
 40
-0.8759608554699443
 40
0.0
 40
0.0
 40
0.0
 10
7.073023606785426
 20
0.2499999999999938
 30
0.0
 10
7.512101141495956
 20
0.2499999999999938
 30
0.0
 10
7.951178676206487
 20
0.2499999999999937
 30
0.0
  0
SPLINE
  5
73
330
1F
100
AcDbEntity
  8
WOOD C - 2D
 62
     7
100
AcDbSpline
210
0.0
220
0.0
230
1.0
 70
    12
 71
     2
 72
     8
 73
     5
 74
     0
 42
0.0000000001
 43
0.0000000001
 40
0.0
 40
0.0
 40
0.0
 40
0.1021495468121429
 40
0.1021495468121429
 40
0.2042990936242858
 40
0.2042990936242858
 40
0.2042990936242858
 10
7.951178676206487
 20
0.2499999999999937
 30
0.0
 41
1.0
 10
8.007493589805426
 20
0.2499999999408752
 30
0.0
 41
0.9176786970035329
 10
8.044526673422126
 20
0.289466452127614
 30
0.0
 41
1.0
 10
8.081559757038827
 20
0.3289329043143528
 30
0.0
 41
0.9176786970035329
 10
8.078120193794987
 20
0.3829441951252686
 30
0.0
 41
1.0
  0
SPLINE
  5
74
330
1F
100
AcDbEntity
  8
WOOD C - 2D
 62
     7
100
AcDbSpline
210
0.0
220
0.0
230
1.0
 70
    24
 71
     2
 72
     6
 73
     3
 74
     0
 42
0.0000000001
 43
0.0000000001
 40
-22.00302442447649
 40
-22.00302442447649
 40
-22.00302442447649
 40
0.0
 40
0.0
 40
0.0
 10
8.078120193794987
 20
0.3829441951252686
 30
0.0
 10
7.378930838498055
 20
11.36221581037674
 30
0.0
 10
6.679741483201123
 20
22.34148742562822
 30
0.0
  0
ARC
  5
75
330
1F
100
AcDbEntity
  8
WOOD C - 2D
 62
     7
100
AcDbCircle
 10
6.849381472367373
 20
19.71380421801238
 30
0.0
 40
2.633153388147103
100
AcDbArc
 50
93.69381885546385
 51
127.6588907891632
  0
SPLINE
  5
76
330
1F
100
AcDbEntity
  8
WOOD C - 2D
 62
     7
100
AcDbSpline
210
0.0
220
0.0
230
1.0
 70
    24
 71
     2
 72
     6
 73
     3
 74
     0
 42
0.0000000001
 43
0.0000000001
 40
-21.50123011994587
 40
-21.50123011994587
 40
-21.50123011994587
 40
0.0
 40
0.0
 40
0.0
 10
5.240632219096841
 20
21.7983719443317
 30
0.0
 10
6.09454476852571
 20
11.08148929123418
 30
0.0
 10
6.948457317954578
 20
0.3646066381366577
 30
0.0
  0
SPLINE
  5
77
330
1F
100
AcDbEntity
  8
WOOD C - 2D
 62
     7
100
AcDbSpline
210
0.0
220
0.0
230
1.0
 70
    24
 71
     2
 72
     6
 73
     3
 74
     0
 42
0.0000000001
 43
0.0000000001
 40
0.0
 40
0.0
 40
0.0
 40
0.6658081744361171
 40
0.6658081744361171
 40
0.6658081744361171
 10
5.744275448233309
 20
11.38550000029871
 30
0.0
 10
5.764171602168093
 20
11.05319099598933
 30
0.0
 10
5.784067756102877
 20
10.72088199167995
 30
0.0
  0
SPLINE
  5
78
330
1F
100
AcDbEntity
  8
WOOD C - 2D
 62
     7
100
AcDbSpline
210
0.0
220
0.0
230
1.0
 70
     8
 71
     3
 72
     8
 73
     4
 74
     0
 42
0.0000000001
 43
0.0000000001
 40
0.0
 40
0.0
 40
0.0
 40
0.0
 40
1.0
 40
1.0
 40
1.0
 40
1.0
 10
5.784067756102877
 20
10.72088199167995
 30
0.0
 10
5.804327416855529
 20
10.38250163362547
 30
0.0
 10
5.393628200674559
 20
10.42806437190118
 30
0.0
 10
5.373368539921809
 20
10.76644472995564
 30
0.0
  0
SPLINE
  5
79
330
1F
100
AcDbEntity
  8
WOOD C - 2D
 62
     7
100
AcDbSpline
210
0.0
220
0.0
230
1.0
 70
    24
 71
     2
 72
     6
 73
     3
 74
     0
 42
0.0000000001
 43
0.0000000001
 40
0.0
 40
0.0
 40
0.0
 40
0.6201638443109704
 40
0.6201638443109704
 40
0.6201638443109704
 10
5.373368539921809
 20
10.76644472995564
 30
0.0
 10
5.352192706015996
 20
11.07597236497847
 30
0.0
 10
5.331016872110185
 20
11.38550000000129
 30
0.0
  0
SPLINE
  5
7A
330
1F
100
AcDbEntity
  8
WOOD C - 2D
 62
     7
100
AcDbSpline
210
0.0
220
0.0
230
1.0
 70
    24
 71
     2
 72
     6
 73
     3
 74
     0
 42
0.0000000001
 43
0.0000000001
 40
-11.03945383357713
 40
-11.03945383357713
 40
-11.03945383357713
 40
0.0
 40
0.0
 40
0.0
 10
5.331016872110185
 20
11.38550000000129
 30
0.0
 10
5.670362931907933
 20
5.876377722363323
 30
0.0
 10
6.009708991705682
 20
0.3672554447253518
 30
0.0
  0
SPLINE
  5
7B
330
1F
100
AcDbEntity
  8
WOOD C - 2D
 62
     7
100
AcDbSpline
210
0.0
220
0.0
230
1.0
 70
    12
 71
     2
 72
     6
 73
     3
 74
     0
 42
0.0000000001
 43
0.0000000001
 40
0.0
 40
0.0
 40
0.0
 40
0.1886000222161205
 40
0.1886000222161205
 40
0.1886000222161205
 10
6.009708991705682
 20
0.3672554447253518
 30
0.0
 41
1.0
 10
6.016987705501516
 20
0.2500000001588937
 30
0.0
 41
0.7286825251229204
 10
6.134468848477736
 20
0.2499999999999897
 30
0.0
 41
1.0
  0
LINE
  5
7C
330
1F
100
AcDbEntity
  8
WOOD C - 2D
 62
     7
100
AcDbLine
 10
6.134468848477736
 20
0.2499999999999897
 30
0.0
 11
7.073023606785426
 21
0.2499999999999897
 31
0.0
  0
SPLINE
  5
7D
330
1F
100
AcDbEntity
  8
WOOD C - 2D
 62
     7
100
AcDbSpline
210
0.0
220
0.0
230
1.0
 70
    24
 71
     2
 72
     6
 73
     3
 74
     0
 42
0.0000000001
 43
0.0000000001
 40
-9.510461757175918
 40
-9.510461757175918
 40
-9.510461757175918
 40
0.0
 40
0.0
 40
0.0
 10
4.713204125602036
 20
21.25269001718034
 30
0.0
 10
5.010677739154574
 20
16.50659500859082
 30
0.0
 10
5.308151352707112
 20
11.7605000000013
 30
0.0
  0
SPLINE
  5
7E
330
1F
100
AcDbEntity
  8
WOOD C - 2D
 62
     7
100
AcDbSpline
210
0.0
220
0.0
230
1.0
 70
    24
 71
     2
 72
     6
 73
     3
 74
     0
 42
0.0000000001
 43
0.0000000001
 40
0.0
 40
0.0
 40
0.0
 40
0.6078518697588824
 40
0.6078518697588824
 40
0.6078518697588824
 10
5.308151352707112
 20
11.7605000000013
 30
0.0
 10
5.292837422179231
 20
12.06388265188568
 30
0.0
 10
5.27752349165135
 20
12.36726530377007
 30
0.0
  0
SPLINE
  5
7F
330
1F
100
AcDbEntity
  8
WOOD C - 2D
 62
     7
100
AcDbSpline
210
0.0
220
0.0
230
1.0
 70
     8
 71
     3
 72
     8
 73
     4
 74
     0
 42
0.0000000001
 43
0.0000000001
 40
0.0
 40
0.0
 40
0.0
 40
0.0
 40
1.0
 40
1.0
 40
1.0
 40
1.0
 10
5.27752349165135
 20
12.36726530377007
 30
0.0
 10
5.257263830853857
 20
12.70564566257182
 30
0.0
 10
5.667963046947564
 20
12.66008292576494
 30
0.0
 10
5.688222707744958
 20
12.32170256696316
 30
0.0
  0
SPLINE
  5
80
330
1F
100
AcDbEntity
  8
WOOD C - 2D
 62
     7
100
AcDbSpline
210
0.0
220
0.0
230
1.0
 70
    24
 71
     2
 72
     6
 73
     3
 74
     0
 42
0.0000000001
 43
0.0000000001
 40
0.0
 40
0.0
 40
0.0
 40
0.5622075414043417
 40
0.5622075414043417
 40
0.5622075414043417
 10
5.688222707744958
 20
12.32170256696316
 30
0.0
 10
5.705022993798146
 20
12.04110128348158
 30
0.0
 10
5.721823279851334
 20
11.7605
 30
0.0
  0
SPLINE
  5
81
330
1F
100
AcDbEntity
  8
WOOD C - 2D
 62
     7
100
AcDbSpline
210
0.0
220
0.0
230
1.0
 70
    24
 71
     2
 72
     6
 73
     3
 74
     0
 42
0.0000000001
 43
0.0000000001
 40
0.0
 40
0.0
 40
0.0
 40
0.0300000000000114
 40
0.0300000000000114
 40
0.0300000000000114
 10
6.259468848476081
 20
0.2500000000000111
 30
0.0
 10
6.259421795026069
 20
0.2350000000000055
 30
0.0
 10
6.259374741576056
 20
0.22
 30
0.0
  0
SPLINE
  5
82
330
1F
100
AcDbEntity
  8
WOOD C - 2D
 62
     7
100
AcDbSpline
210
0.0
220
0.0
230
1.0
 70
    12
 71
     2
 72
     6
 73
     3
 74
     0
 42
0.0000000001
 43
0.0000000001
 40
0.0
 40
0.0
 40
0.0
 40
0.345669972327309
 40
0.345669972327309
 40
0.345669972327309
 10
6.259374741576056
 20
0.22
 30
0.0
 41
0.9999999292147955
 10
6.259368590411452
 20
-0.0000445713233375
 30
0.0
 41
0.7071764599755743
 10
6.479413229529681
 20
-0.0000000000000001
 30
0.0
 41
1.0
  0
SPLINE
  5
83
330
1F
100
AcDbEntity
  8
WOOD C - 2D
 62
     7
100
AcDbSpline
210
0.0
220
0.0
230
1.0
 70
    28
 71
     3
 72
    11
 73
     7
 74
     0
 42
0.0000000001
 43
0.0000000001
 40
0.2905879006863338
 40
0.2905879006863338
 40
0.2905879006863338
 40
0.2905879006863338
 40
0.360855055816824
 40
0.4359674363783028
 40
0.5062873543680539
 40
0.5811758012481886
 40
0.5811758012481886
 40
0.5811758012481886
 40
0.5811758012481886
 10
6.479413229529681
 20
-0.0000000000000001
 30
0.0
 41
1.0
 10
6.479379297172976
 20
0.0
 30
0.0
 41
1.0
 10
6.49863790878293
 20
0.0
 30
0.0
 41
1.0
 10
6.570191959364883
 20
0.0
 30
0.0
 41
1.0
 10
6.643546181704882
 20
0.0
 30
0.0
 41
1.0
 10
6.664516218547506
 20
0.0
 30
0.0
 41
1.0
 10
6.664469465220599
 20
0.0000000000003562
 30
0.0
 41
1.0
  0
SPLINE
  5
84
330
1F
100
AcDbEntity
  8
WOOD C - 2D
 62
     7
100
AcDbSpline
210
0.0
220
0.0
230
1.0
 70
    12
 71
     2
 72
     6
 73
     3
 74
     0
 42
0.0000000001
 43
0.0000000001
 40
0.0
 40
0.0
 40
0.0
 40
0.3455711248857526
 40
0.3455711248857526
 40
0.3455711248857526
 10
6.664469465220599
 20
0.0000000000003562
 30
0.0
 41
1.0
 10
6.884459016881238
 20
0.0000111592056063
 30
0.0
 41
0.7071446835470864
 10
6.884469986240066
 20
0.2199999999999998
 30
0.0
 41
0.9999999998452085
  0
SPLINE
  5
85
330
1F
100
AcDbEntity
  8
WOOD C - 2D
 62
     7
100
AcDbSpline
210
0.0
220
0.0
230
1.0
 70
    24
 71
     2
 72
     6
 73
     3
 74
     0
 42
0.0000000001
 43
0.0000000001
 40
0.0
 40
0.0
 40
0.0
 40
0.0300000000000114
 40
0.0300000000000114
 40
0.0300000000000114
 10
6.884469986240066
 20
0.2199999999999998
 30
0.0
 10
6.884469258339878
 20
0.2350000000000054
 30
0.0
 10
6.88446853043969
 20
0.2500000000000111
 30
0.0
  0
SPLINE
  5
86
330
1F
100
AcDbEntity
  8
WOOD C - 2D
 62
     7
100
AcDbSpline
210
0.0
220
0.0
230
1.0
 70
    24
 71
     2
 72
     6
 73
     3
 74
     0
 42
0.0000000001
 43
0.0000000001
 40
0.0
 40
0.0
 40
0.0
 40
0.0300000000000114
 40
0.0300000000000114
 40
0.0300000000000114
 10
7.19802360544455
 20
0.2500000000000111
 30
0.0
 10
7.197976551994537
 20
0.2350000000000055
 30
0.0
 10
7.197929498544524
 20
0.22
 30
0.0
  0
SPLINE
  5
87
330
1F
100
AcDbEntity
  8
WOOD C - 2D
 62
     7
100
AcDbSpline
210
0.0
220
0.0
230
1.0
 70
    12
 71
     2
 72
     6
 73
     3
 74
     0
 42
0.0000000001
 43
0.0000000001
 40
0.0
 40
0.0
 40
0.0
 40
0.3456699723273127
 40
0.3456699723273127
 40
0.3456699723273127
 10
7.197929498544524
 20
0.22
 30
0.0
 41
0.9999999292147955
 10
7.197923347379916
 20
-0.0000445713233432
 30
0.0
 41
0.7071764599755596
 10
7.41796798649815
 20
-0.0000000000000003
 30
0.0
 41
1.0
  0
SPLINE
  5
88
330
1F
100
AcDbEntity
  8
WOOD C - 2D
 62
     7
100
AcDbSpline
210
0.0
220
0.0
230
1.0
 70
    28
 71
     3
 72
    11
 73
     7
 74
     0
 42
0.0000000001
 43
0.0000000001
 40
0.2905879006863338
 40
0.2905879006863338
 40
0.2905879006863338
 40
0.2905879006863338
 40
0.3608550558238112
 40
0.4359674363918143
 40
0.5062873543876737
 40
0.5811758012481886
 40
0.5811758012481886
 40
0.5811758012481886
 40
0.5811758012481886
 10
7.41796798649815
 20
-0.0000000000000003
 30
0.0
 41
1.0
 10
7.41793405414121
 20
0.0
 30
0.0
 41
1.0
 10
7.437192665751104
 20
0.0
 30
0.0
 41
1.0
 10
7.508746716333351
 20
0.0
 30
0.0
 41
1.0
 10
7.582100938664652
 20
0.0
 30
0.0
 41
1.0
 10
7.603070975508429
 20
0.0
 30
0.0
 41
1.0
 10
7.603024222189117
 20
0.0000000000003562
 30
0.0
 41
1.0
  0
SPLINE
  5
89
330
1F
100
AcDbEntity
  8
WOOD C - 2D
 62
     7
100
AcDbSpline
210
0.0
220
0.0
230
1.0
 70
    12
 71
     2
 72
     6
 73
     3
 74
     0
 42
0.0000000001
 43
0.0000000001
 40
0.0
 40
0.0
 40
0.0
 40
0.3455711248856457
 40
0.3455711248856457
 40
0.3455711248856457
 10
7.603024222189117
 20
0.0000000000003562
 30
0.0
 41
1.0
 10
7.823013773849689
 20
0.0000111592057231
 30
0.0
 41
0.707144683547302
 10
7.823024743208534
 20
0.2199999999999998
 30
0.0
 41
0.9999999998452085
  0
SPLINE
  5
8A
330
1F
100
AcDbEntity
  8
WOOD C - 2D
 62
     7
100
AcDbSpline
210
0.0
220
0.0
230
1.0
 70
    24
 71
     2
 72
     6
 73
     3
 74
     0
 42
0.0000000001
 43
0.0000000001
 40
0.0
 40
0.0
 40
0.0
 40
0.0300000000000114
 40
0.0300000000000114
 40
0.0300000000000114
 10
7.823024743208534
 20
0.2199999999999998
 30
0.0
 10
7.823024015308346
 20
0.2350000000000054
 30
0.0
 10
7.823023287408158
 20
0.2500000000000111
 30
0.0
  0
LINE
  5
8B
330
1F
100
AcDbEntity
  8
WOOD C - 2D
 62
     7
100
AcDbLine
 10
6.070321440923921
 20
11.3855
 30
0.0
 11
-6.070321440923922
 21
11.3855
 31
0.0
  0
LINE
  5
8C
330
1F
100
AcDbEntity
  8
WOOD C - 2D
 62
     7
100
AcDbLine
 10
-6.040441743963418
 20
11.7605
 30
0.0
 11
6.040441743963418
 21
11.7605
 31
0.0
  0
SPLINE
  5
8D
330
1F
100
AcDbEntity
  8
WOOD C - 2D
 62
     7
100
AcDbSpline
210
0.0
220
0.0
230
1.0
 70
     8
 71
     3
 72
    50
 73
    46
 74
     0
 42
0.0000000001
 43
0.0000000001
 40
-42.80771242989984
 40
-42.80771242989984
 40
-42.80771242989984
 40
-42.80771242989984
 40
-42.0
 40
-41.0
 40
-40.0
 40
-39.0
 40
-38.0
 40
-37.0
 40
-36.0
 40
-35.0
 40
-34.0
 40
-33.0
 40
-32.0
 40
-31.0
 40
-30.0
 40
-29.0
 40
-28.0
 40
-27.0
 40
-26.0
 40
-25.0
 40
-24.0
 40
-23.0
 40
-22.0
 40
-21.0
 40
-20.0
 40
-19.0
 40
-18.0
 40
-17.0
 40
-16.0
 40
-15.0
 40
-14.0
 40
-13.0
 40
-12.0
 40
-11.0
 40
-10.0
 40
-9.0
 40
-8.0
 40
-7.0
 40
-6.0
 40
-5.0
 40
-4.0
 40
-3.0
 40
-2.0
 40
-1.0
 40
0.0
 40
0.0
 40
0.0
 40
0.0
 10
6.70971771040632
 20
21.87077496698876
 30
0.0
 10
6.807937807196478
 20
21.90906247884258
 30
0.0
 10
7.026645317889016
 20
21.99761345133405
 30
0.0
 10
7.362045286656457
 20
22.14536924336625
 30
0.0
 10
7.714649974960011
 20
22.31574074622527
 30
0.0
 10
8.060786086502446
 20
22.49891711845662
 30
0.0
 10
8.399248825955587
 20
22.69594545525438
 30
0.0
 10
8.728706902985797
 20
22.90771014925699
 30
0.0
 10
9.047404442474694
 20
23.13543441268102
 30
0.0
 10
9.354579598064422
 20
23.37819880755222
 30
0.0
 10
9.641760432204766
 20
23.64628527419832
 30
0.0
 10
9.912929622142864
 20
23.92283990109899
 30
0.0
 10
10.11836039642719
 20
24.28826751545534
 30
0.0
 10
9.858813582643943
 20
24.66942160638019
 30
0.0
 10
9.442265929626721
 20
24.65354987542975
 30
0.0
 10
9.085317097922957
 20
24.82962793509542
 30
0.0
 10
8.793611675859493
 20
25.09405760864491
 30
0.0
 10
8.561532922777147
 20
25.41112559306695
 30
0.0
 10
8.365234557419072
 20
25.75014456600859
 30
0.0
 10
8.193031811769027
 20
26.10194734693484
 30
0.0
 10
8.028014066947419
 20
26.45699634807176
 30
0.0
 10
7.858532517956799
 20
26.80998383949179
 30
0.0
 10
7.679988257080446
 20
27.15852000736929
 30
0.0
 10
7.486247272039521
 20
27.49890315750462
 30
0.0
 10
7.275552208319125
 20
27.82909727343474
 30
0.0
 10
7.045029413077562
 20
28.14589270859018
 30
0.0
 10
6.788259487248729
 20
28.44211430324717
 30
0.0
 10
6.500059435273349
 20
28.7082594634986
 30
0.0
 10
6.179574612271189
 20
28.9346339173112
 30
0.0
 10
5.832605043816715
 20
29.11801666856933
 30
0.0
 10
5.463556028688783
 20
29.25142136427055
 30
0.0
 10
5.081570799909223
 20
29.33960372762403
 30
0.0
 10
4.694030215638056
 20
29.39701160392688
 30
0.0
 10
4.303998086093377
 20
29.43207929242979
 30
0.0
 10
3.913472192273591
 20
29.4603209985418
 30
0.0
 10
3.522588021805794
 20
29.48321384385418
 30
0.0
 10
3.131559548384061
 20
29.50335447054505
 30
0.0
 10
2.740386771669805
 20
29.52049942525836
 30
0.0
 10
2.34910273499007
 20
29.53486734188984
 30
0.0
 10
1.957730831972967
 20
29.54659941637654
 30
0.0
 10
1.566295670812684
 20
29.55596719145928
 30
0.0
 10
1.174816154031739
 20
29.56321656677098
 30
0.0
 10
0.7833067220361694
 20
29.56860043631904
 30
0.0
 10
0.3917786852919519
 20
29.57236978967969
 30
0.0
 10
0.1307527955948935
 20
29.57397395988338
 30
0.0
 10
0.0002393015893762
 20
29.57459072504031
 30
0.0
  0
SPLINE
  5
8E
330
1F
100
AcDbEntity
  8
WOOD C - 2D
 62
     7
100
AcDbSpline
210
0.0
220
0.0
230
1.0
 70
     8
 71
     3
 72
    50
 73
    46
 74
     0
 42
0.0000000001
 43
0.0000000001
 40
0.0
 40
0.0
 40
0.0
 40
0.0
 40
1.0
 40
2.0
 40
3.0
 40
4.0
 40
5.0
 40
6.0
 40
7.0
 40
8.0
 40
9.0
 40
10.0
 40
11.0
 40
12.0
 40
13.0
 40
14.0
 40
15.0
 40
16.0
 40
17.0
 40
18.0
 40
19.0
 40
20.0
 40
21.0
 40
22.0
 40
23.0
 40
24.0
 40
25.0
 40
26.0
 40
27.0
 40
28.0
 40
29.0
 40
30.0
 40
31.0
 40
32.0
 40
33.0
 40
34.0
 40
35.0
 40
36.0
 40
37.0
 40
38.0
 40
39.0
 40
40.0
 40
41.0
 40
42.0
 40
42.80643227022155
 40
42.80643227022155
 40
42.80643227022155
 40
42.80643227022155
 10
0.0002393015893762
 20
29.57459072504031
 30
0.0
 10
-0.130274192416141
 20
29.57397395988338
 30
0.0
 10
-0.3913000821131994
 20
29.57236978967969
 30
0.0
 10
-0.7828281188574169
 20
29.56860043631904
 30
0.0
 10
-1.174337550852987
 20
29.56321656677098
 30
0.0
 10
-1.565817067633931
 20
29.55596719145928
 30
0.0
 10
-1.957252228794214
 20
29.54659941637654
 30
0.0
 10
-2.348624131811318
 20
29.53486734188984
 30
0.0
 10
-2.739908168491053
 20
29.52049942525836
 30
0.0
 10
-3.131080945205309
 20
29.50335447054505
 30
0.0
 10
-3.522109418627041
 20
29.48321384385418
 30
0.0
 10
-3.912993589094839
 20
29.4603209985418
 30
0.0
 10
-4.303519482914624
 20
29.43207929242979
 30
0.0
 10
-4.693551612459303
 20
29.39701160392688
 30
0.0
 10
-5.081092196730471
 20
29.33960372762403
 30
0.0
 10
-5.463077425510031
 20
29.25142136427055
 30
0.0
 10
-5.832126440637962
 20
29.11801666856933
 30
0.0
 10
-6.179096009092437
 20
28.9346339173112
 30
0.0
 10
-6.499580832094597
 20
28.7082594634986
 30
0.0
 10
-6.787780884069976
 20
28.44211430324717
 30
0.0
 10
-7.044550809898809
 20
28.14589270859018
 30
0.0
 10
-7.275073605140372
 20
27.82909727343474
 30
0.0
 10
-7.485768668860769
 20
27.49890315750462
 30
0.0
 10
-7.679509653901693
 20
27.15852000736929
 30
0.0
 10
-7.858053914778046
 20
26.80998383949179
 30
0.0
 10
-8.027535463768666
 20
26.45699634807176
 30
0.0
 10
-8.192553208590274
 20
26.10194734693484
 30
0.0
 10
-8.36475595424032
 20
25.75014456600859
 30
0.0
 10
-8.561054319598394
 20
25.41112559306695
 30
0.0
 10
-8.79313307268074
 20
25.09405760864491
 30
0.0
 10
-9.084838494744204
 20
24.82962793509542
 30
0.0
 10
-9.441787326447969
 20
24.65354987542975
 30
0.0
 10
-9.85833497946519
 20
24.66942160638019
 30
0.0
 10
-10.11788179324844
 20
24.28826751545534
 30
0.0
 10
-9.912451018964111
 20
23.92283990109899
 30
0.0
 10
-9.641281829026013
 20
23.64628527419832
 30
0.0
 10
-9.35410099488567
 20
23.37819880755222
 30
0.0
 10
-9.046925839295941
 20
23.13543441268102
 30
0.0
 10
-8.728228299807045
 20
22.90771014925699
 30
0.0
 10
-8.398770222776834
 20
22.69594545525438
 30
0.0
 10
-8.060307483323694
 20
22.49891711845662
 30
0.0
 10
-7.714171371781259
 20
22.31574074622527
 30
0.0
 10
-7.361566683477704
 20
22.14536924336625
 30
0.0
 10
-7.026319638318659
 20
21.99768081970311
 30
0.0
 10
-6.807768964883371
 20
21.90918789963973
 30
0.0
 10
-6.709706116493328
 20
21.87095702456574
 30
0.0
  0
SPLINE
  5
8F
330
1F
100
AcDbEntity
  8
WOOD C - 2D
 62
     7
100
AcDbSpline
210
0.0
220
0.0
230
1.0
 70
     8
 71
     3
 72
    18
 73
    14
 74
     0
 42
0.0000000001
 43
0.0000000001
 40
46.67110146291274
 40
46.67110146291274
 40
46.67110146291274
 40
46.67110146291274
 40
47.0
 40
48.0
 40
49.0
 40
50.0
 40
51.0
 40
52.0
 40
53.0
 40
54.0
 40
55.0
 40
56.0
 40
57.0
 40
57.0
 40
57.0
 40
57.0
 10
-5.272387707751044
 20
21.39983014315258
 30
0.0
 10
-5.231048826362761
 20
21.38826460444642
 30
0.0
 10
-5.063881938599251
 20
21.34203339326238
 30
0.0
 10
-4.76997229697604
 20
21.26450328122946
 30
0.0
 10
-4.389903069964961
 20
21.17031007725789
 30
0.0
 10
-4.007615030719556
 20
21.08550734145795
 30
0.0
 10
-3.623022912735156
 20
21.01183637213645
 30
0.0
 10
-3.236718713071893
 20
20.94782183096123
 30
0.0
 10
-2.849030722466691
 20
20.89281914984623
 30
0.0
 10
-2.460276605277937
 20
20.84598746006
 30
0.0
 10
-2.070705100908299
 20
20.80656209476624
 30
0.0
 10
-1.680511598002422
 20
20.77388321209922
 30
0.0
 10
-1.420051646631417
 20
20.75649673634303
 30
0.0
 10
-1.289760698380045
 20
20.74885046569353
 30
0.0
  0
SPLINE
  5
90
330
1F
100
AcDbEntity
  8
WOOD C - 2D
 62
     7
100
AcDbSpline
210
0.0
220
0.0
230
1.0
 70
     8
 71
     3
 72
     8
 73
     4
 74
     0
 42
0.0000000001
 43
0.0000000001
 40
0.0
 40
0.0
 40
0.0
 40
0.0
 40
1.0
 40
1.0
 40
1.0
 40
1.0
 10
-1.289760698380045
 20
20.74885046569353
 30
0.0
 10
-0.5999932144037127
 20
20.7083706861041
 30
0.0
 10
0.6004718175824646
 20
20.70837068610411
 30
0.0
 10
1.290239301558797
 20
20.74885046569353
 30
0.0
  0
SPLINE
  5
91
330
1F
100
AcDbEntity
  8
WOOD C - 2D
 62
     7
100
AcDbSpline
210
0.0
220
0.0
230
1.0
 70
     8
 71
     3
 72
    18
 73
    14
 74
     0
 42
0.0000000001
 43
0.0000000001
 40
-57.0
 40
-57.0
 40
-57.0
 40
-57.0
 40
-56.0
 40
-55.0
 40
-54.0
 40
-53.0
 40
-52.0
 40
-51.0
 40
-50.0
 40
-49.0
 40
-48.0
 40
-47.0
 40
-46.67234306250834
 40
-46.67234306250834
 40
-46.67234306250834
 40
-46.67234306250834
 10
1.290239301558797
 20
20.74885046569353
 30
0.0
 10
1.42053024981017
 20
20.75649673634303
 30
0.0
 10
1.680990201181175
 20
20.77388321209922
 30
0.0
 10
2.071183704087051
 20
20.80656209476624
 30
0.0
 10
2.460755208456689
 20
20.84598746006
 30
0.0
 10
2.849509325645444
 20
20.89281914984623
 30
0.0
 10
3.237197316250645
 20
20.94782183096123
 30
0.0
 10
3.623501515913908
 20
21.01183637213645
 30
0.0
 10
4.008093633898309
 20
21.08550734145795
 30
0.0
 10
4.390381673143714
 20
21.17031007725789
 30
0.0
 10
4.770450900154793
 20
21.26450328122946
 30
0.0
 10
5.064203850498255
 20
21.34199205983621
 30
0.0
 10
5.231215058583762
 20
21.38817821786932
 30
0.0
 10
5.272398143753268
 20
21.39969916790069
 30
0.0
  0
SPLINE
  5
92
330
1F
100
AcDbEntity
  8
WOOD C - 2D
 62
     7
100
AcDbSpline
210
0.0
220
0.0
230
1.0
 70
    24
 71
     2
 72
     6
 73
     3
 74
     0
 42
0.0000000001
 43
0.0000000001
 40
0.0
 40
0.0
 40
0.0
 40
0.0300000000000114
 40
0.0300000000000114
 40
0.0300000000000114
 10
39.799283381969
 20
0.2500000000000111
 30
0.0
 10
39.79923346568854
 20
0.2350000000000054
 30
0.0
 10
39.79918354940809
 20
0.2199999999999998
 30
0.0
  0
SPLINE
  5
93
330
1F
100
AcDbEntity
  8
WOOD C - 2D
 62
     7
100
AcDbSpline
210
0.0
220
0.0
230
1.0
 70
    12
 71
     2
 72
     6
 73
     3
 74
     0
 42
0.0000000001
 43
0.0000000001
 40
0.0
 40
0.0
 40
0.0
 40
0.3456756014878377
 40
0.3456756014878377
 40
0.3456756014878377
 10
39.79918354940808
 20
0.2199999999999997
 30
0.0
 41
0.9999999214462855
 10
39.7991757307048
 20
-0.0000478839386673
 30
0.0
 41
0.707177653870181
 10
40.01922358692612
 20
0.0000000000010915
 30
0.0
 41
1.0
  0
POLYLINE
  5
94
330
1F
100
AcDbEntity
  8
WOOD C - 2D
 62
     7
100
AcDb2dPolyline
 66
     1
 10
0.0
 20
0.0
 30
0.0
  0
VERTEX
  5
95
330
94
100
AcDbEntity
  8
WOOD C - 2D
 62
     7
100
AcDbVertex
100
AcDb2dVertex
 10
40.01922358692612
 20
0.0000000000010915
 30
0.0
  0
VERTEX
  5
96
330
94
100
AcDbEntity
  8
WOOD C - 2D
 62
     7
100
AcDbVertex
100
AcDb2dVertex
 10
40.20434666984779
 20
0.0000000000004965
 30
0.0
  0
SEQEND
  5
97
330
94
100
AcDbEntity
  8
WOOD C - 2D
 62
     7
  0
SPLINE
  5
98
330
1F
100
AcDbEntity
  8
WOOD C - 2D
 62
     7
100
AcDbSpline
210
0.0
220
0.0
230
1.0
 70
    12
 71
     2
 72
     6
 73
     3
 74
     0
 42
0.0000000001
 43
0.0000000001
 40
0.0
 40
0.0
 40
0.0
 40
0.3456871564076349
 40
0.3456871564076349
 40
0.3456871564076349
 10
40.20434666984779
 20
0.0000000000004965
 30
0.0
 41
1.0
 10
40.42440937442999
 20
-0.0000627382120684
 30
0.0
 41
0.7071445064901678
 10
40.42438949694392
 20
0.2199999999999998
 30
0.0
 41
0.9999999217426843
  0
SPLINE
  5
99
330
1F
100
AcDbEntity
  8
WOOD C - 2D
 62
     7
100
AcDbSpline
210
0.0
220
0.0
230
1.0
 70
    24
 71
     2
 72
     6
 73
     3
 74
     0
 42
0.0000000001
 43
0.0000000001
 40
0.0
 40
0.0
 40
0.0
 40
0.0300000000000114
 40
0.0300000000000114
 40
0.0300000000000114
 10
40.42438949694391
 20
0.2199999999999998
 30
0.0
 10
40.42433643945643
 20
0.2350000000000054
 30
0.0
 10
40.42428338196896
 20
0.2500000000000111
 30
0.0
  0
SPLINE
  5
9A
330
1F
100
AcDbEntity
  8
WOOD C - 2D
 62
     7
100
AcDbSpline
210
0.0
220
0.0
230
1.0
 70
    24
 71
     2
 72
     6
 73
     3
 74
     0
 42
0.0000000001
 43
0.0000000001
 40
0.0
 40
0.0
 40
0.0
 40
0.0300000000000114
 40
0.0300000000000114
 40
0.0300000000000114
 10
23.2014770358754
 20
0.2500000000000111
 30
0.0
 10
23.20142711959495
 20
0.2350000000000054
 30
0.0
 10
23.20137720331449
 20
0.2199999999999998
 30
0.0
  0
SPLINE
  5
9B
330
1F
100
AcDbEntity
  8
WOOD C - 2D
 62
     7
100
AcDbSpline
210
0.0
220
0.0
230
1.0
 70
    12
 71
     2
 72
     6
 73
     3
 74
     0
 42
0.0000000001
 43
0.0000000001
 40
0.0
 40
0.0
 40
0.0
 40
0.3456756014878125
 40
0.3456756014878125
 40
0.3456756014878125
 10
23.20137720331449
 20
0.2199999999999997
 30
0.0
 41
0.9999999214462855
 10
23.20136938461123
 20
-0.0000478839386217
 30
0.0
 41
0.7071776538703113
 10
23.42141724083252
 20
0.0000000000010944
 30
0.0
 41
1.0
  0
POLYLINE
  5
9C
330
1F
100
AcDbEntity
  8
WOOD C - 2D
 62
     7
100
AcDb2dPolyline
 66
     1
 10
0.0
 20
0.0
 30
0.0
  0
VERTEX
  5
9D
330
9C
100
AcDbEntity
  8
WOOD C - 2D
 62
     7
100
AcDbVertex
100
AcDb2dVertex
 10
23.42141724083252
 20
0.0000000000010944
 30
0.0
  0
VERTEX
  5
9E
330
9C
100
AcDbEntity
  8
WOOD C - 2D
 62
     7
100
AcDbVertex
100
AcDb2dVertex
 10
23.60654032375419
 20
0.0000000000004965
 30
0.0
  0
SEQEND
  5
9F
330
9C
100
AcDbEntity
  8
WOOD C - 2D
 62
     7
  0
SPLINE
  5
A0
330
1F
100
AcDbEntity
  8
WOOD C - 2D
 62
     7
100
AcDbSpline
210
0.0
220
0.0
230
1.0
 70
    12
 71
     2
 72
     6
 73
     3
 74
     0
 42
0.0000000001
 43
0.0000000001
 40
0.0
 40
0.0
 40
0.0
 40
0.3456871564076276
 40
0.3456871564076276
 40
0.3456871564076276
 10
23.60654032375419
 20
0.0000000000004965
 30
0.0
 41
1.0
 10
23.82660302833638
 20
-0.0000627382120471
 30
0.0
 41
0.7071445064902416
 10
23.82658315085031
 20
0.2199999999999998
 30
0.0
 41
0.9999999217426843
  0
SPLINE
  5
A1
330
1F
100
AcDbEntity
  8
WOOD C - 2D
 62
     7
100
AcDbSpline
210
0.0
220
0.0
230
1.0
 70
    24
 71
     2
 72
     6
 73
     3
 74
     0
 42
0.0000000001
 43
0.0000000001
 40
0.0
 40
0.0
 40
0.0
 40
0.0300000000000114
 40
0.0300000000000114
 40
0.0300000000000114
 10
23.82658315085031
 20
0.2199999999999998
 30
0.0
 10
23.82653009336283
 20
0.2350000000000054
 30
0.0
 10
23.82647703587535
 20
0.2500000000000111
 30
0.0
  0
SPLINE
  5
A2
330
1F
100
AcDbEntity
  8
WOOD C - 2D
 62
     7
100
AcDbSpline
210
0.0
220
0.0
230
1.0
 70
     8
 71
     3
 72
    11
 73
     7
 74
     0
 42
0.0000000001
 43
0.0000000001
 40
0.0
 40
0.0
 40
0.0
 40
0.0
 40
1.000007679231188
 40
2.000015358462376
 40
3.000023037693564
 40
4.0
 40
4.0
 40
4.0
 40
4.0
 10
37.42602020765506
 20
22.07292980365894
 30
0.0
 10
37.52087611999571
 20
22.16051718462037
 30
0.0
 10
37.75425838199826
 20
22.27254942393655
 30
0.0
 10
38.13077069837425
 20
22.3664342083837
 30
0.0
 10
38.50889070487847
 20
22.37552842938023
 30
0.0
 10
38.78177604600522
 20
22.29479047396131
 30
0.0
 10
38.81808811199473
 20
22.16086845595211
 30
0.0
  0
SPLINE
  5
A3
330
1F
100
AcDbEntity
  8
WOOD C - 2D
 62
     7
100
AcDbSpline
210
0.0
220
0.0
230
1.0
 70
    24
 71
     2
 72
     6
 73
     3
 74
     0
 42
0.0000000001
 43
0.0000000001
 40
-21.85506550828183
 40
-21.85506550828183
 40
-21.85506550828183
 40
0.0
 40
0.0
 40
0.0
 10
38.81808811199473
 20
22.16086845595211
 30
0.0
 10
39.74677873274699
 20
11.27287218832262
 30
0.0
 10
40.67546935349925
 20
0.3848759206931294
 30
0.0
  0
SPLINE
  5
A4
330
1F
100
AcDbEntity
  8
WOOD C - 2D
 62
     7
100
AcDbSpline
210
0.0
220
0.0
230
1.0
 70
    12
 71
     2
 72
     8
 73
     5
 74
     0
 42
0.0000000001
 43
0.0000000001
 40
-0.206182089492243
 40
-0.206182089492243
 40
-0.206182089492243
 40
-0.1030910447461215
 40
-0.1030910447461215
 40
0.0
 40
0.0
 40
0.0
 10
40.67546935349925
 20
0.3848759206931294
 30
0.0
 41
1.0
 10
40.6797463818138
 20
0.3303640794891722
 30
0.0
 41
0.9162635786919924
 10
40.64264473762221
 20
0.2902013266619899
 30
0.0
 41
1.0
 10
40.6055430934306
 20
0.2500385738348077
 30
0.0
 41
0.9162635786919924
 10
40.55086606691632
 20
0.2500000001011591
 30
0.0
 41
1.0
  0
POLYLINE
  5
A5
330
1F
100
AcDbEntity
  8
WOOD C - 2D
 62
     7
100
AcDb2dPolyline
 66
     1
 10
0.0
 20
0.0
 30
0.0
  0
VERTEX
  5
A6
330
A5
100
AcDbEntity
  8
WOOD C - 2D
 62
     7
100
AcDbVertex
100
AcDb2dVertex
 10
40.55086606691632
 20
0.2500000001011591
 30
0.0
  0
VERTEX
  5
A7
330
A5
100
AcDbEntity
  8
WOOD C - 2D
 62
     7
100
AcDbVertex
100
AcDb2dVertex
 10
39.67096845269267
 20
0.2500000000156273
 30
0.0
  0
SEQEND
  5
A8
330
A5
100
AcDbEntity
  8
WOOD C - 2D
 62
     7
  0
SPLINE
  5
A9
330
1F
100
AcDbEntity
  8
WOOD C - 2D
 62
     7
100
AcDbSpline
210
0.0
220
0.0
230
1.0
 70
    12
 71
     2
 72
     6
 73
     3
 74
     0
 42
0.0000000001
 43
0.0000000001
 40
-0.1836833093379062
 40
-0.1836833093379062
 40
-0.1836833093379062
 40
0.0
 40
0.0
 40
0.0
 10
39.67096845269267
 20
0.2500000000156273
 30
0.0
 41
1.0
 10
39.55799830705429
 20
0.2500164435824241
 30
0.0
 41
0.7416859417577976
 10
39.5466470271107
 20
0.3624161751038169
 30
0.0
 41
1.0
  0
SPLINE
  5
AA
330
1F
100
AcDbEntity
  8
WOOD C - 2D
 62
     7
100
AcDbSpline
210
0.0
220
0.0
230
1.0
 70
    24
 71
     2
 72
     6
 73
     3
 74
     0
 42
0.0000000001
 43
0.0000000001
 40
-19.63756315227876
 40
-19.63756315227876
 40
-19.63756315227876
 40
0.0
 40
0.0
 40
0.0
 10
39.5466470271107
 20
0.3624161751038169
 30
0.0
 10
38.55710704812847
 20
10.13120808754671
 30
0.0
 10
37.56756706914624
 20
19.89999999998961
 30
0.0
  0
SPLINE
  5
AB
330
1F
100
AcDbEntity
  8
WOOD C - 2D
 62
     7
100
AcDbSpline
210
0.0
220
0.0
230
1.0
 70
    24
 71
     2
 72
     6
 73
     3
 74
     0
 42
0.0000000001
 43
0.0000000001
 40
-19.81393452383914
 40
-19.81393452383914
 40
-19.81393452383914
 40
0.0
 40
0.0
 40
0.0
 10
27.32774555266913
 20
19.89999999991793
 30
0.0
 10
25.70249408704576
 20
10.12725340068947
 30
0.0
 10
24.07724262142239
 20
0.3545068014610012
 30
0.0
  0
SPLINE
  5
AC
330
1F
100
AcDbEntity
  8
WOOD C - 2D
 62
     7
100
AcDbSpline
210
0.0
220
0.0
230
1.0
 70
    12
 71
     2
 72
     6
 73
     3
 74
     0
 42
0.0000000001
 43
0.0000000001
 40
-0.1755994175631268
 40
-0.1755994175631268
 40
-0.1755994175631268
 40
0.0
 40
0.0
 40
0.0
 10
24.07724262142239
 20
0.3545068014610012
 30
0.0
 41
1.0
 10
24.05968314138878
 20
0.2502819029380039
 30
0.0
 41
0.7643839765840624
 10
23.95399165517155
 20
0.2500000087850363
 30
0.0
 41
1.0
  0
POLYLINE
  5
AD
330
1F
100
AcDbEntity
  8
WOOD C - 2D
 62
     7
100
AcDb2dPolyline
 66
     1
 10
0.0
 20
0.0
 30
0.0
  0
VERTEX
  5
AE
330
AD
100
AcDbEntity
  8
WOOD C - 2D
 62
     7
100
AcDbVertex
100
AcDb2dVertex
 10
23.95399165517155
 20
0.2500000087850363
 30
0.0
  0
VERTEX
  5
AF
330
AD
100
AcDbEntity
  8
WOOD C - 2D
 62
     7
100
AcDbVertex
100
AcDb2dVertex
 10
23.07614639483091
 20
0.2500000000083402
 30
0.0
  0
SEQEND
  5
B0
330
AD
100
AcDbEntity
  8
WOOD C - 2D
 62
     7
  0
SPLINE
  5
B1
330
1F
100
AcDbEntity
  8
WOOD C - 2D
 62
     7
100
AcDbSpline
210
0.0
220
0.0
230
1.0
 70
    12
 71
     2
 72
     8
 73
     5
 74
     0
 42
0.0000000001
 43
0.0000000001
 40
-0.2141225194345333
 40
-0.2141225194345333
 40
-0.2141225194345333
 40
-0.1070612597172667
 40
-0.1070612597172667
 40
0.0
 40
0.0
 40
0.0
 10
23.07614639483091
 20
0.2500000000083402
 30
0.0
 41
1.0
 10
23.01910785116607
 20
0.2502071216821154
 30
0.0
 41
0.9102423678830338
 10
22.98178496383401
 20
0.2933399449608382
 30
0.0
 41
1.0
 10
22.94446207650196
 20
0.3364727682395609
 30
0.0
 41
0.9102423678830338
 10
22.95244355575739
 20
0.3929525547553181
 30
0.0
 41
1.0
  0
SPLINE
  5
B2
330
1F
100
AcDbEntity
  8
WOOD C - 2D
 62
     7
100
AcDbSpline
210
0.0
220
0.0
230
1.0
 70
    24
 71
     2
 72
     6
 73
     3
 74
     0
 42
0.0000000001
 43
0.0000000001
 40
-23.03584101505903
 40
-23.03584101505903
 40
-23.03584101505903
 40
0.0
 40
0.0
 40
0.0
 10
22.95244355575739
 20
0.3929525547553181
 30
0.0
 10
24.66614175678014
 20
11.7826750312886
 30
0.0
 10
26.37983995780289
 20
23.17239750782189
 30
0.0
  0
SPLINE
  5
B3
330
1F
100
AcDbEntity
  8
WOOD C - 2D
 62
     7
100
AcDbSpline
210
0.0
220
0.0
230
1.0
 70
     8
 71
     3
 72
    11
 73
     7
 74
     0
 42
0.0000000001
 43
0.0000000001
 40
0.0
 40
0.0
 40
0.0
 40
0.0
 40
1.0
 40
2.0
 40
3.0
 40
4.0
 40
4.0
 40
4.0
 40
4.0
 10
26.37983995780289
 20
23.17239750782189
 30
0.0
 10
26.40416061544986
 20
23.3415216776252
 30
0.0
 10
26.72594623593607
 20
23.29329961801143
 30
0.0
 10
27.02876023632529
 20
23.05662969314659
 30
0.0
 10
27.33198356807846
 20
22.79572146037614
 30
0.0
 10
27.50346493219374
 20
22.59482778108153
 30
0.0
 10
27.58336223002787
 20
22.48956314945528
 30
0.0
  0
SPLINE
  5
B4
330
1F
100
AcDbEntity
  8
WOOD C - 2D
 62
     7
100
AcDbSpline
210
0.0
220
0.0
230
1.0
 70
    12
 71
     2
 72
     6
 73
     3
 74
     0
 42
0.0000000001
 43
0.0000000001
 40
-2.4304739960366
 40
-2.4304739960366
 40
-2.4304739960366
 40
0.0
 40
0.0
 40
0.0
 10
27.58324168357252
 20
22.4894523794993
 30
0.0
 41
1.0
 10
27.39464222551277
 20
21.28890707797949
 30
0.0
 41
0.9999999997995087
 10
27.2060958160927
 20
20.08838585232802
 30
0.0
 41
1.0
  0
SPLINE
  5
B5
330
1F
100
AcDbEntity
  8
WOOD C - 2D
 62
     7
100
AcDbSpline
210
0.0
220
0.0
230
1.0
 70
    12
 71
     3
 72
    10
 73
     6
 74
     0
 42
0.0000000001
 43
0.0000000001
 40
0.0
 40
0.0
 40
0.0
 40
0.0
 40
0.4999230581352903
 40
0.4999230581352903
 40
1.0
 40
1.0
 40
1.0
 40
1.0
 10
27.2060958160927
 20
20.08838585232802
 30
0.0
 41
1.0
 10
27.19926435169944
 20
20.04489182546409
 30
0.0
 41
1.0
 10
27.20616026313872
 20
19.99264893032609
 30
0.0
 41
1.0
 10
27.24014620987706
 20
19.91844594725657
 30
0.0
 41
1.0
 10
27.26308782564101
 20
19.89999998397927
 30
0.0
 41
1.0
 10
27.27941731855432
 20
19.89999999988672
 30
0.0
 41
1.0
  0
SPLINE
  5
B6
330
1F
100
AcDbEntity
  8
WOOD C - 2D
 62
     7
100
AcDbSpline
210
0.0
220
0.0
230
1.0
 70
    24
 71
     2
 72
     6
 73
     3
 74
     0
 42
0.0000000001
 43
0.0000000001
 40
0.0
 40
0.0
 40
0.0
 40
10.30039159035155
 40
10.30039159035155
 40
10.30039159035155
 10
27.27941731855432
 20
19.89999999988672
 30
0.0
 10
32.42961311373009
 20
19.89999999988156
 30
0.0
 10
37.57980890890587
 20
19.89999999987639
 30
0.0
  0
SPLINE
  5
B7
330
1F
100
AcDbEntity
  8
WOOD C - 2D
 62
     7
100
AcDbSpline
210
0.0
220
0.0
230
1.0
 70
    12
 71
     3
 72
    10
 73
     6
 74
     0
 42
0.0000000001
 43
0.0000000001
 40
0.0
 40
0.0
 40
0.0
 40
0.0
 40
0.5000761879825664
 40
0.5000761879825664
 40
1.0
 40
1.0
 40
1.0
 40
1.0
 10
37.57980890890587
 20
19.89999999987639
 30
0.0
 41
1.0
 10
37.58811150305279
 20
19.89999997615759
 30
0.0
 41
1.0
 10
37.60173091307369
 20
19.91891841021679
 30
0.0
 41
1.0
 10
37.62306550590365
 20
19.99457433305865
 30
0.0
 41
1.0
 10
37.63094262002313
 20
20.04754223635641
 30
0.0
 41
1.0
 10
37.62658860988006
 20
20.09117515839737
 30
0.0
 41
1.0
  0
SPLINE
  5
B8
330
1F
100
AcDbEntity
  8
WOOD C - 2D
 62
     7
100
AcDbSpline
210
0.0
220
0.0
230
1.0
 70
    12
 71
     2
 72
     6
 73
     3
 74
     0
 42
0.0000000001
 43
0.0000000001
 40
-1.991874980232938
 40
-1.991874980232938
 40
-1.991874980232938
 40
0.0
 40
0.0
 40
0.0
 10
37.62658860988006
 20
20.09117515839737
 30
0.0
 41
1.0
 10
37.52769750343766
 20
21.08219083175482
 30
0.0
 41
0.99999997614101
 10
37.42749289633552
 20
22.07392737291027
 30
0.0
 41
1.0
  0
SPLINE
  5
B9
330
1F
100
AcDbEntity
  8
WOOD C - 2D
 62
     7
100
AcDbSpline
210
0.0
220
0.0
230
1.0
 70
     8
 71
     3
 72
    12
 73
     8
 74
     0
 42
0.0000000001
 43
0.0000000001
 40
-9.987036460191472
 40
-9.987036460191472
 40
-9.987036460191472
 40
-9.987036460191472
 40
-3.90443989142622
 40
-2.736957520272085
 40
-1.692145758329445
 40
-0.7831436569566862
 40
0.0
 40
0.0
 40
0.0
 40
0.0
 10
37.42749289633552
 20
22.07392737291027
 30
0.0
 10
35.42623607334477
 20
21.74213401310184
 30
0.0
 10
33.00226831164107
 20
21.5731295639796
 30
0.0
 10
30.24131830070965
 20
21.73689813782773
 30
0.0
 10
29.21115927603806
 20
21.89567166918765
 30
0.0
 10
28.32820680348187
 20
22.13070516449066
 30
0.0
 10
27.81106634144796
 20
22.36250139613178
 30
0.0
 10
27.58324168357252
 20
22.4894523794993
 30
0.0
  0
SPLINE
  5
BA
330
1F
100
AcDbEntity
  8
WOOD C - 2D
 62
     7
100
AcDbSpline
210
0.0
220
0.0
230
1.0
 70
     8
 71
     3
 72
    82
 73
    78
 74
     0
 42
0.0000000001
 43
0.0000000001
 40
49.44833990731043
 40
49.44833990731043
 40
49.44833990731043
 40
49.44833990731043
 40
50.0
 40
51.0
 40
52.0
 40
53.0
 40
54.0
 40
55.0
 40
56.0
 40
57.0
 40
58.0
 40
59.0
 40
60.0
 40
61.0
 40
62.0
 40
63.0
 40
64.0
 40
65.0
 40
66.0
 40
67.0
 40
68.0
 40
69.0
 40
70.0
 40
71.0
 40
72.0
 40
73.0
 40
74.0
 40
75.0
 40
76.0
 40
77.0
 40
78.0
 40
79.0
 40
80.0
 40
81.0
 40
82.0
 40
83.0
 40
84.0
 40
85.0
 40
86.0
 40
87.0
 40
88.0
 40
89.0
 40
90.0
 40
91.0
 40
92.0
 40
93.0
 40
94.0
 40
95.0
 40
96.0
 40
97.0
 40
98.0
 40
99.0
 40
100.0
 40
100.0
 40
100.0
 40
101.0
 40
102.0
 40
103.0
 40
104.0
 40
105.0
 40
106.0
 40
107.0
 40
108.0
 40
109.0
 40
110.0
 40
111.0
 40
112.0
 40
113.0
 40
114.0
 40
115.0
 40
116.0
 40
117.0
 40
118.0
 40
119.0
 40
120.0
 40
121.0
 40
121.1516192125165
 40
121.1516192125165
 40
121.1516192125165
 40
121.1516192125165
 10
26.18034643928124
 20
21.84650721367757
 30
0.0
 10
26.11302622557875
 20
21.89697717619225
 30
0.0
 10
25.92856868731488
 20
22.04544657453636
 30
0.0
 10
25.65081485536123
 20
22.31921185580562
 30
0.0
 10
25.36781729938393
 20
22.67977580896029
 30
0.0
 10
25.12698702791097
 20
23.06949494931018
 30
0.0
 10
24.92056701495977
 20
23.47832421702589
 30
0.0
 10
24.75302573316731
 20
23.90448734652819
 30
0.0
 10
24.6087121037925
 20
24.33875933994257
 30
0.0
 10
24.48107449304552
 20
24.77820857180324
 30
0.0
 10
24.36345182716888
 20
25.22038016091923
 30
0.0
 10
24.24863442948848
 20
25.66329941045168
 30
0.0
 10
24.14246527308652
 20
26.10837066976245
 30
0.0
 10
24.04103111832728
 20
26.55454726253164
 30
0.0
 10
23.94362349153497
 20
27.00156378102611
 30
0.0
 10
23.84968301215409
 20
27.44952834790769
 30
0.0
 10
23.75943213586539
 20
27.89748233880596
 30
0.0
 10
23.66280120675172
 20
28.34699659929569
 30
0.0
 10
23.59791858566658
 20
28.7922897158013
 30
0.0
 10
23.42230133055763
 20
29.25487793028778
 30
0.0
 10
23.77873634409994
 20
29.66438677723421
 30
0.0
 10
24.25091635430003
 20
29.47697634016324
 30
0.0
 10
24.67557505331553
 20
29.34328545817395
 30
0.0
 10
25.07015310155901
 20
29.09827758334775
 30
0.0
 10
25.41646172681296
 20
28.79984715611339
 30
0.0
 10
25.73015625994589
 20
28.46575924259978
 30
0.0
 10
26.02262749772008
 20
28.11390864954277
 30
0.0
 10
26.30546801254604
 20
27.75420417326722
 30
0.0
 10
26.58438283460682
 20
27.39150973120704
 30
0.0
 10
26.86420414782792
 20
27.02949433783574
 30
0.0
 10
27.15011243875117
 20
26.6722431292023
 30
0.0
 10
27.44653870182414
 20
26.32359146093618
 30
0.0
 10
27.76025381649497
 20
25.99022915606399
 30
0.0
 10
28.09855778051445
 20
25.68148484618227
 30
0.0
 10
28.46603920094493
 20
25.40786998192824
 30
0.0
 10
28.86229143570934
 20
25.17715943456061
 30
0.0
 10
29.28645441297584
 20
25.00302932179489
 30
0.0
 10
29.72633460108565
 20
24.87613884676102
 30
0.0
 10
30.17264421329995
 20
24.77308122842239
 30
0.0
 10
30.62778607610658
 20
24.72185743595814
 30
0.0
 10
31.08335914080423
 20
24.68021027657372
 30
0.0
 10
31.54040081522277
 20
24.65596424830425
 30
0.0
 10
31.997949193131
 20
24.65022834047898
 30
0.0
 10
32.4554847823955
 20
24.64840666022886
 30
0.0
 10
32.91303216465566
 20
24.6485415855595
 30
0.0
 10
33.37057834209957
 20
24.64840168223194
 30
0.0
 10
33.82811943083501
 20
24.64580628309034
 30
0.0
 10
34.2856189652487
 20
24.63864356493794
 30
0.0
 10
34.74295899189031
 20
24.62447342413681
 30
0.0
 10
35.20006124784819
 20
24.60420473029617
 30
0.0
 10
35.6569819383019
 20
24.58018575155844
 30
0.0
 10
36.11354218763942
 20
24.54997727270608
 30
0.0
 10
36.41754563608229
 20
24.52483682061998
 30
0.0
 10
36.56944794873991
 20
24.51116936361812
 30
0.0
 10
36.72135026139752
 20
24.49750190661626
 30
0.0
 10
37.02495606358513
 20
24.46797253069492
 30
0.0
 10
37.47956838629245
 20
24.41608674261359
 30
0.0
 10
37.93299262415948
 20
24.3544990016119
 30
0.0
 10
38.38427214717468
 20
24.27866719232853
 30
0.0
 10
38.83258212710159
 20
24.18670289305777
 30
0.0
 10
39.2762043960166
 20
24.07410649494044
 30
0.0
 10
39.71283659106876
 20
23.93665419403905
 30
0.0
 10
40.14090184947829
 20
23.77472205146835
 30
0.0
 10
40.55821952592411
 20
23.58583984229496
 30
0.0
 10
40.95885249516109
 20
23.36586640155431
 30
0.0
 10
41.36460733794237
 20
23.14932942027647
 30
0.0
 10
41.76849532982597
 20
22.95386747884208
 30
0.0
 10
42.17445307308967
 20
22.67066048018306
 30
0.0
 10
42.05868787345597
 20
22.14052957010752
 30
0.0
 10
41.60063326947847
 20
21.97531003684625
 30
0.0
 10
41.18938540811455
 20
21.79262573444703
 30
0.0
 10
40.74981754182317
 20
21.65610941386118
 30
0.0
 10
40.30924496090099
 20
21.53505752790511
 30
0.0
 10
39.8632057528372
 20
21.43187540715164
 30
0.0
 10
39.41483742544215
 20
21.34081895067722
 30
0.0
 10
39.091780622573
 20
21.2830364953643
 30
0.0
 10
38.91858826604597
 20
21.25380816318325
 30
0.0
 10
38.89578153790814
 20
21.2499884357797
 30
0.0
  0
LINE
  5
BB
330
1F
100
AcDbEntity
  8
WOOD C - 2D
 62
     7
100
AcDbLine
 10
38.39206622227658
 20
11.76049999999998
 30
0.0
 11
25.97411030079915
 21
11.76050000000001
 31
0.0
  0
LINE
  5
BC
330
1F
100
AcDbEntity
  8
WOOD C - 2D
 62
     7
100
AcDbLine
 10
25.91174612370519
 20
11.38550000000001
 30
0.0
 11
38.43005223891448
 21
11.38549999999998
 31
0.0
  0
ENDSEC
  0
SECTION
  2
OBJECTS
  0
DICTIONARY
  5
C
330
0
100
AcDbDictionary
281
     1
  3
ACAD_GROUP
350
D
  3
ACAD_LAYOUT
350
1A
  3
ACAD_MLEADERSTYLE
350
BE
  3
ACAD_MLINESTYLE
350
17
  3
ACAD_PLOTSETTINGS
350
19
  3
ACAD_PLOTSTYLENAME
350
E
  3
ACAD_TABLESTYLE
350
BD
  3
ACAD_VISUALSTYLE
350
2A
  0
DICTIONARY
  5
D
102
{ACAD_REACTORS
330
C
102
}
330
C
100
AcDbDictionary
281
     1
  0
DICTIONARY
  5
1A
102
{ACAD_REACTORS
330
C
102
}
330
C
100
AcDbDictionary
281
     1
  3
Layout1
350
1E
  3
Layout2
350
26
  3
Model
350
22
  0
DICTIONARY
  5
BE
102
{ACAD_REACTORS
330
C
102
}
330
C
100
AcDbDictionary
281
     1
  0
DICTIONARY
  5
17
102
{ACAD_REACTORS
330
C
102
}
330
C
100
AcDbDictionary
281
     1
  3
Standard
350
18
  0
DICTIONARY
  5
19
102
{ACAD_REACTORS
330
C
102
}
330
C
100
AcDbDictionary
281
     1
  0
ACDBDICTIONARYWDFLT
  5
E
102
{ACAD_REACTORS
330
C
102
}
330
C
100
AcDbDictionary
281
     1
  3
Normal
350
F
100
AcDbDictionaryWithDefault
340
F
  0
DICTIONARY
  5
BD
102
{ACAD_REACTORS
330
C
102
}
330
C
100
AcDbDictionary
281
     1
  0
DICTIONARY
  5
2A
102
{ACAD_REACTORS
330
C
102
}
330
C
100
AcDbDictionary
281
     1
  3
2dWireframe
350
2F
  3
3D Hidden
350
31
  3
3dWireframe
350
30
  3
Basic
350
32
  3
Brighten
350
36
  3
ColorChange
350
3A
  3
Conceptual
350
34
  3
Dim
350
35
  3
Facepattern
350
39
  3
Flat
350
2B
  3
FlatWithEdges
350
2C
  3
Gouraud
350
2D
  3
GouraudWithEdges
350
2E
  3
Linepattern
350
38
  3
Realistic
350
33
  3
Thicken
350
37
  0
LAYOUT
  5
1E
102
{ACAD_REACTORS
330
1A
102
}
330
1A
100
AcDbPlotSettings
  1

  2
none_device
  4

  6

 40
0.0
 41
0.0
 42
0.0
 43
0.0
 44
0.0
 45
0.0
 46
0.0
 47
0.0
 48
0.0
 49
0.0
140
0.0
141
0.0
142
1.0
143
1.0
 70
   688
 72
     0
 73
     0
 74
     5
  7

 75
    16
 76
     0
 77
     2
 78
   300
147
1.0
148
0.0
149
0.0
100
AcDbLayout
  1
Layout1
 70
     1
 71
     1
 10
0.0
 20
0.0
 11
12.0
 21
9.0
 12
0.0
 22
0.0
 32
0.0
 14
1.000000000000000E+20
 24
1.000000000000000E+20
 34
1.000000000000000E+20
 15
-1.000000000000000E+20
 25
-1.000000000000000E+20
 35
-1.000000000000000E+20
146
0.0
 13
0.0
 23
0.0
 33
0.0
 16
1.0
 26
0.0
 36
0.0
 17
0.0
 27
1.0
 37
0.0
 76
     0
330
1B
  0
LAYOUT
  5
26
102
{ACAD_REACTORS
330
1A
102
}
330
1A
100
AcDbPlotSettings
  1

  2
none_device
  4

  6

 40
0.0
 41
0.0
 42
0.0
 43
0.0
 44
0.0
 45
0.0
 46
0.0
 47
0.0
 48
0.0
 49
0.0
140
0.0
141
0.0
142
1.0
143
1.0
 70
   688
 72
     0
 73
     0
 74
     5
  7

 75
    16
 76
     0
 77
     2
 78
   300
147
1.0
148
0.0
149
0.0
100
AcDbLayout
  1
Layout2
 70
     1
 71
     2
 10
0.0
 20
0.0
 11
0.0
 21
0.0
 12
0.0
 22
0.0
 32
0.0
 14
0.0
 24
0.0
 34
0.0
 15
0.0
 25
0.0
 35
0.0
146
0.0
 13
0.0
 23
0.0
 33
0.0
 16
1.0
 26
0.0
 36
0.0
 17
0.0
 27
1.0
 37
0.0
 76
     0
330
23
  0
LAYOUT
  5
22
102
{ACAD_REACTORS
330
1A
102
}
330
1A
100
AcDbPlotSettings
  1

  2
none_device
  4

  6

 40
0.0
 41
0.0
 42
0.0
 43
0.0
 44
0.0
 45
0.0
 46
0.0
 47
0.0
 48
0.0
 49
0.0
140
0.0
141
0.0
142
1.0
143
1.0
 70
  1712
 72
     0
 73
     0
 74
     0
  7

 75
     0
 76
     0
 77
     2
 78
   300
147
1.0
148
0.0
149
0.0
100
AcDbLayout
  1
Model
 70
     1
 71
     0
 10
0.0
 20
0.0
 11
12.0
 21
9.0
 12
0.0
 22
0.0
 32
0.0
 14
-10.04038552857051
 24
-0.0000000000000185
 34
0.0
 15
42.09857021603862
 25
61.13971009346022
 35
0.0
146
0.0
 13
0.0
 23
0.0
 33
0.0
 16
1.0
 26
0.0
 36
0.0
 17
0.0
 27
1.0
 37
0.0
 76
     0
330
1F
331
29
  0
MLINESTYLE
  5
18
102
{ACAD_REACTORS
330
17
102
}
330
17
100
AcDbMlineStyle
  2
Standard
 70
     0
  3

 62
   256
 51
90.0
 52
90.0
 71
     2
 49
0.5
 62
   256
  6
BYLAYER
 49
-0.5
 62
   256
  6
BYLAYER
  0
ACDBPLACEHOLDER
  5
F
102
{ACAD_REACTORS
330
E
102
}
330
E
  0
VISUALSTYLE
  5
2F
102
{ACAD_REACTORS
330
2A
102
}
330
2A
100
AcDbVisualStyle
  2
2dWireframe
 70
     4
 71
     0
 72
     2
 73
     0
 90
        0
 40
-0.6
 41
-30.0
 62
     5
 63
     7
421
 16777215
 74
     1
 91
        4
 64
     7
 65
   257
 75
     1
175
     1
 42
1.0
 92
        0
 66
   257
 43
1.0
 76
     1
 77
     6
 78
     2
 67
     7
 79
     5
170
     0
171
     0
290
     0
174
     0
 93
        1
 44
0.0
173
     0
291
     0
 45
0.0
1001
ACAD
1000
AcDbSavedByObjectVersion
1070
     0
  0
VISUALSTYLE
  5
31
102
{ACAD_REACTORS
330
2A
102
}
330
2A
100
AcDbVisualStyle
  2
3D Hidden
 70
     6
 71
     1
 72
     2
 73
     2
 90
        0
 40
-0.6
 41
-30.0
 62
     5
 63
     7
421
 16777215
 74
     2
 91
        2
 64
     7
 65
   257
 75
     2
175
     1
 42
40.0
 92
        0
 66
   257
 43
1.0
 76
     1
 77
     6
 78
     2
 67
     7
 79
     3
170
     0
171
     0
290
     0
174
     0
 93
        1
 44
0.0
173
     0
291
     0
 45
0.0
1001
ACAD
1000
AcDbSavedByObjectVersion
1070
     0
  0
VISUALSTYLE
  5
30
102
{ACAD_REACTORS
330
2A
102
}
330
2A
100
AcDbVisualStyle
  2
3dWireframe
 70
     5
 71
     0
 72
     2
 73
     0
 90
        0
 40
-0.6
 41
-30.0
 62
     5
 63
     7
421
 16777215
 74
     1
 91
        4
 64
     7
 65
   257
 75
     1
175
     1
 42
1.0
 92
        0
 66
   257
 43
1.0
 76
     1
 77
     6
 78
     2
 67
     7
 79
     5
170
     0
171
     0
290
     0
174
     0
 93
        1
 44
0.0
173
     0
291
     0
 45
0.0
1001
ACAD
1000
AcDbSavedByObjectVersion
1070
     0
  0
VISUALSTYLE
  5
32
102
{ACAD_REACTORS
330
2A
102
}
330
2A
100
AcDbVisualStyle
  2
Basic
 70
     7
 71
     1
 72
     0
 73
     1
 90
        0
 40
-0.6
 41
-30.0
 62
     5
 63
     7
421
 16777215
 74
     0
 91
        4
 64
     7
 65
   257
 75
     1
175
     1
 42
1.0
 92
        8
 66
     7
 43
1.0
 76
     1
 77
     6
 78
     2
 67
     7
 79
     5
170
     0
171
     0
290
     0
174
     0
 93
        1
 44
0.0
173
     0
291
     1
 45
0.0
1001
ACAD
1000
AcDbSavedByObjectVersion
1070
     0
  0
VISUALSTYLE
  5
36
102
{ACAD_REACTORS
330
2A
102
}
330
2A
100
AcDbVisualStyle
  2
Brighten
 70
    12
 71
     2
 72
     2
 73
     0
 90
        0
 40
-0.6
 41
-30.0
 62
     5
 63
     7
421
 16777215
 74
     1
 91
        4
 64
     7
 65
   257
 75
     1
175
     1
 42
1.0
 92
        8
 66
     7
 43
1.0
 76
     1
 77
     6
 78
     2
 67
     7
 79
     5
170
     0
171
     0
290
     0
174
     0
 93
        1
 44
50.0
173
     0
291
     1
 45
0.0
1001
ACAD
1000
AcDbSavedByObjectVersion
1070
     0
  0
VISUALSTYLE
  5
3A
102
{ACAD_REACTORS
330
2A
102
}
330
2A
100
AcDbVisualStyle
  2
ColorChange
 70
    16
 71
     2
 72
     2
 73
     3
 90
        0
 40
-0.6
 41
-30.0
 62
     5
 63
     8
421
  8421504
 74
     1
 91
        4
 64
     7
 65
   257
 75
     1
175
     1
 42
1.0
 92
        8
 66
     8
424
  8421504
 43
1.0
 76
     1
 77
     6
 78
     2
 67
     7
 79
     5
170
     0
171
     0
290
     0
174
     0
 93
        1
 44
0.0
173
     0
291
     1
 45
0.0
1001
ACAD
1000
AcDbSavedByObjectVersion
1070
     0
  0
VISUALSTYLE
  5
34
102
{ACAD_REACTORS
330
2A
102
}
330
2A
100
AcDbVisualStyle
  2
Conceptual
 70
     9
 71
     3
 72
     2
 73
     0
 90
        0
 40
-0.6
 41
-30.0
 62
     5
 63
     7
421
 16777215
 74
     2
 91
        2
 64
     7
 65
   257
 75
     1
175
     1
 42
40.0
 92
        8
 66
     7
 43
1.0
 76
     1
 77
     6
 78
     2
 67
     7
 79
     3
170
     0
171
     0
290
     0
174
     0
 93
        1
 44
0.0
173
     0
291
     0
 45
0.0
1001
ACAD
1000
AcDbSavedByObjectVersion
1070
     0
  0
VISUALSTYLE
  5
35
102
{ACAD_REACTORS
330
2A
102
}
330
2A
100
AcDbVisualStyle
  2
Dim
 70
    11
 71
     2
 72
     2
 73
     0
 90
        0
 40
-0.6
 41
-30.0
 62
     5
 63
     7
421
 16777215
 74
     1
 91
        4
 64
     7
 65
   257
 75
     1
175
     1
 42
1.0
 92
        8
 66
     7
 43
1.0
 76
     1
 77
     6
 78
     2
 67
     7
 79
     5
170
     0
171
     0
290
     0
174
     0
 93
        1
 44
-50.0
173
     0
291
     1
 45
0.0
1001
ACAD
1000
AcDbSavedByObjectVersion
1070
     0
  0
VISUALSTYLE
  5
39
102
{ACAD_REACTORS
330
2A
102
}
330
2A
100
AcDbVisualStyle
  2
Facepattern
 70
    15
 71
     2
 72
     2
 73
     0
 90
        0
 40
-0.6
 41
-30.0
 62
     5
 63
     7
421
 16777215
 74
     1
 91
        4
 64
     7
 65
   257
 75
     1
175
     1
 42
1.0
 92
        8
 66
     7
 43
1.0
 76
     1
 77
     6
 78
     2
 67
     7
 79
     5
170
     0
171
     0
290
     0
174
     0
 93
        1
 44
0.0
173
     0
291
     1
 45
0.0
1001
ACAD
1000
AcDbSavedByObjectVersion
1070
     0
  0
VISUALSTYLE
  5
2B
102
{ACAD_REACTORS
330
2A
102
}
330
2A
100
AcDbVisualStyle
  2
Flat
 70
     0
 71
     2
 72
     1
 73
     1
 90
        2
 40
-0.6
 41
30.0
 62
     5
 63
     7
421
 16777215
 74
     0
 91
        4
 64
     7
 65
   257
 75
     1
175
     1
 42
1.0
 92
        8
 66
     7
 43
1.0
 76
     1
 77
     6
 78
     2
 67
     7
 79
     5
170
     0
171
     0
290
     0
174
     0
 93
       13
 44
0.0
173
     0
291
     1
 45
0.0
1001
ACAD
1000
AcDbSavedByObjectVersion
1070
     0
  0
VISUALSTYLE
  5
2C
102
{ACAD_REACTORS
330
2A
102
}
330
2A
100
AcDbVisualStyle
  2
FlatWithEdges
 70
     1
 71
     2
 72
     1
 73
     1
 90
        2
 40
-0.6
 41
30.0
 62
     5
 63
     7
421
 16777215
 74
     1
 91
        4
 64
     7
 65
   257
 75
     1
175
     1
 42
1.0
 92
        0
 66
   257
 43
1.0
 76
     1
 77
     6
 78
     2
 67
     7
 79
     5
170
     0
171
     0
290
     0
174
     0
 93
       13
 44
0.0
173
     0
291
     1
 45
0.0
1001
ACAD
1000
AcDbSavedByObjectVersion
1070
     0
  0
VISUALSTYLE
  5
2D
102
{ACAD_REACTORS
330
2A
102
}
330
2A
100
AcDbVisualStyle
  2
Gouraud
 70
     2
 71
     2
 72
     2
 73
     1
 90
        2
 40
-0.6
 41
30.0
 62
     5
 63
     7
421
 16777215
 74
     0
 91
        4
 64
     7
 65
   257
 75
     1
175
     1
 42
1.0
 92
        0
 66
     7
 43
1.0
 76
     1
 77
     6
 78
     2
 67
     7
 79
     5
170
     0
171
     0
290
     0
174
     0
 93
       13
 44
0.0
173
     0
291
     1
 45
0.0
1001
ACAD
1000
AcDbSavedByObjectVersion
1070
     0
  0
VISUALSTYLE
  5
2E
102
{ACAD_REACTORS
330
2A
102
}
330
2A
100
AcDbVisualStyle
  2
GouraudWithEdges
 70
     3
 71
     2
 72
     2
 73
     1
 90
        2
 40
-0.6
 41
30.0
 62
     5
 63
     7
421
 16777215
 74
     1
 91
        4
 64
     7
 65
   257
 75
     1
175
     1
 42
1.0
 92
        0
 66
   257
 43
1.0
 76
     1
 77
     6
 78
     2
 67
     7
 79
     5
170
     0
171
     0
290
     0
174
     0
 93
       13
 44
0.0
173
     0
291
     1
 45
0.0
1001
ACAD
1000
AcDbSavedByObjectVersion
1070
     0
  0
VISUALSTYLE
  5
38
102
{ACAD_REACTORS
330
2A
102
}
330
2A
100
AcDbVisualStyle
  2
Linepattern
 70
    14
 71
     2
 72
     2
 73
     0
 90
        0
 40
-0.6
 41
-30.0
 62
     5
 63
     7
421
 16777215
 74
     1
 91
        4
 64
     7
 65
   257
 75
     7
175
     7
 42
1.0
 92
        8
 66
     7
 43
1.0
 76
     1
 77
     6
 78
     2
 67
     7
 79
     5
170
     0
171
     0
290
     0
174
     0
 93
        1
 44
0.0
173
     0
291
     1
 45
0.0
1001
ACAD
1000
AcDbSavedByObjectVersion
1070
     0
  0
VISUALSTYLE
  5
33
102
{ACAD_REACTORS
330
2A
102
}
330
2A
100
AcDbVisualStyle
  2
Realistic
 70
     8
 71
     2
 72
     2
 73
     0
 90
        0
 40
-0.6
 41
-30.0
 62
     5
 63
     7
421
 16777215
 74
     1
 91
        0
 64
     7
 65
   257
 75
     1
175
     1
 42
1.0
 92
        8
 66
     8
424
  7895160
 43
1.0
 76
     1
 77
     6
 78
     2
 67
     7
 79
     5
170
     0
171
     0
290
     0
174
     0
 93
       13
 44
0.0
173
     0
291
     0
 45
0.0
1001
ACAD
1000
AcDbSavedByObjectVersion
1070
     0
  0
VISUALSTYLE
  5
37
102
{ACAD_REACTORS
330
2A
102
}
330
2A
100
AcDbVisualStyle
  2
Thicken
 70
    13
 71
     2
 72
     2
 73
     0
 90
        0
 40
-0.6
 41
-30.0
 62
     5
 63
     7
421
 16777215
 74
     1
 91
        4
 64
     7
 65
   257
 75
     1
175
     1
 42
1.0
 92
       12
 66
     7
 43
1.0
 76
     1
 77
     6
 78
     2
 67
     7
 79
     5
170
     0
171
     0
290
     0
174
     0
 93
        1
 44
0.0
173
     0
291
     1
 45
0.0
1001
ACAD
1000
AcDbSavedByObjectVersion
1070
     0
  0
ENDSEC
  0
EOF
