  0
SECTION
  2
HEADER
  9
$ACADVER
  1
AC1018
  9
$ACADMAINTVER
 70
     0
  9
$DWGCODEPAGE
  3
ANSI_1252
  9
$INSBASE
 10
0.0
 20
0.0
 30
0.0
  9
$EXTMIN
 10
-10.04038552857051
 20
0.0
 30
0.0
  9
$EXTMAX
 10
42.09857021603862
 20
61.11842143696737
 30
0.0
  9
$LIMMIN
 10
0.0
 20
0.0
  9
$LIMMAX
 10
12.0
 20
9.0
  9
$ORTHOMODE
 70
     0
  9
$REGENMODE
 70
     1
  9
$FILLMODE
 70
     1
  9
$QTEXTMODE
 70
     0
  9
$MIRRTEXT
 70
     1
  9
$LTSCALE
 40
0.0393700787401575
  9
$ATTMODE
 70
     1
  9
$TEXTSIZE
 40
0.2
  9
$TRACEWID
 40
0.05
  9
$TEXTSTYLE
  7
Standard
  9
$CLAYER
  8
0
  9
$CELTYPE
  6
ByLayer
  9
$CECOLOR
 62
   256
  9
$CELTSCALE
 40
1.0
  9
$DISPSILH
 70
     0
  9
$DIMSCALE
 40
1.0
  9
$DIMASZ
 40
0.18
  9
$DIMEXO
 40
0.0625
  9
$DIMDLI
 40
0.38
  9
$DIMRND
 40
0.0
  9
$DIMDLE
 40
0.0
  9
$DIMEXE
 40
0.18
  9
$DIMTP
 40
0.0
  9
$DIMTM
 40
0.0
  9
$DIMTXT
 40
0.18
  9
$DIMCEN
 40
0.09
  9
$DIMTSZ
 40
0.0
  9
$DIMTOL
 70
     0
  9
$DIMLIM
 70
     0
  9
$DIMTIH
 70
     1
  9
$DIMTOH
 70
     1
  9
$DIMSE1
 70
     0
  9
$DIMSE2
 70
     0
  9
$DIMTAD
 70
     0
  9
$DIMZIN
 70
     0
  9
$DIMBLK
  1

  9
$DIMASO
 70
     1
  9
$DIMSHO
 70
     1
  9
$DIMPOST
  1

  9
$DIMAPOST
  1

  9
$DIMALT
 70
     0
  9
$DIMALTD
 70
     2
  9
$DIMALTF
 40
25.4
  9
$DIMLFAC
 40
1.0
  9
$DIMTOFL
 70
     0
  9
$DIMTVP
 40
0.0
  9
$DIMTIX
 70
     0
  9
$DIMSOXD
 70
     0
  9
$DIMSAH
 70
     0
  9
$DIMBLK1
  1

  9
$DIMBLK2
  1

  9
$DIMSTYLE
  2
Standard
  9
$DIMCLRD
 70
     0
  9
$DIMCLRE
 70
     0
  9
$DIMCLRT
 70
     0
  9
$DIMTFAC
 40
1.0
  9
$DIMGAP
 40
0.09
  9
$DIMJUST
 70
     0
  9
$DIMSD1
 70
     0
  9
$DIMSD2
 70
     0
  9
$DIMTOLJ
 70
     1
  9
$DIMTZIN
 70
     0
  9
$DIMALTZ
 70
     0
  9
$DIMALTTZ
 70
     0
  9
$DIMUPT
 70
     0
  9
$DIMDEC
 70
     4
  9
$DIMTDEC
 70
     4
  9
$DIMALTU
 70
     2
  9
$DIMALTTD
 70
     2
  9
$DIMTXSTY
  7
Standard
  9
$DIMAUNIT
 70
     0
  9
$DIMADEC
 70
     0
  9
$DIMALTRND
 40
0.0
  9
$DIMAZIN
 70
     0
  9
$DIMDSEP
 70
    46
  9
$DIMATFIT
 70
     3
  9
$DIMFRAC
 70
     0
  9
$DIMLDRBLK
  1

  9
$DIMLUNIT
 70
     2
  9
$DIMLWD
 70
    -2
  9
$DIMLWE
 70
    -2
  9
$DIMTMOVE
 70
     2
  9
$LUNITS
 70
     2
  9
$LUPREC
 70
     3
  9
$SKETCHINC
 40
0.1
  9
$FILLETRAD
 40
0.5
  9
$AUNITS
 70
     0
  9
$AUPREC
 70
     0
  9
$MENU
  1
.
  9
$ELEVATION
 40
0.0
  9
$PELEVATION
 40
0.0
  9
$THICKNESS
 40
0.0
  9
$LIMCHECK
 70
     0
  9
$CHAMFERA
 40
0.5
  9
$CHAMFERB
 40
0.5
  9
$CHAMFERC
 40
1.0
  9
$CHAMFERD
 40
0.0
  9
$SKPOLY
 70
     0
  9
$TDCREATE
 40
2457900.395114873
  9
$TDUCREATE
 40
2457900.56178154
  9
$TDUPDATE
 40
2457900.395114884
  9
$TDUUPDATE
 40
2457900.561781551
  9
$TDINDWG
 40
0.0000000116
  9
$TDUSRTIMER
 40
0.0000000116
  9
$USRTIMER
 70
     1
  9
$ANGBASE
 50
0.0
  9
$ANGDIR
 70
     0
  9
$PDMODE
 70
     0
  9
$PDSIZE
 40
0.0
  9
$PLINEWID
 40
0.0
  9
$SPLFRAME
 70
     0
  9
$SPLINETYPE
 70
     6
  9
$SPLINESEGS
 70
     8
  9
$HANDSEED
  5
11D
  9
$SURFTAB1
 70
     6
  9
$SURFTAB2
 70
     6
  9
$SURFTYPE
 70
     6
  9
$SURFU
 70
     6
  9
$SURFV
 70
     6
  9
$UCSBASE
  2

  9
$UCSNAME
  2

  9
$UCSORG
 10
0.0
 20
0.0
 30
0.0
  9
$UCSXDIR
 10
1.0
 20
0.0
 30
0.0
  9
$UCSYDIR
 10
0.0
 20
1.0
 30
0.0
  9
$UCSORTHOREF
  2

  9
$UCSORTHOVIEW
 70
     0
  9
$UCSORGTOP
 10
0.0
 20
0.0
 30
0.0
  9
$UCSORGBOTTOM
 10
0.0
 20
0.0
 30
0.0
  9
$UCSORGLEFT
 10
0.0
 20
0.0
 30
0.0
  9
$UCSORGRIGHT
 10
0.0
 20
0.0
 30
0.0
  9
$UCSORGFRONT
 10
0.0
 20
0.0
 30
0.0
  9
$UCSORGBACK
 10
0.0
 20
0.0
 30
0.0
  9
$PUCSBASE
  2

  9
$PUCSNAME
  2

  9
$PUCSORG
 10
0.0
 20
0.0
 30
0.0
  9
$PUCSXDIR
 10
1.0
 20
0.0
 30
0.0
  9
$PUCSYDIR
 10
0.0
 20
1.0
 30
0.0
  9
$PUCSORTHOREF
  2

  9
$PUCSORTHOVIEW
 70
     0
  9
$PUCSORGTOP
 10
0.0
 20
0.0
 30
0.0
  9
$PUCSORGBOTTOM
 10
0.0
 20
0.0
 30
0.0
  9
$PUCSORGLEFT
 10
0.0
 20
0.0
 30
0.0
  9
$PUCSORGRIGHT
 10
0.0
 20
0.0
 30
0.0
  9
$PUCSORGFRONT
 10
0.0
 20
0.0
 30
0.0
  9
$PUCSORGBACK
 10
0.0
 20
0.0
 30
0.0
  9
$USERI1
 70
     0
  9
$USERI2
 70
     0
  9
$USERI3
 70
     0
  9
$USERI4
 70
     0
  9
$USERI5
 70
     0
  9
$USERR1
 40
0.0
  9
$USERR2
 40
0.0
  9
$USERR3
 40
0.0
  9
$USERR4
 40
0.0
  9
$USERR5
 40
0.0
  9
$WORLDVIEW
 70
     1
  9
$SHADEDGE
 70
     3
  9
$SHADEDIF
 70
    70
  9
$TILEMODE
 70
     1
  9
$MAXACTVP
 70
    64
  9
$PINSBASE
 10
0.0
 20
0.0
 30
0.0
  9
$PLIMCHECK
 70
     0
  9
$PEXTMIN
 10
1.000000000000000E+20
 20
1.000000000000000E+20
 30
1.000000000000000E+20
  9
$PEXTMAX
 10
-1.000000000000000E+20
 20
-1.000000000000000E+20
 30
-1.000000000000000E+20
  9
$PLIMMIN
 10
0.0
 20
0.0
  9
$PLIMMAX
 10
12.0
 20
9.0
  9
$UNITMODE
 70
     0
  9
$VISRETAIN
 70
     1
  9
$PLINEGEN
 70
     0
  9
$PSLTSCALE
 70
     1
  9
$TREEDEPTH
 70
  3020
  9
$CMLSTYLE
  2
Standard
  9
$CMLJUST
 70
     0
  9
$CMLSCALE
 40
1.0
  9
$PROXYGRAPHICS
 70
     1
  9
$MEASUREMENT
 70
     0
  9
$CELWEIGHT
370
    -1
  9
$ENDCAPS
280
     0
  9
$JOINSTYLE
280
     0
  9
$LWDISPLAY
290
     0
  9
$INSUNITS
 70
     1
  9
$HYPERLINKBASE
  1

  9
$STYLESHEET
  1

  9
$XEDIT
290
     1
  9
$CEPSNTYPE
380
     0
  9
$PSTYLEMODE
290
     1
  9
$FINGERPRINTGUID
  2
{A991BA11-B720-463B-B91B-D412F8A8861B}
  9
$VERSIONGUID
  2
{FAEB1C32-E019-11D5-929B-00C0DF256EC4}
  9
$EXTNAMES
290
     1
  9
$PSVPSCALE
 40
0.0
  9
$OLESTARTUP
290
     0
  9
$SORTENTS
280
   127
  9
$INDEXCTL
280
     0
  9
$HIDETEXT
280
     1
  9
$XCLIPFRAME
290
     0
  9
$HALOGAP
280
     0
  9
$OBSCOLOR
 70
   257
  9
$OBSLTYPE
280
     0
  9
$INTERSECTIONDISPLAY
280
     0
  9
$INTERSECTIONCOLOR
 70
   257
  9
$DIMASSOC
280
     2
  9
$PROJECTNAME
  1

  0
ENDSEC
  0
SECTION
  2
CLASSES
  0
CLASS
  1
ACDBDICTIONARYWDFLT
  2
AcDbDictionaryWithDefault
  3
ObjectDBX Classes
 90
        0
 91
        4
280
     0
281
     0
  0
CLASS
  1
VISUALSTYLE
  2
AcDbVisualStyle
  3
ObjectDBX Classes
 90
     4095
 91
        4
280
     0
281
     0
  0
ENDSEC
  0
SECTION
  2
TABLES
  0
TABLE
  2
VPORT
  5
8
330
0
100
AcDbSymbolTable
 70
     1
  0
VPORT
  5
29
330
8
100
AcDbSymbolTableRecord
100
AcDbViewportTableRecord
  2
*Active
 70
     0
 10
0.0
 20
0.0
 11
1.0
 21
1.0
 12
16.02909234373406
 22
30.55921071848368
 13
0.0
 23
0.0
 14
0.5
 24
0.5
 15
0.5
 25
0.5
 16
0.0
 26
0.0
 36
1.0
 17
0.0
 27
0.0
 37
0.0
 40
62.34078986570672
 41
0.8530808636538669
 42
50.0
 43
0.0
 44
0.0
 50
0.0
 51
0.0
 71
     0
 72
   100
 73
     1
 74
     3
 75
     0
 76
     0
 77
     0
 78
     0
281
     0
 65
     1
110
0.0
120
0.0
130
0.0
111
1.0
121
0.0
131
0.0
112
0.0
122
1.0
132
0.0
 79
     0
146
0.0
  0
ENDTAB
  0
TABLE
  2
LTYPE
  5
5
330
0
100
AcDbSymbolTable
 70
     1
  0
LTYPE
  5
14
330
5
100
AcDbSymbolTableRecord
100
AcDbLinetypeTableRecord
  2
ByBlock
 70
     0
  3

 72
    65
 73
     0
 40
0.0
  0
LTYPE
  5
15
330
5
100
AcDbSymbolTableRecord
100
AcDbLinetypeTableRecord
  2
ByLayer
 70
     0
  3

 72
    65
 73
     0
 40
0.0
  0
LTYPE
  5
16
330
5
100
AcDbSymbolTableRecord
100
AcDbLinetypeTableRecord
  2
Continuous
 70
     0
  3
Solid line
 72
    65
 73
     0
 40
0.0
  0
ENDTAB
  0
TABLE
  2
LAYER
  5
2
330
0
100
AcDbSymbolTable
 70
     2
  0
LAYER
  5
10
330
2
100
AcDbSymbolTableRecord
100
AcDbLayerTableRecord
  2
0
 70
     0
 62
     7
  6
Continuous
370
    -3
390
F
  0
LAYER
  5
3B
330
2
100
AcDbSymbolTableRecord
100
AcDbLayerTableRecord
  2
WIRE C - 2D
 70
     0
 62
     7
  6
Continuous
370
    -3
390
F
  0
ENDTAB
  0
TABLE
  2
STYLE
  5
3
330
0
100
AcDbSymbolTable
 70
     1
  0
STYLE
  5
11
330
3
100
AcDbSymbolTableRecord
100
AcDbTextStyleTableRecord
  2
Standard
 70
     0
 40
0.0
 41
1.0
 50
0.0
 71
     0
 42
0.2
  3
txt
  4

  0
ENDTAB
  0
TABLE
  2
VIEW
  5
6
330
0
100
AcDbSymbolTable
 70
     0
  0
ENDTAB
  0
TABLE
  2
UCS
  5
7
330
0
100
AcDbSymbolTable
 70
     0
  0
ENDTAB
  0
TABLE
  2
APPID
  5
9
330
0
100
AcDbSymbolTable
 70
     1
  0
APPID
  5
12
330
9
100
AcDbSymbolTableRecord
100
AcDbRegAppTableRecord
  2
ACAD
 70
     0
  0
ENDTAB
  0
TABLE
  2
DIMSTYLE
  5
A
330
0
100
AcDbSymbolTable
 70
     1
100
AcDbDimStyleTable
  0
DIMSTYLE
105
27
330
A
100
AcDbSymbolTableRecord
100
AcDbDimStyleTableRecord
  2
Standard
 70
     0
340
11
  0
ENDTAB
  0
TABLE
  2
BLOCK_RECORD
  5
1
330
0
100
AcDbSymbolTable
 70
     1
  0
BLOCK_RECORD
  5
1F
330
1
100
AcDbSymbolTableRecord
100
AcDbBlockTableRecord
  2
*Model_Space
340
22
  0
BLOCK_RECORD
  5
1B
330
1
100
AcDbSymbolTableRecord
100
AcDbBlockTableRecord
  2
*Paper_Space
340
1E
  0
BLOCK_RECORD
  5
23
330
1
100
AcDbSymbolTableRecord
100
AcDbBlockTableRecord
  2
*Paper_Space0
340
26
  0
ENDTAB
  0
ENDSEC
  0
SECTION
  2
BLOCKS
  0
BLOCK
  5
20
330
1F
100
AcDbEntity
  8
0
100
AcDbBlockBegin
  2
*Model_Space
 70
     0
 10
0.0
 20
0.0
 30
0.0
  3
*Model_Space
  1

  0
ENDBLK
  5
21
330
1F
100
AcDbEntity
  8
0
100
AcDbBlockEnd
  0
BLOCK
  5
1C
330
1B
100
AcDbEntity
 67
     1
  8
0
100
AcDbBlockBegin
  2
*Paper_Space
 70
     0
 10
0.0
 20
0.0
 30
0.0
  3
*Paper_Space
  1

  0
ENDBLK
  5
1D
330
1B
100
AcDbEntity
 67
     1
  8
0
100
AcDbBlockEnd
  0
BLOCK
  5
24
330
23
100
AcDbEntity
  8
0
100
AcDbBlockBegin
  2
*Paper_Space0
 70
     0
 10
0.0
 20
0.0
 30
0.0
  3
*Paper_Space0
  1

  0
ENDBLK
  5
25
330
23
100
AcDbEntity
  8
0
100
AcDbBlockEnd
  0
ENDSEC
  0
SECTION
  2
ENTITIES
  0
SPLINE
  5
3C
330
1F
100
AcDbEntity
  8
WIRE C - 2D
 62
     7
100
AcDbSpline
210
0.0
220
0.0
230
1.0
 70
     8
 71
     3
 72
    16
 73
    12
 74
     0
 42
0.0000000001
 43
0.0000000001
 40
-9.0
 40
-9.0
 40
-9.0
 40
-9.0
 40
-8.0
 40
-7.0
 40
-6.0
 40
-5.0
 40
-4.0
 40
-3.0
 40
-2.0
 40
-1.0
 40
0.0
 40
0.0
 40
0.0
 40
0.0
 10
-9.662923413614827
 20
24.64937968188278
 30
0.0
 10
-9.319761635549902
 20
24.52368451486969
 30
0.0
 10
-8.60459816870183
 20
24.36234908306176
 30
0.0
 10
-7.549186481801777
 20
24.0611868277642
 30
0.0
 10
-6.508539877109436
 20
23.71235263951075
 30
0.0
 10
-5.457849220491502
 20
23.39231090498357
 30
0.0
 10
-4.378817878343472
 20
23.18475965088813
 30
0.0
 10
-3.288875741200983
 20
23.0530804637935
 30
0.0
 10
-2.194235939805999
 20
22.97060690537084
 30
0.0
 10
-1.097296652865388
 20
22.93056594749694
 30
0.0
 10
-0.3655943368460645
 20
22.9245901199337
 30
0.0
 10
0.0002393015893585
 20
22.92458310665696
 30
0.0
  0
SPLINE
  5
3D
330
1F
100
AcDbEntity
  8
WIRE C - 2D
 62
     7
100
AcDbSpline
210
0.0
220
0.0
230
1.0
 70
     8
 71
     3
 72
    16
 73
    12
 74
     0
 42
0.0000000001
 43
0.0000000001
 40
0.0
 40
0.0
 40
0.0
 40
0.0
 40
1.0
 40
2.0
 40
3.0
 40
4.0
 40
5.0
 40
6.0
 40
7.0
 40
8.0
 40
9.0
 40
9.0
 40
9.0
 40
9.0
 10
0.0002393015893585
 20
22.92458310665696
 30
0.0
 10
0.3660729400247815
 20
22.9245901199337
 30
0.0
 10
1.097775256044105
 20
22.93056594749694
 30
0.0
 10
2.194714542984716
 20
22.97060690537084
 30
0.0
 10
3.2893543443797
 20
23.0530804637935
 30
0.0
 10
4.379296481522189
 20
23.18475965088813
 30
0.0
 10
5.458327823670219
 20
23.39231090498357
 30
0.0
 10
6.509018480288153
 20
23.71235263951075
 30
0.0
 10
7.549665084980494
 20
24.0611868277642
 30
0.0
 10
8.605076771880547
 20
24.36234908306176
 30
0.0
 10
9.32024023872862
 20
24.52368451486969
 30
0.0
 10
9.663402016793544
 20
24.64937968188278
 30
0.0
  0
SPLINE
  5
3E
330
1F
100
AcDbEntity
  8
WIRE C - 2D
 62
     7
100
AcDbSpline
210
0.0
220
0.0
230
1.0
 70
     8
 71
     3
 72
    16
 73
    12
 74
     0
 42
0.0000000001
 43
0.0000000001
 40
0.0
 40
0.0
 40
0.0
 40
0.0
 40
1.0
 40
2.0
 40
3.0
 40
4.0
 40
5.0
 40
6.0
 40
7.0
 40
8.0
 40
9.0
 40
9.0
 40
9.0
 40
9.0
 10
7.650074607377135
 20
24.11351333975307
 30
0.0
 10
7.600771329819921
 20
24.43007417440446
 30
0.0
 10
7.038598728865412
 20
24.73263040525498
 30
0.0
 10
6.16474116265234
 20
24.79715239045732
 30
0.0
 10
5.284914346318131
 20
24.86102317788924
 30
0.0
 10
4.404647435390271
 20
24.88998016444975
 30
0.0
 10
3.523652248227979
 20
24.89016036048384
 30
0.0
 10
2.642828723773921
 20
24.88528614624381
 30
0.0
 10
1.761973525680377
 20
24.87889278280544
 30
0.0
 10
0.8811081966857913
 20
24.87663912464235
 30
0.0
 10
0.2938620281671375
 20
24.87670785055149
 30
0.0
 10
0.0002393015893567
 20
24.87642921706661
 30
0.0
  0
SPLINE
  5
3F
330
1F
100
AcDbEntity
  8
WIRE C - 2D
 62
     7
100
AcDbSpline
210
0.0
220
0.0
230
1.0
 70
     8
 71
     3
 72
    16
 73
    12
 74
     0
 42
0.0000000001
 43
0.0000000001
 40
-9.0
 40
-9.0
 40
-9.0
 40
-9.0
 40
-8.0
 40
-7.0
 40
-6.0
 40
-5.0
 40
-4.0
 40
-3.0
 40
-2.0
 40
-1.0
 40
0.0
 40
0.0
 40
0.0
 40
0.0
 10
0.0002393015893567
 20
24.87642921706661
 30
0.0
 10
-0.2933834249884241
 20
24.87670785055149
 30
0.0
 10
-0.8806295935070779
 20
24.87663912464235
 30
0.0
 10
-1.761494922501663
 20
24.87889278280544
 30
0.0
 10
-2.642350120595208
 20
24.88528614624381
 30
0.0
 10
-3.523173645049266
 20
24.89016036048384
 30
0.0
 10
-4.404168832211558
 20
24.88998016444975
 30
0.0
 10
-5.284435743139418
 20
24.86102317788924
 30
0.0
 10
-6.164262559473626
 20
24.79715239045732
 30
0.0
 10
-7.038120125686699
 20
24.73263040525498
 30
0.0
 10
-7.600292726641207
 20
24.43007417440446
 30
0.0
 10
-7.649596004198422
 20
24.11351333975307
 30
0.0
  0
SPLINE
  5
40
330
1F
100
AcDbEntity
  8
WIRE C - 2D
 62
     7
100
AcDbSpline
210
0.0
220
0.0
230
1.0
 70
     8
 71
     3
 72
    24
 73
    20
 74
     0
 42
0.0000000001
 43
0.0000000001
 40
0.0
 40
0.0
 40
0.0
 40
0.0
 40
1.0
 40
2.0
 40
3.0
 40
4.0
 40
5.0
 40
6.0
 40
7.0
 40
8.0
 40
9.0
 40
10.0
 40
11.0
 40
12.0
 40
13.0
 40
14.0
 40
15.0
 40
16.0
 40
17.0
 40
17.0
 40
17.0
 40
17.0
 10
41.6569335357563
 20
23.00245439138093
 30
0.0
 10
41.79045540488752
 20
23.14168539489468
 30
0.0
 10
41.95211104674088
 20
23.50629803450941
 30
0.0
 10
41.89715041957296
 20
24.09497014653011
 30
0.0
 10
41.56977436782106
 20
24.59806647459879
 30
0.0
 10
41.01932512407651
 20
24.81700056358949
 30
0.0
 10
40.44375872663188
 20
24.85887389427258
 30
0.0
 10
39.86927035224164
 20
24.88140009332096
 30
0.0
 10
39.29374545486176
 20
24.8955483726992
 30
0.0
 10
38.71852749439727
 20
24.87525470597571
 30
0.0
 10
38.14359025027725
 20
24.85208410585905
 30
0.0
 10
37.56877813109126
 20
24.8249848182861
 30
0.0
 10
36.99403917253685
 20
24.79668596413811
 30
0.0
 10
36.41927519345976
 20
24.76880189205797
 30
0.0
 10
35.84438657346801
 20
24.74362096057133
 30
0.0
 10
35.26940741538416
 20
24.72062296767517
 30
0.0
 10
34.69439962919309
 20
24.69836506510457
 30
0.0
 10
34.11941031358455
 20
24.6756346114101
 30
0.0
 10
33.73613119045102
 20
24.65931589754323
 30
0.0
 10
33.54451387538435
 20
24.65065608381019
 30
0.0
  0
SPLINE
  5
41
330
1F
100
AcDbEntity
  8
WIRE C - 2D
 62
     7
100
AcDbSpline
210
0.0
220
0.0
230
1.0
 70
     8
 71
     3
 72
    24
 73
    20
 74
     0
 42
0.0000000001
 43
0.0000000001
 40
0.0
 40
0.0
 40
0.0
 40
0.0
 40
1.0
 40
2.0
 40
3.0
 40
4.0
 40
5.0
 40
6.0
 40
7.0
 40
8.0
 40
9.0
 40
10.0
 40
11.0
 40
12.0
 40
13.0
 40
14.0
 40
15.0
 40
16.0
 40
17.0
 40
17.0
 40
17.0
 40
17.0
 10
-0.0000000000000018
 20
57.22349648457391
 30
0.0
 10
0.5042271187832738
 20
57.22355614546175
 30
0.0
 10
1.512527863514626
 20
57.2152038285117
 30
0.0
 10
3.024353397868744
 20
57.13474824278552
 30
0.0
 10
4.520555807248307
 20
56.90244548560371
 30
0.0
 10
5.95758978625357
 20
56.36820012211742
 30
0.0
 10
7.053084774122526
 20
55.24866960651504
 30
0.0
 10
7.41826938122743
 20
53.75075006383686
 30
0.0
 10
7.557667419052358
 20
52.24857263902519
 30
0.0
 10
7.654105209472681
 20
50.73757909018872
 30
0.0
 10
7.668673137218108
 20
49.22511625620951
 30
0.0
 10
7.59738005871496
 20
47.71166528118518
 30
0.0
 10
7.326596697429243
 20
46.22166904660597
 30
0.0
 10
6.797258277871991
 20
44.78648917059498
 30
0.0
 10
5.774250595105004
 20
43.64131563322647
 30
0.0
 10
4.482039069091125
 20
42.82646145835373
 30
0.0
 10
3.01342159808441
 20
42.42110277646192
 30
0.0
 10
1.512026175577687
 20
42.23114188983902
 30
0.0
 10
0.504154335598724
 20
42.18014820633643
 30
0.0
 10
-0.0000000000000018
 20
42.17295708217448
 30
0.0
  0
SPLINE
  5
42
330
1F
100
AcDbEntity
  8
WIRE C - 2D
 62
     7
100
AcDbSpline
210
0.0
220
0.0
230
1.0
 70
     8
 71
     3
 72
    24
 73
    20
 74
     0
 42
0.0000000001
 43
0.0000000001
 40
-17.0
 40
-17.0
 40
-17.0
 40
-17.0
 40
-16.0
 40
-15.0
 40
-14.0
 40
-13.0
 40
-12.0
 40
-11.0
 40
-10.0
 40
-9.0
 40
-8.0
 40
-7.0
 40
-6.0
 40
-5.0
 40
-4.0
 40
-3.0
 40
-2.0
 40
-1.0
 40
0.0
 40
0.0
 40
0.0
 40
0.0
 10
-0.0000000000000018
 20
42.17295708217448
 30
0.0
 10
-0.5041543355987276
 20
42.18014820633643
 30
0.0
 10
-1.512026175577691
 20
42.23114188983902
 30
0.0
 10
-3.013421598084414
 20
42.42110277646192
 30
0.0
 10
-4.482039069091129
 20
42.82646145835373
 30
0.0
 10
-5.774250595105007
 20
43.64131563322647
 30
0.0
 10
-6.797258277871995
 20
44.78648917059498
 30
0.0
 10
-7.326596697429246
 20
46.22166904660597
 30
0.0
 10
-7.597380058714964
 20
47.71166528118518
 30
0.0
 10
-7.668673137218112
 20
49.22511625620951
 30
0.0
 10
-7.654105209472685
 20
50.73757909018872
 30
0.0
 10
-7.557667419052361
 20
52.24857263902519
 30
0.0
 10
-7.418269381227433
 20
53.75075006383686
 30
0.0
 10
-7.05308477412253
 20
55.24866960651504
 30
0.0
 10
-5.957589786253574
 20
56.36820012211742
 30
0.0
 10
-4.520555807248311
 20
56.90244548560371
 30
0.0
 10
-3.024353397868747
 20
57.13474824278552
 30
0.0
 10
-1.51252786351463
 20
57.2152038285117
 30
0.0
 10
-0.5042271187832773
 20
57.22355614546175
 30
0.0
 10
-0.0000000000000018
 20
57.22349648457391
 30
0.0
  0
SPLINE
  5
43
330
1F
100
AcDbEntity
  8
WIRE C - 2D
 62
     7
100
AcDbSpline
210
0.0
220
0.0
230
1.0
 70
     8
 71
     3
 72
    24
 73
    20
 74
     0
 42
0.0000000001
 43
0.0000000001
 40
0.0
 40
0.0
 40
0.0
 40
0.0
 40
1.0
 40
2.0
 40
3.0
 40
4.0
 40
5.0
 40
6.0
 40
7.0
 40
8.0
 40
9.0
 40
10.0
 40
11.0
 40
12.0
 40
13.0
 40
14.0
 40
15.0
 40
16.0
 40
17.0
 40
17.0
 40
17.0
 40
17.0
 10
-0.0000000000000053
 20
60.58186776840567
 30
0.0
 10
0.615456424946518
 20
60.57932290314307
 30
0.0
 10
1.84686925382275
 20
60.51503460600825
 30
0.0
 10
3.676626902492638
 20
60.27853159350384
 30
0.0
 10
5.489786683424547
 20
59.85811351868889
 30
0.0
 10
7.057394086183615
 20
58.81090122423061
 30
0.0
 10
8.110596827981091
 20
57.27013188024922
 30
0.0
 10
8.862717703304021
 20
55.58315981291263
 30
0.0
 10
9.62113029625709
 20
53.89523412412165
 30
0.0
 10
10.01922260915391
 20
52.08036847719879
 30
0.0
 10
10.07187038101627
 20
50.2307355619593
 30
0.0
 10
9.928770388226726
 20
48.38222751121701
 30
0.0
 10
9.354616978924374
 20
46.61312571102634
 30
0.0
 10
8.386775793729056
 20
45.0262268751128
 30
0.0
 10
7.080406478515898
 20
43.69965388298412
 30
0.0
 10
5.461560056702252
 20
42.77761742360891
 30
0.0
 10
3.681512219876951
 20
42.25375212986403
 30
0.0
 10
1.84740758012979
 20
42.01117727515464
 30
0.0
 10
0.6155025334887846
 20
41.9778116460719
 30
0.0
 10
0.0000000000001147
 20
41.98009507603346
 30
0.0
  0
SPLINE
  5
44
330
1F
100
AcDbEntity
  8
WIRE C - 2D
 62
     7
100
AcDbSpline
210
0.0
220
0.0
230
1.0
 70
     8
 71
     3
 72
    24
 73
    20
 74
     0
 42
0.0000000001
 43
0.0000000001
 40
-17.0
 40
-17.0
 40
-17.0
 40
-17.0
 40
-16.0
 40
-15.0
 40
-14.0
 40
-13.0
 40
-12.0
 40
-11.0
 40
-10.0
 40
-9.0
 40
-8.0
 40
-7.0
 40
-6.0
 40
-5.0
 40
-4.0
 40
-3.0
 40
-2.0
 40
-1.0
 40
0.0
 40
0.0
 40
0.0
 40
0.0
 10
0.0000000000000053
 20
41.98009507603346
 30
0.0
 10
-0.6155025334886645
 20
41.97781164607189
 30
0.0
 10
-1.84740758012967
 20
42.01117727515463
 30
0.0
 10
-3.681512219876833
 20
42.253752129864
 30
0.0
 10
-5.461560056702138
 20
42.77761742360887
 30
0.0
 10
-7.08040647851579
 20
43.69965388298407
 30
0.0
 10
-8.386775793728956
 20
45.02622687511275
 30
0.0
 10
-9.354616978924287
 20
46.61312571102628
 30
0.0
 10
-9.928770388226651
 20
48.38222751121694
 30
0.0
 10
-10.07187038101621
 20
50.23073556195923
 30
0.0
 10
-10.01922260915386
 20
52.08036847719872
 30
0.0
 10
-9.621130296257055
 20
53.89523412412158
 30
0.0
 10
-8.862717703303996
 20
55.58315981291257
 30
0.0
 10
-8.110596827981079
 20
57.27013188024917
 30
0.0
 10
-7.057394086183614
 20
58.81090122423057
 30
0.0
 10
-5.489786683424552
 20
59.85811351868885
 30
0.0
 10
-3.676626902492647
 20
60.27853159350381
 30
0.0
 10
-1.84686925382276
 20
60.51503460600824
 30
0.0
 10
-0.6154564249465286
 20
60.57932290314307
 30
0.0
 10
-0.0000000000000053
 20
60.58186776840567
 30
0.0
  0
SPLINE
  5
45
330
1F
100
AcDbEntity
  8
WIRE C - 2D
 62
     7
100
AcDbSpline
210
0.0
220
0.0
230
1.0
 70
     8
 71
     3
 72
     8
 73
     4
 74
     0
 42
0.0000000001
 43
0.0000000001
 40
0.0
 40
0.0
 40
0.0
 40
0.0
 40
1.0
 40
1.0
 40
1.0
 40
1.0
 10
-7.207352280126926
 20
59.56216479693322
 30
0.0
 10
-7.206065777267989
 20
59.59163055679169
 30
0.0
 10
-7.168715894028109
 20
59.61561074605158
 30
0.0
 10
-7.167363009251536
 20
59.64510128625212
 30
0.0
  0
SPLINE
  5
46
330
1F
100
AcDbEntity
  8
WIRE C - 2D
 62
     7
100
AcDbSpline
210
0.0
220
0.0
230
1.0
 70
     8
 71
     3
 72
     8
 73
     4
 74
     0
 42
0.0000000001
 43
0.0000000001
 40
0.0
 40
0.0
 40
0.0
 40
0.0
 40
1.0
 40
1.0
 40
1.0
 40
1.0
 10
-7.584598970898389
 20
59.57237177910375
 30
0.0
 10
-7.58342147535951
 20
59.59934086086056
 30
0.0
 10
-7.605643026401273
 20
59.63677756106886
 30
0.0
 10
-7.604465324805095
 20
59.66374656391321
 30
0.0
  0
SPLINE
  5
47
330
1F
100
AcDbEntity
  8
WIRE C - 2D
 62
     7
100
AcDbSpline
210
0.0
220
0.0
230
1.0
 70
    24
 71
     2
 72
     6
 73
     3
 74
     0
 42
0.0000000001
 43
0.0000000001
 40
0.0
 40
0.0
 40
0.0
 40
0.8180115593801168
 40
0.8180115593801168
 40
0.8180115593801168
 10
-7.265259711371769
 20
43.95788080607732
 30
0.0
 10
-7.546166500816516
 20
43.66059793831714
 30
0.0
 10
-7.827073290261263
 20
43.36331507055696
 30
0.0
  0
SPLINE
  5
48
330
1F
100
AcDbEntity
  8
WIRE C - 2D
 62
     7
100
AcDbSpline
210
0.0
220
0.0
230
1.0
 70
     8
 71
     3
 72
     8
 73
     4
 74
     0
 42
0.0000000001
 43
0.0000000001
 40
-1.0
 40
-1.0
 40
-1.0
 40
-1.0
 40
0.0
 40
0.0
 40
0.0
 40
0.0
 10
-7.827073290261263
 20
43.36331507055696
 30
0.0
 10
-7.869276102095987
 20
43.3186519531059
 30
0.0
 10
-7.940416714945441
 20
43.28627674448919
 30
0.0
 10
-8.001372586541343
 20
43.28631383616111
 30
0.0
  0
SPLINE
  5
49
330
1F
100
AcDbEntity
  8
WIRE C - 2D
 62
     7
100
AcDbSpline
210
0.0
220
0.0
230
1.0
 70
     8
 71
     3
 72
    20
 73
    16
 74
     0
 42
0.0000000001
 43
0.0000000001
 40
1.818011559380117
 40
1.818011559380117
 40
1.818011559380117
 40
1.818011559380117
 40
2.818011559380117
 40
3.818011559380117
 40
4.818011559380117
 40
5.818011559380117
 40
6.818011559380117
 40
7.818011559380117
 40
8.818011559380118
 40
9.818011559380118
 40
10.81801155938012
 40
11.81801155938012
 40
12.81801155938012
 40
13.81801155938012
 40
14.81801155938012
 40
14.81801155938012
 40
14.81801155938012
 40
14.81801155938012
 10
-8.001372586541343
 20
43.28631383616111
 30
0.0
 10
-8.043854248070463
 20
43.28633968626892
 30
0.0
 10
-8.128804140118644
 20
43.3104086734101
 30
0.0
 10
-8.218436131133625
 20
43.40730058528117
 30
0.0
 10
-8.25386874956685
 20
43.53159992298585
 30
0.0
 10
-8.268478299281792
 20
43.65810727030689
 30
0.0
 10
-8.274844444680323
 20
43.78550913738771
 30
0.0
 10
-8.2779423180019
 20
43.91292516491975
 30
0.0
 10
-8.27795917582907
 20
44.04040391000222
 30
0.0
 10
-8.276283045135965
 20
44.16785936531961
 30
0.0
 10
-8.273128257861888
 20
44.29528901341401
 30
0.0
 10
-8.268811419028918
 20
44.42268344209257
 30
0.0
 10
-8.263458599595628
 20
44.5500378688584
 30
0.0
 10
-8.257840581302288
 20
44.67738032527061
 30
0.0
 10
-8.254150485086742
 20
44.76227780032397
 30
0.0
 10
-8.252294386398034
 20
44.80472605347899
 30
0.0
  0
ARC
  5
4A
330
1F
100
AcDbEntity
  8
WIRE C - 2D
 62
     7
100
AcDbCircle
 10
236.3293072132986
 20
34.11011423157446
 30
0.0
 40
244.8153070440939
100
AcDbArc
 50
177.4590013662706
 51
177.4962710225373
  0
SPLINE
  5
4B
330
1F
100
AcDbEntity
  8
WIRE C - 2D
 62
     7
100
AcDbSpline
210
0.0
220
0.0
230
1.0
 70
    24
 71
     2
 72
     6
 73
     3
 74
     0
 42
0.0000000001
 43
0.0000000001
 40
0.0
 40
0.0
 40
0.0
 40
0.7664847034312837
 40
0.7664847034312837
 40
0.7664847034312837
 10
-8.11743070670105
 20
43.69303918780889
 30
0.0
 10
-7.854218341630619
 20
43.97159609585923
 30
0.0
 10
-7.591005976560188
 20
44.25015300390957
 30
0.0
  0
SPLINE
  5
4C
330
1F
100
AcDbEntity
  8
WIRE C - 2D
 62
     7
100
AcDbSpline
210
0.0
220
0.0
230
1.0
 70
    12
 71
     2
 72
     6
 73
     3
 74
     0
 42
0.0000000001
 43
0.0000000001
 40
0.0
 40
0.0
 40
0.0
 40
0.5014455608506356
 40
0.5014455608506356
 40
0.5014455608506356
 10
-7.828213139235906
 20
44.48753371709101
 30
0.0
 41
1.0
 10
-7.839467333771839
 20
44.23702785005668
 30
0.0
 41
0.9997860942169332
 10
-7.84035194127695
 20
43.98627086853304
 30
0.0
 41
1.0
  0
SPLINE
  5
4D
330
1F
100
AcDbEntity
  8
WIRE C - 2D
 62
     7
100
AcDbSpline
210
0.0
220
0.0
230
1.0
 70
     8
 71
     3
 72
     8
 73
     4
 74
     0
 42
0.0000000001
 43
0.0000000001
 40
0.2478936349729827
 40
0.2478936349729827
 40
0.2478936349729827
 40
0.2478936349729827
 40
1.0
 40
1.0
 40
1.0
 40
1.0
 10
-7.148171327508606
 20
60.0634257732149
 30
0.0
 10
-7.155817784642782
 20
59.92404940491181
 30
0.0
 10
-7.160966256429292
 20
59.78453939622572
 30
0.0
 10
-7.167363009251536
 20
59.64510128625212
 30
0.0
  0
LINE
  5
4E
330
1F
100
AcDbEntity
  8
WIRE C - 2D
 62
     7
100
AcDbLine
 10
-7.257138567796177
 20
58.42187133663002
 30
0.0
 11
-7.207352280126926
 21
59.56216479693322
 31
0.0
  0
LINE
  5
4F
330
1F
100
AcDbEntity
  8
WIRE C - 2D
 62
     7
100
AcDbLine
 10
-7.129422202930659
 20
58.56541384089182
 30
0.0
 11
-7.084983955989768
 21
59.58321703020918
 31
0.0
  0
SPLINE
  5
50
330
1F
100
AcDbEntity
  8
WIRE C - 2D
 62
     7
100
AcDbSpline
210
0.0
220
0.0
230
1.0
 70
    12
 71
     2
 72
     8
 73
     5
 74
     0
 42
0.0000000001
 43
0.0000000001
 40
0.0
 40
0.0
 40
0.0
 40
0.0447043541142886
 40
0.0447043541142886
 40
0.0894087082285771
 40
0.0894087082285771
 40
0.0894087082285771
 10
-7.084983955989768
 20
59.58321703020918
 30
0.0
 41
1.0
 10
-7.083707556404222
 20
59.60697701627206
 30
0.0
 41
0.9196162860225615
 10
-7.099892293314749
 20
59.62422321685177
 30
0.0
 41
1.0
 10
-7.116077030225277
 20
59.64146941743148
 30
0.0
 41
0.9196162860225615
 10
-7.139727061086052
 20
59.64170003309223
 30
0.0
 41
1.0
  0
POLYLINE
  5
51
330
1F
100
AcDbEntity
  8
WIRE C - 2D
 62
     7
100
AcDb2dPolyline
 66
     1
 10
0.0
 20
0.0
 30
0.0
  0
VERTEX
  5
52
330
51
100
AcDbEntity
  8
WIRE C - 2D
 62
     7
100
AcDbVertex
100
AcDb2dVertex
 10
-7.139727061086052
 20
59.64170003309223
 30
0.0
  0
VERTEX
  5
53
330
51
100
AcDbEntity
  8
WIRE C - 2D
 62
     7
100
AcDbVertex
100
AcDb2dVertex
 10
-7.167677850624965
 20
59.64170003309223
 30
0.0
  0
SEQEND
  5
54
330
51
100
AcDbEntity
  8
WIRE C - 2D
 62
     7
  0
LINE
  5
55
330
1F
100
AcDbEntity
  8
WIRE C - 2D
 62
     7
100
AcDbLine
 10
-7.584598970898389
 20
59.57237177910375
 30
0.0
 11
-7.657691060677789
 21
57.89828769135165
 31
0.0
  0
LINE
  5
56
330
1F
100
AcDbEntity
  8
WIRE C - 2D
 62
     7
100
AcDbLine
 10
-7.787701755864886
 20
57.70219638331346
 30
0.0
 11
-7.704465071916674
 21
59.60862987749231
 31
0.0
  0
SPLINE
  5
57
330
1F
100
AcDbEntity
  8
WIRE C - 2D
 62
     7
100
AcDbSpline
210
0.0
220
0.0
230
1.0
 70
    12
 71
     2
 72
     8
 73
     5
 74
     0
 42
0.0000000001
 43
0.0000000001
 40
-0.0894305444329219
 40
-0.0894305444329219
 40
-0.0894305444329219
 40
-0.044715272216461
 40
-0.044715272216461
 40
0.0
 40
0.0
 40
0.0
 10
-7.704465071916674
 20
59.60862987749231
 30
0.0
 41
1.0
 10
-7.703581293317201
 20
59.63404644287126
 30
0.0
 41
0.9196591449038853
 10
-7.685945987531706
 20
59.64981384121489
 30
0.0
 41
1.0
 10
-7.668310681746212
 20
59.66558123955852
 30
0.0
 41
0.9196591449038853
 10
-7.64472575380587
 20
59.66374656391321
 30
0.0
 41
1.0
  0
POLYLINE
  5
58
330
1F
100
AcDbEntity
  8
WIRE C - 2D
 62
     7
100
AcDb2dPolyline
 66
     1
 10
0.0
 20
0.0
 30
0.0
  0
VERTEX
  5
59
330
58
100
AcDbEntity
  8
WIRE C - 2D
 62
     7
100
AcDbVertex
100
AcDb2dVertex
 10
-7.64472575380587
 20
59.66374656391321
 30
0.0
  0
VERTEX
  5
5A
330
58
100
AcDbEntity
  8
WIRE C - 2D
 62
     7
100
AcDbVertex
100
AcDb2dVertex
 10
-7.604465324805095
 20
59.66374656391321
 30
0.0
  0
SEQEND
  5
5B
330
58
100
AcDbEntity
  8
WIRE C - 2D
 62
     7
  0
LINE
  5
5C
330
1F
100
AcDbEntity
  8
WIRE C - 2D
 62
     7
100
AcDbLine
 10
-6.726205600083083
 20
58.95473268168632
 30
0.0
 11
-7.42537427081125
 21
60.79176214798633
 31
0.0
  0
SPLINE
  5
5D
330
1F
100
AcDbEntity
  8
WIRE C - 2D
 62
     7
100
AcDbSpline
210
0.0
220
0.0
230
1.0
 70
     8
 71
     3
 72
    16
 73
    12
 74
     0
 42
0.0000000001
 43
0.0000000001
 40
0.1056519389851282
 40
0.1056519389851282
 40
0.1056519389851282
 40
0.1056519389851282
 40
1.0
 40
2.0
 40
3.0
 40
4.0
 40
5.0
 40
6.0
 40
7.0
 40
8.0
 40
9.0
 40
9.0
 40
9.0
 40
9.0
 10
-7.604465324805095
 20
59.66374656391321
 30
0.0
 10
-7.60172282124379
 20
59.72654904850314
 30
0.0
 10
-7.595924834919882
 20
59.85957396445655
 30
0.0
 10
-7.587007778305836
 20
60.06281640721617
 30
0.0
 10
-7.573734040991786
 20
60.27329323248276
 30
0.0
 10
-7.557125092494682
 20
60.48343735526056
 30
0.0
 10
-7.532555352935453
 20
60.69323822324605
 30
0.0
 10
-7.502623784957285
 20
60.90066833383141
 30
0.0
 10
-7.407827918568669
 20
61.10232102015289
 30
0.0
 10
-7.174787646895963
 20
61.14958666978328
 30
0.0
 10
-7.060960642278733
 20
61.04298473797451
 30
0.0
 10
-7.030653374597486
 20
60.98045720920279
 30
0.0
  0
LINE
  5
5E
330
1F
100
AcDbEntity
  8
WIRE C - 2D
 62
     7
100
AcDbLine
 10
-7.030653374597486
 20
60.98045720920279
 30
0.0
 11
-6.365129001459871
 21
59.23699743317191
 31
0.0
  0
SPLINE
  5
5F
330
1F
100
AcDbEntity
  8
WIRE C - 2D
 62
     7
100
AcDbSpline
210
0.0
220
0.0
230
1.0
 70
     8
 71
     3
 72
     8
 73
     4
 74
     0
 42
0.0000000001
 43
0.0000000001
 40
0.0
 40
0.0
 40
0.0
 40
0.0
 40
1.0
 40
1.0
 40
1.0
 40
1.0
 10
7.584598970898389
 20
59.57237177910375
 30
0.0
 10
7.58342147535951
 20
59.59934086086056
 30
0.0
 10
7.605643026401273
 20
59.63677756106886
 30
0.0
 10
7.604465324805095
 20
59.66374656391321
 30
0.0
  0
SPLINE
  5
60
330
1F
100
AcDbEntity
  8
WIRE C - 2D
 62
     7
100
AcDbSpline
210
0.0
220
0.0
230
1.0
 70
     8
 71
     3
 72
     8
 73
     4
 74
     0
 42
0.0000000001
 43
0.0000000001
 40
0.0
 40
0.0
 40
0.0
 40
0.0
 40
1.0
 40
1.0
 40
1.0
 40
1.0
 10
7.207352280126926
 20
59.56216479693322
 30
0.0
 10
7.206065777267989
 20
59.59163055679169
 30
0.0
 10
7.168715894028109
 20
59.61561074605158
 30
0.0
 10
7.167363009251536
 20
59.64510128625212
 30
0.0
  0
SPLINE
  5
61
330
1F
100
AcDbEntity
  8
WIRE C - 2D
 62
     7
100
AcDbSpline
210
0.0
220
0.0
230
1.0
 70
    24
 71
     2
 72
     6
 73
     3
 74
     0
 42
0.0000000001
 43
0.0000000001
 40
0.0
 40
0.0
 40
0.0
 40
0.8180115593801168
 40
0.8180115593801168
 40
0.8180115593801168
 10
7.265259711371769
 20
43.95788080607732
 30
0.0
 10
7.546166500816516
 20
43.66059793831714
 30
0.0
 10
7.827073290261263
 20
43.36331507055696
 30
0.0
  0
SPLINE
  5
62
330
1F
100
AcDbEntity
  8
WIRE C - 2D
 62
     7
100
AcDbSpline
210
0.0
220
0.0
230
1.0
 70
     8
 71
     3
 72
     8
 73
     4
 74
     0
 42
0.0000000001
 43
0.0000000001
 40
-1.0
 40
-1.0
 40
-1.0
 40
-1.0
 40
0.0
 40
0.0
 40
0.0
 40
0.0
 10
7.827073290261263
 20
43.36331507055696
 30
0.0
 10
7.869276102095987
 20
43.3186519531059
 30
0.0
 10
7.940416714945441
 20
43.28627674448919
 30
0.0
 10
8.001372586541343
 20
43.28631383616111
 30
0.0
  0
SPLINE
  5
63
330
1F
100
AcDbEntity
  8
WIRE C - 2D
 62
     7
100
AcDbSpline
210
0.0
220
0.0
230
1.0
 70
     8
 71
     3
 72
    20
 73
    16
 74
     0
 42
0.0000000001
 43
0.0000000001
 40
1.818011559380117
 40
1.818011559380117
 40
1.818011559380117
 40
1.818011559380117
 40
2.818011559380117
 40
3.818011559380117
 40
4.818011559380117
 40
5.818011559380117
 40
6.818011559380117
 40
7.818011559380117
 40
8.818011559380118
 40
9.818011559380118
 40
10.81801155938012
 40
11.81801155938012
 40
12.81801155938012
 40
13.81801155938012
 40
14.81801155938012
 40
14.81801155938012
 40
14.81801155938012
 40
14.81801155938012
 10
8.001372586541343
 20
43.28631383616111
 30
0.0
 10
8.043854248070463
 20
43.28633968626892
 30
0.0
 10
8.128804140118644
 20
43.3104086734101
 30
0.0
 10
8.218436131133625
 20
43.40730058528117
 30
0.0
 10
8.25386874956685
 20
43.53159992298585
 30
0.0
 10
8.268478299281792
 20
43.65810727030689
 30
0.0
 10
8.274844444680323
 20
43.78550913738771
 30
0.0
 10
8.2779423180019
 20
43.91292516491975
 30
0.0
 10
8.27795917582907
 20
44.04040391000222
 30
0.0
 10
8.276283045135965
 20
44.16785936531961
 30
0.0
 10
8.273128257861888
 20
44.29528901341401
 30
0.0
 10
8.268811419028918
 20
44.42268344209257
 30
0.0
 10
8.263458599595628
 20
44.5500378688584
 30
0.0
 10
8.257840581302288
 20
44.67738032527061
 30
0.0
 10
8.254150485086742
 20
44.76227780032397
 30
0.0
 10
8.252294386398034
 20
44.80472605347899
 30
0.0
  0
ARC
  5
64
330
1F
100
AcDbEntity
  8
WIRE C - 2D
 62
     7
100
AcDbCircle
 10
-236.3293072132986
 20
34.11011423157446
 30
0.0
 40
244.8153070440939
100
AcDbArc
 50
2.503728977462736
 51
2.540998633729436
  0
SPLINE
  5
65
330
1F
100
AcDbEntity
  8
WIRE C - 2D
 62
     7
100
AcDbSpline
210
0.0
220
0.0
230
1.0
 70
    24
 71
     2
 72
     6
 73
     3
 74
     0
 42
0.0000000001
 43
0.0000000001
 40
0.0
 40
0.0
 40
0.0
 40
0.7664847034312837
 40
0.7664847034312837
 40
0.7664847034312837
 10
8.11743070670105
 20
43.69303918780889
 30
0.0
 10
7.854218341630619
 20
43.97159609585923
 30
0.0
 10
7.591005976560188
 20
44.25015300390957
 30
0.0
  0
SPLINE
  5
66
330
1F
100
AcDbEntity
  8
WIRE C - 2D
 62
     7
100
AcDbSpline
210
0.0
220
0.0
230
1.0
 70
    12
 71
     2
 72
     6
 73
     3
 74
     0
 42
0.0000000001
 43
0.0000000001
 40
0.0
 40
0.0
 40
0.0
 40
0.5014455608506356
 40
0.5014455608506356
 40
0.5014455608506356
 10
7.828213139235906
 20
44.48753371709101
 30
0.0
 41
1.0
 10
7.839467333771839
 20
44.23702785005668
 30
0.0
 41
0.9997860942169332
 10
7.84035194127695
 20
43.98627086853304
 30
0.0
 41
1.0
  0
SPLINE
  5
67
330
1F
100
AcDbEntity
  8
WIRE C - 2D
 62
     7
100
AcDbSpline
210
0.0
220
0.0
230
1.0
 70
     8
 71
     3
 72
     8
 73
     4
 74
     0
 42
0.0000000001
 43
0.0000000001
 40
0.2478936349729827
 40
0.2478936349729827
 40
0.2478936349729827
 40
0.2478936349729827
 40
1.0
 40
1.0
 40
1.0
 40
1.0
 10
7.148171327508606
 20
60.0634257732149
 30
0.0
 10
7.155817784642782
 20
59.92404940491181
 30
0.0
 10
7.160966256429292
 20
59.78453939622572
 30
0.0
 10
7.167363009251536
 20
59.64510128625212
 30
0.0
  0
LINE
  5
68
330
1F
100
AcDbEntity
  8
WIRE C - 2D
 62
     7
100
AcDbLine
 10
7.257138567796177
 20
58.42187133663002
 30
0.0
 11
7.207352280126926
 21
59.56216479693322
 31
0.0
  0
LINE
  5
69
330
1F
100
AcDbEntity
  8
WIRE C - 2D
 62
     7
100
AcDbLine
 10
7.129422202930659
 20
58.56541384089182
 30
0.0
 11
7.084983955989768
 21
59.58321703020918
 31
0.0
  0
SPLINE
  5
6A
330
1F
100
AcDbEntity
  8
WIRE C - 2D
 62
     7
100
AcDbSpline
210
0.0
220
0.0
230
1.0
 70
    12
 71
     2
 72
     8
 73
     5
 74
     0
 42
0.0000000001
 43
0.0000000001
 40
0.0
 40
0.0
 40
0.0
 40
0.0447043541142886
 40
0.0447043541142886
 40
0.0894087082285771
 40
0.0894087082285771
 40
0.0894087082285771
 10
7.084983955989768
 20
59.58321703020918
 30
0.0
 41
1.0
 10
7.083707556404222
 20
59.60697701627206
 30
0.0
 41
0.9196162860225615
 10
7.099892293314749
 20
59.62422321685177
 30
0.0
 41
1.0
 10
7.116077030225277
 20
59.64146941743148
 30
0.0
 41
0.9196162860225615
 10
7.139727061086052
 20
59.64170003309223
 30
0.0
 41
1.0
  0
POLYLINE
  5
6B
330
1F
100
AcDbEntity
  8
WIRE C - 2D
 62
     7
100
AcDb2dPolyline
 66
     1
 10
0.0
 20
0.0
 30
0.0
  0
VERTEX
  5
6C
330
6B
100
AcDbEntity
  8
WIRE C - 2D
 62
     7
100
AcDbVertex
100
AcDb2dVertex
 10
7.139727061086052
 20
59.64170003309223
 30
0.0
  0
VERTEX
  5
6D
330
6B
100
AcDbEntity
  8
WIRE C - 2D
 62
     7
100
AcDbVertex
100
AcDb2dVertex
 10
7.167677850624965
 20
59.64170003309223
 30
0.0
  0
SEQEND
  5
6E
330
6B
100
AcDbEntity
  8
WIRE C - 2D
 62
     7
  0
LINE
  5
6F
330
1F
100
AcDbEntity
  8
WIRE C - 2D
 62
     7
100
AcDbLine
 10
7.584598970898389
 20
59.57237177910375
 30
0.0
 11
7.657691060677789
 21
57.89828769135165
 31
0.0
  0
LINE
  5
70
330
1F
100
AcDbEntity
  8
WIRE C - 2D
 62
     7
100
AcDbLine
 10
7.787701755864886
 20
57.70219638331346
 30
0.0
 11
7.704465071916674
 21
59.60862987749231
 31
0.0
  0
SPLINE
  5
71
330
1F
100
AcDbEntity
  8
WIRE C - 2D
 62
     7
100
AcDbSpline
210
0.0
220
0.0
230
1.0
 70
    12
 71
     2
 72
     8
 73
     5
 74
     0
 42
0.0000000001
 43
0.0000000001
 40
-0.0894305444329219
 40
-0.0894305444329219
 40
-0.0894305444329219
 40
-0.044715272216461
 40
-0.044715272216461
 40
0.0
 40
0.0
 40
0.0
 10
7.704465071916674
 20
59.60862987749231
 30
0.0
 41
1.0
 10
7.703581293317201
 20
59.63404644287126
 30
0.0
 41
0.9196591449038853
 10
7.685945987531706
 20
59.64981384121489
 30
0.0
 41
1.0
 10
7.668310681746212
 20
59.66558123955852
 30
0.0
 41
0.9196591449038853
 10
7.64472575380587
 20
59.66374656391321
 30
0.0
 41
1.0
  0
POLYLINE
  5
72
330
1F
100
AcDbEntity
  8
WIRE C - 2D
 62
     7
100
AcDb2dPolyline
 66
     1
 10
0.0
 20
0.0
 30
0.0
  0
VERTEX
  5
73
330
72
100
AcDbEntity
  8
WIRE C - 2D
 62
     7
100
AcDbVertex
100
AcDb2dVertex
 10
7.64472575380587
 20
59.66374656391321
 30
0.0
  0
VERTEX
  5
74
330
72
100
AcDbEntity
  8
WIRE C - 2D
 62
     7
100
AcDbVertex
100
AcDb2dVertex
 10
7.604465324805095
 20
59.66374656391321
 30
0.0
  0
SEQEND
  5
75
330
72
100
AcDbEntity
  8
WIRE C - 2D
 62
     7
  0
LINE
  5
76
330
1F
100
AcDbEntity
  8
WIRE C - 2D
 62
     7
100
AcDbLine
 10
6.726205600083083
 20
58.95473268168632
 30
0.0
 11
7.42537427081125
 21
60.79176214798633
 31
0.0
  0
SPLINE
  5
77
330
1F
100
AcDbEntity
  8
WIRE C - 2D
 62
     7
100
AcDbSpline
210
0.0
220
0.0
230
1.0
 70
     8
 71
     3
 72
    16
 73
    12
 74
     0
 42
0.0000000001
 43
0.0000000001
 40
0.1056519389851282
 40
0.1056519389851282
 40
0.1056519389851282
 40
0.1056519389851282
 40
1.0
 40
2.0
 40
3.0
 40
4.0
 40
5.0
 40
6.0
 40
7.0
 40
8.0
 40
9.0
 40
9.0
 40
9.0
 40
9.0
 10
7.604465324805095
 20
59.66374656391321
 30
0.0
 10
7.60172282124379
 20
59.72654904850314
 30
0.0
 10
7.595924834919882
 20
59.85957396445655
 30
0.0
 10
7.587007778305836
 20
60.06281640721617
 30
0.0
 10
7.573734040991786
 20
60.27329323248276
 30
0.0
 10
7.557125092494682
 20
60.48343735526056
 30
0.0
 10
7.532555352935453
 20
60.69323822324605
 30
0.0
 10
7.502623784957285
 20
60.90066833383141
 30
0.0
 10
7.407827918568669
 20
61.10232102015289
 30
0.0
 10
7.174787646895963
 20
61.14958666978328
 30
0.0
 10
7.060960642278733
 20
61.04298473797451
 30
0.0
 10
7.030653374597486
 20
60.98045720920279
 30
0.0
  0
LINE
  5
78
330
1F
100
AcDbEntity
  8
WIRE C - 2D
 62
     7
100
AcDbLine
 10
7.030653374597486
 20
60.98045720920279
 30
0.0
 11
6.365129001459871
 21
59.23699743317191
 31
0.0
  0
SPLINE
  5
79
330
1F
100
AcDbEntity
  8
WIRE C - 2D
 62
     7
100
AcDbSpline
210
0.0
220
0.0
230
1.0
 70
     8
 71
     3
 72
     8
 73
     4
 74
     0
 42
0.0000000001
 43
0.0000000001
 40
0.0
 40
0.0
 40
0.0
 40
0.0
 40
1.0
 40
1.0
 40
1.0
 40
1.0
 10
37.30953368418808
 20
0.1746221970955887
 30
0.0
 10
37.30758785650962
 20
0.0578935336162761
 30
0.0
 10
37.37376453526063
 20
0.0000000000000126
 30
0.0
 10
37.4928758309015
 20
0.0000000000000118
 30
0.0
  0
SPLINE
  5
7A
330
1F
100
AcDbEntity
  8
WIRE C - 2D
 62
     7
100
AcDbSpline
210
0.0
220
0.0
230
1.0
 70
    24
 71
     2
 72
     6
 73
     3
 74
     0
 42
0.0000000001
 43
0.0000000001
 40
0.0
 40
0.0
 40
0.0
 40
1.622454311848934
 40
1.622454311848934
 40
1.622454311848934
 10
37.4928758309015
 20
0.0000000000000118
 30
0.0
 10
38.30410298682597
 20
0.0000000000000059
 30
0.0
 10
39.11533014275043
 20
0.0
 30
0.0
  0
SPLINE
  5
7B
330
1F
100
AcDbEntity
  8
WIRE C - 2D
 62
     7
100
AcDbSpline
210
0.0
220
0.0
230
1.0
 70
     8
 71
     3
 72
     8
 73
     4
 74
     0
 42
0.0000000001
 43
0.0000000001
 40
-1.0
 40
-1.0
 40
-1.0
 40
-1.0
 40
0.0
 40
0.0
 40
0.0
 40
0.0
 10
39.11533014275043
 20
0.0
 30
0.0
 10
39.24663163899887
 20
-0.000000000000001
 30
0.0
 10
39.30645841689393
 20
0.082899626687888
 30
0.0
 10
39.30763029291961
 20
0.2202824493717876
 30
0.0
  0
SPLINE
  5
7C
330
1F
100
AcDbEntity
  8
WIRE C - 2D
 62
     7
100
AcDbSpline
210
0.0
220
0.0
230
1.0
 70
    12
 71
     2
 72
     6
 73
     3
 74
     0
 42
0.0000000001
 43
0.0000000001
 40
-0.1297139313125279
 40
-0.1297139313125279
 40
-0.1297139313125279
 40
0.0
 40
0.0
 40
0.0
 10
39.30763029291961
 20
0.2202824493717876
 30
0.0
 41
1.0
 10
39.30818350307101
 20
0.2851370674970369
 30
0.0
 41
0.9999997255083354
 10
39.30864060665272
 20
0.3499924341983293
 30
0.0
 41
1.0
  0
SPLINE
  5
7D
330
1F
100
AcDbEntity
  8
WIRE C - 2D
 62
     7
100
AcDbSpline
210
0.0
220
0.0
230
1.0
 70
     8
 71
     3
 72
     8
 73
     4
 74
     0
 42
0.0000000001
 43
0.0000000001
 40
0.0
 40
0.0
 40
0.0
 40
0.0
 40
1.0
 40
1.0
 40
1.0
 40
1.0
 10
39.30864060665272
 20
0.3499924341983293
 30
0.0
 10
39.30951829718692
 20
0.4745220675729542
 30
0.0
 10
39.24309646164605
 20
0.5400000000000064
 30
0.0
 10
39.11820286753424
 20
0.5400000000000063
 30
0.0
  0
SPLINE
  5
7E
330
1F
100
AcDbEntity
  8
WIRE C - 2D
 62
     7
100
AcDbSpline
210
0.0
220
0.0
230
1.0
 70
    24
 71
     2
 72
     6
 73
     3
 74
     0
 42
0.0000000001
 43
0.0000000001
 40
-1.618458114918582
 40
-1.618458114918582
 40
-1.618458114918582
 40
0.0
 40
0.0
 40
0.0
 10
39.11820286753424
 20
0.5400000000000063
 30
0.0
 10
38.30897381007495
 20
0.5400000000000058
 30
0.0
 10
37.49974475261565
 20
0.5400000000000054
 30
0.0
  0
SPLINE
  5
7F
330
1F
100
AcDbEntity
  8
WIRE C - 2D
 62
     7
100
AcDbSpline
210
0.0
220
0.0
230
1.0
 70
     8
 71
     3
 72
     8
 73
     4
 74
     0
 42
0.0000000001
 43
0.0000000001
 40
0.0
 40
0.0
 40
0.0
 40
0.0
 40
1.0
 40
1.0
 40
1.0
 40
1.0
 10
37.49974475261565
 20
0.5400000000000054
 30
0.0
 10
37.38442084074095
 20
0.5400000000000053
 30
0.0
 10
37.31477725777066
 20
0.4891800291815596
 30
0.0
 10
37.3129319704404
 20
0.3784827016730343
 30
0.0
  0
POLYLINE
  5
80
330
1F
100
AcDbEntity
  8
WIRE C - 2D
 62
     7
100
AcDb2dPolyline
 66
     1
 10
0.0
 20
0.0
 30
0.0
  0
VERTEX
  5
81
330
80
100
AcDbEntity
  8
WIRE C - 2D
 62
     7
100
AcDbVertex
100
AcDb2dVertex
 10
37.3129319704404
 20
0.3784827016730343
 30
0.0
  0
VERTEX
  5
82
330
80
100
AcDbEntity
  8
WIRE C - 2D
 62
     7
100
AcDbVertex
100
AcDb2dVertex
 10
37.30953368418808
 20
0.1746221970955887
 30
0.0
  0
SEQEND
  5
83
330
80
100
AcDbEntity
  8
WIRE C - 2D
 62
     7
  0
SPLINE
  5
84
330
1F
100
AcDbEntity
  8
WIRE C - 2D
 62
     7
100
AcDbSpline
210
0.0
220
0.0
230
1.0
 70
     8
 71
     3
 72
     8
 73
     4
 74
     0
 42
0.0000000001
 43
0.0000000001
 40
0.0
 40
0.0
 40
0.0
 40
0.0
 40
1.0
 40
1.0
 40
1.0
 40
1.0
 10
26.44111577409123
 20
0.1746221970955887
 30
0.0
 10
26.4430616017697
 20
0.0578935336162761
 30
0.0
 10
26.37688492301869
 20
0.0000000000000126
 30
0.0
 10
26.25777362737782
 20
0.0000000000000118
 30
0.0
  0
SPLINE
  5
85
330
1F
100
AcDbEntity
  8
WIRE C - 2D
 62
     7
100
AcDbSpline
210
0.0
220
0.0
230
1.0
 70
    24
 71
     2
 72
     6
 73
     3
 74
     0
 42
0.0000000001
 43
0.0000000001
 40
0.0
 40
0.0
 40
0.0
 40
1.622454311848934
 40
1.622454311848934
 40
1.622454311848934
 10
26.25777362737782
 20
0.0000000000000118
 30
0.0
 10
25.44654647145335
 20
0.0000000000000059
 30
0.0
 10
24.63531931552888
 20
0.0
 30
0.0
  0
SPLINE
  5
86
330
1F
100
AcDbEntity
  8
WIRE C - 2D
 62
     7
100
AcDbSpline
210
0.0
220
0.0
230
1.0
 70
     8
 71
     3
 72
     8
 73
     4
 74
     0
 42
0.0000000001
 43
0.0000000001
 40
-1.0
 40
-1.0
 40
-1.0
 40
-1.0
 40
0.0
 40
0.0
 40
0.0
 40
0.0
 10
24.63531931552888
 20
0.0
 30
0.0
 10
24.50401781928044
 20
-0.000000000000001
 30
0.0
 10
24.44419104138538
 20
0.082899626687888
 30
0.0
 10
24.4430191653597
 20
0.2202824493717876
 30
0.0
  0
SPLINE
  5
87
330
1F
100
AcDbEntity
  8
WIRE C - 2D
 62
     7
100
AcDbSpline
210
0.0
220
0.0
230
1.0
 70
    12
 71
     2
 72
     6
 73
     3
 74
     0
 42
0.0000000001
 43
0.0000000001
 40
-0.1297139313125279
 40
-0.1297139313125279
 40
-0.1297139313125279
 40
0.0
 40
0.0
 40
0.0
 10
24.4430191653597
 20
0.2202824493717876
 30
0.0
 41
1.0
 10
24.44246595520831
 20
0.2851370674970369
 30
0.0
 41
0.9999997255083354
 10
24.44200885162659
 20
0.3499924341983293
 30
0.0
 41
1.0
  0
SPLINE
  5
88
330
1F
100
AcDbEntity
  8
WIRE C - 2D
 62
     7
100
AcDbSpline
210
0.0
220
0.0
230
1.0
 70
     8
 71
     3
 72
     8
 73
     4
 74
     0
 42
0.0000000001
 43
0.0000000001
 40
0.0
 40
0.0
 40
0.0
 40
0.0
 40
1.0
 40
1.0
 40
1.0
 40
1.0
 10
24.44200885162659
 20
0.3499924341983293
 30
0.0
 10
24.44113116109239
 20
0.4745220675729542
 30
0.0
 10
24.50755299663326
 20
0.5400000000000064
 30
0.0
 10
24.63244659074508
 20
0.5400000000000063
 30
0.0
  0
SPLINE
  5
89
330
1F
100
AcDbEntity
  8
WIRE C - 2D
 62
     7
100
AcDbSpline
210
0.0
220
0.0
230
1.0
 70
    24
 71
     2
 72
     6
 73
     3
 74
     0
 42
0.0000000001
 43
0.0000000001
 40
-1.618458114918582
 40
-1.618458114918582
 40
-1.618458114918582
 40
0.0
 40
0.0
 40
0.0
 10
24.63244659074508
 20
0.5400000000000063
 30
0.0
 10
25.44167564820437
 20
0.5400000000000058
 30
0.0
 10
26.25090470566366
 20
0.5400000000000054
 30
0.0
  0
SPLINE
  5
8A
330
1F
100
AcDbEntity
  8
WIRE C - 2D
 62
     7
100
AcDbSpline
210
0.0
220
0.0
230
1.0
 70
     8
 71
     3
 72
     8
 73
     4
 74
     0
 42
0.0000000001
 43
0.0000000001
 40
0.0
 40
0.0
 40
0.0
 40
0.0
 40
1.0
 40
1.0
 40
1.0
 40
1.0
 10
26.25090470566366
 20
0.5400000000000054
 30
0.0
 10
26.36622861753836
 20
0.5400000000000053
 30
0.0
 10
26.43587220050864
 20
0.4891800291815596
 30
0.0
 10
26.43771748783892
 20
0.3784827016730343
 30
0.0
  0
POLYLINE
  5
8B
330
1F
100
AcDbEntity
  8
WIRE C - 2D
 62
     7
100
AcDb2dPolyline
 66
     1
 10
0.0
 20
0.0
 30
0.0
  0
VERTEX
  5
8C
330
8B
100
AcDbEntity
  8
WIRE C - 2D
 62
     7
100
AcDbVertex
100
AcDb2dVertex
 10
26.43771748783892
 20
0.3784827016730343
 30
0.0
  0
VERTEX
  5
8D
330
8B
100
AcDbEntity
  8
WIRE C - 2D
 62
     7
100
AcDbVertex
100
AcDb2dVertex
 10
26.44111577409123
 20
0.1746221970955887
 30
0.0
  0
SEQEND
  5
8E
330
8B
100
AcDbEntity
  8
WIRE C - 2D
 62
     7
  0
SPLINE
  5
8F
330
1F
100
AcDbEntity
  8
WIRE C - 2D
 62
     7
100
AcDbSpline
210
0.0
220
0.0
230
1.0
 70
    12
 71
     2
 72
     8
 73
     5
 74
     0
 42
0.0000000001
 43
0.0000000001
 40
0.0
 40
0.0
 40
0.0
 40
0.6416229889197509
 40
0.6416229889197509
 40
1.283245977839502
 40
1.283245977839502
 40
1.283245977839502
 10
27.4553196435814
 20
20.8626898420653
 30
0.0
 41
1.0
 10
27.51157362212403
 20
21.19798156577536
 30
0.0
 41
0.9175424869676512
 10
27.79470037579796
 20
21.38619498571241
 30
0.0
 41
1.0
 10
28.07782712947189
 20
21.57440840564946
 30
0.0
 41
0.9175424869676512
 10
28.40875942307305
 20
21.49650547154419
 30
0.0
 41
1.0
  0
SPLINE
  5
90
330
1F
100
AcDbEntity
  8
WIRE C - 2D
 62
     7
100
AcDbSpline
210
0.0
220
0.0
230
1.0
 70
    12
 71
     3
 72
    13
 73
     9
 74
     0
 42
0.0000000001
 43
0.0000000001
 40
0.0
 40
0.0
 40
0.0
 40
0.0
 40
1.702502973511549
 40
2.724277746011366
 40
3.839301867666998
 40
6.863024926000763
 40
7.823091126351597
 40
8.664958038432397
 40
8.664958038432397
 40
8.664958038432397
 40
8.664958038432397
 10
28.40875942307305
 20
21.49650547154419
 30
0.0
 41
1.0
 10
28.97260740952401
 20
21.36455205293469
 30
0.0
 41
1.0
 10
29.88548059901846
 20
21.22562576053608
 30
0.0
 41
1.0
 10
31.18083620024534
 20
21.15401973036844
 30
0.0
 41
1.0
 10
32.90851242711744
 20
21.14278401157214
 30
0.0
 41
1.0
 10
34.61617214877629
 20
21.21271434520337
 30
0.0
 41
1.0
 10
36.2256554729697
 20
21.36374434293023
 30
0.0
 41
0.9999999999999997
 10
36.82842237160892
 20
21.43980360526289
 30
0.0
 41
0.9999999999999999
 10
37.11041475192146
 20
21.48535486962781
 30
0.0
 41
1.0
  0
SPLINE
  5
91
330
1F
100
AcDbEntity
  8
WIRE C - 2D
 62
     7
100
AcDbSpline
210
0.0
220
0.0
230
1.0
 70
    12
 71
     2
 72
     8
 73
     5
 74
     0
 42
0.0000000001
 43
0.0000000001
 40
0.0
 40
0.0
 40
0.0
 40
0.6357747488443407
 40
0.6357747488443407
 40
1.271549497688681
 40
1.271549497688681
 40
1.271549497688681
 10
37.11041475192146
 20
21.48535486962781
 30
0.0
 41
1.0
 10
37.44283086858934
 20
21.53995739041873
 30
0.0
 41
0.9175761773357324
 10
37.71000469971892
 20
21.33477441389091
 30
0.0
 41
1.0
 10
37.9771785308485
 20
21.12959143736308
 30
0.0
 41
0.9175761773357324
 10
38.01019854966368
 20
20.79434289037932
 30
0.0
 41
1.0
  0
SPLINE
  5
92
330
1F
100
AcDbEntity
  8
WIRE C - 2D
 62
     7
100
AcDbSpline
210
0.0
220
0.0
230
1.0
 70
    24
 71
     2
 72
     6
 73
     3
 74
     0
 42
0.0000000001
 43
0.0000000001
 40
4.845762997228131
 40
4.845762997228131
 40
4.845762997228131
 40
24.24895849158757
 40
24.24895849158757
 40
24.24895849158757
 10
38.01019854966368
 20
20.79434289037932
 30
0.0
 10
39.18277465948835
 20
11.16386709139871
 30
0.0
 10
40.355350769313
 20
1.533391292418107
 30
0.0
  0
SPLINE
  5
93
330
1F
100
AcDbEntity
  8
WIRE C - 2D
 62
     7
100
AcDbSpline
210
0.0
220
0.0
230
1.0
 70
    12
 71
     3
 72
     9
 73
     5
 74
     0
 42
0.0000000001
 43
0.0000000001
 40
-1.804592562977611
 40
-1.804592562977611
 40
-1.804592562977611
 40
-1.804592562977611
 40
-1.241773152135778
 40
-0.9258818537921554
 40
-0.9258818537921554
 40
-0.9258818537921554
 40
-0.9258818537921554
 10
40.355350769313
 20
1.533391292418107
 30
0.0
 41
1.0
 10
40.37154878873989
 20
1.368782654933055
 30
0.0
 41
1.0
 10
40.35760735171795
 20
1.113111996931865
 30
0.0
 41
0.9999999999999993
 10
40.25766006259022
 20
0.9126966964219978
 30
0.0
 41
0.9999999999999998
 10
40.21091071688637
 20
0.8512126483148762
 30
0.0
 41
0.9999999999999999
  0
SPLINE
  5
94
330
1F
100
AcDbEntity
  8
WIRE C - 2D
 62
     7
100
AcDbSpline
210
0.0
220
0.0
230
1.0
 70
     8
 71
     3
 72
    11
 73
     7
 74
     0
 42
0.0000000001
 43
0.0000000001
 40
0.0
 40
0.0
 40
0.0
 40
0.0
 40
0.0821040579359246
 40
0.1613717635758857
 40
0.3271887305744664
 40
0.7196214113683922
 40
0.7196214113683922
 40
0.7196214113683922
 40
0.7196214113683922
 10
40.21091071688637
 20
0.8512126483148763
 30
0.0
 10
40.19442540906647
 20
0.8293256840938008
 30
0.0
 10
40.15868197560911
 20
0.7890475394962654
 30
0.0
 10
40.07626887943044
 20
0.7171226270113958
 30
0.0
 10
39.88759587285607
 20
0.6149701144684397
 30
0.0
 10
39.69887620477072
 20
0.5890819733132766
 30
0.0
 10
39.5661748200523
 20
0.5887451590266113
 30
0.0
  0
SPLINE
  5
95
330
1F
100
AcDbEntity
  8
WIRE C - 2D
 62
     7
100
AcDbSpline
210
0.0
220
0.0
230
1.0
 70
    24
 71
     2
 72
     6
 73
     3
 74
     0
 42
0.0000000001
 43
0.0000000001
 40
0.0
 40
0.0
 40
0.0
 40
15.36036640683869
 40
15.36036640683869
 40
15.36036640683869
 10
39.5661748200523
 20
0.5887451590266113
 30
0.0
 10
31.88475260047936
 20
0.5887475795133243
 30
0.0
 10
24.20333038090643
 20
0.5887500000000374
 30
0.0
  0
SPLINE
  5
96
330
1F
100
AcDbEntity
  8
WIRE C - 2D
 62
     7
100
AcDbSpline
210
0.0
220
0.0
230
1.0
 70
    12
 71
     3
 72
    12
 73
     8
 74
     0
 42
0.0000000001
 43
0.0000000001
 40
0.0
 40
0.0
 40
0.0
 40
0.0
 40
0.4375400849258982
 40
0.6490252016244062
 40
0.8605103183229144
 40
1.32307696389974
 40
1.785643609476566
 40
1.785643609476566
 40
1.785643609476566
 40
1.785643609476566
 10
24.20333038090643
 20
0.5887500000000374
 30
0.0
 41
1.0
 10
24.08118821724916
 20
0.5886121048492015
 30
0.0
 41
0.9999999999999996
 10
23.90593128947784
 20
0.6186818209530329
 30
0.0
 41
1.0
 10
23.71202908393227
 20
0.7232583038406071
 30
0.0
 41
0.9999999999999999
 10
23.54586469861803
 20
0.8712041177395444
 30
0.0
 41
1.0
 10
23.41542312470621
 20
1.136074043124515
 30
0.0
 41
1.0
 10
23.41332989947441
 20
1.392748041382743
 30
0.0
 41
0.9999999999999998
 10
23.43466371436571
 20
1.52047749323507
 30
0.0
 41
1.0
  0
SPLINE
  5
97
330
1F
100
AcDbEntity
  8
WIRE C - 2D
 62
     7
100
AcDbSpline
210
0.0
220
0.0
230
1.0
 70
    24
 71
     2
 72
     6
 73
     3
 74
     0
 42
0.0000000001
 43
0.0000000001
 40
0.0
 40
0.0
 40
0.0
 40
19.75567899740168
 40
19.75567899740168
 40
19.75567899740168
 10
23.43466371436571
 20
1.52047749323507
 30
0.0
 10
25.44499167897356
 20
11.19158366765018
 30
0.0
 10
27.45531964358141
 20
20.8626898420653
 30
0.0
  0
SPLINE
  5
98
330
1F
100
AcDbEntity
  8
WIRE C - 2D
 62
     7
100
AcDbSpline
210
0.0
220
0.0
230
1.0
 70
    24
 71
     2
 72
     6
 73
     3
 74
     0
 42
0.0000000001
 43
0.0000000001
 40
19.75567899740168
 40
19.75567899740168
 40
19.75567899740168
 40
19.81641932211476
 40
19.81641932211476
 40
19.81641932211476
 10
27.45531964358141
 20
20.8626898420653
 30
0.0
 10
27.46150054849316
 20
20.89242438722803
 30
0.0
 10
27.46768145340492
 20
20.92215893239076
 30
0.0
  0
SPLINE
  5
99
330
1F
100
AcDbEntity
  8
WIRE C - 2D
 62
     7
100
AcDbSpline
210
0.0
220
0.0
230
1.0
 70
    24
 71
     2
 72
     6
 73
     3
 74
     0
 42
0.0000000001
 43
0.0000000001
 40
0.0
 40
0.0
 40
0.0
 40
10.86624481355641
 40
10.86624481355641
 40
10.86624481355641
 10
37.31015938374552
 20
0.151249999969729
 30
0.0
 10
31.87703697696731
 20
0.1512499999822922
 30
0.0
 10
26.44391457018911
 20
0.1512499999948555
 30
0.0
  0
SPLINE
  5
9A
330
1F
100
AcDbEntity
  8
WIRE C - 2D
 62
     7
100
AcDbSpline
210
0.0
220
0.0
230
1.0
 70
    24
 71
     2
 72
     6
 73
     3
 74
     0
 42
0.0000000001
 43
0.0000000001
 40
-0.2570363646880125
 40
-0.2570363646880125
 40
-0.2570363646880125
 40
0.0
 40
0.0
 40
0.0
 10
39.3066604230561
 20
0.1512499999651115
 30
0.0
 10
39.43561289474415
 20
0.1512499031360498
 30
0.0
 10
39.56456536643221
 20
0.1512498063069881
 30
0.0
  0
SPLINE
  5
9B
330
1F
100
AcDbEntity
  8
WIRE C - 2D
 62
     7
100
AcDbSpline
210
0.0
220
0.0
230
1.0
 70
    12
 71
     3
 72
     9
 73
     5
 74
     0
 42
0.0000000001
 43
0.0000000001
 40
0.0015586619202093
 40
0.0015586619202093
 40
0.0015586619202093
 40
0.0015586619202093
 40
0.626817711270973
 40
0.9258818537922952
 40
0.9258818537922952
 40
0.9258818537922952
 40
0.9258818537922952
 10
39.56456536643221
 20
0.1512498063069881
 30
0.0
 41
1.0
 10
39.79778519037836
 20
0.1513077042036774
 30
0.0
 41
1.0
 10
40.17895712664146
 20
0.21661670544312
 30
0.0
 41
0.9999999999999999
 10
40.48187921128417
 20
0.485808995091254
 30
0.0
 41
1.0
 10
40.55869862207082
 20
0.5858424667530194
 30
0.0
 41
0.9999999999999999
  0
SPLINE
  5
9C
330
1F
100
AcDbEntity
  8
WIRE C - 2D
 62
     7
100
AcDbSpline
210
0.0
220
0.0
230
1.0
 70
    12
 71
     2
 72
     6
 73
     3
 74
     0
 42
0.0000000001
 43
0.0000000001
 40
0.0
 40
0.0
 40
0.0
 40
0.2952577515499726
 40
0.2952577515499726
 40
0.2952577515499726
 10
40.55869862207083
 20
0.5858424667530195
 30
0.0
 41
1.0
 10
40.64855095786096
 20
0.7041391832543595
 30
0.0
 41
0.9907097647835733
 10
40.70320738653948
 20
0.8422703698301739
 30
0.0
 41
1.0
  0
SPLINE
  5
9D
330
1F
100
AcDbEntity
  8
WIRE C - 2D
 62
     7
100
AcDbSpline
210
0.0
220
0.0
230
1.0
 70
    12
 71
     2
 72
     6
 73
     3
 74
     0
 42
0.0000000001
 43
0.0000000001
 40
0.0
 40
0.0
 40
0.0
 40
0.096068480613853
 40
0.096068480613853
 40
0.096068480613853
 10
40.70320738653948
 20
0.8422703698301739
 30
0.0
 41
1.0
 10
40.72109719215744
 20
0.8868743024807252
 30
0.0
 41
0.9992635741050778
 10
40.73551476964478
 20
0.9327184886589395
 30
0.0
 41
1.0
  0
SPLINE
  5
9E
330
1F
100
AcDbEntity
  8
WIRE C - 2D
 62
     7
100
AcDbSpline
210
0.0
220
0.0
230
1.0
 70
    12
 71
     2
 72
     6
 73
     3
 74
     0
 42
0.0000000001
 43
0.0000000001
 40
0.0
 40
0.0
 40
0.0
 40
0.648617160658988
 40
0.648617160658988
 40
0.648617160658988
 10
40.73551476964478
 20
0.9327184886589395
 30
0.0
 41
1.0
 10
40.82836290128212
 20
1.248069624879972
 30
0.0
 41
0.9799215257423062
 10
40.79032691783055
 20
1.575907216705404
 30
0.0
 41
1.0
  0
POLYLINE
  5
9F
330
1F
100
AcDbEntity
  8
WIRE C - 2D
 62
     7
100
AcDb2dPolyline
 66
     1
 10
0.0
 20
0.0
 30
0.0
  0
VERTEX
  5
A0
330
9F
100
AcDbEntity
  8
WIRE C - 2D
 62
     7
100
AcDbVertex
100
AcDb2dVertex
 10
40.79032691783055
 20
1.575907216705404
 30
0.0
  0
VERTEX
  5
A1
330
9F
100
AcDbEntity
  8
WIRE C - 2D
 62
     7
100
AcDbVertex
100
AcDb2dVertex
 10
38.44665604219279
 20
20.83103679017928
 30
0.0
  0
SEQEND
  5
A2
330
9F
100
AcDbEntity
  8
WIRE C - 2D
 62
     7
  0
ARC
  5
A3
330
1F
100
AcDbEntity
  8
WIRE C - 2D
 62
     7
100
AcDbCircle
 10
37.25305678817526
 20
20.71787684013549
 30
0.0
 40
1.198951355762664
100
AcDbArc
 50
5.415776314254227
 51
12.70961937049225
  0
ARC
  5
A4
330
1F
100
AcDbEntity
  8
WIRE C - 2D
 62
     7
100
AcDbCircle
 10
37.23519479089489
 20
20.71384831393083
 30
0.0
 40
1.217262007586815
100
AcDbArc
 50
12.70961937049218
 51
99.12983408055199
  0
SPLINE
  5
A5
330
1F
100
AcDbEntity
  8
WIRE C - 2D
 62
     7
100
AcDbSpline
210
0.0
220
0.0
230
1.0
 70
     8
 71
     3
 72
    10
 73
     6
 74
     0
 42
0.0000000001
 43
0.0000000001
 40
0.0
 40
0.0
 40
0.0
 40
0.0
 40
1.307208121107367
 40
4.788962676067702
 40
8.571277538615899
 40
8.571277538615899
 40
8.571277538615899
 40
8.571277538615899
 10
37.04204915619087
 20
21.91568921808955
 30
0.0
 10
36.61049010365279
 20
21.84777132144614
 30
0.0
 10
35.02033450408838
 20
21.6741557346481
 30
0.0
 10
32.17419534310894
 20
21.53098806853773
 30
0.0
 10
29.73608953785706
 20
21.63520543467521
 30
0.0
 10
28.50816580849289
 20
21.92109810504915
 30
0.0
  0
SPLINE
  5
A6
330
1F
100
AcDbEntity
  8
WIRE C - 2D
 62
     7
100
AcDbSpline
210
0.0
220
0.0
230
1.0
 70
    12
 71
     2
 72
     8
 73
     5
 74
     0
 42
0.0000000001
 43
0.0000000001
 40
0.0
 40
0.0
 40
0.0
 40
0.9961205558798469
 40
0.9961205558798469
 40
1.992281570139356
 40
1.992281570139356
 40
1.992281570139356
 10
28.50816580849289
 20
21.92109810504915
 30
0.0
 41
0.9999933449919914
 10
27.99399986729493
 20
22.03939863927729
 30
0.0
 41
0.9180706248856829
 10
27.55453063624964
 20
21.74746304217697
 30
0.0
 41
1.0
 10
27.11504196277454
 20
21.45551452963923
 30
0.0
 41
0.9180672972465289
 10
27.02567648867423
 20
20.93224724746966
 30
0.0
 41
1.0
  0
SPLINE
  5
A7
330
1F
100
AcDbEntity
  8
WIRE C - 2D
 62
     7
100
AcDbSpline
210
0.0
220
0.0
230
1.0
 70
    24
 71
     2
 72
     6
 73
     3
 74
     0
 42
0.0000000001
 43
0.0000000001
 40
4.791235795590871
 40
4.791235795590871
 40
4.791235795590871
 40
24.54158674218317
 40
24.54158674218317
 40
24.54158674218317
 10
27.02567648867423
 20
20.93224724746966
 30
0.0
 10
25.01540581078151
 20
11.26144876027037
 30
0.0
 10
23.0051351328888
 20
1.590650273071092
 30
0.0
  0
SPLINE
  5
A8
330
1F
100
AcDbEntity
  8
WIRE C - 2D
 62
     7
100
AcDbSpline
210
0.0
220
0.0
230
1.0
 70
     8
 71
     3
 72
    12
 73
     8
 74
     0
 42
0.0000000001
 43
0.0000000001
 40
0.0
 40
0.0
 40
0.0
 40
0.0
 40
0.2854246747095485
 40
0.5671681626403047
 40
1.088107481623501
 40
1.606935295641929
 40
2.155933147373883
 40
2.155933147373883
 40
2.155933147373883
 40
2.155933147373883
 10
23.0051351328888
 20
1.590650273071092
 30
0.0
 10
22.98927497619523
 20
1.494441700260102
 30
0.0
 10
22.97480227674806
 20
1.30438052583686
 30
0.0
 10
23.0218463069965
 20
0.9437127214762612
 30
0.0
 10
23.22024471383187
 20
0.536352220712789
 30
0.0
 10
23.66036445787146
 20
0.2149971622965159
 30
0.0
 10
24.01904586701945
 20
0.1515286224898196
 30
0.0
 10
24.20246199974331
 20
0.1512496313919214
 30
0.0
  0
SPLINE
  5
A9
330
1F
100
AcDbEntity
  8
WIRE C - 2D
 62
     7
100
AcDbSpline
210
0.0
220
0.0
230
1.0
 70
    24
 71
     2
 72
     6
 73
     3
 74
     0
 42
0.0000000001
 43
0.0000000001
 40
-0.2440831499677216
 40
-0.2440831499677216
 40
-0.2440831499677216
 40
0.0
 40
0.0
 40
0.0
 10
24.20246199974331
 20
0.1512496313919214
 30
0.0
 10
24.32493776530823
 20
0.151249815695697
 30
0.0
 10
24.44741353087314
 20
0.1512499999994725
 30
0.0
  0
SPLINE
  5
AA
330
1F
100
AcDbEntity
  8
WIRE C - 2D
 62
     7
100
AcDbSpline
210
0.0
220
0.0
230
1.0
 70
     8
 71
     3
 72
    31
 73
    27
 74
     0
 42
0.0000000001
 43
0.0000000001
 40
23.32368906108418
 40
23.32368906108418
 40
23.32368906108418
 40
23.32368906108418
 40
24.0
 40
25.0
 40
26.0
 40
27.0
 40
28.0
 40
29.0
 40
30.0
 40
31.0
 40
32.0
 40
33.0
 40
34.0
 40
35.0
 40
36.0
 40
37.0
 40
38.0
 40
39.0
 40
40.0
 40
41.0
 40
42.0
 40
43.0
 40
44.0
 40
45.0
 40
46.0
 40
46.03868337513858
 40
46.03868337513858
 40
46.03868337513858
 40
46.03868337513858
 10
37.91325807691133
 20
21.10079114215964
 30
0.0
 10
37.81107661468121
 20
21.08670594968642
 30
0.0
 10
37.55767049826809
 20
21.05279625103598
 30
0.0
 10
37.15262632450825
 20
21.00226971050717
 30
0.0
 10
36.69804786578341
 20
20.95019328790551
 30
0.0
 10
36.24286722380948
 20
20.90363709868621
 30
0.0
 10
35.78720443817682
 20
20.86211264061446
 30
0.0
 10
35.33110393708738
 20
20.82567195007909
 30
0.0
 10
34.8746380836561
 20
20.79416566625072
 30
0.0
 10
34.41785795140224
 20
20.76758481152548
 30
0.0
 10
33.96081134628129
 20
20.74613683888086
 30
0.0
 10
33.50357326914371
 20
20.72901934195635
 30
0.0
 10
33.04611029228028
 20
20.71963485177627
 30
0.0
 10
32.58859024331541
 20
20.71470435863263
 30
0.0
 10
32.13104274284051
 20
20.71319877862186
 30
0.0
 10
31.67350035414309
 20
20.71520838912446
 30
0.0
 10
31.21597727256201
 20
20.7210133077548
 30
0.0
 10
30.75863095168684
 20
20.73493890214346
 30
0.0
 10
30.30153325389815
 20
20.75551818197907
 30
0.0
 10
29.84487128566075
 20
20.78434234094167
 30
0.0
 10
29.38906892834909
 20
20.82476726838847
 30
0.0
 10
28.93468570923503
 20
20.87899569941668
 30
0.0
 10
28.48258086010962
 20
20.94995571915867
 30
0.0
 10
28.03406879913215
 20
21.04114495217785
 30
0.0
 10
27.733151147512
 20
21.11998403053628
 30
0.0
 10
27.58145614517206
 20
21.16565509282202
 30
0.0
 10
27.57580891715499
 20
21.16736372325337
 30
0.0
  0
SPLINE
  5
AB
330
1F
100
AcDbEntity
  8
WIRE C - 2D
 62
     7
100
AcDbSpline
210
0.0
220
0.0
230
1.0
 70
     8
 71
     3
 72
    85
 73
    81
 74
     0
 42
0.0000000001
 43
0.0000000001
 40
47.00772365962766
 40
47.00772365962766
 40
47.00772365962766
 40
47.00772365962766
 40
48.0
 40
49.0
 40
50.0
 40
51.0
 40
52.0
 40
53.0
 40
54.0
 40
55.0
 40
56.0
 40
57.0
 40
58.0
 40
59.0
 40
60.0
 40
61.0
 40
62.0
 40
63.0
 40
64.0
 40
65.0
 40
66.0
 40
67.0
 40
68.0
 40
69.0
 40
70.0
 40
71.0
 40
72.0
 40
73.0
 40
74.0
 40
75.0
 40
76.0
 40
77.0
 40
78.0
 40
79.0
 40
80.0
 40
81.0
 40
82.0
 40
83.0
 40
84.0
 40
85.0
 40
86.0
 40
87.0
 40
88.0
 40
89.0
 40
90.0
 40
91.0
 40
92.0
 40
93.0
 40
94.0
 40
95.0
 40
96.0
 40
97.0
 40
98.0
 40
99.0
 40
100.0
 40
100.0
 40
100.0
 40
101.0
 40
102.0
 40
103.0
 40
104.0
 40
105.0
 40
106.0
 40
107.0
 40
108.0
 40
109.0
 40
110.0
 40
111.0
 40
112.0
 40
113.0
 40
114.0
 40
115.0
 40
116.0
 40
117.0
 40
118.0
 40
119.0
 40
120.0
 40
121.0
 40
122.0
 40
122.3252953129072
 40
122.3252953129072
 40
122.3252953129072
 40
122.3252953129072
 10
27.15666674165858
 20
21.31160471394879
 30
0.0
 10
27.01571064556479
 20
21.36668881776489
 30
0.0
 10
26.73768471215541
 20
21.49022456877659
 30
0.0
 10
26.34269432656702
 20
21.72035130708556
 30
0.0
 10
25.97737147559769
 20
21.99734459528736
 30
0.0
 10
25.65081485536123
 20
22.31921185580562
 30
0.0
 10
25.36781729938393
 20
22.67977580896029
 30
0.0
 10
25.12698702791097
 20
23.06949494931018
 30
0.0
 10
24.92056701495977
 20
23.47832421702589
 30
0.0
 10
24.75302573316731
 20
23.90448734652819
 30
0.0
 10
24.6087121037925
 20
24.33875933994257
 30
0.0
 10
24.48107449304552
 20
24.77820857180324
 30
0.0
 10
24.36345182716888
 20
25.22038016091923
 30
0.0
 10
24.24863442948848
 20
25.66329941045168
 30
0.0
 10
24.14246527308652
 20
26.10837066976245
 30
0.0
 10
24.04103111832728
 20
26.55454726253164
 30
0.0
 10
23.94362349153497
 20
27.00156378102611
 30
0.0
 10
23.84968301215409
 20
27.44952834790769
 30
0.0
 10
23.75943213586539
 20
27.89748233880596
 30
0.0
 10
23.66280120675172
 20
28.34699659929569
 30
0.0
 10
23.59791858566658
 20
28.7922897158013
 30
0.0
 10
23.42230133055763
 20
29.25487793028778
 30
0.0
 10
23.77873634409994
 20
29.66438677723421
 30
0.0
 10
24.25091635430003
 20
29.47697634016324
 30
0.0
 10
24.67557505331553
 20
29.34328545817395
 30
0.0
 10
25.07015310155901
 20
29.09827758334775
 30
0.0
 10
25.41646172681296
 20
28.79984715611339
 30
0.0
 10
25.73015625994589
 20
28.46575924259978
 30
0.0
 10
26.02262749772008
 20
28.11390864954277
 30
0.0
 10
26.30546801254604
 20
27.75420417326722
 30
0.0
 10
26.58438283460682
 20
27.39150973120704
 30
0.0
 10
26.86420414782792
 20
27.02949433783574
 30
0.0
 10
27.15011243875117
 20
26.6722431292023
 30
0.0
 10
27.44653870182414
 20
26.32359146093618
 30
0.0
 10
27.76025381649497
 20
25.99022915606399
 30
0.0
 10
28.09855778051445
 20
25.68148484618227
 30
0.0
 10
28.46603920094493
 20
25.40786998192824
 30
0.0
 10
28.86229143570934
 20
25.17715943456061
 30
0.0
 10
29.28645441297584
 20
25.00302932179489
 30
0.0
 10
29.72633460108565
 20
24.87613884676102
 30
0.0
 10
30.17264421329995
 20
24.77308122842239
 30
0.0
 10
30.62778607610658
 20
24.72185743595814
 30
0.0
 10
31.08335914080423
 20
24.68021027657372
 30
0.0
 10
31.54040081522277
 20
24.65596424830425
 30
0.0
 10
31.997949193131
 20
24.65022834047898
 30
0.0
 10
32.4554847823955
 20
24.64840666022886
 30
0.0
 10
32.91303216465566
 20
24.6485415855595
 30
0.0
 10
33.37057834209957
 20
24.64840168223194
 30
0.0
 10
33.82811943083501
 20
24.64580628309034
 30
0.0
 10
34.2856189652487
 20
24.63864356493794
 30
0.0
 10
34.74295899189031
 20
24.62447342413681
 30
0.0
 10
35.20006124784819
 20
24.60420473029617
 30
0.0
 10
35.6569819383019
 20
24.58018575155844
 30
0.0
 10
36.11354218763942
 20
24.54997727270608
 30
0.0
 10
36.41754563608229
 20
24.52483682061998
 30
0.0
 10
36.56944794873991
 20
24.51116936361812
 30
0.0
 10
36.72135026139752
 20
24.49750190661626
 30
0.0
 10
37.02495606358513
 20
24.46797253069492
 30
0.0
 10
37.47956838629245
 20
24.41608674261359
 30
0.0
 10
37.93299262415948
 20
24.3544990016119
 30
0.0
 10
38.38427214717468
 20
24.27866719232853
 30
0.0
 10
38.83258212710159
 20
24.18670289305777
 30
0.0
 10
39.2762043960166
 20
24.07410649494044
 30
0.0
 10
39.71283659106876
 20
23.93665419403905
 30
0.0
 10
40.14090184947829
 20
23.77472205146835
 30
0.0
 10
40.55821952592411
 20
23.58583984229496
 30
0.0
 10
40.95885249516109
 20
23.36586640155431
 30
0.0
 10
41.36460733794237
 20
23.14932942027647
 30
0.0
 10
41.76849532982597
 20
22.95386747884208
 30
0.0
 10
42.17445307308967
 20
22.67066048018306
 30
0.0
 10
42.05868787345597
 20
22.14052957010752
 30
0.0
 10
41.60063326947847
 20
21.97531003684625
 30
0.0
 10
41.18938540811455
 20
21.79262573444703
 30
0.0
 10
40.74981754182317
 20
21.65610941386118
 30
0.0
 10
40.30924496090099
 20
21.53505752790511
 30
0.0
 10
39.8632057528372
 20
21.43187540715164
 30
0.0
 10
39.41483742544215
 20
21.34081895067722
 30
0.0
 10
38.96439972579271
 20
21.26025294488477
 30
0.0
 10
38.61427921428295
 20
21.20376338517083
 30
0.0
 10
38.41446163584184
 20
21.17328959277379
 30
0.0
 10
38.36540082458998
 20
21.16591149149953
 30
0.0
  0
SPLINE
  5
AC
330
1F
100
AcDbEntity
  8
WIRE C - 2D
 62
     7
100
AcDbSpline
210
0.0
220
0.0
230
1.0
 70
    24
 71
     2
 72
     6
 73
     3
 74
     0
 42
0.0000000001
 43
0.0000000001
 40
0.0
 40
0.0
 40
0.0
 40
9.840135862937098
 40
9.840135862937098
 40
9.840135862937098
 10
-6.22256544981098
 20
11.34451046424827
 30
0.0
 10
-6.616585147016465
 20
6.4390721989963
 30
0.0
 10
-7.010604844221952
 20
1.533633933744333
 30
0.0
  0
ARC
  5
AD
330
1F
100
AcDbEntity
  8
WIRE C - 2D
 62
     7
100
AcDbCircle
 10
-24.00119040054865
 20
2.788022413838454
 30
0.0
 40
17.03682740435702
100
AcDbArc
 50
352.2938575725811
 51
355.7776022682478
  0
ARC
  5
AE
330
1F
100
AcDbEntity
  8
WIRE C - 2D
 62
     7
100
AcDbCircle
 10
-23.92505572482446
 20
2.777720290423755
 30
0.0
 40
16.95999887713907
100
AcDbArc
 50
352.0465820893003
 51
352.2938575725811
  0
ARC
  5
AF
330
1F
100
AcDbEntity
  8
WIRE C - 2D
 62
     7
100
AcDbCircle
 10
-7.375017960860045
 20
0.3703391462032123
 30
0.0
 40
0.2184108592814757
100
AcDbArc
 50
49.49832974934156
 51
89.99714144050384
  0
SPLINE
  5
B0
330
1F
100
AcDbEntity
  8
WIRE C - 2D
 62
     7
100
AcDbSpline
210
0.0
220
0.0
230
1.0
 70
    24
 71
     2
 72
     6
 73
     3
 74
     0
 42
0.0000000001
 43
0.0000000001
 40
-0.4630076243737733
 40
-0.4630076243737733
 40
-0.4630076243737733
 40
0.0
 40
0.0
 40
0.0
 10
-7.37500706406379
 20
0.5887500052128604
 30
0.0
 10
-7.606510876250677
 20
0.5887500052005991
 30
0.0
 10
-7.838014688437563
 20
0.5887500051883378
 30
0.0
  0
ARC
  5
B1
330
1F
100
AcDbEntity
  8
WIRE C - 2D
 62
     7
100
AcDbCircle
 10
-7.4840174787427
 20
0.3768465212543714
 30
0.0
 40
0.2362527471069266
100
AcDbArc
 50
252.7258271978769
 51
27.41610375782403
  0
SPLINE
  5
B2
330
1F
100
AcDbEntity
  8
WIRE C - 2D
 62
     7
100
AcDbSpline
210
0.0
220
0.0
230
1.0
 70
     8
 71
     5
 72
    12
 73
     6
 74
     0
 42
0.0000000001
 43
0.0000000001
 40
-1.0
 40
-1.0
 40
-1.0
 40
-1.0
 40
-1.0
 40
-1.0
 40
0.0
 40
0.0
 40
0.0
 40
0.0
 40
0.0
 40
0.0
 10
-7.274299221572349
 20
0.4856289330910262
 30
0.0
 10
-7.280278591901434
 20
0.4971563767578819
 30
0.0
 10
-7.287049988871913
 20
0.5082729903451239
 30
0.0
 10
-7.259818655221705
 20
0.5350771110779321
 30
0.0
 10
-7.246832707931467
 20
0.5364174069826273
 30
0.0
 10
-7.233846760641228
 20
0.5364174069826273
 30
0.0
  0
SPLINE
  5
B3
330
1F
100
AcDbEntity
  8
WIRE C - 2D
 62
     7
100
AcDbSpline
210
0.0
220
0.0
230
1.0
 70
     8
 71
     3
 72
     8
 73
     4
 74
     0
 42
0.0000000001
 43
0.0000000001
 40
0.0
 40
0.0
 40
0.0
 40
0.0
 40
1.0
 40
1.0
 40
1.0
 40
1.0
 10
-7.233846760641228
 20
0.5364174069826273
 30
0.0
 10
-7.148368155843205
 20
0.5364174069826273
 30
0.0
 10
-7.124395198675816
 20
0.4667307686214325
 30
0.0
 10
-7.123727789227481
 20
0.3700510317366796
 30
0.0
  0
POLYLINE
  5
B4
330
1F
100
AcDbEntity
  8
WIRE C - 2D
 62
     7
100
AcDb2dPolyline
 66
     1
 10
0.0
 20
0.0
 30
0.0
  0
VERTEX
  5
B5
330
B4
100
AcDbEntity
  8
WIRE C - 2D
 62
     7
100
AcDbVertex
100
AcDb2dVertex
 10
-7.123727789227481
 20
0.3700510317366796
 30
0.0
  0
VERTEX
  5
B6
330
B4
100
AcDbEntity
  8
WIRE C - 2D
 62
     7
100
AcDbVertex
100
AcDb2dVertex
 10
-7.122389761216098
 20
0.1762266913595479
 30
0.0
  0
SEQEND
  5
B7
330
B4
100
AcDbEntity
  8
WIRE C - 2D
 62
     7
  0
SPLINE
  5
B8
330
1F
100
AcDbEntity
  8
WIRE C - 2D
 62
     7
100
AcDbSpline
210
0.0
220
0.0
230
1.0
 70
     8
 71
     3
 72
     8
 73
     4
 74
     0
 42
0.0000000001
 43
0.0000000001
 40
0.0
 40
0.0
 40
0.0
 40
0.0
 40
1.0
 40
1.0
 40
1.0
 40
1.0
 10
-7.122389761216098
 20
0.1762266913595479
 30
0.0
 10
-7.121580688628194
 20
0.0590258858954292
 30
0.0
 10
-7.187016919351915
 20
-0.0002233139053743
 30
0.0
 10
-7.305882214360051
 20
0.0000000052128304
 30
0.0
  0
POLYLINE
  5
B9
330
1F
100
AcDbEntity
  8
WIRE C - 2D
 62
     7
100
AcDb2dPolyline
 66
     1
 10
0.0
 20
0.0
 30
0.0
  0
VERTEX
  5
BA
330
B9
100
AcDbEntity
  8
WIRE C - 2D
 62
     7
100
AcDbVertex
100
AcDb2dVertex
 10
-7.305882214360051
 20
0.0000000052128304
 30
0.0
  0
VERTEX
  5
BB
330
B9
100
AcDbEntity
  8
WIRE C - 2D
 62
     7
100
AcDbVertex
100
AcDb2dVertex
 10
-7.563132616815302
 20
0.0004833164520796
 30
0.0
  0
SEQEND
  5
BC
330
B9
100
AcDbEntity
  8
WIRE C - 2D
 62
     7
  0
SPLINE
  5
BD
330
1F
100
AcDbEntity
  8
WIRE C - 2D
 62
     7
100
AcDbSpline
210
0.0
220
0.0
230
1.0
 70
     8
 71
     3
 72
     8
 73
     4
 74
     0
 42
0.0000000001
 43
0.0000000001
 40
-1.0
 40
-1.0
 40
-1.0
 40
-1.0
 40
-0.1919123501756728
 40
-0.1919123501756728
 40
-0.1919123501756728
 40
-0.1919123501756728
 10
-7.563132616815302
 20
0.0004833164520796
 30
0.0
 10
-7.656094339889207
 20
0.0006579690285295
 30
0.0
 10
-7.714252505909248
 20
0.0406531517655327
 30
0.0
 10
-7.733797089630356
 20
0.1166981502960279
 30
0.0
  0
LINE
  5
BE
330
1F
100
AcDbEntity
  8
WIRE C - 2D
 62
     7
100
AcDbLine
 10
-7.478663051127537
 20
0.1512500052073698
 30
0.0
 11
-7.728313720852294
 21
0.1512500051941482
 31
0.0
  0
SPLINE
  5
BF
330
1F
100
AcDbEntity
  8
WIRE C - 2D
 62
     7
100
AcDbSpline
210
0.0
220
0.0
230
1.0
 70
     8
 71
     3
 72
     8
 73
     4
 74
     0
 42
0.0000000001
 43
0.0000000001
 40
0.0
 40
0.0
 40
0.0
 40
0.0
 40
1.0
 40
1.0
 40
1.0
 40
1.0
 10
-7.838874567772653
 20
0.5364174069826273
 30
0.0
 10
-7.753395962974629
 20
0.5364174069826273
 30
0.0
 10
-7.729423005807241
 20
0.4667307686214325
 30
0.0
 10
-7.728755596358906
 20
0.3700510317366796
 30
0.0
  0
POLYLINE
  5
C0
330
1F
100
AcDbEntity
  8
WIRE C - 2D
 62
     7
100
AcDb2dPolyline
 66
     1
 10
0.0
 20
0.0
 30
0.0
  0
VERTEX
  5
C1
330
C0
100
AcDbEntity
  8
WIRE C - 2D
 62
     7
100
AcDbVertex
100
AcDb2dVertex
 10
-7.728755596358906
 20
0.3700510317366796
 30
0.0
  0
VERTEX
  5
C2
330
C0
100
AcDbEntity
  8
WIRE C - 2D
 62
     7
100
AcDbVertex
100
AcDb2dVertex
 10
-7.727417568347523
 20
0.1762266913595479
 30
0.0
  0
SEQEND
  5
C3
330
C0
100
AcDbEntity
  8
WIRE C - 2D
 62
     7
  0
SPLINE
  5
C4
330
1F
100
AcDbEntity
  8
WIRE C - 2D
 62
     7
100
AcDbSpline
210
0.0
220
0.0
230
1.0
 70
     8
 71
     3
 72
     8
 73
     4
 74
     0
 42
0.0000000001
 43
0.0000000001
 40
0.0
 40
0.0
 40
0.0
 40
0.0
 40
1.0
 40
1.0
 40
1.0
 40
1.0
 10
-7.727417568347523
 20
0.1762266913595479
 30
0.0
 10
-7.726608495759619
 20
0.0590258858954292
 30
0.0
 10
-7.79204472648334
 20
-0.0002233139053743
 30
0.0
 10
-7.910910021491476
 20
0.0000000052128304
 30
0.0
  0
POLYLINE
  5
C5
330
1F
100
AcDbEntity
  8
WIRE C - 2D
 62
     7
100
AcDb2dPolyline
 66
     1
 10
0.0
 20
0.0
 30
0.0
  0
VERTEX
  5
C6
330
C5
100
AcDbEntity
  8
WIRE C - 2D
 62
     7
100
AcDbVertex
100
AcDb2dVertex
 10
-7.910910021491476
 20
0.0000000052128304
 30
0.0
  0
VERTEX
  5
C7
330
C5
100
AcDbEntity
  8
WIRE C - 2D
 62
     7
100
AcDbVertex
100
AcDb2dVertex
 10
-8.168160423946727
 20
0.0004833164520796
 30
0.0
  0
SEQEND
  5
C8
330
C5
100
AcDbEntity
  8
WIRE C - 2D
 62
     7
  0
SPLINE
  5
C9
330
1F
100
AcDbEntity
  8
WIRE C - 2D
 62
     7
100
AcDbSpline
210
0.0
220
0.0
230
1.0
 70
     8
 71
     3
 72
     8
 73
     4
 74
     0
 42
0.0000000001
 43
0.0000000001
 40
-1.0
 40
-1.0
 40
-1.0
 40
-1.0
 40
0.0
 40
0.0
 40
0.0
 40
0.0
 10
-8.168160423946727
 20
0.0004833164520796
 30
0.0
 10
-8.28319958225352
 20
0.0006994471855314
 30
0.0
 10
-8.344941258272682
 20
0.0618959540808657
 30
0.0
 10
-8.346165198514724
 20
0.176927080400151
 30
0.0
  0
POLYLINE
  5
CA
330
1F
100
AcDbEntity
  8
WIRE C - 2D
 62
     7
100
AcDb2dPolyline
 66
     1
 10
0.0
 20
0.0
 30
0.0
  0
VERTEX
  5
CB
330
CA
100
AcDbEntity
  8
WIRE C - 2D
 62
     7
100
AcDbVertex
100
AcDb2dVertex
 10
-8.346165198514724
 20
0.176927080400151
 30
0.0
  0
VERTEX
  5
CC
330
CA
100
AcDbEntity
  8
WIRE C - 2D
 62
     7
100
AcDbVertex
100
AcDb2dVertex
 10
-8.348219507194171
 20
0.3699997755261977
 30
0.0
  0
SEQEND
  5
CD
330
CA
100
AcDbEntity
  8
WIRE C - 2D
 62
     7
  0
SPLINE
  5
CE
330
1F
100
AcDbEntity
  8
WIRE C - 2D
 62
     7
100
AcDbSpline
210
0.0
220
0.0
230
1.0
 70
     8
 71
     3
 72
     8
 73
     4
 74
     0
 42
0.0000000001
 43
0.0000000001
 40
0.0
 40
0.0
 40
0.0
 40
0.0
 40
1.0
 40
1.0
 40
1.0
 40
1.0
 10
-8.348219507194171
 20
0.3699997755261977
 30
0.0
 10
-8.349174290970822
 20
0.4597344287771586
 30
0.0
 10
-8.350957205016122
 20
0.5364174069826273
 30
0.0
 10
-8.277247036413037
 20
0.5364174069826273
 30
0.0
  0
SPLINE
  5
CF
330
1F
100
AcDbEntity
  8
WIRE C - 2D
 62
     7
100
AcDbSpline
210
0.0
220
0.0
230
1.0
 70
    12
 71
     2
 72
     6
 73
     3
 74
     0
 42
0.0000000001
 43
0.0000000001
 40
0.0
 40
0.0
 40
0.0
 40
0.9789089754070674
 40
0.9789089754070674
 40
0.9789089754070674
 10
-7.547861320186701
 20
0.5887500052037158
 30
0.0
 41
1.0
 10
-7.483694262148433
 20
1.074113158109013
 30
0.0
 41
0.9995960245846386
 10
-7.446673876331292
 20
1.568996852752859
 30
0.0
 41
1.0
  0
SPLINE
  5
D0
330
1F
100
AcDbEntity
  8
WIRE C - 2D
 62
     7
100
AcDbSpline
210
0.0
220
0.0
230
1.0
 70
    24
 71
     2
 72
     6
 73
     3
 74
     0
 42
0.0000000001
 43
0.0000000001
 40
0.0
 40
0.0
 40
0.0
 40
9.795792552668884
 40
9.795792552668884
 40
9.795792552668884
 10
-7.446673876331292
 20
1.568996852752859
 30
0.0
 10
-7.054255339616075
 20
6.454498428982835
 30
0.0
 10
-6.66183680290086
 20
11.34000000521281
 30
0.0
  0
SPLINE
  5
D1
330
1F
100
AcDbEntity
  8
WIRE C - 2D
 62
     7
100
AcDbSpline
210
0.0
220
0.0
230
1.0
 70
    24
 71
     2
 72
     6
 73
     3
 74
     0
 42
0.0000000001
 43
0.0000000001
 40
0.0
 40
0.0
 40
0.0
 40
9.848495224809696
 40
9.848495224809696
 40
9.848495224809696
 10
-6.8675294084272
 20
11.34363883121473
 30
0.0
 10
-7.317752628139248
 20
6.440016333437509
 30
0.0
 10
-7.767975847851297
 20
1.536393835660284
 30
0.0
  0
SPLINE
  5
D2
330
1F
100
AcDbEntity
  8
WIRE C - 2D
 62
     7
100
AcDbSpline
210
0.0
220
0.0
230
1.0
 70
    24
 71
     2
 72
     6
 73
     3
 74
     0
 42
0.0000000001
 43
0.0000000001
 40
-13.73726781732625
 40
-13.73726781732625
 40
-13.73726781732625
 40
0.0
 40
0.0
 40
0.0
 10
6.868245188736511
 20
11.34000000521272
 30
0.0
 10
-0.0000035320319052
 20
11.34000000521272
 30
0.0
 10
-6.868252252800321
 20
11.34000000521272
 30
0.0
  0
LINE
  5
D3
330
1F
100
AcDbEntity
  8
WIRE C - 2D
 62
     7
100
AcDbLine
 10
-6.868252252800321
 20
11.34000000521272
 30
0.0
 11
-7.768675643804855
 21
1.528766860594398
 31
0.0
  0
ARC
  5
D4
330
1F
100
AcDbEntity
  8
WIRE C - 2D
 62
     7
100
AcDbCircle
 10
12.2293729617194
 20
-0.4189273430522583
 30
0.0
 40
20.09267181685475
100
AcDbArc
 50
174.4372670609374
 51
177.1253256092452
  0
ARC
  5
D5
330
1F
100
AcDbEntity
  8
WIRE C - 2D
 62
     7
100
AcDbCircle
 10
-5.892192851809774
 20
0.4910411941231316
 30
0.0
 40
1.94827350021944
100
AcDbArc
 50
177.1253256092456
 51
181.392301659255
  0
SPLINE
  5
D6
330
1F
100
AcDbEntity
  8
WIRE C - 2D
 62
     7
100
AcDbSpline
210
0.0
220
0.0
230
1.0
 70
     8
 71
     3
 72
    20
 73
    16
 74
     0
 42
0.0000000001
 43
0.0000000001
 40
0.0
 40
0.0
 40
0.0
 40
0.0
 40
1.0
 40
2.0
 40
3.0
 40
4.0
 40
5.0
 40
6.0
 40
7.0
 40
8.0
 40
9.0
 40
10.0
 40
11.0
 40
12.0
 40
13.0
 40
13.0
 40
13.0
 40
13.0
 10
-7.839891150577754
 20
0.4437023239040367
 30
0.0
 10
-7.822464323911681
 20
0.3962010225385427
 30
0.0
 10
-7.824258289045225
 20
0.2893180333340791
 30
0.0
 10
-7.926361438346406
 20
0.1657066915780911
 30
0.0
 10
-8.084591794946975
 20
0.1358604238691768
 30
0.0
 10
-8.224302191077218
 20
0.2164971271868669
 30
0.0
 10
-8.283728343723903
 20
0.3613319334677599
 30
0.0
 10
-8.277765237070335
 20
0.5141712832762698
 30
0.0
 10
-8.271474919944767
 20
0.6649620891408347
 30
0.0
 10
-8.263574507415116
 20
0.8162245645920176
 30
0.0
 10
-8.254415343356122
 20
0.9672685276934881
 30
0.0
 10
-8.243904151262768
 20
1.118264186089766
 30
0.0
 10
-8.232066942620689
 20
1.269150966729052
 30
0.0
 10
-8.218897865462619
 20
1.419930257252229
 30
0.0
 10
-8.209232516792083
 20
1.520367853184232
 30
0.0
 10
-8.204178400382183
 20
1.570564503453452
 30
0.0
  0
SPLINE
  5
D7
330
1F
100
AcDbEntity
  8
WIRE C - 2D
 62
     7
100
AcDbSpline
210
0.0
220
0.0
230
1.0
 70
    24
 71
     2
 72
     6
 73
     3
 74
     0
 42
0.0000000001
 43
0.0000000001
 40
0.0
 40
0.0
 40
0.0
 40
13.66086416721916
 40
13.66086416721916
 40
13.66086416721916
 10
-6.829870324267997
 20
11.76000000521276
 30
0.0
 10
-0.0000035320319038
 20
11.76000000521276
 30
0.0
 10
6.829863260204189
 20
11.76000000521276
 30
0.0
  0
ARC
  5
D8
330
1F
100
AcDbEntity
  8
WIRE C - 2D
 62
     7
100
AcDbCircle
 10
-5.447968437500463
 20
21.77661648836414
 30
0.0
 40
0.4248924615796148
100
AcDbArc
 50
189.6319330496085
 51
211.319110121166
  0
ARC
  5
D9
330
1F
100
AcDbEntity
  8
WIRE C - 2D
 62
     7
100
AcDbCircle
 10
-5.899905884166592
 20
21.46132565010955
 30
0.0
 40
0.3070523877814964
100
AcDbArc
 50
258.148329194201
 51
6.381462465415233
  0
LINE
  5
DA
330
1F
100
AcDbEntity
  8
WIRE C - 2D
 62
     7
100
AcDbLine
 10
-8.204178400382183
 20
1.570564503453452
 30
0.0
 11
-6.434584012331563
 21
20.84417697961976
 31
0.0
  0
LINE
  5
DB
330
1F
100
AcDbEntity
  8
WIRE C - 2D
 62
     7
100
AcDbLine
 10
-5.998270998050711
 20
20.81336739852833
 30
0.0
 11
-5.999278654893793
 21
20.8023973468229
 31
0.0
  0
LINE
  5
DC
330
1F
100
AcDbEntity
  8
WIRE C - 2D
 62
     7
100
AcDbLine
 10
-5.999278654893793
 20
20.8023973468229
 30
0.0
 11
-6.829870324267997
 21
11.76000000521276
 31
0.0
  0
SPLINE
  5
DD
330
1F
100
AcDbEntity
  8
WIRE C - 2D
 62
     7
100
AcDbSpline
210
0.0
220
0.0
230
1.0
 70
     8
 71
     3
 72
    20
 73
    16
 74
     0
 42
0.0000000001
 43
0.0000000001
 40
0.0
 40
0.0
 40
0.0
 40
0.0
 40
1.0
 40
2.0
 40
3.0
 40
4.0
 40
5.0
 40
6.0
 40
7.0
 40
8.0
 40
9.0
 40
10.0
 40
11.0
 40
12.0
 40
13.0
 40
13.0
 40
13.0
 40
13.0
 10
-6.434584012331563
 20
20.84417697961976
 30
0.0
 10
-6.43039778941954
 20
20.88729629344111
 30
0.0
 10
-6.422117851885388
 20
20.97354406099771
 30
0.0
 10
-6.409401189013693
 20
21.10288648642124
 30
0.0
 10
-6.395869870959001
 20
21.23214898385532
 30
0.0
 10
-6.380831093237257
 20
21.36124062242658
 30
0.0
 10
-6.364234090465824
 20
21.4901593612109
 30
0.0
 10
-6.343625965181748
 20
21.61847583997051
 30
0.0
 10
-6.325756733625115
 20
21.74726228868923
 30
0.0
 10
-6.270441910631036
 20
21.86916936881319
 30
0.0
 10
-6.153815754308724
 20
21.93908819720884
 30
0.0
 10
-6.018524945318946
 20
21.93513217150113
 30
0.0
 10
-5.909050532763611
 20
21.85473749418619
 30
0.0
 10
-5.860190737176699
 20
21.72891276596131
 30
0.0
 10
-5.875757302327795
 20
21.64022207902102
 30
0.0
 10
-5.8967469341464
 20
21.60209724991784
 30
0.0
  0
LINE
  5
DE
330
1F
100
AcDbEntity
  8
WIRE C - 2D
 62
     7
100
AcDbLine
 10
-5.8967469341464
 20
21.60209724991784
 30
0.0
 11
-5.903865807718604
 21
21.58916677830727
 31
0.0
  0
SPLINE
  5
DF
330
1F
100
AcDbEntity
  8
WIRE C - 2D
 62
     7
100
AcDbSpline
210
0.0
220
0.0
230
1.0
 70
    12
 71
     2
 72
     6
 73
     3
 74
     0
 42
0.0000000001
 43
0.0000000001
 40
0.0442911243198943
 40
0.0442911243198943
 40
0.0442911243198943
 40
0.8371014007952267
 40
0.8371014007952267
 40
0.8371014007952267
 10
-5.903865807718605
 20
21.58916677830727
 30
0.0
 41
0.9998740347095225
 10
-5.970169996545835
 20
21.19803560464174
 30
0.0
 41
0.9988096292120655
 10
-5.999081212764207
 20
20.80237921072671
 30
0.0
 41
1.0
  0
LINE
  5
E0
330
1F
100
AcDbEntity
  8
WIRE C - 2D
 62
     7
100
AcDbLine
 10
-6.628101134949356
 20
11.76000000521281
 30
0.0
 11
-5.87343291039859
 21
21.15541659417594
 31
0.0
  0
LINE
  5
E1
330
1F
100
AcDbEntity
  8
WIRE C - 2D
 62
     7
100
AcDbLine
 10
-5.411719941366118
 20
21.43931914082137
 30
0.0
 11
-6.189212594729236
 21
11.75974454689542
 31
0.0
  0
SPLINE
  5
E2
330
1F
100
AcDbEntity
  8
WIRE C - 2D
 62
     7
100
AcDbSpline
210
0.0
220
0.0
230
1.0
 70
    24
 71
     2
 72
     6
 73
     3
 74
     0
 42
0.0000000001
 43
0.0000000001
 40
0.0
 40
0.0
 40
0.0
 40
9.840135862937098
 40
9.840135862937098
 40
9.840135862937098
 10
6.22256544981098
 20
11.34451046424827
 30
0.0
 10
6.616585147016465
 20
6.4390721989963
 30
0.0
 10
7.010604844221952
 20
1.533633933744333
 30
0.0
  0
ARC
  5
E3
330
1F
100
AcDbEntity
  8
WIRE C - 2D
 62
     7
100
AcDbCircle
 10
24.00119040054865
 20
2.788022413838454
 30
0.0
 40
17.03682740435702
100
AcDbArc
 50
184.2223977317522
 51
187.7061424274189
  0
ARC
  5
E4
330
1F
100
AcDbEntity
  8
WIRE C - 2D
 62
     7
100
AcDbCircle
 10
23.92505572482446
 20
2.777720290423755
 30
0.0
 40
16.95999887713907
100
AcDbArc
 50
187.7061424274188
 51
187.9534179106997
  0
ARC
  5
E5
330
1F
100
AcDbEntity
  8
WIRE C - 2D
 62
     7
100
AcDbCircle
 10
7.375017960860045
 20
0.3703391462032123
 30
0.0
 40
0.2184108592814757
100
AcDbArc
 50
90.00285855949618
 51
130.5016702506584
  0
SPLINE
  5
E6
330
1F
100
AcDbEntity
  8
WIRE C - 2D
 62
     7
100
AcDbSpline
210
0.0
220
0.0
230
1.0
 70
    24
 71
     2
 72
     6
 73
     3
 74
     0
 42
0.0000000001
 43
0.0000000001
 40
-0.4630076243737733
 40
-0.4630076243737733
 40
-0.4630076243737733
 40
0.0
 40
0.0
 40
0.0
 10
7.37500706406379
 20
0.5887500052128604
 30
0.0
 10
7.606510876250677
 20
0.5887500052005991
 30
0.0
 10
7.838014688437563
 20
0.5887500051883378
 30
0.0
  0
ARC
  5
E7
330
1F
100
AcDbEntity
  8
WIRE C - 2D
 62
     7
100
AcDbCircle
 10
7.4840174787427
 20
0.3768465212543714
 30
0.0
 40
0.2362527471069266
100
AcDbArc
 50
152.583896242176
 51
287.2741728021231
  0
SPLINE
  5
E8
330
1F
100
AcDbEntity
  8
WIRE C - 2D
 62
     7
100
AcDbSpline
210
0.0
220
0.0
230
1.0
 70
     8
 71
     5
 72
    12
 73
     6
 74
     0
 42
0.0000000001
 43
0.0000000001
 40
-1.0
 40
-1.0
 40
-1.0
 40
-1.0
 40
-1.0
 40
-1.0
 40
0.0
 40
0.0
 40
0.0
 40
0.0
 40
0.0
 40
0.0
 10
7.274299221572349
 20
0.4856289330910262
 30
0.0
 10
7.280278591901434
 20
0.4971563767578819
 30
0.0
 10
7.287049988871913
 20
0.5082729903451239
 30
0.0
 10
7.259818655221705
 20
0.5350771110779321
 30
0.0
 10
7.246832707931467
 20
0.5364174069826273
 30
0.0
 10
7.233846760641228
 20
0.5364174069826273
 30
0.0
  0
SPLINE
  5
E9
330
1F
100
AcDbEntity
  8
WIRE C - 2D
 62
     7
100
AcDbSpline
210
0.0
220
0.0
230
1.0
 70
     8
 71
     3
 72
     8
 73
     4
 74
     0
 42
0.0000000001
 43
0.0000000001
 40
0.0
 40
0.0
 40
0.0
 40
0.0
 40
1.0
 40
1.0
 40
1.0
 40
1.0
 10
7.233846760641228
 20
0.5364174069826273
 30
0.0
 10
7.148368155843205
 20
0.5364174069826273
 30
0.0
 10
7.124395198675816
 20
0.4667307686214325
 30
0.0
 10
7.123727789227481
 20
0.3700510317366796
 30
0.0
  0
POLYLINE
  5
EA
330
1F
100
AcDbEntity
  8
WIRE C - 2D
 62
     7
100
AcDb2dPolyline
 66
     1
 10
0.0
 20
0.0
 30
0.0
  0
VERTEX
  5
EB
330
EA
100
AcDbEntity
  8
WIRE C - 2D
 62
     7
100
AcDbVertex
100
AcDb2dVertex
 10
7.123727789227481
 20
0.3700510317366796
 30
0.0
  0
VERTEX
  5
EC
330
EA
100
AcDbEntity
  8
WIRE C - 2D
 62
     7
100
AcDbVertex
100
AcDb2dVertex
 10
7.122389761216098
 20
0.1762266913595479
 30
0.0
  0
SEQEND
  5
ED
330
EA
100
AcDbEntity
  8
WIRE C - 2D
 62
     7
  0
SPLINE
  5
EE
330
1F
100
AcDbEntity
  8
WIRE C - 2D
 62
     7
100
AcDbSpline
210
0.0
220
0.0
230
1.0
 70
     8
 71
     3
 72
     8
 73
     4
 74
     0
 42
0.0000000001
 43
0.0000000001
 40
0.0
 40
0.0
 40
0.0
 40
0.0
 40
1.0
 40
1.0
 40
1.0
 40
1.0
 10
7.122389761216098
 20
0.1762266913595479
 30
0.0
 10
7.121580688628194
 20
0.0590258858954292
 30
0.0
 10
7.187016919351915
 20
-0.0002233139053743
 30
0.0
 10
7.305882214360051
 20
0.0000000052128304
 30
0.0
  0
POLYLINE
  5
EF
330
1F
100
AcDbEntity
  8
WIRE C - 2D
 62
     7
100
AcDb2dPolyline
 66
     1
 10
0.0
 20
0.0
 30
0.0
  0
VERTEX
  5
F0
330
EF
100
AcDbEntity
  8
WIRE C - 2D
 62
     7
100
AcDbVertex
100
AcDb2dVertex
 10
7.305882214360051
 20
0.0000000052128304
 30
0.0
  0
VERTEX
  5
F1
330
EF
100
AcDbEntity
  8
WIRE C - 2D
 62
     7
100
AcDbVertex
100
AcDb2dVertex
 10
7.563132616815302
 20
0.0004833164520796
 30
0.0
  0
SEQEND
  5
F2
330
EF
100
AcDbEntity
  8
WIRE C - 2D
 62
     7
  0
SPLINE
  5
F3
330
1F
100
AcDbEntity
  8
WIRE C - 2D
 62
     7
100
AcDbSpline
210
0.0
220
0.0
230
1.0
 70
     8
 71
     3
 72
     8
 73
     4
 74
     0
 42
0.0000000001
 43
0.0000000001
 40
-1.0
 40
-1.0
 40
-1.0
 40
-1.0
 40
-0.1919123501756728
 40
-0.1919123501756728
 40
-0.1919123501756728
 40
-0.1919123501756728
 10
7.563132616815302
 20
0.0004833164520796
 30
0.0
 10
7.656094339889207
 20
0.0006579690285295
 30
0.0
 10
7.714252505909248
 20
0.0406531517655327
 30
0.0
 10
7.733797089630356
 20
0.1166981502960279
 30
0.0
  0
LINE
  5
F4
330
1F
100
AcDbEntity
  8
WIRE C - 2D
 62
     7
100
AcDbLine
 10
7.478663051127537
 20
0.1512500052073698
 30
0.0
 11
7.728313720852294
 21
0.1512500051941482
 31
0.0
  0
SPLINE
  5
F5
330
1F
100
AcDbEntity
  8
WIRE C - 2D
 62
     7
100
AcDbSpline
210
0.0
220
0.0
230
1.0
 70
     8
 71
     3
 72
     8
 73
     4
 74
     0
 42
0.0000000001
 43
0.0000000001
 40
0.0
 40
0.0
 40
0.0
 40
0.0
 40
1.0
 40
1.0
 40
1.0
 40
1.0
 10
7.838874567772653
 20
0.5364174069826273
 30
0.0
 10
7.753395962974629
 20
0.5364174069826273
 30
0.0
 10
7.729423005807241
 20
0.4667307686214325
 30
0.0
 10
7.728755596358906
 20
0.3700510317366796
 30
0.0
  0
POLYLINE
  5
F6
330
1F
100
AcDbEntity
  8
WIRE C - 2D
 62
     7
100
AcDb2dPolyline
 66
     1
 10
0.0
 20
0.0
 30
0.0
  0
VERTEX
  5
F7
330
F6
100
AcDbEntity
  8
WIRE C - 2D
 62
     7
100
AcDbVertex
100
AcDb2dVertex
 10
7.728755596358906
 20
0.3700510317366796
 30
0.0
  0
VERTEX
  5
F8
330
F6
100
AcDbEntity
  8
WIRE C - 2D
 62
     7
100
AcDbVertex
100
AcDb2dVertex
 10
7.727417568347523
 20
0.1762266913595479
 30
0.0
  0
SEQEND
  5
F9
330
F6
100
AcDbEntity
  8
WIRE C - 2D
 62
     7
  0
SPLINE
  5
FA
330
1F
100
AcDbEntity
  8
WIRE C - 2D
 62
     7
100
AcDbSpline
210
0.0
220
0.0
230
1.0
 70
     8
 71
     3
 72
     8
 73
     4
 74
     0
 42
0.0000000001
 43
0.0000000001
 40
0.0
 40
0.0
 40
0.0
 40
0.0
 40
1.0
 40
1.0
 40
1.0
 40
1.0
 10
7.727417568347523
 20
0.1762266913595479
 30
0.0
 10
7.726608495759619
 20
0.0590258858954292
 30
0.0
 10
7.79204472648334
 20
-0.0002233139053743
 30
0.0
 10
7.910910021491476
 20
0.0000000052128304
 30
0.0
  0
POLYLINE
  5
FB
330
1F
100
AcDbEntity
  8
WIRE C - 2D
 62
     7
100
AcDb2dPolyline
 66
     1
 10
0.0
 20
0.0
 30
0.0
  0
VERTEX
  5
FC
330
FB
100
AcDbEntity
  8
WIRE C - 2D
 62
     7
100
AcDbVertex
100
AcDb2dVertex
 10
7.910910021491476
 20
0.0000000052128304
 30
0.0
  0
VERTEX
  5
FD
330
FB
100
AcDbEntity
  8
WIRE C - 2D
 62
     7
100
AcDbVertex
100
AcDb2dVertex
 10
8.168160423946727
 20
0.0004833164520796
 30
0.0
  0
SEQEND
  5
FE
330
FB
100
AcDbEntity
  8
WIRE C - 2D
 62
     7
  0
SPLINE
  5
FF
330
1F
100
AcDbEntity
  8
WIRE C - 2D
 62
     7
100
AcDbSpline
210
0.0
220
0.0
230
1.0
 70
     8
 71
     3
 72
     8
 73
     4
 74
     0
 42
0.0000000001
 43
0.0000000001
 40
-1.0
 40
-1.0
 40
-1.0
 40
-1.0
 40
0.0
 40
0.0
 40
0.0
 40
0.0
 10
8.168160423946727
 20
0.0004833164520796
 30
0.0
 10
8.28319958225352
 20
0.0006994471855314
 30
0.0
 10
8.344941258272682
 20
0.0618959540808657
 30
0.0
 10
8.346165198514724
 20
0.176927080400151
 30
0.0
  0
POLYLINE
  5
100
330
1F
100
AcDbEntity
  8
WIRE C - 2D
 62
     7
100
AcDb2dPolyline
 66
     1
 10
0.0
 20
0.0
 30
0.0
  0
VERTEX
  5
101
330
100
100
AcDbEntity
  8
WIRE C - 2D
 62
     7
100
AcDbVertex
100
AcDb2dVertex
 10
8.346165198514724
 20
0.176927080400151
 30
0.0
  0
VERTEX
  5
102
330
100
100
AcDbEntity
  8
WIRE C - 2D
 62
     7
100
AcDbVertex
100
AcDb2dVertex
 10
8.348219507194171
 20
0.3699997755261977
 30
0.0
  0
SEQEND
  5
103
330
100
100
AcDbEntity
  8
WIRE C - 2D
 62
     7
  0
SPLINE
  5
104
330
1F
100
AcDbEntity
  8
WIRE C - 2D
 62
     7
100
AcDbSpline
210
0.0
220
0.0
230
1.0
 70
     8
 71
     3
 72
     8
 73
     4
 74
     0
 42
0.0000000001
 43
0.0000000001
 40
0.0
 40
0.0
 40
0.0
 40
0.0
 40
1.0
 40
1.0
 40
1.0
 40
1.0
 10
8.348219507194171
 20
0.3699997755261977
 30
0.0
 10
8.349174290970822
 20
0.4597344287771586
 30
0.0
 10
8.350957205016122
 20
0.5364174069826273
 30
0.0
 10
8.277247036413037
 20
0.5364174069826273
 30
0.0
  0
SPLINE
  5
105
330
1F
100
AcDbEntity
  8
WIRE C - 2D
 62
     7
100
AcDbSpline
210
0.0
220
0.0
230
1.0
 70
    12
 71
     2
 72
     6
 73
     3
 74
     0
 42
0.0000000001
 43
0.0000000001
 40
0.0
 40
0.0
 40
0.0
 40
0.9789089754070674
 40
0.9789089754070674
 40
0.9789089754070674
 10
7.547861320186701
 20
0.5887500052037158
 30
0.0
 41
1.0
 10
7.483694262148433
 20
1.074113158109013
 30
0.0
 41
0.9995960245846386
 10
7.446673876331292
 20
1.568996852752859
 30
0.0
 41
1.0
  0
SPLINE
  5
106
330
1F
100
AcDbEntity
  8
WIRE C - 2D
 62
     7
100
AcDbSpline
210
0.0
220
0.0
230
1.0
 70
    24
 71
     2
 72
     6
 73
     3
 74
     0
 42
0.0000000001
 43
0.0000000001
 40
0.0
 40
0.0
 40
0.0
 40
9.795792552668884
 40
9.795792552668884
 40
9.795792552668884
 10
7.446673876331292
 20
1.568996852752859
 30
0.0
 10
7.054255339616075
 20
6.454498428982835
 30
0.0
 10
6.66183680290086
 20
11.34000000521281
 30
0.0
  0
SPLINE
  5
107
330
1F
100
AcDbEntity
  8
WIRE C - 2D
 62
     7
100
AcDbSpline
210
0.0
220
0.0
230
1.0
 70
    24
 71
     2
 72
     6
 73
     3
 74
     0
 42
0.0000000001
 43
0.0000000001
 40
0.0
 40
0.0
 40
0.0
 40
9.848495224809696
 40
9.848495224809696
 40
9.848495224809696
 10
6.8675294084272
 20
11.34363883121473
 30
0.0
 10
7.317752628139248
 20
6.440016333437509
 30
0.0
 10
7.767975847851297
 20
1.536393835660284
 30
0.0
  0
LINE
  5
108
330
1F
100
AcDbEntity
  8
WIRE C - 2D
 62
     7
100
AcDbLine
 10
6.868252252800321
 20
11.34000000521272
 30
0.0
 11
7.768675643804855
 21
1.528766860594398
 31
0.0
  0
ARC
  5
109
330
1F
100
AcDbEntity
  8
WIRE C - 2D
 62
     7
100
AcDbCircle
 10
-12.2293729617194
 20
-0.4189273430522583
 30
0.0
 40
20.09267181685475
100
AcDbArc
 50
2.874674390754824
 51
5.562732939062642
  0
ARC
  5
10A
330
1F
100
AcDbEntity
  8
WIRE C - 2D
 62
     7
100
AcDbCircle
 10
5.892192851809774
 20
0.4910411941231316
 30
0.0
 40
1.94827350021944
100
AcDbArc
 50
358.607698340745
 51
2.874674390754434
  0
SPLINE
  5
10B
330
1F
100
AcDbEntity
  8
WIRE C - 2D
 62
     7
100
AcDbSpline
210
0.0
220
0.0
230
1.0
 70
     8
 71
     3
 72
    20
 73
    16
 74
     0
 42
0.0000000001
 43
0.0000000001
 40
0.0
 40
0.0
 40
0.0
 40
0.0
 40
1.0
 40
2.0
 40
3.0
 40
4.0
 40
5.0
 40
6.0
 40
7.0
 40
8.0
 40
9.0
 40
10.0
 40
11.0
 40
12.0
 40
13.0
 40
13.0
 40
13.0
 40
13.0
 10
7.839891150577754
 20
0.4437023239040367
 30
0.0
 10
7.822464323911681
 20
0.3962010225385427
 30
0.0
 10
7.824258289045225
 20
0.2893180333340791
 30
0.0
 10
7.926361438346406
 20
0.1657066915780911
 30
0.0
 10
8.084591794946975
 20
0.1358604238691768
 30
0.0
 10
8.224302191077218
 20
0.2164971271868669
 30
0.0
 10
8.283728343723903
 20
0.3613319334677599
 30
0.0
 10
8.277765237070335
 20
0.5141712832762698
 30
0.0
 10
8.271474919944767
 20
0.6649620891408347
 30
0.0
 10
8.263574507415116
 20
0.8162245645920176
 30
0.0
 10
8.254415343356122
 20
0.9672685276934881
 30
0.0
 10
8.243904151262768
 20
1.118264186089766
 30
0.0
 10
8.232066942620689
 20
1.269150966729052
 30
0.0
 10
8.218897865462619
 20
1.419930257252229
 30
0.0
 10
8.209232516792083
 20
1.520367853184232
 30
0.0
 10
8.204178400382183
 20
1.570564503453452
 30
0.0
  0
ARC
  5
10C
330
1F
100
AcDbEntity
  8
WIRE C - 2D
 62
     7
100
AcDbCircle
 10
5.447968437500463
 20
21.77661648836414
 30
0.0
 40
0.4248924615796148
100
AcDbArc
 50
328.680889878834
 51
350.3680669503914
  0
ARC
  5
10D
330
1F
100
AcDbEntity
  8
WIRE C - 2D
 62
     7
100
AcDbCircle
 10
5.899905884166592
 20
21.46132565010955
 30
0.0
 40
0.3070523877814964
100
AcDbArc
 50
173.6185375345848
 51
281.851670805799
  0
LINE
  5
10E
330
1F
100
AcDbEntity
  8
WIRE C - 2D
 62
     7
100
AcDbLine
 10
8.204178400382183
 20
1.570564503453452
 30
0.0
 11
6.434584012331563
 21
20.84417697961976
 31
0.0
  0
LINE
  5
10F
330
1F
100
AcDbEntity
  8
WIRE C - 2D
 62
     7
100
AcDbLine
 10
5.998270998050711
 20
20.81336739852833
 30
0.0
 11
5.999278654893793
 21
20.8023973468229
 31
0.0
  0
LINE
  5
110
330
1F
100
AcDbEntity
  8
WIRE C - 2D
 62
     7
100
AcDbLine
 10
5.999278654893793
 20
20.8023973468229
 30
0.0
 11
6.829870324267997
 21
11.76000000521276
 31
0.0
  0
SPLINE
  5
111
330
1F
100
AcDbEntity
  8
WIRE C - 2D
 62
     7
100
AcDbSpline
210
0.0
220
0.0
230
1.0
 70
     8
 71
     3
 72
    20
 73
    16
 74
     0
 42
0.0000000001
 43
0.0000000001
 40
0.0
 40
0.0
 40
0.0
 40
0.0
 40
1.0
 40
2.0
 40
3.0
 40
4.0
 40
5.0
 40
6.0
 40
7.0
 40
8.0
 40
9.0
 40
10.0
 40
11.0
 40
12.0
 40
13.0
 40
13.0
 40
13.0
 40
13.0
 10
6.434584012331563
 20
20.84417697961976
 30
0.0
 10
6.43039778941954
 20
20.88729629344111
 30
0.0
 10
6.422117851885388
 20
20.97354406099771
 30
0.0
 10
6.409401189013693
 20
21.10288648642124
 30
0.0
 10
6.395869870959001
 20
21.23214898385532
 30
0.0
 10
6.380831093237257
 20
21.36124062242658
 30
0.0
 10
6.364234090465824
 20
21.4901593612109
 30
0.0
 10
6.343625965181748
 20
21.61847583997051
 30
0.0
 10
6.325756733625115
 20
21.74726228868923
 30
0.0
 10
6.270441910631036
 20
21.86916936881319
 30
0.0
 10
6.153815754308724
 20
21.93908819720884
 30
0.0
 10
6.018524945318946
 20
21.93513217150113
 30
0.0
 10
5.909050532763611
 20
21.85473749418619
 30
0.0
 10
5.860190737176699
 20
21.72891276596131
 30
0.0
 10
5.875757302327795
 20
21.64022207902102
 30
0.0
 10
5.8967469341464
 20
21.60209724991784
 30
0.0
  0
LINE
  5
112
330
1F
100
AcDbEntity
  8
WIRE C - 2D
 62
     7
100
AcDbLine
 10
5.8967469341464
 20
21.60209724991784
 30
0.0
 11
5.903865807718604
 21
21.58916677830727
 31
0.0
  0
SPLINE
  5
113
330
1F
100
AcDbEntity
  8
WIRE C - 2D
 62
     7
100
AcDbSpline
210
0.0
220
0.0
230
1.0
 70
    12
 71
     2
 72
     6
 73
     3
 74
     0
 42
0.0000000001
 43
0.0000000001
 40
0.0442911243198943
 40
0.0442911243198943
 40
0.0442911243198943
 40
0.8371014007952267
 40
0.8371014007952267
 40
0.8371014007952267
 10
5.903865807718605
 20
21.58916677830727
 30
0.0
 41
0.9998740347095225
 10
5.970169996545835
 20
21.19803560464174
 30
0.0
 41
0.9988096292120655
 10
5.999081212764207
 20
20.80237921072671
 30
0.0
 41
1.0
  0
LINE
  5
114
330
1F
100
AcDbEntity
  8
WIRE C - 2D
 62
     7
100
AcDbLine
 10
6.628101134949356
 20
11.76000000521281
 30
0.0
 11
5.87343291039859
 21
21.15541659417594
 31
0.0
  0
LINE
  5
115
330
1F
100
AcDbEntity
  8
WIRE C - 2D
 62
     7
100
AcDbLine
 10
5.411719941366118
 20
21.43931914082137
 30
0.0
 11
6.189212594729236
 21
11.75974454689542
 31
0.0
  0
SPLINE
  5
116
330
1F
100
AcDbEntity
  8
WIRE C - 2D
 62
     7
100
AcDbSpline
210
0.0
220
0.0
230
1.0
 70
     8
 71
     3
 72
    51
 73
    47
 74
     0
 42
0.0000000001
 43
0.0000000001
 40
-43.85722467705094
 40
-43.85722467705094
 40
-43.85722467705094
 40
-43.85722467705094
 40
-43.0
 40
-42.0
 40
-41.0
 40
-40.0
 40
-39.0
 40
-38.0
 40
-37.0
 40
-36.0
 40
-35.0
 40
-34.0
 40
-33.0
 40
-32.0
 40
-31.0
 40
-30.0
 40
-29.0
 40
-28.0
 40
-27.0
 40
-26.0
 40
-25.0
 40
-24.0
 40
-23.0
 40
-22.0
 40
-21.0
 40
-20.0
 40
-19.0
 40
-18.0
 40
-17.0
 40
-16.0
 40
-15.0
 40
-14.0
 40
-13.0
 40
-12.0
 40
-11.0
 40
-10.0
 40
-9.0
 40
-8.0
 40
-7.0
 40
-6.0
 40
-5.0
 40
-4.0
 40
-3.0
 40
-2.0
 40
-1.0
 40
0.0
 40
0.0
 40
0.0
 40
0.0
 10
6.324437603836745
 20
21.72791508059256
 30
0.0
 10
6.429959482206165
 20
21.76509628524252
 30
0.0
 10
6.657526972391521
 20
21.84863913754888
 30
0.0
 10
7.003675285659519
 20
21.98749432306595
 30
0.0
 10
7.362045286656457
 20
22.14536924336625
 30
0.0
 10
7.714649974960011
 20
22.31574074622527
 30
0.0
 10
8.060786086502446
 20
22.49891711845662
 30
0.0
 10
8.399248825955587
 20
22.69594545525438
 30
0.0
 10
8.728706902985797
 20
22.90771014925699
 30
0.0
 10
9.047404442474694
 20
23.13543441268102
 30
0.0
 10
9.354579598064422
 20
23.37819880755222
 30
0.0
 10
9.641760432204766
 20
23.64628527419832
 30
0.0
 10
9.912929622142864
 20
23.92283990109899
 30
0.0
 10
10.11836039642719
 20
24.28826751545534
 30
0.0
 10
9.858813582643943
 20
24.66942160638019
 30
0.0
 10
9.442265929626721
 20
24.65354987542975
 30
0.0
 10
9.085317097922957
 20
24.82962793509542
 30
0.0
 10
8.793611675859493
 20
25.09405760864491
 30
0.0
 10
8.561532922777147
 20
25.41112559306695
 30
0.0
 10
8.365234557419072
 20
25.75014456600859
 30
0.0
 10
8.193031811769027
 20
26.10194734693484
 30
0.0
 10
8.028014066947419
 20
26.45699634807176
 30
0.0
 10
7.858532517956799
 20
26.80998383949179
 30
0.0
 10
7.679988257080446
 20
27.15852000736929
 30
0.0
 10
7.486247272039521
 20
27.49890315750462
 30
0.0
 10
7.275552208319125
 20
27.82909727343474
 30
0.0
 10
7.045029413077562
 20
28.14589270859018
 30
0.0
 10
6.788259487248729
 20
28.44211430324717
 30
0.0
 10
6.500059435273349
 20
28.7082594634986
 30
0.0
 10
6.179574612271189
 20
28.9346339173112
 30
0.0
 10
5.832605043816715
 20
29.11801666856933
 30
0.0
 10
5.463556028688783
 20
29.25142136427055
 30
0.0
 10
5.081570799909223
 20
29.33960372762403
 30
0.0
 10
4.694030215638056
 20
29.39701160392688
 30
0.0
 10
4.303998086093377
 20
29.43207929242979
 30
0.0
 10
3.913472192273591
 20
29.4603209985418
 30
0.0
 10
3.522588021805794
 20
29.48321384385418
 30
0.0
 10
3.131559548384061
 20
29.50335447054505
 30
0.0
 10
2.740386771669805
 20
29.52049942525836
 30
0.0
 10
2.34910273499007
 20
29.53486734188984
 30
0.0
 10
1.957730831972967
 20
29.54659941637654
 30
0.0
 10
1.566295670812684
 20
29.55596719145928
 30
0.0
 10
1.174816154031739
 20
29.56321656677098
 30
0.0
 10
0.7833067220361694
 20
29.56860043631904
 30
0.0
 10
0.3917786852919519
 20
29.57236978967969
 30
0.0
 10
0.1307527955948935
 20
29.57397395988338
 30
0.0
 10
0.0002393015893762
 20
29.57459072504031
 30
0.0
  0
SPLINE
  5
117
330
1F
100
AcDbEntity
  8
WIRE C - 2D
 62
     7
100
AcDbSpline
210
0.0
220
0.0
230
1.0
 70
     8
 71
     3
 72
    51
 73
    47
 74
     0
 42
0.0000000001
 43
0.0000000001
 40
0.0
 40
0.0
 40
0.0
 40
0.0
 40
1.0
 40
2.0
 40
3.0
 40
4.0
 40
5.0
 40
6.0
 40
7.0
 40
8.0
 40
9.0
 40
10.0
 40
11.0
 40
12.0
 40
13.0
 40
14.0
 40
15.0
 40
16.0
 40
17.0
 40
18.0
 40
19.0
 40
20.0
 40
21.0
 40
22.0
 40
23.0
 40
24.0
 40
25.0
 40
26.0
 40
27.0
 40
28.0
 40
29.0
 40
30.0
 40
31.0
 40
32.0
 40
33.0
 40
34.0
 40
35.0
 40
36.0
 40
37.0
 40
38.0
 40
39.0
 40
40.0
 40
41.0
 40
42.0
 40
43.0
 40
43.8560337437231
 40
43.8560337437231
 40
43.8560337437231
 40
43.8560337437231
 10
0.0002393015893762
 20
29.57459072504031
 30
0.0
 10
-0.130274192416141
 20
29.57397395988338
 30
0.0
 10
-0.3913000821131994
 20
29.57236978967969
 30
0.0
 10
-0.7828281188574169
 20
29.56860043631904
 30
0.0
 10
-1.174337550852987
 20
29.56321656677098
 30
0.0
 10
-1.565817067633931
 20
29.55596719145928
 30
0.0
 10
-1.957252228794214
 20
29.54659941637654
 30
0.0
 10
-2.348624131811318
 20
29.53486734188984
 30
0.0
 10
-2.739908168491053
 20
29.52049942525836
 30
0.0
 10
-3.131080945205309
 20
29.50335447054505
 30
0.0
 10
-3.522109418627041
 20
29.48321384385418
 30
0.0
 10
-3.912993589094839
 20
29.4603209985418
 30
0.0
 10
-4.303519482914624
 20
29.43207929242979
 30
0.0
 10
-4.693551612459303
 20
29.39701160392688
 30
0.0
 10
-5.081092196730471
 20
29.33960372762403
 30
0.0
 10
-5.463077425510031
 20
29.25142136427055
 30
0.0
 10
-5.832126440637962
 20
29.11801666856933
 30
0.0
 10
-6.179096009092437
 20
28.9346339173112
 30
0.0
 10
-6.499580832094597
 20
28.7082594634986
 30
0.0
 10
-6.787780884069976
 20
28.44211430324717
 30
0.0
 10
-7.044550809898809
 20
28.14589270859018
 30
0.0
 10
-7.275073605140372
 20
27.82909727343474
 30
0.0
 10
-7.485768668860769
 20
27.49890315750462
 30
0.0
 10
-7.679509653901693
 20
27.15852000736929
 30
0.0
 10
-7.858053914778046
 20
26.80998383949179
 30
0.0
 10
-8.027535463768666
 20
26.45699634807176
 30
0.0
 10
-8.192553208590274
 20
26.10194734693484
 30
0.0
 10
-8.36475595424032
 20
25.75014456600859
 30
0.0
 10
-8.561054319598394
 20
25.41112559306695
 30
0.0
 10
-8.79313307268074
 20
25.09405760864491
 30
0.0
 10
-9.084838494744204
 20
24.82962793509542
 30
0.0
 10
-9.441787326447969
 20
24.65354987542975
 30
0.0
 10
-9.85833497946519
 20
24.66942160638019
 30
0.0
 10
-10.11788179324844
 20
24.28826751545534
 30
0.0
 10
-9.912451018964111
 20
23.92283990109899
 30
0.0
 10
-9.641281829026013
 20
23.64628527419832
 30
0.0
 10
-9.35410099488567
 20
23.37819880755222
 30
0.0
 10
-9.046925839295941
 20
23.13543441268102
 30
0.0
 10
-8.728228299807045
 20
22.90771014925699
 30
0.0
 10
-8.398770222776834
 20
22.69594545525438
 30
0.0
 10
-8.060307483323694
 20
22.49891711845662
 30
0.0
 10
-7.714171371781259
 20
22.31574074622527
 30
0.0
 10
-7.361566683477704
 20
22.14536924336625
 30
0.0
 10
-7.003196682480766
 20
21.98749432306595
 30
0.0
 10
-6.65719264892796
 20
21.84869701443532
 30
0.0
 10
-6.429772730337947
 20
21.76520343063227
 30
0.0
 10
-6.324398799191836
 20
21.72807005496042
 30
0.0
  0
SPLINE
  5
118
330
1F
100
AcDbEntity
  8
WIRE C - 2D
 62
     7
100
AcDbSpline
210
0.0
220
0.0
230
1.0
 70
     8
 71
     3
 72
    19
 73
    15
 74
     0
 42
0.0000000001
 43
0.0000000001
 40
45.23194517254768
 40
45.23194517254768
 40
45.23194517254768
 40
45.23194517254768
 40
46.0
 40
47.0
 40
48.0
 40
49.0
 40
50.0
 40
51.0
 40
52.0
 40
53.0
 40
54.0
 40
55.0
 40
56.0
 40
57.0
 40
57.0
 40
57.0
 40
57.0
 10
-5.812912158831799
 20
21.55901666261039
 30
0.0
 10
-5.717185835462321
 20
21.52926819780766
 30
0.0
 10
-5.496209463609114
 20
21.4627678126227
 30
0.0
 10
-5.14857570576705
 20
21.3643746721015
 30
0.0
 10
-4.76997229697604
 20
21.26450328122946
 30
0.0
 10
-4.389903069964961
 20
21.17031007725789
 30
0.0
 10
-4.007615030719556
 20
21.08550734145795
 30
0.0
 10
-3.623022912735156
 20
21.01183637213645
 30
0.0
 10
-3.236718713071893
 20
20.94782183096123
 30
0.0
 10
-2.849030722466691
 20
20.89281914984623
 30
0.0
 10
-2.460276605277937
 20
20.84598746006
 30
0.0
 10
-2.070705100908299
 20
20.80656209476624
 30
0.0
 10
-1.680511598002422
 20
20.77388321209922
 30
0.0
 10
-1.420051646631417
 20
20.75649673634303
 30
0.0
 10
-1.289760698380045
 20
20.74885046569353
 30
0.0
  0
SPLINE
  5
119
330
1F
100
AcDbEntity
  8
WIRE C - 2D
 62
     7
100
AcDbSpline
210
0.0
220
0.0
230
1.0
 70
     8
 71
     3
 72
     8
 73
     4
 74
     0
 42
0.0000000001
 43
0.0000000001
 40
0.0
 40
0.0
 40
0.0
 40
0.0
 40
1.0
 40
1.0
 40
1.0
 40
1.0
 10
-1.289760698380045
 20
20.74885046569353
 30
0.0
 10
-0.5999932144037127
 20
20.7083706861041
 30
0.0
 10
0.6004718175824646
 20
20.70837068610411
 30
0.0
 10
1.290239301558797
 20
20.74885046569353
 30
0.0
  0
SPLINE
  5
11A
330
1F
100
AcDbEntity
  8
WIRE C - 2D
 62
     7
100
AcDbSpline
210
0.0
220
0.0
230
1.0
 70
     8
 71
     3
 72
    19
 73
    15
 74
     0
 42
0.0000000001
 43
0.0000000001
 40
-57.0
 40
-57.0
 40
-57.0
 40
-57.0
 40
-56.0
 40
-55.0
 40
-54.0
 40
-53.0
 40
-52.0
 40
-51.0
 40
-50.0
 40
-49.0
 40
-48.0
 40
-47.0
 40
-46.0
 40
-45.23351648505673
 40
-45.23351648505673
 40
-45.23351648505673
 40
-45.23351648505673
 10
1.290239301558797
 20
20.74885046569353
 30
0.0
 10
1.42053024981017
 20
20.75649673634303
 30
0.0
 10
1.680990201181175
 20
20.77388321209922
 30
0.0
 10
2.071183704087051
 20
20.80656209476624
 30
0.0
 10
2.460755208456689
 20
20.84598746006
 30
0.0
 10
2.849509325645444
 20
20.89281914984623
 30
0.0
 10
3.237197316250645
 20
20.94782183096123
 30
0.0
 10
3.623501515913908
 20
21.01183637213645
 30
0.0
 10
4.008093633898309
 20
21.08550734145795
 30
0.0
 10
4.390381673143714
 20
21.17031007725789
 30
0.0
 10
4.770450900154793
 20
21.26450328122946
 30
0.0
 10
5.149054308945803
 20
21.3643746721015
 30
0.0
 10
5.496490729196556
 20
21.46271195882567
 30
0.0
 10
5.717271663848387
 20
21.52914999973518
 30
0.0
 10
5.81280323821769
 20
21.55883409216815
 30
0.0
  0
ENDSEC
  0
SECTION
  2
OBJECTS
  0
DICTIONARY
  5
C
330
0
100
AcDbDictionary
281
     1
  3
ACAD_GROUP
350
D
  3
ACAD_LAYOUT
350
1A
  3
ACAD_MLEADERSTYLE
350
11C
  3
ACAD_MLINESTYLE
350
17
  3
ACAD_PLOTSETTINGS
350
19
  3
ACAD_PLOTSTYLENAME
350
E
  3
ACAD_TABLESTYLE
350
11B
  3
ACAD_VISUALSTYLE
350
2A
  0
DICTIONARY
  5
D
102
{ACAD_REACTORS
330
C
102
}
330
C
100
AcDbDictionary
281
     1
  0
DICTIONARY
  5
1A
102
{ACAD_REACTORS
330
C
102
}
330
C
100
AcDbDictionary
281
     1
  3
Layout1
350
1E
  3
Layout2
350
26
  3
Model
350
22
  0
DICTIONARY
  5
11C
102
{ACAD_REACTORS
330
C
102
}
330
C
100
AcDbDictionary
281
     1
  0
DICTIONARY
  5
17
102
{ACAD_REACTORS
330
C
102
}
330
C
100
AcDbDictionary
281
     1
  3
Standard
350
18
  0
DICTIONARY
  5
19
102
{ACAD_REACTORS
330
C
102
}
330
C
100
AcDbDictionary
281
     1
  0
ACDBDICTIONARYWDFLT
  5
E
102
{ACAD_REACTORS
330
C
102
}
330
C
100
AcDbDictionary
281
     1
  3
Normal
350
F
100
AcDbDictionaryWithDefault
340
F
  0
DICTIONARY
  5
11B
102
{ACAD_REACTORS
330
C
102
}
330
C
100
AcDbDictionary
281
     1
  0
DICTIONARY
  5
2A
102
{ACAD_REACTORS
330
C
102
}
330
C
100
AcDbDictionary
281
     1
  3
2dWireframe
350
2F
  3
3D Hidden
350
31
  3
3dWireframe
350
30
  3
Basic
350
32
  3
Brighten
350
36
  3
ColorChange
350
3A
  3
Conceptual
350
34
  3
Dim
350
35
  3
Facepattern
350
39
  3
Flat
350
2B
  3
FlatWithEdges
350
2C
  3
Gouraud
350
2D
  3
GouraudWithEdges
350
2E
  3
Linepattern
350
38
  3
Realistic
350
33
  3
Thicken
350
37
  0
LAYOUT
  5
1E
102
{ACAD_REACTORS
330
1A
102
}
330
1A
100
AcDbPlotSettings
  1

  2
none_device
  4

  6

 40
0.0
 41
0.0
 42
0.0
 43
0.0
 44
0.0
 45
0.0
 46
0.0
 47
0.0
 48
0.0
 49
0.0
140
0.0
141
0.0
142
1.0
143
1.0
 70
   688
 72
     0
 73
     0
 74
     5
  7

 75
    16
 76
     0
 77
     2
 78
   300
147
1.0
148
0.0
149
0.0
100
AcDbLayout
  1
Layout1
 70
     1
 71
     1
 10
0.0
 20
0.0
 11
12.0
 21
9.0
 12
0.0
 22
0.0
 32
0.0
 14
1.000000000000000E+20
 24
1.000000000000000E+20
 34
1.000000000000000E+20
 15
-1.000000000000000E+20
 25
-1.000000000000000E+20
 35
-1.000000000000000E+20
146
0.0
 13
0.0
 23
0.0
 33
0.0
 16
1.0
 26
0.0
 36
0.0
 17
0.0
 27
1.0
 37
0.0
 76
     0
330
1B
  0
LAYOUT
  5
26
102
{ACAD_REACTORS
330
1A
102
}
330
1A
100
AcDbPlotSettings
  1

  2
none_device
  4

  6

 40
0.0
 41
0.0
 42
0.0
 43
0.0
 44
0.0
 45
0.0
 46
0.0
 47
0.0
 48
0.0
 49
0.0
140
0.0
141
0.0
142
1.0
143
1.0
 70
   688
 72
     0
 73
     0
 74
     5
  7

 75
    16
 76
     0
 77
     2
 78
   300
147
1.0
148
0.0
149
0.0
100
AcDbLayout
  1
Layout2
 70
     1
 71
     2
 10
0.0
 20
0.0
 11
0.0
 21
0.0
 12
0.0
 22
0.0
 32
0.0
 14
0.0
 24
0.0
 34
0.0
 15
0.0
 25
0.0
 35
0.0
146
0.0
 13
0.0
 23
0.0
 33
0.0
 16
1.0
 26
0.0
 36
0.0
 17
0.0
 27
1.0
 37
0.0
 76
     0
330
23
  0
LAYOUT
  5
22
102
{ACAD_REACTORS
330
1A
102
}
330
1A
100
AcDbPlotSettings
  1

  2
none_device
  4

  6

 40
0.0
 41
0.0
 42
0.0
 43
0.0
 44
0.0
 45
0.0
 46
0.0
 47
0.0
 48
0.0
 49
0.0
140
0.0
141
0.0
142
1.0
143
1.0
 70
  1712
 72
     0
 73
     0
 74
     0
  7

 75
     0
 76
     0
 77
     2
 78
   300
147
1.0
148
0.0
149
0.0
100
AcDbLayout
  1
Model
 70
     1
 71
     0
 10
0.0
 20
0.0
 11
12.0
 21
9.0
 12
0.0
 22
0.0
 32
0.0
 14
-10.04038552857051
 24
0.0
 34
0.0
 15
42.09857021603862
 25
61.11842143696737
 35
0.0
146
0.0
 13
0.0
 23
0.0
 33
0.0
 16
1.0
 26
0.0
 36
0.0
 17
0.0
 27
1.0
 37
0.0
 76
     0
330
1F
331
29
  0
MLINESTYLE
  5
18
102
{ACAD_REACTORS
330
17
102
}
330
17
100
AcDbMlineStyle
  2
Standard
 70
     0
  3

 62
   256
 51
90.0
 52
90.0
 71
     2
 49
0.5
 62
   256
  6
BYLAYER
 49
-0.5
 62
   256
  6
BYLAYER
  0
ACDBPLACEHOLDER
  5
F
102
{ACAD_REACTORS
330
E
102
}
330
E
  0
VISUALSTYLE
  5
2F
102
{ACAD_REACTORS
330
2A
102
}
330
2A
100
AcDbVisualStyle
  2
2dWireframe
 70
     4
 71
     0
 72
     2
 73
     0
 90
        0
 40
-0.6
 41
-30.0
 62
     5
 63
     7
421
 16777215
 74
     1
 91
        4
 64
     7
 65
   257
 75
     1
175
     1
 42
1.0
 92
        0
 66
   257
 43
1.0
 76
     1
 77
     6
 78
     2
 67
     7
 79
     5
170
     0
171
     0
290
     0
174
     0
 93
        1
 44
0.0
173
     0
291
     0
 45
0.0
1001
ACAD
1000
AcDbSavedByObjectVersion
1070
     0
  0
VISUALSTYLE
  5
31
102
{ACAD_REACTORS
330
2A
102
}
330
2A
100
AcDbVisualStyle
  2
3D Hidden
 70
     6
 71
     1
 72
     2
 73
     2
 90
        0
 40
-0.6
 41
-30.0
 62
     5
 63
     7
421
 16777215
 74
     2
 91
        2
 64
     7
 65
   257
 75
     2
175
     1
 42
40.0
 92
        0
 66
   257
 43
1.0
 76
     1
 77
     6
 78
     2
 67
     7
 79
     3
170
     0
171
     0
290
     0
174
     0
 93
        1
 44
0.0
173
     0
291
     0
 45
0.0
1001
ACAD
1000
AcDbSavedByObjectVersion
1070
     0
  0
VISUALSTYLE
  5
30
102
{ACAD_REACTORS
330
2A
102
}
330
2A
100
AcDbVisualStyle
  2
3dWireframe
 70
     5
 71
     0
 72
     2
 73
     0
 90
        0
 40
-0.6
 41
-30.0
 62
     5
 63
     7
421
 16777215
 74
     1
 91
        4
 64
     7
 65
   257
 75
     1
175
     1
 42
1.0
 92
        0
 66
   257
 43
1.0
 76
     1
 77
     6
 78
     2
 67
     7
 79
     5
170
     0
171
     0
290
     0
174
     0
 93
        1
 44
0.0
173
     0
291
     0
 45
0.0
1001
ACAD
1000
AcDbSavedByObjectVersion
1070
     0
  0
VISUALSTYLE
  5
32
102
{ACAD_REACTORS
330
2A
102
}
330
2A
100
AcDbVisualStyle
  2
Basic
 70
     7
 71
     1
 72
     0
 73
     1
 90
        0
 40
-0.6
 41
-30.0
 62
     5
 63
     7
421
 16777215
 74
     0
 91
        4
 64
     7
 65
   257
 75
     1
175
     1
 42
1.0
 92
        8
 66
     7
 43
1.0
 76
     1
 77
     6
 78
     2
 67
     7
 79
     5
170
     0
171
     0
290
     0
174
     0
 93
        1
 44
0.0
173
     0
291
     1
 45
0.0
1001
ACAD
1000
AcDbSavedByObjectVersion
1070
     0
  0
VISUALSTYLE
  5
36
102
{ACAD_REACTORS
330
2A
102
}
330
2A
100
AcDbVisualStyle
  2
Brighten
 70
    12
 71
     2
 72
     2
 73
     0
 90
        0
 40
-0.6
 41
-30.0
 62
     5
 63
     7
421
 16777215
 74
     1
 91
        4
 64
     7
 65
   257
 75
     1
175
     1
 42
1.0
 92
        8
 66
     7
 43
1.0
 76
     1
 77
     6
 78
     2
 67
     7
 79
     5
170
     0
171
     0
290
     0
174
     0
 93
        1
 44
50.0
173
     0
291
     1
 45
0.0
1001
ACAD
1000
AcDbSavedByObjectVersion
1070
     0
  0
VISUALSTYLE
  5
3A
102
{ACAD_REACTORS
330
2A
102
}
330
2A
100
AcDbVisualStyle
  2
ColorChange
 70
    16
 71
     2
 72
     2
 73
     3
 90
        0
 40
-0.6
 41
-30.0
 62
     5
 63
     8
421
  8421504
 74
     1
 91
        4
 64
     7
 65
   257
 75
     1
175
     1
 42
1.0
 92
        8
 66
     8
424
  8421504
 43
1.0
 76
     1
 77
     6
 78
     2
 67
     7
 79
     5
170
     0
171
     0
290
     0
174
     0
 93
        1
 44
0.0
173
     0
291
     1
 45
0.0
1001
ACAD
1000
AcDbSavedByObjectVersion
1070
     0
  0
VISUALSTYLE
  5
34
102
{ACAD_REACTORS
330
2A
102
}
330
2A
100
AcDbVisualStyle
  2
Conceptual
 70
     9
 71
     3
 72
     2
 73
     0
 90
        0
 40
-0.6
 41
-30.0
 62
     5
 63
     7
421
 16777215
 74
     2
 91
        2
 64
     7
 65
   257
 75
     1
175
     1
 42
40.0
 92
        8
 66
     7
 43
1.0
 76
     1
 77
     6
 78
     2
 67
     7
 79
     3
170
     0
171
     0
290
     0
174
     0
 93
        1
 44
0.0
173
     0
291
     0
 45
0.0
1001
ACAD
1000
AcDbSavedByObjectVersion
1070
     0
  0
VISUALSTYLE
  5
35
102
{ACAD_REACTORS
330
2A
102
}
330
2A
100
AcDbVisualStyle
  2
Dim
 70
    11
 71
     2
 72
     2
 73
     0
 90
        0
 40
-0.6
 41
-30.0
 62
     5
 63
     7
421
 16777215
 74
     1
 91
        4
 64
     7
 65
   257
 75
     1
175
     1
 42
1.0
 92
        8
 66
     7
 43
1.0
 76
     1
 77
     6
 78
     2
 67
     7
 79
     5
170
     0
171
     0
290
     0
174
     0
 93
        1
 44
-50.0
173
     0
291
     1
 45
0.0
1001
ACAD
1000
AcDbSavedByObjectVersion
1070
     0
  0
VISUALSTYLE
  5
39
102
{ACAD_REACTORS
330
2A
102
}
330
2A
100
AcDbVisualStyle
  2
Facepattern
 70
    15
 71
     2
 72
     2
 73
     0
 90
        0
 40
-0.6
 41
-30.0
 62
     5
 63
     7
421
 16777215
 74
     1
 91
        4
 64
     7
 65
   257
 75
     1
175
     1
 42
1.0
 92
        8
 66
     7
 43
1.0
 76
     1
 77
     6
 78
     2
 67
     7
 79
     5
170
     0
171
     0
290
     0
174
     0
 93
        1
 44
0.0
173
     0
291
     1
 45
0.0
1001
ACAD
1000
AcDbSavedByObjectVersion
1070
     0
  0
VISUALSTYLE
  5
2B
102
{ACAD_REACTORS
330
2A
102
}
330
2A
100
AcDbVisualStyle
  2
Flat
 70
     0
 71
     2
 72
     1
 73
     1
 90
        2
 40
-0.6
 41
30.0
 62
     5
 63
     7
421
 16777215
 74
     0
 91
        4
 64
     7
 65
   257
 75
     1
175
     1
 42
1.0
 92
        8
 66
     7
 43
1.0
 76
     1
 77
     6
 78
     2
 67
     7
 79
     5
170
     0
171
     0
290
     0
174
     0
 93
       13
 44
0.0
173
     0
291
     1
 45
0.0
1001
ACAD
1000
AcDbSavedByObjectVersion
1070
     0
  0
VISUALSTYLE
  5
2C
102
{ACAD_REACTORS
330
2A
102
}
330
2A
100
AcDbVisualStyle
  2
FlatWithEdges
 70
     1
 71
     2
 72
     1
 73
     1
 90
        2
 40
-0.6
 41
30.0
 62
     5
 63
     7
421
 16777215
 74
     1
 91
        4
 64
     7
 65
   257
 75
     1
175
     1
 42
1.0
 92
        0
 66
   257
 43
1.0
 76
     1
 77
     6
 78
     2
 67
     7
 79
     5
170
     0
171
     0
290
     0
174
     0
 93
       13
 44
0.0
173
     0
291
     1
 45
0.0
1001
ACAD
1000
AcDbSavedByObjectVersion
1070
     0
  0
VISUALSTYLE
  5
2D
102
{ACAD_REACTORS
330
2A
102
}
330
2A
100
AcDbVisualStyle
  2
Gouraud
 70
     2
 71
     2
 72
     2
 73
     1
 90
        2
 40
-0.6
 41
30.0
 62
     5
 63
     7
421
 16777215
 74
     0
 91
        4
 64
     7
 65
   257
 75
     1
175
     1
 42
1.0
 92
        0
 66
     7
 43
1.0
 76
     1
 77
     6
 78
     2
 67
     7
 79
     5
170
     0
171
     0
290
     0
174
     0
 93
       13
 44
0.0
173
     0
291
     1
 45
0.0
1001
ACAD
1000
AcDbSavedByObjectVersion
1070
     0
  0
VISUALSTYLE
  5
2E
102
{ACAD_REACTORS
330
2A
102
}
330
2A
100
AcDbVisualStyle
  2
GouraudWithEdges
 70
     3
 71
     2
 72
     2
 73
     1
 90
        2
 40
-0.6
 41
30.0
 62
     5
 63
     7
421
 16777215
 74
     1
 91
        4
 64
     7
 65
   257
 75
     1
175
     1
 42
1.0
 92
        0
 66
   257
 43
1.0
 76
     1
 77
     6
 78
     2
 67
     7
 79
     5
170
     0
171
     0
290
     0
174
     0
 93
       13
 44
0.0
173
     0
291
     1
 45
0.0
1001
ACAD
1000
AcDbSavedByObjectVersion
1070
     0
  0
VISUALSTYLE
  5
38
102
{ACAD_REACTORS
330
2A
102
}
330
2A
100
AcDbVisualStyle
  2
Linepattern
 70
    14
 71
     2
 72
     2
 73
     0
 90
        0
 40
-0.6
 41
-30.0
 62
     5
 63
     7
421
 16777215
 74
     1
 91
        4
 64
     7
 65
   257
 75
     7
175
     7
 42
1.0
 92
        8
 66
     7
 43
1.0
 76
     1
 77
     6
 78
     2
 67
     7
 79
     5
170
     0
171
     0
290
     0
174
     0
 93
        1
 44
0.0
173
     0
291
     1
 45
0.0
1001
ACAD
1000
AcDbSavedByObjectVersion
1070
     0
  0
VISUALSTYLE
  5
33
102
{ACAD_REACTORS
330
2A
102
}
330
2A
100
AcDbVisualStyle
  2
Realistic
 70
     8
 71
     2
 72
     2
 73
     0
 90
        0
 40
-0.6
 41
-30.0
 62
     5
 63
     7
421
 16777215
 74
     1
 91
        0
 64
     7
 65
   257
 75
     1
175
     1
 42
1.0
 92
        8
 66
     8
424
  7895160
 43
1.0
 76
     1
 77
     6
 78
     2
 67
     7
 79
     5
170
     0
171
     0
290
     0
174
     0
 93
       13
 44
0.0
173
     0
291
     0
 45
0.0
1001
ACAD
1000
AcDbSavedByObjectVersion
1070
     0
  0
VISUALSTYLE
  5
37
102
{ACAD_REACTORS
330
2A
102
}
330
2A
100
AcDbVisualStyle
  2
Thicken
 70
    13
 71
     2
 72
     2
 73
     0
 90
        0
 40
-0.6
 41
-30.0
 62
     5
 63
     7
421
 16777215
 74
     1
 91
        4
 64
     7
 65
   257
 75
     1
175
     1
 42
1.0
 92
       12
 66
     7
 43
1.0
 76
     1
 77
     6
 78
     2
 67
     7
 79
     5
170
     0
171
     0
290
     0
174
     0
 93
        1
 44
0.0
173
     0
291
     1
 45
0.0
1001
ACAD
1000
AcDbSavedByObjectVersion
1070
     0
  0
ENDSEC
  0
EOF
